  0
SECTION
  2
HEADER
  9
$ACADVER
  1
AC1015
  9
$ACADMAINTVER
 70
     6
  9
$DWGCODEPAGE
  3
ANSI_1252
  9
$INSBASE
 10
0.0
 20
0.0
 30
0.0
  9
$EXTMIN
 10
0.0
 20
0.0
 30
0.0
  9
$EXTMAX
 10
2100.0
 20
1485.0
 30
0.0
  9
$LIMMIN
 10
0.0
 20
0.0
  9
$LIMMAX
 10
2100.0
 20
1485.0
  9
$ORTHOMODE
 70
     0
  9
$REGENMODE
 70
     1
  9
$FILLMODE
 70
     1
  9
$QTEXTMODE
 70
     0
  9
$MIRRTEXT
 70
     1
  9
$LTSCALE
 40
5.0
  9
$ATTMODE
 70
     1
  9
$TEXTSIZE
 40
12.5
  9
$TRACEWID
 40
1.0
  9
$TEXTSTYLE
  7
Standard
  9
$CLAYER
  8
0
  9
$CELTYPE
  6
ByLayer
  9
$CECOLOR
 62
   256
  9
$CELTSCALE
 40
1.0
  9
$DISPSILH
 70
     0
  9
$DIMSCALE
 40
1.0
  9
$DIMASZ
 40
12.5
  9
$DIMEXO
 40
0.0
  9
$DIMDLI
 40
3.75
  9
$DIMRND
 40
0.0
  9
$DIMDLE
 40
0.0
  9
$DIMEXE
 40
5.0
  9
$DIMTP
 40
0.0
  9
$DIMTM
 40
0.0
  9
$DIMTXT
 40
12.5
  9
$DIMCEN
 40
2.5
  9
$DIMTSZ
 40
0.0
  9
$DIMTOL
 70
     0
  9
$DIMLIM
 70
     0
  9
$DIMTIH
 70
     1
  9
$DIMTOH
 70
     1
  9
$DIMSE1
 70
     0
  9
$DIMSE2
 70
     0
  9
$DIMTAD
 70
     1
  9
$DIMZIN
 70
     0
  9
$DIMBLK
  1

  9
$DIMASO
 70
     1
  9
$DIMSHO
 70
     1
  9
$DIMPOST
  1

  9
$DIMAPOST
  1

  9
$DIMALT
 70
     0
  9
$DIMALTD
 70
     3
  9
$DIMALTF
 40
0.0393700787
  9
$DIMLFAC
 40
1.0
  9
$DIMTOFL
 70
     1
  9
$DIMTVP
 40
0.0
  9
$DIMTIX
 70
     0
  9
$DIMSOXD
 70
     0
  9
$DIMSAH
 70
     0
  9
$DIMBLK1
  1

  9
$DIMBLK2
  1

  9
$DIMSTYLE
  2
ISO-25
  9
$DIMCLRD
 70
     0
  9
$DIMCLRE
 70
     0
  9
$DIMCLRT
 70
     0
  9
$DIMTFAC
 40
1.0
  9
$DIMGAP
 40
7.62
  9
$DIMJUST
 70
     0
  9
$DIMSD1
 70
     0
  9
$DIMSD2
 70
     0
  9
$DIMTOLJ
 70
     0
  9
$DIMTZIN
 70
     0
  9
$DIMALTZ
 70
     0
  9
$DIMALTTZ
 70
     0
  9
$DIMUPT
 70
     0
  9
$DIMDEC
 70
     2
  9
$DIMTDEC
 70
     2
  9
$DIMALTU
 70
     2
  9
$DIMALTTD
 70
     3
  9
$DIMTXSTY
  7
Standard
  9
$DIMAUNIT
 70
     0
  9
$DIMADEC
 70
     2
  9
$DIMALTRND
 40
0.0
  9
$DIMAZIN
 70
     0
  9
$DIMDSEP
 70
    44
  9
$DIMATFIT
 70
     3
  9
$DIMFRAC
 70
     0
  9
$DIMLDRBLK
  1

  9
$DIMLUNIT
 70
     2
  9
$DIMLWD
 70
    -2
  9
$DIMLWE
 70
    -2
  9
$DIMTMOVE
 70
     0
  9
$LUNITS
 70
     2
  9
$LUPREC
 70
     1
  9
$SKETCHINC
 40
1.0
  9
$FILLETRAD
 40
10.0
  9
$AUNITS
 70
     0
  9
$AUPREC
 70
     2
  9
$MENU
  1
.
  9
$ELEVATION
 40
0.0
  9
$PELEVATION
 40
0.0
  9
$THICKNESS
 40
0.0
  9
$LIMCHECK
 70
     0
  9
$CHAMFERA
 40
0.0
  9
$CHAMFERB
 40
0.0
  9
$CHAMFERC
 40
0.0
  9
$CHAMFERD
 40
0.0
  9
$SKPOLY
 70
     0
  9
$TDCREATE
 40
2458906.672785312
  9
$TDUCREATE
 40
2458906.443618646
  9
$TDUPDATE
 40
2458906.672798542
  9
$TDUUPDATE
 40
2458906.443631875
  9
$TDINDWG
 40
0.0000000116
  9
$TDUSRTIMER
 40
0.0000000116
  9
$USRTIMER
 70
     1
  9
$ANGBASE
 50
0.0
  9
$ANGDIR
 70
     0
  9
$PDMODE
 70
     0
  9
$PDSIZE
 40
-1.0
  9
$PLINEWID
 40
0.0
  9
$SPLFRAME
 70
     0
  9
$SPLINETYPE
 70
     6
  9
$SPLINESEGS
 70
     8
  9
$HANDSEED
  5
396
  9
$SURFTAB1
 70
     6
  9
$SURFTAB2
 70
     6
  9
$SURFTYPE
 70
     6
  9
$SURFU
 70
     6
  9
$SURFV
 70
     6
  9
$UCSBASE
  2

  9
$UCSNAME
  2

  9
$UCSORG
 10
0.0
 20
0.0
 30
0.0
  9
$UCSXDIR
 10
1.0
 20
0.0
 30
0.0
  9
$UCSYDIR
 10
0.0
 20
1.0
 30
0.0
  9
$UCSORTHOREF
  2

  9
$UCSORTHOVIEW
 70
     0
  9
$UCSORGTOP
 10
0.0
 20
0.0
 30
0.0
  9
$UCSORGBOTTOM
 10
0.0
 20
0.0
 30
0.0
  9
$UCSORGLEFT
 10
0.0
 20
0.0
 30
0.0
  9
$UCSORGRIGHT
 10
0.0
 20
0.0
 30
0.0
  9
$UCSORGFRONT
 10
0.0
 20
0.0
 30
0.0
  9
$UCSORGBACK
 10
0.0
 20
0.0
 30
0.0
  9
$PUCSBASE
  2

  9
$PUCSNAME
  2

  9
$PUCSORG
 10
0.0
 20
0.0
 30
0.0
  9
$PUCSXDIR
 10
1.0
 20
0.0
 30
0.0
  9
$PUCSYDIR
 10
0.0
 20
1.0
 30
0.0
  9
$PUCSORTHOREF
  2

  9
$PUCSORTHOVIEW
 70
     0
  9
$PUCSORGTOP
 10
0.0
 20
0.0
 30
0.0
  9
$PUCSORGBOTTOM
 10
0.0
 20
0.0
 30
0.0
  9
$PUCSORGLEFT
 10
0.0
 20
0.0
 30
0.0
  9
$PUCSORGRIGHT
 10
0.0
 20
0.0
 30
0.0
  9
$PUCSORGFRONT
 10
0.0
 20
0.0
 30
0.0
  9
$PUCSORGBACK
 10
0.0
 20
0.0
 30
0.0
  9
$USERI1
 70
     0
  9
$USERI2
 70
     0
  9
$USERI3
 70
     0
  9
$USERI4
 70
     0
  9
$USERI5
 70
     0
  9
$USERR1
 40
0.0
  9
$USERR2
 40
0.0
  9
$USERR3
 40
0.0
  9
$USERR4
 40
0.0
  9
$USERR5
 40
0.0
  9
$WORLDVIEW
 70
     1
  9
$SHADEDGE
 70
     3
  9
$SHADEDIF
 70
    70
  9
$TILEMODE
 70
     1
  9
$MAXACTVP
 70
    64
  9
$PINSBASE
 10
0.0
 20
0.0
 30
0.0
  9
$PLIMCHECK
 70
     0
  9
$PEXTMIN
 10
1.0000000000E+20
 20
1.0000000000E+20
 30
1.0000000000E+20
  9
$PEXTMAX
 10
-1.0000000000E+20
 20
-1.0000000000E+20
 30
-1.0000000000E+20
  9
$PLIMMIN
 10
0.0
 20
0.0
  9
$PLIMMAX
 10
420.0
 20
297.0
  9
$UNITMODE
 70
     0
  9
$VISRETAIN
 70
     1
  9
$PLINEGEN
 70
     0
  9
$PSLTSCALE
 70
     1
  9
$TREEDEPTH
 70
  3020
  9
$CMLSTYLE
  2
Standard
  9
$CMLJUST
 70
     0
  9
$CMLSCALE
 40
20.0
  9
$PROXYGRAPHICS
 70
     1
  9
$MEASUREMENT
 70
     1
  9
$CELWEIGHT
370
    -1
  9
$ENDCAPS
280
     0
  9
$JOINSTYLE
280
     0
  9
$LWDISPLAY
290
     1
  9
$INSUNITS
 70
     4
  9
$HYPERLINKBASE
  1

  9
$STYLESHEET
  1

  9
$XEDIT
290
     1
  9
$CEPSNTYPE
380
     0
  9
$PSTYLEMODE
290
     1
  9
$FINGERPRINTGUID
  2
{5d9c410f-ad1d-40b8-a219-72ca28d4c132}
  9
$VERSIONGUID
  2
{FAEB1C32-E019-11D5-929B-00C0DF256EC4}
  9
$EXTNAMES
290
     1
  9
$PSVPSCALE
 40
0.0
  9
$OLESTARTUP
290
     0
  0
ENDSEC
  0
SECTION
  2
CLASSES
  0
CLASS
  1
ACDBDICTIONARYWDFLT
  2
AcDbDictionaryWithDefault
  3
ObjectDBX Classes
 90
        0
280
     0
281
     0
  0
CLASS
  1
VISUALSTYLE
  2
AcDbVisualStyle
  3
ObjectDBX Classes
 90
     4095
280
     0
281
     0
  0
CLASS
  1
MATERIAL
  2
AcDbMaterial
  3
ObjectDBX Classes
 90
     1153
280
     0
281
     0
  0
CLASS
  1
SCALE
  2
AcDbScale
  3
ObjectDBX Classes
 90
     1153
280
     0
281
     0
  0
CLASS
  1
TABLESTYLE
  2
AcDbTableStyle
  3
ObjectDBX Classes
 90
     4095
280
     0
281
     0
  0
CLASS
  1
MLEADERSTYLE
  2
AcDbMLeaderStyle
  3
ACDB_MLEADERSTYLE_CLASS
 90
     4095
280
     0
281
     0
  0
CLASS
  1
SUN
  2
AcDbSun
  3
SCENEOE
 90
     1153
280
     0
281
     0
  0
CLASS
  1
ACDBPLACEHOLDER
  2
AcDbPlaceHolder
  3
ObjectDBX Classes
 90
        0
280
     0
281
     0
  0
CLASS
  1
LAYOUT
  2
AcDbLayout
  3
ObjectDBX Classes
 90
        0
280
     0
281
     0
  0
ENDSEC
  0
SECTION
  2
TABLES
  0
TABLE
  2
VPORT
  5
8
330
0
100
AcDbSymbolTable
 70
     1
  0
VPORT
  5
29
330
8
100
AcDbSymbolTableRecord
100
AcDbViewportTableRecord
  2
*Active
 70
     0
 10
0.0
 20
0.0
 11
1.0
 21
1.0
 12
1050.0
 22
742.5
 13
0.0
 23
0.0
 14
10.0
 24
10.0
 15
10.0
 25
10.0
 16
0.0
 26
0.0
 36
1.0
 17
0.0
 27
0.0
 37
0.0
 40
1485.0
 41
1.4141414141
 42
50.0
 43
0.0
 44
0.0
 50
0.0
 51
0.0
 71
     0
 72
  2000
 73
     1
 74
     3
 75
     0
 76
     0
 77
     0
 78
     0
281
     0
 65
     1
110
0.0
120
0.0
130
0.0
111
1.0
121
0.0
131
0.0
112
0.0
122
1.0
132
0.0
 79
     0
146
0.0
  0
ENDTAB
  0
TABLE
  2
LTYPE
  5
5
330
0
100
AcDbSymbolTable
 70
     6
  0
LTYPE
  5
14
330
5
100
AcDbSymbolTableRecord
100
AcDbLinetypeTableRecord
  2
ByBlock
 70
     0
  3

 72
    65
 73
     0
 40
0.0
  0
LTYPE
  5
15
330
5
100
AcDbSymbolTableRecord
100
AcDbLinetypeTableRecord
  2
ByLayer
 70
     0
  3

 72
    65
 73
     0
 40
0.0
  0
LTYPE
  5
16
330
5
100
AcDbSymbolTableRecord
100
AcDbLinetypeTableRecord
  2
Continuous
 70
     0
  3
Solid line
 72
    65
 73
     0
 40
0.0
  0
LTYPE
  5
6E
330
5
100
AcDbSymbolTableRecord
100
AcDbLinetypeTableRecord
  2
HIDDEN
 70
     0
  3
Hidden __ __ __ __ __ __ __ __ __ __ __ __ __ __
 72
    65
 73
     2
 40
1.905
 49
1.27
 74
     0
 49
-0.635
 74
     0
  0
LTYPE
  5
6F
330
5
100
AcDbSymbolTableRecord
100
AcDbLinetypeTableRecord
  2
PHANTOM
 70
     0
  3
Phantom ______  __  __  ______  __  __  ______
 72
    65
 73
     6
 40
12.7
 49
6.35
 74
     0
 49
-1.27
 74
     0
 49
1.27
 74
     0
 49
-1.27
 74
     0
 49
1.27
 74
     0
 49
-1.27
 74
     0
  0
LTYPE
  5
70
330
5
100
AcDbSymbolTableRecord
100
AcDbLinetypeTableRecord
  2
CENTER
 70
     0
  3
Center ____ _ ____ _ ____ _ ____ _ ____ _ ____
 72
    65
 73
     4
 40
10.16
 49
6.35
 74
     0
 49
-1.27
 74
     0
 49
1.27
 74
     0
 49
-1.27
 74
     0
  0
LTYPE
  5
71
330
5
100
AcDbSymbolTableRecord
100
AcDbLinetypeTableRecord
  2
CENTERX2
 70
     0
  3
Center (2x) ________  __  ________  __  _____
 72
    65
 73
     4
 40
20.32
 49
12.7
 74
     0
 49
-2.54
 74
     0
 49
2.54
 74
     0
 49
-2.54
 74
     0
  0
LTYPE
  5
72
330
5
100
AcDbSymbolTableRecord
100
AcDbLinetypeTableRecord
  2
DOT2
 70
     0
  3
Dot (.5x) ........................................
 72
    65
 73
     2
 40
0.635
 49
0.0
 74
     0
 49
-0.635
 74
     0
  0
ENDTAB
  0
TABLE
  2
LAYER
  5
2
330
0
100
AcDbSymbolTable
 70
    10
  0
LAYER
  5
10
330
2
100
AcDbSymbolTableRecord
100
AcDbLayerTableRecord
  2
0
 70
     0
 62
     7
  6
Continuous
370
    -3
390
F
  0
LAYER
  5
73
330
2
100
AcDbSymbolTableRecord
100
AcDbLayerTableRecord
  2
DIMENSION
 70
     0
 62
     7
  6
Continuous
370
    -3
390
F
  0
LAYER
  5
74
330
2
100
AcDbSymbolTableRecord
100
AcDbLayerTableRecord
  2
NOTES
 70
     0
 62
     7
  6
Continuous
370
    -3
390
F
  0
LAYER
  5
75
330
2
100
AcDbSymbolTableRecord
100
AcDbLayerTableRecord
  2
TABLES
 70
     0
 62
     7
  6
Continuous
370
    -3
390
F
  0
LAYER
  5
76
330
2
100
AcDbSymbolTableRecord
100
AcDbLayerTableRecord
  2
INVISIBLE
 70
     0
 62
    -7
  6
Continuous
290
     0
370
    -3
390
F
  0
LAYER
  5
77
330
2
100
AcDbSymbolTableRecord
100
AcDbLayerTableRecord
  2
WEP
 70
     0
 62
  -150
  6
Continuous
290
     0
370
    -3
390
F
  0
LAYER
  5
78
330
2
100
AcDbSymbolTableRecord
100
AcDbLayerTableRecord
  2
EMP
 70
     0
 62
     1
  6
Continuous
370
    -3
390
F
  0
LAYER
  5
79
330
2
100
AcDbSymbolTableRecord
100
AcDbLayerTableRecord
  2
MARKETING_DRW
 70
     0
 62
    -7
  6
Continuous
290
     0
370
    -3
390
F
  0
LAYER
  5
7A
330
2
100
AcDbSymbolTableRecord
100
AcDbLayerTableRecord
  2
SINGLE_ARTICLE_DRW
 70
     0
 62
    -7
  6
Continuous
290
     0
370
    -3
390
F
  0
LAYER
  5
7B
330
2
100
AcDbSymbolTableRecord
100
AcDbLayerTableRecord
  2
TABLE_DRW
 70
     0
 62
     7
  6
Continuous
370
    -3
390
F
  0
ENDTAB
  0
TABLE
  2
STYLE
  5
3
330
0
100
AcDbSymbolTable
 70
     2
  0
STYLE
  5
11
330
3
100
AcDbSymbolTableRecord
100
AcDbTextStyleTableRecord
  2
Standard
 70
     0
 40
0.0
 41
1.0
 50
0.0
 71
     0
 42
12.5
  3
txt
  4

  0
STYLE
  5
B5
330
3
100
AcDbSymbolTableRecord
100
AcDbTextStyleTableRecord
  2
SLDTEXTSTYLE0
 70
     0
 40
0.0
 41
0.605
 50
0.0
 71
     0
 42
12.5
  3
TXT
  4

  0
ENDTAB
  0
TABLE
  2
VIEW
  5
6
330
0
100
AcDbSymbolTable
 70
     0
  0
ENDTAB
  0
TABLE
  2
UCS
  5
7
330
0
100
AcDbSymbolTable
 70
     0
  0
ENDTAB
  0
TABLE
  2
APPID
  5
9
330
0
100
AcDbSymbolTable
 70
     1
  0
APPID
  5
12
330
9
100
AcDbSymbolTableRecord
100
AcDbRegAppTableRecord
  2
ACAD
 70
     0
  0
ENDTAB
  0
TABLE
  2
DIMSTYLE
  5
A
330
0
100
AcDbSymbolTable
 70
     1
100
AcDbDimStyleTable
  0
DIMSTYLE
105
27
330
A
100
AcDbSymbolTableRecord
100
AcDbDimStyleTableRecord
  2
ISO-25
 70
     0
 41
2.5
 42
0.625
 43
3.75
 44
1.25
 73
     0
 74
     0
 77
     1
 78
     8
140
2.5
141
2.5
143
0.0393700787
147
0.625
171
     3
172
     1
178
     0
271
     2
272
     2
274
     3
278
    44
283
     0
284
     8
340
11
  0
ENDTAB
  0
TABLE
  2
BLOCK_RECORD
  5
1
330
0
100
AcDbSymbolTable
 70
     3
  0
BLOCK_RECORD
  5
1F
330
1
100
AcDbSymbolTableRecord
100
AcDbBlockTableRecord
  2
*Model_Space
340
22
  0
BLOCK_RECORD
  5
1B
330
1
100
AcDbSymbolTableRecord
100
AcDbBlockTableRecord
  2
*Paper_Space
340
1E
  0
BLOCK_RECORD
  5
23
330
1
100
AcDbSymbolTableRecord
100
AcDbBlockTableRecord
  2
*Paper_Space0
340
26
  0
BLOCK_RECORD
  5
C8
330
1
100
AcDbSymbolTableRecord
100
AcDbBlockTableRecord
  2
SW_NOTE_0
340
0
102
{BLKREFS
331
CE
102
}
  0
BLOCK_RECORD
  5
E7
330
1
100
AcDbSymbolTableRecord
100
AcDbBlockTableRecord
  2
SW_NOTE_0_1
340
0
102
{BLKREFS
331
ED
102
}
  0
ENDTAB
  0
ENDSEC
  0
SECTION
  2
BLOCKS
  0
BLOCK
  5
20
330
1F
100
AcDbEntity
  8
0
100
AcDbBlockBegin
  2
*Model_Space
 70
     0
 10
0.0
 20
0.0
 30
0.0
  3
*Model_Space
  1

  0
ENDBLK
  5
21
330
1F
100
AcDbEntity
  8
0
100
AcDbBlockEnd
  0
BLOCK
  5
1C
330
1B
100
AcDbEntity
 67
     1
  8
0
100
AcDbBlockBegin
  2
*Paper_Space
 70
     0
 10
0.0
 20
0.0
 30
0.0
  3
*Paper_Space
  1

  0
ENDBLK
  5
1D
330
1B
100
AcDbEntity
 67
     1
  8
0
100
AcDbBlockEnd
  0
BLOCK
  5
24
330
23
100
AcDbEntity
  8
0
100
AcDbBlockBegin
  2
*Paper_Space0
 70
     0
 10
0.0
 20
0.0
 30
0.0
  3
*Paper_Space0
  1

  0
ENDBLK
  5
25
330
23
100
AcDbEntity
  8
0
100
AcDbBlockEnd
  0
BLOCK
  5
C9
330
C8
100
AcDbEntity
  8
0
100
AcDbBlockBegin
  2
SW_NOTE_0
 70
     0
 10
0.0
 20
0.0
 30
0.0
  3
SW_NOTE_0
  1

  0
MTEXT
  5
CB
330
C8
100
AcDbEntity
  8
SINGLE_ARTICLE_DRW
 62
     0
100
AcDbMText
 10
0.0
 20
11.6016096579
 30
0.0
 40
9.0
 41
0.0
 71
     1
 72
     1
  1
The reproduction, distribution and utilization of this document as well as the communication of its contents to
  7
SLDTEXTSTYLE0
 73
     1
 44
1.0
  0
MTEXT
  5
CC
330
C8
100
AcDbEntity
  8
SINGLE_ARTICLE_DRW
 62
     0
100
AcDbMText
 10
0.0
 20
0.0016098055
 30
0.0
 40
9.0
 41
0.0
 71
     1
 72
     1
  1
others without express authorization is prohibited. Offenders will be held liable for the payment of damages.
  7
SLDTEXTSTYLE0
 73
     1
 44
1.0
  0
MTEXT
  5
CD
330
C8
100
AcDbEntity
  8
SINGLE_ARTICLE_DRW
 62
     0
100
AcDbMText
 10
0.0
 20
-11.598390047
 30
0.0
 40
9.0
 41
0.0
 71
     1
 72
     1
  1
All rights reserved in the event of the grant of a patent, utility model or design. Observe copyright by ISO 16016
  7
SLDTEXTSTYLE0
 73
     1
 44
1.0
  0
ENDBLK
  5
CA
330
C8
100
AcDbEntity
  8
0
100
AcDbBlockEnd
  0
BLOCK
  5
E8
330
E7
100
AcDbEntity
  8
0
100
AcDbBlockBegin
  2
SW_NOTE_0_1
 70
     0
 10
0.0
 20
0.0
 30
0.0
  3
SW_NOTE_0_1
  1

  0
MTEXT
  5
EA
330
E7
100
AcDbEntity
  8
MARKETING_DRW
 62
     0
100
AcDbMText
 10
0.0
 20
11.6016096579
 30
0.0
 40
9.0
 41
0.0
 71
     1
 72
     1
  1
The reproduction, distribution and utilization of this document as well as the communication of its contents to
  7
SLDTEXTSTYLE0
 73
     1
 44
1.0
  0
MTEXT
  5
EB
330
E7
100
AcDbEntity
  8
MARKETING_DRW
 62
     0
100
AcDbMText
 10
0.0
 20
-0.0233903849
 30
0.0
 40
9.0
 41
0.0
 71
     1
 72
     1
  1
others without express authorization is prohibited. Offenders will be held liable for the payment of damages.
  7
SLDTEXTSTYLE0
 73
     1
 44
1.0
  0
MTEXT
  5
EC
330
E7
100
AcDbEntity
  8
MARKETING_DRW
 62
     0
100
AcDbMText
 10
0.0
 20
-11.6483904277
 30
0.0
 40
9.0
 41
0.0
 71
     1
 72
     1
  1
All rights reserved in the event of the grant of a patent, utility model or design. Observe copyright by ISO 16016
  7
SLDTEXTSTYLE0
 73
     1
 44
1.0
  0
ENDBLK
  5
E9
330
E7
100
AcDbEntity
  8
0
100
AcDbBlockEnd
  0
ENDSEC
  0
SECTION
  2
ENTITIES
  0
LINE
  5
7C
330
1F
100
AcDbEntity
  8
SINGLE_ARTICLE_DRW
 62
     7
100
AcDbLine
 10
1955.0
 20
200.0
 30
0.0
 11
1980.0
 21
200.0
 31
0.0
  0
LINE
  5
7D
330
1F
100
AcDbEntity
  8
SINGLE_ARTICLE_DRW
  6
CENTERX2
 62
     7
100
AcDbLine
 10
1967.5
 20
212.5
 30
0.0
 11
1967.5
 21
187.5
 31
0.0
  0
LINE
  5
7E
330
1F
100
AcDbEntity
  8
SINGLE_ARTICLE_DRW
  6
CENTERX2
 62
     7
100
AcDbLine
 10
1915.0
 20
200.0
 30
0.0
 11
1950.0
 21
200.0
 31
0.0
  0
LINE
  5
7F
330
1F
100
AcDbEntity
  8
SINGLE_ARTICLE_DRW
 62
     7
100
AcDbLine
 10
1920.0
 20
194.95
 30
0.0
 11
1945.0
 21
190.0
 31
0.0
  0
LINE
  5
80
330
1F
100
AcDbEntity
  8
SINGLE_ARTICLE_DRW
 62
     7
100
AcDbLine
 10
1920.0
 20
205.05
 30
0.0
 11
1920.0
 21
194.95
 31
0.0
  0
LINE
  5
81
330
1F
100
AcDbEntity
  8
SINGLE_ARTICLE_DRW
 62
     7
100
AcDbLine
 10
1945.0
 20
210.0
 30
0.0
 11
1920.0
 21
205.05
 31
0.0
  0
LINE
  5
82
330
1F
100
AcDbEntity
  8
SINGLE_ARTICLE_DRW
 62
     7
100
AcDbLine
 10
1945.0
 20
190.0
 30
0.0
 11
1945.0
 21
210.0
 31
0.0
  0
LINE
  5
83
330
1F
100
AcDbEntity
  8
SINGLE_ARTICLE_DRW
 62
     7
100
AcDbLine
 10
2050.0
 20
50.0
 30
0.0
 11
2050.0
 21
340.0
 31
0.0
  0
LINE
  5
84
330
1F
100
AcDbEntity
  8
SINGLE_ARTICLE_DRW
 62
     7
100
AcDbLine
 10
1150.0
 20
340.0
 30
0.0
 11
1150.0
 21
50.0
 31
0.0
  0
LINE
  5
85
330
1F
100
AcDbEntity
  8
SINGLE_ARTICLE_DRW
 62
     7
100
AcDbLine
 10
1700.0
 20
95.0
 30
0.0
 11
1700.0
 21
50.0
 31
0.0
  0
LINE
  5
86
330
1F
100
AcDbEntity
  8
SINGLE_ARTICLE_DRW
 62
     7
100
AcDbLine
 10
1850.0
 20
50.0
 30
0.0
 11
1850.0
 21
95.0
 31
0.0
  0
LINE
  5
87
330
1F
100
AcDbEntity
  8
SINGLE_ARTICLE_DRW
 62
     7
100
AcDbLine
 10
2000.0
 20
95.0
 30
0.0
 11
2000.0
 21
50.0
 31
0.0
  0
LINE
  5
88
330
1F
100
AcDbEntity
  8
SINGLE_ARTICLE_DRW
 62
     7
100
AcDbLine
 10
1900.0
 20
320.0
 30
0.0
 11
1900.0
 21
185.0
 31
0.0
  0
LINE
  5
89
330
1F
100
AcDbEntity
  8
SINGLE_ARTICLE_DRW
 62
     7
100
AcDbLine
 10
2050.0
 20
320.0
 30
0.0
 11
1150.0
 21
320.0
 31
0.0
  0
LINE
  5
8A
330
1F
100
AcDbEntity
  8
SINGLE_ARTICLE_DRW
 62
     7
100
AcDbLine
 10
1800.0
 20
95.0
 30
0.0
 11
1800.0
 21
50.0
 31
0.0
  0
LINE
  5
8B
330
1F
100
AcDbEntity
  8
SINGLE_ARTICLE_DRW
 62
     7
100
AcDbLine
 10
2050.0
 20
275.0
 30
0.0
 11
1400.0
 21
275.0
 31
0.0
  0
LINE
  5
8C
330
1F
100
AcDbEntity
  8
SINGLE_ARTICLE_DRW
 62
     7
100
AcDbLine
 10
1650.0
 20
230.0
 30
0.0
 11
1650.0
 21
185.0
 31
0.0
  0
LINE
  5
8D
330
1F
100
AcDbEntity
  8
SINGLE_ARTICLE_DRW
 62
     7
100
AcDbLine
 10
2050.0
 20
230.0
 30
0.0
 11
1400.0
 21
230.0
 31
0.0
  0
LINE
  5
8E
330
1F
100
AcDbEntity
  8
SINGLE_ARTICLE_DRW
 62
     7
100
AcDbLine
 10
1400.0
 20
320.0
 30
0.0
 11
1400.0
 21
185.0
 31
0.0
  0
LINE
  5
8F
330
1F
100
AcDbEntity
  8
SINGLE_ARTICLE_DRW
 62
     7
100
AcDbLine
 10
2000.0
 20
230.0
 30
0.0
 11
2000.0
 21
185.0
 31
0.0
  0
LINE
  5
90
330
1F
100
AcDbEntity
  8
SINGLE_ARTICLE_DRW
 62
     7
100
AcDbLine
 10
2050.0
 20
95.0
 30
0.0
 11
1150.0
 21
95.0
 31
0.0
  0
LINE
  5
91
330
1F
100
AcDbEntity
  8
SINGLE_ARTICLE_DRW
 62
     7
100
AcDbLine
 10
1650.0
 20
275.0
 30
0.0
 11
1650.0
 21
320.0
 31
0.0
  0
LINE
  5
92
330
1F
100
AcDbEntity
  8
SINGLE_ARTICLE_DRW
 62
     7
100
AcDbLine
 10
1150.0
 20
340.0
 30
0.0
 11
2050.0
 21
340.0
 31
0.0
  0
LINE
  5
93
330
1F
100
AcDbEntity
  8
SINGLE_ARTICLE_DRW
 62
     7
100
AcDbLine
 10
1150.0
 20
185.0
 30
0.0
 11
2050.0
 21
185.0
 31
0.0
  0
LINE
  5
94
330
1F
100
AcDbEntity
  8
SINGLE_ARTICLE_DRW
 62
     7
100
AcDbLine
 10
1150.0
 20
50.0
 30
0.0
 11
2050.0
 21
50.0
 31
0.0
  0
LINE
  5
95
330
1F
100
AcDbEntity
  8
SINGLE_ARTICLE_DRW
 62
     7
100
AcDbLine
 10
1400.0
 20
275.0
 30
0.0
 11
1150.0
 21
275.0
 31
0.0
  0
LINE
  5
96
330
1F
100
AcDbEntity
  8
MARKETING_DRW
  6
CENTERX2
100
AcDbLine
 10
1955.0
 20
200.0
 30
0.0
 11
1980.0
 21
200.0
 31
0.0
  0
LINE
  5
97
330
1F
100
AcDbEntity
  8
MARKETING_DRW
  6
CENTERX2
100
AcDbLine
 10
1967.5
 20
212.5
 30
0.0
 11
1967.5
 21
187.5
 31
0.0
  0
LINE
  5
98
330
1F
100
AcDbEntity
  8
MARKETING_DRW
  6
CENTERX2
100
AcDbLine
 10
1915.0
 20
200.0
 30
0.0
 11
1950.0
 21
200.0
 31
0.0
  0
LINE
  5
99
330
1F
100
AcDbEntity
  8
MARKETING_DRW
100
AcDbLine
 10
1920.0
 20
194.95
 30
0.0
 11
1945.0
 21
190.0
 31
0.0
  0
LINE
  5
9A
330
1F
100
AcDbEntity
  8
MARKETING_DRW
100
AcDbLine
 10
1920.0
 20
205.05
 30
0.0
 11
1920.0
 21
194.95
 31
0.0
  0
LINE
  5
9B
330
1F
100
AcDbEntity
  8
MARKETING_DRW
100
AcDbLine
 10
1945.0
 20
210.0
 30
0.0
 11
1920.0
 21
205.05
 31
0.0
  0
LINE
  5
9C
330
1F
100
AcDbEntity
  8
MARKETING_DRW
100
AcDbLine
 10
1945.0
 20
190.0
 30
0.0
 11
1945.0
 21
210.0
 31
0.0
  0
LINE
  5
9D
330
1F
100
AcDbEntity
  8
MARKETING_DRW
100
AcDbLine
 10
2050.0
 20
50.0
 30
0.0
 11
2050.0
 21
230.0
 31
0.0
  0
LINE
  5
9E
330
1F
100
AcDbEntity
  8
MARKETING_DRW
100
AcDbLine
 10
1150.0
 20
50.0
 30
0.0
 11
2050.0
 21
50.0
 31
0.0
  0
LINE
  5
9F
330
1F
100
AcDbEntity
  8
MARKETING_DRW
100
AcDbLine
 10
1150.0
 20
275.0
 30
0.0
 11
1150.0
 21
50.0
 31
0.0
  0
LINE
  5
A0
330
1F
100
AcDbEntity
  8
MARKETING_DRW
100
AcDbLine
 10
1150.0
 20
275.0
 30
0.0
 11
1650.0
 21
275.0
 31
0.0
  0
LINE
  5
A1
330
1F
100
AcDbEntity
  8
MARKETING_DRW
 62
     7
100
AcDbLine
 10
1850.0
 20
50.0
 30
0.0
 11
1850.0
 21
95.0
 31
0.0
  0
LINE
  5
A2
330
1F
100
AcDbEntity
  8
MARKETING_DRW
100
AcDbLine
 10
2000.0
 20
95.0
 30
0.0
 11
2000.0
 21
50.0
 31
0.0
  0
LINE
  5
A3
330
1F
100
AcDbEntity
  8
MARKETING_DRW
100
AcDbLine
 10
1650.0
 20
275.0
 30
0.0
 11
1650.0
 21
230.0
 31
0.0
  0
LINE
  5
A4
330
1F
100
AcDbEntity
  8
MARKETING_DRW
100
AcDbLine
 10
2050.0
 20
230.0
 30
0.0
 11
1400.0
 21
230.0
 31
0.0
  0
LINE
  5
A5
330
1F
100
AcDbEntity
  8
MARKETING_DRW
100
AcDbLine
 10
1400.0
 20
275.0
 30
0.0
 11
1400.0
 21
185.0
 31
0.0
  0
LINE
  5
A6
330
1F
100
AcDbEntity
  8
MARKETING_DRW
100
AcDbLine
 10
2000.0
 20
230.0
 30
0.0
 11
2000.0
 21
185.0
 31
0.0
  0
LINE
  5
A7
330
1F
100
AcDbEntity
  8
MARKETING_DRW
100
AcDbLine
 10
2050.0
 20
95.0
 30
0.0
 11
1150.0
 21
95.0
 31
0.0
  0
LINE
  5
A8
330
1F
100
AcDbEntity
  8
MARKETING_DRW
100
AcDbLine
 10
1150.0
 20
185.0
 30
0.0
 11
2050.0
 21
185.0
 31
0.0
  0
LINE
  5
A9
330
1F
100
AcDbEntity
  8
MARKETING_DRW
100
AcDbLine
 10
1150.0
 20
50.0
 30
0.0
 11
2050.0
 21
50.0
 31
0.0
  0
LINE
  5
AA
330
1F
100
AcDbEntity
  8
MARKETING_DRW
100
AcDbLine
 10
1900.0
 20
230.0
 30
0.0
 11
1900.0
 21
185.0
 31
0.0
  0
LINE
  5
AB
330
1F
100
AcDbEntity
  8
MARKETING_DRW
100
AcDbLine
 10
1650.0
 20
275.0
 30
0.0
 11
1900.0
 21
275.0
 31
0.0
  0
LINE
  5
AC
330
1F
100
AcDbEntity
  8
MARKETING_DRW
100
AcDbLine
 10
1900.0
 20
275.0
 30
0.0
 11
1900.0
 21
230.0
 31
0.0
  0
LINE
  5
AD
330
1F
100
AcDbEntity
  8
MARKETING_DRW
100
AcDbLine
 10
1900.0
 20
275.0
 30
0.0
 11
2050.0
 21
275.0
 31
0.0
  0
LINE
  5
AE
330
1F
100
AcDbEntity
  8
MARKETING_DRW
100
AcDbLine
 10
2050.0
 20
275.0
 30
0.0
 11
2050.0
 21
230.0
 31
0.0
  0
LINE
  5
AF
330
1F
100
AcDbEntity
  8
MARKETING_DRW
100
AcDbLine
 10
1825.0
 20
275.0
 30
0.0
 11
1825.0
 21
230.0
 31
0.0
  0
LINE
  5
B0
330
1F
100
AcDbEntity
  8
MARKETING_DRW
100
AcDbLine
 10
1650.0
 20
230.0
 30
0.0
 11
1650.0
 21
185.0
 31
0.0
  0
CIRCLE
  5
B1
330
1F
100
AcDbEntity
  8
SINGLE_ARTICLE_DRW
 62
     7
100
AcDbCircle
 10
1967.5
 20
200.0
 30
0.0
 40
5.000000000000224
  0
CIRCLE
  5
B2
330
1F
100
AcDbEntity
  8
SINGLE_ARTICLE_DRW
 62
     7
100
AcDbCircle
 10
1967.5
 20
200.0
 30
0.0
 40
10.00000000000024
  0
CIRCLE
  5
B3
330
1F
100
AcDbEntity
  8
MARKETING_DRW
100
AcDbCircle
 10
1967.5
 20
200.0
 30
0.0
 40
5.000000000000224
  0
CIRCLE
  5
B4
330
1F
100
AcDbEntity
  8
MARKETING_DRW
100
AcDbCircle
 10
1967.5
 20
200.0
 30
0.0
 40
10.00000000000024
  0
MTEXT
  5
B6
330
1F
100
AcDbEntity
  8
SINGLE_ARTICLE_DRW
100
AcDbMText
 10
1155.0
 20
179.9766099061
 30
0.0
 40
9.0
 41
0.0
 71
     1
 72
     1
  1
title:
  7
SLDTEXTSTYLE0
 73
     1
 44
1.0
  0
MTEXT
  5
B7
330
1F
100
AcDbEntity
  8
SINGLE_ARTICLE_DRW
100
AcDbMText
 10
1155.0
 20
314.9766099061
 30
0.0
 40
9.0
 41
0.0
 71
     1
 72
     1
  1
technical reference:
  7
SLDTEXTSTYLE0
 73
     1
 44
1.0
  0
MTEXT
  5
B8
330
1F
100
AcDbEntity
  8
SINGLE_ARTICLE_DRW
100
AcDbMText
 10
2024.7829862405
 20
69.9675136777
 30
0.0
 40
12.5
 41
0.0
 71
     2
 72
     1
  1
1/1
  7
SLDTEXTSTYLE0
 73
     1
 44
1.0
  0
MTEXT
  5
B9
330
1F
100
AcDbEntity
  8
SINGLE_ARTICLE_DRW
100
AcDbMText
 10
2024.7829862405
 20
204.9675136777
 30
0.0
 40
12.5
 41
0.0
 71
     2
 72
     1
  1
1:5
  7
SLDTEXTSTYLE0
 73
     1
 44
1.0
  0
MTEXT
  5
BA
330
1F
100
AcDbEntity
  8
SINGLE_ARTICLE_DRW
100
AcDbMText
 10
1405.0
 20
314.9766099061
 30
0.0
 40
9.0
 41
0.0
 71
     1
 72
     1
  1
general tolerance:
  7
SLDTEXTSTYLE0
 73
     1
 44
1.0
  0
MTEXT
  5
BB
330
1F
100
AcDbEntity
  8
SINGLE_ARTICLE_DRW
100
AcDbMText
 10
1905.0
 20
249.9675136777
 30
0.0
 40
12.5
 41
0.0
 71
     1
 72
     1
  1
production drw.
  7
SLDTEXTSTYLE0
 73
     1
 44
1.0
  0
MTEXT
  5
BC
330
1F
100
AcDbEntity
  8
SINGLE_ARTICLE_DRW
100
AcDbMText
 10
1405.0
 20
269.9766099061
 30
0.0
 40
9.0
 41
0.0
 71
     1
 72
     1
  1
material:
  7
SLDTEXTSTYLE0
 73
     1
 44
1.0
  0
MTEXT
  5
BD
330
1F
100
AcDbEntity
  8
SINGLE_ARTICLE_DRW
100
AcDbMText
 10
1905.0
 20
224.9766099061
 30
0.0
 40
9.0
 41
0.0
 71
     1
 72
     1
  1
projection:ISO-E
  7
SLDTEXTSTYLE0
 73
     1
 44
1.0
  0
MTEXT
  5
BE
330
1F
100
AcDbEntity
  8
SINGLE_ARTICLE_DRW
100
AcDbMText
 10
2024.7500000913
 20
89.9766099061
 30
0.0
 40
9.0
 41
0.0
 71
     2
 72
     1
  1
sheet:
  7
SLDTEXTSTYLE0
 73
     1
 44
1.0
  0
MTEXT
  5
BF
330
1F
100
AcDbEntity
  8
SINGLE_ARTICLE_DRW
100
AcDbMText
 10
1855.0
 20
89.9766099061
 30
0.0
 40
9.0
 41
0.0
 71
     1
 72
     1
  1
release date:
  7
SLDTEXTSTYLE0
 73
     1
 44
1.0
  0
MTEXT
  5
C0
330
1F
100
AcDbEntity
  8
SINGLE_ARTICLE_DRW
100
AcDbMText
 10
1655.0
 20
224.9766099061
 30
0.0
 40
9.0
 41
0.0
 71
     1
 72
     1
  1
reviewed by:
  7
SLDTEXTSTYLE0
 73
     1
 44
1.0
  0
MTEXT
  5
C1
330
1F
100
AcDbEntity
  8
SINGLE_ARTICLE_DRW
100
AcDbMText
 10
1824.8125000894
 20
89.9766099061
 30
0.0
 40
9.0
 41
0.0
 71
     2
 72
     1
  1
index:
  7
SLDTEXTSTYLE0
 73
     1
 44
1.0
  0
MTEXT
  5
C2
330
1F
100
AcDbEntity
  8
SINGLE_ARTICLE_DRW
100
AcDbMText
 10
1905.0
 20
269.9766099061
 30
0.0
 40
9.0
 41
0.0
 71
     1
 72
     1
  1
documenttype:
  7
SLDTEXTSTYLE0
 73
     1
 44
1.0
  0
MTEXT
  5
C3
330
1F
100
AcDbEntity
  8
SINGLE_ARTICLE_DRW
100
AcDbMText
 10
1749.034373872
 20
89.9766099061
 30
0.0
 40
9.0
 41
0.0
 71
     2
 72
     1
  1
drawing-no.:
  7
SLDTEXTSTYLE0
 73
     1
 44
1.0
  0
MTEXT
  5
C4
330
1F
100
AcDbEntity
  8
SINGLE_ARTICLE_DRW
100
AcDbMText
 10
1905.0
 20
314.9766099061
 30
0.0
 40
9.0
 41
0.0
 71
     1
 72
     1
  1
weight:
  7
SLDTEXTSTYLE0
 73
     1
 44
1.0
  0
MTEXT
  5
C5
330
1F
100
AcDbEntity
  8
SINGLE_ARTICLE_DRW
100
AcDbMText
 10
2024.8750000875
 20
224.9766099061
 30
0.0
 40
9.0
 41
0.0
 71
     2
 72
     1
  1
scale:
  7
SLDTEXTSTYLE0
 73
     1
 44
1.0
  0
MTEXT
  5
C6
330
1F
100
AcDbEntity
  8
SINGLE_ARTICLE_DRW
100
AcDbMText
 10
1655.0
 20
314.9766099061
 30
0.0
 40
9.0
 41
0.0
 71
     1
 72
     1
  1
surface:
  7
SLDTEXTSTYLE0
 73
     1
 44
1.0
  0
MTEXT
  5
C7
330
1F
100
AcDbEntity
  8
SINGLE_ARTICLE_DRW
100
AcDbMText
 10
1405.0
 20
224.9766099061
 30
0.0
 40
9.0
 41
0.0
 71
     1
 72
     1
  1
created by:
  7
SLDTEXTSTYLE0
 73
     1
 44
1.0
  0
INSERT
  5
CE
330
1F
100
AcDbEntity
  8
SINGLE_ARTICLE_DRW
100
AcDbBlockReference
  2
SW_NOTE_0
 10
1155.0
 20
78.4000001475
 30
0.0
  0
MTEXT
  5
CF
330
1F
100
AcDbEntity
  8
SINGLE_ARTICLE_DRW
100
AcDbMText
 10
1155.0
 20
114.9675136777
 30
0.0
 40
12.5
 41
0.0
 71
     1
 72
     1
  1
ZB Duschrinne C mit Spalt und Flansch, mit Seitenauslaß, mit FAT GV50 L1080, International
  7
SLDTEXTSTYLE0
 73
     1
 44
1.0
  0
MTEXT
  5
D0
330
1F
100
AcDbEntity
  8
SINGLE_ARTICLE_DRW
100
AcDbMText
 10
1155.0
 20
137.4675136777
 30
0.0
 40
12.5
 41
0.0
 71
     1
 72
     1
  1
ASM Shower Channel C with gap and flange, with Side outlet, with FAT GV50 L1080, International
  7
SLDTEXTSTYLE0
 73
     1
 44
1.0
  0
MTEXT
  5
D1
330
1F
100
AcDbEntity
  8
SINGLE_ARTICLE_DRW
100
AcDbMText
 10
1155.0
 20
295.0022357116
 30
0.0
 40
12.5
 41
0.0
 71
     1
 72
     1
  1
Bohms, Michael
  7
SLDTEXTSTYLE0
 73
     1
 44
1.0
  0
MTEXT
  5
D2
330
1F
100
AcDbEntity
  8
SINGLE_ARTICLE_DRW
100
AcDbMText
 10
1749.0407964215
 20
69.9675136777
 30
0.0
 40
12.5
 41
0.0
 71
     2
 72
     1
  1
1093286-O
  7
SLDTEXTSTYLE0
 73
     1
 44
1.0
  0
MTEXT
  5
D3
330
1F
100
AcDbEntity
  8
SINGLE_ARTICLE_DRW
100
AcDbMText
 10
1824.7395830229
 20
69.9675136777
 30
0.0
 40
12.5
 41
0.0
 71
     2
 72
     1
  1
001
  7
SLDTEXTSTYLE0
 73
     1
 44
1.0
  0
MTEXT
  5
D4
330
1F
100
AcDbEntity
  8
SINGLE_ARTICLE_DRW
100
AcDbMText
 10
1155.0
 20
159.9675136777
 30
0.0
 40
12.5
 41
0.0
 71
     1
 72
     1
  1
ACO ShowerDrain
  7
SLDTEXTSTYLE0
 73
     1
 44
1.0
  0
MTEXT
  5
D5
330
1F
100
AcDbEntity
  8
SINGLE_ARTICLE_DRW
100
AcDbMText
 10
1155.0
 20
334.9766099061
 30
0.0
 40
9.0
 41
0.0
 71
     1
 72
     1
  1
modification:
  7
SLDTEXTSTYLE0
 73
     1
 44
1.0
  0
MTEXT
  5
D6
330
1F
100
AcDbEntity
  8
SINGLE_ARTICLE_DRW
100
AcDbMText
 10
1905.0
 20
294.9675136777
 30
0.0
 40
12.5
 41
0.0
 71
     1
 72
     1
  1
2.267 kg
  7
SLDTEXTSTYLE0
 73
     1
 44
1.0
  0
MTEXT
  5
D7
330
1F
100
AcDbEntity
  8
MARKETING_DRW
100
AcDbMText
 10
1155.0
 20
114.9675136777
 30
0.0
 40
12.5
 41
0.0
 71
     1
 72
     1
  1
ZB Duschrinne C mit Spalt und Flansch, mit Seitenauslaß, mit FAT GV50 L1080, International
  7
SLDTEXTSTYLE0
 73
     1
 44
1.0
  0
MTEXT
  5
D8
330
1F
100
AcDbEntity
  8
MARKETING_DRW
100
AcDbMText
 10
1155.0
 20
137.4675136777
 30
0.0
 40
12.5
 41
0.0
 71
     1
 72
     1
  1
ASM Shower Channel C with gap and flange, with Side outlet, with FAT GV50 L1080, International
  7
SLDTEXTSTYLE0
 73
     1
 44
1.0
  0
MTEXT
  5
D9
330
1F
100
AcDbEntity
  8
MARKETING_DRW
100
AcDbMText
 10
1736.5407964215
 20
249.9675136777
 30
0.0
 40
12.5
 41
0.0
 71
     2
 72
     1
  1
1093286-O
  7
SLDTEXTSTYLE0
 73
     1
 44
1.0
  0
MTEXT
  5
DA
330
1F
100
AcDbEntity
  8
MARKETING_DRW
100
AcDbMText
 10
1862.2395830229
 20
252.0971433073
 30
0.0
 40
12.5
 41
0.0
 71
     2
 72
     1
  1
001
  7
SLDTEXTSTYLE0
 73
     1
 44
1.0
  0
MTEXT
  5
DB
330
1F
100
AcDbEntity
  8
MARKETING_DRW
100
AcDbMText
 10
1155.0
 20
159.9675136777
 30
0.0
 40
12.5
 41
0.0
 71
     1
 72
     1
  1
ACO ShowerDrain
  7
SLDTEXTSTYLE0
 73
     1
 44
1.0
  0
MTEXT
  5
DC
330
1F
100
AcDbEntity
  8
MARKETING_DRW
100
AcDbMText
 10
1905.0
 20
269.9766099061
 30
0.0
 40
9.0
 41
0.0
 71
     1
 72
     1
  1
documenttype:
  7
SLDTEXTSTYLE0
 73
     1
 44
1.0
  0
MTEXT
  5
DD
330
1F
100
AcDbEntity
  8
MARKETING_DRW
100
AcDbMText
 10
1655.0
 20
224.9766099061
 30
0.0
 40
9.0
 41
0.0
 71
     1
 72
     1
  1
reviewed by:
  7
SLDTEXTSTYLE0
 73
     1
 44
1.0
  0
MTEXT
  5
DE
330
1F
100
AcDbEntity
  8
MARKETING_DRW
100
AcDbMText
 10
1736.534373872
 20
270.0578764559
 30
0.0
 40
9.0
 41
0.0
 71
     2
 72
     1
  1
drawing-no.:
  7
SLDTEXTSTYLE0
 73
     1
 44
1.0
  0
MTEXT
  5
DF
330
1F
100
AcDbEntity
  8
MARKETING_DRW
100
AcDbMText
 10
1905.0
 20
224.9766099061
 30
0.0
 40
9.0
 41
0.0
 71
     1
 72
     1
  1
projection:ISO-E
  7
SLDTEXTSTYLE0
 73
     1
 44
1.0
  0
MTEXT
  5
E0
330
1F
100
AcDbEntity
  8
MARKETING_DRW
100
AcDbMText
 10
2024.7500000913
 20
89.9766099061
 30
0.0
 40
9.0
 41
0.0
 71
     2
 72
     1
  1
sheet:
  7
SLDTEXTSTYLE0
 73
     1
 44
1.0
  0
MTEXT
  5
E1
330
1F
100
AcDbEntity
  8
MARKETING_DRW
100
AcDbMText
 10
2024.7829862405
 20
69.9675136777
 30
0.0
 40
12.5
 41
0.0
 71
     2
 72
     1
  1
1/1
  7
SLDTEXTSTYLE0
 73
     1
 44
1.0
  0
MTEXT
  5
E2
330
1F
100
AcDbEntity
  8
MARKETING_DRW
100
AcDbMText
 10
1855.0
 20
89.9766099061
 30
0.0
 40
9.0
 41
0.0
 71
     1
 72
     1
  1
release date:
  7
SLDTEXTSTYLE0
 73
     1
 44
1.0
  0
MTEXT
  5
E3
330
1F
100
AcDbEntity
  8
MARKETING_DRW
100
AcDbMText
 10
1862.3125000894
 20
269.9766099061
 30
0.0
 40
9.0
 41
0.0
 71
     2
 72
     1
  1
index:
  7
SLDTEXTSTYLE0
 73
     1
 44
1.0
  0
MTEXT
  5
E4
330
1F
100
AcDbEntity
  8
MARKETING_DRW
100
AcDbMText
 10
1155.0
 20
179.9766099061
 30
0.0
 40
9.0
 41
0.0
 71
     1
 72
     1
  1
title:
  7
SLDTEXTSTYLE0
 73
     1
 44
1.0
  0
MTEXT
  5
E5
330
1F
100
AcDbEntity
  8
MARKETING_DRW
100
AcDbMText
 10
2024.8750000875
 20
224.9766099061
 30
0.0
 40
9.0
 41
0.0
 71
     2
 72
     1
  1
scale:
  7
SLDTEXTSTYLE0
 73
     1
 44
1.0
  0
MTEXT
  5
E6
330
1F
100
AcDbEntity
  8
MARKETING_DRW
100
AcDbMText
 10
2024.7829862405
 20
204.9675136777
 30
0.0
 40
12.5
 41
0.0
 71
     2
 72
     1
  1
1:5
  7
SLDTEXTSTYLE0
 73
     1
 44
1.0
  0
INSERT
  5
ED
330
1F
100
AcDbEntity
  8
MARKETING_DRW
100
AcDbBlockReference
  2
SW_NOTE_0_1
 10
1155.0
 20
78.3750002482
 30
0.0
  0
MTEXT
  5
EE
330
1F
100
AcDbEntity
  8
MARKETING_DRW
100
AcDbMText
 10
1905.0
 20
249.9675136777
 30
0.0
 40
12.5
 41
0.0
 71
     1
 72
     1
  1
marketing drw.
  7
SLDTEXTSTYLE0
 73
     1
 44
1.0
  0
MTEXT
  5
EF
330
1F
100
AcDbEntity
  8
MARKETING_DRW
100
AcDbMText
 10
1405.0
 20
224.9766099061
 30
0.0
 40
9.0
 41
0.0
 71
     1
 72
     1
  1
created by:
  7
SLDTEXTSTYLE0
 73
     1
 44
1.0
  0
LINE
  5
F0
330
1F
100
AcDbEntity
  8
0
  6
Continuous
 62
     7
370
    35
100
AcDbLine
 10
1396.6151110243
 20
989.92731328
 30
0.0
 11
316.6151110243
 21
989.92731328
 31
0.0
  0
LINE
  5
F1
330
1F
100
AcDbEntity
  8
0
  6
Continuous
 62
     7
370
    35
100
AcDbLine
 10
775.6151110243
 20
969.9421382684
 30
0.0
 11
775.6151110243
 21
966.9308747807
 31
0.0
  0
LINE
  5
F2
330
1F
100
AcDbEntity
  8
0
  6
Continuous
 62
     7
370
    35
100
AcDbLine
 10
937.6151110243
 20
966.9308747807
 30
0.0
 11
937.6151110243
 21
969.9421382684
 31
0.0
  0
ARC
  5
F3
330
1F
100
AcDbEntity
  8
0
  6
Continuous
 62
     7
370
    35
100
AcDbCircle
 10
773.6151110243
 20
969.9340966211
 30
0.0
 40
1.99999999999998
100
AcDbArc
 50
0.2172817996
 51
85.9305858724
  0
ARC
  5
F4
330
1F
100
AcDbEntity
  8
0
  6
Continuous
 62
     7
370
    35
100
AcDbCircle
 10
939.6151110243
 20
969.9340966211
 30
0.0
 40
2.000000000000051
100
AcDbArc
 50
94.065898605
 51
179.7696267909
  0
LINE
  5
F5
330
1F
100
AcDbEntity
  8
0
  6
Continuous
 62
     7
370
    35
100
AcDbLine
 10
316.6151110243
 20
971.9289242003
 30
0.0
 11
773.7559729678
 21
971.9289242003
 31
0.0
  0
LINE
  5
F6
330
1F
100
AcDbEntity
  8
0
  6
Continuous
 62
     7
370
    35
100
AcDbLine
 10
939.4742490807
 20
971.9289242003
 30
0.0
 11
1396.6151110243
 21
971.9289242003
 31
0.0
  0
ARC
  5
F7
330
1F
100
AcDbEntity
  8
0
  6
Continuous
 62
     7
370
    35
100
AcDbCircle
 10
991.30350937
 20
943.5308747804
 30
0.0
 40
3.000000000000079
100
AcDbArc
 50
78.1402208791
 51
90.0
  0
ARC
  5
F8
330
1F
100
AcDbEntity
  8
0
  6
Continuous
 62
     7
370
    35
100
AcDbCircle
 10
991.30350937
 20
899.4308747804
 30
0.0
 40
3.000000000000114
100
AcDbArc
 50
270.0
 51
281.8597791209
  0
LINE
  5
F9
330
1F
100
AcDbEntity
  8
0
  6
Continuous
 62
     7
370
    35
100
AcDbLine
 10
948.1151110243
 20
896.4308747804
 30
0.0
 11
991.30350937
 21
896.4308747804
 31
0.0
  0
LINE
  5
FA
330
1F
100
AcDbEntity
  8
0
  6
Continuous
 62
     7
370
    35
100
AcDbLine
 10
991.30350937
 20
946.5308747804
 30
0.0
 11
948.1151110243
 21
946.5308747804
 31
0.0
  0
LINE
  5
FB
330
1F
100
AcDbEntity
  8
0
  6
Continuous
 62
     7
370
    35
100
AcDbLine
 10
991.9200610728
 20
896.4949142906
 30
0.0
 11
996.6151110243
 21
897.4808747804
 31
0.0
  0
LINE
  5
FC
330
1F
100
AcDbEntity
  8
0
  6
Continuous
 62
     7
370
    35
100
AcDbLine
 10
996.6151110243
 20
945.4808747804
 30
0.0
 11
991.9200610728
 21
946.4668352702
 31
0.0
  0
LINE
  5
FD
330
1F
100
AcDbEntity
  8
0
  6
Continuous
 62
     7
370
    35
100
AcDbLine
 10
948.1151110243
 20
946.4808747804
 30
0.0
 11
946.5129454508
 21
946.4808747804
 31
0.0
  0
LINE
  5
FE
330
1F
100
AcDbEntity
  8
0
  6
Continuous
 62
     7
370
    35
100
AcDbLine
 10
929.6151110243
 20
896.4808747804
 30
0.0
 11
948.1151110243
 21
896.4808747804
 31
0.0
  0
LINE
  5
FF
330
1F
100
AcDbEntity
  8
0
  6
Continuous
 62
     7
370
    35
100
AcDbLine
 10
925.6618934313
 20
896.4808747804
 30
0.0
 11
929.6151110243
 21
896.4808747804
 31
0.0
  0
LINE
  5
100
330
1F
100
AcDbEntity
  8
0
  6
Continuous
 62
     7
370
    35
100
AcDbLine
 10
316.6151110243
 20
977.92731328
 30
0.0
 11
316.6151110243
 21
976.92731328
 31
0.0
  0
LINE
  5
101
330
1F
100
AcDbEntity
  8
0
  6
Continuous
 62
     7
370
    35
100
AcDbLine
 10
1396.6151110243
 20
977.92731328
 30
0.0
 11
316.6151110243
 21
977.92731328
 31
0.0
  0
LINE
  5
102
330
1F
100
AcDbEntity
  8
0
  6
Continuous
 62
     7
370
    35
100
AcDbLine
 10
1396.6151110243
 20
977.92731328
 30
0.0
 11
1396.6151110243
 21
976.92731328
 31
0.0
  0
LINE
  5
103
330
1F
100
AcDbEntity
  8
0
  6
Continuous
 62
     7
370
    35
100
AcDbLine
 10
1396.6151110243
 20
976.92731328
 30
0.0
 11
316.6151110243
 21
976.92731328
 31
0.0
  0
LINE
  5
104
330
1F
100
AcDbEntity
  8
0
  6
Continuous
 62
     7
370
    35
100
AcDbLine
 10
1396.6151110243
 20
977.92731328
 30
0.0
 11
1396.6151110243
 21
978.92731328
 31
0.0
  0
LINE
  5
105
330
1F
100
AcDbEntity
  8
0
  6
Continuous
 62
     7
370
    35
100
AcDbLine
 10
316.6151110243
 20
978.92731328
 30
0.0
 11
316.6151110243
 21
977.92731328
 31
0.0
  0
LINE
  5
106
330
1F
100
AcDbEntity
  8
0
  6
Continuous
 62
     7
370
    35
100
AcDbLine
 10
1396.6151110243
 20
988.42731328
 30
0.0
 11
1396.6151110243
 21
978.92731328
 31
0.0
  0
LINE
  5
107
330
1F
100
AcDbEntity
  8
0
  6
Continuous
 62
     7
370
    35
100
AcDbLine
 10
316.6151110243
 20
978.92731328
 30
0.0
 11
316.6151110243
 21
988.42731328
 31
0.0
  0
LINE
  5
108
330
1F
100
AcDbEntity
  8
0
  6
Continuous
 62
     7
370
    35
100
AcDbLine
 10
1396.6151110243
 20
989.92731328
 30
0.0
 11
1396.6151110243
 21
988.9273132799
 31
0.0
  0
LINE
  5
109
330
1F
100
AcDbEntity
  8
0
  6
Continuous
 62
     7
370
    35
100
AcDbLine
 10
316.6151110243
 20
988.9273132799
 30
0.0
 11
316.6151110243
 21
989.92731328
 31
0.0
  0
LINE
  5
10A
330
1F
100
AcDbEntity
  8
0
  6
Continuous
 62
     7
370
    35
100
AcDbLine
 10
316.6151110243
 20
975.6892317692
 30
0.0
 11
316.6151110243
 21
976.9273132799
 31
0.0
  0
LINE
  5
10B
330
1F
100
AcDbEntity
  8
0
  6
Continuous
 62
     7
370
    35
100
AcDbLine
 10
1396.6151110243
 20
975.6892317692
 30
0.0
 11
1396.6151110243
 21
976.92731328
 31
0.0
  0
LINE
  5
10C
330
1F
100
AcDbEntity
  8
0
  6
Continuous
 62
     7
370
    35
100
AcDbLine
 10
1396.6151110243
 20
974.9932612239
 30
0.0
 11
1396.6151110243
 21
975.6892317692
 31
0.0
  0
LINE
  5
10D
330
1F
100
AcDbEntity
  8
0
  6
Continuous
 62
     7
370
    35
100
AcDbLine
 10
316.6151110243
 20
975.6892317692
 30
0.0
 11
316.6151110243
 21
974.9932612239
 31
0.0
  0
SPLINE
  5
10E
330
1F
100
AcDbEntity
  8
0
  6
Continuous
 62
     7
370
    35
100
AcDbSpline
210
0.0
220
0.0
230
1.0
 70
     8
 71
     3
 72
     8
 73
     4
 74
     0
 42
0.000000001
 43
0.00000001
 40
0.0000000000000256
 40
0.0000000000000256
 40
0.0000000000000256
 40
0.0000000000000256
 40
0.0000564308016788
 40
0.0000564308016788
 40
0.0000564308016788
 40
0.0000564308016788
 10
939.4865738036372
 20
971.9321408591695
 30
0.0
 10
939.4917362074497
 20
971.9331663183046
 30
0.0
 10
939.4947469753461
 20
971.934241442569
 30
0.0
 10
939.4945695267621
 20
971.9353078016005
 30
0.0
  0
SPLINE
  5
10F
330
1F
100
AcDbEntity
  8
0
  6
Continuous
 62
     7
370
    35
100
AcDbSpline
210
0.0
220
0.0
230
1.0
 70
     8
 71
     3
 72
    14
 73
    10
 74
     0
 42
0.000000001
 43
0.00000001
 40
0.0
 40
0.0
 40
0.0
 40
0.0
 40
0.25
 40
0.25
 40
0.5
 40
0.5
 40
0.75
 40
0.75
 40
1.0
 40
1.0
 40
1.0
 40
1.0
 10
939.4945695268915
 20
971.9353078016006
 30
0.0
 10
939.463196879013
 20
972.1238385053341
 30
0.0
 10
938.8742579667728
 20
972.3118338502394
 30
0.0
 10
936.6425374021957
 20
972.667037174826
 30
0.0
 10
935.0022922825113
 20
972.833821422147
 30
0.0
 10
930.8448745254288
 20
973.1281251625464
 30
0.0
 10
928.3321131595845
 20
973.255319940073
 30
0.0
 10
922.7043006220576
 20
973.4562184939463
 30
0.0
 10
919.595094159929
 20
973.5297132850034
 30
0.0
 10
916.3554425869778
 20
973.5723081632091
 30
0.0
  0
SPLINE
  5
110
330
1F
100
AcDbEntity
  8
0
  6
Continuous
 62
     7
370
    35
100
AcDbSpline
210
0.0
220
0.0
230
1.0
 70
     8
 71
     3
 72
    14
 73
    10
 74
     0
 42
0.000000001
 43
0.00000001
 40
0.0
 40
0.0
 40
0.0
 40
0.0
 40
0.125
 40
0.125
 40
0.2500000000000001
 40
0.2500000000000001
 40
0.5
 40
0.5
 40
1.0
 40
1.0
 40
1.0
 40
1.0
 10
916.3554425869506
 20
973.5723081632018
 30
0.0
 10
916.0793961465042
 20
973.5759376166308
 30
0.0
 10
915.8001015526079
 20
973.5778225724915
 30
0.0
 10
915.2402065127899
 20
973.5808911455035
 30
0.0
 10
914.9595069892946
 20
973.5820215507108
 30
0.0
 10
914.1167451716884
 20
973.5850565537916
 30
0.0
 10
913.5542080666767
 20
973.5865365727267
 30
0.0
 10
911.866764036561
 20
973.5901275170364
 30
0.0
 10
910.7412101618274
 20
973.5912761271995
 30
0.0
 10
909.6151110242716
 20
973.5912761271995
 30
0.0
  0
LINE
  5
111
330
1F
100
AcDbEntity
  8
0
  6
Continuous
 62
     7
370
    35
100
AcDbLine
 10
909.6151110243
 20
973.5912761272
 30
0.0
 11
803.6151110243
 21
973.5912761272
 31
0.0
  0
SPLINE
  5
112
330
1F
100
AcDbEntity
  8
0
  6
Continuous
 62
     7
370
    35
100
AcDbSpline
210
0.0
220
0.0
230
1.0
 70
     8
 71
     3
 72
    14
 73
    10
 74
     0
 42
0.000000001
 43
0.00000001
 40
0.0
 40
0.0
 40
0.0
 40
0.0
 40
0.5000000000000031
 40
0.5000000000000031
 40
0.7500000000000031
 40
0.7500000000000031
 40
0.8750000000000016
 40
0.8750000000000016
 40
1.0
 40
1.0
 40
1.0
 40
1.0
 10
803.6151110242716
 20
973.5912761271995
 30
0.0
 10
802.4892084879741
 20
973.5912761271995
 30
0.0
 10
801.3637530653111
 20
973.5901279240386
 30
0.0
 10
799.6762974655595
 20
973.5865372863888
 30
0.0
 10
799.1138401095269
 20
973.5850573913493
 30
0.0
 10
798.2714921940462
 20
973.5820245842416
 30
0.0
 10
797.9908797207618
 20
973.5808950244354
 30
0.0
 10
797.4308148070629
 20
973.5778272327084
 30
0.0
 10
797.1502416913291
 20
973.5759299354391
 30
0.0
 10
796.8747794615925
 20
973.5723081632018
 30
0.0
  0
SPLINE
  5
113
330
1F
100
AcDbEntity
  8
0
  6
Continuous
 62
     7
370
    35
100
AcDbSpline
210
0.0
220
0.0
230
1.0
 70
     8
 71
     3
 72
    14
 73
    10
 74
     0
 42
0.000000001
 43
0.00000001
 40
0.0
 40
0.0
 40
0.0
 40
0.0
 40
0.25
 40
0.25
 40
0.5
 40
0.5
 40
0.75
 40
0.75
 40
1.0
 40
1.0
 40
1.0
 40
1.0
 10
796.8747794615654
 20
973.5723081632091
 30
0.0
 10
793.6351277924691
 20
973.5297132837392
 30
0.0
 10
790.5262517803432
 20
973.4562292255023
 30
0.0
 10
784.8980193594497
 20
973.2553178052866
 30
0.0
 10
782.3854492127647
 20
973.1281309180598
 30
0.0
 10
778.228007064841
 20
972.8338283371705
 30
0.0
 10
776.5876673725317
 20
972.667031770022
 30
0.0
 10
774.3560763889653
 20
972.311854380557
 30
0.0
 10
773.7670251702598
 20
972.1238385097193
 30
0.0
 10
773.7356525216517
 20
971.9353078016006
 30
0.0
  0
SPLINE
  5
114
330
1F
100
AcDbEntity
  8
0
  6
Continuous
 62
     7
370
    35
100
AcDbSpline
210
0.0
220
0.0
230
1.0
 70
     8
 71
     3
 72
     8
 73
     4
 74
     0
 42
0.000000001
 43
0.00000001
 40
0.0000000000000194
 40
0.0000000000000194
 40
0.0000000000000194
 40
0.0000000000000194
 40
0.0000564308016788
 40
0.0000564308016788
 40
0.0000564308016788
 40
0.0000564308016788
 10
773.735652521781
 20
971.9353078016005
 30
0.0
 10
773.7354750731971
 20
971.934241442569
 30
0.0
 10
773.7384858410936
 20
971.9331663183046
 30
0.0
 10
773.7436482449061
 20
971.9321408591695
 30
0.0
  0
LINE
  5
115
330
1F
100
AcDbEntity
  8
0
  6
Continuous
 62
     7
370
    35
100
AcDbLine
 10
775.6151110243
 20
966.9308747805
 30
0.0
 11
803.6151110243
 21
966.9308747805
 31
0.0
  0
LINE
  5
116
330
1F
100
AcDbEntity
  8
0
  6
Continuous
 62
     7
370
    35
100
AcDbLine
 10
803.6151110243
 20
966.9308747805
 30
0.0
 11
909.6151110243
 21
966.9308747805
 31
0.0
  0
LINE
  5
117
330
1F
100
AcDbEntity
  8
0
  6
Continuous
 62
     7
370
    35
100
AcDbLine
 10
909.6151110243
 20
966.9308747805
 30
0.0
 11
930.7692673736
 21
966.9308747805
 31
0.0
  0
LINE
  5
118
330
1F
100
AcDbEntity
  8
0
  6
Continuous
 62
     7
370
    35
100
AcDbLine
 10
931.4043172911
 20
966.9308747805
 30
0.0
 11
937.6151110243
 21
966.9308747805
 31
0.0
  0
SPLINE
  5
119
330
1F
100
AcDbEntity
  8
0
  6
Continuous
 62
     7
370
    35
100
AcDbSpline
210
0.0
220
0.0
230
1.0
 70
    24
 71
     3
 72
     9
 73
     5
 74
     0
 42
0.000000001
 43
0.00000001
 40
0.0
 40
0.0
 40
0.0
 40
0.0
 40
0.185757277313615
 40
1.0
 40
1.0
 40
1.0
 40
1.0
 10
773.7560417561754
 20
971.9295251828789
 30
0.0
 10
773.7569794085696
 20
971.9293272893939
 30
0.0
 10
773.7620271375614
 20
971.9282619557077
 30
0.0
 10
773.7518967991974
 20
971.9303999846568
 30
0.0
 10
773.743648244906
 20
971.9321408591695
 30
0.0
  0
LINE
  5
11A
330
1F
100
AcDbEntity
  8
0
  6
Continuous
 62
     7
370
    35
100
AcDbLine
 10
939.4865738036
 20
971.9321408592
 30
0.0
 11
939.4741621169
 21
971.9295213469
 31
0.0
  0
LINE
  5
11B
330
1F
100
AcDbEntity
  8
0
  6
Continuous
 62
     7
370
    35
100
AcDbLine
 10
803.6151110243
 20
969.9808747804
 30
0.0
 11
775.8151110243
 21
969.9808747804
 31
0.0
  0
LINE
  5
11C
330
1F
100
AcDbEntity
  8
0
  6
Continuous
 62
     7
370
    35
100
AcDbLine
 10
909.6151110243
 20
969.9808747804
 30
0.0
 11
937.4151110243
 21
969.9808747804
 31
0.0
  0
LINE
  5
11D
330
1F
100
AcDbEntity
  8
0
  6
Continuous
 62
     7
370
    35
100
AcDbLine
 10
948.1151110243
 20
921.4808747804
 30
0.0
 11
948.1151110243
 21
946.5308747804
 31
0.0
  0
LINE
  5
11E
330
1F
100
AcDbEntity
  8
0
  6
Continuous
 62
     7
370
    35
100
AcDbLine
 10
948.1151110243
 20
896.4308747804
 30
0.0
 11
948.1151110243
 21
921.4808747804
 31
0.0
  0
LINE
  5
11F
330
1F
100
AcDbEntity
  8
0
  6
Continuous
 62
     7
370
    35
100
AcDbLine
 10
996.6151110243
 20
921.4808747804
 30
0.0
 11
996.6151110243
 21
945.4808747804
 31
0.0
  0
LINE
  5
120
330
1F
100
AcDbEntity
  8
0
  6
Continuous
 62
     7
370
    35
100
AcDbLine
 10
996.6151110243
 20
897.4808747804
 30
0.0
 11
996.6151110243
 21
921.4808747804
 31
0.0
  0
ARC
  5
121
330
1F
100
AcDbEntity
  8
0
  6
Continuous
 62
     7
370
    35
100
AcDbCircle
 10
856.6151110243
 20
921.5308747804
 30
0.0
 40
25.04999999999996
100
AcDbArc
 50
237.7865374201
 51
302.2134625799
  0
SPLINE
  5
122
330
1F
100
AcDbEntity
  8
0
  6
Continuous
 62
     7
370
    35
100
AcDbSpline
210
0.0
220
0.0
230
1.0
 70
    24
 71
     3
 72
    10
 73
     6
 74
     0
 42
0.000000001
 43
0.00000001
 40
0.0
 40
0.0
 40
0.0
 40
0.0
 40
0.212517667566314
 40
0.6062581077228296
 40
1.0
 40
1.0
 40
1.0
 40
1.0
 10
856.6151110242732
 20
946.8428813073677
 30
0.0
 10
856.6151110242723
 20
946.926164816081
 30
0.0
 10
856.6151110242698
 20
947.1637511917237
 30
0.0
 10
856.6151110242732
 20
947.7752157561342
 30
0.0
 10
856.6151110242721
 20
948.4001155944821
 30
0.0
 10
856.6151110242716
 20
948.712566089815
 30
0.0
  0
SPLINE
  5
123
330
1F
100
AcDbEntity
  8
0
  6
Continuous
 62
     7
370
    35
100
AcDbSpline
210
0.0
220
0.0
230
1.0
 70
    24
 71
     3
 72
    18
 73
    14
 74
     0
 42
0.000000001
 43
0.00000001
 40
0.0
 40
0.0
 40
0.0
 40
0.0
 40
0.1056000872447506
 40
0.3249463313005454
 40
0.5456095245813403
 40
0.6686132746948424
 40
0.7011918426142504
 40
0.7339487647370312
 40
0.7672437697818076
 40
0.8035947759165871
 40
0.8401179485066325
 40
0.8975115054529718
 40
1.0
 40
1.0
 40
1.0
 40
1.0
 10
856.6151110242716
 20
948.7125660898147
 30
0.0
 10
856.6151110242716
 20
949.3887746989448
 30
0.0
 10
856.6151110242716
 20
951.4695637632699
 30
0.0
 10
856.6151110242716
 20
954.9015538067965
 30
0.0
 10
856.6151110242716
 20
958.5477182427582
 30
0.0
 10
856.6151110242716
 20
960.6918799891815
 30
0.0
 10
856.6151110242716
 20
961.4739887189658
 30
0.0
 10
856.6151110242716
 20
961.7556077202386
 30
0.0
 10
856.6151110242716
 20
962.2398173229435
 30
0.0
 10
856.6151110242716
 20
962.9999672499964
 30
0.0
 10
856.6151110242716
 20
963.856276106623
 30
0.0
 10
856.6151110242716
 20
965.1778694904228
 30
0.0
 10
856.6151110242716
 20
966.2461070890023
 30
0.0
 10
856.6151110242716
 20
966.9308747803993
 30
0.0
  0
SPLINE
  5
124
330
1F
100
AcDbEntity
  8
0
  6
Continuous
 62
     7
370
    35
100
AcDbSpline
210
0.0
220
0.0
230
1.0
 70
    24
 71
     3
 72
    19
 73
    15
 74
     0
 42
0.000000001
 43
0.00000001
 40
0.0
 40
0.0
 40
0.0
 40
0.0
 40
0.2409130132110047
 40
0.4882582803106248
 40
0.5391715029117174
 40
0.5899404478678678
 40
0.6400693120936225
 40
0.6899887491764568
 40
0.7400419496428569
 40
0.7904190820051351
 40
0.8413201884464373
 40
0.8929676784851881
 40
0.9456873805534199
 40
1.0
 40
1.0
 40
1.0
 40
1.0
 10
856.6151110242716
 20
966.9308747803993
 30
0.0
 10
864.4611541225531
 20
966.9308747803996
 30
0.0
 10
880.3627256456102
 20
966.9308747803997
 30
0.0
 10
897.9281502309105
 20
966.9308747803992
 30
0.0
 10
909.2900370339132
 20
966.9308747803996
 30
0.0
 10
914.2458096281576
 20
966.9308747803987
 30
0.0
 10
919.0301703915676
 20
966.9308747803989
 30
0.0
 10
923.5137483356982
 20
966.9308747803993
 30
0.0
 10
927.5919986262758
 20
966.9308747803996
 30
0.0
 10
931.1652505677708
 20
966.9308747803993
 30
0.0
 10
934.131656312591
 20
966.9308747803992
 30
0.0
 10
936.3616825319559
 20
966.9308747803992
 30
0.0
 10
937.8349926289781
 20
966.9308747803992
 30
0.0
 10
938.0208163800584
 20
966.9308747803992
 30
0.0
 10
938.1151110242716
 20
966.9308747803992
 30
0.0
  0
SPLINE
  5
125
330
1F
100
AcDbEntity
  8
0
  6
Continuous
 62
     7
370
    35
100
AcDbSpline
210
0.0
220
0.0
230
1.0
 70
     8
 71
     3
 72
    16
 73
    12
 74
     0
 42
0.000000001
 43
0.00000001
 40
0.0
 40
0.0
 40
0.0
 40
0.0
 40
0.1465768179208892
 40
0.2110706177997897
 40
0.2609182759381881
 40
0.301662719675315
 40
0.3460236197864481
 40
0.4164469026261889
 40
0.5419712682998772
 40
0.7688489389603064
 40
1.0
 40
1.0
 40
1.0
 40
1.0
 10
938.1151110242716
 20
966.9308747803992
 30
0.0
 10
938.1084411787424
 20
966.0518224517923
 30
0.0
 10
938.0988366011806
 20
964.7859870986362
 30
0.0
 10
938.1382544637138
 20
963.2689275144149
 30
0.0
 10
938.0535846913375
 20
962.2666306594392
 30
0.0
 10
938.7329917131395
 20
961.7196155044204
 30
0.0
 10
939.5409549102732
 20
961.3002891208805
 30
0.0
 10
940.6117227153424
 20
960.300819439648
 30
0.0
 10
941.7808499727925
 20
958.0206507011023
 30
0.0
 10
942.3836629734564
 20
954.5774258943038
 30
0.0
 10
942.9968840296334
 20
951.9224274850918
 30
0.0
 10
943.3063552221087
 20
950.5825427641703
 30
0.0
  0
SPLINE
  5
126
330
1F
100
AcDbEntity
  8
0
  6
Continuous
 62
     7
370
    35
100
AcDbSpline
210
0.0
220
0.0
230
1.0
 70
     8
 71
     3
 72
    25
 73
    21
 74
     0
 42
0.000000001
 43
0.00000001
 40
0.0
 40
0.0
 40
0.0
 40
0.0
 40
0.0403772850825327
 40
0.0581432905171142
 40
0.0718747463632702
 40
0.0830985540815625
 40
0.0953185813390222
 40
0.1147179721021833
 40
0.1492959713349548
 40
0.2292797835274531
 40
0.3102091618275117
 40
0.3726852819818989
 40
0.4313870265629148
 40
0.4804590282852343
 40
0.5235520429457714
 40
0.5708166295125219
 40
0.6751808706738784
 40
0.7818081507417537
 40
0.8902538127997789
 40
1.0
 40
1.0
 40
1.0
 40
1.0
 10
775.1151110242715
 20
966.9308747803992
 30
0.0
 10
775.1217820298016
 20
966.0518221048261
 30
0.0
 10
775.1313882777644
 20
964.7859862520387
 30
0.0
 10
775.0919635597876
 20
963.2689287183393
 30
0.0
 10
775.176648057692
 20
962.266627458832
 30
0.0
 10
774.4971969483595
 20
961.7196254907716
 30
0.0
 10
773.6894397221586
 20
961.3002374995601
 30
0.0
 10
772.6170548749693
 20
960.3012514894868
 30
0.0
 10
771.2897659557699
 20
957.6735735840919
 30
0.0
 10
770.6155474920089
 20
953.4699222997277
 30
0.0
 10
769.5165463167037
 20
948.7743858745665
 30
0.0
 10
768.7780215691016
 20
944.4651112985969
 30
0.0
 10
768.2162414745978
 20
940.8282470026405
 30
0.0
 10
767.8337003322839
 20
937.5880447337059
 30
0.0
 10
767.6415669300641
 20
934.5788068189407
 30
0.0
 10
767.5709832128904
 20
930.368884812883
 30
0.0
 10
767.9271216372365
 20
924.7836530551551
 30
0.0
 10
769.1518449196752
 20
917.9766366674368
 30
0.0
 10
771.1274728887726
 20
911.2137041227063
 30
0.0
 10
773.1021356655324
 20
906.9243444391121
 30
0.0
 10
774.0953520092788
 20
904.7668813056123
 30
0.0
  0
SPLINE
  5
127
330
1F
100
AcDbEntity
  8
0
  6
Continuous
 62
     7
370
    35
100
AcDbSpline
210
0.0
220
0.0
230
1.0
 70
    24
 71
     3
 72
    19
 73
    15
 74
     0
 42
0.000000001
 43
0.00000001
 40
0.0
 40
0.0
 40
0.0
 40
0.0
 40
0.2409130132110047
 40
0.4882582803106248
 40
0.5391715029117174
 40
0.5899404478678678
 40
0.6400693120936225
 40
0.6899887491764568
 40
0.7400419496428569
 40
0.7904190820051351
 40
0.8413201884464373
 40
0.8929676784851881
 40
0.9456873805534199
 40
1.0
 40
1.0
 40
1.0
 40
1.0
 10
856.6151110242716
 20
966.9308747803993
 30
0.0
 10
848.76906792599
 20
966.9308747803996
 30
0.0
 10
832.8674964029329
 20
966.9308747803997
 30
0.0
 10
815.3020718176326
 20
966.9308747803992
 30
0.0
 10
803.94018501463
 20
966.9308747803996
 30
0.0
 10
798.9844124203855
 20
966.9308747803987
 30
0.0
 10
794.2000516569756
 20
966.9308747803989
 30
0.0
 10
789.716473712845
 20
966.9308747803993
 30
0.0
 10
785.6382234222674
 20
966.9308747803996
 30
0.0
 10
782.0649714807723
 20
966.9308747803993
 30
0.0
 10
779.0985657359523
 20
966.9308747803992
 30
0.0
 10
776.8685395165872
 20
966.9308747803992
 30
0.0
 10
775.3952294195651
 20
966.9308747803992
 30
0.0
 10
775.2094056684848
 20
966.9308747803992
 30
0.0
 10
775.1151110242715
 20
966.9308747803992
 30
0.0
  0
SPLINE
  5
128
330
1F
100
AcDbEntity
  8
0
  6
Continuous
 62
     7
370
    35
100
AcDbSpline
210
0.0
220
0.0
230
1.0
 70
     8
 71
     3
 72
    14
 73
    10
 74
     0
 42
0.000000001
 43
0.00000001
 40
0.0
 40
0.0
 40
0.0
 40
0.0
 40
0.149783861674635
 40
0.3039198677007078
 40
0.4537011775423317
 40
0.6078081864720632
 40
0.757933700022959
 40
0.9123691506710971
 40
1.0
 40
1.0
 40
1.0
 40
1.0
 10
774.0953520092788
 20
904.7668813056123
 30
0.0
 10
774.5041987223907
 20
904.0417667927713
 30
0.0
 10
775.3337716654936
 20
902.5704687213597
 30
0.0
 10
777.0173069104294
 20
900.6760299246097
 30
0.0
 10
778.987414082557
 20
899.0595507956652
 30
0.0
 10
781.1887281244451
 20
897.8094791389699
 30
0.0
 10
783.589287888691
 20
896.941581528687
 30
0.0
 10
785.7398000688432
 20
896.5334601148767
 30
0.0
 10
787.0823204425711
 20
896.4948515391677
 30
0.0
 10
787.5683286172006
 20
896.4808747803993
 30
0.0
  0
SPLINE
  5
129
330
1F
100
AcDbEntity
  8
0
  6
Continuous
 62
     7
370
    35
100
AcDbSpline
210
0.0
220
0.0
230
1.0
 70
    24
 71
     3
 72
    19
 73
    15
 74
     0
 42
0.000000001
 43
0.00000001
 40
0.0
 40
0.0
 40
0.0
 40
0.0
 40
0.0339082014123468
 40
0.0838890956615421
 40
0.133885640693628
 40
0.178763919083391
 40
0.2236368521988092
 40
0.2646138248638288
 40
0.3055644086924265
 40
0.3465596390526824
 40
0.387605999897298
 40
0.5510999779005354
 40
0.7146015071203452
 40
1.0
 40
1.0
 40
1.0
 40
1.0
 10
787.5683286172006
 20
896.4808747803993
 30
0.0
 10
787.7087584706303
 20
896.4808747803993
 30
0.0
 10
788.0561827785388
 20
896.4808747803993
 30
0.0
 10
789.254058945336
 20
896.4808747803993
 30
0.0
 10
791.1042537658053
 20
896.4808747803993
 30
0.0
 10
793.3966061862848
 20
896.4808747803993
 30
0.0
 10
795.9194977175348
 20
896.4808747803993
 30
0.0
 10
798.6851154208833
 20
896.4808747803993
 30
0.0
 10
801.61390642819
 20
896.4808747803993
 30
0.0
 10
804.7603490089421
 20
896.4808747803993
 30
0.0
 10
811.2512055599306
 20
896.4808747803993
 30
0.0
 10
820.9888146739437
 20
896.4808747803993
 30
0.0
 10
837.1916208913659
 20
896.4808747803993
 30
0.0
 10
849.0658177909172
 20
896.4808747803993
 30
0.0
 10
856.6151110242716
 20
896.4808747803993
 30
0.0
  0
SPLINE
  5
12A
330
1F
100
AcDbEntity
  8
0
  6
Continuous
 62
     7
370
    35
100
AcDbSpline
210
0.0
220
0.0
230
1.0
 70
    24
 71
     3
 72
    19
 73
    15
 74
     0
 42
0.000000001
 43
0.00000001
 40
0.0
 40
0.0
 40
0.0
 40
0.0
 40
0.0339064855174944
 40
0.0831372973791105
 40
0.1338840147718002
 40
0.1782456415880458
 40
0.2236320967859899
 40
0.2641259724126861
 40
0.305557060192373
 40
0.3459382551888677
 40
0.38763784298138
 40
0.551087819285942
 40
0.7146159494612702
 40
1.0
 40
1.0
 40
1.0
 40
1.0
 10
925.6618934313426
 20
896.4808747803993
 30
0.0
 10
925.5213074985423
 20
896.4808747803993
 30
0.0
 10
925.1765966173008
 20
896.4808747803993
 30
0.0
 10
923.9883254131931
 20
896.4808747803988
 30
0.0
 10
922.1436111346494
 20
896.4808747804008
 30
0.0
 10
919.8443383503655
 20
896.4808747803991
 30
0.0
 10
917.330477139542
 20
896.4808747803994
 30
0.0
 10
914.5577697105747
 20
896.4808747803993
 30
0.0
 10
911.6407291609679
 20
896.4808747803994
 30
0.0
 10
908.4933199437753
 20
896.4808747803993
 30
0.0
 10
901.9912722632295
 20
896.4808747803994
 30
0.0
 10
892.2445867312865
 20
896.4808747803993
 30
0.0
 10
876.0384391811853
 20
896.4808747803993
 30
0.0
 10
864.1639827581029
 20
896.4808747803993
 30
0.0
 10
856.6151110242716
 20
896.4808747803993
 30
0.0
  0
LINE
  5
12B
330
1F
100
AcDbEntity
  8
0
  6
Continuous
 62
     7
370
    35
100
AcDbLine
 10
943.3063552221
 20
950.5825427642
 30
0.0
 11
943.5284138101
 21
949.1620752749
 31
0.0
  0
SPLINE
  5
12C
330
1F
100
AcDbEntity
  8
0
  6
Continuous
 62
     7
370
    35
100
AcDbSpline
210
0.0
220
0.0
230
1.0
 70
     8
 71
     3
 72
    13
 73
     9
 74
     0
 42
0.000000001
 43
0.00000001
 40
0.0
 40
0.0
 40
0.0
 40
0.0
 40
0.0095081972613503
 40
0.0791116948017361
 40
0.3094644223199412
 40
0.5396843471459964
 40
0.7698410895023545
 40
1.0
 40
1.0
 40
1.0
 40
1.0
 10
946.5129454507984
 20
946.4808747803993
 30
0.0
 10
946.4990792209843
 20
946.4809369443311
 30
0.0
 10
946.383707094076
 20
946.4814541710844
 30
0.0
 10
945.9329287539421
 20
946.5109893157844
 30
0.0
 10
945.1734546879064
 20
946.7311010028457
 30
0.0
 10
944.344462554777
 20
947.3291417618972
 30
0.0
 10
943.7348064974766
 20
948.1667226869972
 30
0.0
 10
943.5972115886003
 20
948.8302900371318
 30
0.0
 10
943.528413810118
 20
949.1620752749395
 30
0.0
  0
LINE
  5
12D
330
1F
100
AcDbEntity
  8
0
  6
Continuous
 62
     7
370
    35
100
AcDbLine
 10
1429.1151110243
 20
977.9273132799
 30
0.0
 11
1429.1151110243
 21
976.9273132799
 31
0.0
  0
LINE
  5
12E
330
1F
100
AcDbEntity
  8
0
  6
Continuous
 62
     7
370
    35
100
AcDbLine
 10
1429.1151110243
 20
976.9273132799
 30
0.0
 11
1419.1151110243
 21
976.9273132799
 31
0.0
  0
LINE
  5
12F
330
1F
100
AcDbEntity
  8
0
  6
Continuous
 62
     7
370
    35
100
AcDbLine
 10
1419.1151110243
 20
977.9273132799
 30
0.0
 11
1429.1151110243
 21
977.9273132799
 31
0.0
  0
LINE
  5
130
330
1F
100
AcDbEntity
  8
0
  6
Continuous
 62
     7
370
    35
100
AcDbLine
 10
1419.1151110243
 20
976.9273132799
 30
0.0
 11
1396.6151110243
 21
976.9273132799
 31
0.0
  0
LINE
  5
131
330
1F
100
AcDbEntity
  8
0
  6
Continuous
 62
     7
370
    35
100
AcDbLine
 10
1419.1151110243
 20
977.9273132799
 30
0.0
 11
1396.6151110243
 21
977.9273132799
 31
0.0
  0
LINE
  5
132
330
1F
100
AcDbEntity
  8
0
  6
Continuous
 62
     7
370
    35
100
AcDbLine
 10
294.1151110243
 20
976.9273132799
 30
0.0
 11
284.1151110243
 21
976.9273132799
 31
0.0
  0
LINE
  5
133
330
1F
100
AcDbEntity
  8
0
  6
Continuous
 62
     7
370
    35
100
AcDbLine
 10
284.1151110243
 20
976.9273132799
 30
0.0
 11
284.1151110243
 21
977.9273132799
 31
0.0
  0
LINE
  5
134
330
1F
100
AcDbEntity
  8
0
  6
Continuous
 62
     7
370
    35
100
AcDbLine
 10
284.1151110243
 20
977.9273132799
 30
0.0
 11
294.1151110243
 21
977.9273132799
 31
0.0
  0
LINE
  5
135
330
1F
100
AcDbEntity
  8
0
  6
Continuous
 62
     7
370
    35
100
AcDbLine
 10
316.6151110243
 20
977.9273132799
 30
0.0
 11
294.1151110243
 21
977.9273132799
 31
0.0
  0
LINE
  5
136
330
1F
100
AcDbEntity
  8
0
  6
Continuous
 62
     7
370
    35
100
AcDbLine
 10
316.6151110243
 20
976.9273132799
 30
0.0
 11
294.1151110243
 21
976.9273132799
 31
0.0
  0
LINE
  5
137
330
1F
100
AcDbEntity
  8
0
  6
Continuous
 62
     7
370
    35
100
AcDbLine
 10
1396.6151110243
 20
988.9273132799
 30
0.0
 11
1396.6151110243
 21
978.92731328
 31
0.0
  0
ARC
  5
138
330
1F
100
AcDbEntity
  8
0
  6
Continuous
 62
     7
370
    35
100
AcDbCircle
 10
1397.6151110243
 20
988.9273132799
 30
0.0
 40
1.000000000000227
100
AcDbArc
 50
0.0
 51
180.0
  0
LINE
  5
139
330
1F
100
AcDbEntity
  8
0
  6
Continuous
 62
     7
370
    35
100
AcDbLine
 10
1398.6151110243
 20
988.9273132799
 30
0.0
 11
1398.6151110243
 21
977.9273132799
 31
0.0
  0
LINE
  5
13A
330
1F
100
AcDbEntity
  8
0
  6
Continuous
 62
     7
370
    35
100
AcDbLine
 10
1398.6151110243
 20
976.9273132799
 30
0.0
 11
1398.6151110243
 21
971.2014538016
 31
0.0
  0
LINE
  5
13B
330
1F
100
AcDbEntity
  8
0
  6
Continuous
 62
     7
370
    35
100
AcDbLine
 10
1396.6151110243
 20
974.9932612239
 30
0.0
 11
1396.6151110243
 21
971.2014538016
 31
0.0
  0
LINE
  5
13C
330
1F
100
AcDbEntity
  8
0
  6
Continuous
 62
     7
370
    35
100
AcDbLine
 10
1398.6151110243
 20
971.2014538016
 30
0.0
 11
1398.6151110243
 21
969.3888382275
 31
0.0
  0
LINE
  5
13D
330
1F
100
AcDbEntity
  8
0
  6
Continuous
 62
     7
370
    35
100
AcDbLine
 10
1396.6151110243
 20
969.3888382275
 30
0.0
 11
1396.6151110243
 21
971.2014538016
 31
0.0
  0
LINE
  5
13E
330
1F
100
AcDbEntity
  8
0
  6
Continuous
 62
     7
370
    35
100
AcDbLine
 10
1398.6151110243
 20
969.3888382275
 30
0.0
 11
1398.6151110243
 21
962.1305389429
 31
0.0
  0
LINE
  5
13F
330
1F
100
AcDbEntity
  8
0
  6
Continuous
 62
     7
370
    35
100
AcDbLine
 10
1396.6151110243
 20
969.3888382275
 30
0.0
 11
1396.6151110243
 21
962.1305389429
 31
0.0
  0
LINE
  5
140
330
1F
100
AcDbEntity
  8
0
  6
Continuous
 62
     7
370
    35
100
AcDbLine
 10
1398.6151110243
 20
962.1305389429
 30
0.0
 11
1398.6151110243
 21
960.3179233688
 31
0.0
  0
LINE
  5
141
330
1F
100
AcDbEntity
  8
0
  6
Continuous
 62
     7
370
    35
100
AcDbLine
 10
1396.6151110243
 20
960.3179233688
 30
0.0
 11
1396.6151110243
 21
962.1305389429
 31
0.0
  0
LINE
  5
142
330
1F
100
AcDbEntity
  8
0
  6
Continuous
 62
     7
370
    35
100
AcDbLine
 10
1398.6151110243
 20
960.3179233688
 30
0.0
 11
1398.6151110243
 21
926.0273132799
 31
0.0
  0
LINE
  5
143
330
1F
100
AcDbEntity
  8
0
  6
Continuous
 62
     7
370
    35
100
AcDbLine
 10
1396.6151110243
 20
960.3179233688
 30
0.0
 11
1396.6151110243
 21
926.0273132799
 31
0.0
  0
LINE
  5
144
330
1F
100
AcDbEntity
  8
0
  6
Continuous
 62
     7
370
    35
100
AcDbLine
 10
1398.6151110243
 20
924.0273132799
 30
0.0
 11
1396.6151110243
 21
924.0273132799
 31
0.0
  0
LINE
  5
145
330
1F
100
AcDbEntity
  8
0
  6
Continuous
 62
     7
370
    35
100
AcDbLine
 10
1398.6151110243
 20
926.0273132799
 30
0.0
 11
1398.6151110243
 21
924.0273132799
 31
0.0
  0
LINE
  5
146
330
1F
100
AcDbEntity
  8
0
  6
Continuous
 62
     7
370
    35
100
AcDbLine
 10
1396.6151110243
 20
924.0273132799
 30
0.0
 11
1396.6151110243
 21
926.0273132799
 31
0.0
  0
ARC
  5
147
330
1F
100
AcDbEntity
  8
0
  6
Continuous
 62
     7
370
    35
100
AcDbCircle
 10
315.6151110243
 20
988.9273132799
 30
0.0
 40
1.0
100
AcDbArc
 50
0.0
 51
180.0
  0
LINE
  5
148
330
1F
100
AcDbEntity
  8
0
  6
Continuous
 62
     7
370
    35
100
AcDbLine
 10
316.6151110243
 20
978.92731328
 30
0.0
 11
316.6151110243
 21
988.9273132799
 31
0.0
  0
LINE
  5
149
330
1F
100
AcDbEntity
  8
0
  6
Continuous
 62
     7
370
    35
100
AcDbLine
 10
314.6151110243
 20
977.9273132799
 30
0.0
 11
314.6151110243
 21
988.9273132799
 31
0.0
  0
LINE
  5
14A
330
1F
100
AcDbEntity
  8
0
  6
Continuous
 62
     7
370
    35
100
AcDbLine
 10
316.6151110243
 20
971.2014538016
 30
0.0
 11
316.6151110243
 21
974.9932612239
 31
0.0
  0
LINE
  5
14B
330
1F
100
AcDbEntity
  8
0
  6
Continuous
 62
     7
370
    35
100
AcDbLine
 10
314.6151110243
 20
971.2014538016
 30
0.0
 11
314.6151110243
 21
976.9273132799
 31
0.0
  0
LINE
  5
14C
330
1F
100
AcDbEntity
  8
0
  6
Continuous
 62
     7
370
    35
100
AcDbLine
 10
316.6151110243
 20
971.2014538016
 30
0.0
 11
316.6151110243
 21
969.3888382275
 31
0.0
  0
LINE
  5
14D
330
1F
100
AcDbEntity
  8
0
  6
Continuous
 62
     7
370
    35
100
AcDbLine
 10
314.6151110243
 20
969.3888382275
 30
0.0
 11
314.6151110243
 21
971.2014538016
 31
0.0
  0
LINE
  5
14E
330
1F
100
AcDbEntity
  8
0
  6
Continuous
 62
     7
370
    35
100
AcDbLine
 10
316.6151110243
 20
962.1305389429
 30
0.0
 11
316.6151110243
 21
969.3888382275
 31
0.0
  0
LINE
  5
14F
330
1F
100
AcDbEntity
  8
0
  6
Continuous
 62
     7
370
    35
100
AcDbLine
 10
314.6151110243
 20
962.1305389429
 30
0.0
 11
314.6151110243
 21
969.3888382275
 31
0.0
  0
LINE
  5
150
330
1F
100
AcDbEntity
  8
0
  6
Continuous
 62
     7
370
    35
100
AcDbLine
 10
316.6151110243
 20
962.1305389429
 30
0.0
 11
316.6151110243
 21
960.3179233688
 31
0.0
  0
LINE
  5
151
330
1F
100
AcDbEntity
  8
0
  6
Continuous
 62
     7
370
    35
100
AcDbLine
 10
314.6151110243
 20
960.3179233688
 30
0.0
 11
314.6151110243
 21
962.1305389429
 31
0.0
  0
LINE
  5
152
330
1F
100
AcDbEntity
  8
0
  6
Continuous
 62
     7
370
    35
100
AcDbLine
 10
316.6151110243
 20
926.0273132799
 30
0.0
 11
316.6151110243
 21
960.3179233688
 31
0.0
  0
LINE
  5
153
330
1F
100
AcDbEntity
  8
0
  6
Continuous
 62
     7
370
    35
100
AcDbLine
 10
314.6151110243
 20
926.0273132799
 30
0.0
 11
314.6151110243
 21
960.3179233688
 31
0.0
  0
LINE
  5
154
330
1F
100
AcDbEntity
  8
0
  6
Continuous
 62
     7
370
    35
100
AcDbLine
 10
316.6151110243
 20
924.0273132799
 30
0.0
 11
314.6151110243
 21
924.0273132799
 31
0.0
  0
LINE
  5
155
330
1F
100
AcDbEntity
  8
0
  6
Continuous
 62
     7
370
    35
100
AcDbLine
 10
316.6151110243
 20
926.0273132799
 30
0.0
 11
316.6151110243
 21
924.0273132799
 31
0.0
  0
LINE
  5
156
330
1F
100
AcDbEntity
  8
0
  6
Continuous
 62
     7
370
    35
100
AcDbLine
 10
314.6151110243
 20
924.0273132799
 30
0.0
 11
314.6151110243
 21
926.0273132799
 31
0.0
  0
LINE
  5
157
330
1F
100
AcDbEntity
  8
0
  6
Continuous
 62
     8
370
    18
100
AcDbLine
 10
1396.6151110243
 20
978.92731328
 30
0.0
 11
316.6151110243
 21
978.92731328
 31
0.0
  0
LINE
  5
158
330
1F
100
AcDbEntity
  8
0
  6
Continuous
 62
     8
370
    18
100
AcDbLine
 10
316.6151110243
 20
988.42731328
 30
0.0
 11
1396.6151110243
 21
988.42731328
 31
0.0
  0
LINE
  5
159
330
1F
100
AcDbEntity
  8
0
  6
Continuous
 62
     8
370
    18
100
AcDbLine
 10
316.6151110243
 20
975.6892317692
 30
0.0
 11
1396.6151110243
 21
975.6892317692
 31
0.0
  0
LINE
  5
15A
330
1F
100
AcDbEntity
  8
0
  6
Continuous
 62
     8
370
    18
100
AcDbLine
 10
316.6151110243
 20
973.6924484281
 30
0.0
 11
1396.6151110243
 21
973.6924484281
 31
0.0
  0
LINE
  5
15B
330
1F
100
AcDbEntity
  8
0
  6
Continuous
 62
     8
370
    18
100
AcDbLine
 10
316.6151110243
 20
971.9321408592
 30
0.0
 11
773.7436482449
 21
971.9321408592
 31
0.0
  0
LINE
  5
15C
330
1F
100
AcDbEntity
  8
0
  6
Continuous
 62
     8
370
    18
100
AcDbLine
 10
939.4865738036
 20
971.9321408592
 30
0.0
 11
1396.6151110243
 21
971.9321408592
 31
0.0
  0
SPLINE
  5
15D
330
1F
100
AcDbEntity
  8
0
  6
Continuous
 62
     8
370
    18
100
AcDbSpline
210
0.0
220
0.0
230
1.0
 70
     8
 71
     3
 72
    10
 73
     6
 74
     0
 42
0.000000001
 43
0.00000001
 40
0.0
 40
0.0
 40
0.0
 40
0.0
 40
0.5
 40
0.5
 40
1.0
 40
1.0
 40
1.0
 40
1.0
 10
803.6151110242716
 20
971.7062416935225
 30
0.0
 10
802.5482987669259
 20
971.7062416935225
 30
0.0
 10
801.4887813554699
 20
971.6877890766644
 30
0.0
 10
799.3836549206426
 20
971.6347654702681
 30
0.0
 10
798.3380425999352
 20
971.6002954931474
 30
0.0
 10
797.298998917176
 20
971.5856583572039
 30
0.0
  0
ARC
  5
15E
330
1F
100
AcDbEntity
  8
0
  6
Continuous
 62
     8
370
    18
100
AcDbCircle
 10
794.1284353437
 20
971.9472495364
 30
0.0
 40
3.191116035873086
100
AcDbArc
 50
353.4937367838
 51
30.6135263841
  0
LINE
  5
15F
330
1F
100
AcDbEntity
  8
0
  6
Continuous
 62
     8
370
    18
100
AcDbLine
 10
803.6151110243
 20
971.7062416935
 30
0.0
 11
803.6151110243
 21
973.5912761272
 31
0.0
  0
SPLINE
  5
160
330
1F
100
AcDbEntity
  8
0
  6
Continuous
 62
     8
370
    18
100
AcDbSpline
210
0.0
220
0.0
230
1.0
 70
     8
 71
     3
 72
    10
 73
     6
 74
     0
 42
0.000000001
 43
0.00000001
 40
0.0
 40
0.0
 40
0.0
 40
0.0
 40
0.5
 40
0.5
 40
1.0
 40
1.0
 40
1.0
 40
1.0
 10
915.931223131367
 20
971.5856583573388
 30
0.0
 10
914.8921794486087
 20
971.600295493283
 30
0.0
 10
913.8465671279007
 20
971.6347654702681
 30
0.0
 10
911.7414406930734
 20
971.6877890766644
 30
0.0
 10
910.681923281613
 20
971.7062416932259
 30
0.0
 10
909.6151110242691
 20
971.7062416932258
 30
0.0
  0
LINE
  5
161
330
1F
100
AcDbEntity
  8
0
  6
Continuous
 62
     8
370
    18
100
AcDbLine
 10
909.6151110243
 20
971.7062416934
 30
0.0
 11
909.6151110243
 21
973.5912761272
 31
0.0
  0
ARC
  5
162
330
1F
100
AcDbEntity
  8
0
  6
Continuous
 62
     8
370
    18
100
AcDbCircle
 10
919.1017867045
 20
971.9472495365
 30
0.0
 40
3.191116035541899
100
AcDbArc
 50
149.386473613
 51
186.5062632177
  0
LINE
  5
163
330
1F
100
AcDbEntity
  8
0
  6
Continuous
 62
     8
370
    18
100
AcDbLine
 10
909.6151110243
 20
971.7062416934
 30
0.0
 11
803.6151110243
 21
971.7062416935
 31
0.0
  0
ELLIPSE
  5
164
330
1F
100
AcDbEntity
  8
0
  6
Continuous
 62
     8
370
    18
100
AcDbEllipse
 10
909.6151110243
 20
969.9260420194
 30
0.0
 11
27.99999999999989
 21
0.0
 31
0.0
210
0.0
220
0.0
230
1.0
 40
0.0608401234
 41
0.009448938617684
 42
1.343262674843448
  0
ARC
  5
165
330
1F
100
AcDbEntity
  8
0
  6
Continuous
 62
     8
370
    18
100
AcDbCircle
 10
939.6132619734
 20
969.9394312107
 30
0.0
 40
1.999402726574004
100
AcDbArc
 50
93.4033047991
 51
179.9224253183
  0
ELLIPSE
  5
166
330
1F
100
AcDbEntity
  8
0
  6
Continuous
 62
     8
370
    18
100
AcDbEllipse
 10
803.6151110243
 20
969.9260420194
 30
0.0
 11
27.99999999999989
 21
0.0
 31
0.0
210
0.0
220
0.0
230
1.0
 40
0.0608401234
 41
1.798329978746353
 42
3.132143714972111
  0
ARC
  5
167
330
1F
100
AcDbEntity
  8
0
  6
Continuous
 62
     8
370
    18
100
AcDbCircle
 10
773.6169600751
 20
969.9394312107
 30
0.0
 40
1.999402726574312
100
AcDbArc
 50
0.0775746817
 51
86.5966952046
  0
LINE
  5
168
330
1F
100
AcDbEntity
  8
0
  6
Continuous
 62
     8
370
    18
100
AcDbLine
 10
803.6151110243
 20
971.7062416935
 30
0.0
 11
803.6151110243
 21
966.9308747805
 31
0.0
  0
LINE
  5
169
330
1F
100
AcDbEntity
  8
0
  6
Continuous
 62
     8
370
    18
100
AcDbLine
 10
909.6151110243
 20
971.7062416934
 30
0.0
 11
909.6151110243
 21
966.9308747805
 31
0.0
  0
LINE
  5
16A
330
1F
100
AcDbEntity
  8
0
  6
Continuous
 62
     8
370
    18
100
AcDbLine
 10
803.6151110243
 20
969.6380732521
 30
0.0
 11
775.675083443
 21
969.6380732521
 31
0.0
  0
LINE
  5
16B
330
1F
100
AcDbEntity
  8
0
  6
Continuous
 62
     8
370
    18
100
AcDbLine
 10
909.6151110243
 20
969.6380732521
 30
0.0
 11
937.5551386055
 21
969.6380732521
 31
0.0
  0
LINE
  5
16C
330
1F
100
AcDbEntity
  8
0
  6
Continuous
 62
     8
370
    18
100
AcDbLine
 10
991.30350937
 20
896.4308747804
 30
0.0
 11
991.30350937
 21
946.5308747804
 31
0.0
  0
LINE
  5
16D
330
1F
100
AcDbEntity
  8
0
  6
Continuous
 62
     8
370
    18
100
AcDbLine
 10
991.9200610728
 20
946.4668352702
 30
0.0
 11
991.9200610728
 21
896.4949142906
 31
0.0
  0
SPLINE
  5
16E
330
1F
100
AcDbEntity
  8
0
  6
Continuous
 62
     8
370
    18
100
AcDbSpline
210
0.0
220
0.0
230
1.0
 70
     8
 71
     3
 72
    33
 73
    29
 74
     0
 42
0.000000001
 43
0.00000001
 40
0.0
 40
0.0
 40
0.0
 40
0.0
 40
0.0420694805196953
 40
0.084388443038162
 40
0.1054254118363549
 40
0.1478084180885781
 40
0.1908708294596757
 40
0.2346249844283154
 40
0.2566774230954352
 40
0.2919631051304047
 40
0.3274716165362355
 40
0.3636903997735275
 40
0.4001608597629994
 40
0.4308871503519112
 40
0.4617758629698845
 40
0.4929198210567731
 40
0.524414595046751
 40
0.5762252118466479
 40
0.6285929245268294
 40
0.6833701247922489
 40
0.7388451995033065
 40
0.7691720205739078
 40
0.815060367563022
 40
0.8615324906874935
 40
0.8956623911437293
 40
0.9301881902968918
 40
0.9649049432978499
 40
1.0
 40
1.0
 40
1.0
 40
1.0
 10
856.6151110242741
 20
946.8428813073677
 30
0.0
 10
857.4321405887534
 20
946.822123570738
 30
0.0
 10
859.0710448968368
 20
946.7804849991762
 30
0.0
 10
861.0989817314246
 20
946.4836675405401
 30
0.0
 10
863.1028066158243
 20
946.0579383203968
 30
0.0
 10
865.0858635760793
 20
945.4851665141323
 30
0.0
 10
867.410951784705
 20
944.5679212546163
 30
0.0
 10
869.2842294270217
 20
943.6111828408172
 30
0.0
 10
870.9504375617532
 20
942.601410916903
 30
0.0
 10
872.418318392349
 20
941.5786162084671
 30
0.0
 10
874.0107552405117
 20
940.2670462527092
 30
0.0
 10
875.5089461085353
 20
938.8129994195489
 30
0.0
 10
876.8220557692127
 20
937.3070428804444
 30
0.0
 10
877.9538246405627
 20
935.7848211764413
 30
0.0
 10
878.9196760936225
 20
934.2703257747465
 30
0.0
 10
879.7811122882915
 20
932.6745022885974
 30
0.0
 10
880.6897921635966
 20
930.647628571073
 30
0.0
 10
881.5278511248177
 20
928.142863411084
 30
0.0
 10
882.1366068512559
 20
925.1080748768936
 30
0.0
 10
882.3549807701539
 20
921.9541045007338
 30
0.0
 10
882.182865120743
 20
919.2392727039319
 30
0.0
 10
881.7681689567195
 20
916.7481623236861
 30
0.0
 10
881.1786552719342
 20
914.4829091178817
 30
0.0
 10
880.3333594610185
 20
912.2466751471984
 30
0.0
 10
879.3920747867597
 20
910.3066909852413
 30
0.0
 10
878.4217941634313
 20
908.6463060887966
 30
0.0
 10
877.3333704219858
 20
907.0505350711463
 30
0.0
 10
876.5137865323712
 20
906.0613776106904
 30
0.0
 10
876.1017739631438
 20
905.5641188043412
 30
0.0
  0
LINE
  5
16F
330
1F
100
AcDbEntity
  8
0
  6
Continuous
 62
     8
370
    18
100
AcDbLine
 10
876.1017739631
 20
905.5641188043
 30
0.0
 11
867.5330148103
 21
914.626762045
 31
0.0
  0
SPLINE
  5
170
330
1F
100
AcDbEntity
  8
0
  6
Continuous
 62
     8
370
    18
100
AcDbSpline
210
0.0
220
0.0
230
1.0
 70
     8
 71
     3
 72
    19
 73
    15
 74
     0
 42
0.000000001
 43
0.00000001
 40
0.0
 40
0.0
 40
0.0
 40
0.0
 40
0.0723119353046641
 40
0.1445206361806436
 40
0.2538055534572515
 40
0.3457400466261738
 40
0.4376020288244569
 40
0.5576187311953654
 40
0.6329165099067154
 40
0.7083141187347095
 40
0.8053610917388585
 40
0.9023999691423442
 40
0.9968144251432691
 40
1.0
 40
1.0
 40
1.0
 40
1.0
 10
867.5330148102931
 20
914.6267620449554
 30
0.0
 10
868.0656359048121
 20
915.1603353056281
 30
0.0
 10
869.1301177099083
 20
916.2267200836943
 30
0.0
 10
870.6929296343118
 20
918.3676226396603
 30
0.0
 10
871.8942425515934
 20
921.0045604868254
 30
0.0
 10
872.1139700159599
 20
924.1130029947333
 30
0.0
 10
871.234411489172
 20
927.2053979429077
 30
0.0
 10
869.5143902969099
 20
929.7233901527134
 30
0.0
 10
867.397698153762
 20
931.6020936264778
 30
0.0
 10
865.2111958771565
 20
932.9884180404536
 30
0.0
 10
862.6241657804507
 20
934.1090653584766
 30
0.0
 10
859.6964848644636
 20
934.83831430138
 30
0.0
 10
857.6643554293778
 20
934.9898883470521
 30
0.0
 10
856.6482749525132
 20
934.9775738666508
 30
0.0
 10
856.6151110242739
 20
934.977171933385
 30
0.0
  0
SPLINE
  5
171
330
1F
100
AcDbEntity
  8
0
  6
Continuous
 62
     8
370
    18
100
AcDbSpline
210
0.0
220
0.0
230
1.0
 70
    24
 71
     3
 72
    21
 73
    17
 74
     0
 42
0.000000001
 43
0.00000001
 40
0.0
 40
0.0
 40
0.0
 40
0.0
 40
0.0720514219264897
 40
0.1446031256582988
 40
0.2187326761060842
 40
0.2934074331762745
 40
0.3654588516753335
 40
0.4380105213676725
 40
0.5121399203051912
 40
0.5868144764983391
 40
0.658867924602601
 40
0.7314216095207168
 40
0.805552947698986
 40
0.8802294033636554
 40
0.9908667802310032
 40
1.0
 40
1.0
 40
1.0
 40
1.0
 10
856.6151110242705
 20
946.8428813073677
 30
0.0
 10
856.6151110242716
 20
946.6883284653973
 30
0.0
 10
856.6151110242737
 20
946.3781496593342
 30
0.0
 10
856.6151110242799
 20
945.8074850066059
 30
0.0
 10
856.6151110242553
 20
945.1585062374573
 30
0.0
 10
856.6151110242805
 20
944.4356651372354
 30
0.0
 10
856.6151110242694
 20
943.6515029004631
 30
0.0
 10
856.6151110242763
 20
942.8087421458247
 30
0.0
 10
856.6151110242674
 20
941.8998578928351
 30
0.0
 10
856.6151110242675
 20
940.9428870976508
 30
0.0
 10
856.6151110242657
 20
939.9505962662146
 30
0.0
 10
856.6151110242757
 20
938.9261204553388
 30
0.0
 10
856.6151110242702
 20
937.8609786130768
 30
0.0
 10
856.6151110242588
 20
936.5883994901802
 30
0.0
 10
856.6151110243112
 20
935.6192373329692
 30
0.0
 10
856.6151110242627
 20
935.0226641815123
 30
0.0
 10
856.6151110242591
 20
934.977171933385
 30
0.0
  0
SPLINE
  5
172
330
1F
100
AcDbEntity
  8
0
  6
Continuous
 62
     8
370
    18
100
AcDbSpline
210
0.0
220
0.0
230
1.0
 70
     8
 71
     3
 72
    33
 73
    29
 74
     0
 42
0.000000001
 43
0.00000001
 40
0.0
 40
0.0
 40
0.0
 40
0.0
 40
0.0272519121761658
 40
0.0643955705395717
 40
0.1017679836315407
 40
0.1399161503387467
 40
0.1783602451249384
 40
0.230931335045729
 40
0.2840751350454411
 40
0.3463079719325252
 40
0.3778605917353931
 40
0.4098349893637236
 40
0.4664493290388059
 40
0.5237708874937607
 40
0.555266025897018
 40
0.5869395080180235
 40
0.6191572696364613
 40
0.6515559584292163
 40
0.6730472716079229
 40
0.7163558120329139
 40
0.7603800963832682
 40
0.8051322093176839
 40
0.827694976782534
 40
0.8487242154456205
 40
0.8910915758444984
 40
0.9341506962041376
 40
0.977926365073945
 40
1.0
 40
1.0
 40
1.0
 40
1.0
 10
837.1284480853993
 20
905.5641188043412
 30
0.0
 10
836.8069773115632
 20
905.9487080213859
 30
0.0
 10
836.047350105987
 20
906.8574824917741
 30
0.0
 10
834.9642306002427
 20
908.396872798387
 30
0.0
 10
833.8917091894643
 20
910.1961244103339
 30
0.0
 10
832.9572138192594
 20
912.1156166625615
 30
0.0
 10
832.0822832349432
 20
914.3911782905294
 30
0.0
 10
831.368956998438
 20
917.047378065413
 30
0.0
 10
830.9240208017624
 20
920.2497271397374
 30
0.0
 10
830.9233669014769
 20
923.1040912236649
 30
0.0
 10
831.1979765521052
 20
925.5298905722785
 30
0.0
 10
831.6364033989339
 20
927.8231183963842
 30
0.0
 10
832.4634659535897
 20
930.5427594250388
 30
0.0
 10
833.6443683540484
 20
933.1137599373149
 30
0.0
 10
834.8337839935881
 20
935.122292378909
 30
0.0
 10
835.8886691229014
 20
936.6370609582316
 30
0.0
 10
837.0622401508771
 20
938.081074693233
 30
0.0
 10
838.2034981374353
 20
939.2896393097966
 30
0.0
 10
839.5711373823348
 20
940.5701762254618
 30
0.0
 10
841.2046292118348
 20
941.8882485702433
 30
0.0
 10
843.3349040072599
 20
943.2838372535483
 30
0.0
 10
845.240712884043
 20
944.2811737573475
 30
0.0
 10
846.8073950835112
 20
944.9572193121307
 30
0.0
 10
848.3630024096474
 20
945.5409522302153
 30
0.0
 10
850.3406608274128
 20
946.1287047093455
 30
0.0
 10
852.8011929677938
 20
946.6081762217835
 30
0.0
 10
854.9081033409993
 20
946.8202735734867
 30
0.0
 10
856.1865554622726
 20
946.8372054863424
 30
0.0
 10
856.6151110242707
 20
946.8428813073677
 30
0.0
  0
SPLINE
  5
173
330
1F
100
AcDbEntity
  8
0
  6
Continuous
 62
     8
370
    18
100
AcDbSpline
210
0.0
220
0.0
230
1.0
 70
     8
 71
     3
 72
    20
 73
    16
 74
     0
 42
0.000000001
 43
0.00000001
 40
0.0
 40
0.0
 40
0.0
 40
0.0
 40
0.0031848875244883
 40
0.0996872166702682
 40
0.1961928561586084
 40
0.292913896026428
 40
0.3894614585497525
 40
0.4531459406897252
 40
0.5167654851003682
 40
0.6214864979190137
 40
0.7268808125404118
 40
0.8182687157727465
 40
0.8939620144270483
 40
0.9698304221395906
 40
0.9999999999999999
 40
0.9999999999999999
 40
0.9999999999999999
 40
0.9999999999999999
 10
856.6151110242739
 20
934.977171933385
 30
0.0
 10
856.5819470286887
 20
934.9775745802615
 30
0.0
 10
855.5439114974057
 20
934.9901774574778
 30
0.0
 10
853.4953748328649
 20
934.8294398472376
 30
0.0
 10
850.5556947005691
 20
934.0939156663802
 30
0.0
 10
847.7760784934303
 20
932.8842715442914
 30
0.0
 10
845.5333717700687
 20
931.3912655164927
 30
0.0
 10
843.8515645675284
 20
929.763401706159
 30
0.0
 10
842.4000179365289
 20
927.8211488314737
 30
0.0
 10
841.2459785692655
 20
925.1536795291223
 30
0.0
 10
841.146176804905
 20
921.929080916906
 30
0.0
 10
842.0921967394505
 20
919.2082500005208
 30
0.0
 10
843.4440609778816
 20
917.0574513623582
 30
0.0
 10
844.6795499154916
 20
915.6149318425989
 30
0.0
 10
845.4717991106817
 20
914.8456387717525
 30
0.0
 10
845.6972072382503
 20
914.6267620449554
 30
0.0
  0
LINE
  5
174
330
1F
100
AcDbEntity
  8
0
  6
Continuous
 62
     8
370
    18
100
AcDbLine
 10
837.1284480854
 20
905.5641188043
 30
0.0
 11
845.6972072383
 21
914.626762045
 31
0.0
  0
SPLINE
  5
175
330
1F
100
AcDbEntity
  8
0
  6
Continuous
 62
     8
370
    18
100
AcDbSpline
210
0.0
220
0.0
230
1.0
 70
     8
 71
     3
 72
     9
 73
     5
 74
     0
 42
0.000000001
 43
0.00000001
 40
0.0
 40
0.0
 40
0.0
 40
0.0
 40
0.5770474436019672
 40
1.0
 40
1.0
 40
1.0
 40
1.0
 10
843.2615800629771
 20
900.336873014198
 30
0.0
 10
842.001529669799
 20
901.1916691788576
 30
0.0
 10
839.8179130414804
 20
902.672996536144
 30
0.0
 10
837.9278535704261
 20
904.7047735305334
 30
0.0
 10
837.1284480853993
 20
905.5641188043412
 30
0.0
  0
SPLINE
  5
176
330
1F
100
AcDbEntity
  8
0
  6
Continuous
 62
     8
370
    18
100
AcDbSpline
210
0.0
220
0.0
230
1.0
 70
     8
 71
     3
 72
    10
 73
     6
 74
     0
 42
0.000000001
 43
0.00000001
 40
0.0
 40
0.0
 40
0.0
 40
0.0
 40
0.2479681796226359
 40
0.4972688069878632
 40
1.0
 40
1.0
 40
1.0
 40
1.0
 10
845.6972072382503
 20
914.6267620449554
 30
0.0
 10
846.0419073860272
 20
914.320267474993
 30
0.0
 10
846.7331599149379
 20
913.7056313979552
 30
0.0
 10
848.2301667737545
 20
912.5995611798521
 30
0.0
 10
849.4057092888638
 20
911.8421101115724
 30
0.0
 10
850.1915562105551
 20
911.3357561663186
 30
0.0
  0
LINE
  5
177
330
1F
100
AcDbEntity
  8
0
  6
Continuous
 62
     8
370
    18
100
AcDbLine
 10
850.1915562106
 20
911.3357561663
 30
0.0
 11
843.261580063
 21
900.3368730142
 31
0.0
  0
ARC
  5
178
330
1F
100
AcDbEntity
  8
0
  6
Continuous
 62
     8
370
    18
100
AcDbCircle
 10
856.6151110243
 20
921.5308747804
 30
0.0
 40
12.05000000000002
100
AcDbArc
 50
237.7865374201
 51
302.2134625799
  0
LINE
  5
179
330
1F
100
AcDbEntity
  8
0
  6
Continuous
 62
     8
370
    18
100
AcDbLine
 10
863.038665838
 20
911.3357561663
 30
0.0
 11
869.9686419856
 21
900.3368730142
 31
0.0
  0
SPLINE
  5
17A
330
1F
100
AcDbEntity
  8
0
  6
Continuous
 62
     8
370
    18
100
AcDbSpline
210
0.0
220
0.0
230
1.0
 70
     8
 71
     3
 72
    10
 73
     6
 74
     0
 42
0.000000001
 43
0.00000001
 40
0.0
 40
0.0
 40
0.0
 40
0.0
 40
0.351467034588855
 40
0.703597247357962
 40
1.0
 40
1.0
 40
1.0
 40
1.0
 10
863.0386658379881
 20
911.3357561663186
 30
0.0
 10
863.5885534431821
 20
911.6885911781885
 30
0.0
 10
864.6893662287208
 20
912.3949269613261
 30
0.0
 10
866.212340364748
 20
913.4665622653471
 30
0.0
 10
867.1187521958901
 20
914.2628363284007
 30
0.0
 10
867.5330148102931
 20
914.6267620449554
 30
0.0
  0
SPLINE
  5
17B
330
1F
100
AcDbEntity
  8
0
  6
Continuous
 62
     8
370
    18
100
AcDbSpline
210
0.0
220
0.0
230
1.0
 70
     8
 71
     3
 72
     9
 73
     5
 74
     0
 42
0.000000001
 43
0.00000001
 40
0.0
 40
0.0
 40
0.0
 40
0.0
 40
0.3490261811818432
 40
1.0
 40
1.0
 40
1.0
 40
1.0
 10
876.1017739631438
 20
905.5641188043412
 30
0.0
 10
875.4461880051252
 20
904.8499759774164
 30
0.0
 10
873.5678591193132
 20
902.8038749528268
 30
0.0
 10
871.387802056795
 20
901.3096041712377
 30
0.0
 10
869.9686419855661
 20
900.336873014198
 30
0.0
  0
SPLINE
  5
17C
330
1F
100
AcDbEntity
  8
0
  6
Continuous
 62
     8
370
    18
100
AcDbSpline
210
0.0
220
0.0
230
1.0
 70
     8
 71
     3
 72
    25
 73
    21
 74
     0
 42
0.000000001
 43
0.00000001
 40
0.0
 40
0.0
 40
0.0
 40
0.0
 40
0.0492540181151012
 40
0.1492409839198744
 40
0.2001416191492481
 40
0.2518526251234171
 40
0.3040335595223632
 40
0.3577923743443072
 40
0.4121322905460628
 40
0.4583035622698644
 40
0.5524517173646445
 40
0.6005416407375762
 40
0.6462083951794703
 40
0.7390265475467571
 40
0.7862778751716629
 40
0.8386307217057708
 40
0.8914004261034278
 40
0.9454768104145392
 40
0.9999986794956645
 40
1.0
 40
1.0
 40
1.0
 40
1.0
 10
835.1231976456667
 20
904.8074287925403
 30
0.0
 10
834.6698289753023
 20
905.3391348739037
 30
0.0
 10
833.296109854854
 20
906.9502184316635
 30
0.0
 10
831.7561498233441
 20
909.3896493436697
 30
0.0
 10
830.4976213562267
 20
912.0481739653738
 30
0.0
 10
829.7137496317691
 20
914.1788359975452
 30
0.0
 10
829.1093297941472
 20
916.4321855921847
 30
0.0
 10
828.7080888397788
 20
918.790326819887
 30
0.0
 10
828.540175643273
 20
921.102963958443
 30
0.0
 10
828.5898115832168
 20
924.0391775009149
 30
0.0
 10
828.9949801340645
 20
926.8791995822934
 30
0.0
 10
829.7461409250084
 20
929.6267955440724
 30
0.0
 10
830.7101801812556
 20
932.2836033216911
 30
0.0
 10
831.9773966250585
 20
934.8043917741637
 30
0.0
 10
833.584891762729
 20
937.2221041845014
 30
0.0
 10
835.0143871268192
 20
939.0190557498717
 30
0.0
 10
836.6630836864294
 20
940.7558425279494
 30
0.0
 10
838.483825691164
 20
942.3564114296446
 30
0.0
 10
839.8012091034058
 20
943.3174806032832
 30
0.0
 10
840.4829507067988
 20
943.7683032788508
 30
0.0
 10
840.4829672179887
 20
943.7683141973847
 30
0.0
  0
SPLINE
  5
17D
330
1F
100
AcDbEntity
  8
0
  6
Continuous
 62
     8
370
    18
100
AcDbSpline
210
0.0
220
0.0
230
1.0
 70
     8
 71
     3
 72
    17
 73
    13
 74
     0
 42
0.000000001
 43
0.00000001
 40
0.0
 40
0.0
 40
0.0
 40
0.0
 40
0.0000034855140939
 40
0.1237311811743979
 40
0.2481852880018886
 40
0.3749118306512845
 40
0.5024199211247028
 40
0.624956342864511
 40
0.7482076745729955
 40
0.8737113440217107
 40
0.9999965144859068
 40
1.0
 40
1.0
 40
1.0
 40
1.0
 10
840.4829672179887
 20
943.7683141973847
 30
0.0
 10
840.4829835090515
 20
943.7683254290176
 30
0.0
 10
841.0612948782091
 20
944.1670336711361
 30
0.0
 10
842.2531695805495
 20
944.9231644849137
 30
0.0
 10
844.1378990853177
 20
945.925646161056
 30
0.0
 10
846.1171269112564
 20
946.7902804650815
 30
0.0
 10
848.1503547836774
 20
947.4967367383896
 30
0.0
 10
850.215168195335
 20
948.0429071647562
 30
0.0
 10
852.3066424796014
 20
948.4327276753323
 30
0.0
 10
854.445304292827
 20
948.6674071811109
 30
0.0
 10
855.8905400035326
 20
948.7158259896067
 30
0.0
 10
856.6150910269664
 20
948.7125661797841
 30
0.0
 10
856.6151110242716
 20
948.7125660898147
 30
0.0
  0
ARC
  5
17E
330
1F
100
AcDbEntity
  8
0
  6
Continuous
 62
     8
370
    18
100
AcDbCircle
 10
837.2591219227
 20
902.1824984846
 30
0.0
 40
3.384144151532037
100
AcDbArc
 50
92.2129439008
 51
129.1354920666
  0
SPLINE
  5
17F
330
1F
100
AcDbEntity
  8
0
  6
Continuous
 62
     8
370
    18
100
AcDbSpline
210
0.0
220
0.0
230
1.0
 70
     8
 71
     3
 72
    13
 73
     9
 74
     0
 42
0.000000001
 43
0.00000001
 40
0.0
 40
0.0
 40
0.0
 40
0.0
 40
0.000003488132369
 40
0.2457799679353303
 40
0.4975795644761285
 40
0.7457645563596911
 40
0.9999965118676328
 40
1.0
 40
1.0
 40
1.0
 40
1.0
 10
856.6151110242716
 20
948.7125660898147
 30
0.0
 10
856.6151310215768
 20
948.7125661797841
 30
0.0
 10
858.0241764667808
 20
948.7189055834384
 30
0.0
 10
860.8814119930643
 20
948.5203072855462
 30
0.0
 10
865.0583765181797
 20
947.5882381163852
 30
0.0
 10
869.0783868748317
 20
946.0243982077844
 30
0.0
 10
871.5598508229614
 20
944.5869523756428
 30
0.0
 10
872.7472385394918
 20
943.7683254290176
 30
0.0
 10
872.7472548305544
 20
943.7683141973847
 30
0.0
  0
SPLINE
  5
180
330
1F
100
AcDbEntity
  8
0
  6
Continuous
 62
     8
370
    18
100
AcDbSpline
210
0.0
220
0.0
230
1.0
 70
     8
 71
     3
 72
    19
 73
    15
 74
     0
 42
0.000000001
 43
0.00000001
 40
0.0
 40
0.0
 40
0.0
 40
0.0
 40
0.0000013213841023
 40
0.0176852170218708
 40
0.1143733902378735
 40
0.2137145610419427
 40
0.3053523452007506
 40
0.3995000333270461
 40
0.4922123793434038
 40
0.5879403428335862
 40
0.6917200092822475
 40
0.7998090016712737
 40
0.8985189583178739
 40
1.0
 40
1.0
 40
1.0
 40
1.0
 10
872.7472548305544
 20
943.7683141973847
 30
0.0
 10
872.7472713417444
 20
943.7683032788508
 30
0.0
 10
872.9682547633242
 20
943.6221711705118
 30
0.0
 10
874.3832551565094
 20
942.6559278888745
 30
0.0
 10
876.8549408280365
 20
940.5942739657997
 30
0.0
 10
879.6898433017752
 20
937.3053455843195
 30
0.0
 10
881.9432829998204
 20
933.6230120435638
 30
0.0
 10
883.5471596863063
 20
929.7089837370029
 30
0.0
 10
884.5200115993615
 20
925.5229175367422
 30
0.0
 10
884.7897008918992
 20
921.0973765028014
 30
0.0
 10
884.2512228686769
 20
916.4981318195964
 30
0.0
 10
882.8634060821429
 20
912.119976360767
 30
0.0
 10
880.8151582659335
 20
908.134370213117
 30
0.0
 10
879.0180277740467
 20
905.9265960874723
 30
0.0
 10
878.1070244028766
 20
904.8074287925405
 30
0.0
  0
ARC
  5
181
330
1F
100
AcDbEntity
  8
0
  6
Continuous
 62
     8
370
    18
100
AcDbCircle
 10
875.9711001259
 20
902.1824984846
 30
0.0
 40
3.384144151531897
100
AcDbArc
 50
50.8645079334
 51
87.7870560992
  0
SPLINE
  5
182
330
1F
100
AcDbEntity
  8
0
  6
Continuous
 62
     8
370
    18
100
AcDbSpline
210
0.0
220
0.0
230
1.0
 70
     8
 71
     3
 72
    14
 73
    10
 74
     0
 42
0.000000001
 43
0.00000001
 40
0.0
 40
0.0
 40
0.0
 40
0.0
 40
0.070646935810895
 40
0.2691496022583709
 40
0.4748299235320575
 40
0.6841240356853443
 40
0.8123563766451367
 40
0.9412272031615675
 40
1.0
 40
1.0
 40
1.0
 40
1.0
 10
822.9657182078096
 20
906.8600307618511
 30
0.0
 10
822.9642418541904
 20
907.6724296319288
 30
0.0
 10
822.9586172650293
 20
910.7674942691533
 30
0.0
 10
823.037444563597
 20
916.4908435441231
 30
0.0
 10
823.163159585357
 20
924.080037636886
 30
0.0
 10
823.2243054999528
 20
930.8613820527266
 30
0.0
 10
823.2020658080783
 20
936.650352958667
 30
0.0
 10
823.1563303987548
 20
940.5437215773183
 30
0.0
 10
823.1209348706014
 20
942.8236016992901
 30
0.0
 10
823.1098484603737
 20
943.537694343788
 30
0.0
  0
ARC
  5
183
330
1F
100
AcDbEntity
  8
0
  6
Continuous
 62
     8
370
    18
100
AcDbCircle
 10
822.904638546
 20
900.5329329068
 30
0.0
 40
6.327392669386652
100
AcDbArc
 50
89.4469031132
 51
106.8009889676
  0
SPLINE
  5
184
330
1F
100
AcDbEntity
  8
0
  6
Continuous
 62
     8
370
    18
100
AcDbSpline
210
0.0
220
0.0
230
1.0
 70
     8
 71
     3
 72
    14
 73
    10
 74
     0
 42
0.000000001
 43
0.00000001
 40
0.0
 40
0.0
 40
0.0
 40
0.0
 40
0.0588507131428024
 40
0.1865507860318866
 40
0.3150706499745842
 40
0.5205160403891209
 40
0.7296050309949651
 40
0.9289213534635682
 40
1.0
 40
1.0
 40
1.0
 40
1.0
 10
821.0744209151302
 20
943.6900935819885
 30
0.0
 10
821.0740933856143
 20
942.968225424415
 30
0.0
 10
821.0730551503001
 20
940.6799766502675
 30
0.0
 10
821.0698844271157
 20
936.7538544639776
 30
0.0
 10
821.068413736855
 20
930.9503819315725
 30
0.0
 10
821.0761839881443
 20
924.0809968131848
 30
0.0
 10
821.0773208777113
 20
916.402674837688
 30
0.0
 10
821.0757816932554
 20
910.5699719025265
 30
0.0
 10
821.075729926826
 20
907.4186300282576
 30
0.0
 10
821.0757163189999
 20
906.5902377100838
 30
0.0
  0
ARC
  5
185
330
1F
100
AcDbEntity
  8
0
  6
Continuous
 62
     8
370
    18
100
AcDbCircle
 10
822.8483371044
 20
953.713650673
 30
0.0
 40
10.17931605778174
100
AcDbArc
 50
259.964010462
 51
271.4721171423
  0
ARC
  5
186
330
1F
100
AcDbEntity
  8
0
  6
Continuous
 62
     8
370
    18
100
AcDbCircle
 10
819.8871871881
 20
910.6720724944
 30
0.0
 40
4.251349985716532
100
AcDbArc
 50
269.1903220348
 51
286.2342508995
  0
SPLINE
  5
187
330
1F
100
AcDbEntity
  8
0
  6
Continuous
 62
     8
370
    18
100
AcDbSpline
210
0.0
220
0.0
230
1.0
 70
     8
 71
     3
 72
    14
 73
    10
 74
     0
 42
0.000000001
 43
0.00000001
 40
0.0
 40
0.0
 40
0.0
 40
0.0
 40
0.2078011624980595
 40
0.4196948388477489
 40
0.5443918098789572
 40
0.6699512654772862
 40
0.7982264655367505
 40
0.9274422558336509
 40
1.0
 40
1.0
 40
1.0
 40
1.0
 10
819.7227845220714
 20
943.8387072090319
 30
0.0
 10
819.6926004648958
 20
941.251312015763
 30
0.0
 10
819.631637894428
 20
936.0255645001081
 30
0.0
 10
819.6433076532372
 20
929.0624210900214
 30
0.0
 10
819.6992830745176
 20
923.1862264971417
 30
0.0
 10
819.7538815978445
 20
918.4107738302317
 30
0.0
 10
819.8043958411793
 20
913.6578846680222
 30
0.0
 10
819.8318516308578
 20
909.6507268188825
 30
0.0
 10
819.8283648752449
 20
907.2753369686609
 30
0.0
 10
819.8271110382519
 20
906.4211470001588
 30
0.0
  0
ARC
  5
188
330
1F
100
AcDbEntity
  8
0
  6
Continuous
 62
     8
370
    18
100
AcDbCircle
 10
819.7230873587
 20
937.6206088557
 30
0.0
 40
6.218098360736855
100
AcDbArc
 50
77.4481726938
 51
90.0027904447
  0
SPLINE
  5
189
330
1F
100
AcDbEntity
  8
0
  6
Continuous
 62
     8
370
    18
100
AcDbSpline
210
0.0
220
0.0
230
1.0
 70
     8
 71
     3
 72
    14
 73
    10
 74
     0
 42
0.000000001
 43
0.00000001
 40
0.0
 40
0.0
 40
0.0
 40
0.0
 40
0.0588507131428024
 40
0.1865507860318865
 40
0.3150706499745842
 40
0.5205160403891209
 40
0.7296050309949651
 40
0.9289213534635682
 40
1.0
 40
1.0
 40
1.0
 40
1.0
 10
892.155801133413
 20
943.6900935819885
 30
0.0
 10
892.1561286629288
 20
942.968225424415
 30
0.0
 10
892.1571668982431
 20
940.6799766502675
 30
0.0
 10
892.1603376214275
 20
936.7538544639776
 30
0.0
 10
892.1618083116882
 20
930.9503819315725
 30
0.0
 10
892.1540380603989
 20
924.0809968131848
 30
0.0
 10
892.1529011708319
 20
916.402674837688
 30
0.0
 10
892.1544403552878
 20
910.5699719025265
 30
0.0
 10
892.1544921217171
 20
907.4186300282576
 30
0.0
 10
892.1545057295434
 20
906.5902377100838
 30
0.0
  0
ARC
  5
18A
330
1F
100
AcDbEntity
  8
0
  6
Continuous
 62
     8
370
    18
100
AcDbCircle
 10
890.3255835025
 20
900.5329329068
 30
0.0
 40
6.327392669388526
100
AcDbArc
 50
73.1990110324
 51
90.5530968868
  0
SPLINE
  5
18B
330
1F
100
AcDbEntity
  8
0
  6
Continuous
 62
     8
370
    18
100
AcDbSpline
210
0.0
220
0.0
230
1.0
 70
     8
 71
     3
 72
    14
 73
    10
 74
     0
 42
0.000000001
 43
0.00000001
 40
0.0
 40
0.0
 40
0.0
 40
0.0
 40
0.0706469358108949
 40
0.2691496022583709
 40
0.4748299235320581
 40
0.6841240356853447
 40
0.8123563766451373
 40
0.9412272031615684
 40
1.0
 40
1.0
 40
1.0
 40
1.0
 10
890.2645038407336
 20
906.8600307618511
 30
0.0
 10
890.2659801943529
 20
907.6724296319288
 30
0.0
 10
890.2716047835141
 20
910.7674942691533
 30
0.0
 10
890.1927774849462
 20
916.4908435441231
 30
0.0
 10
890.0670624631862
 20
924.080037636886
 30
0.0
 10
890.0059165485903
 20
930.8613820527266
 30
0.0
 10
890.028156240465
 20
936.650352958667
 30
0.0
 10
890.073891649788
 20
940.5437215773183
 30
0.0
 10
890.1092871779422
 20
942.8236016992901
 30
0.0
 10
890.1203735881702
 20
943.537694343788
 30
0.0
  0
ARC
  5
18C
330
1F
100
AcDbEntity
  8
0
  6
Continuous
 62
     8
370
    18
100
AcDbCircle
 10
890.3818849441
 20
953.713650673
 30
0.0
 40
10.17931605777651
100
AcDbArc
 50
268.5278828577
 51
280.0359895381
  0
SPLINE
  5
18D
330
1F
100
AcDbEntity
  8
0
  6
Continuous
 62
     8
370
    18
100
AcDbSpline
210
0.0
220
0.0
230
1.0
 70
     8
 71
     3
 72
    14
 73
    10
 74
     0
 42
0.000000001
 43
0.00000001
 40
0.0
 40
0.0
 40
0.0
 40
0.0
 40
0.2078011624980596
 40
0.4196948388477488
 40
0.5443918098789571
 40
0.6699512654772862
 40
0.7982264655367507
 40
0.927442255833651
 40
1.0
 40
1.0
 40
1.0
 40
1.0
 10
893.5074375264718
 20
943.8387072090319
 30
0.0
 10
893.5376215836474
 20
941.251312015763
 30
0.0
 10
893.5985841541152
 20
936.0255645001081
 30
0.0
 10
893.5869143953059
 20
929.0624210900214
 30
0.0
 10
893.5309389740256
 20
923.1862264971417
 30
0.0
 10
893.4763404506988
 20
918.4107738302317
 30
0.0
 10
893.4258262073639
 20
913.6578846680223
 30
0.0
 10
893.3983704176853
 20
909.6507268188825
 30
0.0
 10
893.4018571732983
 20
907.2753369686609
 30
0.0
 10
893.4031110102912
 20
906.4211470001588
 30
0.0
  0
ARC
  5
18E
330
1F
100
AcDbEntity
  8
0
  6
Continuous
 62
     8
370
    18
100
AcDbCircle
 10
893.3430348604
 20
910.6720724944
 30
0.0
 40
4.251349985715286
100
AcDbArc
 50
253.7657491005
 51
270.8096779652
  0
ARC
  5
18F
330
1F
100
AcDbEntity
  8
0
  6
Continuous
 62
     8
370
    18
100
AcDbCircle
 10
893.5071346899
 20
937.6206088557
 30
0.0
 40
6.218098360736719
100
AcDbArc
 50
89.9972095553
 51
102.5518273062
  0
SPLINE
  5
190
330
1F
100
AcDbEntity
  8
0
  6
Continuous
 62
     8
370
    18
100
AcDbSpline
210
0.0
220
0.0
230
1.0
 70
     8
 71
     3
 72
    14
 73
    10
 74
     0
 42
0.000000001
 43
0.00000001
 40
0.0
 40
0.0
 40
0.0
 40
0.0
 40
0.127247386060472
 40
0.2554745767697362
 40
0.3810919869018175
 40
0.5075916090131541
 40
0.7089607368256274
 40
0.9137762176246974
 40
1.0
 40
1.0
 40
1.0
 40
1.0
 10
812.1415102123595
 20
906.622218626867
 30
0.0
 10
812.1400651743804
 20
908.1121279907977
 30
0.0
 10
812.1371639716324
 20
911.1034190181402
 30
0.0
 10
812.1408656061296
 20
915.7421816294323
 30
0.0
 10
812.1465194078443
 20
920.4537576229112
 30
0.0
 10
812.1550680927747
 20
926.1453879488994
 30
0.0
 10
812.1635775795551
 20
932.877455076195
 30
0.0
 10
812.1569478035129
 20
939.0602580023948
 30
0.0
 10
812.1520066033128
 20
942.6295349156169
 30
0.0
 10
812.1505427150178
 20
943.6869749065175
 30
0.0
  0
ARC
  5
191
330
1F
100
AcDbEntity
  8
0
  6
Continuous
 62
     8
370
    18
100
AcDbCircle
 10
810.2304065134
 20
900.8510154631
 30
0.0
 40
6.079399913266338
100
AcDbArc
 50
71.6779814803
 51
90.2649234322
  0
SPLINE
  5
192
330
1F
100
AcDbEntity
  8
0
  6
Continuous
 62
     8
370
    18
100
AcDbSpline
210
0.0
220
0.0
230
1.0
 70
     8
 71
     3
 72
    15
 73
    11
 74
     0
 42
0.000000001
 43
0.00000001
 40
0.0
 40
0.0
 40
0.0
 40
0.0
 40
0.1214527241786901
 40
0.2436356162157052
 40
0.3679634748124465
 40
0.4929996451849701
 40
0.6185865433805134
 40
0.7450337263104057
 40
0.871990258811908
 40
1.0
 40
1.0
 40
1.0
 40
1.0
 10
810.1010196390791
 20
943.4938365139811
 30
0.0
 10
810.0838079773968
 20
942.0204497590403
 30
0.0
 10
810.0492811783606
 20
939.0648183197987
 30
0.0
 10
810.017402429684
 20
934.5198643255636
 30
0.0
 10
810.0200041722325
 20
929.906133117773
 30
0.0
 10
810.0525739740962
 20
925.2420251385755
 30
0.0
 10
810.101354752314
 20
920.5730054892534
 30
0.0
 10
810.1539675920847
 20
915.9379809400223
 30
0.0
 10
810.1975725468828
 20
911.3524744897142
 30
0.0
 10
810.200717697228
 20
908.4084454648942
 30
0.0
 10
810.2022967683571
 20
906.9303503895577
 30
0.0
  0
ARC
  5
193
330
1F
100
AcDbEntity
  8
0
  6
Continuous
 62
     8
370
    18
100
AcDbCircle
 10
810.2422787678
 20
952.9658517398
 30
0.0
 40
9.4730684880241
100
AcDbArc
 50
269.1455934394
 51
281.6212347178
  0
SPLINE
  5
194
330
1F
100
AcDbEntity
  8
0
  6
Continuous
 62
     8
370
    18
100
AcDbSpline
210
0.0
220
0.0
230
1.0
 70
     8
 71
     3
 72
    15
 73
    11
 74
     0
 42
0.000000001
 43
0.00000001
 40
0.0
 40
0.0
 40
0.0
 40
0.0
 40
0.1214527241786899
 40
0.243635616215705
 40
0.3679634748124463
 40
0.4929996451849699
 40
0.6185865433805134
 40
0.7450337263104057
 40
0.8719902588119081
 40
1.0
 40
1.0
 40
1.0
 40
1.0
 10
903.129202409464
 20
943.4938365139811
 30
0.0
 10
903.1464140711465
 20
942.0204497590403
 30
0.0
 10
903.1809408701826
 20
939.0648183197987
 30
0.0
 10
903.2128196188592
 20
934.5198643255636
 30
0.0
 10
903.2102178763107
 20
929.9061331177728
 30
0.0
 10
903.177648074447
 20
925.2420251385755
 30
0.0
 10
903.1288672962291
 20
920.5730054892534
 30
0.0
 10
903.0762544564585
 20
915.9379809400223
 30
0.0
 10
903.0326495016603
 20
911.3524744897142
 30
0.0
 10
903.0295043513152
 20
908.4084454648942
 30
0.0
 10
903.0279252801861
 20
906.9303503895577
 30
0.0
  0
ARC
  5
195
330
1F
100
AcDbEntity
  8
0
  6
Continuous
 62
     8
370
    18
100
AcDbCircle
 10
902.9998155352
 20
900.8510154631
 30
0.0
 40
6.079399913266949
100
AcDbArc
 50
89.7350765678
 51
108.3220185197
  0
SPLINE
  5
196
330
1F
100
AcDbEntity
  8
0
  6
Continuous
 62
     8
370
    18
100
AcDbSpline
210
0.0
220
0.0
230
1.0
 70
     8
 71
     3
 72
    14
 73
    10
 74
     0
 42
0.000000001
 43
0.00000001
 40
0.0
 40
0.0
 40
0.0
 40
0.0
 40
0.127734315530242
 40
0.2554736424753119
 40
0.3815295141037228
 40
0.507590026281413
 40
0.7106819552125375
 40
0.9137761853290126
 40
1.0
 40
1.0
 40
1.0
 40
1.0
 10
901.0887118361836
 20
906.622218626867
 30
0.0
 10
901.0901842067001
 20
908.1179716506948
 30
0.0
 10
901.0931290054987
 20
911.1095363813979
 30
0.0
 10
901.0893326540938
 20
915.7534717021571
 30
0.0
 10
901.0836711957343
 20
920.4593717891917
 30
0.0
 10
901.0747953768393
 20
926.172486523098
 30
0.0
 10
901.0689191379562
 20
932.8995240542799
 30
0.0
 10
901.0730962910831
 20
939.0813567089265
 30
0.0
 10
901.0781678774329
 20
942.6295322808484
 30
0.0
 10
901.0796793335254
 20
943.6869749065175
 30
0.0
  0
ARC
  5
197
330
1F
100
AcDbEntity
  8
0
  6
Continuous
 62
     8
370
    18
100
AcDbCircle
 10
902.9879432808
 20
952.9658517398
 30
0.0
 40
9.47306848802653
100
AcDbArc
 50
258.3787652822
 51
270.8544065606
  0
SPLINE
  5
198
330
1F
100
AcDbEntity
  8
0
  6
Continuous
 62
     8
370
    18
100
AcDbSpline
210
0.0
220
0.0
230
1.0
 70
     8
 71
     3
 72
    14
 73
    10
 74
     0
 42
0.000000001
 43
0.00000001
 40
0.0
 40
0.0
 40
0.0
 40
0.0
 40
0.1296969008660537
 40
0.2603671951156628
 40
0.385342144637652
 40
0.5111847557259621
 40
0.6397642884787735
 40
0.7692911603858884
 40
1.0
 40
1.0
 40
1.0
 40
1.0
 10
899.7461135037101
 20
906.4211470001588
 30
0.0
 10
899.7472200042419
 20
907.9551979841066
 30
0.0
 10
899.7494413097465
 20
911.0348132192263
 30
0.0
 10
899.7240785028288
 20
915.7706766105952
 30
0.0
 10
899.6933043754876
 20
920.5420156820195
 30
0.0
 10
899.6629865238464
 20
925.3511623694773
 30
0.0
 10
899.6409301515379
 20
930.2425426243759
 30
0.0
 10
899.6396652982731
 20
936.4715690363931
 30
0.0
 10
899.6694493961785
 20
940.9625255168226
 30
0.0
 10
899.6885242808913
 20
943.8387072090319
 30
0.0
  0
ARC
  5
199
330
1F
100
AcDbEntity
  8
0
  6
Continuous
 62
     8
370
    18
100
AcDbCircle
 10
899.7274008967
 20
937.7418898524
 30
0.0
 40
6.096941304604775
100
AcDbArc
 50
77.1854453734
 51
90.3653440292
  0
ARC
  5
19A
330
1F
100
AcDbEntity
  8
0
  6
Continuous
 62
     8
370
    18
100
AcDbCircle
 10
899.8170311518
 20
910.5305588458
 30
0.0
 40
4.110023726151498
100
AcDbArc
 50
269.0113235705
 51
288.0236522041
  0
ARC
  5
19B
330
1F
100
AcDbEntity
  8
0
  6
Continuous
 62
     8
370
    18
100
AcDbCircle
 10
813.5028211518
 20
937.7418898524
 30
0.0
 40
6.096941304605391
100
AcDbArc
 50
89.6346559708
 51
102.8145546266
  0
SPLINE
  5
19C
330
1F
100
AcDbEntity
  8
0
  6
Continuous
 62
     8
370
    18
100
AcDbSpline
210
0.0
220
0.0
230
1.0
 70
     8
 71
     3
 72
    14
 73
    10
 74
     0
 42
0.000000001
 43
0.00000001
 40
0.0
 40
0.0
 40
0.0
 40
0.0
 40
0.1296969008660537
 40
0.2603671951156628
 40
0.385342144637652
 40
0.511184755725962
 40
0.6397642884787734
 40
0.7692911603858883
 40
1.0
 40
1.0
 40
1.0
 40
1.0
 10
813.484108544833
 20
906.4211470001588
 30
0.0
 10
813.4830020443014
 20
907.9551979841066
 30
0.0
 10
813.4807807387967
 20
911.0348132192263
 30
0.0
 10
813.5061435457144
 20
915.7706766105952
 30
0.0
 10
813.5369176730555
 20
920.5420156820195
 30
0.0
 10
813.5672355246969
 20
925.3511623694773
 30
0.0
 10
813.5892918970053
 20
930.2425426243759
 30
0.0
 10
813.59055675027
 20
936.4715690363931
 30
0.0
 10
813.5607726523647
 20
940.9625255168226
 30
0.0
 10
813.5416977676518
 20
943.8387072090319
 30
0.0
  0
ARC
  5
19D
330
1F
100
AcDbEntity
  8
0
  6
Continuous
 62
     8
370
    18
100
AcDbCircle
 10
813.4131908967
 20
910.5305588458
 30
0.0
 40
4.110023726151494
100
AcDbArc
 50
251.9763477959
 51
270.9886764295
  0
LINE
  5
19E
330
1F
100
AcDbEntity
  8
0
  6
Continuous
 62
     8
370
    18
100
AcDbLine
 10
819.8271110383
 20
906.4211470002
 30
0.0
 11
813.4841085448
 21
906.4211470002
 31
0.0
  0
LINE
  5
19F
330
1F
100
AcDbEntity
  8
0
  6
Continuous
 62
     8
370
    18
100
AcDbLine
 10
819.7227845221
 20
943.838707209
 30
0.0
 11
813.5416977677
 21
943.838707209
 31
0.0
  0
LINE
  5
1A0
330
1F
100
AcDbEntity
  8
0
  6
Continuous
 62
     8
370
    18
100
AcDbLine
 10
893.4031110103
 20
906.4211470002
 30
0.0
 11
899.7461135037
 21
906.4211470002
 31
0.0
  0
LINE
  5
1A1
330
1F
100
AcDbEntity
  8
0
  6
Continuous
 62
     8
370
    18
100
AcDbLine
 10
893.5074375265
 20
943.838707209
 30
0.0
 11
899.6885242809
 21
943.838707209
 31
0.0
  0
SPLINE
  5
1A2
330
1F
100
AcDbEntity
  8
0
  6
Continuous
 62
     8
370
    18
100
AcDbSpline
210
0.0
220
0.0
230
1.0
 70
     8
 71
     3
 72
    14
 73
    10
 74
     0
 42
0.000000001
 43
0.00000001
 40
0.0
 40
0.0
 40
0.0
 40
0.0
 40
0.083481340853267
 40
0.2549666805167994
 40
0.426378637771139
 40
0.5910988460081824
 40
0.7558798437661323
 40
0.8779365795297039
 40
1.0
 40
1.0
 40
1.0
 40
1.0
 10
902.9567280564011
 20
904.9271163441175
 30
0.0
 10
903.857815109993
 20
904.9427771171282
 30
0.0
 10
906.6098932697678
 20
904.990607869103
 30
0.0
 10
911.2124579823279
 20
905.0758209736324
 30
0.0
 10
916.5126101138346
 20
905.1313705813088
 30
0.0
 10
921.405381440808
 20
905.1958405208421
 30
0.0
 10
925.431704294065
 20
905.2181032132397
 30
0.0
 10
928.7366721625291
 20
905.214385802217
 30
0.0
 10
930.4497063934025
 20
905.1980074836308
 30
0.0
 10
931.3062469627229
 20
905.1898181000951
 30
0.0
  0
LINE
  5
1A3
330
1F
100
AcDbEntity
  8
0
  6
Continuous
 62
     8
370
    18
100
AcDbLine
 10
903.0279252802
 20
906.9303503896
 30
0.0
 11
902.9567280564
 21
904.9271163441
 31
0.0
  0
SPLINE
  5
1A4
330
1F
100
AcDbEntity
  8
0
  6
Continuous
 62
     8
370
    18
100
AcDbSpline
210
0.0
220
0.0
230
1.0
 70
     8
 71
     3
 72
    10
 73
     6
 74
     0
 42
0.000000001
 43
0.00000001
 40
0.0
 40
0.0
 40
0.0
 40
0.0
 40
0.0305940752880619
 40
0.8849546452569941
 40
1.0
 40
1.0
 40
1.0
 40
1.0
 10
903.0459468897171
 20
954.2727869290594
 30
0.0
 10
903.0461590267129
 20
954.1643486868834
 30
0.0
 10
903.0522952350497
 20
951.0276980369225
 30
0.0
 10
903.0927408032932
 20
947.4299115734883
 30
0.0
 10
903.1253343348941
 20
943.9113999030378
 30
0.0
 10
903.129202409464
 20
943.4938365139811
 30
0.0
  0
SPLINE
  5
1A5
330
1F
100
AcDbEntity
  8
0
  6
Continuous
 62
     8
370
    18
100
AcDbSpline
210
0.0
220
0.0
230
1.0
 70
     8
 71
     3
 72
    12
 73
     8
 74
     0
 42
0.000000001
 43
0.00000001
 40
0.0
 40
0.0
 40
0.0
 40
0.0
 40
0.000011396415791
 40
0.016561542624936
 40
0.2254762501766406
 40
0.6569695733823687
 40
1.0
 40
1.0
 40
1.0
 40
1.0
 10
901.8381437166341
 20
958.886944385057
 30
0.0
 10
901.8381564981161
 20
958.8869305764018
 30
0.0
 10
901.8567308519678
 20
958.8668635102111
 30
0.0
 10
902.1053410196376
 20
958.5901645310188
 30
0.0
 10
902.6573009442762
 20
957.6539288369389
 30
0.0
 10
902.9894942618758
 20
956.0789477896961
 30
0.0
 10
903.028618898448
 20
954.8271834349518
 30
0.0
 10
903.0459468897171
 20
954.2727869290594
 30
0.0
  0
SPLINE
  5
1A6
330
1F
100
AcDbEntity
  8
0
  6
Continuous
 62
     8
370
    18
100
AcDbSpline
210
0.0
220
0.0
230
1.0
 70
     8
 71
     3
 72
    11
 73
     7
 74
     0
 42
0.000000001
 43
0.00000001
 40
0.0
 40
0.0
 40
0.0
 40
0.0
 40
0.2986044395549428
 40
0.578510769779713
 40
0.9999675635115337
 40
1.0
 40
1.0
 40
1.0
 40
1.0
 10
900.1174830498114
 20
959.4284712586372
 30
0.0
 10
900.3023689758472
 20
959.4226351795421
 30
0.0
 10
900.6605635812317
 20
959.411328466839
 30
0.0
 10
901.2538710035435
 20
959.2378945185282
 30
0.0
 10
901.6292426824026
 20
959.0321896140009
 30
0.0
 10
901.8381276415031
 20
958.8869555618139
 30
0.0
 10
901.8381437166341
 20
958.886944385057
 30
0.0
  0
LINE
  5
1A7
330
1F
100
AcDbEntity
  8
0
  6
Continuous
 62
     8
370
    18
100
AcDbLine
 10
893.0110921865
 20
959.3055503385
 30
0.0
 11
900.1174830498
 21
959.4284712586
 31
0.0
  0
SPLINE
  5
1A8
330
1F
100
AcDbEntity
  8
0
  6
Continuous
 62
     8
370
    18
100
AcDbSpline
210
0.0
220
0.0
230
1.0
 70
     8
 71
     3
 72
    11
 73
     7
 74
     0
 42
0.000000001
 43
0.00000001
 40
0.0
 40
0.0
 40
0.0
 40
0.0
 40
0.0000403578891936
 40
0.1670896913901095
 40
0.6133765181115376
 40
1.0
 40
1.0
 40
1.0
 40
1.0
 10
891.6051205732555
 20
958.915458337165
 30
0.0
 10
891.6051376463301
 20
958.9154679542861
 30
0.0
 10
891.6758235731254
 20
958.9552847494734
 30
0.0
 10
891.9404009492789
 20
959.0920169914364
 30
0.0
 10
892.4061327448437
 20
959.263206941562
 30
0.0
 10
892.8193045316267
 20
959.2921263959277
 30
0.0
 10
893.0110921865192
 20
959.3055503384885
 30
0.0
  0
SPLINE
  5
1A9
330
1F
100
AcDbEntity
  8
0
  6
Continuous
 62
     8
370
    18
100
AcDbSpline
210
0.0
220
0.0
230
1.0
 70
     8
 71
     3
 72
    11
 73
     7
 74
     0
 42
0.000000001
 43
0.00000001
 40
0.0
 40
0.0
 40
0.0
 40
0.0
 40
0.557425210116673
 40
0.8582360298869187
 40
0.9999887157359582
 40
1.0
 40
1.0
 40
1.0
 40
1.0
 10
890.2379090523614
 20
954.3330530088801
 30
0.0
 10
890.2792688913803
 20
955.2464459898407
 30
0.0
 10
890.3429482933738
 20
956.6527454385903
 30
0.0
 10
890.9550193977229
 20
958.1910372457504
 30
0.0
 10
891.4288720946181
 20
958.7578688858324
 30
0.0
 10
891.6051065451771
 20
958.9154457942075
 30
0.0
 10
891.6051205732555
 20
958.915458337165
 30
0.0
  0
SPLINE
  5
1AA
330
1F
100
AcDbEntity
  8
0
  6
Continuous
 62
     8
370
    18
100
AcDbSpline
210
0.0
220
0.0
230
1.0
 70
     8
 71
     3
 72
     9
 73
     5
 74
     0
 42
0.000000001
 43
0.00000001
 40
0.0
 40
0.0
 40
0.0
 40
0.0
 40
0.8892351459143049
 40
1.0
 40
1.0
 40
1.0
 40
1.0
 10
890.1203735881702
 20
943.537694343788
 30
0.0
 10
890.1694360947887
 20
946.7646827001394
 30
0.0
 10
890.2246099223685
 20
950.3936309835918
 30
0.0
 10
890.2365828705077
 20
953.9402160333422
 30
0.0
 10
890.2379090523614
 20
954.3330530088801
 30
0.0
  0
LINE
  5
1AB
330
1F
100
AcDbEntity
  8
0
  6
Continuous
 62
     8
370
    18
100
AcDbLine
 10
890.3469234325
 20
904.8026247317
 30
0.0
 11
890.2645038407
 21
906.8600307619
 31
0.0
  0
SPLINE
  5
1AC
330
1F
100
AcDbEntity
  8
0
  6
Continuous
 62
     8
370
    18
100
AcDbSpline
210
0.0
220
0.0
230
1.0
 70
     8
 71
     3
 72
     9
 73
     5
 74
     0
 42
0.000000001
 43
0.00000001
 40
0.0
 40
0.0
 40
0.0
 40
0.0
 40
0.0843934950201051
 40
1.0
 40
1.0
 40
1.0
 40
1.0
 10
878.1070244028766
 20
904.8074287925405
 30
0.0
 10
878.4513347961973
 20
904.80562425756
 30
0.0
 10
882.5311562710488
 20
904.7842418633359
 30
0.0
 10
886.6112046218601
 20
904.7938382330996
 30
0.0
 10
890.3469234324954
 20
904.8026247316794
 30
0.0
  0
SPLINE
  5
1AD
330
1F
100
AcDbEntity
  8
0
  6
Continuous
 62
     8
370
    18
100
AcDbSpline
210
0.0
220
0.0
230
1.0
 70
     8
 71
     3
 72
    12
 73
     8
 74
     0
 42
0.000000001
 43
0.00000001
 40
0.0
 40
0.0
 40
0.0
 40
0.0
 40
0.342990742779566
 40
0.6931111831538849
 40
0.8460382371952908
 40
0.9999906400284373
 40
1.0
 40
1.0
 40
1.0
 40
1.0
 10
943.023953691582
 20
948.2068586812778
 30
0.0
 10
943.0645981090702
 20
948.5963873983087
 30
0.0
 10
943.1467318135122
 20
949.3835419079195
 30
0.0
 10
943.2299773958806
 20
950.0583842427699
 30
0.0
 10
943.2800643803506
 20
950.4218516610698
 30
0.0
 10
943.2984998621367
 20
950.5382848782004
 30
0.0
 10
943.306354744578
 20
950.5825400737141
 30
0.0
 10
943.3063552221087
 20
950.5825427641703
 30
0.0
  0
SPLINE
  5
1AE
330
1F
100
AcDbEntity
  8
0
  6
Continuous
 62
     8
370
    18
100
AcDbSpline
210
0.0
220
0.0
230
1.0
 70
     8
 71
     3
 72
    20
 73
    16
 74
     0
 42
0.000000001
 43
0.00000001
 40
0.0
 40
0.0
 40
0.0
 40
0.0
 40
0.0777495206401191
 40
0.1580444463721884
 40
0.2279673988375377
 40
0.299460461877094
 40
0.3760581917562253
 40
0.4543933132980216
 40
0.5398335171527776
 40
0.627731836877726
 40
0.7140713710304735
 40
0.8026163874373407
 40
0.8879068463690993
 40
0.9758355728947901
 40
1.0
 40
1.0
 40
1.0
 40
1.0
 10
931.3062469627229
 20
905.1898181000951
 30
0.0
 10
931.3016163855174
 20
906.354663037719
 30
0.0
 10
931.2922036328112
 20
908.7224882250708
 30
0.0
 10
931.7740694128571
 20
912.5415812375024
 30
0.0
 10
932.5432775569918
 20
916.3818134480674
 30
0.0
 10
933.5326015952868
 20
920.2305286653767
 30
0.0
 10
934.7052874853596
 20
924.2288875925957
 30
0.0
 10
936.0016613184669
 20
928.4094020603022
 30
0.0
 10
937.2895668258376
 20
932.6330477638371
 30
0.0
 10
938.5025202610991
 20
936.7088319872314
 30
0.0
 10
939.6705545404543
 20
940.4005107026298
 30
0.0
 10
940.794178670015
 20
943.5708182483929
 30
0.0
 10
941.905831271479
 20
946.1305433166079
 30
0.0
 10
942.6343209436167
 20
947.5449168681902
 30
0.0
 10
942.9548547681669
 20
948.0894674535468
 30
0.0
 10
943.023953691582
 20
948.2068586812778
 30
0.0
  0
LINE
  5
1AF
330
1F
100
AcDbEntity
  8
0
  6
Continuous
 62
     8
370
    18
100
AcDbLine
 10
822.883298616
 20
904.8026247317
 30
0.0
 11
822.9657182078
 21
906.8600307619
 31
0.0
  0
SPLINE
  5
1B0
330
1F
100
AcDbEntity
  8
0
  6
Continuous
 62
     8
370
    18
100
AcDbSpline
210
0.0
220
0.0
230
1.0
 70
     8
 71
     3
 72
     9
 73
     5
 74
     0
 42
0.000000001
 43
0.00000001
 40
0.0
 40
0.0
 40
0.0
 40
0.0
 40
0.8892351459143034
 40
1.0
 40
1.0
 40
1.0
 40
1.0
 10
823.1098484603737
 20
943.537694343788
 30
0.0
 10
823.0607859537547
 20
946.7646827001394
 30
0.0
 10
823.0056121261747
 20
950.3936309835918
 30
0.0
 10
822.9936391780354
 20
953.9402160333422
 30
0.0
 10
822.9923129961818
 20
954.3330530088801
 30
0.0
  0
SPLINE
  5
1B1
330
1F
100
AcDbEntity
  8
0
  6
Continuous
 62
     8
370
    18
100
AcDbSpline
210
0.0
220
0.0
230
1.0
 70
     8
 71
     3
 72
    11
 73
     7
 74
     0
 42
0.000000001
 43
0.00000001
 40
0.0
 40
0.0
 40
0.0
 40
0.0
 40
0.5574252101167206
 40
0.8582360298869939
 40
0.9999887157360463
 40
1.0
 40
1.0
 40
1.0
 40
1.0
 10
822.9923129961818
 20
954.3330530088801
 30
0.0
 10
822.9509531568292
 20
955.2464459895131
 30
0.0
 10
822.887273754322
 20
956.6527454377582
 30
0.0
 10
822.2752026521389
 20
958.1910372470452
 30
0.0
 10
821.8013499526023
 20
958.7578688845334
 30
0.0
 10
821.6251155033666
 20
958.9154457942075
 30
0.0
 10
821.6251014752885
 20
958.915458337165
 30
0.0
  0
SPLINE
  5
1B2
330
1F
100
AcDbEntity
  8
0
  6
Continuous
 62
     8
370
    18
100
AcDbSpline
210
0.0
220
0.0
230
1.0
 70
     8
 71
     3
 72
    11
 73
     7
 74
     0
 42
0.000000001
 43
0.00000001
 40
0.0
 40
0.0
 40
0.0
 40
0.0
 40
0.0000403578895606
 40
0.1670896913904151
 40
0.6133765181116795
 40
1.0
 40
1.0
 40
1.0
 40
1.0
 10
821.6251014752885
 20
958.915458337165
 30
0.0
 10
821.6250844022134
 20
958.9154679542861
 30
0.0
 10
821.5543984751612
 20
958.9552847490874
 30
0.0
 10
821.2898210995942
 20
959.0920169919325
 30
0.0
 10
820.8240893036046
 20
959.2632069414195
 30
0.0
 10
820.4109175168866
 20
959.2921263958824
 30
0.0
 10
820.219129862024
 20
959.3055503384885
 30
0.0
  0
LINE
  5
1B3
330
1F
100
AcDbEntity
  8
0
  6
Continuous
 62
     8
370
    18
100
AcDbLine
 10
820.219129862
 20
959.3055503385
 30
0.0
 11
813.1127389987
 21
959.4284712586
 31
0.0
  0
SPLINE
  5
1B4
330
1F
100
AcDbEntity
  8
0
  6
Continuous
 62
     8
370
    18
100
AcDbSpline
210
0.0
220
0.0
230
1.0
 70
     8
 71
     3
 72
    11
 73
     7
 74
     0
 42
0.000000001
 43
0.00000001
 40
0.0
 40
0.0
 40
0.0
 40
0.0
 40
0.2986044395549182
 40
0.5785107697796655
 40
0.9999675635114516
 40
1.0
 40
1.0
 40
1.0
 40
1.0
 10
813.1127389987317
 20
959.4284712586372
 30
0.0
 10
812.9278530727037
 20
959.4226351795367
 30
0.0
 10
812.5696584673341
 20
959.4113284668233
 30
0.0
 10
811.9763510448981
 20
959.2378945185991
 30
0.0
 10
811.6009793664792
 20
959.0321896137647
 30
0.0
 10
811.39209440704
 20
958.8869555618139
 30
0.0
 10
811.3920783319089
 20
958.886944385057
 30
0.0
  0
SPLINE
  5
1B5
330
1F
100
AcDbEntity
  8
0
  6
Continuous
 62
     8
370
    18
100
AcDbSpline
210
0.0
220
0.0
230
1.0
 70
     8
 71
     3
 72
    12
 73
     8
 74
     0
 42
0.000000001
 43
0.00000001
 40
0.0
 40
0.0
 40
0.0
 40
0.0
 40
0.0000113964157658
 40
0.0165615426249112
 40
0.2254762501766207
 40
0.6569695733823593
 40
1.0
 40
1.0
 40
1.0
 40
1.0
 10
811.3920783319089
 20
958.886944385057
 30
0.0
 10
811.392065550427
 20
958.8869305764018
 30
0.0
 10
811.3734911966128
 20
958.8668635101798
 30
0.0
 10
811.1248810286723
 20
958.5901645312135
 30
0.0
 10
810.5729211044859
 20
957.653928836756
 30
0.0
 10
810.2407277866138
 20
956.0789477897409
 30
0.0
 10
810.2016031500788
 20
954.8271834349656
 30
0.0
 10
810.184275158826
 20
954.2727869290594
 30
0.0
  0
SPLINE
  5
1B6
330
1F
100
AcDbEntity
  8
0
  6
Continuous
 62
     8
370
    18
100
AcDbSpline
210
0.0
220
0.0
230
1.0
 70
     8
 71
     3
 72
    10
 73
     6
 74
     0
 42
0.000000001
 43
0.00000001
 40
0.0
 40
0.0
 40
0.0
 40
0.0
 40
0.0305940752880614
 40
0.8849546452569947
 40
1.0
 40
1.0
 40
1.0
 40
1.0
 10
810.184275158826
 20
954.2727869290594
 30
0.0
 10
810.1840630218303
 20
954.1643486868834
 30
0.0
 10
810.1779268134937
 20
951.0276980369225
 30
0.0
 10
810.13748124525
 20
947.4299115734883
 30
0.0
 10
810.1048877136491
 20
943.9113999030378
 30
0.0
 10
810.1010196390791
 20
943.4938365139811
 30
0.0
  0
LINE
  5
1B7
330
1F
100
AcDbEntity
  8
0
  6
Continuous
 62
     8
370
    18
100
AcDbLine
 10
810.2022967684
 20
906.9303503896
 30
0.0
 11
810.2734939921
 21
904.9271163441
 31
0.0
  0
SPLINE
  5
1B8
330
1F
100
AcDbEntity
  8
0
  6
Continuous
 62
     8
370
    18
100
AcDbSpline
210
0.0
220
0.0
230
1.0
 70
     8
 71
     3
 72
    18
 73
    14
 74
     0
 42
0.000000001
 43
0.00000001
 40
0.0
 40
0.0
 40
0.0
 40
0.0
 40
0.0497884573626106
 40
0.1520626953526053
 40
0.2542931679105416
 40
0.3525326664708923
 40
0.4508084200367183
 40
0.5543273934134058
 40
0.6578565275353612
 40
0.7740307271289424
 40
0.8901694733964504
 40
0.9999988953086805
 40
1.0
 40
1.0
 40
1.0
 40
1.0
 10
810.2734939921421
 20
904.9271163441175
 30
0.0
 10
809.3724037170384
 20
904.9427772403116
 30
0.0
 10
806.6203157182009
 20
904.9906083685098
 30
0.0
 10
802.0178853100815
 20
905.0758163375402
 30
0.0
 10
796.7171752958623
 20
905.1313872773942
 30
0.0
 10
791.8263977445215
 20
905.1957809794415
 30
0.0
 10
787.3332253787194
 20
905.2208706320533
 30
0.0
 10
783.3015860306689
 20
905.2097198252383
 30
0.0
 10
779.6913887425313
 20
905.1628231613311
 30
0.0
 10
776.7792928971853
 20
905.0839418248056
 30
0.0
 10
774.7994771624525
 20
904.9586705036855
 30
0.0
 10
774.2077708962711
 20
904.834310915047
 30
0.0
 10
774.095353139993
 20
904.7668819838223
 30
0.0
 10
774.0953520092788
 20
904.7668813056123
 30
0.0
  0
SPLINE
  5
1B9
330
1F
100
AcDbEntity
  8
0
  6
Continuous
 62
     8
370
    18
100
AcDbSpline
210
0.0
220
0.0
230
1.0
 70
     8
 71
     3
 72
     9
 73
     5
 74
     0
 42
0.000000001
 43
0.00000001
 40
0.0
 40
0.0
 40
0.0
 40
0.0
 40
0.08439349502011
 40
1.0
 40
1.0
 40
1.0
 40
1.0
 10
835.1231976456667
 20
904.8074287925403
 30
0.0
 10
834.7788872523458
 20
904.8056242575599
 30
0.0
 10
830.6990657774948
 20
904.7842418633363
 30
0.0
 10
826.6190174266839
 20
904.7938382330997
 30
0.0
 10
822.8832986160488
 20
904.8026247316794
 30
0.0
  0
SPLINE
  5
1BA
330
1F
100
AcDbEntity
  8
0
  6
Continuous
 62
     8
370
    18
100
AcDbSpline
210
0.0
220
0.0
230
1.0
 70
     8
 71
     3
 72
     9
 73
     5
 74
     0
 42
0.000000001
 43
0.00000001
 40
0.0
 40
0.0
 40
0.0
 40
0.0
 40
0.3531288107769721
 40
0.9999999999999999
 40
0.9999999999999999
 40
0.9999999999999999
 40
0.9999999999999999
 10
821.0760968090707
 20
954.5494807457106
 30
0.0
 10
821.0762202478958
 20
953.2844879359088
 30
0.0
 10
821.076569805398
 20
949.7022460706283
 30
0.0
 10
821.0752649733737
 20
946.0515947458722
 30
0.0
 10
821.0744209151302
 20
943.6900935819885
 30
0.0
  0
LINE
  5
1BB
330
1F
100
AcDbEntity
  8
0
  6
Continuous
 62
     8
370
    18
100
AcDbLine
 10
819.8091176742
 20
954.6984062437
 30
0.0
 11
819.7227845221
 21
943.838707209
 31
0.0
  0
ARC
  5
1BC
330
1F
100
AcDbEntity
  8
0
  6
Continuous
 62
     8
370
    18
100
AcDbCircle
 10
819.8564042969
 20
949.6368398112
 30
0.0
 40
5.061787310414902
100
AcDbArc
 50
76.056743273
 51
90.5352582305
  0
LINE
  5
1BD
330
1F
100
AcDbEntity
  8
0
  6
Continuous
 62
     8
370
    18
100
AcDbLine
 10
893.4211043743
 20
954.6984062437
 30
0.0
 11
893.5074375265
 21
943.838707209
 31
0.0
  0
SPLINE
  5
1BE
330
1F
100
AcDbEntity
  8
0
  6
Continuous
 62
     8
370
    18
100
AcDbSpline
210
0.0
220
0.0
230
1.0
 70
     8
 71
     3
 72
     9
 73
     5
 74
     0
 42
0.000000001
 43
0.00000001
 40
0.0
 40
0.0
 40
0.0
 40
0.0
 40
0.3531288107769721
 40
0.9999999999999999
 40
0.9999999999999999
 40
0.9999999999999999
 40
0.9999999999999999
 10
892.1541252394726
 20
954.5494807457106
 30
0.0
 10
892.1540018006474
 20
953.2844879359088
 30
0.0
 10
892.1536522431452
 20
949.7022460706283
 30
0.0
 10
892.1549570751696
 20
946.0515947458722
 30
0.0
 10
892.155801133413
 20
943.6900935819885
 30
0.0
  0
ARC
  5
1BF
330
1F
100
AcDbEntity
  8
0
  6
Continuous
 62
     8
370
    18
100
AcDbCircle
 10
893.3738177516
 20
949.6368398112
 30
0.0
 40
5.061787310413514
100
AcDbArc
 50
89.4647417695
 51
103.943256727
  0
SPLINE
  5
1C0
330
1F
100
AcDbEntity
  8
0
  6
Continuous
 62
     8
370
    18
100
AcDbSpline
210
0.0
220
0.0
230
1.0
 70
     8
 71
     3
 72
    10
 73
     6
 74
     0
 42
0.000000001
 43
0.00000001
 40
0.0
 40
0.0
 40
0.0
 40
0.0
 40
0.0049102993503903
 40
0.1151643441716854
 40
1.0
 40
1.0
 40
1.0
 40
1.0
 10
812.1505427150178
 20
943.6869749065175
 30
0.0
 10
812.1505206171626
 20
943.7049104686032
 30
0.0
 10
812.1500023422439
 20
944.1255645056683
 30
0.0
 10
812.1446985187906
 20
947.774354130842
 30
0.0
 10
812.1422846152054
 20
951.3482964210673
 30
0.0
 10
812.140138167543
 20
954.5262527080229
 30
0.0
  0
ARC
  5
1C1
330
1F
100
AcDbEntity
  8
0
  6
Continuous
 62
     8
370
    18
100
AcDbCircle
 10
813.4283784571
 20
949.8038996596
 30
0.0
 40
4.894913825379537
100
AcDbArc
 50
89.260915705
 51
105.2587981171
  0
SPLINE
  5
1C2
330
1F
100
AcDbEntity
  8
0
  6
Continuous
 62
     8
370
    18
100
AcDbSpline
210
0.0
220
0.0
230
1.0
 70
     8
 71
     3
 72
     9
 73
     5
 74
     0
 42
0.000000001
 43
0.00000001
 40
0.0
 40
0.0
 40
0.0
 40
0.0
 40
0.853636342424065
 40
1.0
 40
1.0
 40
1.0
 40
1.0
 10
813.5416977676518
 20
943.8387072090319
 30
0.0
 10
813.5210500151376
 20
946.9497880913316
 30
0.0
 10
813.4968620190459
 20
950.5942918778798
 30
0.0
 10
813.4922006750204
 20
954.1744074360854
 30
0.0
 10
813.4915184236596
 20
954.6984062437289
 30
0.0
  0
SPLINE
  5
1C3
330
1F
100
AcDbEntity
  8
0
  6
Continuous
 62
     8
370
    18
100
AcDbSpline
210
0.0
220
0.0
230
1.0
 70
     8
 71
     3
 72
     9
 73
     5
 74
     0
 42
0.000000001
 43
0.00000001
 40
0.0
 40
0.0
 40
0.0
 40
0.0
 40
0.853636342424065
 40
1.0
 40
1.0
 40
1.0
 40
1.0
 10
899.6885242808913
 20
943.8387072090319
 30
0.0
 10
899.7091720334056
 20
946.9497880913316
 30
0.0
 10
899.7333600294972
 20
950.5942918778798
 30
0.0
 10
899.7380213735228
 20
954.1744074360854
 30
0.0
 10
899.7387036248836
 20
954.6984062437289
 30
0.0
  0
ARC
  5
1C4
330
1F
100
AcDbEntity
  8
0
  6
Continuous
 62
     8
370
    18
100
AcDbCircle
 10
899.8018435915
 20
949.8038996596
 30
0.0
 40
4.894913825379428
100
AcDbArc
 50
74.7412018829
 51
90.739084295
  0
SPLINE
  5
1C5
330
1F
100
AcDbEntity
  8
0
  6
Continuous
 62
     8
370
    18
100
AcDbSpline
210
0.0
220
0.0
230
1.0
 70
     8
 71
     3
 72
    10
 73
     6
 74
     0
 42
0.000000001
 43
0.00000001
 40
0.0
 40
0.0
 40
0.0
 40
0.0
 40
0.0049102993503903
 40
0.1151643441716854
 40
1.0
 40
1.0
 40
1.0
 40
1.0
 10
901.0796793335254
 20
943.6869749065175
 30
0.0
 10
901.0797014313806
 20
943.7049104686032
 30
0.0
 10
901.0802197062993
 20
944.1255645056683
 30
0.0
 10
901.0855235297525
 20
947.774354130842
 30
0.0
 10
901.0879374333377
 20
951.3482964210673
 30
0.0
 10
901.0900838810002
 20
954.5262527080229
 30
0.0
  0
LINE
  5
1C6
330
1F
100
AcDbEntity
  8
0
  6
Continuous
 62
     8
370
    18
100
AcDbLine
 10
893.4211043743
 20
954.6984062437
 30
0.0
 11
899.7387036249
 21
954.6984062437
 31
0.0
  0
LINE
  5
1C7
330
1F
100
AcDbEntity
  8
0
  6
Continuous
 62
     8
370
    18
100
AcDbLine
 10
819.8091176742
 20
954.6984062437
 30
0.0
 11
813.4915184237
 21
954.6984062437
 31
0.0
  0
ARC
  5
1C8
330
1F
100
AcDbEntity
  8
0
  6
Continuous
 62
     8
370
    18
100
AcDbCircle
 10
890.3440782675
 20
961.9841959546
 30
0.0
 40
7.651879525882334
100
AcDbArc
 50
269.2050001421
 51
283.6829680608
  0
ARC
  5
1C9
330
1F
100
AcDbEntity
  8
0
  6
Continuous
 62
     8
370
    18
100
AcDbCircle
 10
822.8861437811
 20
961.9841959546
 30
0.0
 40
7.6518795258804
100
AcDbArc
 50
256.3170319392
 51
270.7949998579
  0
ARC
  5
1CA
330
1F
100
AcDbEntity
  8
0
  6
Continuous
 62
     8
370
    18
100
AcDbCircle
 10
902.9970642471
 20
961.5685045606
 30
0.0
 40
7.295881391068316
100
AcDbArc
 50
254.8481769985
 51
270.3838864582
  0
ARC
  5
1CB
330
1F
100
AcDbEntity
  8
0
  6
Continuous
 62
     8
370
    18
100
AcDbCircle
 10
810.2331578014
 20
961.5685045606
 30
0.0
 40
7.295881391068318
100
AcDbArc
 50
269.6161135418
 51
285.1518230015
  0
LINE
  5
1CC
330
1F
100
AcDbEntity
  8
0
  6
Continuous
 62
     8
370
    18
100
AcDbLine
 10
810.2734939921
 20
904.9271163441
 30
0.0
 11
810.2872809434
 21
904.7700044846
 31
0.0
  0
SPLINE
  5
1CD
330
1F
100
AcDbEntity
  8
0
  6
Continuous
 62
     8
370
    18
100
AcDbSpline
210
0.0
220
0.0
230
1.0
 70
     8
 71
     3
 72
    14
 73
    10
 74
     0
 42
0.000000001
 43
0.00000001
 40
0.0
 40
0.0
 40
0.0
 40
0.0
 40
0.2135072054013614
 40
0.6517504153255609
 40
0.873140029812623
 40
0.9340362681777997
 40
0.9607431005770671
 40
0.9801118651181869
 40
1.0
 40
1.0
 40
1.0
 40
1.0
 10
810.287280943361
 20
904.7700044846027
 30
0.0
 10
810.3435281945327
 20
904.1761356160738
 30
0.0
 10
810.5152281109039
 20
902.3632961805852
 30
0.0
 10
810.8727140838726
 20
900.3092722185032
 30
0.0
 10
811.3244379683294
 20
898.9778158258737
 30
0.0
 10
811.8234770501371
 20
898.5272452554128
 30
0.0
 10
812.0936793831637
 20
898.4183659465664
 30
0.0
 10
812.2937476132188
 20
898.3789200081006
 30
0.0
 10
812.419600611652
 20
898.3783002837628
 30
0.0
 10
812.483359630956
 20
898.3779863221051
 30
0.0
  0
LINE
  5
1CE
330
1F
100
AcDbEntity
  8
0
  6
Continuous
 62
     8
370
    18
100
AcDbLine
 10
812.483359631
 20
898.3779863221
 30
0.0
 11
820.776709221
 21
898.5965043636
 31
0.0
  0
SPLINE
  5
1CF
330
1F
100
AcDbEntity
  8
0
  6
Continuous
 62
     8
370
    18
100
AcDbSpline
210
0.0
220
0.0
230
1.0
 70
     8
 71
     3
 72
    16
 73
    12
 74
     0
 42
0.000000001
 43
0.00000001
 40
0.0
 40
0.0
 40
0.0
 40
0.0
 40
0.014516518949473
 40
0.0410735504097971
 40
0.0660449149745841
 40
0.1244471088434266
 40
0.1776973916031257
 40
0.253593119217817
 40
0.3633556422017191
 40
0.5223716192680055
 40
1.0
 40
1.0
 40
1.0
 40
1.0
 10
820.7767092210474
 20
898.5965043635578
 30
0.0
 10
820.8193715146939
 20
898.5985715132608
 30
0.0
 10
820.9400817121441
 20
898.6044203794959
 30
0.0
 10
821.1192429918415
 20
898.6496757599626
 30
0.0
 10
821.358562158553
 20
898.7637336150827
 30
0.0
 10
821.5661368985647
 20
898.9521087269924
 30
0.0
 10
821.7714307032545
 20
899.239491547226
 30
0.0
 10
821.9684967645599
 20
899.6390361405143
 30
0.0
 10
822.1834760084229
 20
900.2680312277532
 30
0.0
 10
822.5419211592822
 20
901.7597012173599
 30
0.0
 10
822.7227177325022
 20
903.35468316354
 30
0.0
 10
822.8583563719582
 20
904.5512831725077
 30
0.0
  0
LINE
  5
1D0
330
1F
100
AcDbEntity
  8
0
  6
Continuous
 62
     8
370
    18
100
AcDbLine
 10
822.858356372
 20
904.5512831725
 30
0.0
 11
822.883298616
 21
904.8026247317
 31
0.0
  0
SPLINE
  5
1D1
330
1F
100
AcDbEntity
  8
0
  6
Continuous
 62
     8
370
    18
100
AcDbSpline
210
0.0
220
0.0
230
1.0
 70
     8
 71
     3
 72
     9
 73
     5
 74
     0
 42
0.000000001
 43
0.00000001
 40
0.0
 40
0.0
 40
0.0
 40
0.0
 40
0.0094533958096251
 40
1.0
 40
1.0
 40
1.0
 40
1.0
 10
856.6151110242716
 20
896.4808747803993
 30
0.0
 10
856.6059029325936
 20
896.4808748033768
 30
0.0
 10
855.6318517171826
 20
896.4808772339768
 30
0.0
 10
854.6599931287031
 20
896.606200135199
 30
0.0
 10
853.6973219041315
 20
896.7303383094319
 30
0.0
  0
SPLINE
  5
1D2
330
1F
100
AcDbEntity
  8
0
  6
Continuous
 62
     8
370
    18
100
AcDbSpline
210
0.0
220
0.0
230
1.0
 70
     8
 71
     3
 72
    12
 73
     8
 74
     0
 42
0.000000001
 43
0.00000001
 40
0.0
 40
0.0
 40
0.0
 40
0.0
 40
0.0986927005379106
 40
0.3626715646535658
 40
0.6320534788938001
 40
0.8140997464528016
 40
0.9999999999999999
 40
0.9999999999999999
 40
0.9999999999999999
 40
0.9999999999999999
 10
852.701755353333
 20
896.8162663872997
 30
0.0
 10
852.0874203794119
 20
896.8572464560797
 30
0.0
 10
849.8298894272845
 20
897.0078381977487
 30
0.0
 10
845.9488159921182
 20
898.1159934800977
 30
0.0
 10
841.6715578822115
 20
899.9320268247535
 30
0.0
 10
838.017838082286
 20
902.1916636492163
 30
0.0
 10
836.0947919849715
 20
903.9294397428285
 30
0.0
 10
835.1231976456667
 20
904.8074287925403
 30
0.0
  0
LINE
  5
1D3
330
1F
100
AcDbEntity
  8
0
  6
Continuous
 62
     8
370
    18
100
AcDbLine
 10
820.7622199174
 20
898.7399633373
 30
0.0
 11
812.4497621006
 21
898.5214452958
 31
0.0
  0
SPLINE
  5
1D4
330
1F
100
AcDbEntity
  8
0
  6
Continuous
 62
     8
370
    18
100
AcDbSpline
210
0.0
220
0.0
230
1.0
 70
     8
 71
     3
 72
    10
 73
     6
 74
     0
 42
0.000000001
 43
0.00000001
 40
0.0
 40
0.0
 40
0.0
 40
0.0
 40
0.445489637819774
 40
0.7187778752024849
 40
1.0
 40
1.0
 40
1.0
 40
1.0
 10
812.4497621006242
 20
898.5214452958032
 30
0.0
 10
812.6748229354374
 20
899.1331059802817
 30
0.0
 10
813.0379486625139
 20
900.119993507646
 30
0.0
 10
813.2730131989085
 20
902.1967053765927
 30
0.0
 10
813.3718188000239
 20
903.5594118985216
 30
0.0
 10
813.4219284516781
 20
904.2505139043805
 30
0.0
  0
LINE
  5
1D5
330
1F
100
AcDbEntity
  8
0
  6
Continuous
 62
     8
370
    18
100
AcDbLine
 10
813.4219284517
 20
904.2505139044
 30
0.0
 11
813.4841085448
 21
906.4211470002
 31
0.0
  0
LINE
  5
1D6
330
1F
100
AcDbEntity
  8
0
  6
Continuous
 62
     8
370
    18
100
AcDbLine
 10
819.8271110383
 20
906.4211470002
 30
0.0
 11
819.8944374136
 21
904.1232334699
 31
0.0
  0
SPLINE
  5
1D7
330
1F
100
AcDbEntity
  8
0
  6
Continuous
 62
     8
370
    18
100
AcDbSpline
210
0.0
220
0.0
230
1.0
 70
     8
 71
     3
 72
    10
 73
     6
 74
     0
 42
0.000000001
 43
0.00000001
 40
0.0
 40
0.0
 40
0.0
 40
0.0
 40
0.5085358280598312
 40
0.7966056673011384
 40
1.0
 40
1.0
 40
1.0
 40
1.0
 10
819.8944374135533
 20
904.1232334699168
 30
0.0
 10
819.9834799782245
 20
902.9984120784305
 30
0.0
 10
820.1229624054876
 20
901.2364141114867
 30
0.0
 10
820.4248854169908
 20
899.6046437963977
 30
0.0
 10
820.6634776193131
 20
898.9930668163245
 30
0.0
 10
820.7622199174278
 20
898.7399633372552
 30
0.0
  0
LINE
  5
1D8
330
1F
100
AcDbEntity
  8
0
  6
Continuous
 62
     8
370
    18
100
AcDbLine
 10
893.4031110103
 20
906.4211470002
 30
0.0
 11
893.335784635
 21
904.1232334699
 31
0.0
  0
LINE
  5
1D9
330
1F
100
AcDbEntity
  8
0
  6
Continuous
 62
     8
370
    18
100
AcDbLine
 10
899.8082935969
 20
904.2505139044
 30
0.0
 11
899.7461135037
 21
906.4211470002
 31
0.0
  0
SPLINE
  5
1DA
330
1F
100
AcDbEntity
  8
0
  6
Continuous
 62
     8
370
    18
100
AcDbSpline
210
0.0
220
0.0
230
1.0
 70
     8
 71
     3
 72
    10
 73
     6
 74
     0
 42
0.000000001
 43
0.00000001
 40
0.0
 40
0.0
 40
0.0
 40
0.0
 40
0.445489637819774
 40
0.718777875202486
 40
1.0
 40
1.0
 40
1.0
 40
1.0
 10
900.780459947919
 20
898.5214452958032
 30
0.0
 10
900.5553991131058
 20
899.1331059802817
 30
0.0
 10
900.1922733860293
 20
900.119993507646
 30
0.0
 10
899.9572088496346
 20
902.1967053765927
 30
0.0
 10
899.8584032485194
 20
903.5594118985217
 30
0.0
 10
899.808293596865
 20
904.2505139043805
 30
0.0
  0
LINE
  5
1DB
330
1F
100
AcDbEntity
  8
0
  6
Continuous
 62
     8
370
    18
100
AcDbLine
 10
892.4680021311
 20
898.7399633373
 30
0.0
 11
900.7804599479
 21
898.5214452958
 31
0.0
  0
SPLINE
  5
1DC
330
1F
100
AcDbEntity
  8
0
  6
Continuous
 62
     8
370
    18
100
AcDbSpline
210
0.0
220
0.0
230
1.0
 70
     8
 71
     3
 72
    10
 73
     6
 74
     0
 42
0.000000001
 43
0.00000001
 40
0.0
 40
0.0
 40
0.0
 40
0.0
 40
0.5085358280598318
 40
0.7966056673011385
 40
1.0
 40
1.0
 40
1.0
 40
1.0
 10
893.3357846349899
 20
904.1232334699168
 30
0.0
 10
893.2467420703188
 20
902.9984120784306
 30
0.0
 10
893.1072596430556
 20
901.2364141114869
 30
0.0
 10
892.8053366315523
 20
899.6046437963977
 30
0.0
 10
892.5667444292301
 20
898.9930668163245
 30
0.0
 10
892.4680021311153
 20
898.7399633372552
 30
0.0
  0
LINE
  5
1DD
330
1F
100
AcDbEntity
  8
0
  6
Continuous
 62
     8
370
    18
100
AcDbLine
 10
821.075716319
 20
906.5902377101
 30
0.0
 11
821.073860013
 21
904.6568685175
 31
0.0
  0
LINE
  5
1DE
330
1F
100
AcDbEntity
  8
0
  6
Continuous
 62
     8
370
    18
100
AcDbLine
 10
821.073860013
 20
904.6568685175
 30
0.0
 11
821.0736652903
 21
904.3975576361
 31
0.0
  0
ARC
  5
1DF
330
1F
100
AcDbEntity
  8
0
  6
Continuous
 62
     8
370
    18
100
AcDbCircle
 10
819.7464755365
 20
907.4309873931
 30
0.0
 40
3.311061571933383
100
AcDbArc
 50
272.5612375306
 51
293.6303960838
  0
LINE
  5
1E0
330
1F
100
AcDbEntity
  8
0
  6
Continuous
 62
     8
370
    18
100
AcDbLine
 10
812.1403657801
 20
904.5687296903
 30
0.0
 11
812.140818232
 21
904.732266867
 31
0.0
  0
LINE
  5
1E1
330
1F
100
AcDbEntity
  8
0
  6
Continuous
 62
     8
370
    18
100
AcDbLine
 10
812.140818232
 20
904.732266867
 30
0.0
 11
812.1415102124
 21
906.6222186269
 31
0.0
  0
ARC
  5
1E2
330
1F
100
AcDbEntity
  8
0
  6
Continuous
 62
     8
370
    18
100
AcDbCircle
 10
813.5534723966
 20
907.5200371
 30
0.0
 40
3.272168353914559
100
AcDbArc
 50
244.4145746888
 51
267.6960401779
  0
LINE
  5
1E3
330
1F
100
AcDbEntity
  8
0
  6
Continuous
 62
     8
370
    18
100
AcDbLine
 10
901.0894038165
 20
904.732266867
 30
0.0
 11
901.0887118362
 21
906.6222186269
 31
0.0
  0
LINE
  5
1E4
330
1F
100
AcDbEntity
  8
0
  6
Continuous
 62
     8
370
    18
100
AcDbLine
 10
901.0898562684
 20
904.5687296903
 30
0.0
 11
901.0894038165
 21
904.732266867
 31
0.0
  0
ARC
  5
1E5
330
1F
100
AcDbEntity
  8
0
  6
Continuous
 62
     8
370
    18
100
AcDbCircle
 10
899.676749652
 20
907.5200371
 30
0.0
 40
3.27216835391475
100
AcDbArc
 50
272.3039598221
 51
295.5854253112
  0
ARC
  5
1E6
330
1F
100
AcDbEntity
  8
0
  6
Continuous
 62
     8
370
    18
100
AcDbCircle
 10
893.4837465121
 20
907.4309873931
 30
0.0
 40
3.311061571937081
100
AcDbArc
 50
246.3696039162
 51
267.4387624694
  0
LINE
  5
1E7
330
1F
100
AcDbEntity
  8
0
  6
Continuous
 62
     8
370
    18
100
AcDbLine
 10
892.1563620356
 20
904.6568685175
 30
0.0
 11
892.1565567582
 21
904.3975576361
 31
0.0
  0
LINE
  5
1E8
330
1F
100
AcDbEntity
  8
0
  6
Continuous
 62
     8
370
    18
100
AcDbLine
 10
892.1545057295
 20
906.5902377101
 30
0.0
 11
892.1563620356
 21
904.6568685175
 31
0.0
  0
LINE
  5
1E9
330
1F
100
AcDbEntity
  8
0
  6
Continuous
 62
     8
370
    18
100
AcDbLine
 10
890.3718656766
 20
904.5512831725
 30
0.0
 11
890.3469234325
 21
904.8026247317
 31
0.0
  0
SPLINE
  5
1EA
330
1F
100
AcDbEntity
  8
0
  6
Continuous
 62
     8
370
    18
100
AcDbSpline
210
0.0
220
0.0
230
1.0
 70
     8
 71
     3
 72
    16
 73
    12
 74
     0
 42
0.000000001
 43
0.00000001
 40
0.0
 40
0.0
 40
0.0
 40
0.0
 40
0.0145165189495134
 40
0.0410735504098391
 40
0.0660449149746276
 40
0.1244471088434735
 40
0.1776973916031758
 40
0.2535931192178716
 40
0.3633556422018384
 40
0.5223716192680699
 40
1.0
 40
1.0
 40
1.0
 40
1.0
 10
892.4535128274961
 20
898.5965043635578
 30
0.0
 10
892.4108505338496
 20
898.5985715132608
 30
0.0
 10
892.2901403363991
 20
898.6044203794959
 30
0.0
 10
892.1109790567017
 20
898.6496757599626
 30
0.0
 10
891.8716598899902
 20
898.7637336150827
 30
0.0
 10
891.6640851499785
 20
898.9521087269924
 30
0.0
 10
891.4587913452889
 20
899.239491547226
 30
0.0
 10
891.2617252839832
 20
899.6390361405143
 30
0.0
 10
891.0467460401208
 20
900.2680312277541
 30
0.0
 10
890.6883008892586
 20
901.7597012173588
 30
0.0
 10
890.5075043160558
 20
903.3546831635408
 30
0.0
 10
890.371865676613
 20
904.55128317251
 30
0.0
  0
LINE
  5
1EB
330
1F
100
AcDbEntity
  8
0
  6
Continuous
 62
     8
370
    18
100
AcDbLine
 10
900.7468624176
 20
898.3779863221
 30
0.0
 11
892.4535128275
 21
898.5965043636
 31
0.0
  0
SPLINE
  5
1EC
330
1F
100
AcDbEntity
  8
0
  6
Continuous
 62
     8
370
    18
100
AcDbSpline
210
0.0
220
0.0
230
1.0
 70
     8
 71
     3
 72
    14
 73
    10
 74
     0
 42
0.000000001
 43
0.00000001
 40
0.0
 40
0.0
 40
0.0
 40
0.0
 40
0.2135072054014703
 40
0.6517504153256252
 40
0.87314002981264
 40
0.9340362681778086
 40
0.9607431005770724
 40
0.9801118651181896
 40
1.0
 40
1.0
 40
1.0
 40
1.0
 10
902.9429411051625
 20
904.7700044846052
 30
0.0
 10
902.8866938539985
 20
904.1761356160753
 30
0.0
 10
902.7149939376512
 20
902.3632961805844
 30
0.0
 10
902.3575079646687
 20
900.3092722185036
 30
0.0
 10
901.9057840802138
 20
898.9778158258737
 30
0.0
 10
901.4067449984062
 20
898.5272452554128
 30
0.0
 10
901.1365426653795
 20
898.4183659465664
 30
0.0
 10
900.9364744353243
 20
898.3789200081006
 30
0.0
 10
900.8106214368912
 20
898.3783002837628
 30
0.0
 10
900.7468624175873
 20
898.3779863221051
 30
0.0
  0
LINE
  5
1ED
330
1F
100
AcDbEntity
  8
0
  6
Continuous
 62
     8
370
    18
100
AcDbLine
 10
902.9567280564
 20
904.9271163441
 30
0.0
 11
902.9429411052
 21
904.7700044846
 31
0.0
  0
SPLINE
  5
1EE
330
1F
100
AcDbEntity
  8
0
  6
Continuous
 62
     8
370
    18
100
AcDbSpline
210
0.0
220
0.0
230
1.0
 70
     8
 71
     3
 72
    15
 73
    11
 74
     0
 42
0.000000001
 43
0.00000001
 40
0.0
 40
0.0
 40
0.0
 40
0.0
 40
0.0014239395057858
 40
0.1351061085576249
 40
0.289221605215442
 40
0.4462432513906064
 40
0.5840152296265024
 40
0.7248088485654304
 40
0.8605044118101293
 40
1.0
 40
1.0
 40
1.0
 40
1.0
 10
925.6618934313426
 20
896.4808747803993
 30
0.0
 10
925.6673934992574
 20
896.4808776998624
 30
0.0
 10
926.1892504810633
 20
896.4811547041178
 30
0.0
 10
927.2392806755915
 20
896.5675091427083
 30
0.0
 10
928.6335244092113
 20
897.0333217823779
 30
0.0
 10
929.7846210028318
 20
897.92386110158
 30
0.0
 10
930.6411527873736
 20
899.207622176698
 30
0.0
 10
931.1844983976415
 20
900.8236425654759
 30
0.0
 10
931.4597873710402
 20
902.8041912812466
 30
0.0
 10
931.3578960933137
 20
904.3873221808907
 30
0.0
 10
931.3062469627229
 20
905.1898181000951
 30
0.0
  0
SPLINE
  5
1EF
330
1F
100
AcDbEntity
  8
0
  6
Continuous
 62
     8
370
    18
100
AcDbSpline
210
0.0
220
0.0
230
1.0
 70
     8
 71
     3
 72
    12
 73
     8
 74
     0
 42
0.000000001
 43
0.00000001
 40
0.0
 40
0.0
 40
0.0
 40
0.0
 40
0.1729070209294319
 40
0.35005925293766
 40
0.6008939024630687
 40
0.8574899875492359
 40
1.0
 40
1.0
 40
1.0
 40
1.0
 10
878.1070244028766
 20
904.8074287925405
 30
0.0
 10
877.1577990304505
 20
903.9479650201899
 30
0.0
 10
875.2360429157778
 20
902.2079359313841
 30
0.0
 10
871.6161035977564
 20
899.9646241832523
 30
0.0
 10
867.3175052561143
 20
898.1174878698264
 30
0.0
 10
863.1203817042722
 20
896.9492310515705
 30
0.0
 10
860.508138790237
 20
896.7906349397083
 30
0.0
 10
859.5753773704015
 20
896.7340045499056
 30
0.0
  0
SPLINE
  5
1F0
330
1F
100
AcDbEntity
  8
0
  6
Continuous
 62
     8
370
    18
100
AcDbSpline
210
0.0
220
0.0
230
1.0
 70
     8
 71
     3
 72
     9
 73
     5
 74
     0
 42
0.000000001
 43
0.00000001
 40
0.0
 40
0.0
 40
0.0
 40
0.0
 40
0.9809099457843522
 40
1.0
 40
1.0
 40
1.0
 40
1.0
 10
858.0600212703655
 20
896.6032130554979
 30
0.0
 10
857.5879407909898
 20
896.5425334161316
 30
0.0
 10
857.1066728811224
 20
896.4806728553051
 30
0.0
 10
856.6243191825289
 20
896.4808709978475
 30
0.0
 10
856.6151110242716
 20
896.4808747803993
 30
0.0
  0
ARC
  5
1F1
330
1F
100
AcDbEntity
  8
0
  6
Continuous
 62
     8
370
    18
100
AcDbCircle
 10
822.4260078211
 20
899.175304803
 30
0.0
 40
5.645869680603323
100
AcDbArc
 50
85.3542029002
 51
103.8566348578
  0
ARC
  5
1F2
330
1F
100
AcDbEntity
  8
0
  6
Continuous
 62
     8
370
    18
100
AcDbCircle
 10
890.8042142275
 20
899.175304803
 30
0.0
 40
5.645869680604505
100
AcDbArc
 50
76.1433651422
 51
94.6457970998
  0
ARC
  5
1F3
330
1F
100
AcDbEntity
  8
0
  6
Continuous
 62
     8
370
    18
100
AcDbCircle
 10
902.5886484677
 20
899.4094770581
 30
0.0
 40
5.52990288113098
100
AcDbArc
 50
86.1834753415
 51
105.7306807766
  0
ARC
  5
1F4
330
1F
100
AcDbEntity
  8
0
  6
Continuous
 62
     8
370
    18
100
AcDbCircle
 10
810.6415735809
 20
899.4094770581
 30
0.0
 40
5.529902881127444
100
AcDbArc
 50
74.2693192234
 51
93.8165246585
  0
SPLINE
  5
1F5
330
1F
100
AcDbEntity
  8
0
  6
Continuous
 62
     8
370
    18
100
AcDbSpline
210
0.0
220
0.0
230
1.0
 70
     8
 71
     3
 72
    15
 73
    11
 74
     0
 42
0.000000001
 43
0.00000001
 40
0.0
 40
0.0
 40
0.0
 40
0.0
 40
0.0247383799946505
 40
0.0492201071029638
 40
0.0751567027976505
 40
0.1186953964311377
 40
0.2418825692051124
 40
0.4816368506398223
 40
0.8380569172747754
 40
1.0
 40
1.0
 40
1.0
 40
1.0
 10
893.0328834622096
 20
958.5445458455246
 30
0.0
 10
892.9928111406389
 20
958.5454454866355
 30
0.0
 10
892.9130822351892
 20
958.5472354353647
 30
0.0
 10
892.7985703055788
 20
958.5068544083765
 30
0.0
 10
892.6793604100046
 20
958.4279908525104
 30
0.0
 10
892.4905369380681
 20
958.2180541766894
 30
0.0
 10
892.2667300546809
 20
957.6823298478721
 30
0.0
 10
892.1716916355708
 20
956.6785356685157
 30
0.0
 10
892.1555876829929
 20
955.576590489238
 30
0.0
 10
892.1544733659498
 20
954.7939784591214
 30
0.0
 10
892.1541252394726
 20
954.5494807457106
 30
0.0
  0
SPLINE
  5
1F6
330
1F
100
AcDbEntity
  8
0
  6
Continuous
 62
     8
370
    18
100
AcDbSpline
210
0.0
220
0.0
230
1.0
 70
     8
 71
     3
 72
     9
 73
     5
 74
     0
 42
0.000000001
 43
0.00000001
 40
0.0
 40
0.0
 40
0.0
 40
0.0
 40
0.3204572925053707
 40
1.0
 40
1.0
 40
1.0
 40
1.0
 10
893.0328834622096
 20
958.5445458455246
 30
0.0
 10
893.1080716279187
 20
958.1895454864374
 30
0.0
 10
893.3426993535703
 20
957.0817524438401
 30
0.0
 10
893.3893817156334
 20
955.6627077303738
 30
0.0
 10
893.4211043743419
 20
954.6984062437289
 30
0.0
  0
SPLINE
  5
1F7
330
1F
100
AcDbEntity
  8
0
  6
Continuous
 62
     8
370
    18
100
AcDbSpline
210
0.0
220
0.0
230
1.0
 70
     8
 71
     3
 72
    15
 73
    11
 74
     0
 42
0.000000001
 43
0.00000001
 40
0.0
 40
0.0
 40
0.0
 40
0.0
 40
0.0247383799946505
 40
0.0492201071029638
 40
0.0751567027976505
 40
0.1186953964311377
 40
0.2418825692051124
 40
0.4816368506398223
 40
0.8380569172747754
 40
1.0
 40
1.0
 40
1.0
 40
1.0
 10
820.1973385863336
 20
958.5445458455246
 30
0.0
 10
820.2374109079043
 20
958.5454454866355
 30
0.0
 10
820.317139813354
 20
958.5472354353647
 30
0.0
 10
820.4316517429644
 20
958.5068544083765
 30
0.0
 10
820.5508616385385
 20
958.4279908525104
 30
0.0
 10
820.7396851104751
 20
958.2180541766894
 30
0.0
 10
820.9634919938622
 20
957.6823298478721
 30
0.0
 10
821.0585304129723
 20
956.6785356685157
 30
0.0
 10
821.0746343655503
 20
955.576590489238
 30
0.0
 10
821.0757486825934
 20
954.7939784591214
 30
0.0
 10
821.0760968090707
 20
954.5494807457106
 30
0.0
  0
SPLINE
  5
1F8
330
1F
100
AcDbEntity
  8
0
  6
Continuous
 62
     8
370
    18
100
AcDbSpline
210
0.0
220
0.0
230
1.0
 70
     8
 71
     3
 72
     9
 73
     5
 74
     0
 42
0.000000001
 43
0.00000001
 40
0.0
 40
0.0
 40
0.0
 40
0.0
 40
0.3204572925053707
 40
1.0
 40
1.0
 40
1.0
 40
1.0
 10
820.1973385863336
 20
958.5445458455246
 30
0.0
 10
820.1221504206245
 20
958.1895454864374
 30
0.0
 10
819.8875226949729
 20
957.0817524438401
 30
0.0
 10
819.8408403329098
 20
955.6627077303738
 30
0.0
 10
819.8091176742013
 20
954.6984062437289
 30
0.0
  0
SPLINE
  5
1F9
330
1F
100
AcDbEntity
  8
0
  6
Continuous
 62
     8
370
    18
100
AcDbSpline
210
0.0
220
0.0
230
1.0
 70
     8
 71
     3
 72
     9
 73
     5
 74
     0
 42
0.000000001
 43
0.00000001
 40
0.0
 40
0.0
 40
0.0
 40
0.0
 40
0.631036136705218
 40
1.0
 40
1.0
 40
1.0
 40
1.0
 10
899.7387036248836
 20
954.6984062437289
 30
0.0
 10
899.7686093602343
 20
955.6348876218128
 30
0.0
 10
899.8160008384892
 20
957.118925260249
 30
0.0
 10
900.0703815225305
 20
958.2630972172082
 30
0.0
 10
900.1642388024619
 20
958.6852553227214
 30
0.0
  0
SPLINE
  5
1FA
330
1F
100
AcDbEntity
  8
0
  6
Continuous
 62
     8
370
    18
100
AcDbSpline
210
0.0
220
0.0
230
1.0
 70
     8
 71
     3
 72
    15
 73
    11
 74
     0
 42
0.000000001
 43
0.00000001
 40
0.0
 40
0.0
 40
0.0
 40
0.0
 40
0.3092031051605927
 40
0.6638382552574933
 40
0.803986173963671
 40
0.9077221477257726
 40
0.9361281220494161
 40
0.9546919441403817
 40
0.9789089794125908
 40
0.9999999999999999
 40
0.9999999999999999
 40
0.9999999999999999
 40
0.9999999999999999
 10
901.0900838810002
 20
954.5262527080229
 30
0.0
 10
901.0893438307314
 20
955.0139722177512
 30
0.0
 10
901.0877549926149
 20
956.0610731782182
 30
0.0
 10
901.0775643236599
 20
957.2622590809079
 30
0.0
 10
900.8805585261424
 20
958.1183367614527
 30
0.0
 10
900.6757050057137
 20
958.4804664304409
 30
0.0
 10
900.4896163699937
 20
958.6298091278945
 30
0.0
 10
900.3832526879345
 20
958.6791684713195
 30
0.0
 10
900.2745824514548
 20
958.6999701925447
 30
0.0
 10
900.1992883889491
 20
958.6899293579488
 30
0.0
 10
900.1642388024619
 20
958.6852553227214
 30
0.0
  0
SPLINE
  5
1FB
330
1F
100
AcDbEntity
  8
0
  6
Continuous
 62
     8
370
    18
100
AcDbSpline
210
0.0
220
0.0
230
1.0
 70
     8
 71
     3
 72
    15
 73
    11
 74
     0
 42
0.000000001
 43
0.00000001
 40
0.0
 40
0.0
 40
0.0
 40
0.0
 40
0.3092031051605927
 40
0.6638382552574933
 40
0.803986173963671
 40
0.9077221477257726
 40
0.9361281220494161
 40
0.9546919441403817
 40
0.9789089794125908
 40
0.9999999999999999
 40
0.9999999999999999
 40
0.9999999999999999
 40
0.9999999999999999
 10
812.140138167543
 20
954.5262527080229
 30
0.0
 10
812.1408782178117
 20
955.0139722177512
 30
0.0
 10
812.1424670559283
 20
956.0610731782182
 30
0.0
 10
812.1526577248833
 20
957.2622590809079
 30
0.0
 10
812.3496635224008
 20
958.1183367614527
 30
0.0
 10
812.5545170428296
 20
958.4804664304409
 30
0.0
 10
812.7406056785495
 20
958.6298091278945
 30
0.0
 10
812.8469693606087
 20
958.6791684713195
 30
0.0
 10
812.9556395970884
 20
958.6999701925447
 30
0.0
 10
813.0309336595941
 20
958.6899293579488
 30
0.0
 10
813.0659832460813
 20
958.6852553227214
 30
0.0
  0
SPLINE
  5
1FC
330
1F
100
AcDbEntity
  8
0
  6
Continuous
 62
     8
370
    18
100
AcDbSpline
210
0.0
220
0.0
230
1.0
 70
     8
 71
     3
 72
     9
 73
     5
 74
     0
 42
0.000000001
 43
0.00000001
 40
0.0
 40
0.0
 40
0.0
 40
0.0
 40
0.631036136705218
 40
1.0
 40
1.0
 40
1.0
 40
1.0
 10
813.4915184236596
 20
954.6984062437289
 30
0.0
 10
813.4616126883088
 20
955.6348876218128
 30
0.0
 10
813.4142212100539
 20
957.118925260249
 30
0.0
 10
813.1598405260127
 20
958.2630972172082
 30
0.0
 10
813.0659832460813
 20
958.6852553227214
 30
0.0
  0
LINE
  5
1FD
330
1F
100
AcDbEntity
  8
0
  6
Continuous
 62
     8
370
    18
100
AcDbLine
 10
900.1642388025
 20
958.6852553227
 30
0.0
 11
893.0328834622
 21
958.5445458455
 31
0.0
  0
LINE
  5
1FE
330
1F
100
AcDbEntity
  8
0
  6
Continuous
 62
     8
370
    18
100
AcDbLine
 10
813.0659832461
 20
958.6852553227
 30
0.0
 11
820.1973385863
 21
958.5445458455
 31
0.0
  0
ARC
  5
1FF
330
1F
100
AcDbEntity
  8
0
  6
Continuous
 62
     8
370
    18
100
AcDbCircle
 10
726.4416589522
 20
961.6100431363
 30
0.0
 40
93.80578200352907
100
AcDbArc
 50
358.1272867192
 51
358.5922936385
  0
ARC
  5
200
330
1F
100
AcDbEntity
  8
0
  6
Continuous
 62
     8
370
    18
100
AcDbCircle
 10
986.7885630881
 20
961.6100431361
 30
0.0
 40
93.80578199527937
100
AcDbArc
 50
181.4077063615
 51
181.8727132808
  0
ARC
  5
201
330
1F
100
AcDbEntity
  8
0
  6
Continuous
 62
     8
370
    18
100
AcDbCircle
 10
772.4935001297
 20
961.610750988
 30
0.0
 40
40.67781841639885
100
AcDbArc
 50
355.8758017505
 51
356.9247251143
  0
ARC
  5
202
330
1F
100
AcDbEntity
  8
0
  6
Continuous
 62
     8
370
    18
100
AcDbCircle
 10
940.7367219189
 20
961.610750988
 30
0.0
 40
40.67781841639829
100
AcDbArc
 50
183.0752748857
 51
184.1241982495
  0
SPLINE
  5
203
330
1F
100
AcDbEntity
  8
0
  6
Continuous
 62
     8
370
    18
100
AcDbSpline
210
0.0
220
0.0
230
1.0
 70
     8
 71
     3
 72
    19
 73
    15
 74
     0
 42
0.000000001
 43
0.00000001
 40
0.0
 40
0.0
 40
0.0
 40
0.0
 40
0.5108655809785165
 40
0.6773161886274565
 40
0.7897294814090563
 40
0.8649135704138772
 40
0.9149987759643968
 40
0.9638937301973749
 40
0.9805048002912536
 40
0.9864047265890653
 40
0.992357364345202
 40
0.9937773259466397
 40
0.9978992913798035
 40
1.0
 40
1.0
 40
1.0
 40
1.0
 10
892.1565567581966
 20
904.3975576361025
 30
0.0
 10
892.1556071201775
 20
903.2184602143087
 30
0.0
 10
892.154348070385
 20
901.6551883841336
 30
0.0
 10
892.1525812271439
 20
900.2332872735376
 30
0.0
 10
892.1596713027403
 20
899.6513689627577
 30
0.0
 10
892.1767716446961
 20
899.290065611227
 30
0.0
 10
892.2099593511159
 20
899.0400756436875
 30
0.0
 10
892.2516335149561
 20
898.8818876943218
 30
0.0
 10
892.3198684507009
 20
898.7910553535111
 30
0.0
 10
892.3651564973181
 20
898.759750511747
 30
0.0
 10
892.3940634165658
 20
898.7479472097142
 30
0.0
 10
892.4232738130654
 20
898.7414552404229
 30
0.0
 10
892.444772282321
 20
898.7391402620567
 30
0.0
 10
892.4621392331179
 20
898.7397556042658
 30
0.0
 10
892.4680021311153
 20
898.7399633372552
 30
0.0
  0
SPLINE
  5
204
330
1F
100
AcDbEntity
  8
0
  6
Continuous
 62
     8
370
    18
100
AcDbSpline
210
0.0
220
0.0
230
1.0
 70
     8
 71
     3
 72
    19
 73
    15
 74
     0
 42
0.000000001
 43
0.00000001
 40
0.0
 40
0.0
 40
0.0
 40
0.0
 40
0.5108655809785164
 40
0.6773161886274564
 40
0.7897294814090562
 40
0.864913570413877
 40
0.9149987759643966
 40
0.9638937301973747
 40
0.9805048002912534
 40
0.9864047265890651
 40
0.9923573643452023
 40
0.9937773259466397
 40
0.9978992913798034
 40
1.0
 40
1.0
 40
1.0
 40
1.0
 10
821.0736652903465
 20
904.3975576361025
 30
0.0
 10
821.0746149283657
 20
903.2184602143087
 30
0.0
 10
821.0758739781581
 20
901.6551883841336
 30
0.0
 10
821.0776408213993
 20
900.2332872735376
 30
0.0
 10
821.0705507458028
 20
899.6513689627577
 30
0.0
 10
821.053450403847
 20
899.290065611227
 30
0.0
 10
821.0202626974273
 20
899.0400756436875
 30
0.0
 10
820.9785885335871
 20
898.8818876943219
 30
0.0
 10
820.9103535978422
 20
898.7910553535111
 30
0.0
 10
820.865065551225
 20
898.759750511747
 30
0.0
 10
820.8361586319774
 20
898.7479472097142
 30
0.0
 10
820.8069482354778
 20
898.7414552404229
 30
0.0
 10
820.7854497662222
 20
898.7391402620569
 30
0.0
 10
820.7680828154253
 20
898.7397556042658
 30
0.0
 10
820.7622199174278
 20
898.7399633372552
 30
0.0
  0
ARC
  5
205
330
1F
100
AcDbEntity
  8
0
  6
Continuous
 62
     8
370
    18
100
AcDbCircle
 10
822.4305327294
 20
899.0815097113
 30
0.0
 40
5.486479270498897
100
AcDbArc
 50
85.5276603397
 51
104.3184561189
  0
ARC
  5
206
330
1F
100
AcDbEntity
  8
0
  6
Continuous
 62
     8
370
    18
100
AcDbCircle
 10
813.5813121818
 20
897.9422331011
 30
0.0
 40
7.225081967537539
100
AcDbArc
 50
5.1955682005
 51
6.339022105
  0
ARC
  5
207
330
1F
100
AcDbEntity
  8
0
  6
Continuous
 62
     8
370
    18
100
AcDbCircle
 10
890.7996893191
 20
899.0815097114
 30
0.0
 40
5.486479270464244
100
AcDbArc
 50
75.6815438811
 51
94.47233966
  0
ARC
  5
208
330
1F
100
AcDbEntity
  8
0
  6
Continuous
 62
     8
370
    18
100
AcDbCircle
 10
899.6489098729
 20
897.9422331005
 30
0.0
 40
7.225081973690798
100
AcDbArc
 50
173.6609778956
 51
174.8044317991
  0
SPLINE
  5
209
330
1F
100
AcDbEntity
  8
0
  6
Continuous
 62
     8
370
    18
100
AcDbSpline
210
0.0
220
0.0
230
1.0
 70
     8
 71
     3
 72
    17
 73
    13
 74
     0
 42
0.000000001
 43
0.00000001
 40
0.0
 40
0.0
 40
0.0
 40
0.0
 40
0.0045109817899505
 40
0.0089278415503376
 40
0.0130797684277631
 40
0.0177777921768899
 40
0.0339670776357903
 40
0.0840600072516063
 40
0.3047425979556596
 40
0.7692822253149066
 40
0.8273200843747952
 40
1.0
 40
1.0
 40
1.0
 40
1.0
 10
900.780459947919
 20
898.5214452958032
 30
0.0
 10
900.7934294389398
 20
898.5196815069921
 30
0.0
 10
900.8190978114174
 20
898.5161907309779
 30
0.0
 10
900.8599738215107
 20
898.5179052667744
 30
0.0
 10
900.8973345116124
 20
898.5262261726243
 30
0.0
 10
900.9532645345324
 20
898.5508962240607
 30
0.0
 10
901.0377706654125
 20
898.6441084158721
 30
0.0
 10
901.1320456565518
 20
899.0480523571988
 30
0.0
 10
901.0992455514546
 20
900.2391657264493
 30
0.0
 10
901.0985882347449
 20
901.8362782530219
 30
0.0
 10
901.0926625391927
 20
903.522928089961
 30
0.0
 10
901.0910575311265
 20
904.1210599677149
 30
0.0
 10
901.0898562684245
 20
904.5687296902764
 30
0.0
  0
ARC
  5
20A
330
1F
100
AcDbEntity
  8
0
  6
Continuous
 62
     8
370
    18
100
AcDbCircle
 10
903.5453546763
 20
897.7982540766
 30
0.0
 40
2.857909795391076
100
AcDbArc
 50
165.3419899912
 51
168.2962236799
  0
ARC
  5
20B
330
1F
100
AcDbEntity
  8
0
  6
Continuous
 62
     8
370
    18
100
AcDbCircle
 10
902.5944546731
 20
899.3473555234
 30
0.0
 40
5.433835160324422
100
AcDbArc
 50
86.3229443242
 51
106.074938564
  0
SPLINE
  5
20C
330
1F
100
AcDbEntity
  8
0
  6
Continuous
 62
     8
370
    18
100
AcDbSpline
210
0.0
220
0.0
230
1.0
 70
     8
 71
     3
 72
    17
 73
    13
 74
     0
 42
0.000000001
 43
0.00000001
 40
0.0
 40
0.0
 40
0.0
 40
0.0
 40
0.0045109817899505
 40
0.0089278415503376
 40
0.0130797684277631
 40
0.0177777921768899
 40
0.0339670776357903
 40
0.0840600072516063
 40
0.3047425979556596
 40
0.7692822253149066
 40
0.8273200843747952
 40
1.0
 40
1.0
 40
1.0
 40
1.0
 10
812.4497621006242
 20
898.5214452958032
 30
0.0
 10
812.4367926096033
 20
898.5196815069921
 30
0.0
 10
812.4111242371258
 20
898.5161907309779
 30
0.0
 10
812.3702482270324
 20
898.5179052667744
 30
0.0
 10
812.3328875369308
 20
898.5262261726243
 30
0.0
 10
812.2769575140109
 20
898.5508962240607
 30
0.0
 10
812.1924513831307
 20
898.6441084158721
 30
0.0
 10
812.0981763919914
 20
899.0480523571988
 30
0.0
 10
812.1309764970886
 20
900.2391657264493
 30
0.0
 10
812.1316338137983
 20
901.8362782530219
 30
0.0
 10
812.1375595093505
 20
903.522928089961
 30
0.0
 10
812.1391645174167
 20
904.1210599677149
 30
0.0
 10
812.1403657801188
 20
904.5687296902764
 30
0.0
  0
ARC
  5
20D
330
1F
100
AcDbEntity
  8
0
  6
Continuous
 62
     8
370
    18
100
AcDbCircle
 10
809.6848673721
 20
897.7982540766
 30
0.0
 40
2.857909795479704
100
AcDbArc
 50
11.7037763202
 51
14.6580100088
  0
ARC
  5
20E
330
1F
100
AcDbEntity
  8
0
  6
Continuous
 62
     8
370
    18
100
AcDbCircle
 10
810.6357673755
 20
899.3473555234
 30
0.0
 40
5.433835160393834
100
AcDbArc
 50
73.9250614362
 51
93.677055676
  0
SPLINE
  5
20F
330
1F
100
AcDbEntity
  8
0
  6
Continuous
 62
     8
370
    18
100
AcDbSpline
210
0.0
220
0.0
230
1.0
 70
     8
 71
     3
 72
    20
 73
    16
 74
     0
 42
0.000000001
 43
0.00000001
 40
0.0
 40
0.0
 40
0.0
 40
0.0
 40
0.0177553498927665
 40
0.0895541770723949
 40
0.1635124813712812
 40
0.2505819007214778
 40
0.3150328805895259
 40
0.3805147797652316
 40
0.4675444081230345
 40
0.5694410813320726
 40
0.6754503316775967
 40
0.7871440412594523
 40
0.8785532165774713
 40
0.9388623767392659
 40
1.0
 40
1.0
 40
1.0
 40
1.0
 10
932.7536581595078
 20
905.7429308207493
 30
0.0
 10
932.7429542293074
 20
905.992039179892
 30
0.0
 10
932.6889659009262
 20
907.2484883199887
 30
0.0
 10
932.7537482096068
 20
909.7316352772789
 30
0.0
 10
933.1967571516094
 20
913.527516750815
 30
0.0
 10
933.951619966109
 20
917.3806598509883
 30
0.0
 10
934.8619115540848
 20
921.1344749242699
 30
0.0
 10
935.8588779191581
 20
924.885626103053
 30
0.0
 10
937.0627755236687
 20
929.2223630444997
 30
0.0
 10
938.3387208215638
 20
934.0398336943479
 30
0.0
 10
939.6098974779593
 20
938.7787440492066
 30
0.0
 10
940.8015934843899
 20
942.6952119587654
 30
0.0
 10
941.8071889197411
 20
945.3754227515878
 30
0.0
 10
942.5371689618478
 20
947.1271056559054
 30
0.0
 10
942.8609558652277
 20
947.8453079066031
 30
0.0
 10
943.023953691582
 20
948.2068586812778
 30
0.0
  0
ARC
  5
210
330
1F
100
AcDbEntity
  8
0
  6
Continuous
 62
     8
370
    18
100
AcDbCircle
 10
933.383438359
 20
901.9245096192
 30
0.0
 40
3.87000821348383
100
AcDbArc
 50
99.3655973717
 51
122.4620469832
  0
ARC
  5
211
330
1F
100
AcDbEntity
  8
0
  6
Continuous
 62
     8
370
    18
100
AcDbCircle
 10
935.7738617862
 20
945.1315938438
 30
0.0
 40
7.875346751522443
100
AcDbArc
 50
22.4525517109
 51
22.9851555296
  0
SPLINE
  5
212
330
1F
100
AcDbEntity
  8
0
  6
Continuous
 62
     8
370
    18
100
AcDbSpline
210
0.0
220
0.0
230
1.0
 70
     8
 71
     3
 72
    19
 73
    15
 74
     0
 42
0.000000001
 43
0.00000001
 40
0.0
 40
0.0
 40
0.0
 40
0.0
 40
0.0812843755281375
 40
0.1625926981205919
 40
0.2503967158277944
 40
0.3382767484838726
 40
0.4242704765567137
 40
0.510246220949112
 40
0.5965701789596967
 40
0.6829065819723052
 40
0.7657398742054035
 40
0.8485711078275142
 40
0.9243009273350651
 40
1.0
 40
1.0
 40
1.0
 40
1.0
 10
932.8197154602152
 20
905.7524496059549
 30
0.0
 10
932.8108449724249
 20
906.9304080260061
 30
0.0
 10
932.7931013835234
 20
909.2866719026191
 30
0.0
 10
933.2726774134077
 20
913.3820906071629
 30
0.0
 10
934.1284302418766
 20
917.7598945687982
 30
0.0
 10
935.2521743138074
 20
922.2972567289295
 30
0.0
 10
936.4681909311407
 20
926.7689087703259
 30
0.0
 10
937.6516128025849
 20
931.0938802121537
 30
0.0
 10
938.7244032162298
 20
935.1882357292495
 30
0.0
 10
939.7251039270682
 20
938.8854743670719
 30
0.0
 10
940.6980296057642
 20
942.0945689088127
 30
0.0
 10
941.6087515553475
 20
944.6994328061841
 30
0.0
 10
942.4462814980561
 20
946.7723505898114
 30
0.0
 10
942.8502723432867
 20
947.6837333321849
 30
0.0
 10
943.0522267517906
 20
948.1393321776279
 30
0.0
  0
ARC
  5
213
330
1F
100
AcDbEntity
  8
0
  6
Continuous
 62
     8
370
    18
100
AcDbCircle
 10
929.7154015425
 20
927.0614198628
 30
0.0
 40
21.53390299756927
100
AcDbArc
 50
278.1110275316
 51
278.2886032806
  0
SPLINE
  5
214
330
1F
100
AcDbEntity
  8
0
  6
Continuous
 62
     8
370
    18
100
AcDbSpline
210
0.0
220
0.0
230
1.0
 70
     8
 71
     3
 72
    30
 73
    26
 74
     0
 42
0.000000001
 43
0.00000001
 40
0.0
 40
0.0
 40
0.0
 40
0.0
 40
0.0367442153817575
 40
0.0737232841850677
 40
0.1110413367406517
 40
0.148808577200663
 40
0.1888707208560451
 40
0.2291780738353258
 40
0.2702466874566161
 40
0.3115759369700019
 40
0.3541334999732086
 40
0.3969808370193868
 40
0.4407360718523627
 40
0.4848040276228703
 40
0.5276706400319179
 40
0.570826668246634
 40
0.6148725539342165
 40
0.6592220198760967
 40
0.7025795290829526
 40
0.7462563583192048
 40
0.7910386023489433
 40
0.8362596963443323
 40
0.9039599048262003
 40
0.9728711860774641
 40
1.0
 40
1.0
 40
1.0
 40
1.0
 10
945.9316086934018
 20
945.8152084929179
 30
0.0
 10
945.8170884845313
 20
945.6579272695536
 30
0.0
 10
945.5873161022455
 20
945.3423595480336
 30
0.0
 10
945.1684445176583
 20
944.6981593378306
 30
0.0
 10
944.7057152681748
 20
943.9292178739598
 30
0.0
 10
944.1944377139968
 20
943.0084453345285
 30
0.0
 10
943.6463164819944
 20
941.9342823167492
 30
0.0
 10
943.0699131088986
 20
940.6981692883111
 30
0.0
 10
942.4896857800262
 20
939.320264839244
 30
0.0
 10
941.9002615209158
 20
937.7936522828594
 30
0.0
 10
941.2971174224704
 20
936.1301090441593
 30
0.0
 10
940.6720815879382
 20
934.329082228765
 30
0.0
 10
940.0253490006012
 20
932.4136223653576
 30
0.0
 10
939.360240442166
 20
930.4195208820076
 30
0.0
 10
938.6693955715074
 20
928.3765842575591
 30
0.0
 10
937.9523283667368
 20
926.2919318683241
 30
0.0
 10
937.2180221057279
 20
924.1505941763528
 30
0.0
 10
936.4911971614004
 20
921.9828040807206
 30
0.0
 10
935.7957578309145
 20
919.8077470170708
 30
0.0
 10
935.1492120540894
 20
917.6222037934613
 30
0.0
 10
934.5702209028178
 20
915.4149905378458
 30
0.0
 10
934.0068939574319
 20
912.8422754444916
 30
0.0
 10
933.571194233213
 20
909.9584665124231
 30
0.0
 10
933.4408303412063
 20
907.5120432379542
 30
0.0
 10
933.4919706201104
 20
906.1944041553569
 30
0.0
 10
933.5064164107753
 20
905.8222055915784
 30
0.0
  0
ARC
  5
215
330
1F
100
AcDbEntity
  8
0
  6
Continuous
 62
     8
370
    18
100
AcDbCircle
 10
933.641797025
 20
901.0745407138
 30
0.0
 40
4.749594688240249
100
AcDbArc
 50
91.6333580123
 51
99.9672112785
  0
ARC
  5
216
330
1F
100
AcDbEntity
  8
0
  6
Continuous
 62
     8
370
    18
100
AcDbCircle
 10
946.044524041
 20
948.9008110767
 30
0.0
 40
3.087667919413406
100
AcDbArc
 50
194.2775571614
 51
267.9042384386
  0
SPLINE
  5
217
330
1F
100
AcDbEntity
  8
0
  6
Continuous
 62
     8
370
    18
100
AcDbSpline
210
0.0
220
0.0
230
1.0
 70
     8
 71
     3
 72
     9
 73
     5
 74
     0
 42
0.000000001
 43
0.00000001
 40
0.0
 40
0.0
 40
0.0
 40
0.0
 40
0.4955319650024687
 40
1.0
 40
1.0
 40
1.0
 40
1.0
 10
946.5129454507984
 20
946.4808747803993
 30
0.0
 10
946.4666903422217
 20
946.452787261572
 30
0.0
 10
946.3733459934341
 20
946.3961057136378
 30
0.0
 10
946.0797290539203
 20
946.0099910158132
 30
0.0
 10
945.9316086934018
 20
945.8152084929179
 30
0.0
  0
SPLINE
  5
218
330
1F
100
AcDbEntity
  8
0
  6
Continuous
 62
     8
370
    18
100
AcDbSpline
210
0.0
220
0.0
230
1.0
 70
     8
 71
     3
 72
    10
 73
     6
 74
     0
 42
0.000000001
 43
0.00000001
 40
0.0
 40
0.0
 40
0.0
 40
0.0
 40
0.4337470054426097
 40
0.8726448366891221
 40
1.0
 40
1.0
 40
1.0
 40
1.0
 10
929.8438128127214
 20
897.2514460007558
 30
0.0
 10
929.8108538616124
 20
897.0573634169872
 30
0.0
 10
929.7445445657623
 20
896.66689348292
 30
0.0
 10
929.6680988936033
 20
896.4958960949617
 30
0.0
 10
929.6248402621355
 20
896.4836328822865
 30
0.0
 10
929.6151110242716
 20
896.4808747803993
 30
0.0
  0
SPLINE
  5
219
330
1F
100
AcDbEntity
  8
0
  6
Continuous
 62
     8
370
    18
100
AcDbSpline
210
0.0
220
0.0
230
1.0
 70
     8
 71
     3
 72
    13
 73
     9
 74
     0
 42
0.000000001
 43
0.00000001
 40
0.0
 40
0.0
 40
0.0
 40
0.0
 40
0.1663795665670601
 40
0.3327993424822734
 40
0.5326933616013211
 40
0.7327069656730665
 40
0.9440944502581979
 40
1.0
 40
1.0
 40
1.0
 40
1.0
 10
933.5064164107753
 20
905.8222055915784
 30
0.0
 10
933.5164110031943
 20
905.1194800553111
 30
0.0
 10
933.5364026034497
 20
903.713859153414
 30
0.0
 10
933.2036357654978
 20
901.7585311612919
 30
0.0
 10
932.5371308164366
 20
899.9976776190019
 30
0.0
 10
931.5569993677477
 20
898.5021306746369
 30
0.0
 10
930.373273331693
 20
897.6940733528749
 30
0.0
 10
929.9353966959397
 20
897.3280098431447
 30
0.0
 10
929.8438128127214
 20
897.2514460007558
 30
0.0
  0
SPLINE
  5
21A
330
1F
100
AcDbEntity
  8
0
  6
Continuous
 62
     8
370
    18
100
AcDbSpline
210
0.0
220
0.0
230
1.0
 70
     8
 71
     3
 72
    12
 73
     8
 74
     0
 42
0.000000001
 43
0.00000001
 40
0.0
 40
0.0
 40
0.0
 40
0.0
 40
0.2584254149750849
 40
0.525372783664757
 40
0.6325637335472097
 40
0.814100555412947
 40
1.0
 40
1.0
 40
1.0
 40
1.0
 10
929.6151110242731
 20
897.250279129052
 30
0.0
 10
930.1214166712292
 20
897.6325047061138
 30
0.0
 10
931.1507241298326
 20
898.4095603042564
 30
0.0
 10
931.996835179601
 20
900.0246365092756
 30
0.0
 10
932.5080542594419
 20
901.7509259771836
 30
0.0
 10
932.7902710502419
 20
903.4329483647632
 30
0.0
 10
932.7659586778304
 20
904.9668658623417
 30
0.0
 10
932.7536581595078
 20
905.7429308207493
 30
0.0
  0
SPLINE
  5
21B
330
1F
100
AcDbEntity
  8
0
  6
Continuous
 62
     8
370
    18
100
AcDbSpline
210
0.0
220
0.0
230
1.0
 70
     8
 71
     3
 72
    11
 73
     7
 74
     0
 42
0.000000001
 43
0.00000001
 40
0.0
 40
0.0
 40
0.0
 40
0.0
 40
0.2821978531715177
 40
0.5662711511816111
 40
0.995686545031333
 40
1.0
 40
1.0
 40
1.0
 40
1.0
 10
929.6151110242731
 20
897.250279129052
 30
0.0
 10
929.2879863586595
 20
897.1124033901924
 30
0.0
 10
928.6315630056998
 20
896.8357356108786
 30
0.0
 10
927.3386917565186
 20
896.5563085985561
 30
0.0
 10
926.3183957762141
 20
896.4811544874299
 30
0.0
 10
925.6683580884703
 20
896.4808775347078
 30
0.0
 10
925.6618934313426
 20
896.4808747803993
 30
0.0
  0
SPLINE
  5
21C
330
1F
100
AcDbEntity
  8
0
  6
Continuous
 62
     8
370
    18
100
AcDbSpline
210
0.0
220
0.0
230
1.0
 70
     8
 71
     3
 72
    14
 73
    10
 74
     0
 42
0.000000001
 43
0.00000001
 40
0.0
 40
0.0
 40
0.0
 40
0.0
 40
0.0665232667018164
 40
0.1346138509585659
 40
0.270526373188616
 40
0.467909457036936
 40
0.669725241607235
 40
0.8332896955030696
 40
1.0
 40
1.0
 40
1.0
 40
1.0
 10
929.8034536735832
 20
897.2515071635722
 30
0.0
 10
929.8905916218143
 20
897.3431639014032
 30
0.0
 10
930.066920526836
 20
897.5286368503043
 30
0.0
 10
930.6015606503358
 20
897.9539545513576
 30
0.0
 10
931.271380409695
 20
898.7112281508178
 30
0.0
 10
932.0299401991916
 20
900.0094935841089
 30
0.0
 10
932.5636103480223
 20
901.7472423584854
 30
0.0
 10
932.8453799050202
 20
903.6748078147714
 30
0.0
 10
932.8283244260126
 20
905.0555186084118
 30
0.0
 10
932.8197154602152
 20
905.7524496059549
 30
0.0
  0
ARC
  5
21D
330
1F
100
AcDbEntity
  8
0
  6
Continuous
 62
     8
370
    18
100
AcDbCircle
 10
929.6151112278
 20
911.6938409248
 30
0.0
 40
14.4435617957538
100
AcDbArc
 50
269.9999991927
 51
270.7471517929
  0
ARC
  5
21E
330
1F
100
AcDbEntity
  8
0
  6
Continuous
 62
     8
370
    18
100
AcDbCircle
 10
929.8189476663
 20
894.1596332247
 30
0.0
 40
3.091912760334497
100
AcDbArc
 50
89.539222671
 51
90.2871180965
  0
SPLINE
  5
21F
330
1F
100
AcDbEntity
  8
0
  6
Continuous
 62
     8
370
    18
100
AcDbSpline
210
0.0
220
0.0
230
1.0
 70
     8
 71
     3
 72
    10
 73
     6
 74
     0
 42
0.000000001
 43
0.00000001
 40
0.0
 40
0.0
 40
0.0
 40
0.0
 40
0.0149525925089902
 40
0.5037698573839661
 40
1.0
 40
1.0
 40
1.0
 40
1.0
 10
929.6151110242716
 20
896.4808747803993
 30
0.0
 10
929.6160516026276
 20
896.480915443539
 30
0.0
 10
929.6477407578041
 20
896.4822854309898
 30
0.0
 10
929.7107408125241
 20
896.599887768069
 30
0.0
 10
929.7723947297261
 20
897.0332137144219
 30
0.0
 10
929.8034536735832
 20
897.2515071635722
 30
0.0
  0
LINE
  5
220
330
1F
100
AcDbEntity
  8
0
  6
Continuous
 62
     8
370
    18
100
AcDbLine
 10
929.6151110243
 20
896.4808747804
 30
0.0
 11
929.6151110243
 21
897.2502791291
 31
0.0
  0
SPLINE
  5
221
330
1F
100
AcDbEntity
  8
0
  6
Continuous
 62
     8
370
    18
100
AcDbSpline
210
0.0
220
0.0
230
1.0
 70
     8
 71
     3
 72
     9
 73
     5
 74
     0
 42
0.000000001
 43
0.00000001
 40
0.0
 40
0.0
 40
0.0
 40
0.0
 40
0.4953932977280405
 40
1.0
 40
1.0
 40
1.0
 40
1.0
 10
943.0522267517906
 20
948.1393321776279
 30
0.0
 10
943.1715017038883
 20
948.3988052763327
 30
0.0
 10
943.4122699029024
 20
948.9225771963298
 30
0.0
 10
943.4894621067124
 20
949.0817537294718
 30
0.0
 10
943.528413810118
 20
949.1620752749395
 30
0.0
  0
LINE
  5
222
330
1F
100
AcDbEntity
  8
0
  6
Continuous
 62
     8
370
    18
100
AcDbLine
 10
1419.1151110243
 20
976.9273132799
 30
0.0
 11
1419.1151110243
 21
977.9273132799
 31
0.0
  0
LINE
  5
223
330
1F
100
AcDbEntity
  8
0
  6
Continuous
 62
     8
370
    18
100
AcDbLine
 10
294.1151110243
 20
977.9273132799
 30
0.0
 11
294.1151110243
 21
976.9273132799
 31
0.0
  0
LINE
  5
224
330
1F
100
AcDbEntity
  8
0
  6
Continuous
 62
     8
370
    18
100
AcDbLine
 10
1396.6151110243
 20
971.2014538016
 30
0.0
 11
1398.6151110243
 21
971.2014538016
 31
0.0
  0
LINE
  5
225
330
1F
100
AcDbEntity
  8
0
  6
Continuous
 62
     8
370
    18
100
AcDbLine
 10
1398.6151110243
 20
969.3888382275
 30
0.0
 11
1396.6151110243
 21
969.3888382275
 31
0.0
  0
LINE
  5
226
330
1F
100
AcDbEntity
  8
0
  6
Continuous
 62
     8
370
    18
100
AcDbLine
 10
1396.6151110243
 20
962.1305389429
 30
0.0
 11
1398.6151110243
 21
962.1305389429
 31
0.0
  0
LINE
  5
227
330
1F
100
AcDbEntity
  8
0
  6
Continuous
 62
     8
370
    18
100
AcDbLine
 10
1398.6151110243
 20
960.3179233688
 30
0.0
 11
1396.6151110243
 21
960.3179233688
 31
0.0
  0
LINE
  5
228
330
1F
100
AcDbEntity
  8
0
  6
Continuous
 62
     8
370
    18
100
AcDbLine
 10
1396.6151110243
 20
926.0273132799
 30
0.0
 11
1398.6151110243
 21
926.0273132799
 31
0.0
  0
LINE
  5
229
330
1F
100
AcDbEntity
  8
0
  6
Continuous
 62
     8
370
    18
100
AcDbLine
 10
314.6151110243
 20
971.2014538016
 30
0.0
 11
316.6151110243
 21
971.2014538016
 31
0.0
  0
LINE
  5
22A
330
1F
100
AcDbEntity
  8
0
  6
Continuous
 62
     8
370
    18
100
AcDbLine
 10
316.6151110243
 20
969.3888382275
 30
0.0
 11
314.6151110243
 21
969.3888382275
 31
0.0
  0
LINE
  5
22B
330
1F
100
AcDbEntity
  8
0
  6
Continuous
 62
     8
370
    18
100
AcDbLine
 10
314.6151110243
 20
962.1305389429
 30
0.0
 11
316.6151110243
 21
962.1305389429
 31
0.0
  0
LINE
  5
22C
330
1F
100
AcDbEntity
  8
0
  6
Continuous
 62
     8
370
    18
100
AcDbLine
 10
316.6151110243
 20
960.3179233688
 30
0.0
 11
314.6151110243
 21
960.3179233688
 31
0.0
  0
LINE
  5
22D
330
1F
100
AcDbEntity
  8
0
  6
Continuous
 62
     8
370
    18
100
AcDbLine
 10
314.6151110243
 20
926.0273132799
 30
0.0
 11
316.6151110243
 21
926.0273132799
 31
0.0
  0
LINE
  5
22E
330
1F
100
AcDbEntity
  8
0
  6
Continuous
 62
     7
370
    35
100
AcDbLine
 10
316.6151110243
 20
641.6548993353
 30
0.0
 11
316.6151110243
 21
644.48332646
 31
0.0
  0
LINE
  5
22F
330
1F
100
AcDbEntity
  8
0
  6
Continuous
 62
     7
370
    35
100
AcDbLine
 10
1396.6151110243
 20
644.5691128976
 30
0.0
 11
316.6151110243
 21
644.5691128976
 31
0.0
  0
LINE
  5
230
330
1F
100
AcDbEntity
  8
0
  6
Continuous
 62
     7
370
    35
100
AcDbLine
 10
1396.6151110243
 20
641.5691128976
 30
0.0
 11
316.6151110243
 21
641.5691128976
 31
0.0
  0
LINE
  5
231
330
1F
100
AcDbEntity
  8
0
  6
Continuous
 62
     7
370
    35
100
AcDbLine
 10
1396.6151110243
 20
644.48332646
 30
0.0
 11
1396.6151110243
 21
641.6548993353
 31
0.0
  0
LINE
  5
232
330
1F
100
AcDbEntity
  8
0
  6
Continuous
 62
     7
370
    35
100
AcDbLine
 10
316.6151110243
 20
577.5691128976
 30
0.0
 11
1396.6151110243
 21
577.5691128976
 31
0.0
  0
LINE
  5
233
330
1F
100
AcDbEntity
  8
0
  6
Continuous
 62
     7
370
    35
100
AcDbLine
 10
316.6151110243
 20
574.5691128976
 30
0.0
 11
1396.6151110243
 21
574.5691128976
 31
0.0
  0
LINE
  5
234
330
1F
100
AcDbEntity
  8
0
  6
Continuous
 62
     7
370
    35
100
AcDbLine
 10
316.6151110243
 20
574.6548993353
 30
0.0
 11
316.6151110243
 21
577.48332646
 31
0.0
  0
LINE
  5
235
330
1F
100
AcDbEntity
  8
0
  6
Continuous
 62
     7
370
    35
100
AcDbLine
 10
1396.6151110243
 20
577.48332646
 30
0.0
 11
1396.6151110243
 21
574.6548993353
 31
0.0
  0
LINE
  5
236
330
1F
100
AcDbEntity
  8
0
  6
Continuous
 62
     7
370
    35
100
AcDbLine
 10
1396.6151110243
 20
645.5691128976
 30
0.0
 11
1396.6151110243
 21
644.5691128976
 31
0.0
  0
LINE
  5
237
330
1F
100
AcDbEntity
  8
0
  6
Continuous
 62
     7
370
    35
100
AcDbLine
 10
316.6151110243
 20
644.5691128976
 30
0.0
 11
316.6151110243
 21
645.5691128976
 31
0.0
  0
LINE
  5
238
330
1F
100
AcDbEntity
  8
0
  6
Continuous
 62
     7
370
    35
100
AcDbLine
 10
1396.6151110243
 20
573.5691128976
 30
0.0
 11
1396.6151110243
 21
574.5691128976
 31
0.0
  0
LINE
  5
239
330
1F
100
AcDbEntity
  8
0
  6
Continuous
 62
     7
370
    35
100
AcDbLine
 10
316.6151110243
 20
574.5691128976
 30
0.0
 11
316.6151110243
 21
573.5691128976
 31
0.0
  0
LINE
  5
23A
330
1F
100
AcDbEntity
  8
0
  6
Continuous
 62
     7
370
    35
100
AcDbLine
 10
316.6151110243
 20
675.0691128976
 30
0.0
 11
1396.6151110243
 21
675.0691128976
 31
0.0
  0
LINE
  5
23B
330
1F
100
AcDbEntity
  8
0
  6
Continuous
 62
     7
370
    35
100
AcDbLine
 10
1396.6151110243
 20
675.0691128976
 30
0.0
 11
1396.6151110243
 21
645.5691128976
 31
0.0
  0
LINE
  5
23C
330
1F
100
AcDbEntity
  8
0
  6
Continuous
 62
     7
370
    35
100
AcDbLine
 10
316.6151110243
 20
645.5691128976
 30
0.0
 11
316.6151110243
 21
675.0691128976
 31
0.0
  0
LINE
  5
23D
330
1F
100
AcDbEntity
  8
0
  6
Continuous
 62
     7
370
    35
100
AcDbLine
 10
1396.6151110243
 20
544.0691128976
 30
0.0
 11
316.6151110243
 21
544.0691128976
 31
0.0
  0
LINE
  5
23E
330
1F
100
AcDbEntity
  8
0
  6
Continuous
 62
     7
370
    35
100
AcDbLine
 10
316.6151110243
 20
544.0691128976
 30
0.0
 11
316.6151110243
 21
573.5691128976
 31
0.0
  0
LINE
  5
23F
330
1F
100
AcDbEntity
  8
0
  6
Continuous
 62
     7
370
    35
100
AcDbLine
 10
1396.6151110243
 20
573.5691128976
 30
0.0
 11
1396.6151110243
 21
544.0691128976
 31
0.0
  0
SPLINE
  5
240
330
1F
100
AcDbEntity
  8
0
  6
Continuous
 62
     7
370
    35
100
AcDbSpline
210
0.0
220
0.0
230
1.0
 70
     8
 71
     3
 72
     8
 73
     4
 74
     0
 42
0.000000001
 43
0.00000001
 40
0.0
 40
0.0
 40
0.0
 40
0.0
 40
1.0
 40
1.0
 40
1.0
 40
1.0
 10
909.6151110242716
 20
638.8248970962444
 30
0.0
 10
911.8722332812841
 20
638.8248970962444
 30
0.0
 10
914.129061999071
 20
638.7569058902005
 30
0.0
 10
916.3823739961595
 20
638.6260072718562
 30
0.0
  0
LINE
  5
241
330
1F
100
AcDbEntity
  8
0
  6
Continuous
 62
     7
370
    35
100
AcDbLine
 10
803.6151110243
 20
638.8248970962
 30
0.0
 11
909.6151110243
 21
638.8248970962
 31
0.0
  0
SPLINE
  5
242
330
1F
100
AcDbEntity
  8
0
  6
Continuous
 62
     7
370
    35
100
AcDbSpline
210
0.0
220
0.0
230
1.0
 70
     8
 71
     3
 72
     8
 73
     4
 74
     0
 42
0.000000001
 43
0.00000001
 40
0.0
 40
0.0
 40
0.0
 40
0.0
 40
1.0
 40
1.0
 40
1.0
 40
1.0
 10
796.8478480523837
 20
638.6260072718561
 30
0.0
 10
799.101159742777
 20
638.7569058721715
 30
0.0
 10
801.3579838730407
 20
638.8248970962444
 30
0.0
 10
803.6151110242716
 20
638.8248970962444
 30
0.0
  0
SPLINE
  5
243
330
1F
100
AcDbEntity
  8
0
  6
Continuous
 62
     7
370
    35
100
AcDbSpline
210
0.0
220
0.0
230
1.0
 70
     8
 71
     3
 72
    22
 73
    18
 74
     0
 42
0.000000001
 43
0.00000001
 40
3.369126305560274
 40
3.369126305560274
 40
3.369126305560274
 40
3.369126305560274
 40
3.535853022596993
 40
3.535853022596993
 40
3.702579739633712
 40
3.702579739633712
 40
3.869306456670431
 40
3.869306456670431
 40
4.036033173707151
 40
4.036033173707151
 40
4.20275989074387
 40
4.20275989074387
 40
4.369486607780589
 40
4.369486607780589
 40
4.536213324817307
 40
4.536213324817307
 40
4.702940041854027
 40
4.702940041854027
 40
4.702940041854027
 40
4.702940041854027
 10
773.6164502508977
 20
609.6827000594195
 30
0.0
 10
773.6322040144788
 20
611.34990264332
 30
0.0
 10
773.7872612327981
 20
613.0157477882065
 30
0.0
 10
774.371690782359
 20
616.2986674294917
 30
0.0
 10
774.8010555039104
 20
617.9156898605088
 30
0.0
 10
775.9221990055953
 20
621.0560969230035
 30
0.0
 10
776.6139633660423
 20
622.579441163857
 30
0.0
 10
778.2407276261475
 20
625.4902412792172
 30
0.0
 10
779.1757066030332
 20
626.8776597162098
 30
0.0
 10
781.2629758124111
 20
629.47812631225
 30
0.0
 10
782.415239199305
 20
630.6911410251652
 30
0.0
 10
784.9051261510624
 20
632.9091541533961
 30
0.0
 10
786.2427176920239
 20
633.914124041539
 30
0.0
 10
789.066169194331
 20
635.6881705132125
 30
0.0
 10
790.5519928416044
 20
636.457224279687
 30
0.0
 10
793.6307048019501
 20
637.7381036396428
 30
0.0
 10
795.2235440160129
 20
638.2499105588834
 30
0.0
 10
796.8478480523837
 20
638.6260072718562
 30
0.0
  0
SPLINE
  5
244
330
1F
100
AcDbEntity
  8
0
  6
Continuous
 62
     7
370
    35
100
AcDbSpline
210
0.0
220
0.0
230
1.0
 70
     8
 71
     3
 72
     8
 73
     4
 74
     0
 42
0.000000001
 43
0.00000001
 40
0.0
 40
0.0
 40
0.0
 40
0.0
 40
0.0000569949035218
 40
0.0000569949035218
 40
0.0000569949035218
 40
0.0000569949035218
 10
773.6154443635345
 20
609.6258056852079
 30
0.0
 10
773.6156675857949
 20
609.6447721215336
 30
0.0
 10
773.6160030940285
 20
609.6637375683304
 30
0.0
 10
773.6164502508977
 20
609.6827000594196
 30
0.0
  0
SPLINE
  5
245
330
1F
100
AcDbEntity
  8
0
  6
Continuous
 62
     7
370
    35
100
AcDbSpline
210
0.0
220
0.0
230
1.0
 70
     8
 71
     3
 72
     8
 73
     4
 74
     0
 42
0.000000001
 43
0.00000001
 40
0.0
 40
0.0
 40
0.0
 40
0.0
 40
0.0000569949035218
 40
0.0000569949035218
 40
0.0000569949035218
 40
0.0000569949035218
 10
939.6137717976455
 20
609.6827000594196
 30
0.0
 10
939.6142189545146
 20
609.6637375683304
 30
0.0
 10
939.6145544627482
 20
609.6447721215336
 30
0.0
 10
939.6147776850086
 20
609.6258056852079
 30
0.0
  0
SPLINE
  5
246
330
1F
100
AcDbEntity
  8
0
  6
Continuous
 62
     7
370
    35
100
AcDbSpline
210
0.0
220
0.0
230
1.0
 70
     8
 71
     3
 72
    22
 73
    18
 74
     0
 42
0.000000001
 43
0.00000001
 40
1.580245265325559
 40
1.580245265325559
 40
1.580245265325559
 40
1.580245265325559
 40
1.746971982362278
 40
1.746971982362278
 40
1.913698699398998
 40
1.913698699398998
 40
2.080425416435717
 40
2.080425416435717
 40
2.247152133472436
 40
2.247152133472436
 40
2.413878850509155
 40
2.413878850509155
 40
2.580605567545874
 40
2.580605567545874
 40
2.747332284582593
 40
2.747332284582593
 40
2.914059001619312
 40
2.914059001619312
 40
2.914059001619312
 40
2.914059001619312
 10
916.3823739961595
 20
638.6260072718562
 30
0.0
 10
918.0066780325303
 20
638.2499105588834
 30
0.0
 10
919.599517246593
 20
637.7381036396428
 30
0.0
 10
922.6782292069388
 20
636.457224279687
 30
0.0
 10
924.1640528542124
 20
635.6881705132125
 30
0.0
 10
926.9875043565193
 20
633.914124041539
 30
0.0
 10
928.3250958974808
 20
632.9091541533962
 30
0.0
 10
930.8149828492382
 20
630.6911410251653
 30
0.0
 10
931.9672462361323
 20
629.47812631225
 30
0.0
 10
934.05451544551
 20
626.8776597162098
 30
0.0
 10
934.9894944223958
 20
625.4902412792171
 30
0.0
 10
936.6162586825011
 20
622.5794411638569
 30
0.0
 10
937.3080230429479
 20
621.0560969230035
 30
0.0
 10
938.4291665446327
 20
617.9156898605088
 30
0.0
 10
938.8585312661842
 20
616.2986674294916
 30
0.0
 10
939.4429608157451
 20
613.0157477882063
 30
0.0
 10
939.5980180340644
 20
611.34990264332
 30
0.0
 10
939.6137717976455
 20
609.6827000594196
 30
0.0
  0
SPLINE
  5
247
330
1F
100
AcDbEntity
  8
0
  6
Continuous
 62
     7
370
    35
100
AcDbSpline
210
0.0
220
0.0
230
1.0
 70
     8
 71
     3
 72
    14
 73
    10
 74
     0
 42
0.000000001
 43
0.00000001
 40
0.0
 40
0.0
 40
0.0
 40
0.0
 40
0.25
 40
0.25
 40
0.5
 40
0.5
 40
0.75
 40
0.75
 40
1.0
 40
1.0
 40
1.0
 40
1.0
 10
916.3823739961595
 20
638.6258056852079
 30
0.0
 10
919.6309630651363
 20
637.8736166594566
 30
0.0
 10
922.7523271030589
 20
636.574992162401
 30
0.0
 10
928.3992301076728
 20
633.0268992190539
 30
0.0
 10
930.9236116314434
 20
630.7781580236216
 30
0.0
 10
935.098150050199
 20
625.5772248315416
 30
0.0
 10
936.7474512921053
 20
622.6260988676025
 30
0.0
 10
938.9897382954751
 20
616.3452847426132
 30
0.0
 10
939.5822644564785
 20
613.0168839569332
 30
0.0
 10
939.6137717976455
 20
609.6824984727713
 30
0.0
  0
LINE
  5
248
330
1F
100
AcDbEntity
  8
0
  6
Continuous
 62
     7
370
    35
100
AcDbLine
 10
916.3823739962
 20
638.6260072719
 30
0.0
 11
916.3823739962
 21
638.6258056852
 31
0.0
  0
SPLINE
  5
249
330
1F
100
AcDbEntity
  8
0
  6
Continuous
 62
     7
370
    35
100
AcDbSpline
210
0.0
220
0.0
230
1.0
 70
     8
 71
     3
 72
    14
 73
    10
 74
     0
 42
0.000000001
 43
0.00000001
 40
0.0
 40
0.0
 40
0.0
 40
0.0
 40
0.2499999999999999
 40
0.2499999999999999
 40
0.4999999999999999
 40
0.4999999999999999
 40
0.7499999999999999
 40
0.7499999999999999
 40
1.0
 40
1.0
 40
1.0
 40
1.0
 10
939.6137717976455
 20
609.4557273225178
 30
0.0
 10
939.5822644564785
 20
606.1213418383559
 30
0.0
 10
938.9897382954751
 20
602.7929410526759
 30
0.0
 10
936.7474512921053
 20
596.5121269276865
 30
0.0
 10
935.098150050199
 20
593.5610009637476
 30
0.0
 10
930.9236116314434
 20
588.3600677716676
 30
0.0
 10
928.3992301076728
 20
586.1113265762351
 30
0.0
 10
922.7523271030589
 20
582.5632336328881
 30
0.0
 10
919.6309630651364
 20
581.2646091358325
 30
0.0
 10
916.3823739961595
 20
580.5124201100812
 30
0.0
  0
ARC
  5
24A
330
1F
100
AcDbEntity
  8
0
  6
Continuous
 62
     7
370
    35
100
AcDbCircle
 10
909.6151110243
 20
609.5691128976
 30
0.0
 40
27.00000000000005
100
AcDbArc
 50
283.0367179551
 51
359.4586157013
  0
LINE
  5
24B
330
1F
100
AcDbEntity
  8
0
  6
Continuous
 62
     7
370
    35
100
AcDbLine
 10
916.3823739962
 20
580.5122185234
 30
0.0
 11
916.3823739962
 21
580.5124201101
 31
0.0
  0
SPLINE
  5
24C
330
1F
100
AcDbEntity
  8
0
  6
Continuous
 62
     7
370
    35
100
AcDbSpline
210
0.0
220
0.0
230
1.0
 70
     8
 71
     3
 72
    22
 73
    18
 74
     0
 42
0.000000001
 43
0.00000001
 40
3.369126305560276
 40
3.369126305560276
 40
3.369126305560276
 40
3.369126305560276
 40
3.535853022596996
 40
3.535853022596996
 40
3.702579739633714
 40
3.702579739633714
 40
3.869306456670433
 40
3.869306456670433
 40
4.036033173707152
 40
4.036033173707152
 40
4.20275989074387
 40
4.20275989074387
 40
4.369486607780589
 40
4.369486607780589
 40
4.536213324817308
 40
4.536213324817308
 40
4.702940041854027
 40
4.702940041854027
 40
4.702940041854027
 40
4.702940041854027
 10
939.6137717976455
 20
609.4555257358694
 30
0.0
 10
939.5980180340644
 20
607.7883231519692
 30
0.0
 10
939.4429608157451
 20
606.1224780070827
 30
0.0
 10
938.8585312661842
 20
602.8395583657974
 30
0.0
 10
938.4291665446326
 20
601.2225359347801
 30
0.0
 10
937.3080230429478
 20
598.0821288722855
 30
0.0
 10
936.6162586825011
 20
596.5587846314321
 30
0.0
 10
934.9894944223958
 20
593.6479845160719
 30
0.0
 10
934.05451544551
 20
592.2605660790792
 30
0.0
 10
931.9672462361323
 20
589.6600994830392
 30
0.0
 10
930.8149828492383
 20
588.4470847701239
 30
0.0
 10
928.3250958974809
 20
586.2290716418929
 30
0.0
 10
926.9875043565193
 20
585.2241017537501
 30
0.0
 10
924.1640528542124
 20
583.4500552820766
 30
0.0
 10
922.6782292069388
 20
582.681001515602
 30
0.0
 10
919.599517246593
 20
581.4001221556463
 30
0.0
 10
918.0066780325305
 20
580.8883152364058
 30
0.0
 10
916.3823739961595
 20
580.5122185234328
 30
0.0
  0
SPLINE
  5
24D
330
1F
100
AcDbEntity
  8
0
  6
Continuous
 62
     7
370
    35
100
AcDbSpline
210
0.0
220
0.0
230
1.0
 70
     8
 71
     3
 72
    14
 73
    10
 74
     0
 42
0.000000001
 43
0.00000001
 40
0.0
 40
0.0
 40
0.0
 40
0.0
 40
0.25
 40
0.25
 40
0.5
 40
0.5
 40
0.75
 40
0.75
 40
1.0
 40
1.0
 40
1.0
 40
1.0
 10
796.8478480523836
 20
580.5124201100812
 30
0.0
 10
793.5992589834068
 20
581.2646091358325
 30
0.0
 10
790.4778949454844
 20
582.5632336328881
 30
0.0
 10
784.8309919408703
 20
586.1113265762351
 30
0.0
 10
782.3066104170997
 20
588.3600677716676
 30
0.0
 10
778.1320719983443
 20
593.5610009637476
 30
0.0
 10
776.4827707564378
 20
596.5121269276866
 30
0.0
 10
774.2404837530681
 20
602.7929410526759
 30
0.0
 10
773.6479575920647
 20
606.1213418383559
 30
0.0
 10
773.6164502508977
 20
609.4557273225178
 30
0.0
  0
ARC
  5
24E
330
1F
100
AcDbEntity
  8
0
  6
Continuous
 62
     7
370
    35
100
AcDbCircle
 10
803.6151110243
 20
609.5691128976
 30
0.0
 40
27.00000000000005
100
AcDbArc
 50
180.5413842987
 51
256.9632820449
  0
LINE
  5
24F
330
1F
100
AcDbEntity
  8
0
  6
Continuous
 62
     7
370
    35
100
AcDbLine
 10
796.8478480524
 20
580.5122185234
 30
0.0
 11
796.8478480524
 21
580.5124201101
 31
0.0
  0
SPLINE
  5
250
330
1F
100
AcDbEntity
  8
0
  6
Continuous
 62
     7
370
    35
100
AcDbSpline
210
0.0
220
0.0
230
1.0
 70
     8
 71
     3
 72
    22
 73
    18
 74
     0
 42
0.000000001
 43
0.00000001
 40
1.580245265325559
 40
1.580245265325559
 40
1.580245265325559
 40
1.580245265325559
 40
1.746971982362278
 40
1.746971982362278
 40
1.913698699398996
 40
1.913698699398996
 40
2.080425416435715
 40
2.080425416435715
 40
2.247152133472434
 40
2.247152133472434
 40
2.413878850509152
 40
2.413878850509152
 40
2.580605567545871
 40
2.580605567545871
 40
2.74733228458259
 40
2.74733228458259
 40
2.914059001619308
 40
2.914059001619308
 40
2.914059001619308
 40
2.914059001619308
 10
796.8478480523836
 20
580.5122185234328
 30
0.0
 10
795.2235440160127
 20
580.8883152364058
 30
0.0
 10
793.6307048019501
 20
581.4001221556464
 30
0.0
 10
790.5519928416043
 20
582.6810015156021
 30
0.0
 10
789.0661691943309
 20
583.4500552820766
 30
0.0
 10
786.2427176920238
 20
585.2241017537501
 30
0.0
 10
784.9051261510623
 20
586.2290716418929
 30
0.0
 10
782.4152391993049
 20
588.4470847701239
 30
0.0
 10
781.2629758124109
 20
589.6600994830392
 30
0.0
 10
779.1757066030331
 20
592.2605660790792
 30
0.0
 10
778.2407276261474
 20
593.647984516072
 30
0.0
 10
776.6139633660421
 20
596.5587846314322
 30
0.0
 10
775.9221990055953
 20
598.0821288722856
 30
0.0
 10
774.8010555039104
 20
601.2225359347804
 30
0.0
 10
774.371690782359
 20
602.8395583657974
 30
0.0
 10
773.7872612327981
 20
606.1224780070827
 30
0.0
 10
773.6322040144788
 20
607.788323151969
 30
0.0
 10
773.6164502508977
 20
609.4555257358695
 30
0.0
  0
ARC
  5
251
330
1F
100
AcDbEntity
  8
0
  6
Continuous
 62
     7
370
    35
100
AcDbCircle
 10
909.6151110243
 20
609.5691128976
 30
0.0
 40
27.00000000000006
100
AcDbArc
 50
0.5413842987
 51
76.9632820449
  0
LINE
  5
252
330
1F
100
AcDbEntity
  8
0
  6
Continuous
 62
     7
370
    35
100
AcDbLine
 10
796.8478480524
 20
638.6260072719
 30
0.0
 11
796.8478480524
 21
638.6258056852
 31
0.0
  0
SPLINE
  5
253
330
1F
100
AcDbEntity
  8
0
  6
Continuous
 62
     7
370
    35
100
AcDbSpline
210
0.0
220
0.0
230
1.0
 70
     8
 71
     3
 72
    14
 73
    10
 74
     0
 42
0.000000001
 43
0.00000001
 40
0.0
 40
0.0
 40
0.0
 40
0.0
 40
0.25
 40
0.25
 40
0.5
 40
0.5
 40
0.75
 40
0.75
 40
1.0
 40
1.0
 40
1.0
 40
1.0
 10
773.6164502508977
 20
609.6824984727713
 30
0.0
 10
773.6479575920649
 20
613.0168839569332
 30
0.0
 10
774.2404837530681
 20
616.3452847426132
 30
0.0
 10
776.4827707564378
 20
622.6260988676025
 30
0.0
 10
778.1320719983443
 20
625.5772248315416
 30
0.0
 10
782.3066104170999
 20
630.7781580236216
 30
0.0
 10
784.8309919408704
 20
633.0268992190539
 30
0.0
 10
790.4778949454844
 20
636.574992162401
 30
0.0
 10
793.5992589834069
 20
637.8736166594566
 30
0.0
 10
796.8478480523837
 20
638.6258056852079
 30
0.0
  0
ARC
  5
254
330
1F
100
AcDbEntity
  8
0
  6
Continuous
 62
     7
370
    35
100
AcDbCircle
 10
803.6151110243
 20
609.5691128976
 30
0.0
 40
27.00000000000006
100
AcDbArc
 50
103.0367179551
 51
179.4586157013
  0
SPLINE
  5
255
330
1F
100
AcDbEntity
  8
0
  6
Continuous
 62
     7
370
    35
100
AcDbSpline
210
0.0
220
0.0
230
1.0
 70
     8
 71
     3
 72
     8
 73
     4
 74
     0
 42
0.000000001
 43
0.00000001
 40
0.0
 40
0.0
 40
0.0
 40
0.0
 40
0.0000569949035218
 40
0.0000569949035218
 40
0.0000569949035218
 40
0.0000569949035218
 10
773.6164502508977
 20
609.4555257358695
 30
0.0
 10
773.6160030940285
 20
609.4744882269587
 30
0.0
 10
773.615667585795
 20
609.4934536737555
 30
0.0
 10
773.6154443635346
 20
609.5124201100812
 30
0.0
  0
SPLINE
  5
256
330
1F
100
AcDbEntity
  8
0
  6
Continuous
 62
     7
370
    35
100
AcDbSpline
210
0.0
220
0.0
230
1.0
 70
     8
 71
     3
 72
     8
 73
     4
 74
     0
 42
0.000000001
 43
0.00000001
 40
0.0
 40
0.0
 40
0.0
 40
0.0
 40
1.0
 40
1.0
 40
1.0
 40
1.0
 10
803.6151110242716
 20
580.3133286990446
 30
0.0
 10
801.357988767259
 20
580.3133286990446
 30
0.0
 10
799.1011600494721
 20
580.3813199050885
 30
0.0
 10
796.8478480523836
 20
580.5122185234328
 30
0.0
  0
LINE
  5
257
330
1F
100
AcDbEntity
  8
0
  6
Continuous
 62
     7
370
    35
100
AcDbLine
 10
909.6151110243
 20
580.313328699
 30
0.0
 11
803.6151110243
 21
580.313328699
 31
0.0
  0
SPLINE
  5
258
330
1F
100
AcDbEntity
  8
0
  6
Continuous
 62
     7
370
    35
100
AcDbSpline
210
0.0
220
0.0
230
1.0
 70
     8
 71
     3
 72
     8
 73
     4
 74
     0
 42
0.000000001
 43
0.00000001
 40
0.0
 40
0.0
 40
0.0
 40
0.0
 40
1.0
 40
1.0
 40
1.0
 40
1.0
 10
916.3823739961595
 20
580.512218523433
 30
0.0
 10
914.1290623057663
 20
580.3813199231175
 30
0.0
 10
911.8722381755025
 20
580.3133286990446
 30
0.0
 10
909.6151110242716
 20
580.3133286990446
 30
0.0
  0
SPLINE
  5
259
330
1F
100
AcDbEntity
  8
0
  6
Continuous
 62
     7
370
    35
100
AcDbSpline
210
0.0
220
0.0
230
1.0
 70
     8
 71
     3
 72
     8
 73
     4
 74
     0
 42
0.000000001
 43
0.00000001
 40
0.0
 40
0.0
 40
0.0
 40
0.0
 40
0.0000569949035218
 40
0.0000569949035218
 40
0.0000569949035218
 40
0.0000569949035218
 10
939.6147776850088
 20
609.5124201100812
 30
0.0
 10
939.6145544627484
 20
609.4934536737555
 30
0.0
 10
939.6142189545146
 20
609.4744882269587
 30
0.0
 10
939.6137717976455
 20
609.4555257358695
 30
0.0
  0
SPLINE
  5
25A
330
1F
100
AcDbEntity
  8
0
  6
Continuous
 62
     7
370
    35
100
AcDbSpline
210
0.0
220
0.0
230
1.0
 70
     8
 71
     3
 72
    10
 73
     6
 74
     0
 42
0.000000001
 43
0.00000001
 40
0.0
 40
0.0
 40
0.0
 40
0.0
 40
0.5
 40
0.5
 40
1.0
 40
1.0
 40
1.0
 40
1.0
 10
803.6151110242716
 20
580.3191128976446
 30
0.0
 10
802.4721508763142
 20
580.3191128976446
 30
0.0
 10
801.3369573985707
 20
580.3353869164729
 30
0.0
 10
799.0814310661998
 20
580.399821308482
 30
0.0
 10
797.9610951201438
 20
580.4479788857881
 30
0.0
 10
796.8478480523836
 20
580.512420110081
 30
0.0
  0
SPLINE
  5
25B
330
1F
100
AcDbEntity
  8
0
  6
Continuous
 62
     7
370
    35
100
AcDbSpline
210
0.0
220
0.0
230
1.0
 70
     8
 71
     3
 72
    10
 73
     6
 74
     0
 42
0.000000001
 43
0.00000001
 40
0.0
 40
0.0
 40
0.0
 40
0.0
 40
0.5
 40
0.5
 40
1.0
 40
1.0
 40
1.0
 40
1.0
 10
803.6151110242716
 20
582.5691128976445
 30
0.0
 10
802.5863712911835
 20
582.5691128976445
 30
0.0
 10
801.5646918148843
 20
582.6277064346536
 30
0.0
 10
799.5347662322389
 20
582.8596691086692
 30
0.0
 10
798.5265167154735
 20
583.0330258229567
 30
0.0
 10
797.5245743495724
 20
583.265018862416
 30
0.0
  0
SPLINE
  5
25C
330
1F
100
AcDbEntity
  8
0
  6
Continuous
 62
     7
370
    35
100
AcDbSpline
210
0.0
220
0.0
230
1.0
 70
     8
 71
     3
 72
    10
 73
     6
 74
     0
 42
0.000000001
 43
0.00000001
 40
0.0
 40
0.0
 40
0.0
 40
0.0
 40
0.5
 40
0.5
 40
1.0
 40
1.0
 40
1.0
 40
1.0
 10
916.3823739961596
 20
580.512420110081
 30
0.0
 10
915.2691269283993
 20
580.4479788857881
 30
0.0
 10
914.1487909823434
 20
580.399821308482
 30
0.0
 10
911.8932646499724
 20
580.3353869164729
 30
0.0
 10
910.7580711722289
 20
580.3191128976446
 30
0.0
 10
909.6151110242716
 20
580.3191128976446
 30
0.0
  0
SPLINE
  5
25D
330
1F
100
AcDbEntity
  8
0
  6
Continuous
 62
     7
370
    35
100
AcDbSpline
210
0.0
220
0.0
230
1.0
 70
     8
 71
     3
 72
    10
 73
     6
 74
     0
 42
0.000000001
 43
0.00000001
 40
0.0
 40
0.0
 40
0.0
 40
0.0
 40
0.5
 40
0.5
 40
1.0
 40
1.0
 40
1.0
 40
1.0
 10
915.7056476989707
 20
583.265018862416
 30
0.0
 10
914.7037053330687
 20
583.0330258229565
 30
0.0
 10
913.6954558163025
 20
582.8596691086689
 30
0.0
 10
911.6655302336549
 20
582.6277064346533
 30
0.0
 10
910.6438507573608
 20
582.5691128976445
 30
0.0
 10
909.6151110242716
 20
582.5691128976445
 30
0.0
  0
SPLINE
  5
25E
330
1F
100
AcDbEntity
  8
0
  6
Continuous
 62
     7
370
    35
100
AcDbSpline
210
0.0
220
0.0
230
1.0
 70
     8
 71
     3
 72
    10
 73
     6
 74
     0
 42
0.000000001
 43
0.00000001
 40
0.0
 40
0.0
 40
0.0
 40
0.0
 40
0.5
 40
0.5
 40
1.0
 40
1.0
 40
1.0
 40
1.0
 10
796.8478480523837
 20
638.625805685208
 30
0.0
 10
797.9610951201439
 20
638.6902469095012
 30
0.0
 10
799.0814310661999
 20
638.7384044868071
 30
0.0
 10
801.3369573985708
 20
638.8028388788161
 30
0.0
 10
802.4721508763142
 20
638.8191128976446
 30
0.0
 10
803.6151110242716
 20
638.8191128976446
 30
0.0
  0
SPLINE
  5
25F
330
1F
100
AcDbEntity
  8
0
  6
Continuous
 62
     7
370
    35
100
AcDbSpline
210
0.0
220
0.0
230
1.0
 70
     8
 71
     3
 72
    10
 73
     6
 74
     0
 42
0.000000001
 43
0.00000001
 40
0.0
 40
0.0
 40
0.0
 40
0.0
 40
0.5
 40
0.5
 40
1.0
 40
1.0
 40
1.0
 40
1.0
 10
797.5245743495725
 20
635.873206932873
 30
0.0
 10
798.5265167154745
 20
636.1051999723327
 30
0.0
 10
799.5347662322409
 20
636.2785566866202
 30
0.0
 10
801.5646918148883
 20
636.5105193606357
 30
0.0
 10
802.5863712911823
 20
636.5691128976446
 30
0.0
 10
803.6151110242716
 20
636.5691128976446
 30
0.0
  0
SPLINE
  5
260
330
1F
100
AcDbEntity
  8
0
  6
Continuous
 62
     7
370
    35
100
AcDbSpline
210
0.0
220
0.0
230
1.0
 70
     8
 71
     3
 72
    10
 73
     6
 74
     0
 42
0.000000001
 43
0.00000001
 40
0.0
 40
0.0
 40
0.0
 40
0.0
 40
0.5
 40
0.5
 40
1.0
 40
1.0
 40
1.0
 40
1.0
 10
909.6151110242716
 20
638.8191128976446
 30
0.0
 10
910.7580711722289
 20
638.8191128976446
 30
0.0
 10
911.8932646499724
 20
638.8028388788163
 30
0.0
 10
914.1487909823433
 20
638.7384044868071
 30
0.0
 10
915.2691269283993
 20
638.6902469095012
 30
0.0
 10
916.3823739961595
 20
638.625805685208
 30
0.0
  0
SPLINE
  5
261
330
1F
100
AcDbEntity
  8
0
  6
Continuous
 62
     7
370
    35
100
AcDbSpline
210
0.0
220
0.0
230
1.0
 70
     8
 71
     3
 72
    10
 73
     6
 74
     0
 42
0.000000001
 43
0.00000001
 40
0.0
 40
0.0
 40
0.0
 40
0.0
 40
0.5
 40
0.5
 40
1.0
 40
1.0
 40
1.0
 40
1.0
 10
909.6151110242716
 20
636.5691128976446
 30
0.0
 10
910.6438507573597
 20
636.5691128976446
 30
0.0
 10
911.665530233659
 20
636.5105193606355
 30
0.0
 10
913.6954558163042
 20
636.2785566866198
 30
0.0
 10
914.7037053330696
 20
636.1051999723325
 30
0.0
 10
915.7056476989707
 20
635.873206932873
 30
0.0
  0
LINE
  5
262
330
1F
100
AcDbEntity
  8
0
  6
Continuous
 62
     7
370
    35
100
AcDbLine
 10
803.6151110243
 20
580.3191128976
 30
0.0
 11
909.6151110243
 21
580.3191128976
 31
0.0
  0
LINE
  5
263
330
1F
100
AcDbEntity
  8
0
  6
Continuous
 62
     7
370
    35
100
AcDbLine
 10
909.6151110243
 20
582.5691128976
 30
0.0
 11
803.6151110243
 21
582.5691128976
 31
0.0
  0
LINE
  5
264
330
1F
100
AcDbEntity
  8
0
  6
Continuous
 62
     7
370
    35
100
AcDbLine
 10
909.6151110243
 20
638.8191128976
 30
0.0
 11
803.6151110243
 21
638.8191128976
 31
0.0
  0
LINE
  5
265
330
1F
100
AcDbEntity
  8
0
  6
Continuous
 62
     7
370
    35
100
AcDbLine
 10
803.6151110243
 20
636.5691128976
 30
0.0
 11
909.6151110243
 21
636.5691128976
 31
0.0
  0
SPLINE
  5
266
330
1F
100
AcDbEntity
  8
0
  6
Continuous
 62
     7
370
    35
100
AcDbSpline
210
0.0
220
0.0
230
1.0
 70
     8
 71
     3
 72
     8
 73
     4
 74
     0
 42
0.000000001
 43
0.00000001
 40
0.0
 40
0.0
 40
0.0
 40
0.0
 40
1.0
 40
1.0
 40
1.0
 40
1.0
 10
939.6137717976455
 20
609.6824984727713
 30
0.0
 10
939.6155574730049
 20
609.6069080893535
 30
0.0
 10
939.6155574730049
 20
609.5313177059356
 30
0.0
 10
939.6137717976455
 20
609.4557273225178
 30
0.0
  0
SPLINE
  5
267
330
1F
100
AcDbEntity
  8
0
  6
Continuous
 62
     7
370
    35
100
AcDbSpline
210
0.0
220
0.0
230
1.0
 70
     8
 71
     3
 72
     8
 73
     4
 74
     0
 42
0.000000001
 43
0.00000001
 40
0.0
 40
0.0
 40
0.0
 40
0.0
 40
1.0
 40
1.0
 40
1.0
 40
1.0
 10
936.6139057203081
 20
609.8242304416797
 30
0.0
 10
936.6155128281316
 20
609.6541520789896
 30
0.0
 10
936.6155128281316
 20
609.4840737162995
 30
0.0
 10
936.6139057203081
 20
609.3139953536094
 30
0.0
  0
SPLINE
  5
268
330
1F
100
AcDbEntity
  8
0
  6
Continuous
 62
     7
370
    35
100
AcDbSpline
210
0.0
220
0.0
230
1.0
 70
     8
 71
     3
 72
     8
 73
     4
 74
     0
 42
0.000000001
 43
0.00000001
 40
0.0
 40
0.0
 40
0.0
 40
0.0
 40
0.0001133855751267
 40
0.0001133855751267
 40
0.0001133855751267
 40
0.0001133855751267
 10
939.6147776850086
 20
609.5124201100812
 30
0.0
 10
939.6152217630369
 20
609.5501519099121
 30
0.0
 10
939.6152217630367
 20
609.5880738853864
 30
0.0
 10
939.6147776850084
 20
609.6258056852174
 30
0.0
  0
SPLINE
  5
269
330
1F
100
AcDbEntity
  8
0
  6
Continuous
 62
     7
370
    35
100
AcDbSpline
210
0.0
220
0.0
230
1.0
 70
     8
 71
     3
 72
     8
 73
     4
 74
     0
 42
0.000000001
 43
0.00000001
 40
0.0
 40
0.0
 40
0.0
 40
0.0
 40
1.0
 40
1.0
 40
1.0
 40
1.0
 10
776.6163163282351
 20
609.3139953536094
 30
0.0
 10
776.6147092204117
 20
609.4840737162995
 30
0.0
 10
776.6147092204117
 20
609.6541520789896
 30
0.0
 10
776.6163163282351
 20
609.8242304416797
 30
0.0
  0
SPLINE
  5
26A
330
1F
100
AcDbEntity
  8
0
  6
Continuous
 62
     7
370
    35
100
AcDbSpline
210
0.0
220
0.0
230
1.0
 70
     8
 71
     3
 72
     8
 73
     4
 74
     0
 42
0.000000001
 43
0.00000001
 40
0.0
 40
0.0
 40
0.0
 40
0.0
 40
1.0
 40
1.0
 40
1.0
 40
1.0
 10
773.6164502508979
 20
609.4557273225178
 30
0.0
 10
773.6146645755383
 20
609.5313177059356
 30
0.0
 10
773.6146645755383
 20
609.6069080893535
 30
0.0
 10
773.6164502508979
 20
609.6824984727713
 30
0.0
  0
SPLINE
  5
26B
330
1F
100
AcDbEntity
  8
0
  6
Continuous
 62
     7
370
    35
100
AcDbSpline
210
0.0
220
0.0
230
1.0
 70
     8
 71
     3
 72
     8
 73
     4
 74
     0
 42
0.000000001
 43
0.00000001
 40
0.0
 40
0.0
 40
0.0
 40
0.0
 40
0.0001133855751265
 40
0.0001133855751265
 40
0.0001133855751265
 40
0.0001133855751265
 10
773.6154443635347
 20
609.6258056852079
 30
0.0
 10
773.6150002855064
 20
609.5880738853801
 30
0.0
 10
773.6150002855064
 20
609.5501519099091
 30
0.0
 10
773.6154443635346
 20
609.5124201100814
 30
0.0
  0
LINE
  5
26C
330
1F
100
AcDbEntity
  8
0
  6
Continuous
 62
     7
370
    35
100
AcDbLine
 10
899.6151110243
 20
614.5022874003
 30
0.0
 11
900.0347121088
 21
617.3686364055
 31
0.0
  0
SPLINE
  5
26D
330
1F
100
AcDbEntity
  8
0
  6
Continuous
 62
     7
370
    35
100
AcDbSpline
210
0.0
220
0.0
230
1.0
 70
     8
 71
     3
 72
    11
 73
     7
 74
     0
 42
0.000000001
 43
0.00000001
 40
0.0
 40
0.0
 40
0.0
 40
0.0
 40
0.2606216717109348
 40
0.4632004480822299
 40
0.6713667795608224
 40
1.0
 40
1.0
 40
1.0
 40
1.0
 10
900.0347121087738
 20
617.3686364055263
 30
0.0
 10
900.4015934794352
 20
618.3703545853366
 30
0.0
 10
901.0536482919446
 20
620.1506988932148
 30
0.0
 10
902.5910131537673
 20
622.4056985152775
 30
0.0
 10
904.6057789382634
 20
624.6203326956298
 30
0.0
 10
906.451107024101
 20
625.7407947936017
 30
0.0
 10
907.5808324671442
 20
626.4267511553777
 30
0.0
  0
SPLINE
  5
26E
330
1F
100
AcDbEntity
  8
0
  6
Continuous
 62
     7
370
    35
100
AcDbSpline
210
0.0
220
0.0
230
1.0
 70
     8
 71
     3
 72
    16
 73
    12
 74
     0
 42
0.000000001
 43
0.00000001
 40
0.0
 40
0.0
 40
0.0
 40
0.0
 40
0.6093642604521677
 40
0.7233750503883762
 40
0.8172213162021832
 40
0.8496365726798868
 40
0.8823612341657237
 40
0.906781480450444
 40
0.9311421346358176
 40
0.9706402276081948
 40
1.0
 40
1.0
 40
1.0
 40
1.0
 10
907.5808324671442
 20
626.4267511553777
 30
0.0
 10
908.1576667367333
 20
626.7244062313275
 30
0.0
 10
908.8424255024021
 20
627.0777519549572
 30
0.0
 10
909.509668473586
 20
627.603490278615
 30
0.0
 10
909.679921871564
 20
627.7886432886693
 30
0.0
 10
909.7481953322407
 20
627.937299588841
 30
0.0
 10
909.759834473235
 20
628.0309002542227
 30
0.0
 10
909.7353090250214
 20
628.1148629392308
 30
0.0
 10
909.6790463173782
 20
628.193001926404
 30
0.0
 10
909.595974154714
 20
628.2551991222393
 30
0.0
 10
909.5275532862686
 20
628.2870890514687
 30
0.0
 10
909.4983798416115
 20
628.3006863516291
 30
0.0
  0
SPLINE
  5
26F
330
1F
100
AcDbEntity
  8
0
  6
Continuous
 62
     7
370
    35
100
AcDbSpline
210
0.0
220
0.0
230
1.0
 70
     8
 71
     3
 72
    13
 73
     9
 74
     0
 42
0.000000001
 43
0.00000001
 40
0.0
 40
0.0
 40
0.0
 40
0.0
 40
0.1585077763893687
 40
0.3168380823633757
 40
0.4791716695217829
 40
0.6493085002788166
 40
0.8235953482372506
 40
1.0
 40
1.0
 40
1.0
 40
1.0
 10
922.1427232614315
 20
613.8902655581198
 30
0.0
 10
921.850148107672
 20
614.9005910099264
 30
0.0
 10
921.2653253767255
 20
616.9201107205997
 30
0.0
 10
919.7692988250385
 20
619.7407134721612
 30
0.0
 10
917.8426201553331
 20
622.3707642801457
 30
0.0
 10
915.4435457575541
 20
624.7336968763942
 30
0.0
 10
912.6512194848199
 20
626.7895892214705
 30
0.0
 10
910.5535489559338
 20
627.7949635109768
 30
0.0
 10
909.4983798416115
 20
628.3006863516291
 30
0.0
  0
SPLINE
  5
270
330
1F
100
AcDbEntity
  8
0
  6
Continuous
 62
     7
370
    35
100
AcDbSpline
210
0.0
220
0.0
230
1.0
 70
     8
 71
     3
 72
     9
 73
     5
 74
     0
 42
0.000000001
 43
0.00000001
 40
0.0
 40
0.0
 40
0.0
 40
0.0
 40
0.4230848072461937
 40
1.0
 40
1.0
 40
1.0
 40
1.0
 10
922.1427232614315
 20
613.8902655581198
 30
0.0
 10
922.3688436676891
 20
612.6755499339648
 30
0.0
 10
922.903300122719
 20
609.8044574169315
 30
0.0
 10
922.420980677271
 20
606.9149569538125
 30
0.0
 10
922.1427232614315
 20
605.24796023717
 30
0.0
  0
SPLINE
  5
271
330
1F
100
AcDbEntity
  8
0
  6
Continuous
 62
     7
370
    35
100
AcDbSpline
210
0.0
220
0.0
230
1.0
 70
     8
 71
     3
 72
    13
 73
     9
 74
     0
 42
0.000000001
 43
0.00000001
 40
0.0
 40
0.0
 40
0.0
 40
0.0
 40
0.1585077763893744
 40
0.316838082363375
 40
0.4791716695217826
 40
0.6493085002788173
 40
0.8235953482372499
 40
1.0
 40
1.0
 40
1.0
 40
1.0
 10
922.1427232614315
 20
605.24796023717
 30
0.0
 10
921.8501481076721
 20
604.2376347853633
 30
0.0
 10
921.2653253767257
 20
602.21811507469
 30
0.0
 10
919.7692988250383
 20
599.3975123231286
 30
0.0
 10
917.8426201553332
 20
596.7674615151441
 30
0.0
 10
915.4435457575541
 20
594.4045289188957
 30
0.0
 10
912.6512194848199
 20
592.3486365738195
 30
0.0
 10
910.5535489559338
 20
591.3432622843131
 30
0.0
 10
909.4983798416115
 20
590.8375394436608
 30
0.0
  0
SPLINE
  5
272
330
1F
100
AcDbEntity
  8
0
  6
Continuous
 62
     7
370
    35
100
AcDbSpline
210
0.0
220
0.0
230
1.0
 70
     8
 71
     3
 72
    16
 73
    12
 74
     0
 42
0.000000001
 43
0.00000001
 40
0.0
 40
0.0
 40
0.0
 40
0.0
 40
0.6093642604521438
 40
0.7233750503883593
 40
0.8172213162021718
 40
0.8496365726798774
 40
0.8823612341657163
 40
0.9067814804504382
 40
0.9311421346358132
 40
0.9706402276081929
 40
0.9999999999999999
 40
0.9999999999999999
 40
0.9999999999999999
 40
0.9999999999999999
 10
907.5808324671442
 20
592.7114746399118
 30
0.0
 10
908.1576667367334
 20
592.4138195639622
 30
0.0
 10
908.8424255024022
 20
592.0604738403326
 30
0.0
 10
909.509668473586
 20
591.534735516675
 30
0.0
 10
909.6799218715641
 20
591.3495825066207
 30
0.0
 10
909.7481953322407
 20
591.2009262064489
 30
0.0
 10
909.759834473235
 20
591.1073255410672
 30
0.0
 10
909.7353090250214
 20
591.0233628560592
 30
0.0
 10
909.6790463173782
 20
590.9452238688859
 30
0.0
 10
909.595974154714
 20
590.8830266730507
 30
0.0
 10
909.5275532862686
 20
590.8511367438213
 30
0.0
 10
909.4983798416115
 20
590.8375394436608
 30
0.0
  0
SPLINE
  5
273
330
1F
100
AcDbEntity
  8
0
  6
Continuous
 62
     7
370
    35
100
AcDbSpline
210
0.0
220
0.0
230
1.0
 70
     8
 71
     3
 72
    11
 73
     7
 74
     0
 42
0.000000001
 43
0.00000001
 40
0.0
 40
0.0
 40
0.0
 40
0.0
 40
0.260621671710925
 40
0.4632004480822215
 40
0.6713667795608041
 40
1.0
 40
1.0
 40
1.0
 40
1.0
 10
900.0347121087738
 20
601.7695893897633
 30
0.0
 10
900.4015934794352
 20
600.767871209953
 30
0.0
 10
901.0536482919447
 20
598.9875269020748
 30
0.0
 10
902.5910131537673
 20
596.732527280012
 30
0.0
 10
904.6057789382636
 20
594.5178930996601
 30
0.0
 10
906.451107024101
 20
593.397431001688
 30
0.0
 10
907.5808324671442
 20
592.7114746399118
 30
0.0
  0
LINE
  5
274
330
1F
100
AcDbEntity
  8
0
  6
Continuous
 62
     7
370
    35
100
AcDbLine
 10
899.6151110243
 20
604.635938395
 30
0.0
 11
900.0347121088
 21
601.7695893898
 31
0.0
  0
LINE
  5
275
330
1F
100
AcDbEntity
  8
0
  6
Continuous
 62
     7
370
    35
100
AcDbLine
 10
899.6151110243
 20
614.5022874003
 30
0.0
 11
899.6151110243
 21
604.635938395
 31
0.0
  0
LINE
  5
276
330
1F
100
AcDbEntity
  8
0
  6
Continuous
 62
     7
370
    35
100
AcDbLine
 10
813.6151110243
 20
604.635938395
 30
0.0
 11
813.1955099398
 21
601.7695893898
 31
0.0
  0
SPLINE
  5
277
330
1F
100
AcDbEntity
  8
0
  6
Continuous
 62
     7
370
    35
100
AcDbSpline
210
0.0
220
0.0
230
1.0
 70
     8
 71
     3
 72
    11
 73
     7
 74
     0
 42
0.000000001
 43
0.00000001
 40
0.0
 40
0.0
 40
0.0
 40
0.0
 40
0.2606216717109245
 40
0.4632004480822202
 40
0.6713667795608145
 40
1.0
 40
1.0
 40
1.0
 40
1.0
 10
813.19550993977
 20
601.7695893897628
 30
0.0
 10
812.8286285691086
 20
600.7678712099525
 30
0.0
 10
812.1765737565992
 20
598.9875269020744
 30
0.0
 10
810.6392088947764
 20
596.7325272800116
 30
0.0
 10
808.6244431102804
 20
594.5178930996594
 30
0.0
 10
806.7791150244428
 20
593.3974310016874
 30
0.0
 10
805.6493895813995
 20
592.7114746399113
 30
0.0
  0
SPLINE
  5
278
330
1F
100
AcDbEntity
  8
0
  6
Continuous
 62
     7
370
    35
100
AcDbSpline
210
0.0
220
0.0
230
1.0
 70
     8
 71
     3
 72
    16
 73
    12
 74
     0
 42
0.000000001
 43
0.00000001
 40
0.0
 40
0.0
 40
0.0
 40
0.0
 40
0.6093642604521684
 40
0.7233750503883767
 40
0.8172213162021834
 40
0.849636572679887
 40
0.8823612341657239
 40
0.9067814804504442
 40
0.9311421346358176
 40
0.9706402276081948
 40
1.0
 40
1.0
 40
1.0
 40
1.0
 10
805.6493895813995
 20
592.7114746399113
 30
0.0
 10
805.0725553118104
 20
592.4138195639615
 30
0.0
 10
804.3877965461419
 20
592.0604738403318
 30
0.0
 10
803.7205535749578
 20
591.5347355166742
 30
0.0
 10
803.5503001769797
 20
591.3495825066199
 30
0.0
 10
803.482026716303
 20
591.200926206448
 30
0.0
 10
803.4703875753089
 20
591.1073255410663
 30
0.0
 10
803.4949130235224
 20
591.0233628560583
 30
0.0
 10
803.5511757311657
 20
590.945223868885
 30
0.0
 10
803.63424789383
 20
590.8830266730498
 30
0.0
 10
803.7026687622753
 20
590.8511367438205
 30
0.0
 10
803.7318422069322
 20
590.83753944366
 30
0.0
  0
SPLINE
  5
279
330
1F
100
AcDbEntity
  8
0
  6
Continuous
 62
     7
370
    35
100
AcDbSpline
210
0.0
220
0.0
230
1.0
 70
     8
 71
     3
 72
    13
 73
     9
 74
     0
 42
0.000000001
 43
0.00000001
 40
0.0
 40
0.0
 40
0.0
 40
0.0
 40
0.1585077763893663
 40
0.3168380823633637
 40
0.4791716695217865
 40
0.6493085002788176
 40
0.8235953482372533
 40
1.0
 40
1.0
 40
1.0
 40
1.0
 10
791.0874987871118
 20
605.2479602371692
 30
0.0
 10
791.3800739408712
 20
604.2376347853626
 30
0.0
 10
791.9648966718175
 20
602.2181150746893
 30
0.0
 10
793.4609232235048
 20
599.3975123231277
 30
0.0
 10
795.3876018932107
 20
596.7674615151436
 30
0.0
 10
797.7866762909897
 20
594.404528918895
 30
0.0
 10
800.5790025637239
 20
592.3486365738187
 30
0.0
 10
802.67667309261
 20
591.3432622843122
 30
0.0
 10
803.7318422069322
 20
590.83753944366
 30
0.0
  0
SPLINE
  5
27A
330
1F
100
AcDbEntity
  8
0
  6
Continuous
 62
     7
370
    35
100
AcDbSpline
210
0.0
220
0.0
230
1.0
 70
     8
 71
     3
 72
     9
 73
     5
 74
     0
 42
0.000000001
 43
0.00000001
 40
0.0
 40
0.0
 40
0.0
 40
0.0
 40
0.4230848072461846
 40
1.0
 40
1.0
 40
1.0
 40
1.0
 10
791.0874987871118
 20
613.8902655581192
 30
0.0
 10
790.861378380854
 20
612.6755499339641
 30
0.0
 10
790.3269219258242
 20
609.8044574169309
 30
0.0
 10
790.8092413712723
 20
606.9149569538118
 30
0.0
 10
791.0874987871118
 20
605.2479602371692
 30
0.0
  0
SPLINE
  5
27B
330
1F
100
AcDbEntity
  8
0
  6
Continuous
 62
     7
370
    35
100
AcDbSpline
210
0.0
220
0.0
230
1.0
 70
     8
 71
     3
 72
    13
 73
     9
 74
     0
 42
0.000000001
 43
0.00000001
 40
0.0
 40
0.0
 40
0.0
 40
0.0
 40
0.1585077763893711
 40
0.3168380823633754
 40
0.4791716695217979
 40
0.649308500278829
 40
0.8235953482372537
 40
1.0
 40
1.0
 40
1.0
 40
1.0
 10
791.0874987871118
 20
613.8902655581192
 30
0.0
 10
791.3800739408712
 20
614.9005910099257
 30
0.0
 10
791.9648966718177
 20
616.920110720599
 30
0.0
 10
793.4609232235046
 20
619.7407134721609
 30
0.0
 10
795.3876018932107
 20
622.370764280145
 30
0.0
 10
797.7866762909895
 20
624.7336968763937
 30
0.0
 10
800.579002563724
 20
626.7895892214694
 30
0.0
 10
802.67667309261
 20
627.794963510976
 30
0.0
 10
803.7318422069322
 20
628.3006863516283
 30
0.0
  0
SPLINE
  5
27C
330
1F
100
AcDbEntity
  8
0
  6
Continuous
 62
     7
370
    35
100
AcDbSpline
210
0.0
220
0.0
230
1.0
 70
     8
 71
     3
 72
    16
 73
    12
 74
     0
 42
0.000000001
 43
0.00000001
 40
0.0
 40
0.0
 40
0.0
 40
0.0
 40
0.6093642604521429
 40
0.7233750503883588
 40
0.8172213162021715
 40
0.8496365726798772
 40
0.8823612341657162
 40
0.9067814804504382
 40
0.9311421346358131
 40
0.9706402276081928
 40
0.9999999999999999
 40
0.9999999999999999
 40
0.9999999999999999
 40
0.9999999999999999
 10
805.6493895813998
 20
626.4267511553772
 30
0.0
 10
805.0725553118104
 20
626.724406231327
 30
0.0
 10
804.3877965461417
 20
627.0777519549564
 30
0.0
 10
803.7205535749578
 20
627.603490278614
 30
0.0
 10
803.5503001769797
 20
627.7886432886684
 30
0.0
 10
803.482026716303
 20
627.9372995888402
 30
0.0
 10
803.4703875753089
 20
628.0309002542218
 30
0.0
 10
803.4949130235225
 20
628.11486293923
 30
0.0
 10
803.5511757311657
 20
628.1930019264031
 30
0.0
 10
803.63424789383
 20
628.2551991222383
 30
0.0
 10
803.7026687622753
 20
628.2870890514678
 30
0.0
 10
803.7318422069322
 20
628.3006863516283
 30
0.0
  0
SPLINE
  5
27D
330
1F
100
AcDbEntity
  8
0
  6
Continuous
 62
     7
370
    35
100
AcDbSpline
210
0.0
220
0.0
230
1.0
 70
     8
 71
     3
 72
    11
 73
     7
 74
     0
 42
0.000000001
 43
0.00000001
 40
0.0
 40
0.0
 40
0.0
 40
0.0
 40
0.2606216717109356
 40
0.463200448082231
 40
0.6713667795608114
 40
1.0
 40
1.0
 40
1.0
 40
1.0
 10
813.19550993977
 20
617.3686364055258
 30
0.0
 10
812.8286285691086
 20
618.3703545853361
 30
0.0
 10
812.1765737565992
 20
620.1506988932144
 30
0.0
 10
810.6392088947764
 20
622.4056985152772
 30
0.0
 10
808.6244431102803
 20
624.6203326956293
 30
0.0
 10
806.7791150244428
 20
625.7407947936011
 30
0.0
 10
805.6493895813998
 20
626.4267511553772
 30
0.0
  0
LINE
  5
27E
330
1F
100
AcDbEntity
  8
0
  6
Continuous
 62
     7
370
    35
100
AcDbLine
 10
813.6151110243
 20
614.5022874003
 30
0.0
 11
813.1955099398
 21
617.3686364055
 31
0.0
  0
LINE
  5
27F
330
1F
100
AcDbEntity
  8
0
  6
Continuous
 62
     7
370
    35
100
AcDbLine
 10
813.6151110243
 20
614.5022874003
 30
0.0
 11
813.6151110243
 21
604.635938395
 31
0.0
  0
SPLINE
  5
280
330
1F
100
AcDbEntity
  8
0
  6
Continuous
 62
     7
370
    35
100
AcDbSpline
210
0.0
220
0.0
230
1.0
 70
     8
 71
     3
 72
    17
 73
    13
 74
     0
 42
0.000000001
 43
0.00000001
 40
0.0
 40
0.0
 40
0.0
 40
0.0
 40
0.0364925733413336
 40
0.1833587448077209
 40
0.2877156143828501
 40
0.3934837304905568
 40
0.4992474923956488
 40
0.6063189697897136
 40
0.7133499989193064
 40
0.8177518468878915
 40
0.9088657685707868
 40
1.0
 40
1.0
 40
1.0
 40
1.0
 10
909.6151110242719
 20
631.3103853651802
 30
0.0
 10
910.0299166602719
 20
631.3025807022373
 30
0.0
 10
912.1141281529689
 20
631.2633657861644
 30
0.0
 10
915.3697064730625
 20
630.6751820473905
 30
0.0
 10
919.1703543608537
 20
629.2102515966332
 30
0.0
 10
922.2677841587467
 20
627.3592087224444
 30
0.0
 10
925.0563988608156
 20
625.0224722316975
 30
0.0
 10
927.4100180109587
 20
622.2271890477228
 30
0.0
 10
929.2644484166141
 20
619.0973928009362
 30
0.0
 10
930.507872652677
 20
615.8759448320217
 30
0.0
 10
931.2197204338161
 20
612.6790686870224
 30
0.0
 10
931.3089459733632
 20
610.60584184095
 30
0.0
 10
931.3535637147867
 20
609.5691128976449
 30
0.0
  0
SPLINE
  5
281
330
1F
100
AcDbEntity
  8
0
  6
Continuous
 62
     7
370
    35
100
AcDbSpline
210
0.0
220
0.0
230
1.0
 70
     8
 71
     3
 72
    17
 73
    13
 74
     0
 42
0.000000001
 43
0.00000001
 40
0.0
 40
0.0
 40
0.0
 40
0.0
 40
0.0364925733413335
 40
0.1833587448077207
 40
0.2877156143828383
 40
0.3934837304905532
 40
0.4992474923956538
 40
0.6063189697897184
 40
0.7133499989193112
 40
0.8177518468878918
 40
0.908865768570787
 40
1.0
 40
1.0
 40
1.0
 40
1.0
 10
803.6151110242714
 20
587.827840430109
 30
0.0
 10
803.2003053882717
 20
587.8356450930519
 30
0.0
 10
801.1160938955744
 20
587.8748600091247
 30
0.0
 10
797.8605155754809
 20
588.4630437478985
 30
0.0
 10
794.0598676876899
 20
589.9279741986561
 30
0.0
 10
790.9624378897967
 20
591.7790170728448
 30
0.0
 10
788.1738231877276
 20
594.1157535635916
 30
0.0
 10
785.8202040375846
 20
596.9110367475664
 30
0.0
 10
783.9657736319293
 20
600.0408329943531
 30
0.0
 10
782.7223493958662
 20
603.2622809632675
 30
0.0
 10
782.0105016147273
 20
606.4591571082667
 30
0.0
 10
781.9212760751801
 20
608.532383954339
 30
0.0
 10
781.8766583337565
 20
609.5691128976441
 30
0.0
  0
SPLINE
  5
282
330
1F
100
AcDbEntity
  8
0
  6
Continuous
 62
     7
370
    35
100
AcDbSpline
210
0.0
220
0.0
230
1.0
 70
     8
 71
     3
 72
    17
 73
    13
 74
     0
 42
0.000000001
 43
0.00000001
 40
0.0
 40
0.0
 40
0.0
 40
0.0
 40
0.0364925733413331
 40
0.1833587448077186
 40
0.2877156143828465
 40
0.3934837304905601
 40
0.4992474923956574
 40
0.6063189697897208
 40
0.7133499989193124
 40
0.8177518468878932
 40
0.9088657685707878
 40
1.0
 40
1.0
 40
1.0
 40
1.0
 10
803.6151110242719
 20
631.3103853651794
 30
0.0
 10
803.2003053882721
 20
631.3025807022364
 30
0.0
 10
801.1160938955749
 20
631.2633657861635
 30
0.0
 10
797.8605155754813
 20
630.6751820473896
 30
0.0
 10
794.05986768769
 20
629.2102515966321
 30
0.0
 10
790.9624378897967
 20
627.3592087224434
 30
0.0
 10
788.1738231877276
 20
625.0224722316967
 30
0.0
 10
785.8202040375846
 20
622.2271890477219
 30
0.0
 10
783.9657736319293
 20
619.0973928009353
 30
0.0
 10
782.7223493958662
 20
615.8759448320209
 30
0.0
 10
782.0105016147272
 20
612.6790686870216
 30
0.0
 10
781.9212760751801
 20
610.6058418409493
 30
0.0
 10
781.8766583337565
 20
609.5691128976441
 30
0.0
  0
SPLINE
  5
283
330
1F
100
AcDbEntity
  8
0
  6
Continuous
 62
     7
370
    35
100
AcDbSpline
210
0.0
220
0.0
230
1.0
 70
     8
 71
     3
 72
    17
 73
    13
 74
     0
 42
0.000000001
 43
0.00000001
 40
0.0
 40
0.0
 40
0.0
 40
0.0
 40
0.0364925733413333
 40
0.1833587448077195
 40
0.2877156143828595
 40
0.3934837304905668
 40
0.4992474923956592
 40
0.6063189697897231
 40
0.7133499989193152
 40
0.8177518468878922
 40
0.9088657685707873
 40
1.0
 40
1.0
 40
1.0
 40
1.0
 10
909.6151110242714
 20
587.8278404301097
 30
0.0
 10
910.0299166602713
 20
587.8356450930527
 30
0.0
 10
912.1141281529685
 20
587.8748600091255
 30
0.0
 10
915.3697064730621
 20
588.4630437478996
 30
0.0
 10
919.1703543608536
 20
589.9279741986567
 30
0.0
 10
922.2677841587467
 20
591.7790170728457
 30
0.0
 10
925.0563988608155
 20
594.1157535635925
 30
0.0
 10
927.4100180109588
 20
596.9110367475673
 30
0.0
 10
929.264448416614
 20
600.0408329943539
 30
0.0
 10
930.507872652677
 20
603.2622809632683
 30
0.0
 10
931.2197204338161
 20
606.4591571082675
 30
0.0
 10
931.3089459733632
 20
608.5323839543398
 30
0.0
 10
931.3535637147867
 20
609.5691128976449
 30
0.0
  0
LINE
  5
284
330
1F
100
AcDbEntity
  8
0
  6
Continuous
 62
     7
370
    35
100
AcDbLine
 10
899.7712822145
 20
615.5691128976
 30
0.0
 11
813.4589398341
 21
615.5691128976
 31
0.0
  0
LINE
  5
285
330
1F
100
AcDbEntity
  8
0
  6
Continuous
 62
     7
370
    35
100
AcDbLine
 10
899.7712822145
 20
603.5691128976
 30
0.0
 11
813.4589398341
 21
603.5691128976
 31
0.0
  0
LINE
  5
286
330
1F
100
AcDbEntity
  8
0
  6
Continuous
 62
     7
370
    35
100
AcDbLine
 10
803.6151110243
 20
587.8278404301
 30
0.0
 11
909.6151110243
 21
587.8278404301
 31
0.0
  0
LINE
  5
287
330
1F
100
AcDbEntity
  8
0
  6
Continuous
 62
     7
370
    35
100
AcDbLine
 10
803.6151110243
 20
631.3103853652
 30
0.0
 11
909.6151110243
 21
631.3103853652
 31
0.0
  0
ARC
  5
288
330
1F
100
AcDbEntity
  8
0
  6
Continuous
 62
     7
370
    35
100
AcDbCircle
 10
909.6151110243
 20
609.5691128976
 30
0.0
 40
21.74999999999966
100
AcDbArc
 50
270.0
 51
90.0
  0
LINE
  5
289
330
1F
100
AcDbEntity
  8
0
  6
Continuous
 62
     7
370
    35
100
AcDbLine
 10
803.6151110243
 20
631.3191128976
 30
0.0
 11
909.6151110243
 21
631.3191128976
 31
0.0
  0
ARC
  5
28A
330
1F
100
AcDbEntity
  8
0
  6
Continuous
 62
     7
370
    35
100
AcDbCircle
 10
803.6151110243
 20
609.5691128976
 30
0.0
 40
21.74999999999966
100
AcDbArc
 50
90.0
 51
270.0
  0
LINE
  5
28B
330
1F
100
AcDbEntity
  8
0
  6
Continuous
 62
     7
370
    35
100
AcDbLine
 10
803.6151110243
 20
587.8191128976
 30
0.0
 11
909.6151110243
 21
587.8191128976
 31
0.0
  0
LINE
  5
28C
330
1F
100
AcDbEntity
  8
0
  6
Continuous
 62
     7
370
    35
100
AcDbLine
 10
1396.6151110243
 20
675.0691128976
 30
0.0
 11
1419.1151110243
 21
675.0691128976
 31
0.0
  0
ARC
  5
28D
330
1F
100
AcDbEntity
  8
0
  6
Continuous
 62
     7
370
    35
100
AcDbCircle
 10
1419.1151110243
 20
665.0691128976
 30
0.0
 40
10.00000000000045
100
AcDbArc
 50
0.0
 51
90.0
  0
LINE
  5
28E
330
1F
100
AcDbEntity
  8
0
  6
Continuous
 62
     7
370
    35
100
AcDbLine
 10
1429.1151110243
 20
665.0691128976
 30
0.0
 11
1429.1151110243
 21
554.0691128976
 31
0.0
  0
ARC
  5
28F
330
1F
100
AcDbEntity
  8
0
  6
Continuous
 62
     7
370
    35
100
AcDbCircle
 10
1419.1151110243
 20
554.0691128976
 30
0.0
 40
10.0
100
AcDbArc
 50
270.0
 51
0.0
  0
LINE
  5
290
330
1F
100
AcDbEntity
  8
0
  6
Continuous
 62
     7
370
    35
100
AcDbLine
 10
1419.1151110243
 20
544.0691128976
 30
0.0
 11
1396.6151110243
 21
544.0691128976
 31
0.0
  0
LINE
  5
291
330
1F
100
AcDbEntity
  8
0
  6
Continuous
 62
     7
370
    35
100
AcDbLine
 10
316.6151110243
 20
544.0691128976
 30
0.0
 11
294.1151110243
 21
544.0691128976
 31
0.0
  0
ARC
  5
292
330
1F
100
AcDbEntity
  8
0
  6
Continuous
 62
     7
370
    35
100
AcDbCircle
 10
294.1151110243
 20
554.0691128976
 30
0.0
 40
10.00000000000045
100
AcDbArc
 50
180.0
 51
270.0
  0
LINE
  5
293
330
1F
100
AcDbEntity
  8
0
  6
Continuous
 62
     7
370
    35
100
AcDbLine
 10
284.1151110243
 20
554.0691128976
 30
0.0
 11
284.1151110243
 21
665.0691128976
 31
0.0
  0
LINE
  5
294
330
1F
100
AcDbEntity
  8
0
  6
Continuous
 62
     7
370
    35
100
AcDbLine
 10
294.1151110243
 20
675.0691128976
 30
0.0
 11
316.6151110243
 21
675.0691128976
 31
0.0
  0
ARC
  5
295
330
1F
100
AcDbEntity
  8
0
  6
Continuous
 62
     7
370
    35
100
AcDbCircle
 10
294.1151110243
 20
665.0691128976
 30
0.0
 40
10.0
100
AcDbArc
 50
90.0
 51
180.0
  0
LINE
  5
296
330
1F
100
AcDbEntity
  8
0
  6
Continuous
 62
     7
370
    35
100
AcDbLine
 10
1396.6151110243
 20
644.5691128976
 30
0.0
 11
1398.6151110243
 21
644.5691128976
 31
0.0
  0
LINE
  5
297
330
1F
100
AcDbEntity
  8
0
  6
Continuous
 62
     7
370
    35
100
AcDbLine
 10
1398.6151110243
 20
644.5691128976
 30
0.0
 11
1398.6151110243
 21
574.5691128976
 31
0.0
  0
LINE
  5
298
330
1F
100
AcDbEntity
  8
0
  6
Continuous
 62
     7
370
    35
100
AcDbLine
 10
1398.6151110243
 20
574.5691128976
 30
0.0
 11
1396.6151110243
 21
574.5691128976
 31
0.0
  0
LINE
  5
299
330
1F
100
AcDbEntity
  8
0
  6
Continuous
 62
     7
370
    35
100
AcDbLine
 10
1396.6151110243
 20
574.5691128976
 30
0.0
 11
1396.6151110243
 21
574.6548993353
 31
0.0
  0
LINE
  5
29A
330
1F
100
AcDbEntity
  8
0
  6
Continuous
 62
     7
370
    35
100
AcDbLine
 10
1396.6151110243
 20
577.48332646
 30
0.0
 11
1396.6151110243
 21
641.6548993353
 31
0.0
  0
LINE
  5
29B
330
1F
100
AcDbEntity
  8
0
  6
Continuous
 62
     7
370
    35
100
AcDbLine
 10
1396.6151110243
 20
644.48332646
 30
0.0
 11
1396.6151110243
 21
644.5691128976
 31
0.0
  0
LINE
  5
29C
330
1F
100
AcDbEntity
  8
0
  6
Continuous
 62
     7
370
    35
100
AcDbLine
 10
316.6151110243
 20
574.5691128976
 30
0.0
 11
314.6151110243
 21
574.5691128976
 31
0.0
  0
LINE
  5
29D
330
1F
100
AcDbEntity
  8
0
  6
Continuous
 62
     7
370
    35
100
AcDbLine
 10
314.6151110243
 20
574.5691128976
 30
0.0
 11
314.6151110243
 21
644.5691128976
 31
0.0
  0
LINE
  5
29E
330
1F
100
AcDbEntity
  8
0
  6
Continuous
 62
     7
370
    35
100
AcDbLine
 10
316.6151110243
 20
644.5691128976
 30
0.0
 11
316.6151110243
 21
644.48332646
 31
0.0
  0
LINE
  5
29F
330
1F
100
AcDbEntity
  8
0
  6
Continuous
 62
     7
370
    35
100
AcDbLine
 10
316.6151110243
 20
641.6548993353
 30
0.0
 11
316.6151110243
 21
577.48332646
 31
0.0
  0
LINE
  5
2A0
330
1F
100
AcDbEntity
  8
0
  6
Continuous
 62
     7
370
    35
100
AcDbLine
 10
316.6151110243
 20
574.6548993353
 30
0.0
 11
316.6151110243
 21
574.5691128976
 31
0.0
  0
LINE
  5
2A1
330
1F
100
AcDbEntity
  8
0
  6
Continuous
 62
     7
370
    35
100
AcDbLine
 10
314.6151110243
 20
644.5691128976
 30
0.0
 11
316.6151110243
 21
644.5691128976
 31
0.0
  0
LINE
  5
2A2
330
1F
100
AcDbEntity
  8
0
  6
Continuous
 62
     8
370
    18
100
AcDbLine
 10
1396.6151110243
 20
645.5691128976
 30
0.0
 11
316.6151110243
 21
645.5691128976
 31
0.0
  0
LINE
  5
2A3
330
1F
100
AcDbEntity
  8
0
  6
Continuous
 62
     8
370
    18
100
AcDbLine
 10
316.6151110243
 20
573.5691128976
 30
0.0
 11
1396.6151110243
 21
573.5691128976
 31
0.0
  0
LINE
  5
2A4
330
1F
100
AcDbEntity
  8
0
  6
Continuous
 62
     8
370
    18
100
AcDbLine
 10
316.6151110243
 20
640.6258056852
 30
0.0
 11
1396.6151110243
 21
640.6258056852
 31
0.0
  0
LINE
  5
2A5
330
1F
100
AcDbEntity
  8
0
  6
Continuous
 62
     8
370
    18
100
AcDbLine
 10
316.6151110243
 20
578.5124201101
 30
0.0
 11
1396.6151110243
 21
578.5124201101
 31
0.0
  0
LINE
  5
2A6
330
1F
100
AcDbEntity
  8
0
  6
Continuous
 62
     8
370
    18
100
AcDbLine
 10
316.6151110243
 20
609.6258056852
 30
0.0
 11
773.6154443635
 21
609.6258056852
 31
0.0
  0
LINE
  5
2A7
330
1F
100
AcDbEntity
  8
0
  6
Continuous
 62
     8
370
    18
100
AcDbLine
 10
939.614777685
 20
609.6258056852
 30
0.0
 11
1396.6151110243
 21
609.6258056852
 31
0.0
  0
LINE
  5
2A8
330
1F
100
AcDbEntity
  8
0
  6
Continuous
 62
     8
370
    18
100
AcDbLine
 10
939.6137717976
 20
609.6827000594
 30
0.0
 11
939.6137717976
 21
609.6824984728
 31
0.0
  0
ARC
  5
2A9
330
1F
100
AcDbEntity
  8
0
  6
Continuous
 62
     8
370
    18
100
AcDbCircle
 10
863.3654004241
 20
568.9376851436
 30
0.0
 40
54.26577168241619
100
AcDbArc
 50
12.3156445559
 51
15.3088218734
  0
ARC
  5
2AA
330
1F
100
AcDbEntity
  8
0
  6
Continuous
 62
     8
370
    18
100
AcDbCircle
 10
938.7407630953
 20
596.1155258171
 30
0.0
 40
13.36873667923845
100
AcDbArc
 50
86.2557918319
 51
99.1541892989
  0
LINE
  5
2AB
330
1F
100
AcDbEntity
  8
0
  6
Continuous
 62
     8
370
    18
100
AcDbLine
 10
939.6137717976
 20
609.4555257359
 30
0.0
 11
939.6137717976
 21
609.4557273225
 31
0.0
  0
ARC
  5
2AC
330
1F
100
AcDbEntity
  8
0
  6
Continuous
 62
     8
370
    18
100
AcDbCircle
 10
774.4894589533
 20
596.1155258171
 30
0.0
 40
13.36873667924073
100
AcDbArc
 50
80.8458107011
 51
93.7442081681
  0
ARC
  5
2AD
330
1F
100
AcDbEntity
  8
0
  6
Continuous
 62
     8
370
    18
100
AcDbCircle
 10
849.8648216246
 20
568.9376851436
 30
0.0
 40
54.26577168254621
100
AcDbArc
 50
164.6911781266
 51
167.6843554441
  0
LINE
  5
2AE
330
1F
100
AcDbEntity
  8
0
  6
Continuous
 62
     8
370
    18
100
AcDbLine
 10
773.6164502509
 20
609.4555257359
 30
0.0
 11
773.6164502509
 21
609.4557273225
 31
0.0
  0
ARC
  5
2AF
330
1F
100
AcDbEntity
  8
0
  6
Continuous
 62
     8
370
    18
100
AcDbCircle
 10
938.7407630953
 20
623.0226999782
 30
0.0
 40
13.36873667926062
100
AcDbArc
 50
260.8458107011
 51
273.7442081681
  0
ARC
  5
2B0
330
1F
100
AcDbEntity
  8
0
  6
Continuous
 62
     8
370
    18
100
AcDbCircle
 10
863.3654004238
 20
650.2005406517
 30
0.0
 40
54.26577168265377
100
AcDbArc
 50
344.6911781266
 51
347.6843554441
  0
LINE
  5
2B1
330
1F
100
AcDbEntity
  8
0
  6
Continuous
 62
     8
370
    18
100
AcDbLine
 10
773.6164502509
 20
609.6827000594
 30
0.0
 11
773.6164502509
 21
609.6824984728
 31
0.0
  0
ARC
  5
2B2
330
1F
100
AcDbEntity
  8
0
  6
Continuous
 62
     8
370
    18
100
AcDbCircle
 10
849.8648216247
 20
650.2005406517
 30
0.0
 40
54.26577168265399
100
AcDbArc
 50
192.3156445559
 51
195.3088218734
  0
ARC
  5
2B3
330
1F
100
AcDbEntity
  8
0
  6
Continuous
 62
     8
370
    18
100
AcDbCircle
 10
774.4894589533
 20
623.0226999782
 30
0.0
 40
13.36873667926278
100
AcDbArc
 50
266.2557918319
 51
279.1541892989
  0
LINE
  5
2B4
330
1F
100
AcDbEntity
  8
0
  6
Continuous
 62
     8
370
    18
100
AcDbLine
 10
316.6151110243
 20
609.5124201101
 30
0.0
 11
773.6154443635
 21
609.5124201101
 31
0.0
  0
LINE
  5
2B5
330
1F
100
AcDbEntity
  8
0
  6
Continuous
 62
     8
370
    18
100
AcDbLine
 10
939.614777685
 20
609.5124201101
 30
0.0
 11
1396.6151110243
 21
609.5124201101
 31
0.0
  0
LINE
  5
2B6
330
1F
100
AcDbEntity
  8
0
  6
Continuous
 62
     8
370
    18
100
AcDbLine
 10
803.6151110243
 20
582.5691128976
 30
0.0
 11
803.6151110243
 21
580.3191128976
 31
0.0
  0
LINE
  5
2B7
330
1F
100
AcDbEntity
  8
0
  6
Continuous
 62
     8
370
    18
100
AcDbLine
 10
909.6151110243
 20
582.5691128976
 30
0.0
 11
909.6151110243
 21
580.3191128976
 31
0.0
  0
LINE
  5
2B8
330
1F
100
AcDbEntity
  8
0
  6
Continuous
 62
     8
370
    18
100
AcDbLine
 10
803.6151110243
 20
638.8191128976
 30
0.0
 11
803.6151110243
 21
636.5691128976
 31
0.0
  0
LINE
  5
2B9
330
1F
100
AcDbEntity
  8
0
  6
Continuous
 62
     8
370
    18
100
AcDbLine
 10
803.6151110243
 20
638.8248970962
 30
0.0
 11
803.6151110243
 21
638.8191128976
 31
0.0
  0
LINE
  5
2BA
330
1F
100
AcDbEntity
  8
0
  6
Continuous
 62
     8
370
    18
100
AcDbLine
 10
909.6151110243
 20
638.8191128976
 30
0.0
 11
909.6151110243
 21
636.5691128976
 31
0.0
  0
LINE
  5
2BB
330
1F
100
AcDbEntity
  8
0
  6
Continuous
 62
     8
370
    18
100
AcDbLine
 10
909.6151110243
 20
638.8248970962
 30
0.0
 11
909.6151110243
 21
638.8191128976
 31
0.0
  0
LINE
  5
2BC
330
1F
100
AcDbEntity
  8
0
  6
Continuous
 62
     8
370
    18
100
AcDbLine
 10
803.6151110243
 20
580.313328699
 30
0.0
 11
803.6151110243
 21
580.3191128976
 31
0.0
  0
LINE
  5
2BD
330
1F
100
AcDbEntity
  8
0
  6
Continuous
 62
     8
370
    18
100
AcDbLine
 10
909.6151110243
 20
580.313328699
 30
0.0
 11
909.6151110243
 21
580.3191128976
 31
0.0
  0
SPLINE
  5
2BE
330
1F
100
AcDbEntity
  8
0
  6
Continuous
 62
     8
370
    18
100
AcDbSpline
210
0.0
220
0.0
230
1.0
 70
     8
 71
     3
 72
     9
 73
     5
 74
     0
 42
0.000000001
 43
0.00000001
 40
0.0
 40
0.0
 40
0.0
 40
0.0
 40
0.1546895589938868
 40
1.0
 40
1.0
 40
1.0
 40
1.0
 10
909.4983798416115
 20
590.8375394436608
 30
0.0
 10
909.2553273850334
 20
590.9102139786631
 30
0.0
 10
907.6841000949771
 20
591.3800229009647
 30
0.0
 10
906.2599821861511
 20
592.1963009300142
 30
0.0
 10
905.0561604485965
 20
592.8863092707336
 30
0.0
  0
ARC
  5
2BF
330
1F
100
AcDbEntity
  8
0
  6
Continuous
 62
     8
370
    18
100
AcDbCircle
 10
903.5997437717
 20
594.3326392559
 30
0.0
 40
2.052564240816378
100
AcDbArc
 50
315.1990950652
 51
348.3527908007
  0
SPLINE
  5
2C0
330
1F
100
AcDbEntity
  8
0
  6
Continuous
 62
     8
370
    18
100
AcDbSpline
210
0.0
220
0.0
230
1.0
 70
     8
 71
     3
 72
     9
 73
     5
 74
     0
 42
0.000000001
 43
0.00000001
 40
0.0
 40
0.0
 40
0.0
 40
0.0
 40
0.1546895589938868
 40
1.0
 40
1.0
 40
1.0
 40
1.0
 10
803.7318422069322
 20
628.3006863516283
 30
0.0
 10
803.9748946635103
 20
628.228011816626
 30
0.0
 10
805.5461219535666
 20
627.7582028943243
 30
0.0
 10
806.9702398623926
 20
626.9419248652749
 30
0.0
 10
808.1740615999472
 20
626.2519165245554
 30
0.0
  0
ARC
  5
2C1
330
1F
100
AcDbEntity
  8
0
  6
Continuous
 62
     8
370
    18
100
AcDbCircle
 10
809.6304782768
 20
624.8055865394
 30
0.0
 40
2.052564240817272
100
AcDbArc
 50
135.1990950652
 51
168.3527908007
  0
ARC
  5
2C2
330
1F
100
AcDbEntity
  8
0
  6
Continuous
 62
     8
370
    18
100
AcDbCircle
 10
903.5997437717
 20
624.8055865394
 30
0.0
 40
2.052564240816663
100
AcDbArc
 50
11.6472091993
 51
44.8009049348
  0
SPLINE
  5
2C3
330
1F
100
AcDbEntity
  8
0
  6
Continuous
 62
     8
370
    18
100
AcDbSpline
210
0.0
220
0.0
230
1.0
 70
     8
 71
     3
 72
     9
 73
     5
 74
     0
 42
0.000000001
 43
0.00000001
 40
0.0
 40
0.0
 40
0.0
 40
0.0
 40
0.1546895589938808
 40
1.0
 40
1.0
 40
1.0
 40
1.0
 10
909.4983798416115
 20
628.3006863516291
 30
0.0
 10
909.2553273850334
 20
628.2280118166268
 30
0.0
 10
907.6841000949771
 20
627.7582028943251
 30
0.0
 10
906.2599821861511
 20
626.9419248652755
 30
0.0
 10
905.0561604485965
 20
626.2519165245559
 30
0.0
  0
ARC
  5
2C4
330
1F
100
AcDbEntity
  8
0
  6
Continuous
 62
     8
370
    18
100
AcDbCircle
 10
809.6304782768
 20
594.3326392559
 30
0.0
 40
2.052564240816021
100
AcDbArc
 50
191.6472091993
 51
224.8009049348
  0
SPLINE
  5
2C5
330
1F
100
AcDbEntity
  8
0
  6
Continuous
 62
     8
370
    18
100
AcDbSpline
210
0.0
220
0.0
230
1.0
 70
     8
 71
     3
 72
     9
 73
     5
 74
     0
 42
0.000000001
 43
0.00000001
 40
0.0
 40
0.0
 40
0.0
 40
0.0
 40
0.154689558993881
 40
1.0
 40
1.0
 40
1.0
 40
1.0
 10
803.7318422069322
 20
590.83753944366
 30
0.0
 10
803.9748946635103
 20
590.9102139786622
 30
0.0
 10
805.5461219535667
 20
591.3800229009639
 30
0.0
 10
806.9702398623928
 20
592.1963009300135
 30
0.0
 10
808.1740615999472
 20
592.8863092707331
 30
0.0
  0
ARC
  5
2C6
330
1F
100
AcDbEntity
  8
0
  6
Continuous
 62
     8
370
    18
100
AcDbCircle
 10
902.6151110243
 20
609.5691128976
 30
0.0
 40
19.99999999999972
100
AcDbArc
 50
270.0
 51
347.5224163016
  0
LINE
  5
2C7
330
1F
100
AcDbEntity
  8
0
  6
Continuous
 62
     8
370
    18
100
AcDbLine
 10
902.6151110243
 20
596.8564621107
 30
0.0
 11
902.6151110243
 21
589.5691128976
 31
0.0
  0
LINE
  5
2C8
330
1F
100
AcDbEntity
  8
0
  6
Continuous
 62
     8
370
    18
100
AcDbLine
 10
902.6151110243
 20
622.2817636846
 30
0.0
 11
902.6151110243
 21
629.5691128976
 31
0.0
  0
ARC
  5
2C9
330
1F
100
AcDbEntity
  8
0
  6
Continuous
 62
     8
370
    18
100
AcDbCircle
 10
902.6151110243
 20
609.5691128976
 30
0.0
 40
19.99999999999977
100
AcDbArc
 50
12.4775836984
 51
90.0
  0
SPLINE
  5
2CA
330
1F
100
AcDbEntity
  8
0
  6
Continuous
 62
     8
370
    18
100
AcDbSpline
210
0.0
220
0.0
230
1.0
 70
     8
 71
     3
 72
    14
 73
    10
 74
     0
 42
0.000000001
 43
0.00000001
 40
0.0
 40
0.0
 40
0.0
 40
0.0
 40
0.1114289230413373
 40
0.4958785649679689
 40
0.7046555305618257
 40
0.83017603742576
 40
0.9121018798659195
 40
0.9942797082137373
 40
1.0
 40
1.0
 40
1.0
 40
1.0
 10
905.0561604485965
 20
626.2519165245559
 30
0.0
 10
904.9367694029607
 20
626.1695841593067
 30
0.0
 10
904.4054579735399
 20
625.8031904617294
 30
0.0
 10
903.7311664501851
 20
625.170419311011
 30
0.0
 10
903.2733026624234
 20
624.3794347963105
 30
0.0
 10
903.1888449120896
 20
623.8692400624478
 30
0.0
 10
903.271309204942
 20
623.5249114567836
 30
0.0
 10
903.3910161485643
 20
623.3472117360509
 30
0.0
 10
903.4717274217704
 20
623.271829166628
 30
0.0
 10
903.4769800031963
 20
623.2669233700985
 30
0.0
  0
SPLINE
  5
2CB
330
1F
100
AcDbEntity
  8
0
  6
Continuous
 62
     8
370
    18
100
AcDbSpline
210
0.0
220
0.0
230
1.0
 70
     8
 71
     3
 72
    14
 73
    10
 74
     0
 42
0.000000001
 43
0.00000001
 40
0.0
 40
0.0
 40
0.0
 40
0.0
 40
0.1114289230413331
 40
0.4958785649680146
 40
0.7046555305618245
 40
0.8301760374257486
 40
0.9121018798659051
 40
0.9942797082137614
 40
1.0
 40
1.0
 40
1.0
 40
1.0
 10
905.0561604485965
 20
592.8863092707336
 30
0.0
 10
904.9367694029607
 20
592.9686416359827
 30
0.0
 10
904.4054579735399
 20
593.3350353335602
 30
0.0
 10
903.7311664501852
 20
593.9678064842789
 30
0.0
 10
903.2733026624234
 20
594.7587909989791
 30
0.0
 10
903.1888449120896
 20
595.2689857328419
 30
0.0
 10
903.271309204942
 20
595.613314338506
 30
0.0
 10
903.3910161485643
 20
595.7910140592389
 30
0.0
 10
903.4717274217704
 20
595.8663966286618
 30
0.0
 10
903.4769800031962
 20
595.8713024251913
 30
0.0
  0
SPLINE
  5
2CC
330
1F
100
AcDbEntity
  8
0
  6
Continuous
 62
     8
370
    18
100
AcDbSpline
210
0.0
220
0.0
230
1.0
 70
     8
 71
     3
 72
    14
 73
    10
 74
     0
 42
0.000000001
 43
0.00000001
 40
0.0
 40
0.0
 40
0.0
 40
0.0
 40
0.1114289230413344
 40
0.4958785649679836
 40
0.7046555305618415
 40
0.8301760374257671
 40
0.9121018798659242
 40
0.9942797082137608
 40
1.0
 40
1.0
 40
1.0
 40
1.0
 10
808.1740615999472
 20
592.8863092707331
 30
0.0
 10
808.293452645583
 20
592.9686416359824
 30
0.0
 10
808.8247640750039
 20
593.3350353335596
 30
0.0
 10
809.4990555983587
 20
593.9678064842783
 30
0.0
 10
809.9569193861205
 20
594.7587909989787
 30
0.0
 10
810.0413771364541
 20
595.2689857328414
 30
0.0
 10
809.9589128436019
 20
595.6133143385056
 30
0.0
 10
809.8392058999796
 20
595.7910140592384
 30
0.0
 10
809.7584946267733
 20
595.8663966286614
 30
0.0
 10
809.7532420453475
 20
595.8713024251907
 30
0.0
  0
SPLINE
  5
2CD
330
1F
100
AcDbEntity
  8
0
  6
Continuous
 62
     8
370
    18
100
AcDbSpline
210
0.0
220
0.0
230
1.0
 70
     8
 71
     3
 72
    14
 73
    10
 74
     0
 42
0.000000001
 43
0.00000001
 40
0.0
 40
0.0
 40
0.0
 40
0.0
 40
0.1114289230413361
 40
0.4958785649679991
 40
0.7046555305618083
 40
0.8301760374257412
 40
0.9121018798659003
 40
0.9942797082137381
 40
1.0
 40
1.0
 40
1.0
 40
1.0
 10
808.1740615999472
 20
626.2519165245554
 30
0.0
 10
808.293452645583
 20
626.1695841593064
 30
0.0
 10
808.8247640750039
 20
625.803190461729
 30
0.0
 10
809.4990555983586
 20
625.1704193110104
 30
0.0
 10
809.9569193861206
 20
624.3794347963101
 30
0.0
 10
810.0413771364541
 20
623.8692400624474
 30
0.0
 10
809.9589128436019
 20
623.5249114567832
 30
0.0
 10
809.8392058999794
 20
623.3472117360503
 30
0.0
 10
809.7584946267733
 20
623.2718291666275
 30
0.0
 10
809.7532420453475
 20
623.2669233700981
 30
0.0
  0
ARC
  5
2CE
330
1F
100
AcDbEntity
  8
0
  6
Continuous
 62
     8
370
    18
100
AcDbCircle
 10
810.6151110243
 20
609.5691128976
 30
0.0
 40
20.00000000000039
100
AcDbArc
 50
90.0
 51
167.5224163016
  0
LINE
  5
2CF
330
1F
100
AcDbEntity
  8
0
  6
Continuous
 62
     8
370
    18
100
AcDbLine
 10
810.6151110243
 20
622.2817636846
 30
0.0
 11
810.6151110243
 21
629.5691128976
 31
0.0
  0
LINE
  5
2D0
330
1F
100
AcDbEntity
  8
0
  6
Continuous
 62
     8
370
    18
100
AcDbLine
 10
810.6151110243
 20
596.8564621107
 30
0.0
 11
810.6151110243
 21
589.5691128976
 31
0.0
  0
ARC
  5
2D1
330
1F
100
AcDbEntity
  8
0
  6
Continuous
 62
     8
370
    18
100
AcDbCircle
 10
810.6151110243
 20
609.5691128976
 30
0.0
 40
20.00000000000046
100
AcDbArc
 50
192.4775836984
 51
270.0
  0
SPLINE
  5
2D2
330
1F
100
AcDbEntity
  8
0
  6
Continuous
 62
     8
370
    18
100
AcDbSpline
210
0.0
220
0.0
230
1.0
 70
     8
 71
     3
 72
    18
 73
    14
 74
     0
 42
0.000000001
 43
0.00000001
 40
0.0
 40
0.0
 40
0.0
 40
0.0
 40
0.0000017576874324
 40
0.0364929107765222
 40
0.1834197338049797
 40
0.2877695105078306
 40
0.392144102545381
 40
0.4993591877198453
 40
0.6063886859551781
 40
0.7134284383809861
 40
0.8178270444226949
 40
0.9079734932070048
 40
1.0
 40
1.0
 40
1.0
 40
1.0
 10
909.6151110242719
 20
631.3148252896342
 30
0.0
 10
909.615131010766
 20
631.314825289426
 30
0.0
 10
910.0300883759488
 20
631.3148209678367
 30
0.0
 10
912.1152972000522
 20
631.2524365655935
 30
0.0
 10
915.3722461472859
 20
630.6832712570571
 30
0.0
 10
919.1595664994005
 20
629.2183309262326
 30
0.0
 10
922.258803539955
 20
627.3700354032102
 30
0.0
 10
925.0518014441687
 20
625.0357433425157
 30
0.0
 10
927.4153704952882
 20
622.2268505602766
 30
0.0
 10
929.2706073911751
 20
619.0966983556493
 30
0.0
 10
930.5065383031563
 20
615.8839081354846
 30
0.0
 10
931.2309217062746
 20
612.6899850947101
 30
0.0
 10
931.3153525600725
 20
610.61653641905
 30
0.0
 10
931.3580036578489
 20
609.5691128976449
 30
0.0
  0
LINE
  5
2D3
330
1F
100
AcDbEntity
  8
0
  6
Continuous
 62
     8
370
    18
100
AcDbLine
 10
909.6151110243
 20
631.3148252896
 30
0.0
 11
909.6151114213
 21
631.3191128976
 31
0.0
  0
LINE
  5
2D4
330
1F
100
AcDbEntity
  8
0
  6
Continuous
 62
     8
370
    18
100
AcDbLine
 10
931.3580036578
 20
609.5691128976
 30
0.0
 11
931.3535637148
 21
609.5691128976
 31
0.0
  0
LINE
  5
2D5
330
1F
100
AcDbEntity
  8
0
  6
Continuous
 62
     8
370
    18
100
AcDbLine
 10
909.6151110243
 20
631.3103853652
 30
0.0
 11
909.6151110243
 21
631.3148252896
 31
0.0
  0
SPLINE
  5
2D6
330
1F
100
AcDbEntity
  8
0
  6
Continuous
 62
     8
370
    18
100
AcDbSpline
210
0.0
220
0.0
230
1.0
 70
     8
 71
     3
 72
    18
 73
    14
 74
     0
 42
0.000000001
 43
0.00000001
 40
0.0
 40
0.0
 40
0.0
 40
0.0
 40
0.0000017576874324
 40
0.0364929107765221
 40
0.1834197338049791
 40
0.2877695105078347
 40
0.3921441025453849
 40
0.4993591877198517
 40
0.6063886859551841
 40
0.7134284383809918
 40
0.817827044422696
 40
0.9079734932070059
 40
1.0
 40
1.0
 40
1.0
 40
1.0
 10
803.6151110242714
 20
587.823400505655
 30
0.0
 10
803.6150910377773
 20
587.8234005058631
 30
0.0
 10
803.2001336724984
 20
587.8234048274284
 30
0.0
 10
801.1149248486804
 20
587.8857892297428
 30
0.0
 10
797.8579759012058
 20
588.4549545382193
 30
0.0
 10
794.0706555491545
 20
589.9198948690594
 30
0.0
 10
790.9714185085849
 20
591.7681903920779
 30
0.0
 10
788.1784206043754
 20
594.1024824527736
 30
0.0
 10
785.8148515532547
 20
596.9113752350127
 30
0.0
 10
783.9596146573681
 20
600.0415274396399
 30
0.0
 10
782.7236837453869
 20
603.2543176598045
 30
0.0
 10
781.9993003422687
 20
606.4482407005789
 30
0.0
 10
781.9148694884708
 20
608.5216893762391
 30
0.0
 10
781.8722183906942
 20
609.5691128976441
 30
0.0
  0
LINE
  5
2D7
330
1F
100
AcDbEntity
  8
0
  6
Continuous
 62
     8
370
    18
100
AcDbLine
 10
803.6151110243
 20
587.8234005057
 30
0.0
 11
803.6151106272
 21
587.8191128976
 31
0.0
  0
LINE
  5
2D8
330
1F
100
AcDbEntity
  8
0
  6
Continuous
 62
     8
370
    18
100
AcDbLine
 10
781.8722183907
 20
609.5691128976
 30
0.0
 11
781.8766583338
 21
609.5691128976
 31
0.0
  0
LINE
  5
2D9
330
1F
100
AcDbEntity
  8
0
  6
Continuous
 62
     8
370
    18
100
AcDbLine
 10
803.6151110243
 20
587.8278404301
 30
0.0
 11
803.6151110243
 21
587.8234005057
 31
0.0
  0
SPLINE
  5
2DA
330
1F
100
AcDbEntity
  8
0
  6
Continuous
 62
     8
370
    18
100
AcDbSpline
210
0.0
220
0.0
230
1.0
 70
     8
 71
     3
 72
    18
 73
    14
 74
     0
 42
0.000000001
 43
0.00000001
 40
0.0
 40
0.0
 40
0.0
 40
0.0
 40
0.0000017576874324
 40
0.0364929107765216
 40
0.1834197338049764
 40
0.2877695105078378
 40
0.3921441025453866
 40
0.4993591877198568
 40
0.6063886859551877
 40
0.7134284383809938
 40
0.8178270444226978
 40
0.9079734932070073
 40
1.0
 40
1.0
 40
1.0
 40
1.0
 10
803.6151110242719
 20
631.3148252896333
 30
0.0
 10
803.6150910377778
 20
631.3148252894251
 30
0.0
 10
803.2001336725464
 20
631.3148209678367
 30
0.0
 10
801.1149248485873
 20
631.252436565591
 30
0.0
 10
797.857975901232
 20
630.6832712570562
 30
0.0
 10
794.0706555491487
 20
629.2183309262324
 30
0.0
 10
790.9714185085865
 20
627.37003540321
 30
0.0
 10
788.1784206043751
 20
625.0357433425149
 30
0.0
 10
785.8148515532548
 20
622.2268505602758
 30
0.0
 10
783.9596146573681
 20
619.0966983556484
 30
0.0
 10
782.7236837453869
 20
615.8839081354839
 30
0.0
 10
781.9993003422687
 20
612.6899850947094
 30
0.0
 10
781.9148694884708
 20
610.6165364190492
 30
0.0
 10
781.8722183906942
 20
609.5691128976441
 30
0.0
  0
LINE
  5
2DB
330
1F
100
AcDbEntity
  8
0
  6
Continuous
 62
     8
370
    18
100
AcDbLine
 10
803.6151110243
 20
631.3148252896
 30
0.0
 11
803.6151106272
 21
631.3191128976
 31
0.0
  0
LINE
  5
2DC
330
1F
100
AcDbEntity
  8
0
  6
Continuous
 62
     8
370
    18
100
AcDbLine
 10
803.6151110243
 20
631.3103853652
 30
0.0
 11
803.6151110243
 21
631.3148252896
 31
0.0
  0
SPLINE
  5
2DD
330
1F
100
AcDbEntity
  8
0
  6
Continuous
 62
     8
370
    18
100
AcDbSpline
210
0.0
220
0.0
230
1.0
 70
     8
 71
     3
 72
    18
 73
    14
 74
     0
 42
0.000000001
 43
0.00000001
 40
0.0
 40
0.0
 40
0.0
 40
0.0
 40
0.0000017576874324
 40
0.0364929107765218
 40
0.1834197338049776
 40
0.2877695105078345
 40
0.3921441025453837
 40
0.4993591877198578
 40
0.6063886859551895
 40
0.7134284383809963
 40
0.8178270444226967
 40
0.9079734932070074
 40
1.0
 40
1.0
 40
1.0
 40
1.0
 10
909.6151110242714
 20
587.8234005056559
 30
0.0
 10
909.6151310107656
 20
587.823400505864
 30
0.0
 10
910.0300883760448
 20
587.8234048274284
 30
0.0
 10
912.1152971998621
 20
587.8857892297453
 30
0.0
 10
915.3722461473371
 20
588.4549545382199
 30
0.0
 10
919.1595664993887
 20
589.9198948690597
 30
0.0
 10
922.2588035399584
 20
591.7681903920784
 30
0.0
 10
925.0518014441676
 20
594.1024824527746
 30
0.0
 10
927.4153704952885
 20
596.9113752350133
 30
0.0
 10
929.270607391175
 20
600.0415274396407
 30
0.0
 10
930.5065383031563
 20
603.2543176598052
 30
0.0
 10
931.2309217062744
 20
606.4482407005797
 30
0.0
 10
931.3153525600725
 20
608.5216893762398
 30
0.0
 10
931.3580036578489
 20
609.5691128976449
 30
0.0
  0
LINE
  5
2DE
330
1F
100
AcDbEntity
  8
0
  6
Continuous
 62
     8
370
    18
100
AcDbLine
 10
909.6151110243
 20
587.8234005057
 30
0.0
 11
909.6151114213
 21
587.8191128976
 31
0.0
  0
LINE
  5
2DF
330
1F
100
AcDbEntity
  8
0
  6
Continuous
 62
     8
370
    18
100
AcDbLine
 10
909.6151110243
 20
587.8278404301
 30
0.0
 11
909.6151110243
 21
587.8234005057
 31
0.0
  0
LINE
  5
2E0
330
1F
100
AcDbEntity
  8
0
  6
Continuous
 62
     8
370
    18
100
AcDbLine
 10
810.6151110243
 20
629.5691128976
 30
0.0
 11
902.6151110243
 21
629.5691128976
 31
0.0
  0
LINE
  5
2E1
330
1F
100
AcDbEntity
  8
0
  6
Continuous
 62
     8
370
    18
100
AcDbLine
 10
810.6151110243
 20
589.5691128976
 30
0.0
 11
902.6151110243
 21
589.5691128976
 31
0.0
  0
LINE
  5
2E2
330
1F
100
AcDbEntity
  8
0
  6
Continuous
 62
     8
370
    18
100
AcDbLine
 10
803.6151110243
 20
631.3148252896
 30
0.0
 11
909.6151110243
 21
631.3148252896
 31
0.0
  0
LINE
  5
2E3
330
1F
100
AcDbEntity
  8
0
  6
Continuous
 62
     8
370
    18
100
AcDbLine
 10
803.6151110243
 20
587.8234005057
 30
0.0
 11
909.6151110243
 21
587.8234005057
 31
0.0
  0
LINE
  5
2E4
330
1F
100
AcDbEntity
  8
0
  6
Continuous
 62
     8
370
    18
100
AcDbLine
 10
909.6151110243
 20
587.8191128976
 30
0.0
 11
909.6151110243
 21
583.3191128976
 31
0.0
  0
LINE
  5
2E5
330
1F
100
AcDbEntity
  8
0
  6
Continuous
 62
     8
370
    18
100
AcDbLine
 10
909.6151110243
 20
631.3191128976
 30
0.0
 11
909.6151110243
 21
635.8191128976
 31
0.0
  0
ARC
  5
2E6
330
1F
100
AcDbEntity
  8
0
  6
Continuous
 62
     8
370
    18
100
AcDbCircle
 10
909.6151110243
 20
609.5691128976
 30
0.0
 40
26.24999999999977
100
AcDbArc
 50
270.0
 51
90.0
  0
LINE
  5
2E7
330
1F
100
AcDbEntity
  8
0
  6
Continuous
 62
     8
370
    18
100
AcDbLine
 10
909.6151110243
 20
583.3191128976
 30
0.0
 11
909.6151110243
 21
582.5691128976
 31
0.0
  0
LINE
  5
2E8
330
1F
100
AcDbEntity
  8
0
  6
Continuous
 62
     8
370
    18
100
AcDbLine
 10
909.6151110243
 20
635.8191128976
 30
0.0
 11
909.6151110243
 21
636.5691128976
 31
0.0
  0
LINE
  5
2E9
330
1F
100
AcDbEntity
  8
0
  6
Continuous
 62
     8
370
    18
100
AcDbLine
 10
803.6151110243
 20
631.3191128976
 30
0.0
 11
803.6151110243
 21
635.8191128976
 31
0.0
  0
LINE
  5
2EA
330
1F
100
AcDbEntity
  8
0
  6
Continuous
 62
     8
370
    18
100
AcDbLine
 10
803.6151110243
 20
635.8191128976
 30
0.0
 11
909.6151110243
 21
635.8191128976
 31
0.0
  0
LINE
  5
2EB
330
1F
100
AcDbEntity
  8
0
  6
Continuous
 62
     8
370
    18
100
AcDbLine
 10
803.6151110243
 20
635.8191128976
 30
0.0
 11
803.6151110243
 21
636.5691128976
 31
0.0
  0
LINE
  5
2EC
330
1F
100
AcDbEntity
  8
0
  6
Continuous
 62
     8
370
    18
100
AcDbLine
 10
803.6151110243
 20
587.8191128976
 30
0.0
 11
803.6151110243
 21
583.3191128976
 31
0.0
  0
ARC
  5
2ED
330
1F
100
AcDbEntity
  8
0
  6
Continuous
 62
     8
370
    18
100
AcDbCircle
 10
803.6151110243
 20
609.5691128976
 30
0.0
 40
26.24999999999966
100
AcDbArc
 50
90.0
 51
270.0
  0
LINE
  5
2EE
330
1F
100
AcDbEntity
  8
0
  6
Continuous
 62
     8
370
    18
100
AcDbLine
 10
803.6151110243
 20
583.3191128976
 30
0.0
 11
803.6151110243
 21
582.5691128976
 31
0.0
  0
LINE
  5
2EF
330
1F
100
AcDbEntity
  8
0
  6
Continuous
 62
     8
370
    18
100
AcDbLine
 10
803.6151110243
 20
583.3191128976
 30
0.0
 11
909.6151110243
 21
583.3191128976
 31
0.0
  0
CIRCLE
  5
2F0
330
1F
100
AcDbEntity
  8
0
  6
Continuous
 62
     8
370
    18
100
AcDbCircle
 10
856.6151110243
 20
609.5691128976
 30
0.0
 40
5.614709433546636
  0
ARC
  5
2F1
330
1F
100
AcDbEntity
  8
0
  6
Continuous
 62
     8
370
    18
100
AcDbCircle
 10
856.6151110243
 20
609.5691128976
 30
0.0
 40
7.463480267439774
100
AcDbArc
 50
126.4944476701
 51
233.50555233
  0
ARC
  5
2F2
330
1F
100
AcDbEntity
  8
0
  6
Continuous
 62
     8
370
    18
100
AcDbCircle
 10
856.6151110243
 20
609.5691128976
 30
0.0
 40
7.463480267439844
100
AcDbArc
 50
306.49444767
 51
53.5055523299
  0
ARC
  5
2F3
330
1F
100
AcDbEntity
  8
0
  6
Continuous
 62
     8
370
    18
100
AcDbCircle
 10
856.6151110243
 20
609.5691128976
 30
0.0
 40
8.284968901367034
100
AcDbArc
 50
133.5974061618
 51
226.4025938382
  0
ARC
  5
2F4
330
1F
100
AcDbEntity
  8
0
  6
Continuous
 62
     8
370
    18
100
AcDbCircle
 10
856.6151110243
 20
609.5691128976
 30
0.0
 40
8.284968901367122
100
AcDbArc
 50
313.5974061618
 51
46.4025938382
  0
SPLINE
  5
2F5
330
1F
100
AcDbEntity
  8
0
  6
Continuous
 62
     7
370
    35
100
AcDbSpline
210
0.0
220
0.0
230
1.0
 70
     8
 71
     3
 72
    21
 73
    17
 74
     0
 42
0.000000001
 43
0.00000001
 40
0.0
 40
0.0
 40
0.0
 40
0.0
 40
0.0194297446417193
 40
0.1063134160535361
 40
0.1971827435429494
 40
0.243126996557592
 40
0.2877601062883902
 40
0.3091647742104974
 40
0.3297204036239543
 40
0.3691429066007142
 40
0.4450527365625919
 40
0.5209828835672837
 40
0.6006991125028577
 40
0.780329056371262
 40
0.9937101053062675
 40
1.0
 40
1.0
 40
1.0
 40
1.0
 10
1803.936176263885
 20
959.1718330260877
 30
0.0
 10
1803.899162768083
 20
959.2609548138336
 30
0.0
 10
1803.696636628321
 20
959.7486010425804
 30
0.0
 10
1803.064751070512
 20
960.5230342075166
 30
0.0
 10
1802.202891598593
 20
961.231791533442
 30
0.0
 10
1801.424743110725
 20
961.6770074931947
 30
0.0
 10
1800.893011686925
 20
961.8918587305237
 30
0.0
 10
1800.631149541642
 20
962.238011752699
 30
0.0
 10
1800.505790664856
 20
962.6127926697266
 30
0.0
 10
1800.554414116995
 20
963.240474429144
 30
0.0
 10
1800.528063137584
 20
964.0374783192294
 30
0.0
 10
1800.536497594685
 20
964.8205479008637
 30
0.0
 10
1800.533446656437
 20
965.6624847757312
 30
0.0
 10
1800.535212499129
 20
966.2483812557527
 30
0.0
 10
1800.53466199058
 20
966.4429569154412
 30
0.0
 10
1800.534664392839
 20
966.3844340914487
 30
0.0
 10
1800.534664461623
 20
966.3827583923598
 30
0.0
  0
ARC
  5
2F6
330
1F
100
AcDbEntity
  8
0
  6
Continuous
 62
     7
370
    35
100
AcDbCircle
 10
1791.9712323596
 20
911.4808296026
 30
0.0
 40
14.99995482260113
100
AcDbArc
 50
270.017911725
 51
305.1236860193
  0
ARC
  5
2F7
330
1F
100
AcDbEntity
  8
0
  6
Continuous
 62
     7
370
    35
100
AcDbCircle
 10
1752.0980885378
 20
911.4808302124
 30
0.0
 40
14.9999554324571
100
AcDbArc
 50
235.2278938985
 51
269.9820874844
  0
SPLINE
  5
2F8
330
1F
100
AcDbEntity
  8
0
  6
Continuous
 62
     7
370
    35
100
AcDbSpline
210
0.0
220
0.0
230
1.0
 70
     8
 71
     3
 72
    14
 73
    10
 74
     0
 42
0.000000001
 43
0.00000001
 40
0.0
 40
0.0
 40
0.0
 40
0.0
 40
0.0318510699564631
 40
0.1445183584966866
 40
0.2397810598285078
 40
0.3260834741499795
 40
0.5119178316907391
 40
0.8180500483371596
 40
1.0
 40
1.0
 40
1.0
 40
1.0
 10
1740.149945853986
 20
959.2046762610889
 30
0.0
 10
1740.150789397393
 20
959.2063248216486
 30
0.0
 10
1740.154616820102
 20
959.2138048612926
 30
0.0
 10
1740.145553744425
 20
959.1966221211829
 30
0.0
 10
1740.124489000434
 20
959.1594278081872
 30
0.0
 10
1740.071969853043
 20
959.0709895982063
 30
0.0
 10
1739.958828969329
 20
958.9017890658505
 30
0.0
 10
1739.816424699118
 20
958.7110839555689
 30
0.0
 10
1739.687707598869
 20
958.5955270912813
 30
0.0
 10
1739.639723731215
 20
958.552449168676
 30
0.0
  0
SPLINE
  5
2F9
330
1F
100
AcDbEntity
  8
0
  6
Continuous
 62
     7
370
    35
100
AcDbSpline
210
0.0
220
0.0
230
1.0
 70
     8
 71
     3
 72
    14
 73
    10
 74
     0
 42
0.000000001
 43
0.00000001
 40
0.0
 40
0.0
 40
0.0
 40
0.0
 40
0.1910307359710863
 40
0.5100956343801338
 40
0.6698730213951888
 40
0.758435136029407
 40
0.8292863577622785
 40
0.9200950248248646
 40
1.0
 40
1.0
 40
1.0
 40
1.0
 10
1804.392740310571
 20
958.5852158113678
 30
0.0
 10
1804.346275922728
 20
958.6299973165703
 30
0.0
 10
1804.222205409819
 20
958.7495741490035
 30
0.0
 10
1804.088646362637
 20
958.9321649289303
 30
0.0
 10
1803.986532082608
 20
959.0888965866662
 30
0.0
 10
1803.945423360688
 20
959.1585377050226
 30
0.0
 10
1803.926837606951
 20
959.1912573626771
 30
0.0
 10
1803.917619199246
 20
959.2081388923144
 30
0.0
 10
1803.918294236909
 20
959.2068875685951
 30
0.0
 10
1803.918610197994
 20
959.2063018685338
 30
0.0
  0
SPLINE
  5
2FA
330
1F
100
AcDbEntity
  8
0
  6
Continuous
 62
     7
370
    35
100
AcDbSpline
210
0.0
220
0.0
230
1.0
 70
     8
 71
     3
 72
    13
 73
     9
 74
     0
 42
0.000000001
 43
0.00000001
 40
0.0
 40
0.0
 40
0.0
 40
0.0
 40
0.2312645567471204
 40
0.5779681685232901
 40
0.7146434892266087
 40
0.8157376953924268
 40
0.9213272861237966
 40
1.0
 40
1.0
 40
1.0
 40
1.0
 10
1744.187258237291
 20
898.7306924788161
 30
0.0
 10
1744.208263015092
 20
898.7215883590521
 30
0.0
 10
1744.260757409938
 20
898.6988356662057
 30
0.0
 10
1744.32350352909
 20
898.6646694863201
 30
0.0
 10
1744.365687039674
 20
898.6414741361857
 30
0.0
 10
1744.381055884405
 20
898.6327609008081
 30
0.0
 10
1744.387676633882
 20
898.628960373682
 30
0.0
 10
1744.387266418539
 20
898.6291967882764
 30
0.0
 10
1744.387091272817
 20
898.6292977279547
 30
0.0
  0
LINE
  5
2FB
330
1F
100
AcDbEntity
  8
0
  6
Continuous
 62
     7
370
    35
100
AcDbLine
 10
1744.1984680052
 20
898.7434078211
 30
0.0
 11
1744.0721801638
 21
898.8221093903
 31
0.0
  0
SPLINE
  5
2FC
330
1F
100
AcDbEntity
  8
0
  6
Continuous
 62
     7
370
    35
100
AcDbSpline
210
0.0
220
0.0
230
1.0
 70
     8
 71
     3
 72
    12
 73
     8
 74
     0
 42
0.000000001
 43
0.00000001
 40
0.0
 40
0.0
 40
0.0
 40
0.0
 40
0.1423628141196955
 40
0.2495218665520439
 40
0.3688819399531781
 40
0.6085285388588053
 40
1.0
 40
1.0
 40
1.0
 40
1.0
 10
1799.682062667012
 20
898.629197689765
 30
0.0
 10
1799.682507630476
 20
898.6294569599736
 30
0.0
 10
1799.683287525947
 20
898.6299113875343
 30
0.0
 10
1799.698738215286
 20
898.6387335940886
 30
0.0
 10
1799.731545916301
 20
898.6568382030587
 30
0.0
 10
1799.799000801421
 20
898.6942832196397
 30
0.0
 10
1799.860643030492
 20
898.7186912783145
 30
0.0
 10
1799.898878623814
 20
898.7338311689275
 30
0.0
  0
ARC
  5
2FD
330
1F
100
AcDbEntity
  8
0
  6
Continuous
 62
     7
370
    35
100
AcDbCircle
 10
1803.5346603451
 20
909.4808747804
 30
0.0
 40
13.00000000000011
100
AcDbArc
 50
270.0
 51
0.0
  0
LINE
  5
2FE
330
1F
100
AcDbEntity
  8
0
  6
Continuous
 62
     7
370
    35
100
AcDbLine
 10
1791.5333598938
 20
896.4808747804
 30
0.0
 11
1803.5346603451
 21
896.4808747804
 31
0.0
  0
SPLINE
  5
2FF
330
1F
100
AcDbEntity
  8
0
  6
Continuous
 62
     7
370
    35
100
AcDbSpline
210
0.0
220
0.0
230
1.0
 70
     8
 71
     3
 72
    10
 73
     6
 74
     0
 42
0.000000001
 43
0.00000001
 40
0.0
 40
0.0
 40
0.0
 40
0.0
 40
0.2439500987928143
 40
0.6120271436518188
 40
1.0
 40
1.0
 40
1.0
 40
1.0
 10
1800.534679985726
 20
963.065842717944
 30
0.0
 10
1800.534678564049
 20
963.5446714080302
 30
0.0
 10
1800.534674997314
 20
964.7459669063401
 30
0.0
 10
1800.534668723501
 20
966.1129191845396
 30
0.0
 10
1800.534667271096
 20
966.6534811998995
 30
0.0
 10
1800.534666525783
 20
966.9308747803996
 30
0.0
  0
LINE
  5
300
330
1F
100
AcDbEntity
  8
0
  6
Continuous
 62
     7
370
    35
100
AcDbLine
 10
1807.0346603451
 20
989.9273132799
 30
0.0
 11
1737.0346603451
 21
989.9273132799
 31
0.0
  0
LWPOLYLINE
  5
301
330
1F
100
AcDbEntity
  8
0
  6
Continuous
 62
     7
370
    35
100
AcDbPolyline
 90
        3
 70
   128
 43
0.0
 10
1739.0346603451
 20
975.6892317692
 10
1739.0703725782
 20
975.3129691366
 10
1739.1596603451
 20
974.9932612239
  0
LINE
  5
302
330
1F
100
AcDbEntity
  8
0
  6
Continuous
 62
     7
370
    35
100
AcDbLine
 10
1739.0346603451
 20
976.9273132799
 30
0.0
 11
1739.0346603451
 21
975.6892317692
 31
0.0
  0
ARC
  5
303
330
1F
100
AcDbEntity
  8
0
  6
Continuous
 62
     7
370
    35
100
AcDbCircle
 10
1736.0346603451
 20
978.92731328
 30
0.0
 40
1.0
100
AcDbArc
 50
270.0
 51
0.0
  0
LINE
  5
304
330
1F
100
AcDbEntity
  8
0
  6
Continuous
 62
     7
370
    35
100
AcDbLine
 10
1805.0346603451
 20
975.6892317692
 30
0.0
 11
1805.0346603451
 21
976.9273132799
 31
0.0
  0
ARC
  5
305
330
1F
100
AcDbEntity
  8
0
  6
Continuous
 62
     7
370
    35
100
AcDbCircle
 10
1808.0346603451
 20
978.92731328
 30
0.0
 40
0.9999999999998863
100
AcDbArc
 50
180.0
 51
270.0
  0
LWPOLYLINE
  5
306
330
1F
100
AcDbEntity
  8
0
  6
Continuous
 62
     7
370
    35
100
AcDbPolyline
 90
        3
 70
   128
 43
0.0
 10
1805.0346603451
 20
975.6892317692
 10
1804.998948112
 20
975.3129691366
 10
1804.9096603451
 20
974.9932612239
  0
LINE
  5
307
330
1F
100
AcDbEntity
  8
0
  6
Continuous
 62
     7
370
    35
100
AcDbLine
 10
1800.0346603451
 20
967.6540634464
 30
0.0
 11
1800.0346603451
 21
966.9308747805
 31
0.0
  0
LINE
  5
308
330
1F
100
AcDbEntity
  8
0
  6
Continuous
 62
     7
370
    35
100
AcDbLine
 10
1744.0346603451
 20
966.9308747805
 30
0.0
 11
1745.585543444
 21
966.9308747805
 31
0.0
  0
LINE
  5
309
330
1F
100
AcDbEntity
  8
0
  6
Continuous
 62
     7
370
    35
100
AcDbLine
 10
1798.4837772462
 20
966.9308747805
 30
0.0
 11
1800.0346603451
 21
966.9308747805
 31
0.0
  0
LINE
  5
30A
330
1F
100
AcDbEntity
  8
0
  6
Continuous
 62
     7
370
    35
100
AcDbLine
 10
1744.0346603451
 20
967.6540634464
 30
0.0
 11
1744.0346603451
 21
966.9308747805
 31
0.0
  0
SPLINE
  5
30B
330
1F
100
AcDbEntity
  8
0
  6
Continuous
 62
     7
370
    35
100
AcDbSpline
210
0.0
220
0.0
230
1.0
 70
     8
 71
     3
 72
    12
 73
     8
 74
     0
 42
0.000000001
 43
0.00000001
 40
0.0
 40
0.0
 40
0.0
 40
0.0
 40
0.000011396415745
 40
0.0165615426248908
 40
0.2254762501766557
 40
0.6569695733824095
 40
0.9999999999999999
 40
0.9999999999999999
 40
0.9999999999999999
 40
0.9999999999999999
 10
1740.142033093693
 20
958.8869443850567
 30
0.0
 10
1740.142027902387
 20
958.8869305764017
 30
0.0
 10
1740.134483772141
 20
958.8668635101498
 30
0.0
 10
1740.030426806151
 20
958.5901645313986
 30
0.0
 10
1739.67808901275
 20
957.653928836582
 30
0.0
 10
1739.098230190307
 20
956.0789477897836
 30
0.0
 10
1738.66344812879
 20
954.8271834349785
 30
0.0
 10
1738.470886601681
 20
954.2727869290593
 30
0.0
  0
SPLINE
  5
30C
330
1F
100
AcDbEntity
  8
0
  6
Continuous
 62
     7
370
    35
100
AcDbSpline
210
0.0
220
0.0
230
1.0
 70
     8
 71
     3
 72
     9
 73
     5
 74
     0
 42
0.000000001
 43
0.00000001
 40
0.0
 40
0.0
 40
0.0
 40
0.0
 40
0.1562903953770464
 40
1.0
 40
1.0
 40
1.0
 40
1.0
 10
1740.151328880444
 20
959.2065450834249
 30
0.0
 10
1740.157124234309
 20
959.218538121584
 30
0.0
 10
1740.194204912561
 20
959.2952737273141
 30
0.0
 10
1740.200105529696
 20
959.3008476046474
 30
0.0
 10
1740.205083937046
 20
959.3055503384884
 30
0.0
  0
SPLINE
  5
30D
330
1F
100
AcDbEntity
  8
0
  6
Continuous
 62
     7
370
    35
100
AcDbSpline
210
0.0
220
0.0
230
1.0
 70
     8
 71
     3
 72
    11
 73
     7
 74
     0
 42
0.000000001
 43
0.00000001
 40
0.0
 40
0.0
 40
0.0
 40
0.0
 40
0.0402999249154325
 40
0.2187640754520135
 40
0.4992077406743786
 40
1.0
 40
1.0
 40
1.0
 40
1.0
 10
1743.514009239802
 20
962.8238298885176
 30
0.0
 10
1743.521585066101
 20
962.8785441368718
 30
0.0
 10
1743.562709674633
 20
963.1755549124601
 30
0.0
 10
1743.516931641264
 20
963.862059083089
 30
0.0
 10
1743.544763478989
 20
965.17457392036
 30
0.0
 10
1743.538606881768
 20
966.2448197569465
 30
0.0
 10
1743.534660345089
 20
966.9308747803992
 30
0.0
  0
SPLINE
  5
30E
330
1F
100
AcDbEntity
  8
0
  6
Continuous
 62
     7
370
    35
100
AcDbSpline
210
0.0
220
0.0
230
1.0
 70
    24
 71
     3
 72
    13
 73
     9
 74
     0
 42
0.000000001
 43
0.00000001
 40
0.0
 40
0.0
 40
0.0
 40
0.0
 40
0.3696468379657634
 40
0.7491630569136041
 40
0.8272821734125434
 40
0.9051799163354716
 40
0.982095546192443
 40
1.0
 40
1.0
 40
1.0
 40
1.0
 10
1743.534660345089
 20
966.9308747803992
 30
0.0
 10
1743.522784879168
 20
966.9308747803992
 30
0.0
 10
1743.498716878477
 20
966.9308747803996
 30
0.0
 10
1743.63370901757
 20
966.9308747803991
 30
0.0
 10
1743.468826779301
 20
966.9308747803993
 30
0.0
 10
1743.78516930153
 20
966.9308747803985
 30
0.0
 10
1744.575913548075
 20
966.9308747803985
 30
0.0
 10
1745.425180206186
 20
966.9308747803989
 30
0.0
 10
1745.585543444256
 20
966.9308747803989
 30
0.0
  0
SPLINE
  5
30F
330
1F
100
AcDbEntity
  8
0
  6
Continuous
 62
     7
370
    35
100
AcDbSpline
210
0.0
220
0.0
230
1.0
 70
    24
 71
     3
 72
    10
 73
     6
 74
     0
 42
0.000000001
 43
0.00000001
 40
0.0
 40
0.0
 40
0.0
 40
0.0
 40
0.1884291686420529
 40
0.5522845095519877
 40
1.0
 40
1.0
 40
1.0
 40
1.0
 10
1772.034660345089
 20
936.2521136047455
 30
0.0
 10
1772.034660345089
 20
935.7243295538473
 30
0.0
 10
1772.034660345089
 20
934.1773983764696
 30
0.0
 10
1772.034660345089
 20
931.3655978585456
 30
0.0
 10
1772.034660345089
 20
929.093063732477
 30
0.0
 10
1772.034660345089
 20
927.8393854440275
 30
0.0
  0
SPLINE
  5
310
330
1F
100
AcDbEntity
  8
0
  6
Continuous
 62
     7
370
    35
100
AcDbSpline
210
0.0
220
0.0
230
1.0
 70
    24
 71
     3
 72
    10
 73
     6
 74
     0
 42
0.000000001
 43
0.00000001
 40
0.0
 40
0.0
 40
0.0
 40
0.0
 40
0.3005544716334864
 40
0.6481927251021369
 40
1.0
 40
1.0
 40
1.0
 40
1.0
 10
1772.034660345089
 20
924.0273132799485
 30
0.0
 10
1772.034660345089
 20
922.0235919711187
 30
0.0
 10
1772.034660345089
 20
917.7022535845798
 30
0.0
 10
1772.034660345089
 20
911.2154327055832
 30
0.0
 10
1772.034660345089
 20
906.9249229184556
 30
0.0
 10
1772.034660345089
 20
904.7668813056124
 30
0.0
  0
SPLINE
  5
311
330
1F
100
AcDbEntity
  8
0
  6
Continuous
 62
     7
370
    35
100
AcDbSpline
210
0.0
220
0.0
230
1.0
 70
     8
 71
     3
 72
    15
 73
    11
 74
     0
 42
0.000000001
 43
0.00000001
 40
0.0
 40
0.0
 40
0.0
 40
0.0
 40
0.1214527241786849
 40
0.2436356162156998
 40
0.3679634748124417
 40
0.4929996451849655
 40
0.6185865433805107
 40
0.7450337263103981
 40
0.8719902588119006
 40
1.0
 40
1.0
 40
1.0
 40
1.0
 10
1735.296306296486
 20
943.4938365139808
 30
0.0
 10
1734.964860098228
 20
942.02044975904
 30
0.0
 10
1734.299975063323
 20
939.0648183197984
 30
0.0
 10
1733.735270084273
 20
934.5198643255634
 30
0.0
 10
1733.473655404346
 20
929.9061331177727
 30
0.0
 10
1733.567621843016
 20
925.2420251385753
 30
0.0
 10
1734.030771425333
 20
920.5730054892534
 30
0.0
 10
1734.892245910655
 20
915.937980940022
 30
0.0
 10
1736.132439532375
 20
911.3524744897139
 30
0.0
 10
1737.311329424691
 20
908.4084454648938
 30
0.0
 10
1737.903209236169
 20
906.9303503895576
 30
0.0
  0
SPLINE
  5
312
330
1F
100
AcDbEntity
  8
0
  6
Continuous
 62
     7
370
    35
100
AcDbSpline
210
0.0
220
0.0
230
1.0
 70
     8
 71
     3
 72
    12
 73
     8
 74
     0
 42
0.000000001
 43
0.00000001
 40
0.0
 40
0.0
 40
0.0
 40
0.0
 40
0.0000113964157658
 40
0.0165615426249112
 40
0.2254762501766199
 40
0.6569695733823584
 40
1.0
 40
1.0
 40
1.0
 40
1.0
 10
1803.927287596486
 20
958.886944385057
 30
0.0
 10
1803.927292787792
 20
958.8869305764019
 30
0.0
 10
1803.934836918029
 20
958.8668635101799
 30
0.0
 10
1804.03889388408
 20
958.5901645312136
 30
0.0
 10
1804.391231677379
 20
957.6539288367561
 30
0.0
 10
1804.971090499883
 20
956.078947789741
 30
0.0
 10
1805.405872561393
 20
954.8271834349656
 30
0.0
 10
1805.598434088498
 20
954.2727869290596
 30
0.0
  0
SPLINE
  5
313
330
1F
100
AcDbEntity
  8
0
  6
Continuous
 62
     7
370
    35
100
AcDbSpline
210
0.0
220
0.0
230
1.0
 70
     8
 71
     3
 72
    15
 73
    11
 74
     0
 42
0.000000001
 43
0.00000001
 40
0.0
 40
0.0
 40
0.0
 40
0.0
 40
0.1214527241786902
 40
0.2436356162157053
 40
0.3679634748124466
 40
0.4929996451849701
 40
0.6185865433805134
 40
0.7450337263104058
 40
0.8719902588119082
 40
1.0
 40
1.0
 40
1.0
 40
1.0
 10
1808.773014393692
 20
943.4938365139811
 30
0.0
 10
1809.10446059195
 20
942.0204497590404
 30
0.0
 10
1809.769345626857
 20
939.0648183197987
 30
0.0
 10
1810.334050605906
 20
934.5198643255638
 30
0.0
 10
1810.595665285832
 20
929.906133117773
 30
0.0
 10
1810.501698847163
 20
925.2420251385756
 30
0.0
 10
1810.038549264847
 20
920.5730054892535
 30
0.0
 10
1809.177074779523
 20
915.9379809400224
 30
0.0
 10
1807.936881157803
 20
911.3524744897142
 30
0.0
 10
1806.757991265488
 20
908.4084454648942
 30
0.0
 10
1806.16611145401
 20
906.9303503895577
 30
0.0
  0
SPLINE
  5
314
330
1F
100
AcDbEntity
  8
0
  6
Continuous
 62
     7
370
    35
100
AcDbSpline
210
0.0
220
0.0
230
1.0
 70
    24
 71
     3
 72
    13
 73
     9
 74
     0
 42
0.000000001
 43
0.00000001
 40
0.0
 40
0.0
 40
0.0
 40
0.0
 40
0.3696468379658047
 40
0.7491630569136879
 40
0.8272821734126358
 40
0.9051799163355727
 40
0.9820955461925527
 40
1.0
 40
1.0
 40
1.0
 40
1.0
 10
1800.534660345089
 20
966.9308747803993
 30
0.0
 10
1800.54653581101
 20
966.9308747803996
 30
0.0
 10
1800.570603811701
 20
966.9308747803997
 30
0.0
 10
1800.435611672608
 20
966.9308747803992
 30
0.0
 10
1800.600493910877
 20
966.9308747803997
 30
0.0
 10
1800.284151388648
 20
966.9308747803987
 30
0.0
 10
1799.493407142104
 20
966.9308747803989
 30
0.0
 10
1798.644140483994
 20
966.930874780399
 30
0.0
 10
1798.483777245925
 20
966.930874780399
 30
0.0
  0
SPLINE
  5
315
330
1F
100
AcDbEntity
  8
0
  6
Continuous
 62
     7
370
    35
100
AcDbSpline
210
0.0
220
0.0
230
1.0
 70
    24
 71
     3
 72
    14
 73
    10
 74
     0
 42
0.000000001
 43
0.00000001
 40
0.0
 40
0.0
 40
0.0
 40
0.0
 40
0.149783861674635
 40
0.3039198677007078
 40
0.4537011775423317
 40
0.6078081864720632
 40
0.757933700022959
 40
0.9123691506710971
 40
1.0
 40
1.0
 40
1.0
 40
1.0
 10
1772.034660345089
 20
904.7668813056124
 30
0.0
 10
1772.034660345089
 20
904.0417667927713
 30
0.0
 10
1772.034660345089
 20
902.5704687213597
 30
0.0
 10
1772.034660345089
 20
900.6760299246099
 30
0.0
 10
1772.034660345089
 20
899.0595507956652
 30
0.0
 10
1772.034660345089
 20
897.8094791389699
 30
0.0
 10
1772.034660345089
 20
896.9415815286872
 30
0.0
 10
1772.034660345089
 20
896.5334601148768
 30
0.0
 10
1772.034660345089
 20
896.4948515391678
 30
0.0
 10
1772.034660345089
 20
896.4808747803993
 30
0.0
  0
LINE
  5
316
330
1F
100
AcDbEntity
  8
0
  6
Continuous
 62
     7
370
    35
100
AcDbLine
 10
1799.1100729719
 20
898.3779863221
 30
0.0
 11
1799.6255106122
 21
898.5965043636
 31
0.0
  0
SPLINE
  5
317
330
1F
100
AcDbEntity
  8
0
  6
Continuous
 62
     7
370
    35
100
AcDbSpline
210
0.0
220
0.0
230
1.0
 70
     8
 71
     3
 72
    10
 73
     6
 74
     0
 42
0.000000001
 43
0.00000001
 40
0.0
 40
0.0
 40
0.0
 40
0.0
 40
0.3651912706206907
 40
0.9388408861887179
 40
1.0
 40
1.0
 40
1.0
 40
1.0
 10
1800.005567210022
 20
898.8290617950297
 30
0.0
 10
1800.075071537269
 20
898.8729478666295
 30
0.0
 10
1800.253754625929
 20
898.9857710408583
 30
0.0
 10
1800.469143976136
 20
899.1283451145956
 30
0.0
 10
1800.602974460994
 20
899.2267557486623
 30
0.0
 10
1800.615868035823
 20
899.2362368835152
 30
0.0
  0
SPLINE
  5
318
330
1F
100
AcDbEntity
  8
0
  6
Continuous
 62
     7
370
    35
100
AcDbSpline
210
0.0
220
0.0
230
1.0
 70
    24
 71
     3
 72
    18
 73
    14
 74
     0
 42
0.000000001
 43
0.00000001
 40
0.0
 40
0.0
 40
0.0
 40
0.0
 40
0.0528900501225382
 40
0.1308503043354514
 40
0.2088349706568537
 40
0.2788361590001403
 40
0.3488290097785831
 40
0.4127449371310026
 40
0.4766197031471406
 40
0.5405641088728134
 40
0.6045882679846268
 40
0.8596063559736797
 40
1.0
 40
1.0
 40
1.0
 40
1.0
 10
1772.034660345089
 20
896.4808747803993
 30
0.0
 10
1772.92181429103
 20
896.4808747803993
 30
0.0
 10
1775.116638526396
 20
896.4808747803993
 30
0.0
 10
1778.477351059642
 20
896.4808747803994
 30
0.0
 10
1781.850850727097
 20
896.4808747803993
 30
0.0
 10
1784.770554450746
 20
896.4808747803994
 30
0.0
 10
1787.155761540894
 20
896.4808747803994
 30
0.0
 10
1789.075792604523
 20
896.4808747803994
 30
0.0
 10
1790.51859095399
 20
896.4808747803994
 30
0.0
 10
1791.435496501412
 20
896.4808747803994
 30
0.0
 10
1791.977670514945
 20
896.4808747803994
 30
0.0
 10
1791.947939597626
 20
896.4808747803994
 30
0.0
 10
1791.944461335878
 20
896.4808747803994
 30
0.0
 10
1791.943226355218
 20
896.4808747803994
 30
0.0
  0
LINE
  5
319
330
1F
100
AcDbEntity
  8
0
  6
Continuous
 62
     7
370
    35
100
AcDbLine
 10
1744.9592477183
 20
898.3779863221
 30
0.0
 11
1744.443810078
 21
898.5965043636
 31
0.0
  0
SPLINE
  5
31A
330
1F
100
AcDbEntity
  8
0
  6
Continuous
 62
     7
370
    35
100
AcDbSpline
210
0.0
220
0.0
230
1.0
 70
    24
 71
     3
 72
    18
 73
    14
 74
     0
 42
0.000000001
 43
0.00000001
 40
0.0
 40
0.0
 40
0.0
 40
0.0
 40
0.0528858667102826
 40
0.1296739535442636
 40
0.2088264841310593
 40
0.2780198271463601
 40
0.3488116530586108
 40
0.4119722453845627
 40
0.4765946606109375
 40
0.5395794985731234
 40
0.6046207084835614
 40
0.8595628981181083
 40
1.0
 40
1.0
 40
1.0
 40
1.0
 10
1772.034660345089
 20
896.4808747803993
 30
0.0
 10
1771.147565636372
 20
896.4808747803993
 30
0.0
 10
1768.972446172458
 20
896.4808747803993
 30
0.0
 10
1765.608850494049
 20
896.4808747803997
 30
0.0
 10
1762.246882901019
 20
896.4808747803978
 30
0.0
 10
1759.307780669437
 20
896.4808747803997
 30
0.0
 10
1756.931435029262
 20
896.4808747803992
 30
0.0
 10
1754.996541097593
 20
896.4808747803993
 30
0.0
 10
1753.570481651156
 20
896.4808747803993
 30
0.0
 10
1752.605130025288
 20
896.4808747803993
 30
0.0
 10
1752.128530201409
 20
896.4808747803993
 30
0.0
 10
1752.119380923859
 20
896.4808747803993
 30
0.0
 10
1752.125424170378
 20
896.4808747803993
 30
0.0
 10
1752.127570706743
 20
896.4808747803993
 30
0.0
  0
SPLINE
  5
31B
330
1F
100
AcDbEntity
  8
0
  6
Continuous
 62
     7
370
    35
100
AcDbSpline
210
0.0
220
0.0
230
1.0
 70
     8
 71
     3
 72
     9
 73
     5
 74
     0
 42
0.000000001
 43
0.00000001
 40
0.0
 40
0.0
 40
0.0
 40
0.0
 40
0.4409399517154161
 40
1.0
 40
1.0
 40
1.0
 40
1.0
 10
1744.072944686766
 20
898.8232178567381
 30
0.0
 10
1744.000477863664
 20
898.868543081741
 30
0.0
 10
1743.836131623727
 20
898.971335366329
 30
0.0
 10
1743.651909420361
 20
899.0983454992498
 30
0.0
 10
1743.548918146452
 20
899.1693517902933
 30
0.0
  0
SPLINE
  5
31C
330
1F
100
AcDbEntity
  8
0
  6
Continuous
 62
     7
370
    35
100
AcDbSpline
210
0.0
220
0.0
230
1.0
 70
     8
 71
     3
 72
    14
 73
    10
 74
     0
 42
0.000000001
 43
0.00000001
 40
0.0
 40
0.0
 40
0.0
 40
0.0
 40
0.1296969008660538
 40
0.2603671951156628
 40
0.385342144637652
 40
0.511184755725962
 40
0.6397642884787734
 40
0.7692911603858883
 40
1.0
 40
1.0
 40
1.0
 40
1.0
 10
1807.354775234536
 20
906.4211470001588
 30
0.0
 10
1807.969091957197
 20
907.9551979841066
 30
0.0
 10
1809.202335935458
 20
911.0348132192263
 30
0.0
 10
1810.521209943131
 20
915.7706766105952
 30
0.0
 10
1811.452985234227
 20
920.5420156820195
 30
0.0
 10
1811.977639431984
 20
925.3511623694774
 30
0.0
 10
1812.088950410136
 20
930.2425426243759
 30
0.0
 10
1811.744280831593
 20
936.4715690363932
 30
0.0
 10
1810.764825369026
 20
940.9625255168226
 30
0.0
 10
1810.137544324988
 20
943.8387072090319
 30
0.0
  0
SPLINE
  5
31D
330
1F
100
AcDbEntity
  8
0
  6
Continuous
 62
     7
370
    35
100
AcDbSpline
210
0.0
220
0.0
230
1.0
 70
     8
 71
     3
 72
    14
 73
    10
 74
     0
 42
0.000000001
 43
0.00000001
 40
0.0
 40
0.0
 40
0.0
 40
0.0
 40
0.1296969008660463
 40
0.260367195115662
 40
0.3853421446376473
 40
0.5111847557259602
 40
0.6397642884787722
 40
0.7692911603858874
 40
0.9999999999999999
 40
0.9999999999999999
 40
0.9999999999999999
 40
0.9999999999999999
 10
1736.714545455643
 20
906.4211470001587
 30
0.0
 10
1736.100228732982
 20
907.9551979841065
 30
0.0
 10
1734.866984754722
 20
911.0348132192264
 30
0.0
 10
1733.548110747047
 20
915.7706766105946
 30
0.0
 10
1732.616335455954
 20
920.5420156820195
 30
0.0
 10
1732.091681258194
 20
925.351162369477
 30
0.0
 10
1731.980370280042
 20
930.2425426243756
 30
0.0
 10
1732.325039858585
 20
936.471569036393
 30
0.0
 10
1733.304495321153
 20
940.9625255168223
 30
0.0
 10
1733.93177636519
 20
943.8387072090317
 30
0.0
  0
SPLINE
  5
31E
330
1F
100
AcDbEntity
  8
0
  6
Continuous
 62
     7
370
    35
100
AcDbSpline
210
0.0
220
0.0
230
1.0
 70
     8
 71
     3
 72
    10
 73
     6
 74
     0
 42
0.000000001
 43
0.00000001
 40
0.0
 40
0.0
 40
0.0
 40
0.0
 40
0.3422812336048897
 40
0.6664353245310205
 40
1.0
 40
1.0
 40
1.0
 40
1.0
 10
1800.615868035823
 20
899.2362368835152
 30
0.0
 10
1801.380768659881
 20
899.6391508614931
 30
0.0
 10
1802.870060930623
 20
900.4236405772857
 30
0.0
 10
1804.731027890164
 20
902.2023205021062
 30
0.0
 10
1805.707875795265
 20
903.5613013757797
 30
0.0
 10
1806.203288076465
 20
904.2505139043807
 30
0.0
  0
SPLINE
  5
31F
330
1F
100
AcDbEntity
  8
0
  6
Continuous
 62
     7
370
    35
100
AcDbSpline
210
0.0
220
0.0
230
1.0
 70
     8
 71
     3
 72
    10
 73
     6
 74
     0
 42
0.000000001
 43
0.00000001
 40
0.0
 40
0.0
 40
0.0
 40
0.0
 40
0.3422812336048847
 40
0.6664353245310173
 40
0.9999999999999999
 40
0.9999999999999999
 40
0.9999999999999999
 40
0.9999999999999999
 10
1743.453452654355
 20
899.2362368835151
 30
0.0
 10
1742.688552030298
 20
899.639150861493
 30
0.0
 10
1741.199259759556
 20
900.4236405772855
 30
0.0
 10
1739.338292800014
 20
902.2023205021061
 30
0.0
 10
1738.361444894914
 20
903.5613013757795
 30
0.0
 10
1737.866032613714
 20
904.2505139043803
 30
0.0
  0
SPLINE
  5
320
330
1F
100
AcDbEntity
  8
0
  6
Continuous
 62
     7
370
    35
100
AcDbSpline
210
0.0
220
0.0
230
1.0
 70
     8
 71
     3
 72
     9
 73
     5
 74
     0
 42
0.000000001
 43
0.00000001
 40
0.0
 40
0.0
 40
0.0
 40
0.0
 40
0.8536363424240456
 40
1.0
 40
1.0
 40
1.0
 40
1.0
 10
1733.93177636519
 20
943.8387072090317
 30
0.0
 10
1734.803765288745
 20
946.9497880913316
 30
0.0
 10
1735.825264585598
 20
950.5942918778801
 30
0.0
 10
1737.04938004202
 20
954.1744074360852
 30
0.0
 10
1737.228546057517
 20
954.6984062437288
 30
0.0
  0
SPLINE
  5
321
330
1F
100
AcDbEntity
  8
0
  6
Continuous
 62
     7
370
    35
100
AcDbSpline
210
0.0
220
0.0
230
1.0
 70
     8
 71
     3
 72
     9
 73
     5
 74
     0
 42
0.000000001
 43
0.00000001
 40
0.0
 40
0.0
 40
0.0
 40
0.0
 40
0.8536363424240655
 40
1.0
 40
1.0
 40
1.0
 40
1.0
 10
1810.137544324988
 20
943.8387072090319
 30
0.0
 10
1809.265555401433
 20
946.9497880913316
 30
0.0
 10
1808.244056104579
 20
950.5942918778798
 30
0.0
 10
1807.019940648159
 20
954.1744074360854
 30
0.0
 10
1806.840774632662
 20
954.6984062437289
 30
0.0
  0
SPLINE
  5
322
330
1F
100
AcDbEntity
  8
0
  6
Continuous
 62
     7
370
    35
100
AcDbSpline
210
0.0
220
0.0
230
1.0
 70
     8
 71
     3
 72
     9
 73
     5
 74
     0
 42
0.000000001
 43
0.00000001
 40
0.0
 40
0.0
 40
0.0
 40
0.0
 40
0.6310361367052196
 40
1.0
 40
1.0
 40
1.0
 40
1.0
 10
1806.840774632662
 20
954.6984062437289
 30
0.0
 10
1806.43299303609
 20
955.6348876218128
 30
0.0
 10
1805.786783456553
 20
957.1189252602491
 30
0.0
 10
1804.683918482645
 20
958.2630972172082
 30
0.0
 10
1804.277001161179
 20
958.6852553227214
 30
0.0
  0
SPLINE
  5
323
330
1F
100
AcDbEntity
  8
0
  6
Continuous
 62
     7
370
    35
100
AcDbSpline
210
0.0
220
0.0
230
1.0
 70
     8
 71
     3
 72
     9
 73
     5
 74
     0
 42
0.000000001
 43
0.00000001
 40
0.0
 40
0.0
 40
0.0
 40
0.0
 40
0.6310361367051144
 40
1.0
 40
1.0
 40
1.0
 40
1.0
 10
1737.228546057517
 20
954.6984062437288
 30
0.0
 10
1737.636327654089
 20
955.6348876218126
 30
0.0
 10
1738.282537233625
 20
957.1189252602493
 30
0.0
 10
1739.385402207534
 20
958.263097217208
 30
0.0
 10
1739.792319529
 20
958.6852553227212
 30
0.0
  0
LINE
  5
324
330
1F
100
AcDbEntity
  8
0
  6
Continuous
 62
     7
370
    35
100
AcDbLine
 10
1737.8660326137
 20
904.2505139044
 30
0.0
 11
1736.7145454556
 21
906.4211470002
 31
0.0
  0
LINE
  5
325
330
1F
100
AcDbEntity
  8
0
  6
Continuous
 62
     7
370
    35
100
AcDbLine
 10
1806.2032880765
 20
904.2505139044
 30
0.0
 11
1807.3547752345
 21
906.4211470002
 31
0.0
  0
LINE
  5
326
330
1F
100
AcDbEntity
  8
0
  6
Continuous
 62
     7
370
    35
100
AcDbLine
 10
1799.896752994
 20
898.7399633373
 30
0.0
 11
1799.4037856512
 21
898.5214452958
 31
0.0
  0
LINE
  5
327
330
1F
100
AcDbEntity
  8
0
  6
Continuous
 62
     7
370
    35
100
AcDbLine
 10
1744.1725676962
 20
898.7399633373
 30
0.0
 11
1744.6655350389
 21
898.5214452958
 31
0.0
  0
LINE
  5
328
330
1F
100
AcDbEntity
  8
0
  6
Continuous
 62
     7
370
    35
100
AcDbLine
 10
1804.2770011612
 20
958.6852553227
 30
0.0
 11
1804.4220703312
 21
958.5445458455
 31
0.0
  0
LINE
  5
329
330
1F
100
AcDbEntity
  8
0
  6
Continuous
 62
     7
370
    35
100
AcDbLine
 10
1739.792319529
 20
958.6852553227
 30
0.0
 11
1739.647250359
 21
958.5445458455
 31
0.0
  0
SPLINE
  5
32A
330
1F
100
AcDbEntity
  8
0
  6
Continuous
 62
     7
370
    35
100
AcDbSpline
210
0.0
220
0.0
230
1.0
 70
     8
 71
     3
 72
    21
 73
    17
 74
     0
 42
0.000000001
 43
0.00000001
 40
0.0
 40
0.0
 40
0.0
 40
0.0
 40
0.0385875042306191
 40
0.1137555859598126
 40
0.1905584151146645
 40
0.2679261122718418
 40
0.3425758673549477
 40
0.4177439138171325
 40
0.4945465859979154
 40
0.5719140750339708
 40
0.6465659329144192
 40
0.7217360672759652
 40
0.7985407486308923
 40
0.8759102056376942
 40
0.9905374157361704
 40
1.0
 40
1.0
 40
1.0
 40
1.0
 10
1809.312554410643
 20
946.6108483811818
 30
0.0
 10
1809.479647058725
 20
946.5300869370219
 30
0.0
 10
1809.972234554887
 20
946.2920029876565
 30
0.0
 10
1810.751237656587
 20
945.8058748844837
 30
0.0
 10
1811.644991682439
 20
945.1589456601916
 30
0.0
 10
1812.475951018716
 20
944.4355516715509
 30
0.0
 10
1813.238082906062
 20
943.651533052769
 30
0.0
 10
1813.930605527003
 20
942.8087338478927
 30
0.0
 10
1814.557182874236
 20
941.8998601574399
 30
0.0
 10
1815.102580129815
 20
940.9428865128776
 30
0.0
 10
1815.562072751557
 20
939.9505964216056
 30
0.0
 10
1815.936639765035
 20
938.9261204126062
 30
0.0
 10
1816.227140899245
 20
937.8609786246199
 30
0.0
 10
1816.459305010738
 20
936.5883994851818
 30
0.0
 10
1816.532467626132
 20
935.6192373330572
 30
0.0
 10
1816.534504984413
 20
935.0226641815185
 30
0.0
 10
1816.53466034509
 20
934.977171933385
 30
0.0
  0
SPLINE
  5
32B
330
1F
100
AcDbEntity
  8
0
  6
Continuous
 62
     7
370
    35
100
AcDbSpline
210
0.0
220
0.0
230
1.0
 70
    24
 71
     3
 72
    20
 73
    16
 74
     0
 42
0.000000001
 43
0.00000001
 40
0.0
 40
0.0
 40
0.0
 40
0.0
 40
0.0031848875244883
 40
0.0996872166702683
 40
0.1961928561586085
 40
0.2929138960264281
 40
0.3894614585497525
 40
0.4531459406897252
 40
0.5167654851003683
 40
0.6214864979190138
 40
0.7268808125404119
 40
0.8182687157727467
 40
0.8939620144270485
 40
0.9698304221395907
 40
1.0
 40
1.0
 40
1.0
 40
1.0
 10
1816.53466034509
 20
934.9771719333851
 30
0.0
 10
1816.53466034509
 20
934.9775745802615
 30
0.0
 10
1816.53466034509
 20
934.9901774574778
 30
0.0
 10
1816.534660345089
 20
934.8294398472376
 30
0.0
 10
1816.534660345089
 20
934.0939156663802
 30
0.0
 10
1816.534660345089
 20
932.8842715442916
 30
0.0
 10
1816.53466034509
 20
931.3912655164928
 30
0.0
 10
1816.534660345089
 20
929.763401706159
 30
0.0
 10
1816.534660345089
 20
927.8211488314739
 30
0.0
 10
1816.53466034509
 20
925.1536795291225
 30
0.0
 10
1816.534660345089
 20
921.929080916906
 30
0.0
 10
1816.53466034509
 20
919.2082500005209
 30
0.0
 10
1816.53466034509
 20
917.0574513623582
 30
0.0
 10
1816.53466034509
 20
915.614931842599
 30
0.0
 10
1816.53466034509
 20
914.8456387717526
 30
0.0
 10
1816.53466034509
 20
914.6267620449554
 30
0.0
  0
SPLINE
  5
32C
330
1F
100
AcDbEntity
  8
0
  6
Continuous
 62
     7
370
    35
100
AcDbSpline
210
0.0
220
0.0
230
1.0
 70
    24
 71
     3
 72
    10
 73
     6
 74
     0
 42
0.000000001
 43
0.00000001
 40
0.0
 40
0.0
 40
0.0
 40
0.0
 40
0.247968179622636
 40
0.4972688069878635
 40
1.0
 40
1.0
 40
1.0
 40
1.0
 10
1816.53466034509
 20
914.6267620449554
 30
0.0
 10
1816.534660345089
 20
914.320267474993
 30
0.0
 10
1816.534660345089
 20
913.7056313979552
 30
0.0
 10
1816.53466034509
 20
912.5995611798522
 30
0.0
 10
1816.53466034509
 20
911.8421101115725
 30
0.0
 10
1816.53466034509
 20
911.3357561663186
 30
0.0
  0
LINE
  5
32D
330
1F
100
AcDbEntity
  8
0
  6
Continuous
 62
     7
370
    35
100
AcDbLine
 10
1816.5346603451
 20
911.3357561663
 30
0.0
 11
1816.5346603451
 21
909.4808747804
 31
0.0
  0
LINE
  5
32E
330
1F
100
AcDbEntity
  8
0
  6
Continuous
 62
     7
370
    35
100
AcDbLine
 10
1837.5346603451
 20
977.9273132799
 30
0.0
 11
1837.5346603451
 21
976.9273132799
 31
0.0
  0
LINE
  5
32F
330
1F
100
AcDbEntity
  8
0
  6
Continuous
 62
     7
370
    35
100
AcDbLine
 10
1837.5346603451
 20
976.9273132799
 30
0.0
 11
1827.5346603451
 21
976.9273132799
 31
0.0
  0
LINE
  5
330
330
1F
100
AcDbEntity
  8
0
  6
Continuous
 62
     7
370
    35
100
AcDbLine
 10
1827.5346603451
 20
977.9273132799
 30
0.0
 11
1837.5346603451
 21
977.9273132799
 31
0.0
  0
LINE
  5
331
330
1F
100
AcDbEntity
  8
0
  6
Continuous
 62
     7
370
    35
100
AcDbLine
 10
1706.5346603451
 20
976.9273132799
 30
0.0
 11
1706.5346603451
 21
977.9273132799
 31
0.0
  0
LINE
  5
332
330
1F
100
AcDbEntity
  8
0
  6
Continuous
 62
     7
370
    35
100
AcDbLine
 10
1716.5346603451
 20
976.9273132799
 30
0.0
 11
1706.5346603451
 21
976.9273132799
 31
0.0
  0
LINE
  5
333
330
1F
100
AcDbEntity
  8
0
  6
Continuous
 62
     7
370
    35
100
AcDbLine
 10
1706.5346603451
 20
977.9273132799
 30
0.0
 11
1716.5346603451
 21
977.9273132799
 31
0.0
  0
LINE
  5
334
330
1F
100
AcDbEntity
  8
0
  6
Continuous
 62
     7
370
    35
100
AcDbLine
 10
1827.5346603451
 20
976.9273132799
 30
0.0
 11
1716.5346603451
 21
976.9273132799
 31
0.0
  0
LINE
  5
335
330
1F
100
AcDbEntity
  8
0
  6
Continuous
 62
     7
370
    35
100
AcDbLine
 10
1827.5346603451
 20
977.9273132799
 30
0.0
 11
1716.5346603451
 21
977.9273132799
 31
0.0
  0
ARC
  5
336
330
1F
100
AcDbEntity
  8
0
  6
Continuous
 62
     7
370
    35
100
AcDbCircle
 10
1779.5346603451
 20
954.0273132799
 30
0.0
 40
6.500000000000227
100
AcDbArc
 50
0.0
 51
180.0
  0
ARC
  5
337
330
1F
100
AcDbEntity
  8
0
  6
Continuous
 62
     7
370
    35
100
AcDbCircle
 10
1755.0346603451
 20
960.3179233688
 30
0.0
 40
2.000000000000329
100
AcDbArc
 50
0.0
 51
65.0
  0
LINE
  5
338
330
1F
100
AcDbEntity
  8
0
  6
Continuous
 62
     7
370
    35
100
AcDbLine
 10
1737.0346603451
 20
988.9273132799
 30
0.0
 11
1737.0346603451
 21
977.9273132799
 31
0.0
  0
LINE
  5
339
330
1F
100
AcDbEntity
  8
0
  6
Continuous
 62
     7
370
    35
100
AcDbLine
 10
1807.0346603451
 20
977.9273132799
 30
0.0
 11
1807.0346603451
 21
988.9273132799
 31
0.0
  0
CIRCLE
  5
33A
330
1F
100
AcDbEntity
  8
0
  6
Continuous
 62
     7
370
    35
100
AcDbCircle
 10
1772.0346603451
 20
932.0273132799
 30
0.0
 40
4.25
  0
LINE
  5
33B
330
1F
100
AcDbEntity
  8
0
  6
Continuous
 62
     7
370
    35
100
AcDbLine
 10
1758.0346603451
 20
954.0273132799
 30
0.0
 11
1758.0346603451
 21
944.0273132799
 31
0.0
  0
ARC
  5
33C
330
1F
100
AcDbEntity
  8
0
  6
Continuous
 62
     7
370
    35
100
AcDbCircle
 10
1764.5346603451
 20
944.0273132799
 30
0.0
 40
6.500000000000227
100
AcDbArc
 50
180.0
 51
0.0
  0
LINE
  5
33D
330
1F
100
AcDbEntity
  8
0
  6
Continuous
 62
     7
370
    35
100
AcDbLine
 10
1771.0346603451
 20
944.0273132799
 30
0.0
 11
1771.0346603451
 21
954.0273132799
 31
0.0
  0
ARC
  5
33E
330
1F
100
AcDbEntity
  8
0
  6
Continuous
 62
     7
370
    35
100
AcDbCircle
 10
1764.5346603451
 20
954.0273132799
 30
0.0
 40
6.500000000000227
100
AcDbArc
 50
0.0
 51
180.0
  0
ARC
  5
33F
330
1F
100
AcDbEntity
  8
0
  6
Continuous
 62
     7
370
    35
100
AcDbCircle
 10
1785.0346603451
 20
926.0273132799
 30
0.0
 40
2.000000000000227
100
AcDbArc
 50
270.0
 51
0.0
  0
ARC
  5
340
330
1F
100
AcDbEntity
  8
0
  6
Continuous
 62
     7
370
    35
100
AcDbCircle
 10
1789.0346603451
 20
960.3179233688
 30
0.0
 40
2.0
100
AcDbArc
 50
115.0
 51
180.0
  0
ARC
  5
341
330
1F
100
AcDbEntity
  8
0
  6
Continuous
 62
     7
370
    35
100
AcDbCircle
 10
1802.9096603451
 20
971.2014538016
 30
0.0
 40
1.999999999999773
100
AcDbArc
 50
295.0
 51
0.0
  0
LINE
  5
342
330
1F
100
AcDbEntity
  8
0
  6
Continuous
 62
     7
370
    35
100
AcDbLine
 10
1759.0346603451
 20
924.0273132799
 30
0.0
 11
1785.0346603451
 21
924.0273132799
 31
0.0
  0
ARC
  5
343
330
1F
100
AcDbEntity
  8
0
  6
Continuous
 62
     7
370
    35
100
AcDbCircle
 10
1741.1596603451
 20
971.2014538016
 30
0.0
 40
2.000000000000455
100
AcDbArc
 50
180.0
 51
245.0
  0
LINE
  5
344
330
1F
100
AcDbEntity
  8
0
  6
Continuous
 62
     7
370
    35
100
AcDbLine
 10
1786.0346603451
 20
954.0273132799
 30
0.0
 11
1786.0346603451
 21
944.0273132799
 31
0.0
  0
LINE
  5
345
330
1F
100
AcDbEntity
  8
0
  6
Continuous
 62
     7
370
    35
100
AcDbLine
 10
1739.1596603451
 20
976.9273132799
 30
0.0
 11
1739.1596603451
 21
971.2014538016
 31
0.0
  0
LINE
  5
346
330
1F
100
AcDbEntity
  8
0
  6
Continuous
 62
     7
370
    35
100
AcDbLine
 10
1773.0346603451
 20
944.0273132799
 30
0.0
 11
1773.0346603451
 21
954.0273132799
 31
0.0
  0
LINE
  5
347
330
1F
100
AcDbEntity
  8
0
  6
Continuous
 62
     7
370
    35
100
AcDbLine
 10
1804.9096603451
 20
971.2014538016
 30
0.0
 11
1804.9096603451
 21
976.9273132799
 31
0.0
  0
LINE
  5
348
330
1F
100
AcDbEntity
  8
0
  6
Continuous
 62
     7
370
    35
100
AcDbLine
 10
1788.1894238216
 20
962.1305389429
 30
0.0
 11
1803.7548968686
 21
969.3888382275
 31
0.0
  0
ARC
  5
349
330
1F
100
AcDbEntity
  8
0
  6
Continuous
 62
     7
370
    35
100
AcDbCircle
 10
1759.0346603451
 20
926.0273132799
 30
0.0
 40
2.000000000000114
100
AcDbArc
 50
180.0
 51
270.0
  0
ARC
  5
34A
330
1F
100
AcDbEntity
  8
0
  6
Continuous
 62
     7
370
    35
100
AcDbCircle
 10
1779.5346603451
 20
944.0273132799
 30
0.0
 40
6.500000000000227
100
AcDbArc
 50
180.0
 51
0.0
  0
LINE
  5
34B
330
1F
100
AcDbEntity
  8
0
  6
Continuous
 62
     7
370
    35
100
AcDbLine
 10
1787.0346603451
 20
926.0273132799
 30
0.0
 11
1787.0346603451
 21
960.3179233688
 31
0.0
  0
LINE
  5
34C
330
1F
100
AcDbEntity
  8
0
  6
Continuous
 62
     7
370
    35
100
AcDbLine
 10
1740.3144238216
 20
969.3888382275
 30
0.0
 11
1755.8798968686
 21
962.1305389429
 31
0.0
  0
LINE
  5
34D
330
1F
100
AcDbEntity
  8
0
  6
Continuous
 62
     7
370
    35
100
AcDbLine
 10
1757.0346603451
 20
960.3179233688
 30
0.0
 11
1757.0346603451
 21
926.0273132799
 31
0.0
  0
LINE
  5
34E
330
1F
100
AcDbEntity
  8
0
  6
Continuous
 62
     7
370
    35
100
AcDbLine
 10
1737.0346603451
 20
988.9273132799
 30
0.0
 11
1737.0346603451
 21
989.9273132799
 31
0.0
  0
LINE
  5
34F
330
1F
100
AcDbEntity
  8
0
  6
Continuous
 62
     7
370
    35
100
AcDbLine
 10
1807.0346603451
 20
989.9273132799
 30
0.0
 11
1807.0346603451
 21
988.9273132799
 31
0.0
  0
LINE
  5
350
330
1F
100
AcDbEntity
  8
0
  6
Continuous
 62
     8
370
    18
100
AcDbLine
 10
1739.0346603451
 20
975.6892317692
 30
0.0
 11
1739.1596603451
 21
975.6892317692
 31
0.0
  0
LINE
  5
351
330
1F
100
AcDbEntity
  8
0
  6
Continuous
 62
     8
370
    18
100
AcDbLine
 10
1804.9096603451
 20
975.6892317692
 30
0.0
 11
1805.0346603451
 21
975.6892317692
 31
0.0
  0
SPLINE
  5
352
330
1F
100
AcDbEntity
  8
0
  6
Continuous
 62
     8
370
    18
100
AcDbSpline
210
0.0
220
0.0
230
1.0
 70
     8
 71
     3
 72
    10
 73
     6
 74
     0
 42
0.000000001
 43
0.00000001
 40
0.0
 40
0.0
 40
0.0
 40
0.0
 40
0.0305940752880856
 40
0.884954645256976
 40
1.0
 40
1.0
 40
1.0
 40
1.0
 10
1738.470886601681
 20
954.2727869290593
 30
0.0
 10
1738.433794368196
 20
954.1643486868833
 30
0.0
 10
1737.360876033011
 20
951.0276980369249
 30
0.0
 10
1736.300476283227
 20
947.4299115734873
 30
0.0
 10
1735.402834911036
 20
943.9113999030376
 30
0.0
 10
1735.296306296486
 20
943.4938365139808
 30
0.0
  0
SPLINE
  5
353
330
1F
100
AcDbEntity
  8
0
  6
Continuous
 62
     8
370
    18
100
AcDbSpline
210
0.0
220
0.0
230
1.0
 70
     8
 71
     3
 72
    11
 73
     7
 74
     0
 42
0.000000001
 43
0.00000001
 40
0.0
 40
0.0
 40
0.0
 40
0.0
 40
0.2986044395547373
 40
0.5785107697795645
 40
0.9999675635113832
 40
0.9999999999999999
 40
0.9999999999999999
 40
0.9999999999999999
 40
0.9999999999999999
 10
1740.361651183298
 20
959.428471258637
 30
0.0
 10
1740.36171776535
 20
959.4226351795303
 30
0.0
 10
1740.361846760199
 20
959.4113284668045
 30
0.0
 10
1740.282165551891
 20
959.2378945186817
 30
0.0
 10
1740.195091816577
 20
959.0321896134884
 30
0.0
 10
1740.142037176612
 20
958.8869555618136
 30
0.0
 10
1740.142033093693
 20
958.8869443850567
 30
0.0
  0
LINE
  5
354
330
1F
100
AcDbEntity
  8
0
  6
Continuous
 62
     8
370
    18
100
AcDbLine
 10
1740.205083937
 20
959.3055503385
 30
0.0
 11
1740.3616511833
 21
959.4284712586
 31
0.0
  0
SPLINE
  5
355
330
1F
100
AcDbEntity
  8
0
  6
Continuous
 62
     8
370
    18
100
AcDbSpline
210
0.0
220
0.0
230
1.0
 70
     8
 71
     3
 72
    18
 73
    14
 74
     0
 42
0.000000001
 43
0.00000001
 40
0.0
 40
0.0
 40
0.0
 40
0.0
 40
0.0497884573626104
 40
0.1520626953526046
 40
0.2542931679105391
 40
0.3525326664708902
 40
0.4508084200367165
 40
0.5543273934134043
 40
0.65785652753536
 40
0.774030727128942
 40
0.8901694733964505
 40
0.9999988953086806
 40
1.0
 40
1.0
 40
1.0
 40
1.0
 10
1738.820562758385
 20
904.9271163441174
 30
0.0
 10
1738.829757415975
 20
904.9427772403113
 30
0.0
 10
1738.857839515525
 20
904.9906083685097
 30
0.0
 10
1739.291632604889
 20
905.0758163375401
 30
0.0
 10
1740.807576173606
 20
905.1313872773942
 30
0.0
 10
1743.167547209093
 20
905.1957809794409
 30
0.0
 10
1746.257015537325
 20
905.220870632052
 30
0.0
 10
1750.07154496357
 20
905.2097198252383
 30
0.0
 10
1754.705023590969
 20
905.1628231613295
 30
0.0
 10
1760.077789604708
 20
905.0839418248129
 30
0.0
 10
1765.979148216723
 20
904.9586705036568
 30
0.0
 10
1770.050527889239
 20
904.8343109151026
 30
0.0
 10
1772.034640388599
 20
904.7668819838223
 30
0.0
 10
1772.034660345089
 20
904.7668813056123
 30
0.0
  0
LINE
  5
356
330
1F
100
AcDbEntity
  8
0
  6
Continuous
 62
     8
370
    18
100
AcDbLine
 10
1737.9032092362
 20
906.9303503896
 30
0.0
 11
1738.8205627584
 21
904.9271163441
 31
0.0
  0
SPLINE
  5
357
330
1F
100
AcDbEntity
  8
0
  6
Continuous
 62
     8
370
    18
100
AcDbSpline
210
0.0
220
0.0
230
1.0
 70
     8
 71
     3
 72
     9
 73
     5
 74
     0
 42
0.000000001
 43
0.00000001
 40
0.0
 40
0.0
 40
0.0
 40
0.0
 40
0.4639726888257603
 40
1.0
 40
1.0
 40
1.0
 40
1.0
 10
1803.979048072265
 20
959.0807892683445
 30
0.0
 10
1803.949632852646
 20
959.1421589067852
 30
0.0
 10
1803.886234251118
 20
959.274428844044
 30
0.0
 10
1803.871913218005
 20
959.2946898734008
 30
0.0
 10
1803.864236753132
 20
959.3055503384885
 30
0.0
  0
LINE
  5
358
330
1F
100
AcDbEntity
  8
0
  6
Continuous
 62
     8
370
    18
100
AcDbLine
 10
1803.8642367531
 20
959.3055503385
 30
0.0
 11
1803.7076695069
 21
959.4284712586
 31
0.0
  0
SPLINE
  5
359
330
1F
100
AcDbEntity
  8
0
  6
Continuous
 62
     8
370
    18
100
AcDbSpline
210
0.0
220
0.0
230
1.0
 70
     8
 71
     3
 72
    11
 73
     7
 74
     0
 42
0.000000001
 43
0.00000001
 40
0.0
 40
0.0
 40
0.0
 40
0.0
 40
0.2986044395549178
 40
0.5785107697796648
 40
0.9999675635114517
 40
1.0
 40
1.0
 40
1.0
 40
1.0
 10
1803.70766950688
 20
959.4284712586374
 30
0.0
 10
1803.707602924826
 20
959.4226351795364
 30
0.0
 10
1803.707473929972
 20
959.4113284668224
 30
0.0
 10
1803.787155138319
 20
959.2378945186032
 30
0.0
 10
1803.874228873497
 20
959.032189613751
 30
0.0
 10
1803.927283513567
 20
958.8869555618139
 30
0.0
 10
1803.927287596486
 20
958.886944385057
 30
0.0
  0
SPLINE
  5
35A
330
1F
100
AcDbEntity
  8
0
  6
Continuous
 62
     8
370
    18
100
AcDbSpline
210
0.0
220
0.0
230
1.0
 70
     8
 71
     3
 72
    10
 73
     6
 74
     0
 42
0.000000001
 43
0.00000001
 40
0.0
 40
0.0
 40
0.0
 40
0.0
 40
0.030594075288061
 40
0.8849546452569951
 40
1.0
 40
1.0
 40
1.0
 40
1.0
 10
1805.598434088498
 20
954.2727869290596
 30
0.0
 10
1805.635526321982
 20
954.1643486868834
 30
0.0
 10
1806.70844465716
 20
951.0276980369225
 30
0.0
 10
1807.768844406954
 20
947.4299115734883
 30
0.0
 10
1808.666485779143
 20
943.9113999030378
 30
0.0
 10
1808.773014393692
 20
943.4938365139811
 30
0.0
  0
LINE
  5
35B
330
1F
100
AcDbEntity
  8
0
  6
Continuous
 62
     8
370
    18
100
AcDbLine
 10
1806.166111454
 20
906.9303503896
 30
0.0
 11
1805.2487579318
 21
904.9271163441
 31
0.0
  0
SPLINE
  5
35C
330
1F
100
AcDbEntity
  8
0
  6
Continuous
 62
     8
370
    18
100
AcDbSpline
210
0.0
220
0.0
230
1.0
 70
     8
 71
     3
 72
    18
 73
    14
 74
     0
 42
0.000000001
 43
0.00000001
 40
0.0
 40
0.0
 40
0.0
 40
0.0
 40
0.0497884573626106
 40
0.1520626953526052
 40
0.2542931679105416
 40
0.3525326664708924
 40
0.4508084200367183
 40
0.5543273934134058
 40
0.6578565275353612
 40
0.7740307271289424
 40
0.8901694733964504
 40
0.9999988953086805
 40
1.0
 40
1.0
 40
1.0
 40
1.0
 10
1805.248757931795
 20
904.9271163441176
 30
0.0
 10
1805.239563274204
 20
904.9427772403117
 30
0.0
 10
1805.211481174654
 20
904.9906083685098
 30
0.0
 10
1804.77768808529
 20
905.0758163375403
 30
0.0
 10
1803.261744516572
 20
905.1313872773942
 30
0.0
 10
1800.901773481086
 20
905.1957809794416
 30
0.0
 10
1797.812305152854
 20
905.2208706320533
 30
0.0
 10
1793.997775726607
 20
905.2097198252385
 30
0.0
 10
1789.364297099215
 20
905.1628231613311
 30
0.0
 10
1783.991531085444
 20
905.0839418248058
 30
0.0
 10
1778.090172473553
 20
904.9586705036857
 30
0.0
 10
1774.01879280074
 20
904.8343109150471
 30
0.0
 10
1772.03468030158
 20
904.7668819838223
 30
0.0
 10
1772.034660345089
 20
904.7668813056124
 30
0.0
  0
LINE
  5
35D
330
1F
100
AcDbEntity
  8
0
  6
Continuous
 62
     8
370
    18
100
AcDbLine
 10
1805.2487579318
 20
904.9271163441
 30
0.0
 11
1805.1716368491
 21
904.7700044846
 31
0.0
  0
SPLINE
  5
35E
330
1F
100
AcDbEntity
  8
0
  6
Continuous
 62
     8
370
    18
100
AcDbSpline
210
0.0
220
0.0
230
1.0
 70
     8
 71
     3
 72
    14
 73
    10
 74
     0
 42
0.000000001
 43
0.00000001
 40
0.0
 40
0.0
 40
0.0
 40
0.0
 40
0.2135072054013612
 40
0.6517504153255612
 40
0.8731400298126231
 40
0.9340362681777997
 40
0.9607431005770671
 40
0.9801118651181869
 40
1.0
 40
1.0
 40
1.0
 40
1.0
 10
1805.171636849071
 20
904.7700044846027
 30
0.0
 10
1804.844751717122
 20
904.1761356160738
 30
0.0
 10
1803.84690473528
 20
902.3632961805852
 30
0.0
 10
1801.945578523622
 20
900.3092722185032
 30
0.0
 10
1800.10344244435
 20
898.9778158258739
 30
0.0
 10
1799.358429828203
 20
898.5272452554128
 30
0.0
 10
1799.173285012284
 20
898.4183659465665
 30
0.0
 10
1799.107395590536
 20
898.3789200081006
 30
0.0
 10
1799.109172674484
 20
898.378300283763
 30
0.0
 10
1799.110072971904
 20
898.3779863221051
 30
0.0
  0
SPLINE
  5
35F
330
1F
100
AcDbEntity
  8
0
  6
Continuous
 62
     8
370
    18
100
AcDbSpline
210
0.0
220
0.0
230
1.0
 70
     8
 71
     3
 72
     9
 73
     5
 74
     0
 42
0.000000001
 43
0.00000001
 40
0.0
 40
0.0
 40
0.0
 40
0.0
 40
0.5224329713458159
 40
1.0
 40
1.0
 40
1.0
 40
1.0
 10
1799.625510612165
 20
898.5965043635579
 30
0.0
 10
1799.628285784862
 20
898.5978980814343
 30
0.0
 10
1799.633597801617
 20
898.600565826299
 30
0.0
 10
1799.667900585477
 20
898.6208393713657
 30
0.0
 10
1799.68428246404
 20
898.6305213480434
 30
0.0
  0
SPLINE
  5
360
330
1F
100
AcDbEntity
  8
0
  6
Continuous
 62
     8
370
    18
100
AcDbSpline
210
0.0
220
0.0
230
1.0
 70
     8
 71
     3
 72
     9
 73
     5
 74
     0
 42
0.000000001
 43
0.00000001
 40
0.0
 40
0.0
 40
0.0
 40
0.0
 40
0.3615544521464701
 40
1.0
 40
1.0
 40
1.0
 40
1.0
 10
1799.782594787342
 20
898.6893603346526
 30
0.0
 10
1799.804792047173
 20
898.7026596115012
 30
0.0
 10
1799.866186007885
 20
898.7394432184225
 30
0.0
 10
1799.951255177452
 20
898.7941405360871
 30
0.0
 10
1800.005567210022
 20
898.8290617950297
 30
0.0
  0
SPLINE
  5
361
330
1F
100
AcDbEntity
  8
0
  6
Continuous
 62
     8
370
    18
100
AcDbSpline
210
0.0
220
0.0
230
1.0
 70
     8
 71
     3
 72
    14
 73
    10
 74
     0
 42
0.000000001
 43
0.00000001
 40
0.0
 40
0.0
 40
0.0
 40
0.0
 40
0.2135072054014821
 40
0.6517504153255884
 40
0.8731400298126333
 40
0.934036268177805
 40
0.9607431005770702
 40
0.9801118651181884
 40
1.0
 40
1.0
 40
1.0
 40
1.0
 10
1738.897683841107
 20
904.7700044846049
 30
0.0
 10
1739.224568973056
 20
904.1761356160752
 30
0.0
 10
1740.2224159549
 20
902.3632961805847
 30
0.0
 10
1742.123742166557
 20
900.309272218503
 30
0.0
 10
1743.965878245829
 20
898.9778158258737
 30
0.0
 10
1744.710890861975
 20
898.5272452554127
 30
0.0
 10
1744.896035677895
 20
898.4183659465663
 30
0.0
 10
1744.961925099642
 20
898.3789200081005
 30
0.0
 10
1744.960148015694
 20
898.3783002837628
 30
0.0
 10
1744.959247718275
 20
898.377986322105
 30
0.0
  0
LINE
  5
362
330
1F
100
AcDbEntity
  8
0
  6
Continuous
 62
     8
370
    18
100
AcDbLine
 10
1738.8205627584
 20
904.9271163441
 30
0.0
 11
1738.8976838411
 21
904.7700044846
 31
0.0
  0
SPLINE
  5
363
330
1F
100
AcDbEntity
  8
0
  6
Continuous
 62
     8
370
    18
100
AcDbSpline
210
0.0
220
0.0
230
1.0
 70
     8
 71
     3
 72
     9
 73
     5
 74
     0
 42
0.000000001
 43
0.00000001
 40
0.0
 40
0.0
 40
0.0
 40
0.0
 40
0.4374209942263217
 40
0.9999999999999999
 40
0.9999999999999999
 40
0.9999999999999999
 40
0.9999999999999999
 10
1744.443810078015
 20
898.5965043635572
 30
0.0
 10
1744.440605715759
 20
898.5981587239195
 30
0.0
 10
1744.433280136289
 20
898.6019408020189
 30
0.0
 10
1744.391329486692
 20
898.6267503356669
 30
0.0
 10
1744.36772893195
 20
898.6407076584404
 30
0.0
  0
LINE
  5
364
330
1F
100
AcDbEntity
  8
0
  6
Continuous
 62
     8
370
    18
100
AcDbLine
 10
1744.1984680052
 20
898.7434078211
 30
0.0
 11
1744.0729446868
 21
898.8232178567
 31
0.0
  0
LWPOLYLINE
  5
365
330
1F
100
AcDbEntity
  8
0
  6
Continuous
 62
     8
370
    18
100
AcDbPolyline
 90
        9
 70
   128
 43
0.0
 10
1737.9032092362
 20
906.9303503896
 10
1737.8862738737
 20
906.9229836817
 10
1737.8477404798
 20
906.9062752253
 10
1737.7879132742
 20
906.8803569329
 10
1737.7072645907
 20
906.8454334286
 10
1737.6064311478
 20
906.8017804323
 10
1737.486209022
 20
906.7497425828
 10
1737.3475473628
 20
906.6897307171
 10
1737.1915408992
 20
906.6222186269
  0
SPLINE
  5
366
330
1F
100
AcDbEntity
  8
0
  6
Continuous
 62
     8
370
    18
100
AcDbSpline
210
0.0
220
0.0
230
1.0
 70
     8
 71
     3
 72
    14
 73
    10
 74
     0
 42
0.000000001
 43
0.00000001
 40
0.0
 40
0.0
 40
0.0
 40
0.0
 40
0.1277343155302459
 40
0.2554736424753192
 40
0.3815295141037283
 40
0.5075900262814173
 40
0.7106819552125421
 40
0.9137761853290176
 40
1.0
 40
1.0
 40
1.0
 40
1.0
 10
1737.191540899233
 20
906.6222186268669
 30
0.0
 10
1736.592299364384
 20
908.1179716506947
 30
0.0
 10
1735.393792784575
 20
911.1095363813977
 30
0.0
 10
1734.106392301446
 20
915.7534717021567
 30
0.0
 10
1733.19705148398
 20
920.4593717891916
 30
0.0
 10
1732.585830137615
 20
926.1724865230979
 30
0.0
 10
1732.598592787622
 20
932.8995240542798
 30
0.0
 10
1733.373690755277
 20
939.0813567089263
 30
0.0
 10
1734.221481791265
 20
942.6295322808483
 30
0.0
 10
1734.474144141519
 20
943.6869749065174
 30
0.0
  0
ARC
  5
367
330
1F
100
AcDbEntity
  8
0
  6
Continuous
 62
     8
370
    18
100
AcDbCircle
 10
1739.8297660753
 20
964.6385997662
 30
0.0
 40
21.62529238091381
100
AcDbArc
 50
255.6611818031
 51
257.8989240716
  0
SPLINE
  5
368
330
1F
100
AcDbEntity
  8
0
  6
Continuous
 62
     8
370
    18
100
AcDbSpline
210
0.0
220
0.0
230
1.0
 70
     8
 71
     3
 72
    14
 73
    10
 74
     0
 42
0.000000001
 43
0.00000001
 40
0.0
 40
0.0
 40
0.0
 40
0.0
 40
0.127247386060472
 40
0.2554745767697361
 40
0.3810919869018174
 40
0.507591609013154
 40
0.7089607368256272
 40
0.9137762176246973
 40
1.0
 40
1.0
 40
1.0
 40
1.0
 10
1806.877779790946
 20
906.6222186268672
 30
0.0
 10
1807.475095645214
 20
908.1121279907977
 30
0.0
 10
1808.674326684777
 20
911.1034190181402
 30
0.0
 10
1809.959957569331
 20
915.7421816294324
 30
0.0
 10
1810.872037465471
 20
920.4537576229112
 30
0.0
 10
1811.481025131585
 20
926.1453879488994
 30
0.0
 10
1811.471577077183
 20
932.8774550761952
 30
0.0
 10
1810.700694063667
 20
939.0602580023948
 30
0.0
 10
1809.847843494841
 20
942.6295349156169
 30
0.0
 10
1809.59517654866
 20
943.6869749065177
 30
0.0
  0
LWPOLYLINE
  5
369
330
1F
100
AcDbEntity
  8
0
  6
Continuous
 62
     8
370
    18
100
AcDbPolyline
 90
        9
 70
   128
 43
0.0
 10
1806.166111454
 20
906.9303503896
 10
1806.1830468165
 20
906.9229836817
 10
1806.2215802104
 20
906.9062752253
 10
1806.281407416
 20
906.8803569329
 10
1806.3620560995
 20
906.8454334286
 10
1806.4628895424
 20
906.8017804323
 10
1806.5831116682
 20
906.7497425828
 10
1806.7217733273
 20
906.6897307171
 10
1806.8777797909
 20
906.6222186269
  0
ARC
  5
36A
330
1F
100
AcDbEntity
  8
0
  6
Continuous
 62
     8
370
    18
100
AcDbCircle
 10
1804.2395546149
 20
964.6385997658
 30
0.0
 40
21.62529238047795
100
AcDbArc
 50
282.1010759284
 51
284.3388181969
  0
SPLINE
  5
36B
330
1F
100
AcDbEntity
  8
0
  6
Continuous
 62
     8
370
    18
100
AcDbSpline
210
0.0
220
0.0
230
1.0
 70
     8
 71
     3
 72
    17
 73
    13
 74
     0
 42
0.000000001
 43
0.00000001
 40
0.0
 40
0.0
 40
0.0
 40
0.0
 40
0.0045109817899505
 40
0.0089278415503376
 40
0.0130797684277631
 40
0.0177777921768899
 40
0.0339670776357902
 40
0.0840600072516062
 40
0.3047425979556592
 40
0.769282225314907
 40
0.8273200843747954
 40
1.0
 40
1.0
 40
1.0
 40
1.0
 10
1799.403785651229
 20
898.5214452958032
 30
0.0
 10
1799.39946636329
 20
898.5196815069922
 30
0.0
 10
1799.390917909734
 20
898.516190730978
 30
0.0
 10
1799.392110368482
 20
898.5179052667744
 30
0.0
 10
1799.406959464777
 20
898.5262261726244
 30
0.0
 10
1799.453898076349
 20
898.5508962240608
 30
0.0
 10
1799.636242602224
 20
898.6441084158722
 30
0.0
 10
1800.404249658485
 20
899.0480523571989
 30
0.0
 10
1802.301165441633
 20
900.2391657264493
 30
0.0
 10
1803.945140554959
 20
901.836278253022
 30
0.0
 10
1805.213798410265
 20
903.5229280899612
 30
0.0
 10
1805.579393677722
 20
904.121059967715
 30
0.0
 10
1805.853022183475
 20
904.5687296902765
 30
0.0
  0
ARC
  5
36C
330
1F
100
AcDbEntity
  8
0
  6
Continuous
 62
     8
370
    18
100
AcDbCircle
 10
1800.5578603302
 20
895.7862370091
 30
0.0
 40
2.968712302663382
100
AcDbArc
 50
112.8764869256
 51
119.1883353829
  0
ARC
  5
36D
330
1F
100
AcDbEntity
  8
0
  6
Continuous
 62
     8
370
    18
100
AcDbCircle
 10
1805.0404509557
 20
903.0718936837
 30
0.0
 40
1.70317058184483
100
AcDbArc
 50
61.5042694372
 51
85.582444766
  0
ARC
  5
36E
330
1F
100
AcDbEntity
  8
0
  6
Continuous
 62
     8
370
    18
100
AcDbCircle
 10
1743.51146036
 20
895.786237009
 30
0.0
 40
2.968712302804441
100
AcDbArc
 50
60.8116646173
 51
67.1235130742
  0
SPLINE
  5
36F
330
1F
100
AcDbEntity
  8
0
  6
Continuous
 62
     8
370
    18
100
AcDbSpline
210
0.0
220
0.0
230
1.0
 70
     8
 71
     3
 72
    17
 73
    13
 74
     0
 42
0.000000001
 43
0.00000001
 40
0.0
 40
0.0
 40
0.0
 40
0.0
 40
0.004510981789951
 40
0.0089278415503384
 40
0.0130797684277643
 40
0.0177777921768912
 40
0.0339670776357926
 40
0.0840600072516119
 40
0.3047425979556783
 40
0.7692822253148905
 40
0.8273200843747818
 40
1.0
 40
1.0
 40
1.0
 40
1.0
 10
1744.66553503895
 20
898.521445295803
 30
0.0
 10
1744.669854326889
 20
898.5196815069919
 30
0.0
 10
1744.678402780445
 20
898.5161907309778
 30
0.0
 10
1744.677210321696
 20
898.5179052667742
 30
0.0
 10
1744.662361225402
 20
898.5262261726241
 30
0.0
 10
1744.615422613829
 20
898.5508962240607
 30
0.0
 10
1744.433078087954
 20
898.644108415872
 30
0.0
 10
1743.665071031693
 20
899.0480523571988
 30
0.0
 10
1741.768155248546
 20
900.2391657264488
 30
0.0
 10
1740.124180135221
 20
901.836278253022
 30
0.0
 10
1738.855522279914
 20
903.5229280899609
 30
0.0
 10
1738.489927012457
 20
904.1210599677148
 30
0.0
 10
1738.216298506705
 20
904.5687296902763
 30
0.0
  0
ARC
  5
370
330
1F
100
AcDbEntity
  8
0
  6
Continuous
 62
     8
370
    18
100
AcDbCircle
 10
1739.0288697345
 20
903.0718936837
 30
0.0
 40
1.703170581849775
100
AcDbArc
 50
94.4175552343
 51
118.495730563
  0
SPLINE
  5
371
330
1F
100
AcDbEntity
  8
0
  6
Continuous
 62
     8
370
    18
100
AcDbSpline
210
0.0
220
0.0
230
1.0
 70
     8
 71
     3
 72
    10
 73
     6
 74
     0
 42
0.000000001
 43
0.00000001
 40
0.0
 40
0.0
 40
0.0
 40
0.0
 40
0.0049102993503902
 40
0.1151643441717022
 40
1.0
 40
1.0
 40
1.0
 40
1.0
 10
1734.474144141519
 20
943.6869749065174
 30
0.0
 10
1734.478774221546
 20
943.704910468603
 30
0.0
 10
1734.587366405389
 20
944.125564505668
 30
0.0
 10
1735.546112001903
 20
947.7743541308412
 30
0.0
 10
1736.69954722493
 20
951.348296421067
 30
0.0
 10
1737.725184020645
 20
954.5262527080226
 30
0.0
  0
ARC
  5
372
330
1F
100
AcDbEntity
  8
0
  6
Continuous
 62
     8
370
    18
100
AcDbCircle
 10
1772.0714983924
 20
1054.3502871768
 30
0.0
 40
105.5675478949111
100
AcDbArc
 50
251.0132691526
 51
251.4407337295
  0
ARC
  5
373
330
1F
100
AcDbEntity
  8
0
  6
Continuous
 62
     8
370
    18
100
AcDbCircle
 10
1771.9978223038
 20
1054.350287159
 30
0.0
 40
105.5675478761538
100
AcDbArc
 50
288.5592662704
 51
288.9867308475
  0
SPLINE
  5
374
330
1F
100
AcDbEntity
  8
0
  6
Continuous
 62
     8
370
    18
100
AcDbSpline
210
0.0
220
0.0
230
1.0
 70
     8
 71
     3
 72
    10
 73
     6
 74
     0
 42
0.000000001
 43
0.00000001
 40
0.0
 40
0.0
 40
0.0
 40
0.0
 40
0.0049102993503903
 40
0.1151643441716851
 40
1.0
 40
1.0
 40
1.0
 40
1.0
 10
1809.59517654866
 20
943.6869749065177
 30
0.0
 10
1809.590546468633
 20
943.7049104686032
 30
0.0
 10
1809.481954284789
 20
944.1255645056683
 30
0.0
 10
1808.52320868828
 20
947.7743541308421
 30
0.0
 10
1807.369773465251
 20
951.3482964210675
 30
0.0
 10
1806.344136669535
 20
954.5262527080229
 30
0.0
  0
ARC
  5
375
330
1F
100
AcDbEntity
  8
0
  6
Continuous
 62
     8
370
    18
100
AcDbCircle
 10
1806.3388244393
 20
960.8543631282
 30
0.0
 40
2.992681724131141
100
AcDbArc
 50
208.4544255779
 51
226.4525487523
  0
SPLINE
  5
376
330
1F
100
AcDbEntity
  8
0
  6
Continuous
 62
     8
370
    18
100
AcDbSpline
210
0.0
220
0.0
230
1.0
 70
     8
 71
     3
 72
    15
 73
    11
 74
     0
 42
0.000000001
 43
0.00000001
 40
0.0
 40
0.0
 40
0.0
 40
0.0
 40
0.3092031051605939
 40
0.6638382552574946
 40
0.803986173963671
 40
0.9077221477257726
 40
0.9361281220494162
 40
0.9546919441403818
 40
0.9789089794125909
 40
1.0
 40
1.0
 40
1.0
 40
1.0
 10
1806.344136669535
 20
954.5262527080229
 30
0.0
 10
1806.160177200819
 20
955.0139722177512
 30
0.0
 10
1805.76522860324
 20
956.0610731782182
 30
0.0
 10
1805.115690939964
 20
957.262259080908
 30
0.0
 10
1804.6152101024
 20
958.118336761453
 30
0.0
 10
1804.392513601801
 20
958.4804664304409
 30
0.0
 10
1804.297345277541
 20
958.6298091278945
 30
0.0
 10
1804.26807173069
 20
958.6791684713196
 30
0.0
 10
1804.259437256974
 20
958.6999701925447
 30
0.0
 10
1804.2714221579
 20
958.6899293579488
 30
0.0
 10
1804.277001161179
 20
958.6852553227214
 30
0.0
  0
SPLINE
  5
377
330
1F
100
AcDbEntity
  8
0
  6
Continuous
 62
     8
370
    18
100
AcDbSpline
210
0.0
220
0.0
230
1.0
 70
     8
 71
     3
 72
    15
 73
    11
 74
     0
 42
0.000000001
 43
0.00000001
 40
0.0
 40
0.0
 40
0.0
 40
0.0
 40
0.3092031051605232
 40
0.6638382552574154
 40
0.8039861739636749
 40
0.9077221477257746
 40
0.9361281220494175
 40
0.9546919441403828
 40
0.9789089794125914
 40
1.0
 40
1.0
 40
1.0
 40
1.0
 10
1737.725184020645
 20
954.5262527080226
 30
0.0
 10
1737.90914348936
 20
955.0139722177508
 30
0.0
 10
1738.304092086939
 20
956.0610731782181
 30
0.0
 10
1738.953629750214
 20
957.2622590809083
 30
0.0
 10
1739.45411058778
 20
958.1183367614525
 30
0.0
 10
1739.676807088378
 20
958.4804664304407
 30
0.0
 10
1739.771975412638
 20
958.6298091278944
 30
0.0
 10
1739.801248959489
 20
958.6791684713194
 30
0.0
 10
1739.809883433205
 20
958.6999701925446
 30
0.0
 10
1739.797898532279
 20
958.6899293579487
 30
0.0
 10
1739.792319529
 20
958.6852553227212
 30
0.0
  0
ARC
  5
378
330
1F
100
AcDbEntity
  8
0
  6
Continuous
 62
     8
370
    18
100
AcDbCircle
 10
1737.730496251
 20
960.8543631282
 30
0.0
 40
2.992681724086068
100
AcDbArc
 50
313.5474512476
 51
331.5455744223
  0
LINE
  5
379
330
1F
100
AcDbEntity
  8
0
  6
Continuous
 62
     8
370
    18
100
AcDbLine
 10
1805.945688753
 20
904.732266867
 30
0.0
 11
1806.8777797909
 21
906.6222186269
 31
0.0
  0
ARC
  5
37A
330
1F
100
AcDbEntity
  8
0
  6
Continuous
 62
     8
370
    18
100
AcDbCircle
 10
1805.1482536882
 20
903.2238325883
 30
0.0
 40
1.706246364314324
100
AcDbArc
 50
62.1367925984
 51
86.6231112419
  0
ARC
  5
37B
330
1F
100
AcDbEntity
  8
0
  6
Continuous
 62
     8
370
    18
100
AcDbCircle
 10
1738.921067002
 20
903.2238325883
 30
0.0
 40
1.706246364316667
100
AcDbArc
 50
93.3768887581
 51
117.8632074016
  0
LINE
  5
37C
330
1F
100
AcDbEntity
  8
0
  6
Continuous
 62
     8
370
    18
100
AcDbLine
 10
1738.1236319372
 20
904.732266867
 30
0.0
 11
1737.1915408992
 21
906.6222186269
 31
0.0
  0
ARC
  5
37D
330
1F
100
AcDbEntity
  8
0
  6
Continuous
 62
     8
370
    18
100
AcDbCircle
 10
1806.3665894029
 20
956.2727878646
 30
0.0
 40
12.99332377694473
100
AcDbArc
 50
284.3876121929
 51
286.8712772964
  0
ARC
  5
37E
330
1F
100
AcDbEntity
  8
0
  6
Continuous
 62
     8
370
    18
100
AcDbCircle
 10
1817.7794275653
 20
931.8175143172
 30
0.0
 40
27.45266561043937
100
AcDbArc
 50
246.6025480368
 51
247.6829243031
  0
ARC
  5
37F
330
1F
100
AcDbEntity
  8
0
  6
Continuous
 62
     8
370
    18
100
AcDbCircle
 10
1737.7027312873
 20
956.2727878647
 30
0.0
 40
12.99332377704682
100
AcDbArc
 50
253.1287227036
 51
255.6123878071
  0
ARC
  5
380
330
1F
100
AcDbEntity
  8
0
  6
Continuous
 62
     8
370
    18
100
AcDbCircle
 10
1726.2898931285
 20
931.8175143086
 30
0.0
 40
27.45266560113798
100
AcDbArc
 50
292.3170756967
 51
293.3974519633
  0
LINE
  5
381
330
1F
100
AcDbEntity
  8
0
  6
Continuous
 62
     8
370
    18
100
AcDbLine
 10
1738.2162985067
 20
904.5687296903
 30
0.0
 11
1738.1236319372
 21
904.732266867
 31
0.0
  0
LINE
  5
382
330
1F
100
AcDbEntity
  8
0
  6
Continuous
 62
     8
370
    18
100
AcDbLine
 10
1805.8530221835
 20
904.5687296903
 30
0.0
 11
1805.945688753
 21
904.732266867
 31
0.0
  0
ARC
  5
383
330
1F
100
AcDbEntity
  8
0
  6
Continuous
 62
     8
370
    18
100
AcDbCircle
 10
1805.3190644267
 20
903.6291127862
 30
0.0
 40
1.080736236286447
100
AcDbArc
 50
35.0981925254
 51
60.3916535262
  0
ARC
  5
384
330
1F
100
AcDbEntity
  8
0
  6
Continuous
 62
     8
370
    18
100
AcDbCircle
 10
1738.7502562634
 20
903.6291127862
 30
0.0
 40
1.080736236298501
100
AcDbArc
 50
119.6083464739
 51
144.9018074744
  0
ARC
  5
385
330
1F
100
AcDbEntity
  8
0
  6
Continuous
 62
     8
370
    18
100
AcDbCircle
 10
1779.5182223905
 20
1075.895543303
 30
0.0
 40
128.3634011535517
100
AcDbArc
 50
250.7644365914
 51
250.9990545453
  0
ARC
  5
386
330
1F
100
AcDbEntity
  8
0
  6
Continuous
 62
     8
370
    18
100
AcDbCircle
 10
1764.5510982946
 20
1075.8955433177
 30
0.0
 40
128.3634011691705
100
AcDbArc
 50
289.0009454547
 51
289.2355634086
  0
ARC
  5
387
330
1F
100
AcDbEntity
  8
0
  6
Continuous
 62
     8
370
    18
100
AcDbCircle
 10
1801.1587727604
 20
896.025670249
 30
0.0
 40
2.993339416081913
100
AcDbArc
 50
114.9362317312
 51
120.8121245741
  0
ARC
  5
388
330
1F
100
AcDbEntity
  8
0
  6
Continuous
 62
     8
370
    18
100
AcDbCircle
 10
1742.9105479298
 20
896.0256702491
 30
0.0
 40
2.99333941593752
100
AcDbArc
 50
59.1878754258
 51
65.0637682689
  0
ARC
  5
389
330
1F
100
AcDbEntity
  8
0
  6
Continuous
 62
     8
370
    18
100
AcDbCircle
 10
1806.5313403891
 20
960.6756432937
 30
0.0
 40
2.99843234227686
100
AcDbArc
 50
207.1895966032
 51
225.2949287514
  0
ARC
  5
38A
330
1F
100
AcDbEntity
  8
0
  6
Continuous
 62
     8
370
    18
100
AcDbCircle
 10
1737.5379803011
 20
960.6756432937
 30
0.0
 40
2.998432342254818
100
AcDbArc
 50
314.7050712486
 51
332.8104033969
  0
SPLINE
  5
38B
330
1F
100
AcDbEntity
  8
0
  6
Continuous
 62
     8
370
    18
100
AcDbSpline
210
0.0
220
0.0
230
1.0
 70
     8
 71
     3
 72
    14
 73
    10
 74
     0
 42
0.000000001
 43
0.00000001
 40
0.0
 40
0.0
 40
0.0
 40
0.0
 40
0.1092374782648817
 40
0.2581253635230528
 40
0.4079301969031708
 40
0.5608445870782605
 40
0.714945185284816
 40
0.9256729043329501
 40
1.0
 40
1.0
 40
1.0
 40
1.0
 10
1807.201384233492
 20
905.5641188043412
 30
0.0
 10
1807.37128735493
 20
905.948710019457
 30
0.0
 10
1807.772764079597
 20
906.8574892112359
 30
0.0
 10
1808.383088240455
 20
908.3968340854566
 30
0.0
 10
1809.020324370929
 20
910.196270350646
 30
0.0
 10
1809.615010036435
 20
912.1150579140792
 30
0.0
 10
1810.210456774752
 20
914.3936067691935
 30
0.0
 10
1810.661566481275
 20
916.4006176320879
 30
0.0
 10
1810.861131516377
 20
917.7575643804596
 30
0.0
 10
1810.913167436102
 20
918.1113837358075
 30
0.0
  0
LWPOLYLINE
  5
38C
330
1F
100
AcDbEntity
  8
0
  6
Continuous
 62
     8
370
    18
100
AcDbPolyline
 90
        3
 70
   128
 43
0.0
 10
1807.2013842335
 20
905.5641188043
 10
1806.8816875628
 20
905.5735336132
 10
1806.8625591657
 20
905.5730830982
  0
LWPOLYLINE
  5
38D
330
1F
100
AcDbEntity
  8
0
  6
Continuous
 62
     8
370
    18
100
AcDbPolyline
 90
        9
 70
   128
 43
0.0
 10
1807.2013842335
 20
905.5641188043
 10
1809.1487191313
 20
906.1068292219
 10
1810.9515516503
 20
906.8688374074
 10
1812.5634780035
 20
907.8305297444
 10
1813.9430082099
 20
908.9671528707
 10
1815.0546340206
 20
910.2494508145
 10
1815.8697428791
 20
911.6444180249
 10
1816.3673543908
 20
913.116148914
 10
1816.5346603451
 20
914.626762045
  0
SPLINE
  5
38E
330
1F
100
AcDbEntity
  8
0
  6
Continuous
 62
     8
370
    18
100
AcDbSpline
210
0.0
220
0.0
230
1.0
 70
     8
 71
     3
 72
     9
 73
     5
 74
     0
 42
0.000000001
 43
0.00000001
 40
0.0
 40
0.0
 40
0.0
 40
0.0
 40
0.5770474436019679
 40
1.0
 40
1.0
 40
1.0
 40
1.0
 10
1803.534660345089
 20
900.3368730141981
 30
0.0
 10
1804.325949865866
 20
901.1916691788576
 30
0.0
 10
1805.697222764741
 20
902.672996536144
 30
0.0
 10
1806.754293474504
 20
904.7047735305334
 30
0.0
 10
1807.201384233492
 20
905.5641188043412
 30
0.0
  0
SPLINE
  5
38F
330
1F
100
AcDbEntity
  8
0
  6
Continuous
 62
     8
370
    18
100
AcDbSpline
210
0.0
220
0.0
230
1.0
 70
     8
 71
     3
 72
    10
 73
     6
 74
     0
 42
0.000000001
 43
0.00000001
 40
0.0
 40
0.0
 40
0.0
 40
0.0
 40
0.3947082167601746
 40
0.7987089853918038
 40
1.0
 40
1.0
 40
1.0
 40
1.0
 10
1803.534660345089
 20
900.3368730141981
 30
0.0
 10
1802.391289804615
 20
899.6068063003681
 30
0.0
 10
1800.077630535485
 20
898.1294850298418
 30
0.0
 10
1796.90776197488
 20
897.0090279675735
 30
0.0
 10
1794.93892194805
 20
896.8441051888453
 30
0.0
 10
1794.284180189487
 20
896.7892597830736
 30
0.0
  0
LWPOLYLINE
  5
390
330
1F
100
AcDbEntity
  8
0
  6
Continuous
 62
     8
370
    18
100
AcDbPolyline
 90
       10
 70
   128
 43
0.0
 10
1816.5346603451
 20
911.3357561663
 10
1816.3371611342
 20
909.4258201506
 10
1815.7506644153
 20
907.5739165742
 10
1814.7929905943
 20
905.8363145903
 10
1813.4932381056
 20
904.2658103557
 10
1811.890899271
 20
902.9101228471
 10
1810.0346603451
 20
901.8104439433
 10
1807.9809222083
 20
901.0001868314
 10
1805.7920866548
 20
900.5039707636
 10
1803.5346603451
 20
900.3368730142
  0
LINE
  5
391
330
1F
100
AcDbEntity
  8
0
  6
Continuous
 62
     8
370
    18
100
AcDbLine
 10
1803.5346603451
 20
896.4808747804
 30
0.0
 11
1803.5346603451
 21
900.3368730142
 31
0.0
  0
SPLINE
  5
392
330
1F
100
AcDbEntity
  8
0
  6
Continuous
 62
     8
370
    18
100
AcDbSpline
210
0.0
220
0.0
230
1.0
 70
     8
 71
     3
 72
    17
 73
    13
 74
     0
 42
0.000000001
 43
0.00000001
 40
0.0
 40
0.0
 40
0.0
 40
0.0
 40
0.2229912195096686
 40
0.5008176009795289
 40
0.6858965399870952
 40
0.866577165189906
 40
0.9279597470315037
 40
0.9497616361806115
 40
0.9717583090123122
 40
0.9770054670051183
 40
0.9922372900676586
 40
1.0
 40
1.0
 40
1.0
 40
1.0
 10
1742.335701793095
 20
899.8953991013159
 30
0.0
 10
1742.471445082208
 20
899.7949856428953
 30
0.0
 10
1742.776311922042
 20
899.5694663266515
 30
0.0
 10
1743.214843431965
 20
899.2905817851979
 30
0.0
 10
1743.63108606088
 20
899.0399608253877
 30
0.0
 10
1743.91167245467
 20
898.8818974391558
 30
0.0
 10
1744.078784610467
 20
898.791054913327
 30
0.0
 10
1744.136770833131
 20
898.7597505815633
 30
0.0
 10
1744.158586764033
 20
898.7479472060885
 30
0.0
 10
1744.17040986429
 20
898.7414552418489
 30
0.0
 10
1744.174467013558
 20
898.7391402618282
 30
0.0
 10
1744.173047058086
 20
898.739755604208
 30
0.0
 10
1744.17256769621
 20
898.7399633372551
 30
0.0
  0
LINE
  5
393
330
1F
100
AcDbEntity
  8
0
  6
Continuous
 62
     8
370
    18
100
AcDbLine
 10
1827.5346603451
 20
976.9273132799
 30
0.0
 11
1827.5346603451
 21
977.9273132799
 31
0.0
  0
LINE
  5
394
330
1F
100
AcDbEntity
  8
0
  6
Continuous
 62
     8
370
    18
100
AcDbLine
 10
1716.5346603451
 20
977.9273132799
 30
0.0
 11
1716.5346603451
 21
976.9273132799
 31
0.0
  0
LINE
  5
395
330
1F
100
AcDbEntity
  8
0
  6
Continuous
 62
     8
370
    18
100
AcDbLine
 10
1807.0346603451
 20
988.9273132799
 30
0.0
 11
1737.0346603451
 21
988.9273132799
 31
0.0
  0
ENDSEC
  0
SECTION
  2
OBJECTS
  0
DICTIONARY
  5
C
330
0
100
AcDbDictionary
281
     1
  3
ACAD_GROUP
350
D
  3
ACAD_LAYOUT
350
1A
  3
ACAD_MLINESTYLE
350
17
  3
ACAD_PLOTSETTINGS
350
19
  3
ACAD_PLOTSTYLENAME
350
E
  3
ACAD_SCALELIST
350
47
  0
DICTIONARY
  5
D
102
{ACAD_REACTORS
330
C
102
}
330
C
100
AcDbDictionary
281
     1
  0
DICTIONARY
  5
1A
102
{ACAD_REACTORS
330
C
102
}
330
C
100
AcDbDictionary
281
     1
  3
Layout1
350
1E
  3
Layout2
350
26
  3
Model
350
22
  0
DICTIONARY
  5
17
102
{ACAD_REACTORS
330
C
102
}
330
C
100
AcDbDictionary
281
     1
  3
Standard
350
18
  0
DICTIONARY
  5
19
102
{ACAD_REACTORS
330
C
102
}
330
C
100
AcDbDictionary
281
     1
  0
ACDBDICTIONARYWDFLT
  5
E
102
{ACAD_REACTORS
330
C
102
}
330
C
100
AcDbDictionary
281
     1
  3
Normal
350
F
100
AcDbDictionaryWithDefault
340
F
  0
DICTIONARY
  5
47
102
{ACAD_REACTORS
330
C
102
}
330
C
100
AcDbDictionary
281
     1
  3
A0
350
48
  3
A1
350
49
  3
A2
350
4A
  3
A3
350
4B
  3
A4
350
4C
  3
A5
350
4D
  3
A6
350
4E
  3
A7
350
4F
  3
A8
350
50
  3
A9
350
51
  3
B0
350
52
  3
B1
350
53
  3
B2
350
54
  3
B3
350
55
  3
B4
350
56
  3
B5
350
57
  3
B6
350
58
  3
B7
350
59
  3
B8
350
5A
  3
B9
350
5B
  3
C0
350
5C
  3
C1
350
5D
  3
C2
350
5E
  3
C3
350
5F
  3
C4
350
60
  3
C5
350
61
  3
C6
350
62
  3
C7
350
63
  3
C8
350
64
  3
C9
350
65
  3
D0
350
66
  3
D1
350
67
  3
D2
350
68
  0
LAYOUT
  5
1E
102
{ACAD_REACTORS
330
1A
102
}
330
1A
100
AcDbPlotSettings
  1

  2
none_device
  4

  6

 40
0.0
 41
0.0
 42
0.0
 43
0.0
 44
0.0
 45
0.0
 46
0.0
 47
0.0
 48
0.0
 49
0.0
140
0.0
141
0.0
142
1.0
143
1.0
 70
   688
 72
     1
 73
     0
 74
     5
  7

 75
    16
147
1.0
148
0.0
149
0.0
100
AcDbLayout
  1
Layout1
 70
     1
 71
     1
 10
0.0
 20
0.0
 11
420.0
 21
297.0
 12
0.0
 22
0.0
 32
0.0
 14
1.0000000000E+20
 24
1.0000000000E+20
 34
1.0000000000E+20
 15
-1.0000000000E+20
 25
-1.0000000000E+20
 35
-1.0000000000E+20
146
0.0
 13
0.0
 23
0.0
 33
0.0
 16
1.0
 26
0.0
 36
0.0
 17
0.0
 27
1.0
 37
0.0
 76
     0
330
1B
  0
LAYOUT
  5
26
102
{ACAD_REACTORS
330
1A
102
}
330
1A
100
AcDbPlotSettings
  1

  2
none_device
  4

  6

 40
0.0
 41
0.0
 42
0.0
 43
0.0
 44
0.0
 45
0.0
 46
0.0
 47
0.0
 48
0.0
 49
0.0
140
0.0
141
0.0
142
1.0
143
1.0
 70
   688
 72
     1
 73
     0
 74
     5
  7

 75
    16
147
1.0
148
0.0
149
0.0
100
AcDbLayout
  1
Layout2
 70
     1
 71
     2
 10
0.0
 20
0.0
 11
0.0
 21
0.0
 12
0.0
 22
0.0
 32
0.0
 14
0.0
 24
0.0
 34
0.0
 15
0.0
 25
0.0
 35
0.0
146
0.0
 13
0.0
 23
0.0
 33
0.0
 16
1.0
 26
0.0
 36
0.0
 17
0.0
 27
1.0
 37
0.0
 76
     0
330
23
  0
LAYOUT
  5
22
102
{ACAD_REACTORS
330
1A
102
}
330
1A
100
AcDbPlotSettings
  1

  2
none_device
  4
Letter_(8.50_x_11.00_Inches)
  6

 40
6.35
 41
6.35
 42
6.35000508
 43
6.35000508
 44
215.9
 45
279.4
 46
0.0
 47
0.0
 48
0.0
 49
0.0
140
0.0
141
0.0
142
1.0
143
1.0
 70
  1712
 72
     1
 73
     0
 74
     0
  7

 75
     0
147
1.0
148
0.0
149
0.0
100
AcDbLayout
  1
Model
 70
     1
 71
     0
 10
0.0
 20
0.0
 11
2100.0
 21
1485.0
 12
0.0
 22
0.0
 32
0.0
 14
0.0
 24
0.0
 34
0.0
 15
2100.0
 25
1485.0
 35
0.0
146
0.0
 13
0.0
 23
0.0
 33
0.0
 16
1.0
 26
0.0
 36
0.0
 17
0.0
 27
1.0
 37
0.0
 76
     0
330
1F
331
29
  0
MLINESTYLE
  5
18
102
{ACAD_REACTORS
330
17
102
}
330
17
100
AcDbMlineStyle
  2
Standard
 70
     0
  3

 62
   256
 51
90.0
 52
90.0
 71
     2
 49
0.5
 62
   256
  6
BYLAYER
 49
-0.5
 62
   256
  6
BYLAYER
  0
ACDBPLACEHOLDER
  5
F
102
{ACAD_REACTORS
330
E
102
}
330
E
  0
SCALE
  5
48
102
{ACAD_REACTORS
330
47
102
}
330
47
100
AcDbScale
 70
     0
300
1:1
140
1.0
141
1.0
290
     1
  0
SCALE
  5
49
102
{ACAD_REACTORS
330
47
102
}
330
47
100
AcDbScale
 70
     0
300
1:2
140
1.0
141
2.0
290
     0
  0
SCALE
  5
4A
102
{ACAD_REACTORS
330
47
102
}
330
47
100
AcDbScale
 70
     0
300
1:4
140
1.0
141
4.0
290
     0
  0
SCALE
  5
4B
102
{ACAD_REACTORS
330
47
102
}
330
47
100
AcDbScale
 70
     0
300
1:5
140
1.0
141
5.0
290
     0
  0
SCALE
  5
4C
102
{ACAD_REACTORS
330
47
102
}
330
47
100
AcDbScale
 70
     0
300
1:8
140
1.0
141
8.0
290
     0
  0
SCALE
  5
4D
102
{ACAD_REACTORS
330
47
102
}
330
47
100
AcDbScale
 70
     0
300
1:10
140
1.0
141
10.0
290
     0
  0
SCALE
  5
4E
102
{ACAD_REACTORS
330
47
102
}
330
47
100
AcDbScale
 70
     0
300
1:16
140
1.0
141
16.0
290
     0
  0
SCALE
  5
4F
102
{ACAD_REACTORS
330
47
102
}
330
47
100
AcDbScale
 70
     0
300
1:20
140
1.0
141
20.0
290
     0
  0
SCALE
  5
50
102
{ACAD_REACTORS
330
47
102
}
330
47
100
AcDbScale
 70
     0
300
1:30
140
1.0
141
30.0
290
     0
  0
SCALE
  5
51
102
{ACAD_REACTORS
330
47
102
}
330
47
100
AcDbScale
 70
     0
300
1:40
140
1.0
141
40.0
290
     0
  0
SCALE
  5
52
102
{ACAD_REACTORS
330
47
102
}
330
47
100
AcDbScale
 70
     0
300
1:50
140
1.0
141
50.0
290
     0
  0
SCALE
  5
53
102
{ACAD_REACTORS
330
47
102
}
330
47
100
AcDbScale
 70
     0
300
1:100
140
1.0
141
100.0
290
     0
  0
SCALE
  5
54
102
{ACAD_REACTORS
330
47
102
}
330
47
100
AcDbScale
 70
     0
300
2:1
140
2.0
141
1.0
290
     0
  0
SCALE
  5
55
102
{ACAD_REACTORS
330
47
102
}
330
47
100
AcDbScale
 70
     0
300
4:1
140
4.0
141
1.0
290
     0
  0
SCALE
  5
56
102
{ACAD_REACTORS
330
47
102
}
330
47
100
AcDbScale
 70
     0
300
8:1
140
8.0
141
1.0
290
     0
  0
SCALE
  5
57
102
{ACAD_REACTORS
330
47
102
}
330
47
100
AcDbScale
 70
     0
300
10:1
140
10.0
141
1.0
290
     0
  0
SCALE
  5
58
102
{ACAD_REACTORS
330
47
102
}
330
47
100
AcDbScale
 70
     0
300
100:1
140
100.0
141
1.0
290
     0
  0
SCALE
  5
59
102
{ACAD_REACTORS
330
47
102
}
330
47
100
AcDbScale
 70
     0
300
1/128" = 1'-0"
140
0.0078125
141
12.0
290
     0
  0
SCALE
  5
5A
102
{ACAD_REACTORS
330
47
102
}
330
47
100
AcDbScale
 70
     0
300
1/64" = 1'-0"
140
0.015625
141
12.0
290
     0
  0
SCALE
  5
5B
102
{ACAD_REACTORS
330
47
102
}
330
47
100
AcDbScale
 70
     0
300
1/32" = 1'-0"
140
0.03125
141
12.0
290
     0
  0
SCALE
  5
5C
102
{ACAD_REACTORS
330
47
102
}
330
47
100
AcDbScale
 70
     0
300
1/16" = 1'-0"
140
0.0625
141
12.0
290
     0
  0
SCALE
  5
5D
102
{ACAD_REACTORS
330
47
102
}
330
47
100
AcDbScale
 70
     0
300
3/32" = 1'-0"
140
0.09375
141
12.0
290
     0
  0
SCALE
  5
5E
102
{ACAD_REACTORS
330
47
102
}
330
47
100
AcDbScale
 70
     0
300
1/8" = 1'-0"
140
0.125
141
12.0
290
     0
  0
SCALE
  5
5F
102
{ACAD_REACTORS
330
47
102
}
330
47
100
AcDbScale
 70
     0
300
3/16" = 1'-0"
140
0.1875
141
12.0
290
     0
  0
SCALE
  5
60
102
{ACAD_REACTORS
330
47
102
}
330
47
100
AcDbScale
 70
     0
300
1/4" = 1'-0"
140
0.25
141
12.0
290
     0
  0
SCALE
  5
61
102
{ACAD_REACTORS
330
47
102
}
330
47
100
AcDbScale
 70
     0
300
3/8" = 1'-0"
140
0.375
141
12.0
290
     0
  0
SCALE
  5
62
102
{ACAD_REACTORS
330
47
102
}
330
47
100
AcDbScale
 70
     0
300
1/2" = 1'-0"
140
0.5
141
12.0
290
     0
  0
SCALE
  5
63
102
{ACAD_REACTORS
330
47
102
}
330
47
100
AcDbScale
 70
     0
300
3/4" = 1'-0"
140
0.75
141
12.0
290
     0
  0
SCALE
  5
64
102
{ACAD_REACTORS
330
47
102
}
330
47
100
AcDbScale
 70
     0
300
1" = 1'-0"
140
1.0
141
12.0
290
     0
  0
SCALE
  5
65
102
{ACAD_REACTORS
330
47
102
}
330
47
100
AcDbScale
 70
     0
300
1-1/2" = 1'-0"
140
1.5
141
12.0
290
     0
  0
SCALE
  5
66
102
{ACAD_REACTORS
330
47
102
}
330
47
100
AcDbScale
 70
     0
300
3" = 1'-0"
140
3.0
141
12.0
290
     0
  0
SCALE
  5
67
102
{ACAD_REACTORS
330
47
102
}
330
47
100
AcDbScale
 70
     0
300
6" = 1'-0"
140
6.0
141
12.0
290
     0
  0
SCALE
  5
68
102
{ACAD_REACTORS
330
47
102
}
330
47
100
AcDbScale
 70
     0
300
1'-0" = 1'-0"
140
12.0
141
12.0
290
     0
  0
ENDSEC
  0
EOF
