  0
SECTION
  2
HEADER
  9
$ACADVER
  1
AC1015
  9
$ACADMAINTVER
 70
     6
  9
$DWGCODEPAGE
  3
ANSI_1252
  9
$INSBASE
 10
0.0
 20
0.0
 30
0.0
  9
$EXTMIN
 10
0.0
 20
0.0
 30
0.0
  9
$EXTMAX
 10
2100.0
 20
1485.0
 30
0.0
  9
$LIMMIN
 10
0.0
 20
0.0
  9
$LIMMAX
 10
2100.0
 20
1485.0
  9
$ORTHOMODE
 70
     0
  9
$REGENMODE
 70
     1
  9
$FILLMODE
 70
     1
  9
$QTEXTMODE
 70
     0
  9
$MIRRTEXT
 70
     1
  9
$LTSCALE
 40
5.0
  9
$ATTMODE
 70
     1
  9
$TEXTSIZE
 40
12.5
  9
$TRACEWID
 40
1.0
  9
$TEXTSTYLE
  7
Standard
  9
$CLAYER
  8
0
  9
$CELTYPE
  6
ByLayer
  9
$CECOLOR
 62
   256
  9
$CELTSCALE
 40
1.0
  9
$DISPSILH
 70
     0
  9
$DIMSCALE
 40
1.0
  9
$DIMASZ
 40
12.5
  9
$DIMEXO
 40
0.0
  9
$DIMDLI
 40
3.75
  9
$DIMRND
 40
0.0
  9
$DIMDLE
 40
0.0
  9
$DIMEXE
 40
5.0
  9
$DIMTP
 40
0.0
  9
$DIMTM
 40
0.0
  9
$DIMTXT
 40
12.5
  9
$DIMCEN
 40
2.5
  9
$DIMTSZ
 40
0.0
  9
$DIMTOL
 70
     0
  9
$DIMLIM
 70
     0
  9
$DIMTIH
 70
     1
  9
$DIMTOH
 70
     1
  9
$DIMSE1
 70
     0
  9
$DIMSE2
 70
     0
  9
$DIMTAD
 70
     1
  9
$DIMZIN
 70
     0
  9
$DIMBLK
  1

  9
$DIMASO
 70
     1
  9
$DIMSHO
 70
     1
  9
$DIMPOST
  1

  9
$DIMAPOST
  1

  9
$DIMALT
 70
     0
  9
$DIMALTD
 70
     3
  9
$DIMALTF
 40
0.0393700787
  9
$DIMLFAC
 40
1.0
  9
$DIMTOFL
 70
     1
  9
$DIMTVP
 40
0.0
  9
$DIMTIX
 70
     0
  9
$DIMSOXD
 70
     0
  9
$DIMSAH
 70
     0
  9
$DIMBLK1
  1

  9
$DIMBLK2
  1

  9
$DIMSTYLE
  2
ISO-25
  9
$DIMCLRD
 70
     0
  9
$DIMCLRE
 70
     0
  9
$DIMCLRT
 70
     0
  9
$DIMTFAC
 40
1.0
  9
$DIMGAP
 40
7.62
  9
$DIMJUST
 70
     0
  9
$DIMSD1
 70
     0
  9
$DIMSD2
 70
     0
  9
$DIMTOLJ
 70
     0
  9
$DIMTZIN
 70
     0
  9
$DIMALTZ
 70
     0
  9
$DIMALTTZ
 70
     0
  9
$DIMUPT
 70
     0
  9
$DIMDEC
 70
     2
  9
$DIMTDEC
 70
     2
  9
$DIMALTU
 70
     2
  9
$DIMALTTD
 70
     3
  9
$DIMTXSTY
  7
Standard
  9
$DIMAUNIT
 70
     0
  9
$DIMADEC
 70
     2
  9
$DIMALTRND
 40
0.0
  9
$DIMAZIN
 70
     0
  9
$DIMDSEP
 70
    44
  9
$DIMATFIT
 70
     3
  9
$DIMFRAC
 70
     0
  9
$DIMLDRBLK
  1

  9
$DIMLUNIT
 70
     2
  9
$DIMLWD
 70
    -2
  9
$DIMLWE
 70
    -2
  9
$DIMTMOVE
 70
     0
  9
$LUNITS
 70
     2
  9
$LUPREC
 70
     1
  9
$SKETCHINC
 40
1.0
  9
$FILLETRAD
 40
10.0
  9
$AUNITS
 70
     0
  9
$AUPREC
 70
     2
  9
$MENU
  1
.
  9
$ELEVATION
 40
0.0
  9
$PELEVATION
 40
0.0
  9
$THICKNESS
 40
0.0
  9
$LIMCHECK
 70
     0
  9
$CHAMFERA
 40
0.0
  9
$CHAMFERB
 40
0.0
  9
$CHAMFERC
 40
0.0
  9
$CHAMFERD
 40
0.0
  9
$SKPOLY
 70
     0
  9
$TDCREATE
 40
2458906.672698646
  9
$TDUCREATE
 40
2458906.443531979
  9
$TDUPDATE
 40
2458906.672711702
  9
$TDUUPDATE
 40
2458906.443545035
  9
$TDINDWG
 40
0.0000000116
  9
$TDUSRTIMER
 40
0.0000000116
  9
$USRTIMER
 70
     1
  9
$ANGBASE
 50
0.0
  9
$ANGDIR
 70
     0
  9
$PDMODE
 70
     0
  9
$PDSIZE
 40
-1.0
  9
$PLINEWID
 40
0.0
  9
$SPLFRAME
 70
     0
  9
$SPLINETYPE
 70
     6
  9
$SPLINESEGS
 70
     8
  9
$HANDSEED
  5
398
  9
$SURFTAB1
 70
     6
  9
$SURFTAB2
 70
     6
  9
$SURFTYPE
 70
     6
  9
$SURFU
 70
     6
  9
$SURFV
 70
     6
  9
$UCSBASE
  2

  9
$UCSNAME
  2

  9
$UCSORG
 10
0.0
 20
0.0
 30
0.0
  9
$UCSXDIR
 10
1.0
 20
0.0
 30
0.0
  9
$UCSYDIR
 10
0.0
 20
1.0
 30
0.0
  9
$UCSORTHOREF
  2

  9
$UCSORTHOVIEW
 70
     0
  9
$UCSORGTOP
 10
0.0
 20
0.0
 30
0.0
  9
$UCSORGBOTTOM
 10
0.0
 20
0.0
 30
0.0
  9
$UCSORGLEFT
 10
0.0
 20
0.0
 30
0.0
  9
$UCSORGRIGHT
 10
0.0
 20
0.0
 30
0.0
  9
$UCSORGFRONT
 10
0.0
 20
0.0
 30
0.0
  9
$UCSORGBACK
 10
0.0
 20
0.0
 30
0.0
  9
$PUCSBASE
  2

  9
$PUCSNAME
  2

  9
$PUCSORG
 10
0.0
 20
0.0
 30
0.0
  9
$PUCSXDIR
 10
1.0
 20
0.0
 30
0.0
  9
$PUCSYDIR
 10
0.0
 20
1.0
 30
0.0
  9
$PUCSORTHOREF
  2

  9
$PUCSORTHOVIEW
 70
     0
  9
$PUCSORGTOP
 10
0.0
 20
0.0
 30
0.0
  9
$PUCSORGBOTTOM
 10
0.0
 20
0.0
 30
0.0
  9
$PUCSORGLEFT
 10
0.0
 20
0.0
 30
0.0
  9
$PUCSORGRIGHT
 10
0.0
 20
0.0
 30
0.0
  9
$PUCSORGFRONT
 10
0.0
 20
0.0
 30
0.0
  9
$PUCSORGBACK
 10
0.0
 20
0.0
 30
0.0
  9
$USERI1
 70
     0
  9
$USERI2
 70
     0
  9
$USERI3
 70
     0
  9
$USERI4
 70
     0
  9
$USERI5
 70
     0
  9
$USERR1
 40
0.0
  9
$USERR2
 40
0.0
  9
$USERR3
 40
0.0
  9
$USERR4
 40
0.0
  9
$USERR5
 40
0.0
  9
$WORLDVIEW
 70
     1
  9
$SHADEDGE
 70
     3
  9
$SHADEDIF
 70
    70
  9
$TILEMODE
 70
     1
  9
$MAXACTVP
 70
    64
  9
$PINSBASE
 10
0.0
 20
0.0
 30
0.0
  9
$PLIMCHECK
 70
     0
  9
$PEXTMIN
 10
1.0000000000E+20
 20
1.0000000000E+20
 30
1.0000000000E+20
  9
$PEXTMAX
 10
-1.0000000000E+20
 20
-1.0000000000E+20
 30
-1.0000000000E+20
  9
$PLIMMIN
 10
0.0
 20
0.0
  9
$PLIMMAX
 10
420.0
 20
297.0
  9
$UNITMODE
 70
     0
  9
$VISRETAIN
 70
     1
  9
$PLINEGEN
 70
     0
  9
$PSLTSCALE
 70
     1
  9
$TREEDEPTH
 70
  3020
  9
$CMLSTYLE
  2
Standard
  9
$CMLJUST
 70
     0
  9
$CMLSCALE
 40
20.0
  9
$PROXYGRAPHICS
 70
     1
  9
$MEASUREMENT
 70
     1
  9
$CELWEIGHT
370
    -1
  9
$ENDCAPS
280
     0
  9
$JOINSTYLE
280
     0
  9
$LWDISPLAY
290
     1
  9
$INSUNITS
 70
     4
  9
$HYPERLINKBASE
  1

  9
$STYLESHEET
  1

  9
$XEDIT
290
     1
  9
$CEPSNTYPE
380
     0
  9
$PSTYLEMODE
290
     1
  9
$FINGERPRINTGUID
  2
{c98613d6-8b5b-4b1c-b240-36b0e45db2ce}
  9
$VERSIONGUID
  2
{FAEB1C32-E019-11D5-929B-00C0DF256EC4}
  9
$EXTNAMES
290
     1
  9
$PSVPSCALE
 40
0.0
  9
$OLESTARTUP
290
     0
  0
ENDSEC
  0
SECTION
  2
CLASSES
  0
CLASS
  1
ACDBDICTIONARYWDFLT
  2
AcDbDictionaryWithDefault
  3
ObjectDBX Classes
 90
        0
280
     0
281
     0
  0
CLASS
  1
VISUALSTYLE
  2
AcDbVisualStyle
  3
ObjectDBX Classes
 90
     4095
280
     0
281
     0
  0
CLASS
  1
MATERIAL
  2
AcDbMaterial
  3
ObjectDBX Classes
 90
     1153
280
     0
281
     0
  0
CLASS
  1
SCALE
  2
AcDbScale
  3
ObjectDBX Classes
 90
     1153
280
     0
281
     0
  0
CLASS
  1
TABLESTYLE
  2
AcDbTableStyle
  3
ObjectDBX Classes
 90
     4095
280
     0
281
     0
  0
CLASS
  1
MLEADERSTYLE
  2
AcDbMLeaderStyle
  3
ACDB_MLEADERSTYLE_CLASS
 90
     4095
280
     0
281
     0
  0
CLASS
  1
SUN
  2
AcDbSun
  3
SCENEOE
 90
     1153
280
     0
281
     0
  0
CLASS
  1
ACDBPLACEHOLDER
  2
AcDbPlaceHolder
  3
ObjectDBX Classes
 90
        0
280
     0
281
     0
  0
CLASS
  1
LAYOUT
  2
AcDbLayout
  3
ObjectDBX Classes
 90
        0
280
     0
281
     0
  0
ENDSEC
  0
SECTION
  2
TABLES
  0
TABLE
  2
VPORT
  5
8
330
0
100
AcDbSymbolTable
 70
     1
  0
VPORT
  5
29
330
8
100
AcDbSymbolTableRecord
100
AcDbViewportTableRecord
  2
*Active
 70
     0
 10
0.0
 20
0.0
 11
1.0
 21
1.0
 12
1050.0
 22
742.5
 13
0.0
 23
0.0
 14
10.0
 24
10.0
 15
10.0
 25
10.0
 16
0.0
 26
0.0
 36
1.0
 17
0.0
 27
0.0
 37
0.0
 40
1485.0
 41
1.4141414141
 42
50.0
 43
0.0
 44
0.0
 50
0.0
 51
0.0
 71
     0
 72
  2000
 73
     1
 74
     3
 75
     0
 76
     0
 77
     0
 78
     0
281
     0
 65
     1
110
0.0
120
0.0
130
0.0
111
1.0
121
0.0
131
0.0
112
0.0
122
1.0
132
0.0
 79
     0
146
0.0
  0
ENDTAB
  0
TABLE
  2
LTYPE
  5
5
330
0
100
AcDbSymbolTable
 70
     6
  0
LTYPE
  5
14
330
5
100
AcDbSymbolTableRecord
100
AcDbLinetypeTableRecord
  2
ByBlock
 70
     0
  3

 72
    65
 73
     0
 40
0.0
  0
LTYPE
  5
15
330
5
100
AcDbSymbolTableRecord
100
AcDbLinetypeTableRecord
  2
ByLayer
 70
     0
  3

 72
    65
 73
     0
 40
0.0
  0
LTYPE
  5
16
330
5
100
AcDbSymbolTableRecord
100
AcDbLinetypeTableRecord
  2
Continuous
 70
     0
  3
Solid line
 72
    65
 73
     0
 40
0.0
  0
LTYPE
  5
6E
330
5
100
AcDbSymbolTableRecord
100
AcDbLinetypeTableRecord
  2
HIDDEN
 70
     0
  3
Hidden __ __ __ __ __ __ __ __ __ __ __ __ __ __
 72
    65
 73
     2
 40
1.905
 49
1.27
 74
     0
 49
-0.635
 74
     0
  0
LTYPE
  5
6F
330
5
100
AcDbSymbolTableRecord
100
AcDbLinetypeTableRecord
  2
PHANTOM
 70
     0
  3
Phantom ______  __  __  ______  __  __  ______
 72
    65
 73
     6
 40
12.7
 49
6.35
 74
     0
 49
-1.27
 74
     0
 49
1.27
 74
     0
 49
-1.27
 74
     0
 49
1.27
 74
     0
 49
-1.27
 74
     0
  0
LTYPE
  5
70
330
5
100
AcDbSymbolTableRecord
100
AcDbLinetypeTableRecord
  2
CENTER
 70
     0
  3
Center ____ _ ____ _ ____ _ ____ _ ____ _ ____
 72
    65
 73
     4
 40
10.16
 49
6.35
 74
     0
 49
-1.27
 74
     0
 49
1.27
 74
     0
 49
-1.27
 74
     0
  0
LTYPE
  5
71
330
5
100
AcDbSymbolTableRecord
100
AcDbLinetypeTableRecord
  2
CENTERX2
 70
     0
  3
Center (2x) ________  __  ________  __  _____
 72
    65
 73
     4
 40
20.32
 49
12.7
 74
     0
 49
-2.54
 74
     0
 49
2.54
 74
     0
 49
-2.54
 74
     0
  0
LTYPE
  5
72
330
5
100
AcDbSymbolTableRecord
100
AcDbLinetypeTableRecord
  2
DOT2
 70
     0
  3
Dot (.5x) ........................................
 72
    65
 73
     2
 40
0.635
 49
0.0
 74
     0
 49
-0.635
 74
     0
  0
ENDTAB
  0
TABLE
  2
LAYER
  5
2
330
0
100
AcDbSymbolTable
 70
    10
  0
LAYER
  5
10
330
2
100
AcDbSymbolTableRecord
100
AcDbLayerTableRecord
  2
0
 70
     0
 62
     7
  6
Continuous
370
    -3
390
F
  0
LAYER
  5
73
330
2
100
AcDbSymbolTableRecord
100
AcDbLayerTableRecord
  2
DIMENSION
 70
     0
 62
     7
  6
Continuous
370
    -3
390
F
  0
LAYER
  5
74
330
2
100
AcDbSymbolTableRecord
100
AcDbLayerTableRecord
  2
NOTES
 70
     0
 62
     7
  6
Continuous
370
    -3
390
F
  0
LAYER
  5
75
330
2
100
AcDbSymbolTableRecord
100
AcDbLayerTableRecord
  2
TABLES
 70
     0
 62
     7
  6
Continuous
370
    -3
390
F
  0
LAYER
  5
76
330
2
100
AcDbSymbolTableRecord
100
AcDbLayerTableRecord
  2
INVISIBLE
 70
     0
 62
    -7
  6
Continuous
290
     0
370
    -3
390
F
  0
LAYER
  5
77
330
2
100
AcDbSymbolTableRecord
100
AcDbLayerTableRecord
  2
WEP
 70
     0
 62
  -150
  6
Continuous
290
     0
370
    -3
390
F
  0
LAYER
  5
78
330
2
100
AcDbSymbolTableRecord
100
AcDbLayerTableRecord
  2
EMP
 70
     0
 62
     1
  6
Continuous
370
    -3
390
F
  0
LAYER
  5
79
330
2
100
AcDbSymbolTableRecord
100
AcDbLayerTableRecord
  2
MARKETING_DRW
 70
     0
 62
    -7
  6
Continuous
290
     0
370
    -3
390
F
  0
LAYER
  5
7A
330
2
100
AcDbSymbolTableRecord
100
AcDbLayerTableRecord
  2
SINGLE_ARTICLE_DRW
 70
     0
 62
    -7
  6
Continuous
290
     0
370
    -3
390
F
  0
LAYER
  5
7B
330
2
100
AcDbSymbolTableRecord
100
AcDbLayerTableRecord
  2
TABLE_DRW
 70
     0
 62
     7
  6
Continuous
370
    -3
390
F
  0
ENDTAB
  0
TABLE
  2
STYLE
  5
3
330
0
100
AcDbSymbolTable
 70
     2
  0
STYLE
  5
11
330
3
100
AcDbSymbolTableRecord
100
AcDbTextStyleTableRecord
  2
Standard
 70
     0
 40
0.0
 41
1.0
 50
0.0
 71
     0
 42
12.5
  3
txt
  4

  0
STYLE
  5
B5
330
3
100
AcDbSymbolTableRecord
100
AcDbTextStyleTableRecord
  2
SLDTEXTSTYLE0
 70
     0
 40
0.0
 41
0.605
 50
0.0
 71
     0
 42
12.5
  3
TXT
  4

  0
ENDTAB
  0
TABLE
  2
VIEW
  5
6
330
0
100
AcDbSymbolTable
 70
     0
  0
ENDTAB
  0
TABLE
  2
UCS
  5
7
330
0
100
AcDbSymbolTable
 70
     0
  0
ENDTAB
  0
TABLE
  2
APPID
  5
9
330
0
100
AcDbSymbolTable
 70
     1
  0
APPID
  5
12
330
9
100
AcDbSymbolTableRecord
100
AcDbRegAppTableRecord
  2
ACAD
 70
     0
  0
ENDTAB
  0
TABLE
  2
DIMSTYLE
  5
A
330
0
100
AcDbSymbolTable
 70
     1
100
AcDbDimStyleTable
  0
DIMSTYLE
105
27
330
A
100
AcDbSymbolTableRecord
100
AcDbDimStyleTableRecord
  2
ISO-25
 70
     0
 41
2.5
 42
0.625
 43
3.75
 44
1.25
 73
     0
 74
     0
 77
     1
 78
     8
140
2.5
141
2.5
143
0.0393700787
147
0.625
171
     3
172
     1
178
     0
271
     2
272
     2
274
     3
278
    44
283
     0
284
     8
340
11
  0
ENDTAB
  0
TABLE
  2
BLOCK_RECORD
  5
1
330
0
100
AcDbSymbolTable
 70
     3
  0
BLOCK_RECORD
  5
1F
330
1
100
AcDbSymbolTableRecord
100
AcDbBlockTableRecord
  2
*Model_Space
340
22
  0
BLOCK_RECORD
  5
1B
330
1
100
AcDbSymbolTableRecord
100
AcDbBlockTableRecord
  2
*Paper_Space
340
1E
  0
BLOCK_RECORD
  5
23
330
1
100
AcDbSymbolTableRecord
100
AcDbBlockTableRecord
  2
*Paper_Space0
340
26
  0
BLOCK_RECORD
  5
C8
330
1
100
AcDbSymbolTableRecord
100
AcDbBlockTableRecord
  2
SW_NOTE_0
340
0
102
{BLKREFS
331
CE
102
}
  0
BLOCK_RECORD
  5
E7
330
1
100
AcDbSymbolTableRecord
100
AcDbBlockTableRecord
  2
SW_NOTE_0_1
340
0
102
{BLKREFS
331
ED
102
}
  0
ENDTAB
  0
ENDSEC
  0
SECTION
  2
BLOCKS
  0
BLOCK
  5
20
330
1F
100
AcDbEntity
  8
0
100
AcDbBlockBegin
  2
*Model_Space
 70
     0
 10
0.0
 20
0.0
 30
0.0
  3
*Model_Space
  1

  0
ENDBLK
  5
21
330
1F
100
AcDbEntity
  8
0
100
AcDbBlockEnd
  0
BLOCK
  5
1C
330
1B
100
AcDbEntity
 67
     1
  8
0
100
AcDbBlockBegin
  2
*Paper_Space
 70
     0
 10
0.0
 20
0.0
 30
0.0
  3
*Paper_Space
  1

  0
ENDBLK
  5
1D
330
1B
100
AcDbEntity
 67
     1
  8
0
100
AcDbBlockEnd
  0
BLOCK
  5
24
330
23
100
AcDbEntity
  8
0
100
AcDbBlockBegin
  2
*Paper_Space0
 70
     0
 10
0.0
 20
0.0
 30
0.0
  3
*Paper_Space0
  1

  0
ENDBLK
  5
25
330
23
100
AcDbEntity
  8
0
100
AcDbBlockEnd
  0
BLOCK
  5
C9
330
C8
100
AcDbEntity
  8
0
100
AcDbBlockBegin
  2
SW_NOTE_0
 70
     0
 10
0.0
 20
0.0
 30
0.0
  3
SW_NOTE_0
  1

  0
MTEXT
  5
CB
330
C8
100
AcDbEntity
  8
SINGLE_ARTICLE_DRW
 62
     0
100
AcDbMText
 10
0.0
 20
11.6016096579
 30
0.0
 40
9.0
 41
0.0
 71
     1
 72
     1
  1
The reproduction, distribution and utilization of this document as well as the communication of its contents to
  7
SLDTEXTSTYLE0
 73
     1
 44
1.0
  0
MTEXT
  5
CC
330
C8
100
AcDbEntity
  8
SINGLE_ARTICLE_DRW
 62
     0
100
AcDbMText
 10
0.0
 20
0.0016098055
 30
0.0
 40
9.0
 41
0.0
 71
     1
 72
     1
  1
others without express authorization is prohibited. Offenders will be held liable for the payment of damages.
  7
SLDTEXTSTYLE0
 73
     1
 44
1.0
  0
MTEXT
  5
CD
330
C8
100
AcDbEntity
  8
SINGLE_ARTICLE_DRW
 62
     0
100
AcDbMText
 10
0.0
 20
-11.598390047
 30
0.0
 40
9.0
 41
0.0
 71
     1
 72
     1
  1
All rights reserved in the event of the grant of a patent, utility model or design. Observe copyright by ISO 16016
  7
SLDTEXTSTYLE0
 73
     1
 44
1.0
  0
ENDBLK
  5
CA
330
C8
100
AcDbEntity
  8
0
100
AcDbBlockEnd
  0
BLOCK
  5
E8
330
E7
100
AcDbEntity
  8
0
100
AcDbBlockBegin
  2
SW_NOTE_0_1
 70
     0
 10
0.0
 20
0.0
 30
0.0
  3
SW_NOTE_0_1
  1

  0
MTEXT
  5
EA
330
E7
100
AcDbEntity
  8
MARKETING_DRW
 62
     0
100
AcDbMText
 10
0.0
 20
11.6016096579
 30
0.0
 40
9.0
 41
0.0
 71
     1
 72
     1
  1
The reproduction, distribution and utilization of this document as well as the communication of its contents to
  7
SLDTEXTSTYLE0
 73
     1
 44
1.0
  0
MTEXT
  5
EB
330
E7
100
AcDbEntity
  8
MARKETING_DRW
 62
     0
100
AcDbMText
 10
0.0
 20
-0.0233903849
 30
0.0
 40
9.0
 41
0.0
 71
     1
 72
     1
  1
others without express authorization is prohibited. Offenders will be held liable for the payment of damages.
  7
SLDTEXTSTYLE0
 73
     1
 44
1.0
  0
MTEXT
  5
EC
330
E7
100
AcDbEntity
  8
MARKETING_DRW
 62
     0
100
AcDbMText
 10
0.0
 20
-11.6483904277
 30
0.0
 40
9.0
 41
0.0
 71
     1
 72
     1
  1
All rights reserved in the event of the grant of a patent, utility model or design. Observe copyright by ISO 16016
  7
SLDTEXTSTYLE0
 73
     1
 44
1.0
  0
ENDBLK
  5
E9
330
E7
100
AcDbEntity
  8
0
100
AcDbBlockEnd
  0
ENDSEC
  0
SECTION
  2
ENTITIES
  0
LINE
  5
7C
330
1F
100
AcDbEntity
  8
SINGLE_ARTICLE_DRW
 62
     7
100
AcDbLine
 10
1955.0
 20
200.0
 30
0.0
 11
1980.0
 21
200.0
 31
0.0
  0
LINE
  5
7D
330
1F
100
AcDbEntity
  8
SINGLE_ARTICLE_DRW
  6
CENTERX2
 62
     7
100
AcDbLine
 10
1967.5
 20
212.5
 30
0.0
 11
1967.5
 21
187.5
 31
0.0
  0
LINE
  5
7E
330
1F
100
AcDbEntity
  8
SINGLE_ARTICLE_DRW
  6
CENTERX2
 62
     7
100
AcDbLine
 10
1915.0
 20
200.0
 30
0.0
 11
1950.0
 21
200.0
 31
0.0
  0
LINE
  5
7F
330
1F
100
AcDbEntity
  8
SINGLE_ARTICLE_DRW
 62
     7
100
AcDbLine
 10
1920.0
 20
194.95
 30
0.0
 11
1945.0
 21
190.0
 31
0.0
  0
LINE
  5
80
330
1F
100
AcDbEntity
  8
SINGLE_ARTICLE_DRW
 62
     7
100
AcDbLine
 10
1920.0
 20
205.05
 30
0.0
 11
1920.0
 21
194.95
 31
0.0
  0
LINE
  5
81
330
1F
100
AcDbEntity
  8
SINGLE_ARTICLE_DRW
 62
     7
100
AcDbLine
 10
1945.0
 20
210.0
 30
0.0
 11
1920.0
 21
205.05
 31
0.0
  0
LINE
  5
82
330
1F
100
AcDbEntity
  8
SINGLE_ARTICLE_DRW
 62
     7
100
AcDbLine
 10
1945.0
 20
190.0
 30
0.0
 11
1945.0
 21
210.0
 31
0.0
  0
LINE
  5
83
330
1F
100
AcDbEntity
  8
SINGLE_ARTICLE_DRW
 62
     7
100
AcDbLine
 10
2050.0
 20
50.0
 30
0.0
 11
2050.0
 21
340.0
 31
0.0
  0
LINE
  5
84
330
1F
100
AcDbEntity
  8
SINGLE_ARTICLE_DRW
 62
     7
100
AcDbLine
 10
1150.0
 20
340.0
 30
0.0
 11
1150.0
 21
50.0
 31
0.0
  0
LINE
  5
85
330
1F
100
AcDbEntity
  8
SINGLE_ARTICLE_DRW
 62
     7
100
AcDbLine
 10
1700.0
 20
95.0
 30
0.0
 11
1700.0
 21
50.0
 31
0.0
  0
LINE
  5
86
330
1F
100
AcDbEntity
  8
SINGLE_ARTICLE_DRW
 62
     7
100
AcDbLine
 10
1850.0
 20
50.0
 30
0.0
 11
1850.0
 21
95.0
 31
0.0
  0
LINE
  5
87
330
1F
100
AcDbEntity
  8
SINGLE_ARTICLE_DRW
 62
     7
100
AcDbLine
 10
2000.0
 20
95.0
 30
0.0
 11
2000.0
 21
50.0
 31
0.0
  0
LINE
  5
88
330
1F
100
AcDbEntity
  8
SINGLE_ARTICLE_DRW
 62
     7
100
AcDbLine
 10
1900.0
 20
320.0
 30
0.0
 11
1900.0
 21
185.0
 31
0.0
  0
LINE
  5
89
330
1F
100
AcDbEntity
  8
SINGLE_ARTICLE_DRW
 62
     7
100
AcDbLine
 10
2050.0
 20
320.0
 30
0.0
 11
1150.0
 21
320.0
 31
0.0
  0
LINE
  5
8A
330
1F
100
AcDbEntity
  8
SINGLE_ARTICLE_DRW
 62
     7
100
AcDbLine
 10
1800.0
 20
95.0
 30
0.0
 11
1800.0
 21
50.0
 31
0.0
  0
LINE
  5
8B
330
1F
100
AcDbEntity
  8
SINGLE_ARTICLE_DRW
 62
     7
100
AcDbLine
 10
2050.0
 20
275.0
 30
0.0
 11
1400.0
 21
275.0
 31
0.0
  0
LINE
  5
8C
330
1F
100
AcDbEntity
  8
SINGLE_ARTICLE_DRW
 62
     7
100
AcDbLine
 10
1650.0
 20
230.0
 30
0.0
 11
1650.0
 21
185.0
 31
0.0
  0
LINE
  5
8D
330
1F
100
AcDbEntity
  8
SINGLE_ARTICLE_DRW
 62
     7
100
AcDbLine
 10
2050.0
 20
230.0
 30
0.0
 11
1400.0
 21
230.0
 31
0.0
  0
LINE
  5
8E
330
1F
100
AcDbEntity
  8
SINGLE_ARTICLE_DRW
 62
     7
100
AcDbLine
 10
1400.0
 20
320.0
 30
0.0
 11
1400.0
 21
185.0
 31
0.0
  0
LINE
  5
8F
330
1F
100
AcDbEntity
  8
SINGLE_ARTICLE_DRW
 62
     7
100
AcDbLine
 10
2000.0
 20
230.0
 30
0.0
 11
2000.0
 21
185.0
 31
0.0
  0
LINE
  5
90
330
1F
100
AcDbEntity
  8
SINGLE_ARTICLE_DRW
 62
     7
100
AcDbLine
 10
2050.0
 20
95.0
 30
0.0
 11
1150.0
 21
95.0
 31
0.0
  0
LINE
  5
91
330
1F
100
AcDbEntity
  8
SINGLE_ARTICLE_DRW
 62
     7
100
AcDbLine
 10
1650.0
 20
275.0
 30
0.0
 11
1650.0
 21
320.0
 31
0.0
  0
LINE
  5
92
330
1F
100
AcDbEntity
  8
SINGLE_ARTICLE_DRW
 62
     7
100
AcDbLine
 10
1150.0
 20
340.0
 30
0.0
 11
2050.0
 21
340.0
 31
0.0
  0
LINE
  5
93
330
1F
100
AcDbEntity
  8
SINGLE_ARTICLE_DRW
 62
     7
100
AcDbLine
 10
1150.0
 20
185.0
 30
0.0
 11
2050.0
 21
185.0
 31
0.0
  0
LINE
  5
94
330
1F
100
AcDbEntity
  8
SINGLE_ARTICLE_DRW
 62
     7
100
AcDbLine
 10
1150.0
 20
50.0
 30
0.0
 11
2050.0
 21
50.0
 31
0.0
  0
LINE
  5
95
330
1F
100
AcDbEntity
  8
SINGLE_ARTICLE_DRW
 62
     7
100
AcDbLine
 10
1400.0
 20
275.0
 30
0.0
 11
1150.0
 21
275.0
 31
0.0
  0
LINE
  5
96
330
1F
100
AcDbEntity
  8
MARKETING_DRW
  6
CENTERX2
100
AcDbLine
 10
1955.0
 20
200.0
 30
0.0
 11
1980.0
 21
200.0
 31
0.0
  0
LINE
  5
97
330
1F
100
AcDbEntity
  8
MARKETING_DRW
  6
CENTERX2
100
AcDbLine
 10
1967.5
 20
212.5
 30
0.0
 11
1967.5
 21
187.5
 31
0.0
  0
LINE
  5
98
330
1F
100
AcDbEntity
  8
MARKETING_DRW
  6
CENTERX2
100
AcDbLine
 10
1915.0
 20
200.0
 30
0.0
 11
1950.0
 21
200.0
 31
0.0
  0
LINE
  5
99
330
1F
100
AcDbEntity
  8
MARKETING_DRW
100
AcDbLine
 10
1920.0
 20
194.95
 30
0.0
 11
1945.0
 21
190.0
 31
0.0
  0
LINE
  5
9A
330
1F
100
AcDbEntity
  8
MARKETING_DRW
100
AcDbLine
 10
1920.0
 20
205.05
 30
0.0
 11
1920.0
 21
194.95
 31
0.0
  0
LINE
  5
9B
330
1F
100
AcDbEntity
  8
MARKETING_DRW
100
AcDbLine
 10
1945.0
 20
210.0
 30
0.0
 11
1920.0
 21
205.05
 31
0.0
  0
LINE
  5
9C
330
1F
100
AcDbEntity
  8
MARKETING_DRW
100
AcDbLine
 10
1945.0
 20
190.0
 30
0.0
 11
1945.0
 21
210.0
 31
0.0
  0
LINE
  5
9D
330
1F
100
AcDbEntity
  8
MARKETING_DRW
100
AcDbLine
 10
2050.0
 20
50.0
 30
0.0
 11
2050.0
 21
230.0
 31
0.0
  0
LINE
  5
9E
330
1F
100
AcDbEntity
  8
MARKETING_DRW
100
AcDbLine
 10
1150.0
 20
50.0
 30
0.0
 11
2050.0
 21
50.0
 31
0.0
  0
LINE
  5
9F
330
1F
100
AcDbEntity
  8
MARKETING_DRW
100
AcDbLine
 10
1150.0
 20
275.0
 30
0.0
 11
1150.0
 21
50.0
 31
0.0
  0
LINE
  5
A0
330
1F
100
AcDbEntity
  8
MARKETING_DRW
100
AcDbLine
 10
1150.0
 20
275.0
 30
0.0
 11
1650.0
 21
275.0
 31
0.0
  0
LINE
  5
A1
330
1F
100
AcDbEntity
  8
MARKETING_DRW
 62
     7
100
AcDbLine
 10
1850.0
 20
50.0
 30
0.0
 11
1850.0
 21
95.0
 31
0.0
  0
LINE
  5
A2
330
1F
100
AcDbEntity
  8
MARKETING_DRW
100
AcDbLine
 10
2000.0
 20
95.0
 30
0.0
 11
2000.0
 21
50.0
 31
0.0
  0
LINE
  5
A3
330
1F
100
AcDbEntity
  8
MARKETING_DRW
100
AcDbLine
 10
1650.0
 20
275.0
 30
0.0
 11
1650.0
 21
230.0
 31
0.0
  0
LINE
  5
A4
330
1F
100
AcDbEntity
  8
MARKETING_DRW
100
AcDbLine
 10
2050.0
 20
230.0
 30
0.0
 11
1400.0
 21
230.0
 31
0.0
  0
LINE
  5
A5
330
1F
100
AcDbEntity
  8
MARKETING_DRW
100
AcDbLine
 10
1400.0
 20
275.0
 30
0.0
 11
1400.0
 21
185.0
 31
0.0
  0
LINE
  5
A6
330
1F
100
AcDbEntity
  8
MARKETING_DRW
100
AcDbLine
 10
2000.0
 20
230.0
 30
0.0
 11
2000.0
 21
185.0
 31
0.0
  0
LINE
  5
A7
330
1F
100
AcDbEntity
  8
MARKETING_DRW
100
AcDbLine
 10
2050.0
 20
95.0
 30
0.0
 11
1150.0
 21
95.0
 31
0.0
  0
LINE
  5
A8
330
1F
100
AcDbEntity
  8
MARKETING_DRW
100
AcDbLine
 10
1150.0
 20
185.0
 30
0.0
 11
2050.0
 21
185.0
 31
0.0
  0
LINE
  5
A9
330
1F
100
AcDbEntity
  8
MARKETING_DRW
100
AcDbLine
 10
1150.0
 20
50.0
 30
0.0
 11
2050.0
 21
50.0
 31
0.0
  0
LINE
  5
AA
330
1F
100
AcDbEntity
  8
MARKETING_DRW
100
AcDbLine
 10
1900.0
 20
230.0
 30
0.0
 11
1900.0
 21
185.0
 31
0.0
  0
LINE
  5
AB
330
1F
100
AcDbEntity
  8
MARKETING_DRW
100
AcDbLine
 10
1650.0
 20
275.0
 30
0.0
 11
1900.0
 21
275.0
 31
0.0
  0
LINE
  5
AC
330
1F
100
AcDbEntity
  8
MARKETING_DRW
100
AcDbLine
 10
1900.0
 20
275.0
 30
0.0
 11
1900.0
 21
230.0
 31
0.0
  0
LINE
  5
AD
330
1F
100
AcDbEntity
  8
MARKETING_DRW
100
AcDbLine
 10
1900.0
 20
275.0
 30
0.0
 11
2050.0
 21
275.0
 31
0.0
  0
LINE
  5
AE
330
1F
100
AcDbEntity
  8
MARKETING_DRW
100
AcDbLine
 10
2050.0
 20
275.0
 30
0.0
 11
2050.0
 21
230.0
 31
0.0
  0
LINE
  5
AF
330
1F
100
AcDbEntity
  8
MARKETING_DRW
100
AcDbLine
 10
1825.0
 20
275.0
 30
0.0
 11
1825.0
 21
230.0
 31
0.0
  0
LINE
  5
B0
330
1F
100
AcDbEntity
  8
MARKETING_DRW
100
AcDbLine
 10
1650.0
 20
230.0
 30
0.0
 11
1650.0
 21
185.0
 31
0.0
  0
CIRCLE
  5
B1
330
1F
100
AcDbEntity
  8
SINGLE_ARTICLE_DRW
 62
     7
100
AcDbCircle
 10
1967.5
 20
200.0
 30
0.0
 40
5.000000000000224
  0
CIRCLE
  5
B2
330
1F
100
AcDbEntity
  8
SINGLE_ARTICLE_DRW
 62
     7
100
AcDbCircle
 10
1967.5
 20
200.0
 30
0.0
 40
10.00000000000024
  0
CIRCLE
  5
B3
330
1F
100
AcDbEntity
  8
MARKETING_DRW
100
AcDbCircle
 10
1967.5
 20
200.0
 30
0.0
 40
5.000000000000224
  0
CIRCLE
  5
B4
330
1F
100
AcDbEntity
  8
MARKETING_DRW
100
AcDbCircle
 10
1967.5
 20
200.0
 30
0.0
 40
10.00000000000024
  0
MTEXT
  5
B6
330
1F
100
AcDbEntity
  8
SINGLE_ARTICLE_DRW
100
AcDbMText
 10
1155.0
 20
179.9766099061
 30
0.0
 40
9.0
 41
0.0
 71
     1
 72
     1
  1
title:
  7
SLDTEXTSTYLE0
 73
     1
 44
1.0
  0
MTEXT
  5
B7
330
1F
100
AcDbEntity
  8
SINGLE_ARTICLE_DRW
100
AcDbMText
 10
1155.0
 20
314.9766099061
 30
0.0
 40
9.0
 41
0.0
 71
     1
 72
     1
  1
technical reference:
  7
SLDTEXTSTYLE0
 73
     1
 44
1.0
  0
MTEXT
  5
B8
330
1F
100
AcDbEntity
  8
SINGLE_ARTICLE_DRW
100
AcDbMText
 10
2024.7829862405
 20
69.9675136777
 30
0.0
 40
12.5
 41
0.0
 71
     2
 72
     1
  1
1/1
  7
SLDTEXTSTYLE0
 73
     1
 44
1.0
  0
MTEXT
  5
B9
330
1F
100
AcDbEntity
  8
SINGLE_ARTICLE_DRW
100
AcDbMText
 10
2024.7829862405
 20
204.9675136777
 30
0.0
 40
12.5
 41
0.0
 71
     2
 72
     1
  1
1:5
  7
SLDTEXTSTYLE0
 73
     1
 44
1.0
  0
MTEXT
  5
BA
330
1F
100
AcDbEntity
  8
SINGLE_ARTICLE_DRW
100
AcDbMText
 10
1405.0
 20
314.9766099061
 30
0.0
 40
9.0
 41
0.0
 71
     1
 72
     1
  1
general tolerance:
  7
SLDTEXTSTYLE0
 73
     1
 44
1.0
  0
MTEXT
  5
BB
330
1F
100
AcDbEntity
  8
SINGLE_ARTICLE_DRW
100
AcDbMText
 10
1905.0
 20
249.9675136777
 30
0.0
 40
12.5
 41
0.0
 71
     1
 72
     1
  1
production drw.
  7
SLDTEXTSTYLE0
 73
     1
 44
1.0
  0
MTEXT
  5
BC
330
1F
100
AcDbEntity
  8
SINGLE_ARTICLE_DRW
100
AcDbMText
 10
1405.0
 20
269.9766099061
 30
0.0
 40
9.0
 41
0.0
 71
     1
 72
     1
  1
material:
  7
SLDTEXTSTYLE0
 73
     1
 44
1.0
  0
MTEXT
  5
BD
330
1F
100
AcDbEntity
  8
SINGLE_ARTICLE_DRW
100
AcDbMText
 10
1905.0
 20
224.9766099061
 30
0.0
 40
9.0
 41
0.0
 71
     1
 72
     1
  1
projection:ISO-E
  7
SLDTEXTSTYLE0
 73
     1
 44
1.0
  0
MTEXT
  5
BE
330
1F
100
AcDbEntity
  8
SINGLE_ARTICLE_DRW
100
AcDbMText
 10
2024.7500000913
 20
89.9766099061
 30
0.0
 40
9.0
 41
0.0
 71
     2
 72
     1
  1
sheet:
  7
SLDTEXTSTYLE0
 73
     1
 44
1.0
  0
MTEXT
  5
BF
330
1F
100
AcDbEntity
  8
SINGLE_ARTICLE_DRW
100
AcDbMText
 10
1855.0
 20
89.9766099061
 30
0.0
 40
9.0
 41
0.0
 71
     1
 72
     1
  1
release date:
  7
SLDTEXTSTYLE0
 73
     1
 44
1.0
  0
MTEXT
  5
C0
330
1F
100
AcDbEntity
  8
SINGLE_ARTICLE_DRW
100
AcDbMText
 10
1655.0
 20
224.9766099061
 30
0.0
 40
9.0
 41
0.0
 71
     1
 72
     1
  1
reviewed by:
  7
SLDTEXTSTYLE0
 73
     1
 44
1.0
  0
MTEXT
  5
C1
330
1F
100
AcDbEntity
  8
SINGLE_ARTICLE_DRW
100
AcDbMText
 10
1824.8125000894
 20
89.9766099061
 30
0.0
 40
9.0
 41
0.0
 71
     2
 72
     1
  1
index:
  7
SLDTEXTSTYLE0
 73
     1
 44
1.0
  0
MTEXT
  5
C2
330
1F
100
AcDbEntity
  8
SINGLE_ARTICLE_DRW
100
AcDbMText
 10
1905.0
 20
269.9766099061
 30
0.0
 40
9.0
 41
0.0
 71
     1
 72
     1
  1
documenttype:
  7
SLDTEXTSTYLE0
 73
     1
 44
1.0
  0
MTEXT
  5
C3
330
1F
100
AcDbEntity
  8
SINGLE_ARTICLE_DRW
100
AcDbMText
 10
1749.034373872
 20
89.9766099061
 30
0.0
 40
9.0
 41
0.0
 71
     2
 72
     1
  1
drawing-no.:
  7
SLDTEXTSTYLE0
 73
     1
 44
1.0
  0
MTEXT
  5
C4
330
1F
100
AcDbEntity
  8
SINGLE_ARTICLE_DRW
100
AcDbMText
 10
1905.0
 20
314.9766099061
 30
0.0
 40
9.0
 41
0.0
 71
     1
 72
     1
  1
weight:
  7
SLDTEXTSTYLE0
 73
     1
 44
1.0
  0
MTEXT
  5
C5
330
1F
100
AcDbEntity
  8
SINGLE_ARTICLE_DRW
100
AcDbMText
 10
2024.8750000875
 20
224.9766099061
 30
0.0
 40
9.0
 41
0.0
 71
     2
 72
     1
  1
scale:
  7
SLDTEXTSTYLE0
 73
     1
 44
1.0
  0
MTEXT
  5
C6
330
1F
100
AcDbEntity
  8
SINGLE_ARTICLE_DRW
100
AcDbMText
 10
1655.0
 20
314.9766099061
 30
0.0
 40
9.0
 41
0.0
 71
     1
 72
     1
  1
surface:
  7
SLDTEXTSTYLE0
 73
     1
 44
1.0
  0
MTEXT
  5
C7
330
1F
100
AcDbEntity
  8
SINGLE_ARTICLE_DRW
100
AcDbMText
 10
1405.0
 20
224.9766099061
 30
0.0
 40
9.0
 41
0.0
 71
     1
 72
     1
  1
created by:
  7
SLDTEXTSTYLE0
 73
     1
 44
1.0
  0
INSERT
  5
CE
330
1F
100
AcDbEntity
  8
SINGLE_ARTICLE_DRW
100
AcDbBlockReference
  2
SW_NOTE_0
 10
1155.0
 20
78.4000001475
 30
0.0
  0
MTEXT
  5
CF
330
1F
100
AcDbEntity
  8
SINGLE_ARTICLE_DRW
100
AcDbMText
 10
1155.0
 20
114.9675136777
 30
0.0
 40
12.5
 41
0.0
 71
     1
 72
     1
  1
ZB Duschrinne C mit Spalt und Flansch, mit Seitenauslaß, mit FAT GV50 L980, International
  7
SLDTEXTSTYLE0
 73
     1
 44
1.0
  0
MTEXT
  5
D0
330
1F
100
AcDbEntity
  8
SINGLE_ARTICLE_DRW
100
AcDbMText
 10
1155.0
 20
137.4675136777
 30
0.0
 40
12.5
 41
0.0
 71
     1
 72
     1
  1
ASM Shower Channel C with gap and flange, with Side outlet, with FAT GV50 L980, International
  7
SLDTEXTSTYLE0
 73
     1
 44
1.0
  0
MTEXT
  5
D1
330
1F
100
AcDbEntity
  8
SINGLE_ARTICLE_DRW
100
AcDbMText
 10
1155.0
 20
295.0022357116
 30
0.0
 40
12.5
 41
0.0
 71
     1
 72
     1
  1
Tittmar, Alexander
  7
SLDTEXTSTYLE0
 73
     1
 44
1.0
  0
MTEXT
  5
D2
330
1F
100
AcDbEntity
  8
SINGLE_ARTICLE_DRW
100
AcDbMText
 10
1749.0407964215
 20
69.9675136777
 30
0.0
 40
12.5
 41
0.0
 71
     2
 72
     1
  1
1077052-O
  7
SLDTEXTSTYLE0
 73
     1
 44
1.0
  0
MTEXT
  5
D3
330
1F
100
AcDbEntity
  8
SINGLE_ARTICLE_DRW
100
AcDbMText
 10
1824.7395830229
 20
69.9675136777
 30
0.0
 40
12.5
 41
0.0
 71
     2
 72
     1
  1
001
  7
SLDTEXTSTYLE0
 73
     1
 44
1.0
  0
MTEXT
  5
D4
330
1F
100
AcDbEntity
  8
SINGLE_ARTICLE_DRW
100
AcDbMText
 10
1155.0
 20
159.9675136777
 30
0.0
 40
12.5
 41
0.0
 71
     1
 72
     1
  1
ACO ShowerDrain
  7
SLDTEXTSTYLE0
 73
     1
 44
1.0
  0
MTEXT
  5
D5
330
1F
100
AcDbEntity
  8
SINGLE_ARTICLE_DRW
100
AcDbMText
 10
1155.0
 20
334.9766099061
 30
0.0
 40
9.0
 41
0.0
 71
     1
 72
     1
  1
modification:
  7
SLDTEXTSTYLE0
 73
     1
 44
1.0
  0
MTEXT
  5
D6
330
1F
100
AcDbEntity
  8
SINGLE_ARTICLE_DRW
100
AcDbMText
 10
1905.0
 20
294.9675136777
 30
0.0
 40
12.5
 41
0.0
 71
     1
 72
     1
  1
2.124 kg
  7
SLDTEXTSTYLE0
 73
     1
 44
1.0
  0
MTEXT
  5
D7
330
1F
100
AcDbEntity
  8
MARKETING_DRW
100
AcDbMText
 10
1155.0
 20
114.9675136777
 30
0.0
 40
12.5
 41
0.0
 71
     1
 72
     1
  1
ZB Duschrinne C mit Spalt und Flansch, mit Seitenauslaß, mit FAT GV50 L980, International
  7
SLDTEXTSTYLE0
 73
     1
 44
1.0
  0
MTEXT
  5
D8
330
1F
100
AcDbEntity
  8
MARKETING_DRW
100
AcDbMText
 10
1155.0
 20
137.4675136777
 30
0.0
 40
12.5
 41
0.0
 71
     1
 72
     1
  1
ASM Shower Channel C with gap and flange, with Side outlet, with FAT GV50 L980, International
  7
SLDTEXTSTYLE0
 73
     1
 44
1.0
  0
MTEXT
  5
D9
330
1F
100
AcDbEntity
  8
MARKETING_DRW
100
AcDbMText
 10
1736.5407964215
 20
249.9675136777
 30
0.0
 40
12.5
 41
0.0
 71
     2
 72
     1
  1
1077052-O
  7
SLDTEXTSTYLE0
 73
     1
 44
1.0
  0
MTEXT
  5
DA
330
1F
100
AcDbEntity
  8
MARKETING_DRW
100
AcDbMText
 10
1862.2395830229
 20
252.0971433073
 30
0.0
 40
12.5
 41
0.0
 71
     2
 72
     1
  1
001
  7
SLDTEXTSTYLE0
 73
     1
 44
1.0
  0
MTEXT
  5
DB
330
1F
100
AcDbEntity
  8
MARKETING_DRW
100
AcDbMText
 10
1155.0
 20
159.9675136777
 30
0.0
 40
12.5
 41
0.0
 71
     1
 72
     1
  1
ACO ShowerDrain
  7
SLDTEXTSTYLE0
 73
     1
 44
1.0
  0
MTEXT
  5
DC
330
1F
100
AcDbEntity
  8
MARKETING_DRW
100
AcDbMText
 10
1905.0
 20
269.9766099061
 30
0.0
 40
9.0
 41
0.0
 71
     1
 72
     1
  1
documenttype:
  7
SLDTEXTSTYLE0
 73
     1
 44
1.0
  0
MTEXT
  5
DD
330
1F
100
AcDbEntity
  8
MARKETING_DRW
100
AcDbMText
 10
1655.0
 20
224.9766099061
 30
0.0
 40
9.0
 41
0.0
 71
     1
 72
     1
  1
reviewed by:
  7
SLDTEXTSTYLE0
 73
     1
 44
1.0
  0
MTEXT
  5
DE
330
1F
100
AcDbEntity
  8
MARKETING_DRW
100
AcDbMText
 10
1736.534373872
 20
270.0578764559
 30
0.0
 40
9.0
 41
0.0
 71
     2
 72
     1
  1
drawing-no.:
  7
SLDTEXTSTYLE0
 73
     1
 44
1.0
  0
MTEXT
  5
DF
330
1F
100
AcDbEntity
  8
MARKETING_DRW
100
AcDbMText
 10
1905.0
 20
224.9766099061
 30
0.0
 40
9.0
 41
0.0
 71
     1
 72
     1
  1
projection:ISO-E
  7
SLDTEXTSTYLE0
 73
     1
 44
1.0
  0
MTEXT
  5
E0
330
1F
100
AcDbEntity
  8
MARKETING_DRW
100
AcDbMText
 10
2024.7500000913
 20
89.9766099061
 30
0.0
 40
9.0
 41
0.0
 71
     2
 72
     1
  1
sheet:
  7
SLDTEXTSTYLE0
 73
     1
 44
1.0
  0
MTEXT
  5
E1
330
1F
100
AcDbEntity
  8
MARKETING_DRW
100
AcDbMText
 10
2024.7829862405
 20
69.9675136777
 30
0.0
 40
12.5
 41
0.0
 71
     2
 72
     1
  1
1/1
  7
SLDTEXTSTYLE0
 73
     1
 44
1.0
  0
MTEXT
  5
E2
330
1F
100
AcDbEntity
  8
MARKETING_DRW
100
AcDbMText
 10
1855.0
 20
89.9766099061
 30
0.0
 40
9.0
 41
0.0
 71
     1
 72
     1
  1
release date:
  7
SLDTEXTSTYLE0
 73
     1
 44
1.0
  0
MTEXT
  5
E3
330
1F
100
AcDbEntity
  8
MARKETING_DRW
100
AcDbMText
 10
1862.3125000894
 20
269.9766099061
 30
0.0
 40
9.0
 41
0.0
 71
     2
 72
     1
  1
index:
  7
SLDTEXTSTYLE0
 73
     1
 44
1.0
  0
MTEXT
  5
E4
330
1F
100
AcDbEntity
  8
MARKETING_DRW
100
AcDbMText
 10
1155.0
 20
179.9766099061
 30
0.0
 40
9.0
 41
0.0
 71
     1
 72
     1
  1
title:
  7
SLDTEXTSTYLE0
 73
     1
 44
1.0
  0
MTEXT
  5
E5
330
1F
100
AcDbEntity
  8
MARKETING_DRW
100
AcDbMText
 10
2024.8750000875
 20
224.9766099061
 30
0.0
 40
9.0
 41
0.0
 71
     2
 72
     1
  1
scale:
  7
SLDTEXTSTYLE0
 73
     1
 44
1.0
  0
MTEXT
  5
E6
330
1F
100
AcDbEntity
  8
MARKETING_DRW
100
AcDbMText
 10
2024.7829862405
 20
204.9675136777
 30
0.0
 40
12.5
 41
0.0
 71
     2
 72
     1
  1
1:5
  7
SLDTEXTSTYLE0
 73
     1
 44
1.0
  0
INSERT
  5
ED
330
1F
100
AcDbEntity
  8
MARKETING_DRW
100
AcDbBlockReference
  2
SW_NOTE_0_1
 10
1155.0
 20
78.3750002482
 30
0.0
  0
MTEXT
  5
EE
330
1F
100
AcDbEntity
  8
MARKETING_DRW
100
AcDbMText
 10
1905.0
 20
249.9675136777
 30
0.0
 40
12.5
 41
0.0
 71
     1
 72
     1
  1
marketing drw.
  7
SLDTEXTSTYLE0
 73
     1
 44
1.0
  0
MTEXT
  5
EF
330
1F
100
AcDbEntity
  8
MARKETING_DRW
100
AcDbMText
 10
1405.0
 20
224.9766099061
 30
0.0
 40
9.0
 41
0.0
 71
     1
 72
     1
  1
created by:
  7
SLDTEXTSTYLE0
 73
     1
 44
1.0
  0
LINE
  5
F0
330
1F
100
AcDbEntity
  8
0
  6
Continuous
 62
     7
370
    35
100
AcDbLine
 10
1424.8805103357
 20
986.6525199372
 30
0.0
 11
444.8805103357
 21
986.6525199372
 31
0.0
  0
LINE
  5
F1
330
1F
100
AcDbEntity
  8
0
  6
Continuous
 62
     7
370
    35
100
AcDbLine
 10
853.8805103357
 20
966.6673449257
 30
0.0
 11
853.8805103357
 21
963.656081438
 31
0.0
  0
LINE
  5
F2
330
1F
100
AcDbEntity
  8
0
  6
Continuous
 62
     7
370
    35
100
AcDbLine
 10
1015.8805103357
 20
963.656081438
 30
0.0
 11
1015.8805103357
 21
966.6673449257
 31
0.0
  0
ARC
  5
F3
330
1F
100
AcDbEntity
  8
0
  6
Continuous
 62
     7
370
    35
100
AcDbCircle
 10
851.8805103357
 20
966.6593032783
 30
0.0
 40
1.999999999999866
100
AcDbArc
 50
0.2172817996
 51
85.9305858724
  0
ARC
  5
F4
330
1F
100
AcDbEntity
  8
0
  6
Continuous
 62
     7
370
    35
100
AcDbCircle
 10
1017.8805103357
 20
966.6593032783
 30
0.0
 40
1.999999999999937
100
AcDbArc
 50
94.065898605
 51
179.7696267909
  0
LINE
  5
F5
330
1F
100
AcDbEntity
  8
0
  6
Continuous
 62
     7
370
    35
100
AcDbLine
 10
444.8805103357
 20
968.6541308576
 30
0.0
 11
852.0213722793
 21
968.6541308576
 31
0.0
  0
LINE
  5
F6
330
1F
100
AcDbEntity
  8
0
  6
Continuous
 62
     7
370
    35
100
AcDbLine
 10
1017.7396483922
 20
968.6541308576
 30
0.0
 11
1424.8805103357
 21
968.6541308576
 31
0.0
  0
ARC
  5
F7
330
1F
100
AcDbEntity
  8
0
  6
Continuous
 62
     7
370
    35
100
AcDbCircle
 10
1069.5689086814
 20
940.2560814377
 30
0.0
 40
3.000000000000079
100
AcDbArc
 50
78.1402208791
 51
90.0
  0
ARC
  5
F8
330
1F
100
AcDbEntity
  8
0
  6
Continuous
 62
     7
370
    35
100
AcDbCircle
 10
1069.5689086814
 20
896.1560814377
 30
0.0
 40
3.000000000000114
100
AcDbArc
 50
270.0
 51
281.8597791209
  0
LINE
  5
F9
330
1F
100
AcDbEntity
  8
0
  6
Continuous
 62
     7
370
    35
100
AcDbLine
 10
1026.3805103357
 20
893.1560814377
 30
0.0
 11
1069.5689086814
 21
893.1560814377
 31
0.0
  0
LINE
  5
FA
330
1F
100
AcDbEntity
  8
0
  6
Continuous
 62
     7
370
    35
100
AcDbLine
 10
1069.5689086814
 20
943.2560814377
 30
0.0
 11
1026.3805103357
 21
943.2560814377
 31
0.0
  0
LINE
  5
FB
330
1F
100
AcDbEntity
  8
0
  6
Continuous
 62
     7
370
    35
100
AcDbLine
 10
1070.1854603843
 20
893.2201209479
 30
0.0
 11
1074.8805103357
 21
894.2060814377
 31
0.0
  0
LINE
  5
FC
330
1F
100
AcDbEntity
  8
0
  6
Continuous
 62
     7
370
    35
100
AcDbLine
 10
1074.8805103357
 20
942.2060814377
 30
0.0
 11
1070.1854603843
 21
943.1920419275
 31
0.0
  0
LINE
  5
FD
330
1F
100
AcDbEntity
  8
0
  6
Continuous
 62
     7
370
    35
100
AcDbLine
 10
1026.3805103357
 20
943.2060814377
 30
0.0
 11
1024.7783447623
 21
943.2060814377
 31
0.0
  0
LINE
  5
FE
330
1F
100
AcDbEntity
  8
0
  6
Continuous
 62
     7
370
    35
100
AcDbLine
 10
1007.8805103357
 20
893.2060814377
 30
0.0
 11
1026.3805103357
 21
893.2060814377
 31
0.0
  0
LINE
  5
FF
330
1F
100
AcDbEntity
  8
0
  6
Continuous
 62
     7
370
    35
100
AcDbLine
 10
1003.9272927428
 20
893.2060814377
 30
0.0
 11
1007.8805103357
 21
893.2060814377
 31
0.0
  0
LINE
  5
100
330
1F
100
AcDbEntity
  8
0
  6
Continuous
 62
     7
370
    35
100
AcDbLine
 10
444.8805103357
 20
974.6525199372
 30
0.0
 11
444.8805103357
 21
973.6525199372
 31
0.0
  0
LINE
  5
101
330
1F
100
AcDbEntity
  8
0
  6
Continuous
 62
     7
370
    35
100
AcDbLine
 10
1424.8805103357
 20
974.6525199372
 30
0.0
 11
444.8805103357
 21
974.6525199372
 31
0.0
  0
LINE
  5
102
330
1F
100
AcDbEntity
  8
0
  6
Continuous
 62
     7
370
    35
100
AcDbLine
 10
1424.8805103357
 20
974.6525199372
 30
0.0
 11
1424.8805103357
 21
973.6525199372
 31
0.0
  0
LINE
  5
103
330
1F
100
AcDbEntity
  8
0
  6
Continuous
 62
     7
370
    35
100
AcDbLine
 10
1424.8805103357
 20
973.6525199372
 30
0.0
 11
444.8805103357
 21
973.6525199372
 31
0.0
  0
LINE
  5
104
330
1F
100
AcDbEntity
  8
0
  6
Continuous
 62
     7
370
    35
100
AcDbLine
 10
1424.8805103357
 20
974.6525199372
 30
0.0
 11
1424.8805103357
 21
975.6525199372
 31
0.0
  0
LINE
  5
105
330
1F
100
AcDbEntity
  8
0
  6
Continuous
 62
     7
370
    35
100
AcDbLine
 10
444.8805103357
 20
975.6525199372
 30
0.0
 11
444.8805103357
 21
974.6525199372
 31
0.0
  0
LINE
  5
106
330
1F
100
AcDbEntity
  8
0
  6
Continuous
 62
     7
370
    35
100
AcDbLine
 10
1424.8805103357
 20
985.1525199372
 30
0.0
 11
1424.8805103357
 21
975.6525199372
 31
0.0
  0
LINE
  5
107
330
1F
100
AcDbEntity
  8
0
  6
Continuous
 62
     7
370
    35
100
AcDbLine
 10
444.8805103357
 20
975.6525199372
 30
0.0
 11
444.8805103357
 21
985.1525199372
 31
0.0
  0
LINE
  5
108
330
1F
100
AcDbEntity
  8
0
  6
Continuous
 62
     7
370
    35
100
AcDbLine
 10
1424.8805103357
 20
986.6525199372
 30
0.0
 11
1424.8805103357
 21
985.6525199372
 31
0.0
  0
LINE
  5
109
330
1F
100
AcDbEntity
  8
0
  6
Continuous
 62
     7
370
    35
100
AcDbLine
 10
444.8805103357
 20
985.6525199372
 30
0.0
 11
444.8805103357
 21
986.6525199372
 31
0.0
  0
LINE
  5
10A
330
1F
100
AcDbEntity
  8
0
  6
Continuous
 62
     7
370
    35
100
AcDbLine
 10
444.8805103357
 20
972.4144384265
 30
0.0
 11
444.8805103357
 21
973.6525199372
 31
0.0
  0
LINE
  5
10B
330
1F
100
AcDbEntity
  8
0
  6
Continuous
 62
     7
370
    35
100
AcDbLine
 10
1424.8805103357
 20
972.4144384265
 30
0.0
 11
1424.8805103357
 21
973.6525199372
 31
0.0
  0
LINE
  5
10C
330
1F
100
AcDbEntity
  8
0
  6
Continuous
 62
     7
370
    35
100
AcDbLine
 10
1424.8805103357
 20
971.7184678812
 30
0.0
 11
1424.8805103357
 21
972.4144384265
 31
0.0
  0
LINE
  5
10D
330
1F
100
AcDbEntity
  8
0
  6
Continuous
 62
     7
370
    35
100
AcDbLine
 10
444.8805103357
 20
972.4144384265
 30
0.0
 11
444.8805103357
 21
971.7184678812
 31
0.0
  0
SPLINE
  5
10E
330
1F
100
AcDbEntity
  8
0
  6
Continuous
 62
     7
370
    35
100
AcDbSpline
210
0.0
220
0.0
230
1.0
 70
     8
 71
     3
 72
     8
 73
     4
 74
     0
 42
0.000000001
 43
0.00000001
 40
0.0000000000000255
 40
0.0000000000000255
 40
0.0000000000000255
 40
0.0000000000000255
 40
0.0000564308016788
 40
0.0000564308016788
 40
0.0000564308016788
 40
0.0000564308016788
 10
1017.751973115077
 20
968.6573475164413
 30
0.0
 10
1017.757135518889
 20
968.6583729755764
 30
0.0
 10
1017.760146286786
 20
968.6594480998408
 30
0.0
 10
1017.759968838202
 20
968.6605144588723
 30
0.0
  0
SPLINE
  5
10F
330
1F
100
AcDbEntity
  8
0
  6
Continuous
 62
     7
370
    35
100
AcDbSpline
210
0.0
220
0.0
230
1.0
 70
     8
 71
     3
 72
    14
 73
    10
 74
     0
 42
0.000000001
 43
0.00000001
 40
0.0
 40
0.0
 40
0.0
 40
0.0
 40
0.25
 40
0.25
 40
0.5
 40
0.5
 40
0.75
 40
0.75
 40
1.0
 40
1.0
 40
1.0
 40
1.0
 10
1017.759968838331
 20
968.6605144588724
 30
0.0
 10
1017.728596190453
 20
968.8490451626059
 30
0.0
 10
1017.139657278213
 20
969.0370405075112
 30
0.0
 10
1014.907936713636
 20
969.3922438320977
 30
0.0
 10
1013.267691593952
 20
969.5590280794188
 30
0.0
 10
1009.110273836868
 20
969.8533318198182
 30
0.0
 10
1006.597512471024
 20
969.9805265973446
 30
0.0
 10
1000.969699933498
 20
970.181425151218
 30
0.0
 10
997.8604934713687
 20
970.2549199422751
 30
0.0
 10
994.6208418984178
 20
970.2975148204808
 30
0.0
  0
SPLINE
  5
110
330
1F
100
AcDbEntity
  8
0
  6
Continuous
 62
     7
370
    35
100
AcDbSpline
210
0.0
220
0.0
230
1.0
 70
     8
 71
     3
 72
    14
 73
    10
 74
     0
 42
0.000000001
 43
0.00000001
 40
0.0
 40
0.0
 40
0.0
 40
0.0
 40
0.125
 40
0.125
 40
0.2500000000000001
 40
0.2500000000000001
 40
0.5
 40
0.5
 40
1.0
 40
1.0
 40
1.0
 40
1.0
 10
994.6208418983905
 20
970.2975148204736
 30
0.0
 10
994.3447954579442
 20
970.3011442739025
 30
0.0
 10
994.0655008640479
 20
970.3030292297633
 30
0.0
 10
993.5056058242297
 20
970.3060978027753
 30
0.0
 10
993.2249063007345
 20
970.3072282079826
 30
0.0
 10
992.3821444831284
 20
970.3102632110633
 30
0.0
 10
991.8196073781165
 20
970.3117432299985
 30
0.0
 10
990.1321633480009
 20
970.3153341743082
 30
0.0
 10
989.0066094732673
 20
970.3164827844712
 30
0.0
 10
987.8805103357115
 20
970.3164827844712
 30
0.0
  0
LINE
  5
111
330
1F
100
AcDbEntity
  8
0
  6
Continuous
 62
     7
370
    35
100
AcDbLine
 10
987.8805103357
 20
970.3164827845
 30
0.0
 11
881.8805103357
 21
970.3164827845
 31
0.0
  0
SPLINE
  5
112
330
1F
100
AcDbEntity
  8
0
  6
Continuous
 62
     7
370
    35
100
AcDbSpline
210
0.0
220
0.0
230
1.0
 70
     8
 71
     3
 72
    14
 73
    10
 74
     0
 42
0.000000001
 43
0.00000001
 40
0.0
 40
0.0
 40
0.0
 40
0.0
 40
0.5
 40
0.5
 40
0.7500000000000016
 40
0.7500000000000016
 40
0.8750000000000008
 40
0.8750000000000008
 40
1.0
 40
1.0
 40
1.0
 40
1.0
 10
881.8805103357115
 20
970.3164827844712
 30
0.0
 10
880.754607799414
 20
970.3164827844712
 30
0.0
 10
879.629152376751
 20
970.3153345813104
 30
0.0
 10
877.9416967769994
 20
970.3117439436605
 30
0.0
 10
877.3792394209668
 20
970.3102640486211
 30
0.0
 10
876.5368915054861
 20
970.3072312415134
 30
0.0
 10
876.2562790322015
 20
970.3061016817072
 30
0.0
 10
875.6962141185028
 20
970.3030338899802
 30
0.0
 10
875.415641002769
 20
970.3011365927109
 30
0.0
 10
875.1401787730324
 20
970.2975148204736
 30
0.0
  0
SPLINE
  5
113
330
1F
100
AcDbEntity
  8
0
  6
Continuous
 62
     7
370
    35
100
AcDbSpline
210
0.0
220
0.0
230
1.0
 70
     8
 71
     3
 72
    14
 73
    10
 74
     0
 42
0.000000001
 43
0.00000001
 40
0.0
 40
0.0
 40
0.0
 40
0.0
 40
0.25
 40
0.25
 40
0.5
 40
0.5
 40
0.75
 40
0.75
 40
1.0
 40
1.0
 40
1.0
 40
1.0
 10
875.1401787730052
 20
970.2975148204808
 30
0.0
 10
871.900527103909
 20
970.2549199410109
 30
0.0
 10
868.791651091783
 20
970.181435882774
 30
0.0
 10
863.1634186708894
 20
969.9805244625584
 30
0.0
 10
860.6508485242042
 20
969.8533375753316
 30
0.0
 10
856.4934063762812
 20
969.5590349944423
 30
0.0
 10
854.8530666839714
 20
969.3922384272938
 30
0.0
 10
852.6214757004054
 20
969.0370610378287
 30
0.0
 10
852.0324244816999
 20
968.8490451669911
 30
0.0
 10
852.0010518330915
 20
968.6605144588724
 30
0.0
  0
SPLINE
  5
114
330
1F
100
AcDbEntity
  8
0
  6
Continuous
 62
     7
370
    35
100
AcDbSpline
210
0.0
220
0.0
230
1.0
 70
     8
 71
     3
 72
     8
 73
     4
 74
     0
 42
0.000000001
 43
0.00000001
 40
0.0000000000000194
 40
0.0000000000000194
 40
0.0000000000000194
 40
0.0000000000000194
 40
0.0000564308016788
 40
0.0000564308016788
 40
0.0000564308016788
 40
0.0000564308016788
 10
852.0010518332209
 20
968.6605144588723
 30
0.0
 10
852.0008743846371
 20
968.6594480998408
 30
0.0
 10
852.0038851525336
 20
968.6583729755764
 30
0.0
 10
852.009047556346
 20
968.6573475164413
 30
0.0
  0
LINE
  5
115
330
1F
100
AcDbEntity
  8
0
  6
Continuous
 62
     7
370
    35
100
AcDbLine
 10
853.8805103357
 20
963.6560814378
 30
0.0
 11
881.8805103357
 21
963.6560814378
 31
0.0
  0
LINE
  5
116
330
1F
100
AcDbEntity
  8
0
  6
Continuous
 62
     7
370
    35
100
AcDbLine
 10
881.8805103357
 20
963.6560814378
 30
0.0
 11
987.8805103357
 21
963.6560814378
 31
0.0
  0
LINE
  5
117
330
1F
100
AcDbEntity
  8
0
  6
Continuous
 62
     7
370
    35
100
AcDbLine
 10
987.8805103357
 20
963.6560814378
 30
0.0
 11
1009.034666685
 21
963.6560814378
 31
0.0
  0
LINE
  5
118
330
1F
100
AcDbEntity
  8
0
  6
Continuous
 62
     7
370
    35
100
AcDbLine
 10
1009.6697166025
 20
963.6560814378
 30
0.0
 11
1015.8805103357
 21
963.6560814378
 31
0.0
  0
SPLINE
  5
119
330
1F
100
AcDbEntity
  8
0
  6
Continuous
 62
     7
370
    35
100
AcDbSpline
210
0.0
220
0.0
230
1.0
 70
    24
 71
     3
 72
     9
 73
     5
 74
     0
 42
0.000000001
 43
0.00000001
 40
0.0
 40
0.0
 40
0.0
 40
0.0
 40
0.1857572773171746
 40
1.0
 40
1.0
 40
1.0
 40
1.0
 10
852.0214410676152
 20
968.6547318401507
 30
0.0
 10
852.0223787200094
 20
968.6545339466657
 30
0.0
 10
852.0274264490013
 20
968.6534686129795
 30
0.0
 10
852.0172961106372
 20
968.6556066419286
 30
0.0
 10
852.0090475563459
 20
968.6573475164413
 30
0.0
  0
LINE
  5
11A
330
1F
100
AcDbEntity
  8
0
  6
Continuous
 62
     7
370
    35
100
AcDbLine
 10
1017.7519731151
 20
968.6573475164
 30
0.0
 11
1017.7395614284
 21
968.6547280042
 31
0.0
  0
LINE
  5
11B
330
1F
100
AcDbEntity
  8
0
  6
Continuous
 62
     7
370
    35
100
AcDbLine
 10
881.8805103357
 20
966.7060814377
 30
0.0
 11
854.0805103357
 21
966.7060814377
 31
0.0
  0
LINE
  5
11C
330
1F
100
AcDbEntity
  8
0
  6
Continuous
 62
     7
370
    35
100
AcDbLine
 10
987.8805103357
 20
966.7060814377
 30
0.0
 11
1015.6805103357
 21
966.7060814377
 31
0.0
  0
LINE
  5
11D
330
1F
100
AcDbEntity
  8
0
  6
Continuous
 62
     7
370
    35
100
AcDbLine
 10
1026.3805103357
 20
918.2060814377
 30
0.0
 11
1026.3805103357
 21
943.2560814377
 31
0.0
  0
LINE
  5
11E
330
1F
100
AcDbEntity
  8
0
  6
Continuous
 62
     7
370
    35
100
AcDbLine
 10
1026.3805103357
 20
893.1560814377
 30
0.0
 11
1026.3805103357
 21
918.2060814377
 31
0.0
  0
LINE
  5
11F
330
1F
100
AcDbEntity
  8
0
  6
Continuous
 62
     7
370
    35
100
AcDbLine
 10
1074.8805103357
 20
918.2060814377
 30
0.0
 11
1074.8805103357
 21
942.2060814377
 31
0.0
  0
LINE
  5
120
330
1F
100
AcDbEntity
  8
0
  6
Continuous
 62
     7
370
    35
100
AcDbLine
 10
1074.8805103357
 20
894.2060814377
 30
0.0
 11
1074.8805103357
 21
918.2060814377
 31
0.0
  0
ARC
  5
121
330
1F
100
AcDbEntity
  8
0
  6
Continuous
 62
     7
370
    35
100
AcDbCircle
 10
934.8805103357
 20
918.2560814377
 30
0.0
 40
25.04999999999996
100
AcDbArc
 50
237.7865374201
 51
302.2134625799
  0
SPLINE
  5
122
330
1F
100
AcDbEntity
  8
0
  6
Continuous
 62
     7
370
    35
100
AcDbSpline
210
0.0
220
0.0
230
1.0
 70
    24
 71
     3
 72
    10
 73
     6
 74
     0
 42
0.000000001
 43
0.00000001
 40
0.0
 40
0.0
 40
0.0
 40
0.0
 40
0.2125176675663077
 40
0.6062581077228246
 40
1.0
 40
1.0
 40
1.0
 40
1.0
 10
934.8805103357131
 20
943.5680879646395
 30
0.0
 10
934.8805103357122
 20
943.6513714733528
 30
0.0
 10
934.8805103357097
 20
943.8889578489955
 30
0.0
 10
934.8805103357131
 20
944.500422413406
 30
0.0
 10
934.8805103357121
 20
945.1253222517539
 30
0.0
 10
934.8805103357115
 20
945.4377727470868
 30
0.0
  0
SPLINE
  5
123
330
1F
100
AcDbEntity
  8
0
  6
Continuous
 62
     7
370
    35
100
AcDbSpline
210
0.0
220
0.0
230
1.0
 70
    24
 71
     3
 72
    18
 73
    14
 74
     0
 42
0.000000001
 43
0.00000001
 40
0.0
 40
0.0
 40
0.0
 40
0.0
 40
0.1056000872447503
 40
0.3249463313005452
 40
0.5456095245813403
 40
0.6686132746948424
 40
0.7011918426142504
 40
0.7339487647370313
 40
0.7672437697818075
 40
0.803594775916587
 40
0.8401179485066324
 40
0.8975115054529716
 40
1.0
 40
1.0
 40
1.0
 40
1.0
 10
934.8805103357115
 20
945.4377727470865
 30
0.0
 10
934.8805103357115
 20
946.1139813562165
 30
0.0
 10
934.8805103357115
 20
948.1947704205417
 30
0.0
 10
934.8805103357115
 20
951.6267604640683
 30
0.0
 10
934.8805103357115
 20
955.2729249000299
 30
0.0
 10
934.8805103357115
 20
957.4170866464533
 30
0.0
 10
934.8805103357115
 20
958.1991953762375
 30
0.0
 10
934.8805103357115
 20
958.4808143775103
 30
0.0
 10
934.8805103357115
 20
958.9650239802153
 30
0.0
 10
934.8805103357115
 20
959.7251739072682
 30
0.0
 10
934.8805103357115
 20
960.5814827638948
 30
0.0
 10
934.8805103357115
 20
961.9030761476946
 30
0.0
 10
934.8805103357115
 20
962.9713137462741
 30
0.0
 10
934.8805103357115
 20
963.6560814376711
 30
0.0
  0
SPLINE
  5
124
330
1F
100
AcDbEntity
  8
0
  6
Continuous
 62
     7
370
    35
100
AcDbSpline
210
0.0
220
0.0
230
1.0
 70
    24
 71
     3
 72
    19
 73
    15
 74
     0
 42
0.000000001
 43
0.00000001
 40
0.0
 40
0.0
 40
0.0
 40
0.0
 40
0.2409130132110047
 40
0.4882582803106248
 40
0.5391715029117174
 40
0.5899404478678678
 40
0.6400693120936225
 40
0.6899887491764568
 40
0.7400419496428569
 40
0.7904190820051351
 40
0.8413201884464373
 40
0.8929676784851881
 40
0.9456873805534199
 40
1.0
 40
1.0
 40
1.0
 40
1.0
 10
934.8805103357115
 20
963.6560814376711
 30
0.0
 10
942.7265534339931
 20
963.6560814376713
 30
0.0
 10
958.6281249570501
 20
963.6560814376714
 30
0.0
 10
976.1935495423504
 20
963.656081437671
 30
0.0
 10
987.5554363453532
 20
963.6560814376713
 30
0.0
 10
992.5112089395975
 20
963.6560814376704
 30
0.0
 10
997.2955697030076
 20
963.6560814376705
 30
0.0
 10
1001.779147647138
 20
963.6560814376711
 30
0.0
 10
1005.857397937716
 20
963.6560814376713
 30
0.0
 10
1009.430649879211
 20
963.6560814376711
 30
0.0
 10
1012.397055624031
 20
963.656081437671
 30
0.0
 10
1014.627081843396
 20
963.656081437671
 30
0.0
 10
1016.100391940418
 20
963.656081437671
 30
0.0
 10
1016.286215691498
 20
963.656081437671
 30
0.0
 10
1016.380510335712
 20
963.656081437671
 30
0.0
  0
SPLINE
  5
125
330
1F
100
AcDbEntity
  8
0
  6
Continuous
 62
     7
370
    35
100
AcDbSpline
210
0.0
220
0.0
230
1.0
 70
     8
 71
     3
 72
    16
 73
    12
 74
     0
 42
0.000000001
 43
0.00000001
 40
0.0
 40
0.0
 40
0.0
 40
0.0
 40
0.1465768179208892
 40
0.2110706177997897
 40
0.2609182759381881
 40
0.301662719675315
 40
0.3460236197864481
 40
0.4164469026261889
 40
0.5419712682998772
 40
0.7688489389603064
 40
1.0
 40
1.0
 40
1.0
 40
1.0
 10
1016.380510335712
 20
963.656081437671
 30
0.0
 10
1016.373840490182
 20
962.7770291090641
 30
0.0
 10
1016.36423591262
 20
961.5111937559079
 30
0.0
 10
1016.403653775154
 20
959.9941341716867
 30
0.0
 10
1016.318984002777
 20
958.991837316711
 30
0.0
 10
1016.998391024579
 20
958.4448221616922
 30
0.0
 10
1017.806354221713
 20
958.0254957781523
 30
0.0
 10
1018.877122026782
 20
957.0260260969197
 30
0.0
 10
1020.046249284232
 20
954.7458573583741
 30
0.0
 10
1020.649062284896
 20
951.3026325515756
 30
0.0
 10
1021.262283341073
 20
948.6476341423636
 30
0.0
 10
1021.571754533549
 20
947.3077494214419
 30
0.0
  0
SPLINE
  5
126
330
1F
100
AcDbEntity
  8
0
  6
Continuous
 62
     7
370
    35
100
AcDbSpline
210
0.0
220
0.0
230
1.0
 70
     8
 71
     3
 72
    25
 73
    21
 74
     0
 42
0.000000001
 43
0.00000001
 40
0.0
 40
0.0
 40
0.0
 40
0.0
 40
0.0403772850825327
 40
0.0581432905171142
 40
0.0718747463632702
 40
0.0830985540815625
 40
0.0953185813390222
 40
0.1147179721021833
 40
0.1492959713349548
 40
0.2292797835274531
 40
0.3102091618275117
 40
0.3726852819818989
 40
0.4313870265629148
 40
0.4804590282852343
 40
0.5235520429457714
 40
0.5708166295125219
 40
0.6751808706738784
 40
0.7818081507417537
 40
0.8902538127997789
 40
1.0
 40
1.0
 40
1.0
 40
1.0
 10
853.3805103357114
 20
963.656081437671
 30
0.0
 10
853.3871813412416
 20
962.7770287620979
 30
0.0
 10
853.3967875892043
 20
961.5111929093105
 30
0.0
 10
853.3573628712276
 20
959.9941353756111
 30
0.0
 10
853.442047369132
 20
958.9918341161037
 30
0.0
 10
852.7625962597995
 20
958.4448321480434
 30
0.0
 10
851.9548390335984
 20
958.0254441568319
 30
0.0
 10
850.8824541864092
 20
957.0264581467586
 30
0.0
 10
849.5551652672098
 20
954.3987802413636
 30
0.0
 10
848.8809468034488
 20
950.1951289569995
 30
0.0
 10
847.7819456281436
 20
945.4995925318383
 30
0.0
 10
847.0434208805415
 20
941.1903179558686
 30
0.0
 10
846.4816407860377
 20
937.5534536599123
 30
0.0
 10
846.0990996437239
 20
934.3132513909777
 30
0.0
 10
845.9069662415039
 20
931.3040134762125
 30
0.0
 10
845.8363825243302
 20
927.0940914701548
 30
0.0
 10
846.1925209486764
 20
921.5088597124269
 30
0.0
 10
847.4172442311151
 20
914.7018433247085
 30
0.0
 10
849.3928722002124
 20
907.9389107799781
 30
0.0
 10
851.3675349769723
 20
903.6495510963839
 30
0.0
 10
852.3607513207188
 20
901.492087962884
 30
0.0
  0
SPLINE
  5
127
330
1F
100
AcDbEntity
  8
0
  6
Continuous
 62
     7
370
    35
100
AcDbSpline
210
0.0
220
0.0
230
1.0
 70
    24
 71
     3
 72
    19
 73
    15
 74
     0
 42
0.000000001
 43
0.00000001
 40
0.0
 40
0.0
 40
0.0
 40
0.0
 40
0.2409130132110047
 40
0.4882582803106248
 40
0.5391715029117174
 40
0.5899404478678678
 40
0.6400693120936225
 40
0.6899887491764568
 40
0.7400419496428569
 40
0.7904190820051351
 40
0.8413201884464373
 40
0.8929676784851881
 40
0.9456873805534199
 40
1.0
 40
1.0
 40
1.0
 40
1.0
 10
934.8805103357115
 20
963.6560814376711
 30
0.0
 10
927.0344672374299
 20
963.6560814376713
 30
0.0
 10
911.1328957143729
 20
963.6560814376714
 30
0.0
 10
893.5674711290725
 20
963.656081437671
 30
0.0
 10
882.2055843260698
 20
963.6560814376713
 30
0.0
 10
877.2498117318255
 20
963.6560814376704
 30
0.0
 10
872.4654509684154
 20
963.6560814376705
 30
0.0
 10
867.9818730242848
 20
963.6560814376711
 30
0.0
 10
863.9036227337073
 20
963.6560814376713
 30
0.0
 10
860.3303707922122
 20
963.6560814376711
 30
0.0
 10
857.3639650473922
 20
963.656081437671
 30
0.0
 10
855.1339388280271
 20
963.656081437671
 30
0.0
 10
853.660628731005
 20
963.656081437671
 30
0.0
 10
853.4748049799247
 20
963.656081437671
 30
0.0
 10
853.3805103357114
 20
963.656081437671
 30
0.0
  0
SPLINE
  5
128
330
1F
100
AcDbEntity
  8
0
  6
Continuous
 62
     7
370
    35
100
AcDbSpline
210
0.0
220
0.0
230
1.0
 70
     8
 71
     3
 72
    14
 73
    10
 74
     0
 42
0.000000001
 43
0.00000001
 40
0.0
 40
0.0
 40
0.0
 40
0.0
 40
0.149783861674635
 40
0.3039198677007078
 40
0.4537011775423317
 40
0.6078081864720632
 40
0.757933700022959
 40
0.9123691506710971
 40
1.0
 40
1.0
 40
1.0
 40
1.0
 10
852.3607513207188
 20
901.492087962884
 30
0.0
 10
852.7695980338306
 20
900.7669734500431
 30
0.0
 10
853.5991709769335
 20
899.2956753786315
 30
0.0
 10
855.2827062218693
 20
897.4012365818814
 30
0.0
 10
857.2528133939969
 20
895.784757452937
 30
0.0
 10
859.454127435885
 20
894.5346857962417
 30
0.0
 10
861.8546872001309
 20
893.6667881859588
 30
0.0
 10
864.0051993802832
 20
893.2586667721484
 30
0.0
 10
865.347719754011
 20
893.2200581964395
 30
0.0
 10
865.8337279286404
 20
893.2060814376711
 30
0.0
  0
SPLINE
  5
129
330
1F
100
AcDbEntity
  8
0
  6
Continuous
 62
     7
370
    35
100
AcDbSpline
210
0.0
220
0.0
230
1.0
 70
    24
 71
     3
 72
    19
 73
    15
 74
     0
 42
0.000000001
 43
0.00000001
 40
0.0
 40
0.0
 40
0.0
 40
0.0
 40
0.0339082014123468
 40
0.0838890956615421
 40
0.133885640693628
 40
0.178763919083391
 40
0.2236368521988092
 40
0.2646138248638288
 40
0.3055644086924265
 40
0.3465596390526824
 40
0.387605999897298
 40
0.5510999779005354
 40
0.7146015071203452
 40
1.0
 40
1.0
 40
1.0
 40
1.0
 10
865.8337279286404
 20
893.2060814376711
 30
0.0
 10
865.9741577820703
 20
893.2060814376711
 30
0.0
 10
866.3215820899786
 20
893.2060814376711
 30
0.0
 10
867.5194582567759
 20
893.2060814376711
 30
0.0
 10
869.3696530772452
 20
893.2060814376711
 30
0.0
 10
871.6620054977246
 20
893.2060814376711
 30
0.0
 10
874.1848970289747
 20
893.2060814376711
 30
0.0
 10
876.9505147323232
 20
893.2060814376711
 30
0.0
 10
879.8793057396299
 20
893.2060814376711
 30
0.0
 10
883.0257483203819
 20
893.2060814376711
 30
0.0
 10
889.5166048713704
 20
893.2060814376711
 30
0.0
 10
899.2542139853836
 20
893.2060814376711
 30
0.0
 10
915.4570202028058
 20
893.2060814376711
 30
0.0
 10
927.3312171023571
 20
893.2060814376711
 30
0.0
 10
934.8805103357115
 20
893.2060814376711
 30
0.0
  0
SPLINE
  5
12A
330
1F
100
AcDbEntity
  8
0
  6
Continuous
 62
     7
370
    35
100
AcDbSpline
210
0.0
220
0.0
230
1.0
 70
    24
 71
     3
 72
    19
 73
    15
 74
     0
 42
0.000000001
 43
0.00000001
 40
0.0
 40
0.0
 40
0.0
 40
0.0
 40
0.0339064855174944
 40
0.0831372973791105
 40
0.1338840147718002
 40
0.1782456415880458
 40
0.2236320967859899
 40
0.2641259724126861
 40
0.305557060192373
 40
0.3459382551888677
 40
0.38763784298138
 40
0.551087819285942
 40
0.7146159494612702
 40
1.0
 40
1.0
 40
1.0
 40
1.0
 10
1003.927292742783
 20
893.2060814376711
 30
0.0
 10
1003.786706809982
 20
893.2060814376711
 30
0.0
 10
1003.441995928741
 20
893.2060814376711
 30
0.0
 10
1002.253724724633
 20
893.2060814376706
 30
0.0
 10
1000.409010446089
 20
893.2060814376724
 30
0.0
 10
998.1097376618055
 20
893.2060814376707
 30
0.0
 10
995.5958764509819
 20
893.2060814376712
 30
0.0
 10
992.8231690220147
 20
893.2060814376711
 30
0.0
 10
989.9061284724079
 20
893.2060814376712
 30
0.0
 10
986.7587192552152
 20
893.2060814376711
 30
0.0
 10
980.2566715746694
 20
893.2060814376712
 30
0.0
 10
970.5099860427265
 20
893.2060814376711
 30
0.0
 10
954.3038384926251
 20
893.2060814376711
 30
0.0
 10
942.4293820695427
 20
893.2060814376711
 30
0.0
 10
934.8805103357115
 20
893.2060814376711
 30
0.0
  0
LINE
  5
12B
330
1F
100
AcDbEntity
  8
0
  6
Continuous
 62
     7
370
    35
100
AcDbLine
 10
1021.5717545335
 20
947.3077494214
 30
0.0
 11
1021.7938131216
 21
945.8872819322
 31
0.0
  0
SPLINE
  5
12C
330
1F
100
AcDbEntity
  8
0
  6
Continuous
 62
     7
370
    35
100
AcDbSpline
210
0.0
220
0.0
230
1.0
 70
     8
 71
     3
 72
    13
 73
     9
 74
     0
 42
0.000000001
 43
0.00000001
 40
0.0
 40
0.0
 40
0.0
 40
0.0
 40
0.0095081972613503
 40
0.0791116948017361
 40
0.3094644223199412
 40
0.5396843471459964
 40
0.7698410895023545
 40
1.0
 40
1.0
 40
1.0
 40
1.0
 10
1024.778344762238
 20
943.2060814376711
 30
0.0
 10
1024.764478532424
 20
943.2061436016029
 30
0.0
 10
1024.649106405516
 20
943.2066608283561
 30
0.0
 10
1024.198328065382
 20
943.2361959730562
 30
0.0
 10
1023.438853999346
 20
943.4563076601174
 30
0.0
 10
1022.609861866217
 20
944.054348419169
 30
0.0
 10
1022.000205808916
 20
944.891929344269
 30
0.0
 10
1021.86261090004
 20
945.5554966944035
 30
0.0
 10
1021.793813121558
 20
945.8872819322113
 30
0.0
  0
LINE
  5
12D
330
1F
100
AcDbEntity
  8
0
  6
Continuous
 62
     7
370
    35
100
AcDbLine
 10
1457.3805103357
 20
974.6525199372
 30
0.0
 11
1457.3805103357
 21
973.6525199372
 31
0.0
  0
LINE
  5
12E
330
1F
100
AcDbEntity
  8
0
  6
Continuous
 62
     7
370
    35
100
AcDbLine
 10
1457.3805103357
 20
973.6525199372
 30
0.0
 11
1447.3805103357
 21
973.6525199372
 31
0.0
  0
LINE
  5
12F
330
1F
100
AcDbEntity
  8
0
  6
Continuous
 62
     7
370
    35
100
AcDbLine
 10
1447.3805103357
 20
974.6525199372
 30
0.0
 11
1457.3805103357
 21
974.6525199372
 31
0.0
  0
LINE
  5
130
330
1F
100
AcDbEntity
  8
0
  6
Continuous
 62
     7
370
    35
100
AcDbLine
 10
1447.3805103357
 20
973.6525199372
 30
0.0
 11
1424.8805103357
 21
973.6525199372
 31
0.0
  0
LINE
  5
131
330
1F
100
AcDbEntity
  8
0
  6
Continuous
 62
     7
370
    35
100
AcDbLine
 10
1447.3805103357
 20
974.6525199372
 30
0.0
 11
1424.8805103357
 21
974.6525199372
 31
0.0
  0
LINE
  5
132
330
1F
100
AcDbEntity
  8
0
  6
Continuous
 62
     7
370
    35
100
AcDbLine
 10
422.3805103357
 20
973.6525199372
 30
0.0
 11
412.3805103357
 21
973.6525199372
 31
0.0
  0
LINE
  5
133
330
1F
100
AcDbEntity
  8
0
  6
Continuous
 62
     7
370
    35
100
AcDbLine
 10
412.3805103357
 20
973.6525199372
 30
0.0
 11
412.3805103357
 21
974.6525199372
 31
0.0
  0
LINE
  5
134
330
1F
100
AcDbEntity
  8
0
  6
Continuous
 62
     7
370
    35
100
AcDbLine
 10
412.3805103357
 20
974.6525199372
 30
0.0
 11
422.3805103357
 21
974.6525199372
 31
0.0
  0
LINE
  5
135
330
1F
100
AcDbEntity
  8
0
  6
Continuous
 62
     7
370
    35
100
AcDbLine
 10
444.8805103357
 20
974.6525199372
 30
0.0
 11
422.3805103357
 21
974.6525199372
 31
0.0
  0
LINE
  5
136
330
1F
100
AcDbEntity
  8
0
  6
Continuous
 62
     7
370
    35
100
AcDbLine
 10
444.8805103357
 20
973.6525199372
 30
0.0
 11
422.3805103357
 21
973.6525199372
 31
0.0
  0
LINE
  5
137
330
1F
100
AcDbEntity
  8
0
  6
Continuous
 62
     7
370
    35
100
AcDbLine
 10
1424.8805103357
 20
985.6525199372
 30
0.0
 11
1424.8805103357
 21
975.6525199372
 31
0.0
  0
ARC
  5
138
330
1F
100
AcDbEntity
  8
0
  6
Continuous
 62
     7
370
    35
100
AcDbCircle
 10
1425.8805103357
 20
985.6525199372
 30
0.0
 40
1.000000000000227
100
AcDbArc
 50
0.0
 51
180.0
  0
LINE
  5
139
330
1F
100
AcDbEntity
  8
0
  6
Continuous
 62
     7
370
    35
100
AcDbLine
 10
1426.8805103357
 20
985.6525199372
 30
0.0
 11
1426.8805103357
 21
974.6525199372
 31
0.0
  0
LINE
  5
13A
330
1F
100
AcDbEntity
  8
0
  6
Continuous
 62
     7
370
    35
100
AcDbLine
 10
1426.8805103357
 20
973.6525199372
 30
0.0
 11
1426.8805103357
 21
967.9266604588
 31
0.0
  0
LINE
  5
13B
330
1F
100
AcDbEntity
  8
0
  6
Continuous
 62
     7
370
    35
100
AcDbLine
 10
1424.8805103357
 20
971.7184678812
 30
0.0
 11
1424.8805103357
 21
967.9266604588
 31
0.0
  0
LINE
  5
13C
330
1F
100
AcDbEntity
  8
0
  6
Continuous
 62
     7
370
    35
100
AcDbLine
 10
1426.8805103357
 20
967.9266604588
 30
0.0
 11
1426.8805103357
 21
966.1140448848
 31
0.0
  0
LINE
  5
13D
330
1F
100
AcDbEntity
  8
0
  6
Continuous
 62
     7
370
    35
100
AcDbLine
 10
1424.8805103357
 20
966.1140448848
 30
0.0
 11
1424.8805103357
 21
967.9266604588
 31
0.0
  0
LINE
  5
13E
330
1F
100
AcDbEntity
  8
0
  6
Continuous
 62
     7
370
    35
100
AcDbLine
 10
1426.8805103357
 20
966.1140448848
 30
0.0
 11
1426.8805103357
 21
958.8557456002
 31
0.0
  0
LINE
  5
13F
330
1F
100
AcDbEntity
  8
0
  6
Continuous
 62
     7
370
    35
100
AcDbLine
 10
1424.8805103357
 20
966.1140448848
 30
0.0
 11
1424.8805103357
 21
958.8557456002
 31
0.0
  0
LINE
  5
140
330
1F
100
AcDbEntity
  8
0
  6
Continuous
 62
     7
370
    35
100
AcDbLine
 10
1426.8805103357
 20
958.8557456002
 30
0.0
 11
1426.8805103357
 21
957.0431300261
 31
0.0
  0
LINE
  5
141
330
1F
100
AcDbEntity
  8
0
  6
Continuous
 62
     7
370
    35
100
AcDbLine
 10
1424.8805103357
 20
957.0431300261
 30
0.0
 11
1424.8805103357
 21
958.8557456002
 31
0.0
  0
LINE
  5
142
330
1F
100
AcDbEntity
  8
0
  6
Continuous
 62
     7
370
    35
100
AcDbLine
 10
1426.8805103357
 20
957.0431300261
 30
0.0
 11
1426.8805103357
 21
922.7525199372
 31
0.0
  0
LINE
  5
143
330
1F
100
AcDbEntity
  8
0
  6
Continuous
 62
     7
370
    35
100
AcDbLine
 10
1424.8805103357
 20
957.0431300261
 30
0.0
 11
1424.8805103357
 21
922.7525199372
 31
0.0
  0
LINE
  5
144
330
1F
100
AcDbEntity
  8
0
  6
Continuous
 62
     7
370
    35
100
AcDbLine
 10
1426.8805103357
 20
920.7525199372
 30
0.0
 11
1424.8805103357
 21
920.7525199372
 31
0.0
  0
LINE
  5
145
330
1F
100
AcDbEntity
  8
0
  6
Continuous
 62
     7
370
    35
100
AcDbLine
 10
1426.8805103357
 20
922.7525199372
 30
0.0
 11
1426.8805103357
 21
920.7525199372
 31
0.0
  0
LINE
  5
146
330
1F
100
AcDbEntity
  8
0
  6
Continuous
 62
     7
370
    35
100
AcDbLine
 10
1424.8805103357
 20
920.7525199372
 30
0.0
 11
1424.8805103357
 21
922.7525199372
 31
0.0
  0
ARC
  5
147
330
1F
100
AcDbEntity
  8
0
  6
Continuous
 62
     7
370
    35
100
AcDbCircle
 10
443.8805103357
 20
985.6525199372
 30
0.0
 40
1.000000000000057
100
AcDbArc
 50
0.0
 51
180.0
  0
LINE
  5
148
330
1F
100
AcDbEntity
  8
0
  6
Continuous
 62
     7
370
    35
100
AcDbLine
 10
444.8805103357
 20
975.6525199372
 30
0.0
 11
444.8805103357
 21
985.6525199372
 31
0.0
  0
LINE
  5
149
330
1F
100
AcDbEntity
  8
0
  6
Continuous
 62
     7
370
    35
100
AcDbLine
 10
442.8805103357
 20
974.6525199372
 30
0.0
 11
442.8805103357
 21
985.6525199372
 31
0.0
  0
LINE
  5
14A
330
1F
100
AcDbEntity
  8
0
  6
Continuous
 62
     7
370
    35
100
AcDbLine
 10
444.8805103357
 20
967.9266604588
 30
0.0
 11
444.8805103357
 21
971.7184678812
 31
0.0
  0
LINE
  5
14B
330
1F
100
AcDbEntity
  8
0
  6
Continuous
 62
     7
370
    35
100
AcDbLine
 10
442.8805103357
 20
967.9266604588
 30
0.0
 11
442.8805103357
 21
973.6525199372
 31
0.0
  0
LINE
  5
14C
330
1F
100
AcDbEntity
  8
0
  6
Continuous
 62
     7
370
    35
100
AcDbLine
 10
444.8805103357
 20
967.9266604588
 30
0.0
 11
444.8805103357
 21
966.1140448848
 31
0.0
  0
LINE
  5
14D
330
1F
100
AcDbEntity
  8
0
  6
Continuous
 62
     7
370
    35
100
AcDbLine
 10
442.8805103357
 20
966.1140448848
 30
0.0
 11
442.8805103357
 21
967.9266604588
 31
0.0
  0
LINE
  5
14E
330
1F
100
AcDbEntity
  8
0
  6
Continuous
 62
     7
370
    35
100
AcDbLine
 10
444.8805103357
 20
958.8557456002
 30
0.0
 11
444.8805103357
 21
966.1140448848
 31
0.0
  0
LINE
  5
14F
330
1F
100
AcDbEntity
  8
0
  6
Continuous
 62
     7
370
    35
100
AcDbLine
 10
442.8805103357
 20
958.8557456002
 30
0.0
 11
442.8805103357
 21
966.1140448848
 31
0.0
  0
LINE
  5
150
330
1F
100
AcDbEntity
  8
0
  6
Continuous
 62
     7
370
    35
100
AcDbLine
 10
444.8805103357
 20
958.8557456002
 30
0.0
 11
444.8805103357
 21
957.0431300261
 31
0.0
  0
LINE
  5
151
330
1F
100
AcDbEntity
  8
0
  6
Continuous
 62
     7
370
    35
100
AcDbLine
 10
442.8805103357
 20
957.0431300261
 30
0.0
 11
442.8805103357
 21
958.8557456002
 31
0.0
  0
LINE
  5
152
330
1F
100
AcDbEntity
  8
0
  6
Continuous
 62
     7
370
    35
100
AcDbLine
 10
444.8805103357
 20
922.7525199372
 30
0.0
 11
444.8805103357
 21
957.0431300261
 31
0.0
  0
LINE
  5
153
330
1F
100
AcDbEntity
  8
0
  6
Continuous
 62
     7
370
    35
100
AcDbLine
 10
442.8805103357
 20
922.7525199372
 30
0.0
 11
442.8805103357
 21
957.0431300261
 31
0.0
  0
LINE
  5
154
330
1F
100
AcDbEntity
  8
0
  6
Continuous
 62
     7
370
    35
100
AcDbLine
 10
444.8805103357
 20
920.7525199372
 30
0.0
 11
442.8805103357
 21
920.7525199372
 31
0.0
  0
LINE
  5
155
330
1F
100
AcDbEntity
  8
0
  6
Continuous
 62
     7
370
    35
100
AcDbLine
 10
444.8805103357
 20
922.7525199372
 30
0.0
 11
444.8805103357
 21
920.7525199372
 31
0.0
  0
LINE
  5
156
330
1F
100
AcDbEntity
  8
0
  6
Continuous
 62
     7
370
    35
100
AcDbLine
 10
442.8805103357
 20
920.7525199372
 30
0.0
 11
442.8805103357
 21
922.7525199372
 31
0.0
  0
LINE
  5
157
330
1F
100
AcDbEntity
  8
0
  6
Continuous
 62
     8
370
    18
100
AcDbLine
 10
1424.8805103357
 20
975.6525199372
 30
0.0
 11
444.8805103357
 21
975.6525199372
 31
0.0
  0
LINE
  5
158
330
1F
100
AcDbEntity
  8
0
  6
Continuous
 62
     8
370
    18
100
AcDbLine
 10
444.8805103357
 20
985.1525199372
 30
0.0
 11
1424.8805103357
 21
985.1525199372
 31
0.0
  0
LINE
  5
159
330
1F
100
AcDbEntity
  8
0
  6
Continuous
 62
     8
370
    18
100
AcDbLine
 10
444.8805103357
 20
972.4144384265
 30
0.0
 11
1424.8805103357
 21
972.4144384265
 31
0.0
  0
LINE
  5
15A
330
1F
100
AcDbEntity
  8
0
  6
Continuous
 62
     8
370
    18
100
AcDbLine
 10
444.8805103357
 20
970.4176550854
 30
0.0
 11
1424.8805103357
 21
970.4176550854
 31
0.0
  0
LINE
  5
15B
330
1F
100
AcDbEntity
  8
0
  6
Continuous
 62
     8
370
    18
100
AcDbLine
 10
444.8805103357
 20
968.6573475164
 30
0.0
 11
852.0090475563
 21
968.6573475164
 31
0.0
  0
LINE
  5
15C
330
1F
100
AcDbEntity
  8
0
  6
Continuous
 62
     8
370
    18
100
AcDbLine
 10
1017.7519731151
 20
968.6573475164
 30
0.0
 11
1424.8805103357
 21
968.6573475164
 31
0.0
  0
SPLINE
  5
15D
330
1F
100
AcDbEntity
  8
0
  6
Continuous
 62
     8
370
    18
100
AcDbSpline
210
0.0
220
0.0
230
1.0
 70
     8
 71
     3
 72
    10
 73
     6
 74
     0
 42
0.000000001
 43
0.00000001
 40
0.0
 40
0.0
 40
0.0
 40
0.0
 40
0.5
 40
0.5
 40
1.0
 40
1.0
 40
1.0
 40
1.0
 10
881.8805103357115
 20
968.4314483507943
 30
0.0
 10
880.8136980783659
 20
968.4314483507943
 30
0.0
 10
879.7541806669097
 20
968.4129957339362
 30
0.0
 10
877.6490542320824
 20
968.3599721275399
 30
0.0
 10
876.6034419113751
 20
968.3255021504192
 30
0.0
 10
875.564398228616
 20
968.3108650144756
 30
0.0
  0
ARC
  5
15E
330
1F
100
AcDbEntity
  8
0
  6
Continuous
 62
     8
370
    18
100
AcDbCircle
 10
872.3938346551
 20
968.6724561937
 30
0.0
 40
3.191116035872236
100
AcDbArc
 50
353.4937367838
 51
30.6135263841
  0
LINE
  5
15F
330
1F
100
AcDbEntity
  8
0
  6
Continuous
 62
     8
370
    18
100
AcDbLine
 10
881.8805103357
 20
968.4314483508
 30
0.0
 11
881.8805103357
 21
970.3164827845
 31
0.0
  0
SPLINE
  5
160
330
1F
100
AcDbEntity
  8
0
  6
Continuous
 62
     8
370
    18
100
AcDbSpline
210
0.0
220
0.0
230
1.0
 70
     8
 71
     3
 72
    10
 73
     6
 74
     0
 42
0.000000001
 43
0.00000001
 40
0.0
 40
0.0
 40
0.0
 40
0.0
 40
0.5
 40
0.5
 40
1.0
 40
1.0
 40
1.0
 40
1.0
 10
994.1966224428069
 20
968.3108650146106
 30
0.0
 10
993.1575787600485
 20
968.3255021505547
 30
0.0
 10
992.1119664393406
 20
968.3599721275399
 30
0.0
 10
990.0068400045133
 20
968.4129957339362
 30
0.0
 10
988.9473225930528
 20
968.4314483504977
 30
0.0
 10
987.880510335709
 20
968.4314483504976
 30
0.0
  0
LINE
  5
161
330
1F
100
AcDbEntity
  8
0
  6
Continuous
 62
     8
370
    18
100
AcDbLine
 10
987.8805103357
 20
968.4314483507
 30
0.0
 11
987.8805103357
 21
970.3164827845
 31
0.0
  0
ARC
  5
162
330
1F
100
AcDbEntity
  8
0
  6
Continuous
 62
     8
370
    18
100
AcDbCircle
 10
997.367186016
 20
968.6724561938
 30
0.0
 40
3.191116035540827
100
AcDbArc
 50
149.386473613
 51
186.5062632177
  0
LINE
  5
163
330
1F
100
AcDbEntity
  8
0
  6
Continuous
 62
     8
370
    18
100
AcDbLine
 10
987.8805103357
 20
968.4314483507
 30
0.0
 11
881.8805103357
 21
968.4314483508
 31
0.0
  0
ELLIPSE
  5
164
330
1F
100
AcDbEntity
  8
0
  6
Continuous
 62
     8
370
    18
100
AcDbEllipse
 10
987.8805103357
 20
966.6512486767
 30
0.0
 11
27.99999999999989
 21
0.0
 31
0.0
210
0.0
220
0.0
230
1.0
 40
0.0608401234
 41
0.009448938617684
 42
1.343262674843448
  0
ARC
  5
165
330
1F
100
AcDbEntity
  8
0
  6
Continuous
 62
     8
370
    18
100
AcDbCircle
 10
1017.8786612848
 20
966.664637868
 30
0.0
 40
1.999402726573857
100
AcDbArc
 50
93.4033047991
 51
179.9224253183
  0
ELLIPSE
  5
166
330
1F
100
AcDbEntity
  8
0
  6
Continuous
 62
     8
370
    18
100
AcDbEllipse
 10
881.8805103357
 20
966.6512486767
 30
0.0
 11
28.0
 21
0.0
 31
0.0
210
0.0
220
0.0
230
1.0
 40
0.0608401234
 41
1.798329978746348
 42
3.132143714972111
  0
ARC
  5
167
330
1F
100
AcDbEntity
  8
0
  6
Continuous
 62
     8
370
    18
100
AcDbCircle
 10
851.8823593866
 20
966.664637868
 30
0.0
 40
1.999402726574208
100
AcDbArc
 50
0.0775746817
 51
86.5966952046
  0
LINE
  5
168
330
1F
100
AcDbEntity
  8
0
  6
Continuous
 62
     8
370
    18
100
AcDbLine
 10
881.8805103357
 20
968.4314483508
 30
0.0
 11
881.8805103357
 21
963.6560814378
 31
0.0
  0
LINE
  5
169
330
1F
100
AcDbEntity
  8
0
  6
Continuous
 62
     8
370
    18
100
AcDbLine
 10
987.8805103357
 20
968.4314483507
 30
0.0
 11
987.8805103357
 21
963.6560814378
 31
0.0
  0
LINE
  5
16A
330
1F
100
AcDbEntity
  8
0
  6
Continuous
 62
     8
370
    18
100
AcDbLine
 10
881.8805103357
 20
966.3632799094
 30
0.0
 11
853.9404827545
 21
966.3632799094
 31
0.0
  0
LINE
  5
16B
330
1F
100
AcDbEntity
  8
0
  6
Continuous
 62
     8
370
    18
100
AcDbLine
 10
987.8805103357
 20
966.3632799094
 30
0.0
 11
1015.820537917
 21
966.3632799094
 31
0.0
  0
LINE
  5
16C
330
1F
100
AcDbEntity
  8
0
  6
Continuous
 62
     8
370
    18
100
AcDbLine
 10
1069.5689086814
 20
893.1560814377
 30
0.0
 11
1069.5689086814
 21
943.2560814377
 31
0.0
  0
LINE
  5
16D
330
1F
100
AcDbEntity
  8
0
  6
Continuous
 62
     8
370
    18
100
AcDbLine
 10
1070.1854603843
 20
943.1920419275
 30
0.0
 11
1070.1854603843
 21
893.2201209479
 31
0.0
  0
SPLINE
  5
16E
330
1F
100
AcDbEntity
  8
0
  6
Continuous
 62
     8
370
    18
100
AcDbSpline
210
0.0
220
0.0
230
1.0
 70
     8
 71
     3
 72
    33
 73
    29
 74
     0
 42
0.000000001
 43
0.00000001
 40
0.0
 40
0.0
 40
0.0
 40
0.0
 40
0.0420694805196953
 40
0.084388443038162
 40
0.105425411836355
 40
0.1478084180885781
 40
0.1908708294596756
 40
0.2346249844283154
 40
0.2566774230954352
 40
0.2919631051304047
 40
0.3274716165362355
 40
0.3636903997735275
 40
0.4001608597629994
 40
0.4308871503519112
 40
0.4617758629698845
 40
0.492919821056773
 40
0.524414595046751
 40
0.5762252118466479
 40
0.6285929245268294
 40
0.6833701247922489
 40
0.7388451995033065
 40
0.7691720205739079
 40
0.8150603675630221
 40
0.8615324906874935
 40
0.8956623911437293
 40
0.9301881902968918
 40
0.9649049432978499
 40
0.9999999999999999
 40
0.9999999999999999
 40
0.9999999999999999
 40
0.9999999999999999
 10
934.880510335714
 20
943.5680879646395
 30
0.0
 10
935.6975399001933
 20
943.5473302280097
 30
0.0
 10
937.3364442082767
 20
943.505691656448
 30
0.0
 10
939.3643810428645
 20
943.2088741978118
 30
0.0
 10
941.3682059272642
 20
942.7831449776686
 30
0.0
 10
943.3512628875192
 20
942.2103731714041
 30
0.0
 10
945.6763510961449
 20
941.2931279118881
 30
0.0
 10
947.5496287384616
 20
940.3363894980889
 30
0.0
 10
949.2158368731932
 20
939.3266175741747
 30
0.0
 10
950.6837177037888
 20
938.3038228657389
 30
0.0
 10
952.2761545519517
 20
936.992252909981
 30
0.0
 10
953.7743454199751
 20
935.5382060768206
 30
0.0
 10
955.0874550806527
 20
934.0322495377162
 30
0.0
 10
956.2192239520026
 20
932.510027833713
 30
0.0
 10
957.1850754050623
 20
930.9955324320183
 30
0.0
 10
958.0465115997314
 20
929.3997089458692
 30
0.0
 10
958.9551914750365
 20
927.3728352283447
 30
0.0
 10
959.7932504362576
 20
924.8680700683558
 30
0.0
 10
960.4020061626958
 20
921.8332815341654
 30
0.0
 10
960.6203800815938
 20
918.6793111580056
 30
0.0
 10
960.4482644321829
 20
915.9644793612036
 30
0.0
 10
960.0335682681593
 20
913.4733689809578
 30
0.0
 10
959.444054583374
 20
911.2081157751535
 30
0.0
 10
958.5987587724584
 20
908.9718818044702
 30
0.0
 10
957.6574740981997
 20
907.0318976425131
 30
0.0
 10
956.6871934748713
 20
905.3715127460683
 30
0.0
 10
955.5987697334258
 20
903.7757417284181
 30
0.0
 10
954.7791858438111
 20
902.7865842679622
 30
0.0
 10
954.3671732745837
 20
902.289325461613
 30
0.0
  0
LINE
  5
16F
330
1F
100
AcDbEntity
  8
0
  6
Continuous
 62
     8
370
    18
100
AcDbLine
 10
954.3671732746
 20
902.2893254616
 30
0.0
 11
945.7984141217
 21
911.3519687022
 31
0.0
  0
SPLINE
  5
170
330
1F
100
AcDbEntity
  8
0
  6
Continuous
 62
     8
370
    18
100
AcDbSpline
210
0.0
220
0.0
230
1.0
 70
     8
 71
     3
 72
    19
 73
    15
 74
     0
 42
0.000000001
 43
0.00000001
 40
0.0
 40
0.0
 40
0.0
 40
0.0
 40
0.0723119353046642
 40
0.1445206361806436
 40
0.2538055534572515
 40
0.3457400466261739
 40
0.437602028824457
 40
0.5576187311953655
 40
0.6329165099067156
 40
0.7083141187347097
 40
0.8053610917388586
 40
0.9023999691423442
 40
0.9968144251432692
 40
1.0
 40
1.0
 40
1.0
 40
1.0
 10
945.7984141217331
 20
911.3519687022272
 30
0.0
 10
946.331035216252
 20
911.8855419628999
 30
0.0
 10
947.3955170213482
 20
912.9519267409661
 30
0.0
 10
948.9583289457516
 20
915.092829296932
 30
0.0
 10
950.1596418630332
 20
917.7297671440972
 30
0.0
 10
950.3793693273999
 20
920.838209652005
 30
0.0
 10
949.4998108006118
 20
923.9306046001794
 30
0.0
 10
947.7797896083498
 20
926.4485968099851
 30
0.0
 10
945.663097465202
 20
928.3273002837495
 30
0.0
 10
943.4765951885963
 20
929.7136246977253
 30
0.0
 10
940.8895650918905
 20
930.8342720157484
 30
0.0
 10
937.9618841759035
 20
931.5635209586518
 30
0.0
 10
935.9297547408178
 20
931.715095004324
 30
0.0
 10
934.9136742639531
 20
931.7027805239226
 30
0.0
 10
934.8805103357139
 20
931.7023785906567
 30
0.0
  0
SPLINE
  5
171
330
1F
100
AcDbEntity
  8
0
  6
Continuous
 62
     8
370
    18
100
AcDbSpline
210
0.0
220
0.0
230
1.0
 70
    24
 71
     3
 72
    21
 73
    17
 74
     0
 42
0.000000001
 43
0.00000001
 40
0.0
 40
0.0
 40
0.0
 40
0.0
 40
0.0720514219264897
 40
0.1446031256583
 40
0.2187326761060853
 40
0.2934074331762746
 40
0.3654588516753345
 40
0.4380105213676727
 40
0.5121399203051921
 40
0.5868144764983392
 40
0.6588679246026017
 40
0.7314216095207169
 40
0.8055529476989866
 40
0.8802294033636555
 40
0.9908667802310033
 40
1.0
 40
1.0
 40
1.0
 40
1.0
 10
934.8805103357104
 20
943.5680879646395
 30
0.0
 10
934.8805103357115
 20
943.413535122669
 30
0.0
 10
934.8805103357136
 20
943.103356316606
 30
0.0
 10
934.8805103357198
 20
942.5326916638777
 30
0.0
 10
934.8805103356951
 20
941.8837128947291
 30
0.0
 10
934.8805103357204
 20
941.1608717945072
 30
0.0
 10
934.8805103357092
 20
940.3767095577349
 30
0.0
 10
934.8805103357162
 20
939.5339488030965
 30
0.0
 10
934.8805103357073
 20
938.6250645501069
 30
0.0
 10
934.8805103357074
 20
937.6680937549226
 30
0.0
 10
934.8805103357057
 20
936.6758029234863
 30
0.0
 10
934.8805103357156
 20
935.6513271126106
 30
0.0
 10
934.8805103357101
 20
934.5861852703486
 30
0.0
 10
934.8805103356988
 20
933.313606147452
 30
0.0
 10
934.8805103357511
 20
932.3444439902411
 30
0.0
 10
934.8805103357026
 20
931.747870838784
 30
0.0
 10
934.880510335699
 20
931.7023785906567
 30
0.0
  0
SPLINE
  5
172
330
1F
100
AcDbEntity
  8
0
  6
Continuous
 62
     8
370
    18
100
AcDbSpline
210
0.0
220
0.0
230
1.0
 70
     8
 71
     3
 72
    33
 73
    29
 74
     0
 42
0.000000001
 43
0.00000001
 40
0.0
 40
0.0
 40
0.0
 40
0.0
 40
0.0272519121761657
 40
0.0643955705395717
 40
0.1017679836315407
 40
0.1399161503387467
 40
0.1783602451249384
 40
0.2309313350457289
 40
0.2840751350454411
 40
0.3463079719325252
 40
0.377860591735393
 40
0.4098349893637235
 40
0.4664493290388058
 40
0.5237708874937607
 40
0.5552660258970178
 40
0.5869395080180234
 40
0.6191572696364612
 40
0.6515559584292161
 40
0.6730472716079228
 40
0.7163558120329137
 40
0.760380096383268
 40
0.8051322093176837
 40
0.8276949767825338
 40
0.8487242154456202
 40
0.8910915758444983
 40
0.9341506962041376
 40
0.977926365073945
 40
1.0
 40
1.0
 40
1.0
 40
1.0
 10
915.3938473968393
 20
902.289325461613
 30
0.0
 10
915.072376623003
 20
902.6739146786576
 30
0.0
 10
914.3127494174269
 20
903.5826891490459
 30
0.0
 10
913.2296299116825
 20
905.1220794556588
 30
0.0
 10
912.1571085009042
 20
906.9213310676057
 30
0.0
 10
911.2226131306993
 20
908.8408233198332
 30
0.0
 10
910.3476825463831
 20
911.1163849478012
 30
0.0
 10
909.6343563098778
 20
913.7725847226848
 30
0.0
 10
909.1894201132022
 20
916.9749337970092
 30
0.0
 10
909.1887662129168
 20
919.8292978809367
 30
0.0
 10
909.4633758635451
 20
922.2550972295503
 30
0.0
 10
909.9018027103738
 20
924.548325053656
 30
0.0
 10
910.7288652650295
 20
927.2679660823105
 30
0.0
 10
911.9097676654883
 20
929.8389665945866
 30
0.0
 10
913.0991833050281
 20
931.8474990361808
 30
0.0
 10
914.1540684343413
 20
933.3622676155034
 30
0.0
 10
915.3276394623169
 20
934.8062813505047
 30
0.0
 10
916.4688974488752
 20
936.0148459670684
 30
0.0
 10
917.8365366937746
 20
937.2953828827335
 30
0.0
 10
919.4700285232748
 20
938.613455227515
 30
0.0
 10
921.6003033186998
 20
940.0090439108201
 30
0.0
 10
923.5061121954828
 20
941.0063804146192
 30
0.0
 10
925.0727943949511
 20
941.6824259694025
 30
0.0
 10
926.6284017210872
 20
942.2661588874871
 30
0.0
 10
928.6060601388526
 20
942.8539113666172
 30
0.0
 10
931.0665922792336
 20
943.3333828790553
 30
0.0
 10
933.1735026524392
 20
943.5454802307585
 30
0.0
 10
934.4519547737125
 20
943.5624121436142
 30
0.0
 10
934.8805103357106
 20
943.5680879646395
 30
0.0
  0
SPLINE
  5
173
330
1F
100
AcDbEntity
  8
0
  6
Continuous
 62
     8
370
    18
100
AcDbSpline
210
0.0
220
0.0
230
1.0
 70
     8
 71
     3
 72
    20
 73
    16
 74
     0
 42
0.000000001
 43
0.00000001
 40
0.0
 40
0.0
 40
0.0
 40
0.0
 40
0.0031848875244883
 40
0.0996872166702682
 40
0.1961928561586083
 40
0.2929138960264281
 40
0.3894614585497527
 40
0.4531459406897254
 40
0.5167654851003685
 40
0.6214864979190139
 40
0.726880812540412
 40
0.8182687157727467
 40
0.8939620144270485
 40
0.9698304221395907
 40
1.0
 40
1.0
 40
1.0
 40
1.0
 10
934.8805103357139
 20
931.7023785906567
 30
0.0
 10
934.8473463401285
 20
931.7027812375333
 30
0.0
 10
933.8093108088457
 20
931.7153841147493
 30
0.0
 10
931.7607741443047
 20
931.5546465045094
 30
0.0
 10
928.821094012009
 20
930.819122323652
 30
0.0
 10
926.0414778048702
 20
929.6094782015632
 30
0.0
 10
923.7987710815087
 20
928.1164721737645
 30
0.0
 10
922.1169638789682
 20
926.4886083634307
 30
0.0
 10
920.6654172479688
 20
924.5463554887457
 30
0.0
 10
919.5113778807054
 20
921.8788861863941
 30
0.0
 10
919.4115761163449
 20
918.6542875741777
 30
0.0
 10
920.3575960508904
 20
915.9334566577926
 30
0.0
 10
921.7094602893216
 20
913.7826580196299
 30
0.0
 10
922.9449492269315
 20
912.3401384998707
 30
0.0
 10
923.7371984221215
 20
911.5708454290243
 30
0.0
 10
923.9626065496901
 20
911.3519687022272
 30
0.0
  0
LINE
  5
174
330
1F
100
AcDbEntity
  8
0
  6
Continuous
 62
     8
370
    18
100
AcDbLine
 10
915.3938473968
 20
902.2893254616
 30
0.0
 11
923.9626065497
 21
911.3519687022
 31
0.0
  0
SPLINE
  5
175
330
1F
100
AcDbEntity
  8
0
  6
Continuous
 62
     8
370
    18
100
AcDbSpline
210
0.0
220
0.0
230
1.0
 70
     8
 71
     3
 72
     9
 73
     5
 74
     0
 42
0.000000001
 43
0.00000001
 40
0.0
 40
0.0
 40
0.0
 40
0.0
 40
0.5770474436019665
 40
1.0
 40
1.0
 40
1.0
 40
1.0
 10
921.526979374417
 20
897.0620796714697
 30
0.0
 10
920.2669289812388
 20
897.9168758361294
 30
0.0
 10
918.0833123529203
 20
899.3982031934157
 30
0.0
 10
916.193252881866
 20
901.4299801878052
 30
0.0
 10
915.3938473968393
 20
902.289325461613
 30
0.0
  0
SPLINE
  5
176
330
1F
100
AcDbEntity
  8
0
  6
Continuous
 62
     8
370
    18
100
AcDbSpline
210
0.0
220
0.0
230
1.0
 70
     8
 71
     3
 72
    10
 73
     6
 74
     0
 42
0.000000001
 43
0.00000001
 40
0.0
 40
0.0
 40
0.0
 40
0.0
 40
0.2479681796226357
 40
0.4972688069878627
 40
1.0
 40
1.0
 40
1.0
 40
1.0
 10
923.9626065496901
 20
911.3519687022272
 30
0.0
 10
924.3073066974671
 20
911.0454741322648
 30
0.0
 10
924.9985592263778
 20
910.430838055227
 30
0.0
 10
926.4955660851944
 20
909.3247678371239
 30
0.0
 10
927.6711086003037
 20
908.5673167688442
 30
0.0
 10
928.456955521995
 20
908.0609628235903
 30
0.0
  0
LINE
  5
177
330
1F
100
AcDbEntity
  8
0
  6
Continuous
 62
     8
370
    18
100
AcDbLine
 10
928.456955522
 20
908.0609628236
 30
0.0
 11
921.5269793744
 21
897.0620796715
 31
0.0
  0
ARC
  5
178
330
1F
100
AcDbEntity
  8
0
  6
Continuous
 62
     8
370
    18
100
AcDbCircle
 10
934.8805103357
 20
918.2560814377
 30
0.0
 40
12.04999999999996
100
AcDbArc
 50
237.7865374201
 51
302.2134625799
  0
LINE
  5
179
330
1F
100
AcDbEntity
  8
0
  6
Continuous
 62
     8
370
    18
100
AcDbLine
 10
941.3040651494
 20
908.0609628236
 30
0.0
 11
948.234041297
 21
897.0620796715
 31
0.0
  0
SPLINE
  5
17A
330
1F
100
AcDbEntity
  8
0
  6
Continuous
 62
     8
370
    18
100
AcDbSpline
210
0.0
220
0.0
230
1.0
 70
     8
 71
     3
 72
    10
 73
     6
 74
     0
 42
0.000000001
 43
0.00000001
 40
0.0
 40
0.0
 40
0.0
 40
0.0
 40
0.3514670345888545
 40
0.7035972473579619
 40
1.0
 40
1.0
 40
1.0
 40
1.0
 10
941.304065149428
 20
908.0609628235903
 30
0.0
 10
941.853952754622
 20
908.4137978354603
 30
0.0
 10
942.9547655401607
 20
909.1201336185978
 30
0.0
 10
944.4777396761879
 20
910.1917689226188
 30
0.0
 10
945.38415150733
 20
910.9880429856725
 30
0.0
 10
945.7984141217331
 20
911.3519687022272
 30
0.0
  0
SPLINE
  5
17B
330
1F
100
AcDbEntity
  8
0
  6
Continuous
 62
     8
370
    18
100
AcDbSpline
210
0.0
220
0.0
230
1.0
 70
     8
 71
     3
 72
     9
 73
     5
 74
     0
 42
0.000000001
 43
0.00000001
 40
0.0
 40
0.0
 40
0.0
 40
0.0
 40
0.3490261811818432
 40
1.0
 40
1.0
 40
1.0
 40
1.0
 10
954.3671732745837
 20
902.289325461613
 30
0.0
 10
953.7115873165651
 20
901.5751826346882
 30
0.0
 10
951.8332584307531
 20
899.5290816100986
 30
0.0
 10
949.6532013682349
 20
898.0348108285094
 30
0.0
 10
948.234041297006
 20
897.0620796714697
 30
0.0
  0
SPLINE
  5
17C
330
1F
100
AcDbEntity
  8
0
  6
Continuous
 62
     8
370
    18
100
AcDbSpline
210
0.0
220
0.0
230
1.0
 70
     8
 71
     3
 72
    25
 73
    21
 74
     0
 42
0.000000001
 43
0.00000001
 40
0.0
 40
0.0
 40
0.0
 40
0.0
 40
0.0492540181151013
 40
0.1492409839198746
 40
0.2001416191492482
 40
0.2518526251234172
 40
0.3040335595223633
 40
0.3577923743443072
 40
0.4121322905460628
 40
0.4583035622698645
 40
0.5524517173646445
 40
0.6005416407375762
 40
0.6462083951794704
 40
0.7390265475467571
 40
0.7862778751716629
 40
0.8386307217057708
 40
0.891400426103428
 40
0.9454768104145392
 40
0.9999986794956643
 40
1.0
 40
1.0
 40
1.0
 40
1.0
 10
913.3885969571065
 20
901.5326354498121
 30
0.0
 10
912.9352282867421
 20
902.0643415311755
 30
0.0
 10
911.5615091662938
 20
903.6754250889355
 30
0.0
 10
910.0215491347841
 20
906.1148560009415
 30
0.0
 10
908.7630206676665
 20
908.7733806226456
 30
0.0
 10
907.979148943209
 20
910.904042654817
 30
0.0
 10
907.374729105587
 20
913.1573922494565
 30
0.0
 10
906.9734881512187
 20
915.5155334771588
 30
0.0
 10
906.8055749547128
 20
917.8281706157147
 30
0.0
 10
906.8552108946568
 20
920.7643841581867
 30
0.0
 10
907.2603794455043
 20
923.6044062395653
 30
0.0
 10
908.0115402364484
 20
926.3520022013441
 30
0.0
 10
908.9755794926956
 20
929.0088099789629
 30
0.0
 10
910.2427959364979
 20
931.5295984314356
 30
0.0
 10
911.8502910741696
 20
933.947310841773
 30
0.0
 10
913.2797864382552
 20
935.744262407144
 30
0.0
 10
914.9284829978842
 20
937.4810491852189
 30
0.0
 10
916.7492250025466
 20
939.0816180869243
 30
0.0
 10
918.06660841497
 20
940.0426872605375
 30
0.0
 10
918.7483500182386
 20
940.4935099361226
 30
0.0
 10
918.7483665294287
 20
940.4935208546565
 30
0.0
  0
SPLINE
  5
17D
330
1F
100
AcDbEntity
  8
0
  6
Continuous
 62
     8
370
    18
100
AcDbSpline
210
0.0
220
0.0
230
1.0
 70
     8
 71
     3
 72
    17
 73
    13
 74
     0
 42
0.000000001
 43
0.00000001
 40
0.0
 40
0.0
 40
0.0
 40
0.0
 40
0.0000034855140939
 40
0.1237311811743978
 40
0.2481852880018883
 40
0.3749118306512845
 40
0.5024199211247026
 40
0.6249563428645112
 40
0.7482076745729956
 40
0.8737113440217109
 40
0.9999965144859068
 40
1.0
 40
1.0
 40
1.0
 40
1.0
 10
918.7483665294287
 20
940.4935208546565
 30
0.0
 10
918.7483828204913
 20
940.4935320862894
 30
0.0
 10
919.3266941896901
 20
940.89224032849
 30
0.0
 10
920.5185688919702
 20
941.6483711421472
 30
0.0
 10
922.4032983967628
 20
942.6508528183383
 30
0.0
 10
924.3825262226947
 20
943.5154871223505
 30
0.0
 10
926.4157540951176
 20
944.2219433956623
 30
0.0
 10
928.4805675067747
 20
944.7681138220279
 30
0.0
 10
930.5720417910412
 20
945.1579343326041
 30
0.0
 10
932.7107036042669
 20
945.3926138383827
 30
0.0
 10
934.1559393149724
 20
945.4410326468784
 30
0.0
 10
934.8804903384063
 20
945.4377728370558
 30
0.0
 10
934.8805103357115
 20
945.4377727470865
 30
0.0
  0
ARC
  5
17E
330
1F
100
AcDbEntity
  8
0
  6
Continuous
 62
     8
370
    18
100
AcDbCircle
 10
915.5245212341
 20
898.9077051419
 30
0.0
 40
3.384144151532255
100
AcDbArc
 50
92.2129439008
 51
129.1354920666
  0
SPLINE
  5
17F
330
1F
100
AcDbEntity
  8
0
  6
Continuous
 62
     8
370
    18
100
AcDbSpline
210
0.0
220
0.0
230
1.0
 70
     8
 71
     3
 72
    13
 73
     9
 74
     0
 42
0.000000001
 43
0.00000001
 40
0.0
 40
0.0
 40
0.0
 40
0.0
 40
0.000003488132369
 40
0.2457799679353303
 40
0.4975795644761283
 40
0.745764556359691
 40
0.9999965118676328
 40
1.0
 40
1.0
 40
1.0
 40
1.0
 10
934.8805103357115
 20
945.4377727470865
 30
0.0
 10
934.8805303330167
 20
945.4377728370558
 30
0.0
 10
936.2895757782206
 20
945.4441122407102
 30
0.0
 10
939.1468113045041
 20
945.245513942818
 30
0.0
 10
943.3237758296195
 20
944.313444773657
 30
0.0
 10
947.3437861862716
 20
942.7496048650562
 30
0.0
 10
949.8252501344012
 20
941.3121590329146
 30
0.0
 10
951.0126378509318
 20
940.4935320862894
 30
0.0
 10
951.0126541419943
 20
940.4935208546565
 30
0.0
  0
SPLINE
  5
180
330
1F
100
AcDbEntity
  8
0
  6
Continuous
 62
     8
370
    18
100
AcDbSpline
210
0.0
220
0.0
230
1.0
 70
     8
 71
     3
 72
    19
 73
    15
 74
     0
 42
0.000000001
 43
0.00000001
 40
0.0
 40
0.0
 40
0.0
 40
0.0
 40
0.0000013213841023
 40
0.0176852170218708
 40
0.1143733902378734
 40
0.2137145610419427
 40
0.3053523452007506
 40
0.3995000333270461
 40
0.4922123793434038
 40
0.5879403428335862
 40
0.6917200092822475
 40
0.7998090016712736
 40
0.8985189583178737
 40
1.0
 40
1.0
 40
1.0
 40
1.0
 10
951.0126541419943
 20
940.4935208546565
 30
0.0
 10
951.0126706531844
 20
940.4935099361226
 30
0.0
 10
951.2336540747641
 20
940.3473778277836
 30
0.0
 10
952.6486544679494
 20
939.3811345461463
 30
0.0
 10
955.1203401394764
 20
937.3194806230715
 30
0.0
 10
957.9552426132151
 20
934.0305522415913
 30
0.0
 10
960.2086823112603
 20
930.3482187008356
 30
0.0
 10
961.8125589977461
 20
926.4341903942747
 30
0.0
 10
962.7854109108014
 20
922.2481241940139
 30
0.0
 10
963.0551002033391
 20
917.8225831600731
 30
0.0
 10
962.5166221801168
 20
913.2233384768682
 30
0.0
 10
961.1288053935828
 20
908.8451830180388
 30
0.0
 10
959.0805575773734
 20
904.8595768703887
 30
0.0
 10
957.2834270854866
 20
902.651802744744
 30
0.0
 10
956.3724237143165
 20
901.5326354498122
 30
0.0
  0
ARC
  5
181
330
1F
100
AcDbEntity
  8
0
  6
Continuous
 62
     8
370
    18
100
AcDbCircle
 10
954.2364994373
 20
898.9077051419
 30
0.0
 40
3.384144151531783
100
AcDbArc
 50
50.8645079334
 51
87.7870560992
  0
SPLINE
  5
182
330
1F
100
AcDbEntity
  8
0
  6
Continuous
 62
     8
370
    18
100
AcDbSpline
210
0.0
220
0.0
230
1.0
 70
     8
 71
     3
 72
    14
 73
    10
 74
     0
 42
0.000000001
 43
0.00000001
 40
0.0
 40
0.0
 40
0.0
 40
0.0
 40
0.0706469358108949
 40
0.2691496022583708
 40
0.4748299235320576
 40
0.6841240356853443
 40
0.8123563766451367
 40
0.9412272031615676
 40
1.0
 40
1.0
 40
1.0
 40
1.0
 10
901.2311175192494
 20
903.5852374191229
 30
0.0
 10
901.2296411656301
 20
904.3976362892006
 30
0.0
 10
901.2240165764691
 20
907.4927009264251
 30
0.0
 10
901.3028438750368
 20
913.2160502013949
 30
0.0
 10
901.4285588967969
 20
920.8052442941578
 30
0.0
 10
901.4897048113928
 20
927.5865887099984
 30
0.0
 10
901.4674651195181
 20
933.3755596159389
 30
0.0
 10
901.4217297101947
 20
937.26892823459
 30
0.0
 10
901.3863341820413
 20
939.5488083565621
 30
0.0
 10
901.3752477718135
 20
940.2629010010597
 30
0.0
  0
ARC
  5
183
330
1F
100
AcDbEntity
  8
0
  6
Continuous
 62
     8
370
    18
100
AcDbCircle
 10
901.1700378575
 20
897.2581395641
 30
0.0
 40
6.327392669391714
100
AcDbArc
 50
89.4469031132
 51
106.8009889676
  0
SPLINE
  5
184
330
1F
100
AcDbEntity
  8
0
  6
Continuous
 62
     8
370
    18
100
AcDbSpline
210
0.0
220
0.0
230
1.0
 70
     8
 71
     3
 72
    14
 73
    10
 74
     0
 42
0.000000001
 43
0.00000001
 40
0.0
 40
0.0
 40
0.0
 40
0.0
 40
0.0588507131428024
 40
0.1865507860318865
 40
0.3150706499745842
 40
0.5205160403891209
 40
0.7296050309949651
 40
0.9289213534635682
 40
1.0
 40
1.0
 40
1.0
 40
1.0
 10
899.33982022657
 20
940.4153002392602
 30
0.0
 10
899.3394926970542
 20
939.6934320816868
 30
0.0
 10
899.33845446174
 20
937.4051833075392
 30
0.0
 10
899.3352837385555
 20
933.4790611212494
 30
0.0
 10
899.3338130482949
 20
927.6755885888442
 30
0.0
 10
899.3415832995843
 20
920.8062034704566
 30
0.0
 10
899.3427201891511
 20
913.1278814949598
 30
0.0
 10
899.3411810046953
 20
907.2951785597983
 30
0.0
 10
899.3411292382659
 20
904.1438366855293
 30
0.0
 10
899.3411156304397
 20
903.3154443673556
 30
0.0
  0
ARC
  5
185
330
1F
100
AcDbEntity
  8
0
  6
Continuous
 62
     8
370
    18
100
AcDbCircle
 10
901.1137364158
 20
950.4388573303
 30
0.0
 40
10.17931605779855
100
AcDbArc
 50
259.964010462
 51
271.4721171423
  0
ARC
  5
186
330
1F
100
AcDbEntity
  8
0
  6
Continuous
 62
     8
370
    18
100
AcDbCircle
 10
898.1525864996
 20
907.3972791516
 30
0.0
 40
4.251349985715849
100
AcDbArc
 50
269.1903220348
 51
286.2342508995
  0
SPLINE
  5
187
330
1F
100
AcDbEntity
  8
0
  6
Continuous
 62
     8
370
    18
100
AcDbSpline
210
0.0
220
0.0
230
1.0
 70
     8
 71
     3
 72
    14
 73
    10
 74
     0
 42
0.000000001
 43
0.00000001
 40
0.0
 40
0.0
 40
0.0
 40
0.0
 40
0.2078011624980595
 40
0.4196948388477489
 40
0.5443918098789573
 40
0.6699512654772862
 40
0.7982264655367505
 40
0.9274422558336511
 40
1.0
 40
1.0
 40
1.0
 40
1.0
 10
897.9881838335114
 20
940.5639138663037
 30
0.0
 10
897.9579997763357
 20
937.9765186730348
 30
0.0
 10
897.8970372058678
 20
932.7507711573799
 30
0.0
 10
897.9087069646771
 20
925.7876277472933
 30
0.0
 10
897.9646823859574
 20
919.9114331544133
 30
0.0
 10
898.0192809092844
 20
915.1359804875035
 30
0.0
 10
898.0697951526191
 20
910.383091325294
 30
0.0
 10
898.0972509422977
 20
906.3759334761543
 30
0.0
 10
898.0937641866849
 20
904.0005436259327
 30
0.0
 10
898.0925103496919
 20
903.1463536574306
 30
0.0
  0
ARC
  5
188
330
1F
100
AcDbEntity
  8
0
  6
Continuous
 62
     8
370
    18
100
AcDbCircle
 10
897.9884866701
 20
934.345815513
 30
0.0
 40
6.21809836072342
100
AcDbArc
 50
77.4481726938
 51
90.0027904447
  0
SPLINE
  5
189
330
1F
100
AcDbEntity
  8
0
  6
Continuous
 62
     8
370
    18
100
AcDbSpline
210
0.0
220
0.0
230
1.0
 70
     8
 71
     3
 72
    14
 73
    10
 74
     0
 42
0.000000001
 43
0.00000001
 40
0.0
 40
0.0
 40
0.0
 40
0.0
 40
0.0588507131428024
 40
0.1865507860318865
 40
0.3150706499745841
 40
0.5205160403891208
 40
0.7296050309949651
 40
0.9289213534635682
 40
1.0
 40
1.0
 40
1.0
 40
1.0
 10
970.4212004448528
 20
940.4153002392602
 30
0.0
 10
970.4215279743688
 20
939.6934320816868
 30
0.0
 10
970.4225662096829
 20
937.4051833075392
 30
0.0
 10
970.4257369328674
 20
933.4790611212494
 30
0.0
 10
970.4272076231281
 20
927.6755885888442
 30
0.0
 10
970.4194373718387
 20
920.8062034704566
 30
0.0
 10
970.4183004822718
 20
913.1278814949598
 30
0.0
 10
970.4198396667276
 20
907.2951785597983
 30
0.0
 10
970.419891433157
 20
904.1438366855293
 30
0.0
 10
970.4199050409833
 20
903.3154443673556
 30
0.0
  0
ARC
  5
18A
330
1F
100
AcDbEntity
  8
0
  6
Continuous
 62
     8
370
    18
100
AcDbCircle
 10
968.5909828139
 20
897.2581395641
 30
0.0
 40
6.327392669388426
100
AcDbArc
 50
73.1990110324
 51
90.5530968868
  0
SPLINE
  5
18B
330
1F
100
AcDbEntity
  8
0
  6
Continuous
 62
     8
370
    18
100
AcDbSpline
210
0.0
220
0.0
230
1.0
 70
     8
 71
     3
 72
    14
 73
    10
 74
     0
 42
0.000000001
 43
0.00000001
 40
0.0
 40
0.0
 40
0.0
 40
0.0
 40
0.0706469358108949
 40
0.2691496022583709
 40
0.4748299235320582
 40
0.6841240356853449
 40
0.8123563766451374
 40
0.9412272031615684
 40
1.0
 40
1.0
 40
1.0
 40
1.0
 10
968.5299031521736
 20
903.5852374191229
 30
0.0
 10
968.5313795057928
 20
904.3976362892006
 30
0.0
 10
968.537004094954
 20
907.4927009264251
 30
0.0
 10
968.458176796386
 20
913.2160502013949
 30
0.0
 10
968.3324617746262
 20
920.8052442941578
 30
0.0
 10
968.2713158600302
 20
927.5865887099984
 30
0.0
 10
968.293555551905
 20
933.3755596159388
 30
0.0
 10
968.3392909612279
 20
937.26892823459
 30
0.0
 10
968.374686489382
 20
939.5488083565618
 30
0.0
 10
968.3857728996101
 20
940.2629010010597
 30
0.0
  0
ARC
  5
18C
330
1F
100
AcDbEntity
  8
0
  6
Continuous
 62
     8
370
    18
100
AcDbCircle
 10
968.6472842556
 20
950.4388573303
 30
0.0
 40
10.17931605779059
100
AcDbArc
 50
268.5278828577
 51
280.035989538
  0
SPLINE
  5
18D
330
1F
100
AcDbEntity
  8
0
  6
Continuous
 62
     8
370
    18
100
AcDbSpline
210
0.0
220
0.0
230
1.0
 70
     8
 71
     3
 72
    14
 73
    10
 74
     0
 42
0.000000001
 43
0.00000001
 40
0.0
 40
0.0
 40
0.0
 40
0.0
 40
0.2078011624980596
 40
0.4196948388477489
 40
0.5443918098789571
 40
0.6699512654772862
 40
0.7982264655367506
 40
0.9274422558336511
 40
1.0
 40
1.0
 40
1.0
 40
1.0
 10
971.7728368379117
 20
940.5639138663037
 30
0.0
 10
971.8030208950873
 20
937.9765186730348
 30
0.0
 10
971.8639834655552
 20
932.7507711573799
 30
0.0
 10
971.8523137067458
 20
925.7876277472933
 30
0.0
 10
971.7963382854655
 20
919.9114331544133
 30
0.0
 10
971.7417397621386
 20
915.1359804875035
 30
0.0
 10
971.6912255188039
 20
910.383091325294
 30
0.0
 10
971.6637697291253
 20
906.3759334761543
 30
0.0
 10
971.6672564847381
 20
904.0005436259327
 30
0.0
 10
971.6685103217311
 20
903.1463536574306
 30
0.0
  0
ARC
  5
18E
330
1F
100
AcDbEntity
  8
0
  6
Continuous
 62
     8
370
    18
100
AcDbCircle
 10
971.6084341718
 20
907.3972791516
 30
0.0
 40
4.251349985714488
100
AcDbArc
 50
253.7657491005
 51
270.8096779652
  0
ARC
  5
18F
330
1F
100
AcDbEntity
  8
0
  6
Continuous
 62
     8
370
    18
100
AcDbCircle
 10
971.7725340013
 20
934.345815513
 30
0.0
 40
6.218098360726035
100
AcDbArc
 50
89.9972095553
 51
102.5518273062
  0
SPLINE
  5
190
330
1F
100
AcDbEntity
  8
0
  6
Continuous
 62
     8
370
    18
100
AcDbSpline
210
0.0
220
0.0
230
1.0
 70
     8
 71
     3
 72
    14
 73
    10
 74
     0
 42
0.000000001
 43
0.00000001
 40
0.0
 40
0.0
 40
0.0
 40
0.0
 40
0.127247386060472
 40
0.2554745767697363
 40
0.3810919869018175
 40
0.5075916090131541
 40
0.7089607368256274
 40
0.9137762176246975
 40
1.0
 40
1.0
 40
1.0
 40
1.0
 10
890.4069095237994
 20
903.3474252841388
 30
0.0
 10
890.4054644858203
 20
904.8373346480695
 30
0.0
 10
890.4025632830723
 20
907.8286256754119
 30
0.0
 10
890.4062649175695
 20
912.467388286704
 30
0.0
 10
890.4119187192842
 20
917.178964280183
 30
0.0
 10
890.4204674042146
 20
922.8705946061712
 30
0.0
 10
890.4289768909949
 20
929.6026617334668
 30
0.0
 10
890.4223471149528
 20
935.7854646596666
 30
0.0
 10
890.4174059147526
 20
939.3547415728887
 30
0.0
 10
890.4159420264576
 20
940.4121815637893
 30
0.0
  0
ARC
  5
191
330
1F
100
AcDbEntity
  8
0
  6
Continuous
 62
     8
370
    18
100
AcDbCircle
 10
888.4958058248
 20
897.5762221204
 30
0.0
 40
6.079399913265187
100
AcDbArc
 50
71.6779814803
 51
90.2649234322
  0
SPLINE
  5
192
330
1F
100
AcDbEntity
  8
0
  6
Continuous
 62
     8
370
    18
100
AcDbSpline
210
0.0
220
0.0
230
1.0
 70
     8
 71
     3
 72
    15
 73
    11
 74
     0
 42
0.000000001
 43
0.00000001
 40
0.0
 40
0.0
 40
0.0
 40
0.0
 40
0.1214527241786899
 40
0.2436356162157051
 40
0.3679634748124463
 40
0.4929996451849699
 40
0.6185865433805134
 40
0.7450337263104054
 40
0.8719902588119078
 40
1.0
 40
1.0
 40
1.0
 40
1.0
 10
888.366418950519
 20
940.2190431712529
 30
0.0
 10
888.3492072888366
 20
938.745656416312
 30
0.0
 10
888.3146804898005
 20
935.7900249770705
 30
0.0
 10
888.282801741124
 20
931.2450709828354
 30
0.0
 10
888.2854034836723
 20
926.6313397750446
 30
0.0
 10
888.317973285536
 20
921.9672317958473
 30
0.0
 10
888.366754063754
 20
917.2982121465252
 30
0.0
 10
888.4193669035245
 20
912.663187597294
 30
0.0
 10
888.4629718583227
 20
908.0776811469859
 30
0.0
 10
888.4661170086679
 20
905.1336521221659
 30
0.0
 10
888.467696079797
 20
903.6555570468295
 30
0.0
  0
ARC
  5
193
330
1F
100
AcDbEntity
  8
0
  6
Continuous
 62
     8
370
    18
100
AcDbCircle
 10
888.5076780792
 20
949.691058397
 30
0.0
 40
9.473068488023989
100
AcDbArc
 50
269.1455934394
 51
281.6212347178
  0
SPLINE
  5
194
330
1F
100
AcDbEntity
  8
0
  6
Continuous
 62
     8
370
    18
100
AcDbSpline
210
0.0
220
0.0
230
1.0
 70
     8
 71
     3
 72
    15
 73
    11
 74
     0
 42
0.000000001
 43
0.00000001
 40
0.0
 40
0.0
 40
0.0
 40
0.0
 40
0.1214527241786898
 40
0.2436356162157049
 40
0.3679634748124463
 40
0.4929996451849699
 40
0.6185865433805134
 40
0.7450337263104054
 40
0.871990258811908
 40
1.0
 40
1.0
 40
1.0
 40
1.0
 10
981.394601720904
 20
940.2190431712529
 30
0.0
 10
981.4118133825864
 20
938.745656416312
 30
0.0
 10
981.4463401816224
 20
935.7900249770705
 30
0.0
 10
981.4782189302991
 20
931.2450709828354
 30
0.0
 10
981.4756171877505
 20
926.6313397750446
 30
0.0
 10
981.4430473858869
 20
921.9672317958473
 30
0.0
 10
981.3942666076689
 20
917.2982121465252
 30
0.0
 10
981.3416537678985
 20
912.663187597294
 30
0.0
 10
981.2980488131003
 20
908.0776811469859
 30
0.0
 10
981.2949036627551
 20
905.1336521221659
 30
0.0
 10
981.293324591626
 20
903.6555570468295
 30
0.0
  0
ARC
  5
195
330
1F
100
AcDbEntity
  8
0
  6
Continuous
 62
     8
370
    18
100
AcDbCircle
 10
981.2652148466
 20
897.5762221204
 30
0.0
 40
6.079399913266589
100
AcDbArc
 50
89.7350765678
 51
108.3220185197
  0
SPLINE
  5
196
330
1F
100
AcDbEntity
  8
0
  6
Continuous
 62
     8
370
    18
100
AcDbSpline
210
0.0
220
0.0
230
1.0
 70
     8
 71
     3
 72
    14
 73
    10
 74
     0
 42
0.000000001
 43
0.00000001
 40
0.0
 40
0.0
 40
0.0
 40
0.0
 40
0.1277343155302419
 40
0.2554736424753121
 40
0.3815295141037229
 40
0.5075900262814131
 40
0.7106819552125376
 40
0.9137761853290126
 40
1.0
 40
1.0
 40
1.0
 40
1.0
 10
979.3541111476235
 20
903.3474252841388
 30
0.0
 10
979.35558351814
 20
904.8431783079666
 30
0.0
 10
979.3585283169385
 20
907.8347430386697
 30
0.0
 10
979.3547319655337
 20
912.4786783594288
 30
0.0
 10
979.3490705071741
 20
917.1845784464634
 30
0.0
 10
979.3401946882792
 20
922.8976931803697
 30
0.0
 10
979.334318449396
 20
929.6247307115517
 30
0.0
 10
979.3384956025229
 20
935.8065633661982
 30
0.0
 10
979.3435671888727
 20
939.3547389381201
 30
0.0
 10
979.3450786449654
 20
940.4121815637893
 30
0.0
  0
ARC
  5
197
330
1F
100
AcDbEntity
  8
0
  6
Continuous
 62
     8
370
    18
100
AcDbCircle
 10
981.2533425922
 20
949.691058397
 30
0.0
 40
9.473068488023989
100
AcDbArc
 50
258.3787652822
 51
270.8544065607
  0
SPLINE
  5
198
330
1F
100
AcDbEntity
  8
0
  6
Continuous
 62
     8
370
    18
100
AcDbSpline
210
0.0
220
0.0
230
1.0
 70
     8
 71
     3
 72
    14
 73
    10
 74
     0
 42
0.000000001
 43
0.00000001
 40
0.0
 40
0.0
 40
0.0
 40
0.0
 40
0.1296969008660535
 40
0.2603671951156627
 40
0.3853421446376519
 40
0.511184755725962
 40
0.6397642884787734
 40
0.7692911603858883
 40
1.0
 40
1.0
 40
1.0
 40
1.0
 10
978.0115128151501
 20
903.1463536574306
 30
0.0
 10
978.0126193156817
 20
904.6804046413783
 30
0.0
 10
978.0148406211864
 20
907.7600198764981
 30
0.0
 10
977.9894778142686
 20
912.4958832678669
 30
0.0
 10
977.9587036869275
 20
917.2672223392913
 30
0.0
 10
977.9283858352862
 20
922.076369026749
 30
0.0
 10
977.9063294629777
 20
926.9677492816477
 30
0.0
 10
977.905064609713
 20
933.1967756936649
 30
0.0
 10
977.9348487076184
 20
937.6877321740943
 30
0.0
 10
977.9539235923312
 20
940.5639138663037
 30
0.0
  0
ARC
  5
199
330
1F
100
AcDbEntity
  8
0
  6
Continuous
 62
     8
370
    18
100
AcDbCircle
 10
977.9928002081
 20
934.4670965096
 30
0.0
 40
6.096941304606499
100
AcDbArc
 50
77.1854453734
 51
90.3653440292
  0
ARC
  5
19A
330
1F
100
AcDbEntity
  8
0
  6
Continuous
 62
     8
370
    18
100
AcDbCircle
 10
978.0824304633
 20
907.255765503
 30
0.0
 40
4.110023726150358
100
AcDbArc
 50
269.0113235705
 51
288.0236522041
  0
ARC
  5
19B
330
1F
100
AcDbEntity
  8
0
  6
Continuous
 62
     8
370
    18
100
AcDbCircle
 10
891.7682204633
 20
934.4670965096
 30
0.0
 40
6.096941304605835
100
AcDbArc
 50
89.6346559708
 51
102.8145546266
  0
SPLINE
  5
19C
330
1F
100
AcDbEntity
  8
0
  6
Continuous
 62
     8
370
    18
100
AcDbSpline
210
0.0
220
0.0
230
1.0
 70
     8
 71
     3
 72
    14
 73
    10
 74
     0
 42
0.000000001
 43
0.00000001
 40
0.0
 40
0.0
 40
0.0
 40
0.0
 40
0.1296969008660535
 40
0.2603671951156627
 40
0.3853421446376519
 40
0.511184755725962
 40
0.6397642884787734
 40
0.7692911603858883
 40
1.0
 40
1.0
 40
1.0
 40
1.0
 10
891.7495078562729
 20
903.1463536574306
 30
0.0
 10
891.7484013557413
 20
904.6804046413783
 30
0.0
 10
891.7461800502366
 20
907.7600198764981
 30
0.0
 10
891.7715428571544
 20
912.4958832678669
 30
0.0
 10
891.8023169844955
 20
917.2672223392913
 30
0.0
 10
891.8326348361368
 20
922.076369026749
 30
0.0
 10
891.8546912084452
 20
926.9677492816477
 30
0.0
 10
891.85595606171
 20
933.1967756936649
 30
0.0
 10
891.8261719638045
 20
937.6877321740943
 30
0.0
 10
891.8070970790917
 20
940.5639138663037
 30
0.0
  0
ARC
  5
19D
330
1F
100
AcDbEntity
  8
0
  6
Continuous
 62
     8
370
    18
100
AcDbCircle
 10
891.6785902082
 20
907.255765503
 30
0.0
 40
4.11002372615161
100
AcDbArc
 50
251.9763477959
 51
270.9886764295
  0
LINE
  5
19E
330
1F
100
AcDbEntity
  8
0
  6
Continuous
 62
     8
370
    18
100
AcDbLine
 10
898.0925103497
 20
903.1463536574
 30
0.0
 11
891.7495078563
 21
903.1463536574
 31
0.0
  0
LINE
  5
19F
330
1F
100
AcDbEntity
  8
0
  6
Continuous
 62
     8
370
    18
100
AcDbLine
 10
897.9881838335
 20
940.5639138663
 30
0.0
 11
891.8070970791
 21
940.5639138663
 31
0.0
  0
LINE
  5
1A0
330
1F
100
AcDbEntity
  8
0
  6
Continuous
 62
     8
370
    18
100
AcDbLine
 10
971.6685103217
 20
903.1463536574
 30
0.0
 11
978.0115128152
 21
903.1463536574
 31
0.0
  0
LINE
  5
1A1
330
1F
100
AcDbEntity
  8
0
  6
Continuous
 62
     8
370
    18
100
AcDbLine
 10
971.7728368379
 20
940.5639138663
 30
0.0
 11
977.9539235923
 21
940.5639138663
 31
0.0
  0
SPLINE
  5
1A2
330
1F
100
AcDbEntity
  8
0
  6
Continuous
 62
     8
370
    18
100
AcDbSpline
210
0.0
220
0.0
230
1.0
 70
     8
 71
     3
 72
    14
 73
    10
 74
     0
 42
0.000000001
 43
0.00000001
 40
0.0
 40
0.0
 40
0.0
 40
0.0
 40
0.083481340853267
 40
0.2549666805167995
 40
0.4263786377711391
 40
0.5910988460081825
 40
0.7558798437661323
 40
0.8779365795297039
 40
1.0
 40
1.0
 40
1.0
 40
1.0
 10
981.2221273678409
 20
901.6523230013893
 30
0.0
 10
982.1232144214329
 20
901.6679837744
 30
0.0
 10
984.8752925812076
 20
901.7158145263747
 30
0.0
 10
989.4778572937678
 20
901.8010276309042
 30
0.0
 10
994.7780094252745
 20
901.8565772385807
 30
0.0
 10
999.6707807522479
 20
901.9210471781138
 30
0.0
 10
1003.697103605505
 20
901.9433098705115
 30
0.0
 10
1007.002071473969
 20
901.9395924594887
 30
0.0
 10
1008.715105704842
 20
901.9232141409026
 30
0.0
 10
1009.571646274163
 20
901.9150247573668
 30
0.0
  0
LINE
  5
1A3
330
1F
100
AcDbEntity
  8
0
  6
Continuous
 62
     8
370
    18
100
AcDbLine
 10
981.2933245916
 20
903.6555570468
 30
0.0
 11
981.2221273678
 21
901.6523230014
 31
0.0
  0
SPLINE
  5
1A4
330
1F
100
AcDbEntity
  8
0
  6
Continuous
 62
     8
370
    18
100
AcDbSpline
210
0.0
220
0.0
230
1.0
 70
     8
 71
     3
 72
    10
 73
     6
 74
     0
 42
0.000000001
 43
0.00000001
 40
0.0
 40
0.0
 40
0.0
 40
0.0
 40
0.0305940752880625
 40
0.8849546452569936
 40
1.0
 40
1.0
 40
1.0
 40
1.0
 10
981.311346201157
 20
950.9979935863312
 30
0.0
 10
981.3115583381527
 20
950.8895553441552
 30
0.0
 10
981.3176945464894
 20
947.7529046941945
 30
0.0
 10
981.3581401147331
 20
944.1551182307601
 30
0.0
 10
981.390733646334
 20
940.6366065603096
 30
0.0
 10
981.394601720904
 20
940.2190431712529
 30
0.0
  0
SPLINE
  5
1A5
330
1F
100
AcDbEntity
  8
0
  6
Continuous
 62
     8
370
    18
100
AcDbSpline
210
0.0
220
0.0
230
1.0
 70
     8
 71
     3
 72
    12
 73
     8
 74
     0
 42
0.000000001
 43
0.00000001
 40
0.0
 40
0.0
 40
0.0
 40
0.0
 40
0.000011396415791
 40
0.016561542624936
 40
0.2254762501766418
 40
0.65696957338237
 40
0.9999999999999999
 40
0.9999999999999999
 40
0.9999999999999999
 40
0.9999999999999999
 10
980.103543028074
 20
955.6121510423287
 30
0.0
 10
980.1035558095559
 20
955.6121372336736
 30
0.0
 10
980.1221301634076
 20
955.5920701674837
 30
0.0
 10
980.3707403310775
 20
955.3153711882853
 30
0.0
 10
980.9227002557161
 20
954.3791354942156
 30
0.0
 10
981.2548935733158
 20
952.8041544469668
 30
0.0
 10
981.294018209888
 20
951.5523900922232
 30
0.0
 10
981.311346201157
 20
950.9979935863312
 30
0.0
  0
SPLINE
  5
1A6
330
1F
100
AcDbEntity
  8
0
  6
Continuous
 62
     8
370
    18
100
AcDbSpline
210
0.0
220
0.0
230
1.0
 70
     8
 71
     3
 72
    11
 73
     7
 74
     0
 42
0.000000001
 43
0.00000001
 40
0.0
 40
0.0
 40
0.0
 40
0.0
 40
0.2986044395549434
 40
0.5785107697797143
 40
0.9999675635115337
 40
1.0
 40
1.0
 40
1.0
 40
1.0
 10
978.3828823612513
 20
956.1536779159089
 30
0.0
 10
978.5677682872861
 20
956.1478418368139
 30
0.0
 10
978.9259628926686
 20
956.1365351241108
 30
0.0
 10
979.519270314997
 20
955.9631011757999
 30
0.0
 10
979.8946419937973
 20
955.7573962712727
 30
0.0
 10
980.1035269529431
 20
955.6121622190857
 30
0.0
 10
980.103543028074
 20
955.6121510423287
 30
0.0
  0
LINE
  5
1A7
330
1F
100
AcDbEntity
  8
0
  6
Continuous
 62
     8
370
    18
100
AcDbLine
 10
971.276491498
 20
956.0307569958
 30
0.0
 11
978.3828823613
 21
956.1536779159
 31
0.0
  0
SPLINE
  5
1A8
330
1F
100
AcDbEntity
  8
0
  6
Continuous
 62
     8
370
    18
100
AcDbSpline
210
0.0
220
0.0
230
1.0
 70
     8
 71
     3
 72
    11
 73
     7
 74
     0
 42
0.000000001
 43
0.00000001
 40
0.0
 40
0.0
 40
0.0
 40
0.0
 40
0.0000403578891936
 40
0.1670896913901072
 40
0.6133765181115366
 40
0.9999999999999999
 40
0.9999999999999999
 40
0.9999999999999999
 40
0.9999999999999999
 10
969.8705198846953
 20
955.6406649944367
 30
0.0
 10
969.8705369577701
 20
955.6406746115579
 30
0.0
 10
969.9412228845741
 20
955.6804914067429
 30
0.0
 10
970.2058002607073
 20
955.8172236487109
 30
0.0
 10
970.671532056287
 20
955.9884135988331
 30
0.0
 10
971.0847038430676
 20
956.0173330531992
 30
0.0
 10
971.2764914979591
 20
956.0307569957603
 30
0.0
  0
SPLINE
  5
1A9
330
1F
100
AcDbEntity
  8
0
  6
Continuous
 62
     8
370
    18
100
AcDbSpline
210
0.0
220
0.0
230
1.0
 70
     8
 71
     3
 72
    11
 73
     7
 74
     0
 42
0.000000001
 43
0.00000001
 40
0.0
 40
0.0
 40
0.0
 40
0.0
 40
0.5574252101166717
 40
0.8582360298869187
 40
0.9999887157359582
 40
1.0
 40
1.0
 40
1.0
 40
1.0
 10
968.5033083638014
 20
951.0582596661519
 30
0.0
 10
968.5446682028203
 20
951.9716526471097
 30
0.0
 10
968.6083476048136
 20
953.377952095855
 30
0.0
 10
969.2204187091628
 20
954.9162439030331
 30
0.0
 10
969.694271406058
 20
955.4830755430934
 30
0.0
 10
969.870505856617
 20
955.6406524514792
 30
0.0
 10
969.8705198846953
 20
955.6406649944367
 30
0.0
  0
SPLINE
  5
1AA
330
1F
100
AcDbEntity
  8
0
  6
Continuous
 62
     8
370
    18
100
AcDbSpline
210
0.0
220
0.0
230
1.0
 70
     8
 71
     3
 72
     9
 73
     5
 74
     0
 42
0.000000001
 43
0.00000001
 40
0.0
 40
0.0
 40
0.0
 40
0.0
 40
0.8892351459143043
 40
1.0
 40
1.0
 40
1.0
 40
1.0
 10
968.3857728996101
 20
940.2629010010597
 30
0.0
 10
968.4348354062286
 20
943.4898893574111
 30
0.0
 10
968.4900092338083
 20
947.1188376408636
 30
0.0
 10
968.5019821819477
 20
950.6654226906139
 30
0.0
 10
968.5033083638014
 20
951.0582596661519
 30
0.0
  0
LINE
  5
1AB
330
1F
100
AcDbEntity
  8
0
  6
Continuous
 62
     8
370
    18
100
AcDbLine
 10
968.6123227439
 20
901.527831389
 30
0.0
 11
968.5299031522
 21
903.5852374191
 31
0.0
  0
SPLINE
  5
1AC
330
1F
100
AcDbEntity
  8
0
  6
Continuous
 62
     8
370
    18
100
AcDbSpline
210
0.0
220
0.0
230
1.0
 70
     8
 71
     3
 72
     9
 73
     5
 74
     0
 42
0.000000001
 43
0.00000001
 40
0.0
 40
0.0
 40
0.0
 40
0.0
 40
0.0843934950201051
 40
1.0
 40
1.0
 40
1.0
 40
1.0
 10
956.3724237143165
 20
901.5326354498122
 30
0.0
 10
956.7167341076373
 20
901.5308309148318
 30
0.0
 10
960.7965555824886
 20
901.5094485206076
 30
0.0
 10
964.8766039333
 20
901.5190448903713
 30
0.0
 10
968.6123227439352
 20
901.5278313889512
 30
0.0
  0
SPLINE
  5
1AD
330
1F
100
AcDbEntity
  8
0
  6
Continuous
 62
     8
370
    18
100
AcDbSpline
210
0.0
220
0.0
230
1.0
 70
     8
 71
     3
 72
    12
 73
     8
 74
     0
 42
0.000000001
 43
0.00000001
 40
0.0
 40
0.0
 40
0.0
 40
0.0
 40
0.3429907427795663
 40
0.6931111831538849
 40
0.8460382371952908
 40
0.9999906400284372
 40
0.9999999999999999
 40
0.9999999999999999
 40
0.9999999999999999
 40
0.9999999999999999
 10
1021.289353003022
 20
944.9320653385496
 30
0.0
 10
1021.32999742051
 20
945.3215940555805
 30
0.0
 10
1021.412131124952
 20
946.1087485651913
 30
0.0
 10
1021.49537670732
 20
946.7835909000416
 30
0.0
 10
1021.54546369179
 20
947.1470583183416
 30
0.0
 10
1021.563899173576
 20
947.2634915354722
 30
0.0
 10
1021.571754056018
 20
947.3077467309859
 30
0.0
 10
1021.571754533549
 20
947.3077494214419
 30
0.0
  0
SPLINE
  5
1AE
330
1F
100
AcDbEntity
  8
0
  6
Continuous
 62
     8
370
    18
100
AcDbSpline
210
0.0
220
0.0
230
1.0
 70
     8
 71
     3
 72
    20
 73
    16
 74
     0
 42
0.000000001
 43
0.00000001
 40
0.0
 40
0.0
 40
0.0
 40
0.0
 40
0.0777495206401191
 40
0.1580444463721884
 40
0.2279673988375376
 40
0.2994604618770939
 40
0.3760581917562253
 40
0.4543933132980215
 40
0.5398335171527775
 40
0.6277318368777259
 40
0.7140713710304735
 40
0.8026163874373407
 40
0.8879068463690992
 40
0.9758355728947901
 40
1.0
 40
1.0
 40
1.0
 40
1.0
 10
1009.571646274163
 20
901.9150247573668
 30
0.0
 10
1009.567015696957
 20
903.0798696949907
 30
0.0
 10
1009.557602944251
 20
905.4476948823426
 30
0.0
 10
1010.039468724297
 20
909.2667878947742
 30
0.0
 10
1010.808676868432
 20
913.1070201053392
 30
0.0
 10
1011.798000906727
 20
916.9557353226485
 30
0.0
 10
1012.970686796799
 20
920.9540942498675
 30
0.0
 10
1014.267060629907
 20
925.1346087175738
 30
0.0
 10
1015.554966137277
 20
929.3582544211089
 30
0.0
 10
1016.767919572539
 20
933.4340386445032
 30
0.0
 10
1017.935953851894
 20
937.1257173599016
 30
0.0
 10
1019.059577981455
 20
940.2960249056647
 30
0.0
 10
1020.171230582919
 20
942.8557499738797
 30
0.0
 10
1020.899720255057
 20
944.2701235254619
 30
0.0
 10
1021.220254079607
 20
944.8146741108186
 30
0.0
 10
1021.289353003022
 20
944.9320653385496
 30
0.0
  0
LINE
  5
1AF
330
1F
100
AcDbEntity
  8
0
  6
Continuous
 62
     8
370
    18
100
AcDbLine
 10
901.1486979275
 20
901.527831389
 30
0.0
 11
901.2311175192
 21
903.5852374191
 31
0.0
  0
SPLINE
  5
1B0
330
1F
100
AcDbEntity
  8
0
  6
Continuous
 62
     8
370
    18
100
AcDbSpline
210
0.0
220
0.0
230
1.0
 70
     8
 71
     3
 72
     9
 73
     5
 74
     0
 42
0.000000001
 43
0.00000001
 40
0.0
 40
0.0
 40
0.0
 40
0.0
 40
0.8892351459143029
 40
1.0
 40
1.0
 40
1.0
 40
1.0
 10
901.3752477718135
 20
940.2629010010597
 30
0.0
 10
901.3261852651947
 20
943.4898893574111
 30
0.0
 10
901.2710114376147
 20
947.1188376408636
 30
0.0
 10
901.2590384894753
 20
950.6654226906139
 30
0.0
 10
901.2577123076217
 20
951.0582596661519
 30
0.0
  0
SPLINE
  5
1B1
330
1F
100
AcDbEntity
  8
0
  6
Continuous
 62
     8
370
    18
100
AcDbSpline
210
0.0
220
0.0
230
1.0
 70
     8
 71
     3
 72
    11
 73
     7
 74
     0
 42
0.000000001
 43
0.00000001
 40
0.0
 40
0.0
 40
0.0
 40
0.0
 40
0.5574252101167193
 40
0.8582360298869939
 40
0.9999887157360463
 40
1.0
 40
1.0
 40
1.0
 40
1.0
 10
901.2577123076217
 20
951.0582596661519
 30
0.0
 10
901.2163524682691
 20
951.9716526467848
 30
0.0
 10
901.152673065762
 20
953.37795209503
 30
0.0
 10
900.5406019635788
 20
954.916243904317
 30
0.0
 10
900.0667492640423
 20
955.4830755418052
 30
0.0
 10
899.8905148148065
 20
955.6406524514792
 30
0.0
 10
899.8905007867284
 20
955.6406649944367
 30
0.0
  0
SPLINE
  5
1B2
330
1F
100
AcDbEntity
  8
0
  6
Continuous
 62
     8
370
    18
100
AcDbSpline
210
0.0
220
0.0
230
1.0
 70
     8
 71
     3
 72
    11
 73
     7
 74
     0
 42
0.000000001
 43
0.00000001
 40
0.0
 40
0.0
 40
0.0
 40
0.0
 40
0.0000403578895606
 40
0.1670896913904129
 40
0.6133765181116785
 40
1.0
 40
1.0
 40
1.0
 40
1.0
 10
899.8905007867284
 20
955.6406649944367
 30
0.0
 10
899.8904837136533
 20
955.6406746115579
 30
0.0
 10
899.8197977865923
 20
955.6804914063569
 30
0.0
 10
899.5552204110458
 20
955.817223649207
 30
0.0
 10
899.0894886150412
 20
955.9884135986904
 30
0.0
 10
898.6763168283253
 20
956.017333053154
 30
0.0
 10
898.4845291734639
 20
956.0307569957603
 30
0.0
  0
LINE
  5
1B3
330
1F
100
AcDbEntity
  8
0
  6
Continuous
 62
     8
370
    18
100
AcDbLine
 10
898.4845291735
 20
956.0307569958
 30
0.0
 11
891.3781383102
 21
956.1536779159
 31
0.0
  0
SPLINE
  5
1B4
330
1F
100
AcDbEntity
  8
0
  6
Continuous
 62
     8
370
    18
100
AcDbSpline
210
0.0
220
0.0
230
1.0
 70
     8
 71
     3
 72
    11
 73
     7
 74
     0
 42
0.000000001
 43
0.00000001
 40
0.0
 40
0.0
 40
0.0
 40
0.0
 40
0.2986044395549188
 40
0.5785107697796668
 40
0.9999675635114516
 40
1.0
 40
1.0
 40
1.0
 40
1.0
 10
891.3781383101717
 20
956.1536779159089
 30
0.0
 10
891.1932523841415
 20
956.1478418368084
 30
0.0
 10
890.835057778768
 20
956.1365351240951
 30
0.0
 10
890.241750356365
 20
955.9631011758709
 30
0.0
 10
889.8663786778292
 20
955.7573962710366
 30
0.0
 10
889.6574937184798
 20
955.6121622190857
 30
0.0
 10
889.6574776433489
 20
955.6121510423287
 30
0.0
  0
SPLINE
  5
1B5
330
1F
100
AcDbEntity
  8
0
  6
Continuous
 62
     8
370
    18
100
AcDbSpline
210
0.0
220
0.0
230
1.0
 70
     8
 71
     3
 72
    12
 73
     8
 74
     0
 42
0.000000001
 43
0.00000001
 40
0.0
 40
0.0
 40
0.0
 40
0.0
 40
0.0000113964157658
 40
0.0165615426249112
 40
0.225476250176622
 40
0.6569695733823605
 40
0.9999999999999999
 40
0.9999999999999999
 40
0.9999999999999999
 40
0.9999999999999999
 10
889.6574776433489
 20
955.6121510423287
 30
0.0
 10
889.6574648618669
 20
955.6121372336736
 30
0.0
 10
889.6388905080527
 20
955.5920701674515
 30
0.0
 10
889.3902803401124
 20
955.3153711884854
 30
0.0
 10
888.8383204159256
 20
954.3791354940278
 30
0.0
 10
888.5061270980536
 20
952.8041544470127
 30
0.0
 10
888.4670024615186
 20
951.5523900922374
 30
0.0
 10
888.4496744702659
 20
950.9979935863312
 30
0.0
  0
SPLINE
  5
1B6
330
1F
100
AcDbEntity
  8
0
  6
Continuous
 62
     8
370
    18
100
AcDbSpline
210
0.0
220
0.0
230
1.0
 70
     8
 71
     3
 72
    10
 73
     6
 74
     0
 42
0.000000001
 43
0.00000001
 40
0.0
 40
0.0
 40
0.0
 40
0.0
 40
0.0305940752880619
 40
0.8849546452569943
 40
0.9999999999999999
 40
0.9999999999999999
 40
0.9999999999999999
 40
0.9999999999999999
 10
888.4496744702659
 20
950.9979935863312
 30
0.0
 10
888.4494623332702
 20
950.8895553441552
 30
0.0
 10
888.4433261249337
 20
947.7529046941945
 30
0.0
 10
888.4028805566899
 20
944.1551182307601
 30
0.0
 10
888.3702870250889
 20
940.6366065603096
 30
0.0
 10
888.366418950519
 20
940.2190431712529
 30
0.0
  0
LINE
  5
1B7
330
1F
100
AcDbEntity
  8
0
  6
Continuous
 62
     8
370
    18
100
AcDbLine
 10
888.4676960798
 20
903.6555570468
 30
0.0
 11
888.5388933036
 21
901.6523230014
 31
0.0
  0
SPLINE
  5
1B8
330
1F
100
AcDbEntity
  8
0
  6
Continuous
 62
     8
370
    18
100
AcDbSpline
210
0.0
220
0.0
230
1.0
 70
     8
 71
     3
 72
    18
 73
    14
 74
     0
 42
0.000000001
 43
0.00000001
 40
0.0
 40
0.0
 40
0.0
 40
0.0
 40
0.0497884573626106
 40
0.1520626953526052
 40
0.2542931679105415
 40
0.3525326664708923
 40
0.4508084200367183
 40
0.5543273934134058
 40
0.6578565275353612
 40
0.7740307271289424
 40
0.8901694733964504
 40
0.9999988953086805
 40
1.0
 40
1.0
 40
1.0
 40
1.0
 10
888.5388933035821
 20
901.6523230013893
 30
0.0
 10
887.6378030284783
 20
901.6679838975833
 30
0.0
 10
884.8857150296408
 20
901.7158150257816
 30
0.0
 10
880.2832846215214
 20
901.801022994812
 30
0.0
 10
874.9825746073021
 20
901.856593934666
 30
0.0
 10
870.0917970559615
 20
901.9209876367132
 30
0.0
 10
865.5986246901592
 20
901.9460772893251
 30
0.0
 10
861.5669853421088
 20
901.93492648251
 30
0.0
 10
857.9567880539712
 20
901.8880298186028
 30
0.0
 10
855.0446922086252
 20
901.8091484820774
 30
0.0
 10
853.0648764738924
 20
901.6838771609573
 30
0.0
 10
852.473170207711
 20
901.5595175723187
 30
0.0
 10
852.3607524514329
 20
901.492088641094
 30
0.0
 10
852.3607513207188
 20
901.492087962884
 30
0.0
  0
SPLINE
  5
1B9
330
1F
100
AcDbEntity
  8
0
  6
Continuous
 62
     8
370
    18
100
AcDbSpline
210
0.0
220
0.0
230
1.0
 70
     8
 71
     3
 72
     9
 73
     5
 74
     0
 42
0.000000001
 43
0.00000001
 40
0.0
 40
0.0
 40
0.0
 40
0.0
 40
0.08439349502011
 40
1.0
 40
1.0
 40
1.0
 40
1.0
 10
913.3885969571065
 20
901.5326354498121
 30
0.0
 10
913.0442865637857
 20
901.5308309148317
 30
0.0
 10
908.9644650889346
 20
901.5094485206081
 30
0.0
 10
904.8844167381237
 20
901.5190448903714
 30
0.0
 10
901.1486979274887
 20
901.5278313889512
 30
0.0
  0
SPLINE
  5
1BA
330
1F
100
AcDbEntity
  8
0
  6
Continuous
 62
     8
370
    18
100
AcDbSpline
210
0.0
220
0.0
230
1.0
 70
     8
 71
     3
 72
     9
 73
     5
 74
     0
 42
0.000000001
 43
0.00000001
 40
0.0
 40
0.0
 40
0.0
 40
0.0
 40
0.3531288107769719
 40
1.0
 40
1.0
 40
1.0
 40
1.0
 10
899.3414961205106
 20
951.2746874029824
 30
0.0
 10
899.3416195593356
 20
950.0096945931806
 30
0.0
 10
899.341969116838
 20
946.4274527279001
 30
0.0
 10
899.3406642848136
 20
942.776801403144
 30
0.0
 10
899.33982022657
 20
940.4153002392602
 30
0.0
  0
LINE
  5
1BB
330
1F
100
AcDbEntity
  8
0
  6
Continuous
 62
     8
370
    18
100
AcDbLine
 10
898.0745169856
 20
951.423612901
 30
0.0
 11
897.9881838335
 21
940.5639138663
 31
0.0
  0
ARC
  5
1BC
330
1F
100
AcDbEntity
  8
0
  6
Continuous
 62
     8
370
    18
100
AcDbCircle
 10
898.1218036084
 20
946.3620464684
 30
0.0
 40
5.061787310413413
100
AcDbArc
 50
76.056743273
 51
90.5352582305
  0
LINE
  5
1BD
330
1F
100
AcDbEntity
  8
0
  6
Continuous
 62
     8
370
    18
100
AcDbLine
 10
971.6865036858
 20
951.423612901
 30
0.0
 11
971.7728368379
 21
940.5639138663
 31
0.0
  0
SPLINE
  5
1BE
330
1F
100
AcDbEntity
  8
0
  6
Continuous
 62
     8
370
    18
100
AcDbSpline
210
0.0
220
0.0
230
1.0
 70
     8
 71
     3
 72
     9
 73
     5
 74
     0
 42
0.000000001
 43
0.00000001
 40
0.0
 40
0.0
 40
0.0
 40
0.0
 40
0.3531288107769719
 40
1.0
 40
1.0
 40
1.0
 40
1.0
 10
970.4195245509125
 20
951.2746874029824
 30
0.0
 10
970.4194011120873
 20
950.0096945931806
 30
0.0
 10
970.419051554585
 20
946.4274527279001
 30
0.0
 10
970.4203563866095
 20
942.776801403144
 30
0.0
 10
970.4212004448528
 20
940.4153002392602
 30
0.0
  0
ARC
  5
1BF
330
1F
100
AcDbEntity
  8
0
  6
Continuous
 62
     8
370
    18
100
AcDbCircle
 10
971.6392170631
 20
946.3620464684
 30
0.0
 40
5.061787310413401
100
AcDbArc
 50
89.4647417695
 51
103.943256727
  0
SPLINE
  5
1C0
330
1F
100
AcDbEntity
  8
0
  6
Continuous
 62
     8
370
    18
100
AcDbSpline
210
0.0
220
0.0
230
1.0
 70
     8
 71
     3
 72
    10
 73
     6
 74
     0
 42
0.000000001
 43
0.00000001
 40
0.0
 40
0.0
 40
0.0
 40
0.0
 40
0.0049102993503903
 40
0.1151643441716858
 40
1.0
 40
1.0
 40
1.0
 40
1.0
 10
890.4159420264576
 20
940.4121815637893
 30
0.0
 10
890.4159199286024
 20
940.430117125875
 30
0.0
 10
890.4154016536836
 20
940.85077116294
 30
0.0
 10
890.4100978302309
 20
944.4995607881141
 30
0.0
 10
890.4076839266456
 20
948.0735030783393
 30
0.0
 10
890.405537478983
 20
951.2514593652946
 30
0.0
  0
ARC
  5
1C1
330
1F
100
AcDbEntity
  8
0
  6
Continuous
 62
     8
370
    18
100
AcDbCircle
 10
891.6937777685
 20
946.5291063168
 30
0.0
 40
4.894913825377364
100
AcDbArc
 50
89.2609157049
 51
105.2587981171
  0
SPLINE
  5
1C2
330
1F
100
AcDbEntity
  8
0
  6
Continuous
 62
     8
370
    18
100
AcDbSpline
210
0.0
220
0.0
230
1.0
 70
     8
 71
     3
 72
     9
 73
     5
 74
     0
 42
0.000000001
 43
0.00000001
 40
0.0
 40
0.0
 40
0.0
 40
0.0
 40
0.8536363424240645
 40
0.9999999999999999
 40
0.9999999999999999
 40
0.9999999999999999
 40
0.9999999999999999
 10
891.8070970790917
 20
940.5639138663037
 30
0.0
 10
891.7864493265776
 20
943.6749947486034
 30
0.0
 10
891.7622613304858
 20
947.3194985351515
 30
0.0
 10
891.7575999864604
 20
950.8996140933572
 30
0.0
 10
891.7569177350995
 20
951.4236129010006
 30
0.0
  0
SPLINE
  5
1C3
330
1F
100
AcDbEntity
  8
0
  6
Continuous
 62
     8
370
    18
100
AcDbSpline
210
0.0
220
0.0
230
1.0
 70
     8
 71
     3
 72
     9
 73
     5
 74
     0
 42
0.000000001
 43
0.00000001
 40
0.0
 40
0.0
 40
0.0
 40
0.0
 40
0.8536363424240645
 40
0.9999999999999999
 40
0.9999999999999999
 40
0.9999999999999999
 40
0.9999999999999999
 10
977.9539235923312
 20
940.5639138663037
 30
0.0
 10
977.9745713448453
 20
943.6749947486034
 30
0.0
 10
977.9987593409371
 20
947.3194985351515
 30
0.0
 10
978.0034206849626
 20
950.8996140933572
 30
0.0
 10
978.0041029363234
 20
951.4236129010006
 30
0.0
  0
ARC
  5
1C4
330
1F
100
AcDbEntity
  8
0
  6
Continuous
 62
     8
370
    18
100
AcDbCircle
 10
978.0672429029
 20
946.5291063168
 30
0.0
 40
4.894913825379428
100
AcDbArc
 50
74.7412018829
 51
90.739084295
  0
SPLINE
  5
1C5
330
1F
100
AcDbEntity
  8
0
  6
Continuous
 62
     8
370
    18
100
AcDbSpline
210
0.0
220
0.0
230
1.0
 70
     8
 71
     3
 72
    10
 73
     6
 74
     0
 42
0.000000001
 43
0.00000001
 40
0.0
 40
0.0
 40
0.0
 40
0.0
 40
0.0049102993503903
 40
0.1151643441716858
 40
1.0
 40
1.0
 40
1.0
 40
1.0
 10
979.3450786449654
 20
940.4121815637893
 30
0.0
 10
979.3451007428206
 20
940.430117125875
 30
0.0
 10
979.3456190177394
 20
940.85077116294
 30
0.0
 10
979.3509228411921
 20
944.4995607881141
 30
0.0
 10
979.3533367447774
 20
948.0735030783393
 30
0.0
 10
979.35548319244
 20
951.2514593652946
 30
0.0
  0
LINE
  5
1C6
330
1F
100
AcDbEntity
  8
0
  6
Continuous
 62
     8
370
    18
100
AcDbLine
 10
971.6865036858
 20
951.423612901
 30
0.0
 11
978.0041029363
 21
951.423612901
 31
0.0
  0
LINE
  5
1C7
330
1F
100
AcDbEntity
  8
0
  6
Continuous
 62
     8
370
    18
100
AcDbLine
 10
898.0745169856
 20
951.423612901
 30
0.0
 11
891.7569177351
 21
951.423612901
 31
0.0
  0
ARC
  5
1C8
330
1F
100
AcDbEntity
  8
0
  6
Continuous
 62
     8
370
    18
100
AcDbCircle
 10
968.6094775789
 20
958.7094026119
 30
0.0
 40
7.651879525880545
100
AcDbArc
 50
269.2050001421
 51
283.6829680608
  0
ARC
  5
1C9
330
1F
100
AcDbEntity
  8
0
  6
Continuous
 62
     8
370
    18
100
AcDbCircle
 10
901.1515430925
 20
958.7094026119
 30
0.0
 40
7.651879525880518
100
AcDbArc
 50
256.3170319392
 51
270.7949998579
  0
ARC
  5
1CA
330
1F
100
AcDbEntity
  8
0
  6
Continuous
 62
     8
370
    18
100
AcDbCircle
 10
981.2624635586
 20
958.2937112179
 30
0.0
 40
7.295881391068316
100
AcDbArc
 50
254.8481769985
 51
270.3838864582
  0
ARC
  5
1CB
330
1F
100
AcDbEntity
  8
0
  6
Continuous
 62
     8
370
    18
100
AcDbCircle
 10
888.4985571129
 20
958.2937112179
 30
0.0
 40
7.295881391070589
100
AcDbArc
 50
269.6161135418
 51
285.1518230015
  0
LINE
  5
1CC
330
1F
100
AcDbEntity
  8
0
  6
Continuous
 62
     8
370
    18
100
AcDbLine
 10
888.5388933036
 20
901.6523230014
 30
0.0
 11
888.5526802548
 21
901.4952111419
 31
0.0
  0
SPLINE
  5
1CD
330
1F
100
AcDbEntity
  8
0
  6
Continuous
 62
     8
370
    18
100
AcDbSpline
210
0.0
220
0.0
230
1.0
 70
     8
 71
     3
 72
    14
 73
    10
 74
     0
 42
0.000000001
 43
0.00000001
 40
0.0
 40
0.0
 40
0.0
 40
0.0
 40
0.2135072054013617
 40
0.6517504153255603
 40
0.8731400298126227
 40
0.9340362681777996
 40
0.960743100577067
 40
0.9801118651181868
 40
1.0
 40
1.0
 40
1.0
 40
1.0
 10
888.5526802548009
 20
901.4952111418745
 30
0.0
 10
888.6089275059726
 20
900.9013422733456
 30
0.0
 10
888.7806274223437
 20
899.0885028378568
 30
0.0
 10
889.1381133953124
 20
897.034478875775
 30
0.0
 10
889.5898372797693
 20
895.7030224831454
 30
0.0
 10
890.0888763615769
 20
895.2524519126846
 30
0.0
 10
890.3590786946036
 20
895.1435726038382
 30
0.0
 10
890.5591469246588
 20
895.1041266653724
 30
0.0
 10
890.6849999230919
 20
895.1035069410345
 30
0.0
 10
890.7487589423959
 20
895.1031929793769
 30
0.0
  0
LINE
  5
1CE
330
1F
100
AcDbEntity
  8
0
  6
Continuous
 62
     8
370
    18
100
AcDbLine
 10
890.7487589424
 20
895.1031929794
 30
0.0
 11
899.0421085325
 21
895.3217110208
 31
0.0
  0
SPLINE
  5
1CF
330
1F
100
AcDbEntity
  8
0
  6
Continuous
 62
     8
370
    18
100
AcDbSpline
210
0.0
220
0.0
230
1.0
 70
     8
 71
     3
 72
    16
 73
    12
 74
     0
 42
0.000000001
 43
0.00000001
 40
0.0
 40
0.0
 40
0.0
 40
0.0
 40
0.014516518949473
 40
0.0410735504097972
 40
0.0660449149745842
 40
0.1244471088434276
 40
0.1776973916031259
 40
0.2535931192178174
 40
0.3633556422017226
 40
0.522371619268006
 40
1.0
 40
1.0
 40
1.0
 40
1.0
 10
899.0421085324873
 20
895.3217110208295
 30
0.0
 10
899.0847708261338
 20
895.3237781705327
 30
0.0
 10
899.2054810235841
 20
895.3296270367676
 30
0.0
 10
899.3846423032815
 20
895.3748824172344
 30
0.0
 10
899.6239614699929
 20
895.4889402723545
 30
0.0
 10
899.8315362100045
 20
895.6773153842641
 30
0.0
 10
900.0368300146943
 20
895.9646982044977
 30
0.0
 10
900.2338960759998
 20
896.3642427977861
 30
0.0
 10
900.4488753198627
 20
896.9932378850251
 30
0.0
 10
900.8073204707221
 20
898.4849078746316
 30
0.0
 10
900.9881170439421
 20
900.0798898208118
 30
0.0
 10
901.123755683398
 20
901.2764898297796
 30
0.0
  0
LINE
  5
1D0
330
1F
100
AcDbEntity
  8
0
  6
Continuous
 62
     8
370
    18
100
AcDbLine
 10
901.1237556834
 20
901.2764898298
 30
0.0
 11
901.1486979275
 21
901.527831389
 31
0.0
  0
SPLINE
  5
1D1
330
1F
100
AcDbEntity
  8
0
  6
Continuous
 62
     8
370
    18
100
AcDbSpline
210
0.0
220
0.0
230
1.0
 70
     8
 71
     3
 72
     9
 73
     5
 74
     0
 42
0.000000001
 43
0.00000001
 40
0.0
 40
0.0
 40
0.0
 40
0.0
 40
0.0094533958096251
 40
1.0
 40
1.0
 40
1.0
 40
1.0
 10
934.8805103357115
 20
893.2060814376711
 30
0.0
 10
934.8713022440335
 20
893.2060814606485
 30
0.0
 10
933.8972510286226
 20
893.2060838912486
 30
0.0
 10
932.925392440143
 20
893.3314067924707
 30
0.0
 10
931.9627212155714
 20
893.4555449667037
 30
0.0
  0
SPLINE
  5
1D2
330
1F
100
AcDbEntity
  8
0
  6
Continuous
 62
     8
370
    18
100
AcDbSpline
210
0.0
220
0.0
230
1.0
 70
     8
 71
     3
 72
    12
 73
     8
 74
     0
 42
0.000000001
 43
0.00000001
 40
0.0
 40
0.0
 40
0.0
 40
0.0
 40
0.0986927005379106
 40
0.3626715646535659
 40
0.6320534788938004
 40
0.8140997464528019
 40
1.0
 40
1.0
 40
1.0
 40
1.0
 10
930.967154664773
 20
893.5414730445715
 30
0.0
 10
930.3528196908519
 20
893.5824531133514
 30
0.0
 10
928.0952887387242
 20
893.7330448550205
 30
0.0
 10
924.214215303558
 20
894.8412001373695
 30
0.0
 10
919.9369571936513
 20
896.6572334820253
 30
0.0
 10
916.2832373937259
 20
898.916870306488
 30
0.0
 10
914.3601912964114
 20
900.6546464001003
 30
0.0
 10
913.3885969571065
 20
901.5326354498121
 30
0.0
  0
LINE
  5
1D3
330
1F
100
AcDbEntity
  8
0
  6
Continuous
 62
     8
370
    18
100
AcDbLine
 10
899.0276192289
 20
895.4651699945
 30
0.0
 11
890.7151614121
 21
895.2466519531
 31
0.0
  0
SPLINE
  5
1D4
330
1F
100
AcDbEntity
  8
0
  6
Continuous
 62
     8
370
    18
100
AcDbSpline
210
0.0
220
0.0
230
1.0
 70
     8
 71
     3
 72
    10
 73
     6
 74
     0
 42
0.000000001
 43
0.00000001
 40
0.0
 40
0.0
 40
0.0
 40
0.0
 40
0.445489637819774
 40
0.7187778752024849
 40
1.0
 40
1.0
 40
1.0
 40
1.0
 10
890.7151614120642
 20
895.246651953075
 30
0.0
 10
890.9402222468774
 20
895.8583126375535
 30
0.0
 10
891.3033479739538
 20
896.8452001649177
 30
0.0
 10
891.5384125103484
 20
898.9219120338644
 30
0.0
 10
891.6372181114638
 20
900.2846185557934
 30
0.0
 10
891.6873277631181
 20
900.9757205616522
 30
0.0
  0
LINE
  5
1D5
330
1F
100
AcDbEntity
  8
0
  6
Continuous
 62
     8
370
    18
100
AcDbLine
 10
891.6873277631
 20
900.9757205617
 30
0.0
 11
891.7495078563
 21
903.1463536574
 31
0.0
  0
LINE
  5
1D6
330
1F
100
AcDbEntity
  8
0
  6
Continuous
 62
     8
370
    18
100
AcDbLine
 10
898.0925103497
 20
903.1463536574
 30
0.0
 11
898.159836725
 21
900.8484401272
 31
0.0
  0
SPLINE
  5
1D7
330
1F
100
AcDbEntity
  8
0
  6
Continuous
 62
     8
370
    18
100
AcDbSpline
210
0.0
220
0.0
230
1.0
 70
     8
 71
     3
 72
    10
 73
     6
 74
     0
 42
0.000000001
 43
0.00000001
 40
0.0
 40
0.0
 40
0.0
 40
0.0
 40
0.508535828059833
 40
0.7966056673011382
 40
1.0
 40
1.0
 40
1.0
 40
1.0
 10
898.1598367249932
 20
900.8484401271886
 30
0.0
 10
898.2488792896644
 20
899.7236187357024
 30
0.0
 10
898.3883617169275
 20
897.9616207687586
 30
0.0
 10
898.6902847284307
 20
896.3298504536695
 30
0.0
 10
898.928876930753
 20
895.7182734735962
 30
0.0
 10
899.0276192288678
 20
895.465169994527
 30
0.0
  0
LINE
  5
1D8
330
1F
100
AcDbEntity
  8
0
  6
Continuous
 62
     8
370
    18
100
AcDbLine
 10
971.6685103217
 20
903.1463536574
 30
0.0
 11
971.6011839464
 21
900.8484401272
 31
0.0
  0
LINE
  5
1D9
330
1F
100
AcDbEntity
  8
0
  6
Continuous
 62
     8
370
    18
100
AcDbLine
 10
978.0736929083
 20
900.9757205617
 30
0.0
 11
978.0115128152
 21
903.1463536574
 31
0.0
  0
SPLINE
  5
1DA
330
1F
100
AcDbEntity
  8
0
  6
Continuous
 62
     8
370
    18
100
AcDbSpline
210
0.0
220
0.0
230
1.0
 70
     8
 71
     3
 72
    10
 73
     6
 74
     0
 42
0.000000001
 43
0.00000001
 40
0.0
 40
0.0
 40
0.0
 40
0.0
 40
0.445489637819774
 40
0.718777875202486
 40
1.0
 40
1.0
 40
1.0
 40
1.0
 10
979.0458592593588
 20
895.246651953075
 30
0.0
 10
978.8207984245456
 20
895.8583126375535
 30
0.0
 10
978.4576726974692
 20
896.8452001649177
 30
0.0
 10
978.2226081610745
 20
898.9219120338644
 30
0.0
 10
978.1238025599592
 20
900.2846185557935
 30
0.0
 10
978.0736929083049
 20
900.9757205616522
 30
0.0
  0
LINE
  5
1DB
330
1F
100
AcDbEntity
  8
0
  6
Continuous
 62
     8
370
    18
100
AcDbLine
 10
970.7334014426
 20
895.4651699945
 30
0.0
 11
979.0458592594
 21
895.2466519531
 31
0.0
  0
SPLINE
  5
1DC
330
1F
100
AcDbEntity
  8
0
  6
Continuous
 62
     8
370
    18
100
AcDbSpline
210
0.0
220
0.0
230
1.0
 70
     8
 71
     3
 72
    10
 73
     6
 74
     0
 42
0.000000001
 43
0.00000001
 40
0.0
 40
0.0
 40
0.0
 40
0.0
 40
0.5085358280598337
 40
0.7966056673011385
 40
1.0
 40
1.0
 40
1.0
 40
1.0
 10
971.6011839464297
 20
900.8484401271886
 30
0.0
 10
971.5121413817586
 20
899.7236187357024
 30
0.0
 10
971.3726589544955
 20
897.9616207687586
 30
0.0
 10
971.0707359429922
 20
896.3298504536693
 30
0.0
 10
970.8321437406701
 20
895.7182734735962
 30
0.0
 10
970.7334014425552
 20
895.465169994527
 30
0.0
  0
LINE
  5
1DD
330
1F
100
AcDbEntity
  8
0
  6
Continuous
 62
     8
370
    18
100
AcDbLine
 10
899.3411156304
 20
903.3154443674
 30
0.0
 11
899.3392593244
 21
901.3820751748
 31
0.0
  0
LINE
  5
1DE
330
1F
100
AcDbEntity
  8
0
  6
Continuous
 62
     8
370
    18
100
AcDbLine
 10
899.3392593244
 20
901.3820751748
 30
0.0
 11
899.3390646018
 21
901.1227642934
 31
0.0
  0
ARC
  5
1DF
330
1F
100
AcDbEntity
  8
0
  6
Continuous
 62
     8
370
    18
100
AcDbCircle
 10
898.0118748479
 20
904.1561940503
 30
0.0
 40
3.311061571933555
100
AcDbArc
 50
272.5612375305
 51
293.6303960838
  0
LINE
  5
1E0
330
1F
100
AcDbEntity
  8
0
  6
Continuous
 62
     8
370
    18
100
AcDbLine
 10
890.4057650916
 20
901.2939363475
 30
0.0
 11
890.4062175435
 21
901.4574735243
 31
0.0
  0
LINE
  5
1E1
330
1F
100
AcDbEntity
  8
0
  6
Continuous
 62
     8
370
    18
100
AcDbLine
 10
890.4062175435
 20
901.4574735243
 30
0.0
 11
890.4069095238
 21
903.3474252841
 31
0.0
  0
ARC
  5
1E2
330
1F
100
AcDbEntity
  8
0
  6
Continuous
 62
     8
370
    18
100
AcDbCircle
 10
891.818871708
 20
904.2452437573
 30
0.0
 40
3.272168353914803
100
AcDbArc
 50
244.4145746888
 51
267.6960401779
  0
LINE
  5
1E3
330
1F
100
AcDbEntity
  8
0
  6
Continuous
 62
     8
370
    18
100
AcDbLine
 10
979.3548031279
 20
901.4574735243
 30
0.0
 11
979.3541111476
 21
903.3474252841
 31
0.0
  0
LINE
  5
1E4
330
1F
100
AcDbEntity
  8
0
  6
Continuous
 62
     8
370
    18
100
AcDbLine
 10
979.3552555799
 20
901.2939363475
 30
0.0
 11
979.3548031279
 21
901.4574735243
 31
0.0
  0
ARC
  5
1E5
330
1F
100
AcDbEntity
  8
0
  6
Continuous
 62
     8
370
    18
100
AcDbCircle
 10
977.9421489634
 20
904.2452437573
 30
0.0
 40
3.272168353915414
100
AcDbArc
 50
272.3039598221
 51
295.5854253112
  0
ARC
  5
1E6
330
1F
100
AcDbEntity
  8
0
  6
Continuous
 62
     8
370
    18
100
AcDbCircle
 10
971.7491458235
 20
904.1561940503
 30
0.0
 40
3.311061571936435
100
AcDbArc
 50
246.3696039162
 51
267.4387624694
  0
LINE
  5
1E7
330
1F
100
AcDbEntity
  8
0
  6
Continuous
 62
     8
370
    18
100
AcDbLine
 10
970.421761347
 20
901.3820751748
 30
0.0
 11
970.4219560696
 21
901.1227642934
 31
0.0
  0
LINE
  5
1E8
330
1F
100
AcDbEntity
  8
0
  6
Continuous
 62
     8
370
    18
100
AcDbLine
 10
970.419905041
 20
903.3154443674
 30
0.0
 11
970.421761347
 21
901.3820751748
 31
0.0
  0
LINE
  5
1E9
330
1F
100
AcDbEntity
  8
0
  6
Continuous
 62
     8
370
    18
100
AcDbLine
 10
968.6372649881
 20
901.2764898298
 30
0.0
 11
968.6123227439
 21
901.527831389
 31
0.0
  0
SPLINE
  5
1EA
330
1F
100
AcDbEntity
  8
0
  6
Continuous
 62
     8
370
    18
100
AcDbSpline
210
0.0
220
0.0
230
1.0
 70
     8
 71
     3
 72
    16
 73
    12
 74
     0
 42
0.000000001
 43
0.00000001
 40
0.0
 40
0.0
 40
0.0
 40
0.0
 40
0.0145165189495135
 40
0.0410735504098392
 40
0.0660449149746277
 40
0.1244471088434746
 40
0.177697391603176
 40
0.253593119217872
 40
0.3633556422018389
 40
0.5223716192680705
 40
1.0
 40
1.0
 40
1.0
 40
1.0
 10
970.7189121389359
 20
895.3217110208295
 30
0.0
 10
970.6762498452895
 20
895.3237781705326
 30
0.0
 10
970.5555396478389
 20
895.3296270367676
 30
0.0
 10
970.3763783681416
 20
895.3748824172344
 30
0.0
 10
970.1370592014301
 20
895.4889402723545
 30
0.0
 10
969.9294844614184
 20
895.6773153842641
 30
0.0
 10
969.7241906567288
 20
895.9646982044977
 30
0.0
 10
969.5271245954231
 20
896.3642427977861
 30
0.0
 10
969.3121453515605
 20
896.9932378850259
 30
0.0
 10
968.9537002006984
 20
898.4849078746306
 30
0.0
 10
968.7729036274957
 20
900.0798898208125
 30
0.0
 10
968.6372649880528
 20
901.2764898297818
 30
0.0
  0
LINE
  5
1EB
330
1F
100
AcDbEntity
  8
0
  6
Continuous
 62
     8
370
    18
100
AcDbLine
 10
979.012261729
 20
895.1031929794
 30
0.0
 11
970.7189121389
 21
895.3217110208
 31
0.0
  0
SPLINE
  5
1EC
330
1F
100
AcDbEntity
  8
0
  6
Continuous
 62
     8
370
    18
100
AcDbSpline
210
0.0
220
0.0
230
1.0
 70
     8
 71
     3
 72
    14
 73
    10
 74
     0
 42
0.000000001
 43
0.00000001
 40
0.0
 40
0.0
 40
0.0
 40
0.0
 40
0.2135072054014706
 40
0.6517504153256239
 40
0.8731400298126399
 40
0.9340362681778085
 40
0.9607431005770724
 40
0.9801118651181896
 40
1.0
 40
1.0
 40
1.0
 40
1.0
 10
981.2083404166024
 20
901.495211141877
 30
0.0
 10
981.1520931654384
 20
900.901342273347
 30
0.0
 10
980.9803932490911
 20
899.0885028378561
 30
0.0
 10
980.6229072761085
 20
897.0344788757753
 30
0.0
 10
980.1711833916538
 20
895.7030224831454
 30
0.0
 10
979.6721443098461
 20
895.2524519126846
 30
0.0
 10
979.4019419768193
 20
895.1435726038382
 30
0.0
 10
979.2018737467644
 20
895.1041266653724
 30
0.0
 10
979.0760207483311
 20
895.1035069410345
 30
0.0
 10
979.0122617290272
 20
895.1031929793769
 30
0.0
  0
LINE
  5
1ED
330
1F
100
AcDbEntity
  8
0
  6
Continuous
 62
     8
370
    18
100
AcDbLine
 10
981.2221273678
 20
901.6523230014
 30
0.0
 11
981.2083404166
 21
901.4952111419
 31
0.0
  0
SPLINE
  5
1EE
330
1F
100
AcDbEntity
  8
0
  6
Continuous
 62
     8
370
    18
100
AcDbSpline
210
0.0
220
0.0
230
1.0
 70
     8
 71
     3
 72
    15
 73
    11
 74
     0
 42
0.000000001
 43
0.00000001
 40
0.0
 40
0.0
 40
0.0
 40
0.0
 40
0.0014239395057858
 40
0.1351061085576249
 40
0.2892216052154422
 40
0.4462432513906064
 40
0.5840152296265025
 40
0.7248088485654303
 40
0.8605044118101282
 40
1.0
 40
1.0
 40
1.0
 40
1.0
 10
1003.927292742783
 20
893.2060814376711
 30
0.0
 10
1003.932792810697
 20
893.2060843571342
 30
0.0
 10
1004.454649792504
 20
893.206361361389
 30
0.0
 10
1005.504679987031
 20
893.2927157999803
 30
0.0
 10
1006.898923720651
 20
893.7585284396496
 30
0.0
 10
1008.050020314272
 20
894.6490677588519
 30
0.0
 10
1008.906552098813
 20
895.9328288339698
 30
0.0
 10
1009.449897709081
 20
897.5488492227477
 30
0.0
 10
1009.72518668248
 20
899.5293979385184
 30
0.0
 10
1009.623295404754
 20
901.1125288381625
 30
0.0
 10
1009.571646274163
 20
901.9150247573668
 30
0.0
  0
SPLINE
  5
1EF
330
1F
100
AcDbEntity
  8
0
  6
Continuous
 62
     8
370
    18
100
AcDbSpline
210
0.0
220
0.0
230
1.0
 70
     8
 71
     3
 72
    12
 73
     8
 74
     0
 42
0.000000001
 43
0.00000001
 40
0.0
 40
0.0
 40
0.0
 40
0.0
 40
0.1729070209294316
 40
0.3500592529376598
 40
0.6008939024630686
 40
0.8574899875492359
 40
1.0
 40
1.0
 40
1.0
 40
1.0
 10
956.3724237143165
 20
901.5326354498122
 30
0.0
 10
955.4231983418904
 20
900.6731716774617
 30
0.0
 10
953.5014422272177
 20
898.9331425886556
 30
0.0
 10
949.8815029091963
 20
896.6898308405241
 30
0.0
 10
945.5829045675541
 20
894.8426945270982
 30
0.0
 10
941.3857810157122
 20
893.6744377088422
 30
0.0
 10
938.773538101677
 20
893.5158415969798
 30
0.0
 10
937.8407766818414
 20
893.4592112071774
 30
0.0
  0
SPLINE
  5
1F0
330
1F
100
AcDbEntity
  8
0
  6
Continuous
 62
     8
370
    18
100
AcDbSpline
210
0.0
220
0.0
230
1.0
 70
     8
 71
     3
 72
     9
 73
     5
 74
     0
 42
0.000000001
 43
0.00000001
 40
0.0
 40
0.0
 40
0.0
 40
0.0
 40
0.9809099457843522
 40
1.0
 40
1.0
 40
1.0
 40
1.0
 10
936.3254205818055
 20
893.3284197127697
 30
0.0
 10
935.8533401024297
 20
893.2677400734034
 30
0.0
 10
935.3720721925623
 20
893.2058795125769
 30
0.0
 10
934.8897184939688
 20
893.2060776551193
 30
0.0
 10
934.8805103357115
 20
893.2060814376711
 30
0.0
  0
ARC
  5
1F1
330
1F
100
AcDbEntity
  8
0
  6
Continuous
 62
     8
370
    18
100
AcDbCircle
 10
900.6914071325
 20
895.9005114603
 30
0.0
 40
5.645869680603881
100
AcDbArc
 50
85.3542029002
 51
103.8566348578
  0
ARC
  5
1F2
330
1F
100
AcDbEntity
  8
0
  6
Continuous
 62
     8
370
    18
100
AcDbCircle
 10
969.0696135389
 20
895.9005114603
 30
0.0
 40
5.645869680605316
100
AcDbArc
 50
76.1433651422
 51
94.6457970998
  0
ARC
  5
1F3
330
1F
100
AcDbEntity
  8
0
  6
Continuous
 62
     8
370
    18
100
AcDbCircle
 10
980.8540477791
 20
896.1346837153
 30
0.0
 40
5.529902881129796
100
AcDbArc
 50
86.1834753415
 51
105.7306807766
  0
ARC
  5
1F4
330
1F
100
AcDbEntity
  8
0
  6
Continuous
 62
     8
370
    18
100
AcDbCircle
 10
888.9069728923
 20
896.1346837153
 30
0.0
 40
5.529902881127655
100
AcDbArc
 50
74.2693192234
 51
93.8165246585
  0
SPLINE
  5
1F5
330
1F
100
AcDbEntity
  8
0
  6
Continuous
 62
     8
370
    18
100
AcDbSpline
210
0.0
220
0.0
230
1.0
 70
     8
 71
     3
 72
    15
 73
    11
 74
     0
 42
0.000000001
 43
0.00000001
 40
0.0
 40
0.0
 40
0.0
 40
0.0
 40
0.0247383799946505
 40
0.0492201071029638
 40
0.0751567027976505
 40
0.1186953964311376
 40
0.2418825692051144
 40
0.4816368506398221
 40
0.8380569172747768
 40
1.0
 40
1.0
 40
1.0
 40
1.0
 10
971.2982827736495
 20
955.2697525027963
 30
0.0
 10
971.2582104520789
 20
955.2706521439072
 30
0.0
 10
971.1784815466291
 20
955.2724420926364
 30
0.0
 10
971.0639696170186
 20
955.2320610656483
 30
0.0
 10
970.9447597214445
 20
955.1531975097822
 30
0.0
 10
970.7559362495081
 20
954.9432608339612
 30
0.0
 10
970.5321293661208
 20
954.4075365051439
 30
0.0
 10
970.4370909470107
 20
953.4037423257874
 30
0.0
 10
970.4209869944327
 20
952.3017971465098
 30
0.0
 10
970.4198726773897
 20
951.5191851163931
 30
0.0
 10
970.4195245509125
 20
951.2746874029824
 30
0.0
  0
SPLINE
  5
1F6
330
1F
100
AcDbEntity
  8
0
  6
Continuous
 62
     8
370
    18
100
AcDbSpline
210
0.0
220
0.0
230
1.0
 70
     8
 71
     3
 72
     9
 73
     5
 74
     0
 42
0.000000001
 43
0.00000001
 40
0.0
 40
0.0
 40
0.0
 40
0.0
 40
0.3204572925053735
 40
1.0
 40
1.0
 40
1.0
 40
1.0
 10
971.2982827736495
 20
955.2697525027963
 30
0.0
 10
971.3734709393584
 20
954.9147521437092
 30
0.0
 10
971.6080986650103
 20
953.8069591011119
 30
0.0
 10
971.6547810270732
 20
952.3879143876455
 30
0.0
 10
971.6865036857818
 20
951.4236129010006
 30
0.0
  0
SPLINE
  5
1F7
330
1F
100
AcDbEntity
  8
0
  6
Continuous
 62
     8
370
    18
100
AcDbSpline
210
0.0
220
0.0
230
1.0
 70
     8
 71
     3
 72
    15
 73
    11
 74
     0
 42
0.000000001
 43
0.00000001
 40
0.0
 40
0.0
 40
0.0
 40
0.0
 40
0.0247383799946505
 40
0.0492201071029638
 40
0.0751567027976505
 40
0.1186953964311376
 40
0.2418825692051144
 40
0.4816368506398221
 40
0.8380569172747768
 40
1.0
 40
1.0
 40
1.0
 40
1.0
 10
898.4627378977734
 20
955.2697525027963
 30
0.0
 10
898.5028102193442
 20
955.2706521439072
 30
0.0
 10
898.5825391247938
 20
955.2724420926364
 30
0.0
 10
898.6970510544043
 20
955.2320610656483
 30
0.0
 10
898.8162609499785
 20
955.1531975097822
 30
0.0
 10
899.005084421915
 20
954.9432608339612
 30
0.0
 10
899.2288913053022
 20
954.4075365051439
 30
0.0
 10
899.3239297244122
 20
953.4037423257874
 30
0.0
 10
899.3400336769902
 20
952.3017971465098
 30
0.0
 10
899.3411479940333
 20
951.5191851163931
 30
0.0
 10
899.3414961205106
 20
951.2746874029824
 30
0.0
  0
SPLINE
  5
1F8
330
1F
100
AcDbEntity
  8
0
  6
Continuous
 62
     8
370
    18
100
AcDbSpline
210
0.0
220
0.0
230
1.0
 70
     8
 71
     3
 72
     9
 73
     5
 74
     0
 42
0.000000001
 43
0.00000001
 40
0.0
 40
0.0
 40
0.0
 40
0.0
 40
0.3204572925053735
 40
1.0
 40
1.0
 40
1.0
 40
1.0
 10
898.4627378977734
 20
955.2697525027963
 30
0.0
 10
898.3875497320645
 20
954.9147521437092
 30
0.0
 10
898.1529220064127
 20
953.8069591011119
 30
0.0
 10
898.1062396443497
 20
952.3879143876455
 30
0.0
 10
898.0745169856413
 20
951.4236129010006
 30
0.0
  0
SPLINE
  5
1F9
330
1F
100
AcDbEntity
  8
0
  6
Continuous
 62
     8
370
    18
100
AcDbSpline
210
0.0
220
0.0
230
1.0
 70
     8
 71
     3
 72
     9
 73
     5
 74
     0
 42
0.000000001
 43
0.00000001
 40
0.0
 40
0.0
 40
0.0
 40
0.0
 40
0.6310361367052154
 40
1.0
 40
1.0
 40
1.0
 40
1.0
 10
978.0041029363234
 20
951.4236129010006
 30
0.0
 10
978.0340086716742
 20
952.3600942790846
 30
0.0
 10
978.0814001499291
 20
953.8441319175207
 30
0.0
 10
978.3357808339705
 20
954.9883038744799
 30
0.0
 10
978.4296381139018
 20
955.4104619799932
 30
0.0
  0
SPLINE
  5
1FA
330
1F
100
AcDbEntity
  8
0
  6
Continuous
 62
     8
370
    18
100
AcDbSpline
210
0.0
220
0.0
230
1.0
 70
     8
 71
     3
 72
    15
 73
    11
 74
     0
 42
0.000000001
 43
0.00000001
 40
0.0
 40
0.0
 40
0.0
 40
0.0
 40
0.309203105160591
 40
0.6638382552574914
 40
0.803986173963671
 40
0.9077221477257728
 40
0.9361281220494163
 40
0.9546919441403819
 40
0.9789089794125909
 40
1.0
 40
1.0
 40
1.0
 40
1.0
 10
979.35548319244
 20
951.2514593652946
 30
0.0
 10
979.3547431421713
 20
951.739178875023
 30
0.0
 10
979.3531543040549
 20
952.78627983549
 30
0.0
 10
979.3429636350997
 20
953.9874657381797
 30
0.0
 10
979.1459578375823
 20
954.8435434187245
 30
0.0
 10
978.9411043171535
 20
955.2056730877126
 30
0.0
 10
978.7550156814337
 20
955.3550157851663
 30
0.0
 10
978.6486519993744
 20
955.4043751285913
 30
0.0
 10
978.5399817628946
 20
955.4251768498165
 30
0.0
 10
978.464687700389
 20
955.4151360152206
 30
0.0
 10
978.4296381139018
 20
955.4104619799932
 30
0.0
  0
SPLINE
  5
1FB
330
1F
100
AcDbEntity
  8
0
  6
Continuous
 62
     8
370
    18
100
AcDbSpline
210
0.0
220
0.0
230
1.0
 70
     8
 71
     3
 72
    15
 73
    11
 74
     0
 42
0.000000001
 43
0.00000001
 40
0.0
 40
0.0
 40
0.0
 40
0.0
 40
0.309203105160591
 40
0.6638382552574914
 40
0.803986173963671
 40
0.9077221477257728
 40
0.9361281220494163
 40
0.9546919441403819
 40
0.9789089794125909
 40
1.0
 40
1.0
 40
1.0
 40
1.0
 10
890.405537478983
 20
951.2514593652946
 30
0.0
 10
890.4062775292516
 20
951.739178875023
 30
0.0
 10
890.4078663673681
 20
952.78627983549
 30
0.0
 10
890.4180570363233
 20
953.9874657381797
 30
0.0
 10
890.6150628338406
 20
954.8435434187245
 30
0.0
 10
890.8199163542695
 20
955.2056730877126
 30
0.0
 10
891.0060049899893
 20
955.3550157851663
 30
0.0
 10
891.1123686720485
 20
955.4043751285913
 30
0.0
 10
891.2210389085283
 20
955.4251768498165
 30
0.0
 10
891.296332971034
 20
955.4151360152206
 30
0.0
 10
891.3313825575211
 20
955.4104619799932
 30
0.0
  0
SPLINE
  5
1FC
330
1F
100
AcDbEntity
  8
0
  6
Continuous
 62
     8
370
    18
100
AcDbSpline
210
0.0
220
0.0
230
1.0
 70
     8
 71
     3
 72
     9
 73
     5
 74
     0
 42
0.000000001
 43
0.00000001
 40
0.0
 40
0.0
 40
0.0
 40
0.0
 40
0.6310361367052154
 40
1.0
 40
1.0
 40
1.0
 40
1.0
 10
891.7569177350995
 20
951.4236129010006
 30
0.0
 10
891.7270119997488
 20
952.3600942790846
 30
0.0
 10
891.6796205214938
 20
953.8441319175207
 30
0.0
 10
891.4252398374525
 20
954.9883038744799
 30
0.0
 10
891.3313825575211
 20
955.4104619799932
 30
0.0
  0
LINE
  5
1FD
330
1F
100
AcDbEntity
  8
0
  6
Continuous
 62
     8
370
    18
100
AcDbLine
 10
978.4296381139
 20
955.41046198
 30
0.0
 11
971.2982827736
 21
955.2697525028
 31
0.0
  0
LINE
  5
1FE
330
1F
100
AcDbEntity
  8
0
  6
Continuous
 62
     8
370
    18
100
AcDbLine
 10
891.3313825575
 20
955.41046198
 30
0.0
 11
898.4627378978
 21
955.2697525028
 31
0.0
  0
ARC
  5
1FF
330
1F
100
AcDbEntity
  8
0
  6
Continuous
 62
     8
370
    18
100
AcDbCircle
 10
804.7070582702
 20
958.3352497934
 30
0.0
 40
93.80578199699903
100
AcDbArc
 50
358.1272867192
 51
358.5922936385
  0
ARC
  5
200
330
1F
100
AcDbEntity
  8
0
  6
Continuous
 62
     8
370
    18
100
AcDbCircle
 10
1065.0539624041
 20
958.3352497935
 30
0.0
 40
93.80578199988952
100
AcDbArc
 50
181.4077063615
 51
181.8727132808
  0
ARC
  5
201
330
1F
100
AcDbEntity
  8
0
  6
Continuous
 62
     8
370
    18
100
AcDbCircle
 10
850.7588994406
 20
958.3359576453
 30
0.0
 40
40.67781841688853
100
AcDbArc
 50
355.8758017505
 51
356.9247251143
  0
ARC
  5
202
330
1F
100
AcDbEntity
  8
0
  6
Continuous
 62
     8
370
    18
100
AcDbCircle
 10
1019.0021212303
 20
958.3359576453
 30
0.0
 40
40.67781841640626
100
AcDbArc
 50
183.0752748857
 51
184.1241982495
  0
SPLINE
  5
203
330
1F
100
AcDbEntity
  8
0
  6
Continuous
 62
     8
370
    18
100
AcDbSpline
210
0.0
220
0.0
230
1.0
 70
     8
 71
     3
 72
    19
 73
    15
 74
     0
 42
0.000000001
 43
0.00000001
 40
0.0
 40
0.0
 40
0.0
 40
0.0
 40
0.5108655809785158
 40
0.6773161886274567
 40
0.7897294814090564
 40
0.8649135704138773
 40
0.9149987759643959
 40
0.9638937301973749
 40
0.9805048002912536
 40
0.9864047265890653
 40
0.992357364345202
 40
0.9937773259466397
 40
0.9978992913798034
 40
1.0
 40
1.0
 40
1.0
 40
1.0
 10
970.4219560696366
 20
901.1227642933743
 30
0.0
 10
970.4210064316173
 20
899.9436668715805
 30
0.0
 10
970.4197473818249
 20
898.3803950414051
 30
0.0
 10
970.4179805385837
 20
896.9584939308094
 30
0.0
 10
970.4250706141802
 20
896.3765756200295
 30
0.0
 10
970.442170956136
 20
896.0152722684987
 30
0.0
 10
970.4753586625559
 20
895.7652823009593
 30
0.0
 10
970.5170328263961
 20
895.6070943515936
 30
0.0
 10
970.5852677621407
 20
895.5162620107828
 30
0.0
 10
970.630555808758
 20
895.4849571690188
 30
0.0
 10
970.6594627280058
 20
895.4731538669861
 30
0.0
 10
970.6886731245053
 20
895.4666618976946
 30
0.0
 10
970.710171593761
 20
895.4643469193285
 30
0.0
 10
970.7275385445578
 20
895.4649622615376
 30
0.0
 10
970.7334014425552
 20
895.465169994527
 30
0.0
  0
SPLINE
  5
204
330
1F
100
AcDbEntity
  8
0
  6
Continuous
 62
     8
370
    18
100
AcDbSpline
210
0.0
220
0.0
230
1.0
 70
     8
 71
     3
 72
    19
 73
    15
 74
     0
 42
0.000000001
 43
0.00000001
 40
0.0
 40
0.0
 40
0.0
 40
0.0
 40
0.5108655809785156
 40
0.6773161886274565
 40
0.7897294814090563
 40
0.8649135704138771
 40
0.9149987759643957
 40
0.9638937301973747
 40
0.9805048002912534
 40
0.9864047265890651
 40
0.9923573643452022
 40
0.9937773259466397
 40
0.9978992913798034
 40
1.0
 40
1.0
 40
1.0
 40
1.0
 10
899.3390646017864
 20
901.1227642933743
 30
0.0
 10
899.3400142398056
 20
899.9436668715805
 30
0.0
 10
899.3412732895981
 20
898.3803950414051
 30
0.0
 10
899.3430401328392
 20
896.9584939308095
 30
0.0
 10
899.3359500572427
 20
896.3765756200295
 30
0.0
 10
899.3188497152869
 20
896.0152722684987
 30
0.0
 10
899.2856620088671
 20
895.7652823009593
 30
0.0
 10
899.243987845027
 20
895.6070943515936
 30
0.0
 10
899.1757529092821
 20
895.5162620107828
 30
0.0
 10
899.130464862665
 20
895.4849571690188
 30
0.0
 10
899.1015579434172
 20
895.473153866986
 30
0.0
 10
899.0723475469177
 20
895.4666618976946
 30
0.0
 10
899.0508490776621
 20
895.4643469193285
 30
0.0
 10
899.0334821268651
 20
895.4649622615376
 30
0.0
 10
899.0276192288678
 20
895.465169994527
 30
0.0
  0
ARC
  5
205
330
1F
100
AcDbEntity
  8
0
  6
Continuous
 62
     8
370
    18
100
AcDbCircle
 10
900.6959320409
 20
895.8067163686
 30
0.0
 40
5.486479270493751
100
AcDbArc
 50
85.5276603397
 51
104.3184561189
  0
ARC
  5
206
330
1F
100
AcDbEntity
  8
0
  6
Continuous
 62
     8
370
    18
100
AcDbCircle
 10
891.8467114918
 20
894.6674397582
 30
0.0
 40
7.225081968961688
100
AcDbArc
 50
5.1955682006
 51
6.3390221049
  0
ARC
  5
207
330
1F
100
AcDbEntity
  8
0
  6
Continuous
 62
     8
370
    18
100
AcDbCircle
 10
969.0650886306
 20
895.8067163686
 30
0.0
 40
5.486479270465596
100
AcDbArc
 50
75.6815438811
 51
94.47233966
  0
ARC
  5
208
330
1F
100
AcDbEntity
  8
0
  6
Continuous
 62
     8
370
    18
100
AcDbCircle
 10
977.9143091854
 20
894.6674397576
 30
0.0
 40
7.225081974763815
100
AcDbArc
 50
173.6609778957
 51
174.804431799
  0
SPLINE
  5
209
330
1F
100
AcDbEntity
  8
0
  6
Continuous
 62
     8
370
    18
100
AcDbSpline
210
0.0
220
0.0
230
1.0
 70
     8
 71
     3
 72
    17
 73
    13
 74
     0
 42
0.000000001
 43
0.00000001
 40
0.0
 40
0.0
 40
0.0
 40
0.0
 40
0.0045109817899505
 40
0.0089278415503376
 40
0.0130797684277631
 40
0.01777779217689
 40
0.0339670776357903
 40
0.0840600072516065
 40
0.3047425979556601
 40
0.7692822253149063
 40
0.8273200843747949
 40
0.9999999999999999
 40
0.9999999999999999
 40
0.9999999999999999
 40
0.9999999999999999
 10
979.0458592593588
 20
895.246651953075
 30
0.0
 10
979.0588287503797
 20
895.2448881642638
 30
0.0
 10
979.0844971228572
 20
895.2413973882497
 30
0.0
 10
979.1253731329507
 20
895.2431119240462
 30
0.0
 10
979.1627338230522
 20
895.2514328298961
 30
0.0
 10
979.2186638459723
 20
895.2761028813325
 30
0.0
 10
979.3031699768525
 20
895.3693150731439
 30
0.0
 10
979.3974449679916
 20
895.7732590144707
 30
0.0
 10
979.3646448628946
 20
896.9643723837208
 30
0.0
 10
979.3639875461848
 20
898.5614849102936
 30
0.0
 10
979.3580618506326
 20
900.2481347472328
 30
0.0
 10
979.3564568425664
 20
900.8462666249867
 30
0.0
 10
979.3552555798643
 20
901.2939363475482
 30
0.0
  0
ARC
  5
20A
330
1F
100
AcDbEntity
  8
0
  6
Continuous
 62
     8
370
    18
100
AcDbCircle
 10
981.8107539878
 20
894.5234607339
 30
0.0
 40
2.857909795391655
100
AcDbArc
 50
165.3419899912
 51
168.2962236799
  0
ARC
  5
20B
330
1F
100
AcDbEntity
  8
0
  6
Continuous
 62
     8
370
    18
100
AcDbCircle
 10
980.8598539845
 20
896.0725621807
 30
0.0
 40
5.433835160328236
100
AcDbArc
 50
86.3229443242
 51
106.074938564
  0
SPLINE
  5
20C
330
1F
100
AcDbEntity
  8
0
  6
Continuous
 62
     8
370
    18
100
AcDbSpline
210
0.0
220
0.0
230
1.0
 70
     8
 71
     3
 72
    17
 73
    13
 74
     0
 42
0.000000001
 43
0.00000001
 40
0.0
 40
0.0
 40
0.0
 40
0.0
 40
0.0045109817899505
 40
0.0089278415503376
 40
0.0130797684277631
 40
0.01777779217689
 40
0.0339670776357903
 40
0.0840600072516065
 40
0.3047425979556601
 40
0.7692822253149063
 40
0.8273200843747949
 40
0.9999999999999999
 40
0.9999999999999999
 40
0.9999999999999999
 40
0.9999999999999999
 10
890.7151614120642
 20
895.246651953075
 30
0.0
 10
890.7021919210432
 20
895.2448881642638
 30
0.0
 10
890.6765235485657
 20
895.2413973882497
 30
0.0
 10
890.6356475384723
 20
895.2431119240462
 30
0.0
 10
890.5982868483707
 20
895.2514328298961
 30
0.0
 10
890.5423568254507
 20
895.2761028813325
 30
0.0
 10
890.4578506945705
 20
895.3693150731439
 30
0.0
 10
890.3635757034313
 20
895.7732590144707
 30
0.0
 10
890.3963758085284
 20
896.9643723837208
 30
0.0
 10
890.3970331252381
 20
898.5614849102936
 30
0.0
 10
890.4029588207904
 20
900.2481347472328
 30
0.0
 10
890.4045638288566
 20
900.8462666249867
 30
0.0
 10
890.4057650915587
 20
901.2939363475482
 30
0.0
  0
ARC
  5
20D
330
1F
100
AcDbEntity
  8
0
  6
Continuous
 62
     8
370
    18
100
AcDbCircle
 10
887.9502666834
 20
894.5234607338
 30
0.0
 40
2.857909795688607
100
AcDbArc
 50
11.7037763202
 51
14.6580100087
  0
ARC
  5
20E
330
1F
100
AcDbEntity
  8
0
  6
Continuous
 62
     8
370
    18
100
AcDbCircle
 10
888.9011666869
 20
896.0725621806
 30
0.0
 40
5.433835160393834
100
AcDbArc
 50
73.9250614362
 51
93.677055676
  0
SPLINE
  5
20F
330
1F
100
AcDbEntity
  8
0
  6
Continuous
 62
     8
370
    18
100
AcDbSpline
210
0.0
220
0.0
230
1.0
 70
     8
 71
     3
 72
    20
 73
    16
 74
     0
 42
0.000000001
 43
0.00000001
 40
0.0
 40
0.0
 40
0.0
 40
0.0
 40
0.0177553498927665
 40
0.0895541770723949
 40
0.1635124813712812
 40
0.2505819007214778
 40
0.3150328805895259
 40
0.3805147797652316
 40
0.4675444081230345
 40
0.5694410813320726
 40
0.6754503316775967
 40
0.7871440412594523
 40
0.8785532165774713
 40
0.9388623767392659
 40
0.9999999999999999
 40
0.9999999999999999
 40
0.9999999999999999
 40
0.9999999999999999
 10
1011.019057470948
 20
902.468137478021
 30
0.0
 10
1011.008353540747
 20
902.7172458371638
 30
0.0
 10
1010.954365212366
 20
903.9736949772605
 30
0.0
 10
1011.019147521047
 20
906.4568419345507
 30
0.0
 10
1011.462156463049
 20
910.2527234080868
 30
0.0
 10
1012.217019277549
 20
914.1058665082601
 30
0.0
 10
1013.127310865525
 20
917.8596815815416
 30
0.0
 10
1014.124277230598
 20
921.6108327603248
 30
0.0
 10
1015.328174835109
 20
925.9475697017715
 30
0.0
 10
1016.604120133004
 20
930.7650403516196
 30
0.0
 10
1017.875296789399
 20
935.5039507064783
 30
0.0
 10
1019.06699279583
 20
939.4204186160372
 30
0.0
 10
1020.072588231181
 20
942.1006294088596
 30
0.0
 10
1020.802568273288
 20
943.8523123131771
 30
0.0
 10
1021.126355176668
 20
944.5705145638748
 30
0.0
 10
1021.289353003022
 20
944.9320653385496
 30
0.0
  0
ARC
  5
210
330
1F
100
AcDbEntity
  8
0
  6
Continuous
 62
     8
370
    18
100
AcDbCircle
 10
1011.6488376704
 20
898.6497162764
 30
0.0
 40
3.870008213484623
100
AcDbArc
 50
99.3655973717
 51
122.4620469832
  0
ARC
  5
211
330
1F
100
AcDbEntity
  8
0
  6
Continuous
 62
     8
370
    18
100
AcDbCircle
 10
1014.0392611007
 20
941.8568005023
 30
0.0
 40
7.875346748260502
100
AcDbArc
 50
22.4525517108
 51
22.9851555297
  0
SPLINE
  5
212
330
1F
100
AcDbEntity
  8
0
  6
Continuous
 62
     8
370
    18
100
AcDbSpline
210
0.0
220
0.0
230
1.0
 70
     8
 71
     3
 72
    19
 73
    15
 74
     0
 42
0.000000001
 43
0.00000001
 40
0.0
 40
0.0
 40
0.0
 40
0.0
 40
0.0812843755281375
 40
0.1625926981205919
 40
0.2503967158277944
 40
0.3382767484838726
 40
0.4242704765567137
 40
0.510246220949112
 40
0.5965701789596967
 40
0.6829065819723052
 40
0.7657398742054035
 40
0.8485711078275142
 40
0.9243009273350651
 40
1.0
 40
1.0
 40
1.0
 40
1.0
 10
1011.085114771655
 20
902.4776562632267
 30
0.0
 10
1011.076244283865
 20
903.6556146832779
 30
0.0
 10
1011.058500694963
 20
906.0118785598909
 30
0.0
 10
1011.538076724848
 20
910.1072972644347
 30
0.0
 10
1012.393829553317
 20
914.48510122607
 30
0.0
 10
1013.517573625247
 20
919.0224633862013
 30
0.0
 10
1014.733590242581
 20
923.4941154275976
 30
0.0
 10
1015.917012114025
 20
927.8190868694255
 30
0.0
 10
1016.98980252767
 20
931.9134423865213
 30
0.0
 10
1017.990503238508
 20
935.6106810243436
 30
0.0
 10
1018.963428917204
 20
938.8197755660844
 30
0.0
 10
1019.874150866787
 20
941.4246394634558
 30
0.0
 10
1020.711680809496
 20
943.4975572470831
 30
0.0
 10
1021.115671654727
 20
944.4089399894567
 30
0.0
 10
1021.31762606323
 20
944.8645388348997
 30
0.0
  0
ARC
  5
213
330
1F
100
AcDbEntity
  8
0
  6
Continuous
 62
     8
370
    18
100
AcDbCircle
 10
1007.9808008536
 20
923.7866265225
 30
0.0
 40
21.53390299993557
100
AcDbArc
 50
278.1110275316
 51
278.2886032806
  0
SPLINE
  5
214
330
1F
100
AcDbEntity
  8
0
  6
Continuous
 62
     8
370
    18
100
AcDbSpline
210
0.0
220
0.0
230
1.0
 70
     8
 71
     3
 72
    30
 73
    26
 74
     0
 42
0.000000001
 43
0.00000001
 40
0.0
 40
0.0
 40
0.0
 40
0.0
 40
0.0367442153817575
 40
0.0737232841850677
 40
0.1110413367406517
 40
0.148808577200663
 40
0.1888707208560452
 40
0.229178073835326
 40
0.2702466874566162
 40
0.311575936970002
 40
0.3541334999732087
 40
0.3969808370193869
 40
0.4407360718523627
 40
0.4848040276228704
 40
0.5276706400319179
 40
0.570826668246634
 40
0.6148725539342165
 40
0.6592220198760967
 40
0.7025795290829526
 40
0.7462563583192048
 40
0.7910386023489433
 40
0.8362596963443323
 40
0.9039599048262003
 40
0.9728711860774641
 40
1.0
 40
1.0
 40
1.0
 40
1.0
 10
1024.197008004842
 20
942.5404151501897
 30
0.0
 10
1024.082487795971
 20
942.3831339268254
 30
0.0
 10
1023.852715413685
 20
942.0675662053054
 30
0.0
 10
1023.433843829098
 20
941.4233659951024
 30
0.0
 10
1022.971114579615
 20
940.6544245312316
 30
0.0
 10
1022.459837025437
 20
939.7336519918002
 30
0.0
 10
1021.911715793434
 20
938.659488974021
 30
0.0
 10
1021.335312420338
 20
937.4233759455828
 30
0.0
 10
1020.755085091466
 20
936.0454714965158
 30
0.0
 10
1020.165660832356
 20
934.5188589401312
 30
0.0
 10
1019.56251673391
 20
932.8553157014311
 30
0.0
 10
1018.937480899378
 20
931.0542888860367
 30
0.0
 10
1018.290748312041
 20
929.1388290226294
 30
0.0
 10
1017.625639753606
 20
927.1447275392794
 30
0.0
 10
1016.934794882947
 20
925.1017909148309
 30
0.0
 10
1016.217727678177
 20
923.0171385255959
 30
0.0
 10
1015.483421417168
 20
920.8758008336246
 30
0.0
 10
1014.75659647284
 20
918.7080107379924
 30
0.0
 10
1014.061157142354
 20
916.5329536743426
 30
0.0
 10
1013.414611365529
 20
914.347410450733
 30
0.0
 10
1012.835620214258
 20
912.1401971951176
 30
0.0
 10
1012.272293268872
 20
909.5674821017634
 30
0.0
 10
1011.836593544653
 20
906.6836731696949
 30
0.0
 10
1011.706229652646
 20
904.237249895226
 30
0.0
 10
1011.75736993155
 20
902.9196108126287
 30
0.0
 10
1011.771815722215
 20
902.5474122488502
 30
0.0
  0
ARC
  5
215
330
1F
100
AcDbEntity
  8
0
  6
Continuous
 62
     8
370
    18
100
AcDbCircle
 10
1011.9071963364
 20
897.7997473711
 30
0.0
 40
4.749594688235442
100
AcDbArc
 50
91.6333580123
 51
99.9672112785
  0
ARC
  5
216
330
1F
100
AcDbEntity
  8
0
  6
Continuous
 62
     8
370
    18
100
AcDbCircle
 10
1024.3099233524
 20
945.6260177339
 30
0.0
 40
3.087667919413687
100
AcDbArc
 50
194.2775571615
 51
267.9042384386
  0
SPLINE
  5
217
330
1F
100
AcDbEntity
  8
0
  6
Continuous
 62
     8
370
    18
100
AcDbSpline
210
0.0
220
0.0
230
1.0
 70
     8
 71
     3
 72
     9
 73
     5
 74
     0
 42
0.000000001
 43
0.00000001
 40
0.0
 40
0.0
 40
0.0
 40
0.0
 40
0.4955319650024687
 40
1.0
 40
1.0
 40
1.0
 40
1.0
 10
1024.778344762238
 20
943.2060814376711
 30
0.0
 10
1024.732089653662
 20
943.1779939188438
 30
0.0
 10
1024.638745304874
 20
943.1213123709095
 30
0.0
 10
1024.34512836536
 20
942.7351976730849
 30
0.0
 10
1024.197008004842
 20
942.5404151501897
 30
0.0
  0
SPLINE
  5
218
330
1F
100
AcDbEntity
  8
0
  6
Continuous
 62
     8
370
    18
100
AcDbSpline
210
0.0
220
0.0
230
1.0
 70
     8
 71
     3
 72
    10
 73
     6
 74
     0
 42
0.000000001
 43
0.00000001
 40
0.0
 40
0.0
 40
0.0
 40
0.0
 40
0.4337470054426097
 40
0.8726448366891218
 40
1.0
 40
1.0
 40
1.0
 40
1.0
 10
1008.109212124161
 20
893.9766526580275
 30
0.0
 10
1008.076253173052
 20
893.782570074259
 30
0.0
 10
1008.009943877202
 20
893.3921001401918
 30
0.0
 10
1007.933498205043
 20
893.2211027522335
 30
0.0
 10
1007.890239573575
 20
893.2088395395583
 30
0.0
 10
1007.880510335712
 20
893.2060814376711
 30
0.0
  0
SPLINE
  5
219
330
1F
100
AcDbEntity
  8
0
  6
Continuous
 62
     8
370
    18
100
AcDbSpline
210
0.0
220
0.0
230
1.0
 70
     8
 71
     3
 72
    13
 73
     9
 74
     0
 42
0.000000001
 43
0.00000001
 40
0.0
 40
0.0
 40
0.0
 40
0.0
 40
0.1663795665670601
 40
0.3327993424822734
 40
0.5326933616013211
 40
0.7327069656730665
 40
0.9440944502581979
 40
1.0
 40
1.0
 40
1.0
 40
1.0
 10
1011.771815722215
 20
902.5474122488502
 30
0.0
 10
1011.781810314634
 20
901.8446867125829
 30
0.0
 10
1011.80180191489
 20
900.4390658106857
 30
0.0
 10
1011.469035076938
 20
898.4837378185637
 30
0.0
 10
1010.802530127877
 20
896.7228842762737
 30
0.0
 10
1009.822398679188
 20
895.2273373319086
 30
0.0
 10
1008.638672643133
 20
894.4192800101466
 30
0.0
 10
1008.20079600738
 20
894.0532165004165
 30
0.0
 10
1008.109212124161
 20
893.9766526580275
 30
0.0
  0
SPLINE
  5
21A
330
1F
100
AcDbEntity
  8
0
  6
Continuous
 62
     8
370
    18
100
AcDbSpline
210
0.0
220
0.0
230
1.0
 70
     8
 71
     3
 72
    12
 73
     8
 74
     0
 42
0.000000001
 43
0.00000001
 40
0.0
 40
0.0
 40
0.0
 40
0.0
 40
0.2584254149750848
 40
0.5253727836647557
 40
0.6325637335472098
 40
0.8141005554129469
 40
1.0
 40
1.0
 40
1.0
 40
1.0
 10
1007.880510335713
 20
893.9754857863238
 30
0.0
 10
1008.386815982669
 20
894.3577113633855
 30
0.0
 10
1009.416123441273
 20
895.1347669615282
 30
0.0
 10
1010.262234491041
 20
896.7498431665473
 30
0.0
 10
1010.773453570882
 20
898.4761326344553
 30
0.0
 10
1011.055670361682
 20
900.158155022035
 30
0.0
 10
1011.03135798927
 20
901.6920725196132
 30
0.0
 10
1011.019057470948
 20
902.468137478021
 30
0.0
  0
SPLINE
  5
21B
330
1F
100
AcDbEntity
  8
0
  6
Continuous
 62
     8
370
    18
100
AcDbSpline
210
0.0
220
0.0
230
1.0
 70
     8
 71
     3
 72
    11
 73
     7
 74
     0
 42
0.000000001
 43
0.00000001
 40
0.0
 40
0.0
 40
0.0
 40
0.0
 40
0.2821978531715174
 40
0.5662711511816111
 40
0.995686545031333
 40
1.0
 40
1.0
 40
1.0
 40
1.0
 10
1007.880510335713
 20
893.9754857863238
 30
0.0
 10
1007.553385670099
 20
893.8376100474642
 30
0.0
 10
1006.89696231714
 20
893.5609422681504
 30
0.0
 10
1005.604091067959
 20
893.2815152558279
 30
0.0
 10
1004.583795087654
 20
893.2063611447016
 30
0.0
 10
1003.93375739991
 20
893.2060841919796
 30
0.0
 10
1003.927292742783
 20
893.2060814376711
 30
0.0
  0
SPLINE
  5
21C
330
1F
100
AcDbEntity
  8
0
  6
Continuous
 62
     8
370
    18
100
AcDbSpline
210
0.0
220
0.0
230
1.0
 70
     8
 71
     3
 72
    14
 73
    10
 74
     0
 42
0.000000001
 43
0.00000001
 40
0.0
 40
0.0
 40
0.0
 40
0.0
 40
0.0665232667018164
 40
0.1346138509585659
 40
0.270526373188616
 40
0.467909457036936
 40
0.6697252416072356
 40
0.8332896955030696
 40
1.0
 40
1.0
 40
1.0
 40
1.0
 10
1008.068852985023
 20
893.976713820844
 30
0.0
 10
1008.155990933254
 20
894.0683705586749
 30
0.0
 10
1008.332319838276
 20
894.2538435075761
 30
0.0
 10
1008.866959961776
 20
894.6791612086294
 30
0.0
 10
1009.536779721135
 20
895.4364348080895
 30
0.0
 10
1010.295339510631
 20
896.7347002413806
 30
0.0
 10
1010.829009659462
 20
898.4724490157572
 30
0.0
 10
1011.11077921646
 20
900.4000144720432
 30
0.0
 10
1011.093723737452
 20
901.7807252656836
 30
0.0
 10
1011.085114771655
 20
902.4776562632267
 30
0.0
  0
ARC
  5
21D
330
1F
100
AcDbEntity
  8
0
  6
Continuous
 62
     8
370
    18
100
AcDbCircle
 10
1007.8805105392
 20
908.4190475821
 30
0.0
 40
14.44356179578586
100
AcDbArc
 50
269.9999991927
 51
270.7471517929
  0
ARC
  5
21E
330
1F
100
AcDbEntity
  8
0
  6
Continuous
 62
     8
370
    18
100
AcDbCircle
 10
1008.0843469777
 20
890.8848398796
 30
0.0
 40
3.091912762684925
100
AcDbArc
 50
89.5392226713
 51
90.2871180963
  0
SPLINE
  5
21F
330
1F
100
AcDbEntity
  8
0
  6
Continuous
 62
     8
370
    18
100
AcDbSpline
210
0.0
220
0.0
230
1.0
 70
     8
 71
     3
 72
    10
 73
     6
 74
     0
 42
0.000000001
 43
0.00000001
 40
0.0
 40
0.0
 40
0.0
 40
0.0
 40
0.0149525925089902
 40
0.5037698573839661
 40
1.0
 40
1.0
 40
1.0
 40
1.0
 10
1007.880510335712
 20
893.2060814376711
 30
0.0
 10
1007.881450914067
 20
893.2061221008107
 30
0.0
 10
1007.913140069244
 20
893.2074920882616
 30
0.0
 10
1007.976140123964
 20
893.3250944253408
 30
0.0
 10
1008.037794041166
 20
893.7584203716937
 30
0.0
 10
1008.068852985023
 20
893.976713820844
 30
0.0
  0
LINE
  5
220
330
1F
100
AcDbEntity
  8
0
  6
Continuous
 62
     8
370
    18
100
AcDbLine
 10
1007.8805103357
 20
893.2060814377
 30
0.0
 11
1007.8805103357
 21
893.9754857863
 31
0.0
  0
SPLINE
  5
221
330
1F
100
AcDbEntity
  8
0
  6
Continuous
 62
     8
370
    18
100
AcDbSpline
210
0.0
220
0.0
230
1.0
 70
     8
 71
     3
 72
     9
 73
     5
 74
     0
 42
0.000000001
 43
0.00000001
 40
0.0
 40
0.0
 40
0.0
 40
0.0
 40
0.4953932977280407
 40
1.0
 40
1.0
 40
1.0
 40
1.0
 10
1021.31762606323
 20
944.8645388348997
 30
0.0
 10
1021.436901015328
 20
945.1240119336045
 30
0.0
 10
1021.677669214342
 20
945.6477838536016
 30
0.0
 10
1021.754861418152
 20
945.8069603867435
 30
0.0
 10
1021.793813121558
 20
945.8872819322113
 30
0.0
  0
LINE
  5
222
330
1F
100
AcDbEntity
  8
0
  6
Continuous
 62
     8
370
    18
100
AcDbLine
 10
1447.3805103357
 20
973.6525199372
 30
0.0
 11
1447.3805103357
 21
974.6525199372
 31
0.0
  0
LINE
  5
223
330
1F
100
AcDbEntity
  8
0
  6
Continuous
 62
     8
370
    18
100
AcDbLine
 10
422.3805103357
 20
974.6525199372
 30
0.0
 11
422.3805103357
 21
973.6525199372
 31
0.0
  0
LINE
  5
224
330
1F
100
AcDbEntity
  8
0
  6
Continuous
 62
     8
370
    18
100
AcDbLine
 10
1424.8805103357
 20
967.9266604588
 30
0.0
 11
1426.8805103357
 21
967.9266604588
 31
0.0
  0
LINE
  5
225
330
1F
100
AcDbEntity
  8
0
  6
Continuous
 62
     8
370
    18
100
AcDbLine
 10
1426.8805103357
 20
966.1140448848
 30
0.0
 11
1424.8805103357
 21
966.1140448848
 31
0.0
  0
LINE
  5
226
330
1F
100
AcDbEntity
  8
0
  6
Continuous
 62
     8
370
    18
100
AcDbLine
 10
1424.8805103357
 20
958.8557456002
 30
0.0
 11
1426.8805103357
 21
958.8557456002
 31
0.0
  0
LINE
  5
227
330
1F
100
AcDbEntity
  8
0
  6
Continuous
 62
     8
370
    18
100
AcDbLine
 10
1426.8805103357
 20
957.0431300261
 30
0.0
 11
1424.8805103357
 21
957.0431300261
 31
0.0
  0
LINE
  5
228
330
1F
100
AcDbEntity
  8
0
  6
Continuous
 62
     8
370
    18
100
AcDbLine
 10
1424.8805103357
 20
922.7525199372
 30
0.0
 11
1426.8805103357
 21
922.7525199372
 31
0.0
  0
LINE
  5
229
330
1F
100
AcDbEntity
  8
0
  6
Continuous
 62
     8
370
    18
100
AcDbLine
 10
442.8805103357
 20
967.9266604588
 30
0.0
 11
444.8805103357
 21
967.9266604588
 31
0.0
  0
LINE
  5
22A
330
1F
100
AcDbEntity
  8
0
  6
Continuous
 62
     8
370
    18
100
AcDbLine
 10
444.8805103357
 20
966.1140448848
 30
0.0
 11
442.8805103357
 21
966.1140448848
 31
0.0
  0
LINE
  5
22B
330
1F
100
AcDbEntity
  8
0
  6
Continuous
 62
     8
370
    18
100
AcDbLine
 10
442.8805103357
 20
958.8557456002
 30
0.0
 11
444.8805103357
 21
958.8557456002
 31
0.0
  0
LINE
  5
22C
330
1F
100
AcDbEntity
  8
0
  6
Continuous
 62
     8
370
    18
100
AcDbLine
 10
444.8805103357
 20
957.0431300261
 30
0.0
 11
442.8805103357
 21
957.0431300261
 31
0.0
  0
LINE
  5
22D
330
1F
100
AcDbEntity
  8
0
  6
Continuous
 62
     8
370
    18
100
AcDbLine
 10
442.8805103357
 20
922.7525199372
 30
0.0
 11
444.8805103357
 21
922.7525199372
 31
0.0
  0
LINE
  5
22E
330
1F
100
AcDbEntity
  8
0
  6
Continuous
 62
     7
370
    35
100
AcDbLine
 10
444.8805103357
 20
665.0684108142
 30
0.0
 11
444.8805103357
 21
667.896837939
 31
0.0
  0
LINE
  5
22F
330
1F
100
AcDbEntity
  8
0
  6
Continuous
 62
     7
370
    35
100
AcDbLine
 10
1424.8805103357
 20
667.9826243766
 30
0.0
 11
444.8805103357
 21
667.9826243766
 31
0.0
  0
LINE
  5
230
330
1F
100
AcDbEntity
  8
0
  6
Continuous
 62
     7
370
    35
100
AcDbLine
 10
1424.8805103357
 20
664.9826243766
 30
0.0
 11
444.8805103357
 21
664.9826243766
 31
0.0
  0
LINE
  5
231
330
1F
100
AcDbEntity
  8
0
  6
Continuous
 62
     7
370
    35
100
AcDbLine
 10
1424.8805103357
 20
667.896837939
 30
0.0
 11
1424.8805103357
 21
665.0684108142
 31
0.0
  0
LINE
  5
232
330
1F
100
AcDbEntity
  8
0
  6
Continuous
 62
     7
370
    35
100
AcDbLine
 10
444.8805103357
 20
600.9826243766
 30
0.0
 11
1424.8805103357
 21
600.9826243766
 31
0.0
  0
LINE
  5
233
330
1F
100
AcDbEntity
  8
0
  6
Continuous
 62
     7
370
    35
100
AcDbLine
 10
444.8805103357
 20
597.9826243766
 30
0.0
 11
1424.8805103357
 21
597.9826243766
 31
0.0
  0
LINE
  5
234
330
1F
100
AcDbEntity
  8
0
  6
Continuous
 62
     7
370
    35
100
AcDbLine
 10
444.8805103357
 20
598.0684108142
 30
0.0
 11
444.8805103357
 21
600.896837939
 31
0.0
  0
LINE
  5
235
330
1F
100
AcDbEntity
  8
0
  6
Continuous
 62
     7
370
    35
100
AcDbLine
 10
1424.8805103357
 20
600.896837939
 30
0.0
 11
1424.8805103357
 21
598.0684108142
 31
0.0
  0
LINE
  5
236
330
1F
100
AcDbEntity
  8
0
  6
Continuous
 62
     7
370
    35
100
AcDbLine
 10
1424.8805103357
 20
668.9826243766
 30
0.0
 11
1424.8805103357
 21
667.9826243766
 31
0.0
  0
LINE
  5
237
330
1F
100
AcDbEntity
  8
0
  6
Continuous
 62
     7
370
    35
100
AcDbLine
 10
444.8805103357
 20
667.9826243766
 30
0.0
 11
444.8805103357
 21
668.9826243766
 31
0.0
  0
LINE
  5
238
330
1F
100
AcDbEntity
  8
0
  6
Continuous
 62
     7
370
    35
100
AcDbLine
 10
1424.8805103357
 20
596.9826243766
 30
0.0
 11
1424.8805103357
 21
597.9826243766
 31
0.0
  0
LINE
  5
239
330
1F
100
AcDbEntity
  8
0
  6
Continuous
 62
     7
370
    35
100
AcDbLine
 10
444.8805103357
 20
597.9826243766
 30
0.0
 11
444.8805103357
 21
596.9826243766
 31
0.0
  0
LINE
  5
23A
330
1F
100
AcDbEntity
  8
0
  6
Continuous
 62
     7
370
    35
100
AcDbLine
 10
444.8805103357
 20
698.4826243766
 30
0.0
 11
1424.8805103357
 21
698.4826243766
 31
0.0
  0
LINE
  5
23B
330
1F
100
AcDbEntity
  8
0
  6
Continuous
 62
     7
370
    35
100
AcDbLine
 10
1424.8805103357
 20
698.4826243766
 30
0.0
 11
1424.8805103357
 21
668.9826243766
 31
0.0
  0
LINE
  5
23C
330
1F
100
AcDbEntity
  8
0
  6
Continuous
 62
     7
370
    35
100
AcDbLine
 10
444.8805103357
 20
668.9826243766
 30
0.0
 11
444.8805103357
 21
698.4826243766
 31
0.0
  0
LINE
  5
23D
330
1F
100
AcDbEntity
  8
0
  6
Continuous
 62
     7
370
    35
100
AcDbLine
 10
1424.8805103357
 20
567.4826243766
 30
0.0
 11
444.8805103357
 21
567.4826243766
 31
0.0
  0
LINE
  5
23E
330
1F
100
AcDbEntity
  8
0
  6
Continuous
 62
     7
370
    35
100
AcDbLine
 10
444.8805103357
 20
567.4826243766
 30
0.0
 11
444.8805103357
 21
596.9826243766
 31
0.0
  0
LINE
  5
23F
330
1F
100
AcDbEntity
  8
0
  6
Continuous
 62
     7
370
    35
100
AcDbLine
 10
1424.8805103357
 20
596.9826243766
 30
0.0
 11
1424.8805103357
 21
567.4826243766
 31
0.0
  0
SPLINE
  5
240
330
1F
100
AcDbEntity
  8
0
  6
Continuous
 62
     7
370
    35
100
AcDbSpline
210
0.0
220
0.0
230
1.0
 70
     8
 71
     3
 72
     8
 73
     4
 74
     0
 42
0.000000001
 43
0.00000001
 40
0.0
 40
0.0
 40
0.0
 40
0.0
 40
1.0
 40
1.0
 40
1.0
 40
1.0
 10
987.8805103357115
 20
662.2384085752221
 30
0.0
 10
990.137632592724
 20
662.2384085752221
 30
0.0
 10
992.3944613105109
 20
662.1704173691783
 30
0.0
 10
994.6477733075993
 20
662.0395187508337
 30
0.0
  0
LINE
  5
241
330
1F
100
AcDbEntity
  8
0
  6
Continuous
 62
     7
370
    35
100
AcDbLine
 10
881.8805103357
 20
662.2384085752
 30
0.0
 11
987.8805103357
 21
662.2384085752
 31
0.0
  0
SPLINE
  5
242
330
1F
100
AcDbEntity
  8
0
  6
Continuous
 62
     7
370
    35
100
AcDbSpline
210
0.0
220
0.0
230
1.0
 70
     8
 71
     3
 72
     8
 73
     4
 74
     0
 42
0.000000001
 43
0.00000001
 40
0.0
 40
0.0
 40
0.0
 40
0.0
 40
1.0
 40
1.0
 40
1.0
 40
1.0
 10
875.1132473638236
 20
662.0395187508337
 30
0.0
 10
877.366559054217
 20
662.1704173511491
 30
0.0
 10
879.6233831844806
 20
662.2384085752221
 30
0.0
 10
881.8805103357115
 20
662.2384085752221
 30
0.0
  0
SPLINE
  5
243
330
1F
100
AcDbEntity
  8
0
  6
Continuous
 62
     7
370
    35
100
AcDbSpline
210
0.0
220
0.0
230
1.0
 70
     8
 71
     3
 72
    22
 73
    18
 74
     0
 42
0.000000001
 43
0.00000001
 40
3.369126305560274
 40
3.369126305560274
 40
3.369126305560274
 40
3.369126305560274
 40
3.535853022596993
 40
3.535853022596993
 40
3.702579739633712
 40
3.702579739633712
 40
3.869306456670431
 40
3.869306456670431
 40
4.036033173707151
 40
4.036033173707151
 40
4.20275989074387
 40
4.20275989074387
 40
4.369486607780589
 40
4.369486607780589
 40
4.536213324817307
 40
4.536213324817307
 40
4.702940041854027
 40
4.702940041854027
 40
4.702940041854027
 40
4.702940041854027
 10
851.8818495623376
 20
633.0962115383971
 30
0.0
 10
851.8976033259188
 20
634.7634141222977
 30
0.0
 10
852.052660544238
 20
636.429259267184
 30
0.0
 10
852.637090093799
 20
639.7121789084694
 30
0.0
 10
853.0664548153503
 20
641.3292013394864
 30
0.0
 10
854.1875983170352
 20
644.4696084019811
 30
0.0
 10
854.8793626774822
 20
645.9929526428346
 30
0.0
 10
856.5061269375875
 20
648.9037527581947
 30
0.0
 10
857.441105914473
 20
650.2911711951875
 30
0.0
 10
859.528375123851
 20
652.8916377912275
 30
0.0
 10
860.6806385107449
 20
654.1046525041429
 30
0.0
 10
863.1705254625023
 20
656.3226656323739
 30
0.0
 10
864.5081170034638
 20
657.3276355205167
 30
0.0
 10
867.3315685057709
 20
659.1016819921903
 30
0.0
 10
868.8173921530442
 20
659.8707357586646
 30
0.0
 10
871.8961041133899
 20
661.1516151186205
 30
0.0
 10
873.4889433274527
 20
661.663422037861
 30
0.0
 10
875.1132473638236
 20
662.0395187508337
 30
0.0
  0
SPLINE
  5
244
330
1F
100
AcDbEntity
  8
0
  6
Continuous
 62
     7
370
    35
100
AcDbSpline
210
0.0
220
0.0
230
1.0
 70
     8
 71
     3
 72
     8
 73
     4
 74
     0
 42
0.000000001
 43
0.00000001
 40
0.0
 40
0.0
 40
0.0
 40
0.0
 40
0.0000569949035218
 40
0.0000569949035218
 40
0.0000569949035218
 40
0.0000569949035218
 10
851.8808436749745
 20
633.0393171641856
 30
0.0
 10
851.8810668972347
 20
633.0582836005112
 30
0.0
 10
851.8814024054684
 20
633.077249047308
 30
0.0
 10
851.8818495623376
 20
633.0962115383971
 30
0.0
  0
SPLINE
  5
245
330
1F
100
AcDbEntity
  8
0
  6
Continuous
 62
     7
370
    35
100
AcDbSpline
210
0.0
220
0.0
230
1.0
 70
     8
 71
     3
 72
     8
 73
     4
 74
     0
 42
0.000000001
 43
0.00000001
 40
0.0
 40
0.0
 40
0.0
 40
0.0
 40
0.0000569949035218
 40
0.0000569949035218
 40
0.0000569949035218
 40
0.0000569949035218
 10
1017.879171109085
 20
633.0962115383971
 30
0.0
 10
1017.879618265955
 20
633.077249047308
 30
0.0
 10
1017.879953774188
 20
633.0582836005112
 30
0.0
 10
1017.880176996449
 20
633.0393171641856
 30
0.0
  0
SPLINE
  5
246
330
1F
100
AcDbEntity
  8
0
  6
Continuous
 62
     7
370
    35
100
AcDbSpline
210
0.0
220
0.0
230
1.0
 70
     8
 71
     3
 72
    22
 73
    18
 74
     0
 42
0.000000001
 43
0.00000001
 40
1.580245265325559
 40
1.580245265325559
 40
1.580245265325559
 40
1.580245265325559
 40
1.746971982362278
 40
1.746971982362278
 40
1.913698699398998
 40
1.913698699398998
 40
2.080425416435717
 40
2.080425416435717
 40
2.247152133472436
 40
2.247152133472436
 40
2.413878850509155
 40
2.413878850509155
 40
2.580605567545874
 40
2.580605567545874
 40
2.747332284582593
 40
2.747332284582593
 40
2.914059001619312
 40
2.914059001619312
 40
2.914059001619312
 40
2.914059001619312
 10
994.6477733075993
 20
662.0395187508337
 30
0.0
 10
996.2720773439703
 20
661.663422037861
 30
0.0
 10
997.8649165580329
 20
661.1516151186205
 30
0.0
 10
1000.943628518379
 20
659.8707357586646
 30
0.0
 10
1002.429452165652
 20
659.10168199219
 30
0.0
 10
1005.252903667959
 20
657.3276355205167
 30
0.0
 10
1006.590495208921
 20
656.3226656323739
 30
0.0
 10
1009.080382160678
 20
654.1046525041429
 30
0.0
 10
1010.232645547572
 20
652.8916377912275
 30
0.0
 10
1012.31991475695
 20
650.2911711951874
 30
0.0
 10
1013.254893733836
 20
648.9037527581947
 30
0.0
 10
1014.881657993941
 20
645.9929526428346
 30
0.0
 10
1015.573422354388
 20
644.4696084019812
 30
0.0
 10
1016.694565856073
 20
641.3292013394864
 30
0.0
 10
1017.123930577624
 20
639.7121789084694
 30
0.0
 10
1017.708360127185
 20
636.429259267184
 30
0.0
 10
1017.863417345504
 20
634.7634141222976
 30
0.0
 10
1017.879171109085
 20
633.0962115383971
 30
0.0
  0
SPLINE
  5
247
330
1F
100
AcDbEntity
  8
0
  6
Continuous
 62
     7
370
    35
100
AcDbSpline
210
0.0
220
0.0
230
1.0
 70
     8
 71
     3
 72
    14
 73
    10
 74
     0
 42
0.000000001
 43
0.00000001
 40
0.0
 40
0.0
 40
0.0
 40
0.0
 40
0.25
 40
0.25
 40
0.5
 40
0.5
 40
0.75
 40
0.75
 40
1.0
 40
1.0
 40
1.0
 40
1.0
 10
994.6477733075993
 20
662.0393171641856
 30
0.0
 10
997.8963623765761
 20
661.2871281384341
 30
0.0
 10
1001.017726414499
 20
659.9885036413785
 30
0.0
 10
1006.664629419113
 20
656.4404106980317
 30
0.0
 10
1009.189010942883
 20
654.1916695025993
 30
0.0
 10
1013.363549361639
 20
648.9907363105192
 30
0.0
 10
1015.012850603545
 20
646.0396103465802
 30
0.0
 10
1017.255137606915
 20
639.7587962215907
 30
0.0
 10
1017.847663767918
 20
636.4303954359108
 30
0.0
 10
1017.879171109085
 20
633.0960099517489
 30
0.0
  0
LINE
  5
248
330
1F
100
AcDbEntity
  8
0
  6
Continuous
 62
     7
370
    35
100
AcDbLine
 10
994.6477733076
 20
662.0395187508
 30
0.0
 11
994.6477733076
 21
662.0393171642
 31
0.0
  0
SPLINE
  5
249
330
1F
100
AcDbEntity
  8
0
  6
Continuous
 62
     7
370
    35
100
AcDbSpline
210
0.0
220
0.0
230
1.0
 70
     8
 71
     3
 72
    14
 73
    10
 74
     0
 42
0.000000001
 43
0.00000001
 40
0.0
 40
0.0
 40
0.0
 40
0.0
 40
0.2499999999999999
 40
0.2499999999999999
 40
0.4999999999999999
 40
0.4999999999999999
 40
0.7499999999999999
 40
0.7499999999999999
 40
1.0
 40
1.0
 40
1.0
 40
1.0
 10
1017.879171109085
 20
632.8692388014955
 30
0.0
 10
1017.847663767918
 20
629.5348533173335
 30
0.0
 10
1017.255137606915
 20
626.2064525316536
 30
0.0
 10
1015.012850603545
 20
619.9256384066641
 30
0.0
 10
1013.363549361639
 20
616.9745124427252
 30
0.0
 10
1009.189010942883
 20
611.7735792506451
 30
0.0
 10
1006.664629419113
 20
609.5248380552127
 30
0.0
 10
1001.017726414499
 20
605.9767451118657
 30
0.0
 10
997.8963623765763
 20
604.6781206148102
 30
0.0
 10
994.6477733075993
 20
603.9259315890588
 30
0.0
  0
ARC
  5
24A
330
1F
100
AcDbEntity
  8
0
  6
Continuous
 62
     7
370
    35
100
AcDbCircle
 10
987.8805103357
 20
632.9826243766
 30
0.0
 40
27.00000000000006
100
AcDbArc
 50
283.0367179551
 51
359.4586157013
  0
LINE
  5
24B
330
1F
100
AcDbEntity
  8
0
  6
Continuous
 62
     7
370
    35
100
AcDbLine
 10
994.6477733076
 20
603.9257300024
 30
0.0
 11
994.6477733076
 21
603.9259315891
 31
0.0
  0
SPLINE
  5
24C
330
1F
100
AcDbEntity
  8
0
  6
Continuous
 62
     7
370
    35
100
AcDbSpline
210
0.0
220
0.0
230
1.0
 70
     8
 71
     3
 72
    22
 73
    18
 74
     0
 42
0.000000001
 43
0.00000001
 40
3.369126305560276
 40
3.369126305560276
 40
3.369126305560276
 40
3.369126305560276
 40
3.535853022596996
 40
3.535853022596996
 40
3.702579739633714
 40
3.702579739633714
 40
3.869306456670433
 40
3.869306456670433
 40
4.036033173707152
 40
4.036033173707152
 40
4.20275989074387
 40
4.20275989074387
 40
4.369486607780589
 40
4.369486607780589
 40
4.536213324817308
 40
4.536213324817308
 40
4.702940041854027
 40
4.702940041854027
 40
4.702940041854027
 40
4.702940041854027
 10
1017.879171109085
 20
632.8690372148471
 30
0.0
 10
1017.863417345504
 20
631.2018346309467
 30
0.0
 10
1017.708360127185
 20
629.5359894860603
 30
0.0
 10
1017.123930577624
 20
626.2530698447749
 30
0.0
 10
1016.694565856072
 20
624.6360474137578
 30
0.0
 10
1015.573422354388
 20
621.4956403512631
 30
0.0
 10
1014.881657993941
 20
619.9722961104097
 30
0.0
 10
1013.254893733836
 20
617.0614959950495
 30
0.0
 10
1012.31991475695
 20
615.6740775580569
 30
0.0
 10
1010.232645547572
 20
613.0736109620168
 30
0.0
 10
1009.080382160678
 20
611.8605962491015
 30
0.0
 10
1006.590495208921
 20
609.6425831208705
 30
0.0
 10
1005.252903667959
 20
608.6376132327277
 30
0.0
 10
1002.429452165652
 20
606.8635667610541
 30
0.0
 10
1000.943628518379
 20
606.0945129945796
 30
0.0
 10
997.8649165580329
 20
604.8136336346239
 30
0.0
 10
996.2720773439704
 20
604.3018267153834
 30
0.0
 10
994.6477733075993
 20
603.9257300024104
 30
0.0
  0
SPLINE
  5
24D
330
1F
100
AcDbEntity
  8
0
  6
Continuous
 62
     7
370
    35
100
AcDbSpline
210
0.0
220
0.0
230
1.0
 70
     8
 71
     3
 72
    14
 73
    10
 74
     0
 42
0.000000001
 43
0.00000001
 40
0.0
 40
0.0
 40
0.0
 40
0.0
 40
0.25
 40
0.25
 40
0.5
 40
0.5
 40
0.75
 40
0.75
 40
1.0
 40
1.0
 40
1.0
 40
1.0
 10
875.1132473638235
 20
603.9259315890588
 30
0.0
 10
871.8646582948467
 20
604.6781206148102
 30
0.0
 10
868.7432942569243
 20
605.9767451118657
 30
0.0
 10
863.0963912523101
 20
609.5248380552127
 30
0.0
 10
860.5720097285397
 20
611.7735792506451
 30
0.0
 10
856.3974713097841
 20
616.9745124427252
 30
0.0
 10
854.7481700678777
 20
619.9256384066642
 30
0.0
 10
852.505883064508
 20
626.2064525316536
 30
0.0
 10
851.9133569035047
 20
629.5348533173335
 30
0.0
 10
851.8818495623376
 20
632.8692388014955
 30
0.0
  0
ARC
  5
24E
330
1F
100
AcDbEntity
  8
0
  6
Continuous
 62
     7
370
    35
100
AcDbCircle
 10
881.8805103357
 20
632.9826243766
 30
0.0
 40
27.00000000000006
100
AcDbArc
 50
180.5413842987
 51
256.9632820449
  0
LINE
  5
24F
330
1F
100
AcDbEntity
  8
0
  6
Continuous
 62
     7
370
    35
100
AcDbLine
 10
875.1132473638
 20
603.9257300024
 30
0.0
 11
875.1132473638
 21
603.9259315891
 31
0.0
  0
SPLINE
  5
250
330
1F
100
AcDbEntity
  8
0
  6
Continuous
 62
     7
370
    35
100
AcDbSpline
210
0.0
220
0.0
230
1.0
 70
     8
 71
     3
 72
    22
 73
    18
 74
     0
 42
0.000000001
 43
0.00000001
 40
1.580245265325559
 40
1.580245265325559
 40
1.580245265325559
 40
1.580245265325559
 40
1.746971982362278
 40
1.746971982362278
 40
1.913698699398996
 40
1.913698699398996
 40
2.080425416435715
 40
2.080425416435715
 40
2.247152133472434
 40
2.247152133472434
 40
2.413878850509152
 40
2.413878850509152
 40
2.580605567545871
 40
2.580605567545871
 40
2.74733228458259
 40
2.74733228458259
 40
2.914059001619308
 40
2.914059001619308
 40
2.914059001619308
 40
2.914059001619308
 10
875.1132473638235
 20
603.9257300024104
 30
0.0
 10
873.4889433274526
 20
604.3018267153834
 30
0.0
 10
871.8961041133899
 20
604.8136336346239
 30
0.0
 10
868.8173921530441
 20
606.0945129945798
 30
0.0
 10
867.3315685057707
 20
606.8635667610542
 30
0.0
 10
864.5081170034637
 20
608.6376132327277
 30
0.0
 10
863.1705254625022
 20
609.6425831208705
 30
0.0
 10
860.6806385107448
 20
611.8605962491015
 30
0.0
 10
859.5283751238509
 20
613.0736109620168
 30
0.0
 10
857.4411059144729
 20
615.6740775580569
 30
0.0
 10
856.5061269375873
 20
617.0614959950497
 30
0.0
 10
854.8793626774819
 20
619.9722961104098
 30
0.0
 10
854.1875983170352
 20
621.4956403512632
 30
0.0
 10
853.0664548153503
 20
624.636047413758
 30
0.0
 10
852.637090093799
 20
626.253069844775
 30
0.0
 10
852.052660544238
 20
629.5359894860604
 30
0.0
 10
851.8976033259188
 20
631.2018346309467
 30
0.0
 10
851.8818495623376
 20
632.8690372148471
 30
0.0
  0
ARC
  5
251
330
1F
100
AcDbEntity
  8
0
  6
Continuous
 62
     7
370
    35
100
AcDbCircle
 10
987.8805103357
 20
632.9826243766
 30
0.0
 40
27.00000000000006
100
AcDbArc
 50
0.5413842987
 51
76.9632820449
  0
LINE
  5
252
330
1F
100
AcDbEntity
  8
0
  6
Continuous
 62
     7
370
    35
100
AcDbLine
 10
875.1132473638
 20
662.0395187508
 30
0.0
 11
875.1132473638
 21
662.0393171642
 31
0.0
  0
SPLINE
  5
253
330
1F
100
AcDbEntity
  8
0
  6
Continuous
 62
     7
370
    35
100
AcDbSpline
210
0.0
220
0.0
230
1.0
 70
     8
 71
     3
 72
    14
 73
    10
 74
     0
 42
0.000000001
 43
0.00000001
 40
0.0
 40
0.0
 40
0.0
 40
0.0
 40
0.25
 40
0.25
 40
0.5
 40
0.5
 40
0.75
 40
0.75
 40
1.0
 40
1.0
 40
1.0
 40
1.0
 10
851.8818495623376
 20
633.0960099517489
 30
0.0
 10
851.9133569035048
 20
636.4303954359108
 30
0.0
 10
852.505883064508
 20
639.7587962215907
 30
0.0
 10
854.7481700678777
 20
646.0396103465802
 30
0.0
 10
856.3974713097841
 20
648.9907363105192
 30
0.0
 10
860.5720097285398
 20
654.1916695025993
 30
0.0
 10
863.0963912523102
 20
656.4404106980317
 30
0.0
 10
868.7432942569243
 20
659.9885036413785
 30
0.0
 10
871.8646582948468
 20
661.2871281384341
 30
0.0
 10
875.1132473638236
 20
662.0393171641856
 30
0.0
  0
ARC
  5
254
330
1F
100
AcDbEntity
  8
0
  6
Continuous
 62
     7
370
    35
100
AcDbCircle
 10
881.8805103357
 20
632.9826243766
 30
0.0
 40
27.00000000000006
100
AcDbArc
 50
103.0367179551
 51
179.4586157013
  0
SPLINE
  5
255
330
1F
100
AcDbEntity
  8
0
  6
Continuous
 62
     7
370
    35
100
AcDbSpline
210
0.0
220
0.0
230
1.0
 70
     8
 71
     3
 72
     8
 73
     4
 74
     0
 42
0.000000001
 43
0.00000001
 40
0.0
 40
0.0
 40
0.0
 40
0.0
 40
0.0000569949035229
 40
0.0000569949035229
 40
0.0000569949035229
 40
0.0000569949035229
 10
851.8818495623376
 20
632.8690372148471
 30
0.0
 10
851.8814024054684
 20
632.8879997059366
 30
0.0
 10
851.8810668972349
 20
632.9069651527338
 30
0.0
 10
851.8808436749745
 20
632.9259315890598
 30
0.0
  0
SPLINE
  5
256
330
1F
100
AcDbEntity
  8
0
  6
Continuous
 62
     7
370
    35
100
AcDbSpline
210
0.0
220
0.0
230
1.0
 70
     8
 71
     3
 72
     8
 73
     4
 74
     0
 42
0.000000001
 43
0.00000001
 40
0.0
 40
0.0
 40
0.0
 40
0.0
 40
1.0
 40
1.0
 40
1.0
 40
1.0
 10
881.8805103357115
 20
603.7268401780223
 30
0.0
 10
879.623388078699
 20
603.7268401780223
 30
0.0
 10
877.366559360912
 20
603.7948313840661
 30
0.0
 10
875.1132473638235
 20
603.9257300024104
 30
0.0
  0
LINE
  5
257
330
1F
100
AcDbEntity
  8
0
  6
Continuous
 62
     7
370
    35
100
AcDbLine
 10
987.8805103357
 20
603.726840178
 30
0.0
 11
881.8805103357
 21
603.726840178
 31
0.0
  0
SPLINE
  5
258
330
1F
100
AcDbEntity
  8
0
  6
Continuous
 62
     7
370
    35
100
AcDbSpline
210
0.0
220
0.0
230
1.0
 70
     8
 71
     3
 72
     8
 73
     4
 74
     0
 42
0.000000001
 43
0.00000001
 40
0.0
 40
0.0
 40
0.0
 40
0.0
 40
1.0
 40
1.0
 40
1.0
 40
1.0
 10
994.6477733075993
 20
603.9257300024107
 30
0.0
 10
992.3944616172062
 20
603.7948314020952
 30
0.0
 10
990.1376374869424
 20
603.7268401780223
 30
0.0
 10
987.8805103357115
 20
603.7268401780223
 30
0.0
  0
SPLINE
  5
259
330
1F
100
AcDbEntity
  8
0
  6
Continuous
 62
     7
370
    35
100
AcDbSpline
210
0.0
220
0.0
230
1.0
 70
     8
 71
     3
 72
     8
 73
     4
 74
     0
 42
0.000000001
 43
0.00000001
 40
0.0
 40
0.0
 40
0.0
 40
0.0
 40
0.0000569949035229
 40
0.0000569949035229
 40
0.0000569949035229
 40
0.0000569949035229
 10
1017.880176996449
 20
632.9259315890598
 30
0.0
 10
1017.879953774188
 20
632.9069651527338
 30
0.0
 10
1017.879618265955
 20
632.8879997059366
 30
0.0
 10
1017.879171109085
 20
632.8690372148471
 30
0.0
  0
SPLINE
  5
25A
330
1F
100
AcDbEntity
  8
0
  6
Continuous
 62
     7
370
    35
100
AcDbSpline
210
0.0
220
0.0
230
1.0
 70
     8
 71
     3
 72
    10
 73
     6
 74
     0
 42
0.000000001
 43
0.00000001
 40
0.0
 40
0.0
 40
0.0
 40
0.0
 40
0.5
 40
0.5
 40
1.0
 40
1.0
 40
1.0
 40
1.0
 10
881.8805103357115
 20
603.7326243766222
 30
0.0
 10
880.7375501877542
 20
603.7326243766222
 30
0.0
 10
879.6023567100106
 20
603.7488983954505
 30
0.0
 10
877.3468303776397
 20
603.8133327874597
 30
0.0
 10
876.2264944315837
 20
603.8614903647657
 30
0.0
 10
875.1132473638235
 20
603.9259315890587
 30
0.0
  0
SPLINE
  5
25B
330
1F
100
AcDbEntity
  8
0
  6
Continuous
 62
     7
370
    35
100
AcDbSpline
210
0.0
220
0.0
230
1.0
 70
     8
 71
     3
 72
    10
 73
     6
 74
     0
 42
0.000000001
 43
0.00000001
 40
0.0
 40
0.0
 40
0.0
 40
0.0
 40
0.5
 40
0.5
 40
1.0
 40
1.0
 40
1.0
 40
1.0
 10
881.8805103357115
 20
605.9826243766221
 30
0.0
 10
880.8517706026233
 20
605.9826243766221
 30
0.0
 10
879.8300911263242
 20
606.0412179136313
 30
0.0
 10
877.8001655436788
 20
606.2731805876468
 30
0.0
 10
876.7919160269133
 20
606.4465373019343
 30
0.0
 10
875.7899736610123
 20
606.6785303413936
 30
0.0
  0
SPLINE
  5
25C
330
1F
100
AcDbEntity
  8
0
  6
Continuous
 62
     7
370
    35
100
AcDbSpline
210
0.0
220
0.0
230
1.0
 70
     8
 71
     3
 72
    10
 73
     6
 74
     0
 42
0.000000001
 43
0.00000001
 40
0.0
 40
0.0
 40
0.0
 40
0.0
 40
0.5
 40
0.5
 40
1.0
 40
1.0
 40
1.0
 40
1.0
 10
994.6477733075996
 20
603.9259315890587
 30
0.0
 10
993.5345262398391
 20
603.8614903647657
 30
0.0
 10
992.4141902937833
 20
603.8133327874597
 30
0.0
 10
990.1586639614122
 20
603.7488983954505
 30
0.0
 10
989.0234704836688
 20
603.7326243766222
 30
0.0
 10
987.8805103357115
 20
603.7326243766222
 30
0.0
  0
SPLINE
  5
25D
330
1F
100
AcDbEntity
  8
0
  6
Continuous
 62
     7
370
    35
100
AcDbSpline
210
0.0
220
0.0
230
1.0
 70
     8
 71
     3
 72
    10
 73
     6
 74
     0
 42
0.000000001
 43
0.00000001
 40
0.0
 40
0.0
 40
0.0
 40
0.0
 40
0.5
 40
0.5
 40
1.0
 40
1.0
 40
1.0
 40
1.0
 10
993.9710470104105
 20
606.6785303413936
 30
0.0
 10
992.9691046445085
 20
606.4465373019341
 30
0.0
 10
991.9608551277423
 20
606.2731805876465
 30
0.0
 10
989.9309295450947
 20
606.0412179136309
 30
0.0
 10
988.9092500688007
 20
605.9826243766221
 30
0.0
 10
987.8805103357115
 20
605.9826243766221
 30
0.0
  0
SPLINE
  5
25E
330
1F
100
AcDbEntity
  8
0
  6
Continuous
 62
     7
370
    35
100
AcDbSpline
210
0.0
220
0.0
230
1.0
 70
     8
 71
     3
 72
    10
 73
     6
 74
     0
 42
0.000000001
 43
0.00000001
 40
0.0
 40
0.0
 40
0.0
 40
0.0
 40
0.5
 40
0.5
 40
1.0
 40
1.0
 40
1.0
 40
1.0
 10
875.1132473638236
 20
662.0393171641857
 30
0.0
 10
876.2264944315838
 20
662.1037583884787
 30
0.0
 10
877.3468303776398
 20
662.1519159657846
 30
0.0
 10
879.6023567100107
 20
662.2163503577938
 30
0.0
 10
880.7375501877542
 20
662.2326243766222
 30
0.0
 10
881.8805103357115
 20
662.2326243766222
 30
0.0
  0
SPLINE
  5
25F
330
1F
100
AcDbEntity
  8
0
  6
Continuous
 62
     7
370
    35
100
AcDbSpline
210
0.0
220
0.0
230
1.0
 70
     8
 71
     3
 72
    10
 73
     6
 74
     0
 42
0.000000001
 43
0.00000001
 40
0.0
 40
0.0
 40
0.0
 40
0.0
 40
0.5
 40
0.5
 40
1.0
 40
1.0
 40
1.0
 40
1.0
 10
875.7899736610124
 20
659.2867184118508
 30
0.0
 10
876.7919160269145
 20
659.5187114513103
 30
0.0
 10
877.8001655436808
 20
659.6920681655978
 30
0.0
 10
879.8300911263282
 20
659.9240308396135
 30
0.0
 10
880.8517706026223
 20
659.9826243766221
 30
0.0
 10
881.8805103357115
 20
659.9826243766221
 30
0.0
  0
SPLINE
  5
260
330
1F
100
AcDbEntity
  8
0
  6
Continuous
 62
     7
370
    35
100
AcDbSpline
210
0.0
220
0.0
230
1.0
 70
     8
 71
     3
 72
    10
 73
     6
 74
     0
 42
0.000000001
 43
0.00000001
 40
0.0
 40
0.0
 40
0.0
 40
0.0
 40
0.5
 40
0.5
 40
1.0
 40
1.0
 40
1.0
 40
1.0
 10
987.8805103357115
 20
662.2326243766222
 30
0.0
 10
989.0234704836688
 20
662.2326243766222
 30
0.0
 10
990.1586639614122
 20
662.2163503577938
 30
0.0
 10
992.4141902937831
 20
662.1519159657846
 30
0.0
 10
993.5345262398391
 20
662.1037583884787
 30
0.0
 10
994.6477733075993
 20
662.0393171641857
 30
0.0
  0
SPLINE
  5
261
330
1F
100
AcDbEntity
  8
0
  6
Continuous
 62
     7
370
    35
100
AcDbSpline
210
0.0
220
0.0
230
1.0
 70
     8
 71
     3
 72
    10
 73
     6
 74
     0
 42
0.000000001
 43
0.00000001
 40
0.0
 40
0.0
 40
0.0
 40
0.0
 40
0.5
 40
0.5
 40
1.0
 40
1.0
 40
1.0
 40
1.0
 10
987.8805103357115
 20
659.9826243766221
 30
0.0
 10
988.9092500687996
 20
659.9826243766221
 30
0.0
 10
989.9309295450988
 20
659.924030839613
 30
0.0
 10
991.9608551277441
 20
659.6920681655973
 30
0.0
 10
992.9691046445096
 20
659.51871145131
 30
0.0
 10
993.9710470104105
 20
659.2867184118508
 30
0.0
  0
LINE
  5
262
330
1F
100
AcDbEntity
  8
0
  6
Continuous
 62
     7
370
    35
100
AcDbLine
 10
881.8805103357
 20
603.7326243766
 30
0.0
 11
987.8805103357
 21
603.7326243766
 31
0.0
  0
LINE
  5
263
330
1F
100
AcDbEntity
  8
0
  6
Continuous
 62
     7
370
    35
100
AcDbLine
 10
987.8805103357
 20
605.9826243766
 30
0.0
 11
881.8805103357
 21
605.9826243766
 31
0.0
  0
LINE
  5
264
330
1F
100
AcDbEntity
  8
0
  6
Continuous
 62
     7
370
    35
100
AcDbLine
 10
987.8805103357
 20
662.2326243766
 30
0.0
 11
881.8805103357
 21
662.2326243766
 31
0.0
  0
LINE
  5
265
330
1F
100
AcDbEntity
  8
0
  6
Continuous
 62
     7
370
    35
100
AcDbLine
 10
881.8805103357
 20
659.9826243766
 30
0.0
 11
987.8805103357
 21
659.9826243766
 31
0.0
  0
SPLINE
  5
266
330
1F
100
AcDbEntity
  8
0
  6
Continuous
 62
     7
370
    35
100
AcDbSpline
210
0.0
220
0.0
230
1.0
 70
     8
 71
     3
 72
     8
 73
     4
 74
     0
 42
0.000000001
 43
0.00000001
 40
0.0
 40
0.0
 40
0.0
 40
0.0
 40
1.0
 40
1.0
 40
1.0
 40
1.0
 10
1017.879171109085
 20
633.0960099517489
 30
0.0
 10
1017.880956784445
 20
633.020419568331
 30
0.0
 10
1017.880956784445
 20
632.9448291849133
 30
0.0
 10
1017.879171109085
 20
632.8692388014955
 30
0.0
  0
SPLINE
  5
267
330
1F
100
AcDbEntity
  8
0
  6
Continuous
 62
     7
370
    35
100
AcDbSpline
210
0.0
220
0.0
230
1.0
 70
     8
 71
     3
 72
     8
 73
     4
 74
     0
 42
0.000000001
 43
0.00000001
 40
0.0
 40
0.0
 40
0.0
 40
0.0
 40
1.0
 40
1.0
 40
1.0
 40
1.0
 10
1014.879305031748
 20
633.2377419206574
 30
0.0
 10
1014.880912139571
 20
633.0676635579673
 30
0.0
 10
1014.880912139571
 20
632.8975851952771
 30
0.0
 10
1014.879305031748
 20
632.727506832587
 30
0.0
  0
SPLINE
  5
268
330
1F
100
AcDbEntity
  8
0
  6
Continuous
 62
     7
370
    35
100
AcDbSpline
210
0.0
220
0.0
230
1.0
 70
     8
 71
     3
 72
     8
 73
     4
 74
     0
 42
0.000000001
 43
0.00000001
 40
0.0
 40
0.0
 40
0.0
 40
0.0
 40
0.0001133855751267
 40
0.0001133855751267
 40
0.0001133855751267
 40
0.0001133855751267
 10
1017.880176996448
 20
632.9259315890588
 30
0.0
 10
1017.880621074476
 20
632.9636633888898
 30
0.0
 10
1017.880621074477
 20
633.001585364364
 30
0.0
 10
1017.880176996448
 20
633.039317164195
 30
0.0
  0
SPLINE
  5
269
330
1F
100
AcDbEntity
  8
0
  6
Continuous
 62
     7
370
    35
100
AcDbSpline
210
0.0
220
0.0
230
1.0
 70
     8
 71
     3
 72
     8
 73
     4
 74
     0
 42
0.000000001
 43
0.00000001
 40
0.0
 40
0.0
 40
0.0
 40
0.0
 40
1.0
 40
1.0
 40
1.0
 40
1.0
 10
854.881715639675
 20
632.727506832587
 30
0.0
 10
854.8801085318515
 20
632.8975851952771
 30
0.0
 10
854.8801085318515
 20
633.0676635579673
 30
0.0
 10
854.881715639675
 20
633.2377419206574
 30
0.0
  0
SPLINE
  5
26A
330
1F
100
AcDbEntity
  8
0
  6
Continuous
 62
     7
370
    35
100
AcDbSpline
210
0.0
220
0.0
230
1.0
 70
     8
 71
     3
 72
     8
 73
     4
 74
     0
 42
0.000000001
 43
0.00000001
 40
0.0
 40
0.0
 40
0.0
 40
0.0
 40
1.0
 40
1.0
 40
1.0
 40
1.0
 10
851.8818495623377
 20
632.8692388014955
 30
0.0
 10
851.8800638869782
 20
632.9448291849133
 30
0.0
 10
851.8800638869782
 20
633.020419568331
 30
0.0
 10
851.8818495623377
 20
633.0960099517489
 30
0.0
  0
SPLINE
  5
26B
330
1F
100
AcDbEntity
  8
0
  6
Continuous
 62
     7
370
    35
100
AcDbSpline
210
0.0
220
0.0
230
1.0
 70
     8
 71
     3
 72
     8
 73
     4
 74
     0
 42
0.000000001
 43
0.00000001
 40
0.0
 40
0.0
 40
0.0
 40
0.0
 40
0.0001133855751265
 40
0.0001133855751265
 40
0.0001133855751265
 40
0.0001133855751265
 10
851.8808436749744
 20
633.0393171641856
 30
0.0
 10
851.8803995969462
 20
633.0015853643578
 30
0.0
 10
851.8803995969464
 20
632.9636633888867
 30
0.0
 10
851.8808436749745
 20
632.925931589059
 30
0.0
  0
LINE
  5
26C
330
1F
100
AcDbEntity
  8
0
  6
Continuous
 62
     7
370
    35
100
AcDbLine
 10
977.8805103357
 20
637.9157988792
 30
0.0
 11
978.3001114202
 21
640.7821478845
 31
0.0
  0
SPLINE
  5
26D
330
1F
100
AcDbEntity
  8
0
  6
Continuous
 62
     7
370
    35
100
AcDbSpline
210
0.0
220
0.0
230
1.0
 70
     8
 71
     3
 72
    11
 73
     7
 74
     0
 42
0.000000001
 43
0.00000001
 40
0.0
 40
0.0
 40
0.0
 40
0.0
 40
0.260621671710935
 40
0.46320044808223
 40
0.6713667795608219
 40
0.9999999999999999
 40
0.9999999999999999
 40
0.9999999999999999
 40
0.9999999999999999
 10
978.3001114202136
 20
640.7821478845038
 30
0.0
 10
978.666992790875
 20
641.7838660643142
 30
0.0
 10
979.3190476033844
 20
643.5642103721925
 30
0.0
 10
980.8564124652072
 20
645.8192099942552
 30
0.0
 10
982.8711782497032
 20
648.0338441746076
 30
0.0
 10
984.7165063355409
 20
649.1543062725793
 30
0.0
 10
985.8462317785841
 20
649.8402626343553
 30
0.0
  0
SPLINE
  5
26E
330
1F
100
AcDbEntity
  8
0
  6
Continuous
 62
     7
370
    35
100
AcDbSpline
210
0.0
220
0.0
230
1.0
 70
     8
 71
     3
 72
    16
 73
    12
 74
     0
 42
0.000000001
 43
0.00000001
 40
0.0
 40
0.0
 40
0.0
 40
0.0
 40
0.6093642604521671
 40
0.7233750503883758
 40
0.8172213162021827
 40
0.8496365726798865
 40
0.8823612341657234
 40
0.9067814804504438
 40
0.9311421346358174
 40
0.9706402276081947
 40
0.9999999999999999
 40
0.9999999999999999
 40
0.9999999999999999
 40
0.9999999999999999
 10
985.8462317785841
 20
649.8402626343553
 30
0.0
 10
986.4230660481734
 20
650.1379177103051
 30
0.0
 10
987.1078248138421
 20
650.4912634339349
 30
0.0
 10
987.7750677850258
 20
651.0170017575925
 30
0.0
 10
987.945321183004
 20
651.2021547676469
 30
0.0
 10
988.0135946436807
 20
651.3508110678185
 30
0.0
 10
988.0252337846748
 20
651.4444117332004
 30
0.0
 10
988.0007083364612
 20
651.5283744182084
 30
0.0
 10
987.944445628818
 20
651.6065134053816
 30
0.0
 10
987.8613734661539
 20
651.6687106012168
 30
0.0
 10
987.7929525977084
 20
651.7006005304463
 30
0.0
 10
987.7637791530514
 20
651.7141978306066
 30
0.0
  0
SPLINE
  5
26F
330
1F
100
AcDbEntity
  8
0
  6
Continuous
 62
     7
370
    35
100
AcDbSpline
210
0.0
220
0.0
230
1.0
 70
     8
 71
     3
 72
    13
 73
     9
 74
     0
 42
0.000000001
 43
0.00000001
 40
0.0
 40
0.0
 40
0.0
 40
0.0
 40
0.1585077763893687
 40
0.3168380823633759
 40
0.4791716695217829
 40
0.6493085002788166
 40
0.8235953482372507
 40
1.0
 40
1.0
 40
1.0
 40
1.0
 10
1000.408122572871
 20
637.3037770370975
 30
0.0
 10
1000.115547419112
 20
638.3141024889042
 30
0.0
 10
999.5307246881656
 20
640.3336221995775
 30
0.0
 10
998.0346981364784
 20
643.1542249511389
 30
0.0
 10
996.108019466773
 20
645.7842757591234
 30
0.0
 10
993.708945068994
 20
648.1472083553718
 30
0.0
 10
990.91661879626
 20
650.203100700448
 30
0.0
 10
988.8189482673737
 20
651.2084749899544
 30
0.0
 10
987.7637791530514
 20
651.7141978306066
 30
0.0
  0
SPLINE
  5
270
330
1F
100
AcDbEntity
  8
0
  6
Continuous
 62
     7
370
    35
100
AcDbSpline
210
0.0
220
0.0
230
1.0
 70
     8
 71
     3
 72
     9
 73
     5
 74
     0
 42
0.000000001
 43
0.00000001
 40
0.0
 40
0.0
 40
0.0
 40
0.0
 40
0.4230848072461935
 40
1.0
 40
1.0
 40
1.0
 40
1.0
 10
1000.408122572871
 20
637.3037770370975
 30
0.0
 10
1000.634242979129
 20
636.0890614129424
 30
0.0
 10
1001.168699434159
 20
633.2179688959092
 30
0.0
 10
1000.686379988711
 20
630.3284684327901
 30
0.0
 10
1000.408122572871
 20
628.6614717161476
 30
0.0
  0
SPLINE
  5
271
330
1F
100
AcDbEntity
  8
0
  6
Continuous
 62
     7
370
    35
100
AcDbSpline
210
0.0
220
0.0
230
1.0
 70
     8
 71
     3
 72
    13
 73
     9
 74
     0
 42
0.000000001
 43
0.00000001
 40
0.0
 40
0.0
 40
0.0
 40
0.0
 40
0.1585077763893742
 40
0.3168380823633749
 40
0.4791716695217825
 40
0.649308500278817
 40
0.82359534823725
 40
1.0
 40
1.0
 40
1.0
 40
1.0
 10
1000.408122572871
 20
628.6614717161476
 30
0.0
 10
1000.115547419112
 20
627.6511462643409
 30
0.0
 10
999.5307246881656
 20
625.6316265536676
 30
0.0
 10
998.0346981364783
 20
622.8110238021061
 30
0.0
 10
996.108019466773
 20
620.1809729941217
 30
0.0
 10
993.708945068994
 20
617.8180403978732
 30
0.0
 10
990.9166187962599
 20
615.7621480527971
 30
0.0
 10
988.8189482673737
 20
614.7567737632908
 30
0.0
 10
987.7637791530514
 20
614.2510509226385
 30
0.0
  0
SPLINE
  5
272
330
1F
100
AcDbEntity
  8
0
  6
Continuous
 62
     7
370
    35
100
AcDbSpline
210
0.0
220
0.0
230
1.0
 70
     8
 71
     3
 72
    16
 73
    12
 74
     0
 42
0.000000001
 43
0.00000001
 40
0.0
 40
0.0
 40
0.0
 40
0.0
 40
0.6093642604521444
 40
0.7233750503883598
 40
0.8172213162021722
 40
0.8496365726798777
 40
0.8823612341657165
 40
0.9067814804504384
 40
0.9311421346358134
 40
0.970640227608193
 40
1.0
 40
1.0
 40
1.0
 40
1.0
 10
985.8462317785841
 20
616.1249861188894
 30
0.0
 10
986.4230660481732
 20
615.8273310429398
 30
0.0
 10
987.107824813842
 20
615.4739853193103
 30
0.0
 10
987.7750677850258
 20
614.9482469956525
 30
0.0
 10
987.945321183004
 20
614.7630939855983
 30
0.0
 10
988.0135946436807
 20
614.6144376854265
 30
0.0
 10
988.0252337846748
 20
614.5208370200448
 30
0.0
 10
988.0007083364612
 20
614.4368743350367
 30
0.0
 10
987.944445628818
 20
614.3587353478634
 30
0.0
 10
987.8613734661539
 20
614.2965381520282
 30
0.0
 10
987.7929525977084
 20
614.2646482227989
 30
0.0
 10
987.7637791530514
 20
614.2510509226385
 30
0.0
  0
SPLINE
  5
273
330
1F
100
AcDbEntity
  8
0
  6
Continuous
 62
     7
370
    35
100
AcDbSpline
210
0.0
220
0.0
230
1.0
 70
     8
 71
     3
 72
    11
 73
     7
 74
     0
 42
0.000000001
 43
0.00000001
 40
0.0
 40
0.0
 40
0.0
 40
0.0
 40
0.2606216717109252
 40
0.4632004480822214
 40
0.6713667795608041
 40
1.0
 40
1.0
 40
1.0
 40
1.0
 10
978.3001114202136
 20
625.1831008687409
 30
0.0
 10
978.666992790875
 20
624.1813826889306
 30
0.0
 10
979.3190476033845
 20
622.4010383810524
 30
0.0
 10
980.8564124652072
 20
620.1460387589897
 30
0.0
 10
982.8711782497033
 20
617.9314045786376
 30
0.0
 10
984.7165063355409
 20
616.8109424806656
 30
0.0
 10
985.8462317785841
 20
616.1249861188894
 30
0.0
  0
LINE
  5
274
330
1F
100
AcDbEntity
  8
0
  6
Continuous
 62
     7
370
    35
100
AcDbLine
 10
977.8805103357
 20
628.049449874
 30
0.0
 11
978.3001114202
 21
625.1831008687
 31
0.0
  0
LINE
  5
275
330
1F
100
AcDbEntity
  8
0
  6
Continuous
 62
     7
370
    35
100
AcDbLine
 10
977.8805103357
 20
637.9157988792
 30
0.0
 11
977.8805103357
 21
628.049449874
 31
0.0
  0
LINE
  5
276
330
1F
100
AcDbEntity
  8
0
  6
Continuous
 62
     7
370
    35
100
AcDbLine
 10
891.8805103357
 20
628.049449874
 30
0.0
 11
891.4609092512
 21
625.1831008687
 31
0.0
  0
SPLINE
  5
277
330
1F
100
AcDbEntity
  8
0
  6
Continuous
 62
     7
370
    35
100
AcDbSpline
210
0.0
220
0.0
230
1.0
 70
     8
 71
     3
 72
    11
 73
     7
 74
     0
 42
0.000000001
 43
0.00000001
 40
0.0
 40
0.0
 40
0.0
 40
0.0
 40
0.2606216717109247
 40
0.4632004480822201
 40
0.671366779560814
 40
1.0
 40
1.0
 40
1.0
 40
1.0
 10
891.46090925121
 20
625.1831008687404
 30
0.0
 10
891.0940278805484
 20
624.1813826889302
 30
0.0
 10
890.441973068039
 20
622.401038381052
 30
0.0
 10
888.9046082062163
 20
620.1460387589892
 30
0.0
 10
886.8898424217203
 20
617.9314045786371
 30
0.0
 10
885.0445143358827
 20
616.8109424806651
 30
0.0
 10
883.9147888928395
 20
616.124986118889
 30
0.0
  0
SPLINE
  5
278
330
1F
100
AcDbEntity
  8
0
  6
Continuous
 62
     7
370
    35
100
AcDbSpline
210
0.0
220
0.0
230
1.0
 70
     8
 71
     3
 72
    16
 73
    12
 74
     0
 42
0.000000001
 43
0.00000001
 40
0.0
 40
0.0
 40
0.0
 40
0.0
 40
0.6093642604521678
 40
0.7233750503883764
 40
0.8172213162021832
 40
0.8496365726798868
 40
0.8823612341657237
 40
0.906781480450444
 40
0.9311421346358176
 40
0.9706402276081948
 40
1.0
 40
1.0
 40
1.0
 40
1.0
 10
883.9147888928395
 20
616.124986118889
 30
0.0
 10
883.3379546232503
 20
615.8273310429391
 30
0.0
 10
882.6531958575816
 20
615.4739853193095
 30
0.0
 10
881.9859528863977
 20
614.9482469956519
 30
0.0
 10
881.8156994884197
 20
614.7630939855975
 30
0.0
 10
881.7474260277429
 20
614.6144376854256
 30
0.0
 10
881.7357868867489
 20
614.5208370200439
 30
0.0
 10
881.7603123349624
 20
614.436874335036
 30
0.0
 10
881.8165750426056
 20
614.3587353478626
 30
0.0
 10
881.8996472052696
 20
614.2965381520274
 30
0.0
 10
881.9680680737152
 20
614.2646482227981
 30
0.0
 10
881.9972415183722
 20
614.2510509226375
 30
0.0
  0
SPLINE
  5
279
330
1F
100
AcDbEntity
  8
0
  6
Continuous
 62
     7
370
    35
100
AcDbSpline
210
0.0
220
0.0
230
1.0
 70
     8
 71
     3
 72
    13
 73
     9
 74
     0
 42
0.000000001
 43
0.00000001
 40
0.0
 40
0.0
 40
0.0
 40
0.0
 40
0.1585077763893663
 40
0.3168380823633639
 40
0.4791716695217866
 40
0.6493085002788176
 40
0.8235953482372533
 40
1.0
 40
1.0
 40
1.0
 40
1.0
 10
869.3528980985517
 20
628.6614717161469
 30
0.0
 10
869.645473252311
 20
627.6511462643402
 30
0.0
 10
870.2302959832574
 20
625.6316265536669
 30
0.0
 10
871.7263225349446
 20
622.8110238021053
 30
0.0
 10
873.6530012046506
 20
620.1809729941212
 30
0.0
 10
876.0520756024296
 20
617.8180403978727
 30
0.0
 10
878.8444018751637
 20
615.7621480527963
 30
0.0
 10
880.94207240405
 20
614.7567737632899
 30
0.0
 10
881.9972415183722
 20
614.2510509226375
 30
0.0
  0
SPLINE
  5
27A
330
1F
100
AcDbEntity
  8
0
  6
Continuous
 62
     7
370
    35
100
AcDbSpline
210
0.0
220
0.0
230
1.0
 70
     8
 71
     3
 72
     9
 73
     5
 74
     0
 42
0.000000001
 43
0.00000001
 40
0.0
 40
0.0
 40
0.0
 40
0.0
 40
0.4230848072461849
 40
1.0
 40
1.0
 40
1.0
 40
1.0
 10
869.3528980985517
 20
637.3037770370968
 30
0.0
 10
869.126777692294
 20
636.0890614129418
 30
0.0
 10
868.5923212372642
 20
633.2179688959085
 30
0.0
 10
869.0746406827121
 20
630.3284684327895
 30
0.0
 10
869.3528980985517
 20
628.6614717161469
 30
0.0
  0
SPLINE
  5
27B
330
1F
100
AcDbEntity
  8
0
  6
Continuous
 62
     7
370
    35
100
AcDbSpline
210
0.0
220
0.0
230
1.0
 70
     8
 71
     3
 72
    13
 73
     9
 74
     0
 42
0.000000001
 43
0.00000001
 40
0.0
 40
0.0
 40
0.0
 40
0.0
 40
0.1585077763893709
 40
0.3168380823633753
 40
0.4791716695217977
 40
0.6493085002788287
 40
0.8235953482372538
 40
1.0
 40
1.0
 40
1.0
 40
1.0
 10
869.3528980985517
 20
637.3037770370968
 30
0.0
 10
869.645473252311
 20
638.3141024889035
 30
0.0
 10
870.2302959832575
 20
640.3336221995768
 30
0.0
 10
871.7263225349445
 20
643.1542249511385
 30
0.0
 10
873.6530012046506
 20
645.7842757591226
 30
0.0
 10
876.0520756024295
 20
648.1472083553713
 30
0.0
 10
878.8444018751637
 20
650.2031007004472
 30
0.0
 10
880.94207240405
 20
651.2084749899536
 30
0.0
 10
881.9972415183722
 20
651.7141978306059
 30
0.0
  0
SPLINE
  5
27C
330
1F
100
AcDbEntity
  8
0
  6
Continuous
 62
     7
370
    35
100
AcDbSpline
210
0.0
220
0.0
230
1.0
 70
     8
 71
     3
 72
    16
 73
    12
 74
     0
 42
0.000000001
 43
0.00000001
 40
0.0
 40
0.0
 40
0.0
 40
0.0
 40
0.6093642604521434
 40
0.7233750503883591
 40
0.8172213162021718
 40
0.8496365726798774
 40
0.8823612341657163
 40
0.9067814804504382
 40
0.9311421346358132
 40
0.9706402276081929
 40
1.0
 40
1.0
 40
1.0
 40
1.0
 10
883.9147888928396
 20
649.840262634355
 30
0.0
 10
883.3379546232503
 20
650.1379177103046
 30
0.0
 10
882.6531958575814
 20
650.4912634339341
 30
0.0
 10
881.9859528863977
 20
651.0170017575917
 30
0.0
 10
881.8156994884197
 20
651.2021547676461
 30
0.0
 10
881.7474260277429
 20
651.3508110678179
 30
0.0
 10
881.7357868867489
 20
651.4444117331996
 30
0.0
 10
881.7603123349624
 20
651.5283744182075
 30
0.0
 10
881.8165750426056
 20
651.6065134053808
 30
0.0
 10
881.8996472052698
 20
651.668710601216
 30
0.0
 10
881.9680680737152
 20
651.7006005304454
 30
0.0
 10
881.9972415183722
 20
651.7141978306059
 30
0.0
  0
SPLINE
  5
27D
330
1F
100
AcDbEntity
  8
0
  6
Continuous
 62
     7
370
    35
100
AcDbSpline
210
0.0
220
0.0
230
1.0
 70
     8
 71
     3
 72
    11
 73
     7
 74
     0
 42
0.000000001
 43
0.00000001
 40
0.0
 40
0.0
 40
0.0
 40
0.0
 40
0.2606216717109357
 40
0.4632004480822309
 40
0.6713667795608114
 40
0.9999999999999999
 40
0.9999999999999999
 40
0.9999999999999999
 40
0.9999999999999999
 10
891.46090925121
 20
640.7821478845034
 30
0.0
 10
891.0940278805484
 20
641.7838660643138
 30
0.0
 10
890.441973068039
 20
643.5642103721921
 30
0.0
 10
888.9046082062163
 20
645.8192099942547
 30
0.0
 10
886.8898424217201
 20
648.0338441746068
 30
0.0
 10
885.0445143358827
 20
649.1543062725788
 30
0.0
 10
883.9147888928396
 20
649.840262634355
 30
0.0
  0
LINE
  5
27E
330
1F
100
AcDbEntity
  8
0
  6
Continuous
 62
     7
370
    35
100
AcDbLine
 10
891.8805103357
 20
637.9157988792
 30
0.0
 11
891.4609092512
 21
640.7821478845
 31
0.0
  0
LINE
  5
27F
330
1F
100
AcDbEntity
  8
0
  6
Continuous
 62
     7
370
    35
100
AcDbLine
 10
891.8805103357
 20
637.9157988792
 30
0.0
 11
891.8805103357
 21
628.049449874
 31
0.0
  0
SPLINE
  5
280
330
1F
100
AcDbEntity
  8
0
  6
Continuous
 62
     7
370
    35
100
AcDbSpline
210
0.0
220
0.0
230
1.0
 70
     8
 71
     3
 72
    17
 73
    13
 74
     0
 42
0.000000001
 43
0.00000001
 40
0.0
 40
0.0
 40
0.0
 40
0.0
 40
0.0364925733413335
 40
0.1833587448077208
 40
0.28771561438285
 40
0.3934837304905567
 40
0.4992474923956488
 40
0.6063189697897134
 40
0.7133499989193063
 40
0.8177518468878914
 40
0.9088657685707868
 40
1.0
 40
1.0
 40
1.0
 40
1.0
 10
987.8805103357117
 20
654.7238968441578
 30
0.0
 10
988.2953159717116
 20
654.7160921812149
 30
0.0
 10
990.3795274644089
 20
654.6768772651419
 30
0.0
 10
993.6351057845023
 20
654.088693526368
 30
0.0
 10
997.4357536722936
 20
652.6237630756107
 30
0.0
 10
1000.533183470187
 20
650.772720201422
 30
0.0
 10
1003.321798172256
 20
648.4359837106751
 30
0.0
 10
1005.675417322399
 20
645.6407005267004
 30
0.0
 10
1007.529847728054
 20
642.5109042799138
 30
0.0
 10
1008.773271964117
 20
639.2894563109992
 30
0.0
 10
1009.485119745256
 20
636.0925801660001
 30
0.0
 10
1009.574345284803
 20
634.0193533199276
 30
0.0
 10
1009.618963026227
 20
632.9826243766224
 30
0.0
  0
SPLINE
  5
281
330
1F
100
AcDbEntity
  8
0
  6
Continuous
 62
     7
370
    35
100
AcDbSpline
210
0.0
220
0.0
230
1.0
 70
     8
 71
     3
 72
    17
 73
    13
 74
     0
 42
0.000000001
 43
0.00000001
 40
0.0
 40
0.0
 40
0.0
 40
0.0
 40
0.0364925733413335
 40
0.1833587448077205
 40
0.2877156143828384
 40
0.3934837304905534
 40
0.499247492395654
 40
0.6063189697897184
 40
0.7133499989193111
 40
0.8177518468878916
 40
0.9088657685707869
 40
1.0
 40
1.0
 40
1.0
 40
1.0
 10
881.8805103357114
 20
611.2413519090866
 30
0.0
 10
881.4657046997115
 20
611.2491565720295
 30
0.0
 10
879.3814932070145
 20
611.2883714881024
 30
0.0
 10
876.1259148869209
 20
611.8765552268761
 30
0.0
 10
872.3252669991298
 20
613.3414856776337
 30
0.0
 10
869.2278372012366
 20
615.1925285518224
 30
0.0
 10
866.4392224991675
 20
617.5292650425692
 30
0.0
 10
864.0856033490244
 20
620.324548226544
 30
0.0
 10
862.2311729433692
 20
623.4543444733307
 30
0.0
 10
860.9877487073062
 20
626.6757924422452
 30
0.0
 10
860.2759009261671
 20
629.8726685872442
 30
0.0
 10
860.18667538662
 20
631.9458954333167
 30
0.0
 10
860.1420576451964
 20
632.9826243766217
 30
0.0
  0
SPLINE
  5
282
330
1F
100
AcDbEntity
  8
0
  6
Continuous
 62
     7
370
    35
100
AcDbSpline
210
0.0
220
0.0
230
1.0
 70
     8
 71
     3
 72
    17
 73
    13
 74
     0
 42
0.000000001
 43
0.00000001
 40
0.0
 40
0.0
 40
0.0
 40
0.0
 40
0.0364925733413331
 40
0.1833587448077185
 40
0.2877156143828464
 40
0.3934837304905599
 40
0.4992474923956573
 40
0.6063189697897207
 40
0.7133499989193122
 40
0.817751846887893
 40
0.9088657685707877
 40
1.0
 40
1.0
 40
1.0
 40
1.0
 10
881.8805103357117
 20
654.7238968441569
 30
0.0
 10
881.465704699712
 20
654.7160921812141
 30
0.0
 10
879.3814932070147
 20
654.6768772651412
 30
0.0
 10
876.1259148869212
 20
654.0886935263673
 30
0.0
 10
872.3252669991299
 20
652.6237630756099
 30
0.0
 10
869.2278372012366
 20
650.7727202014212
 30
0.0
 10
866.4392224991675
 20
648.4359837106745
 30
0.0
 10
864.0856033490244
 20
645.6407005266996
 30
0.0
 10
862.2311729433692
 20
642.5109042799129
 30
0.0
 10
860.9877487073062
 20
639.2894563109985
 30
0.0
 10
860.2759009261671
 20
636.0925801659993
 30
0.0
 10
860.18667538662
 20
634.019353319927
 30
0.0
 10
860.1420576451964
 20
632.9826243766217
 30
0.0
  0
SPLINE
  5
283
330
1F
100
AcDbEntity
  8
0
  6
Continuous
 62
     7
370
    35
100
AcDbSpline
210
0.0
220
0.0
230
1.0
 70
     8
 71
     3
 72
    17
 73
    13
 74
     0
 42
0.000000001
 43
0.00000001
 40
0.0
 40
0.0
 40
0.0
 40
0.0
 40
0.0364925733413333
 40
0.1833587448077195
 40
0.287715614382859
 40
0.3934837304905664
 40
0.4992474923956589
 40
0.6063189697897228
 40
0.7133499989193148
 40
0.8177518468878922
 40
0.9088657685707872
 40
1.0
 40
1.0
 40
1.0
 40
1.0
 10
987.8805103357114
 20
611.2413519090873
 30
0.0
 10
988.2953159717113
 20
611.2491565720302
 30
0.0
 10
990.3795274644084
 20
611.288371488103
 30
0.0
 10
993.6351057845021
 20
611.8765552268771
 30
0.0
 10
997.4357536722936
 20
613.3414856776343
 30
0.0
 10
1000.533183470187
 20
615.1925285518233
 30
0.0
 10
1003.321798172256
 20
617.5292650425702
 30
0.0
 10
1005.675417322399
 20
620.3245482265448
 30
0.0
 10
1007.529847728054
 20
623.4543444733315
 30
0.0
 10
1008.773271964117
 20
626.6757924422459
 30
0.0
 10
1009.485119745256
 20
629.8726685872451
 30
0.0
 10
1009.574345284803
 20
631.9458954333174
 30
0.0
 10
1009.618963026227
 20
632.9826243766224
 30
0.0
  0
LINE
  5
284
330
1F
100
AcDbEntity
  8
0
  6
Continuous
 62
     7
370
    35
100
AcDbLine
 10
978.0366815259
 20
638.9826243766
 30
0.0
 11
891.7243391455
 21
638.9826243766
 31
0.0
  0
LINE
  5
285
330
1F
100
AcDbEntity
  8
0
  6
Continuous
 62
     7
370
    35
100
AcDbLine
 10
978.0366815259
 20
626.9826243766
 30
0.0
 11
891.7243391455
 21
626.9826243766
 31
0.0
  0
LINE
  5
286
330
1F
100
AcDbEntity
  8
0
  6
Continuous
 62
     7
370
    35
100
AcDbLine
 10
881.8805103357
 20
611.2413519091
 30
0.0
 11
987.8805103357
 21
611.2413519091
 31
0.0
  0
LINE
  5
287
330
1F
100
AcDbEntity
  8
0
  6
Continuous
 62
     7
370
    35
100
AcDbLine
 10
881.8805103357
 20
654.7238968442
 30
0.0
 11
987.8805103357
 21
654.7238968442
 31
0.0
  0
ARC
  5
288
330
1F
100
AcDbEntity
  8
0
  6
Continuous
 62
     7
370
    35
100
AcDbCircle
 10
987.8805103357
 20
632.9826243766
 30
0.0
 40
21.74999999999977
100
AcDbArc
 50
270.0
 51
90.0
  0
LINE
  5
289
330
1F
100
AcDbEntity
  8
0
  6
Continuous
 62
     7
370
    35
100
AcDbLine
 10
881.8805103357
 20
654.7326243766
 30
0.0
 11
987.8805103357
 21
654.7326243766
 31
0.0
  0
ARC
  5
28A
330
1F
100
AcDbEntity
  8
0
  6
Continuous
 62
     7
370
    35
100
AcDbCircle
 10
881.8805103357
 20
632.9826243766
 30
0.0
 40
21.74999999999977
100
AcDbArc
 50
90.0
 51
270.0
  0
LINE
  5
28B
330
1F
100
AcDbEntity
  8
0
  6
Continuous
 62
     7
370
    35
100
AcDbLine
 10
881.8805103357
 20
611.2326243766
 30
0.0
 11
987.8805103357
 21
611.2326243766
 31
0.0
  0
LINE
  5
28C
330
1F
100
AcDbEntity
  8
0
  6
Continuous
 62
     7
370
    35
100
AcDbLine
 10
1424.8805103357
 20
698.4826243766
 30
0.0
 11
1447.3805103357
 21
698.4826243766
 31
0.0
  0
ARC
  5
28D
330
1F
100
AcDbEntity
  8
0
  6
Continuous
 62
     7
370
    35
100
AcDbCircle
 10
1447.3805103357
 20
688.4826243766
 30
0.0
 40
10.00000000000045
100
AcDbArc
 50
0.0
 51
90.0
  0
LINE
  5
28E
330
1F
100
AcDbEntity
  8
0
  6
Continuous
 62
     7
370
    35
100
AcDbLine
 10
1457.3805103357
 20
688.4826243766
 30
0.0
 11
1457.3805103357
 21
577.4826243766
 31
0.0
  0
ARC
  5
28F
330
1F
100
AcDbEntity
  8
0
  6
Continuous
 62
     7
370
    35
100
AcDbCircle
 10
1447.3805103357
 20
577.4826243766
 30
0.0
 40
10.0
100
AcDbArc
 50
270.0
 51
0.0
  0
LINE
  5
290
330
1F
100
AcDbEntity
  8
0
  6
Continuous
 62
     7
370
    35
100
AcDbLine
 10
1447.3805103357
 20
567.4826243766
 30
0.0
 11
1424.8805103357
 21
567.4826243766
 31
0.0
  0
LINE
  5
291
330
1F
100
AcDbEntity
  8
0
  6
Continuous
 62
     7
370
    35
100
AcDbLine
 10
444.8805103357
 20
567.4826243766
 30
0.0
 11
422.3805103357
 21
567.4826243766
 31
0.0
  0
ARC
  5
292
330
1F
100
AcDbEntity
  8
0
  6
Continuous
 62
     7
370
    35
100
AcDbCircle
 10
422.3805103357
 20
577.4826243766
 30
0.0
 40
10.00000000000045
100
AcDbArc
 50
180.0
 51
270.0
  0
LINE
  5
293
330
1F
100
AcDbEntity
  8
0
  6
Continuous
 62
     7
370
    35
100
AcDbLine
 10
412.3805103357
 20
577.4826243766
 30
0.0
 11
412.3805103357
 21
688.4826243766
 31
0.0
  0
LINE
  5
294
330
1F
100
AcDbEntity
  8
0
  6
Continuous
 62
     7
370
    35
100
AcDbLine
 10
422.3805103357
 20
698.4826243766
 30
0.0
 11
444.8805103357
 21
698.4826243766
 31
0.0
  0
ARC
  5
295
330
1F
100
AcDbEntity
  8
0
  6
Continuous
 62
     7
370
    35
100
AcDbCircle
 10
422.3805103357
 20
688.4826243766
 30
0.0
 40
10.00000000000006
100
AcDbArc
 50
90.0
 51
180.0
  0
LINE
  5
296
330
1F
100
AcDbEntity
  8
0
  6
Continuous
 62
     7
370
    35
100
AcDbLine
 10
1424.8805103357
 20
667.9826243766
 30
0.0
 11
1426.8805103357
 21
667.9826243766
 31
0.0
  0
LINE
  5
297
330
1F
100
AcDbEntity
  8
0
  6
Continuous
 62
     7
370
    35
100
AcDbLine
 10
1426.8805103357
 20
667.9826243766
 30
0.0
 11
1426.8805103357
 21
597.9826243766
 31
0.0
  0
LINE
  5
298
330
1F
100
AcDbEntity
  8
0
  6
Continuous
 62
     7
370
    35
100
AcDbLine
 10
1426.8805103357
 20
597.9826243766
 30
0.0
 11
1424.8805103357
 21
597.9826243766
 31
0.0
  0
LINE
  5
299
330
1F
100
AcDbEntity
  8
0
  6
Continuous
 62
     7
370
    35
100
AcDbLine
 10
1424.8805103357
 20
597.9826243766
 30
0.0
 11
1424.8805103357
 21
598.0684108142
 31
0.0
  0
LINE
  5
29A
330
1F
100
AcDbEntity
  8
0
  6
Continuous
 62
     7
370
    35
100
AcDbLine
 10
1424.8805103357
 20
600.896837939
 30
0.0
 11
1424.8805103357
 21
665.0684108142
 31
0.0
  0
LINE
  5
29B
330
1F
100
AcDbEntity
  8
0
  6
Continuous
 62
     7
370
    35
100
AcDbLine
 10
1424.8805103357
 20
667.896837939
 30
0.0
 11
1424.8805103357
 21
667.9826243766
 31
0.0
  0
LINE
  5
29C
330
1F
100
AcDbEntity
  8
0
  6
Continuous
 62
     7
370
    35
100
AcDbLine
 10
444.8805103357
 20
597.9826243766
 30
0.0
 11
442.8805103357
 21
597.9826243766
 31
0.0
  0
LINE
  5
29D
330
1F
100
AcDbEntity
  8
0
  6
Continuous
 62
     7
370
    35
100
AcDbLine
 10
442.8805103357
 20
597.9826243766
 30
0.0
 11
442.8805103357
 21
667.9826243766
 31
0.0
  0
LINE
  5
29E
330
1F
100
AcDbEntity
  8
0
  6
Continuous
 62
     7
370
    35
100
AcDbLine
 10
444.8805103357
 20
667.9826243766
 30
0.0
 11
444.8805103357
 21
667.896837939
 31
0.0
  0
LINE
  5
29F
330
1F
100
AcDbEntity
  8
0
  6
Continuous
 62
     7
370
    35
100
AcDbLine
 10
444.8805103357
 20
665.0684108142
 30
0.0
 11
444.8805103357
 21
600.896837939
 31
0.0
  0
LINE
  5
2A0
330
1F
100
AcDbEntity
  8
0
  6
Continuous
 62
     7
370
    35
100
AcDbLine
 10
444.8805103357
 20
598.0684108142
 30
0.0
 11
444.8805103357
 21
597.9826243766
 31
0.0
  0
LINE
  5
2A1
330
1F
100
AcDbEntity
  8
0
  6
Continuous
 62
     7
370
    35
100
AcDbLine
 10
442.8805103357
 20
667.9826243766
 30
0.0
 11
444.8805103357
 21
667.9826243766
 31
0.0
  0
LINE
  5
2A2
330
1F
100
AcDbEntity
  8
0
  6
Continuous
 62
     8
370
    18
100
AcDbLine
 10
1424.8805103357
 20
668.9826243766
 30
0.0
 11
444.8805103357
 21
668.9826243766
 31
0.0
  0
LINE
  5
2A3
330
1F
100
AcDbEntity
  8
0
  6
Continuous
 62
     8
370
    18
100
AcDbLine
 10
444.8805103357
 20
596.9826243766
 30
0.0
 11
1424.8805103357
 21
596.9826243766
 31
0.0
  0
LINE
  5
2A4
330
1F
100
AcDbEntity
  8
0
  6
Continuous
 62
     8
370
    18
100
AcDbLine
 10
444.8805103357
 20
664.0393171642
 30
0.0
 11
1424.8805103357
 21
664.0393171642
 31
0.0
  0
LINE
  5
2A5
330
1F
100
AcDbEntity
  8
0
  6
Continuous
 62
     8
370
    18
100
AcDbLine
 10
444.8805103357
 20
601.9259315891
 30
0.0
 11
1424.8805103357
 21
601.9259315891
 31
0.0
  0
LINE
  5
2A6
330
1F
100
AcDbEntity
  8
0
  6
Continuous
 62
     8
370
    18
100
AcDbLine
 10
444.8805103357
 20
633.0393171642
 30
0.0
 11
851.880843675
 21
633.0393171642
 31
0.0
  0
LINE
  5
2A7
330
1F
100
AcDbEntity
  8
0
  6
Continuous
 62
     8
370
    18
100
AcDbLine
 10
1017.8801769964
 20
633.0393171642
 30
0.0
 11
1424.8805103357
 21
633.0393171642
 31
0.0
  0
LINE
  5
2A8
330
1F
100
AcDbEntity
  8
0
  6
Continuous
 62
     8
370
    18
100
AcDbLine
 10
1017.8791711091
 20
633.0962115384
 30
0.0
 11
1017.8791711091
 21
633.0960099517
 31
0.0
  0
ARC
  5
2A9
330
1F
100
AcDbEntity
  8
0
  6
Continuous
 62
     8
370
    18
100
AcDbCircle
 10
941.6307997354
 20
592.3511966226
 30
0.0
 40
54.26577168247179
100
AcDbArc
 50
12.3156445559
 51
15.3088218734
  0
ARC
  5
2AA
330
1F
100
AcDbEntity
  8
0
  6
Continuous
 62
     8
370
    18
100
AcDbCircle
 10
1017.0061624067
 20
619.5290372961
 30
0.0
 40
13.36873667926058
100
AcDbArc
 50
86.2557918319
 51
99.1541892989
  0
LINE
  5
2AB
330
1F
100
AcDbEntity
  8
0
  6
Continuous
 62
     8
370
    18
100
AcDbLine
 10
1017.8791711091
 20
632.8690372148
 30
0.0
 11
1017.8791711091
 21
632.8692388015
 31
0.0
  0
ARC
  5
2AC
330
1F
100
AcDbEntity
  8
0
  6
Continuous
 62
     8
370
    18
100
AcDbCircle
 10
852.7548582647
 20
619.5290372961
 30
0.0
 40
13.36873667926058
100
AcDbArc
 50
80.8458107011
 51
93.7442081681
  0
ARC
  5
2AD
330
1F
100
AcDbEntity
  8
0
  6
Continuous
 62
     8
370
    18
100
AcDbCircle
 10
928.1302209361
 20
592.3511966226
 30
0.0
 40
54.26577168260108
100
AcDbArc
 50
164.6911781266
 51
167.6843554441
  0
LINE
  5
2AE
330
1F
100
AcDbEntity
  8
0
  6
Continuous
 62
     8
370
    18
100
AcDbLine
 10
851.8818495623
 20
632.8690372148
 30
0.0
 11
851.8818495623
 21
632.8692388015
 31
0.0
  0
ARC
  5
2AF
330
1F
100
AcDbEntity
  8
0
  6
Continuous
 62
     8
370
    18
100
AcDbCircle
 10
1017.0061624067
 20
646.4362114571
 30
0.0
 40
13.36873667923853
100
AcDbArc
 50
260.8458107011
 51
273.7442081681
  0
ARC
  5
2B0
330
1F
100
AcDbEntity
  8
0
  6
Continuous
 62
     8
370
    18
100
AcDbCircle
 10
941.6307997357
 20
673.6140521306
 30
0.0
 40
54.26577168224485
100
AcDbArc
 50
344.6911781266
 51
347.6843554441
  0
LINE
  5
2B1
330
1F
100
AcDbEntity
  8
0
  6
Continuous
 62
     8
370
    18
100
AcDbLine
 10
851.8818495623
 20
633.0962115384
 30
0.0
 11
851.8818495623
 21
633.0960099517
 31
0.0
  0
ARC
  5
2B2
330
1F
100
AcDbEntity
  8
0
  6
Continuous
 62
     8
370
    18
100
AcDbCircle
 10
928.1302209361
 20
673.6140521307
 30
0.0
 40
54.26577168264779
100
AcDbArc
 50
192.3156445559
 51
195.3088218734
  0
ARC
  5
2B3
330
1F
100
AcDbEntity
  8
0
  6
Continuous
 62
     8
370
    18
100
AcDbCircle
 10
852.7548582647
 20
646.4362114571
 30
0.0
 40
13.36873667923853
100
AcDbArc
 50
266.2557918319
 51
279.1541892989
  0
LINE
  5
2B4
330
1F
100
AcDbEntity
  8
0
  6
Continuous
 62
     8
370
    18
100
AcDbLine
 10
444.8805103357
 20
632.9259315891
 30
0.0
 11
851.880843675
 21
632.9259315891
 31
0.0
  0
LINE
  5
2B5
330
1F
100
AcDbEntity
  8
0
  6
Continuous
 62
     8
370
    18
100
AcDbLine
 10
1017.8801769964
 20
632.9259315891
 30
0.0
 11
1424.8805103357
 21
632.9259315891
 31
0.0
  0
LINE
  5
2B6
330
1F
100
AcDbEntity
  8
0
  6
Continuous
 62
     8
370
    18
100
AcDbLine
 10
881.8805103357
 20
605.9826243766
 30
0.0
 11
881.8805103357
 21
603.7326243766
 31
0.0
  0
LINE
  5
2B7
330
1F
100
AcDbEntity
  8
0
  6
Continuous
 62
     8
370
    18
100
AcDbLine
 10
987.8805103357
 20
605.9826243766
 30
0.0
 11
987.8805103357
 21
603.7326243766
 31
0.0
  0
LINE
  5
2B8
330
1F
100
AcDbEntity
  8
0
  6
Continuous
 62
     8
370
    18
100
AcDbLine
 10
881.8805103357
 20
662.2326243766
 30
0.0
 11
881.8805103357
 21
659.9826243766
 31
0.0
  0
LINE
  5
2B9
330
1F
100
AcDbEntity
  8
0
  6
Continuous
 62
     8
370
    18
100
AcDbLine
 10
881.8805103357
 20
662.2384085752
 30
0.0
 11
881.8805103357
 21
662.2326243766
 31
0.0
  0
LINE
  5
2BA
330
1F
100
AcDbEntity
  8
0
  6
Continuous
 62
     8
370
    18
100
AcDbLine
 10
987.8805103357
 20
662.2326243766
 30
0.0
 11
987.8805103357
 21
659.9826243766
 31
0.0
  0
LINE
  5
2BB
330
1F
100
AcDbEntity
  8
0
  6
Continuous
 62
     8
370
    18
100
AcDbLine
 10
987.8805103357
 20
662.2384085752
 30
0.0
 11
987.8805103357
 21
662.2326243766
 31
0.0
  0
LINE
  5
2BC
330
1F
100
AcDbEntity
  8
0
  6
Continuous
 62
     8
370
    18
100
AcDbLine
 10
881.8805103357
 20
603.726840178
 30
0.0
 11
881.8805103357
 21
603.7326243766
 31
0.0
  0
LINE
  5
2BD
330
1F
100
AcDbEntity
  8
0
  6
Continuous
 62
     8
370
    18
100
AcDbLine
 10
987.8805103357
 20
603.726840178
 30
0.0
 11
987.8805103357
 21
603.7326243766
 31
0.0
  0
SPLINE
  5
2BE
330
1F
100
AcDbEntity
  8
0
  6
Continuous
 62
     8
370
    18
100
AcDbSpline
210
0.0
220
0.0
230
1.0
 70
     8
 71
     3
 72
     9
 73
     5
 74
     0
 42
0.000000001
 43
0.00000001
 40
0.0
 40
0.0
 40
0.0
 40
0.0
 40
0.1546895589938867
 40
0.9999999999999999
 40
0.9999999999999999
 40
0.9999999999999999
 40
0.9999999999999999
 10
987.7637791530514
 20
614.2510509226385
 30
0.0
 10
987.5207266964734
 20
614.3237254576406
 30
0.0
 10
985.9494994064171
 20
614.7935343799423
 30
0.0
 10
984.525381497591
 20
615.6098124089917
 30
0.0
 10
983.3215597600364
 20
616.2998207497112
 30
0.0
  0
ARC
  5
2BF
330
1F
100
AcDbEntity
  8
0
  6
Continuous
 62
     8
370
    18
100
AcDbCircle
 10
981.8651430832
 20
617.7461507349
 30
0.0
 40
2.052564240816503
100
AcDbArc
 50
315.1990950652
 51
348.3527908007
  0
SPLINE
  5
2C0
330
1F
100
AcDbEntity
  8
0
  6
Continuous
 62
     8
370
    18
100
AcDbSpline
210
0.0
220
0.0
230
1.0
 70
     8
 71
     3
 72
     9
 73
     5
 74
     0
 42
0.000000001
 43
0.00000001
 40
0.0
 40
0.0
 40
0.0
 40
0.0
 40
0.1546895589938866
 40
1.0
 40
1.0
 40
1.0
 40
1.0
 10
881.9972415183722
 20
651.7141978306059
 30
0.0
 10
882.2402939749502
 20
651.6415232956036
 30
0.0
 10
883.8115212650065
 20
651.171714373302
 30
0.0
 10
885.2356391738325
 20
650.3554363442526
 30
0.0
 10
886.4394609113871
 20
649.6654280035332
 30
0.0
  0
ARC
  5
2C1
330
1F
100
AcDbEntity
  8
0
  6
Continuous
 62
     8
370
    18
100
AcDbCircle
 10
887.8958775882
 20
648.2190980183
 30
0.0
 40
2.052564240816424
100
AcDbArc
 50
135.1990950652
 51
168.3527908007
  0
ARC
  5
2C2
330
1F
100
AcDbEntity
  8
0
  6
Continuous
 62
     8
370
    18
100
AcDbCircle
 10
981.8651430832
 20
648.2190980183
 30
0.0
 40
2.052564240815307
100
AcDbArc
 50
11.6472091993
 51
44.8009049348
  0
SPLINE
  5
2C3
330
1F
100
AcDbEntity
  8
0
  6
Continuous
 62
     8
370
    18
100
AcDbSpline
210
0.0
220
0.0
230
1.0
 70
     8
 71
     3
 72
     9
 73
     5
 74
     0
 42
0.000000001
 43
0.00000001
 40
0.0
 40
0.0
 40
0.0
 40
0.0
 40
0.154689558993881
 40
1.0
 40
1.0
 40
1.0
 40
1.0
 10
987.7637791530514
 20
651.7141978306066
 30
0.0
 10
987.5207266964734
 20
651.6415232956045
 30
0.0
 10
985.9494994064171
 20
651.1717143733028
 30
0.0
 10
984.525381497591
 20
650.3554363442532
 30
0.0
 10
983.3215597600364
 20
649.6654280035335
 30
0.0
  0
ARC
  5
2C4
330
1F
100
AcDbEntity
  8
0
  6
Continuous
 62
     8
370
    18
100
AcDbCircle
 10
887.8958775882
 20
617.7461507349
 30
0.0
 40
2.052564240812884
100
AcDbArc
 50
191.6472091992
 51
224.8009049348
  0
SPLINE
  5
2C5
330
1F
100
AcDbEntity
  8
0
  6
Continuous
 62
     8
370
    18
100
AcDbSpline
210
0.0
220
0.0
230
1.0
 70
     8
 71
     3
 72
     9
 73
     5
 74
     0
 42
0.000000001
 43
0.00000001
 40
0.0
 40
0.0
 40
0.0
 40
0.0
 40
0.1546895589938811
 40
1.0
 40
1.0
 40
1.0
 40
1.0
 10
881.9972415183722
 20
614.2510509226375
 30
0.0
 10
882.2402939749502
 20
614.3237254576399
 30
0.0
 10
883.8115212650065
 20
614.7935343799415
 30
0.0
 10
885.2356391738326
 20
615.6098124089912
 30
0.0
 10
886.4394609113871
 20
616.2998207497108
 30
0.0
  0
ARC
  5
2C6
330
1F
100
AcDbEntity
  8
0
  6
Continuous
 62
     8
370
    18
100
AcDbCircle
 10
980.8805103357
 20
632.9826243766
 30
0.0
 40
19.9999999999997
100
AcDbArc
 50
270.0
 51
347.5224163016
  0
LINE
  5
2C7
330
1F
100
AcDbEntity
  8
0
  6
Continuous
 62
     8
370
    18
100
AcDbLine
 10
980.8805103357
 20
620.2699735897
 30
0.0
 11
980.8805103357
 21
612.9826243766
 31
0.0
  0
LINE
  5
2C8
330
1F
100
AcDbEntity
  8
0
  6
Continuous
 62
     8
370
    18
100
AcDbLine
 10
980.8805103357
 20
645.6952751635
 30
0.0
 11
980.8805103357
 21
652.9826243766
 31
0.0
  0
ARC
  5
2C9
330
1F
100
AcDbEntity
  8
0
  6
Continuous
 62
     8
370
    18
100
AcDbCircle
 10
980.8805103357
 20
632.9826243766
 30
0.0
 40
19.9999999999998
100
AcDbArc
 50
12.4775836984
 51
90.0
  0
SPLINE
  5
2CA
330
1F
100
AcDbEntity
  8
0
  6
Continuous
 62
     8
370
    18
100
AcDbSpline
210
0.0
220
0.0
230
1.0
 70
     8
 71
     3
 72
    14
 73
    10
 74
     0
 42
0.000000001
 43
0.00000001
 40
0.0
 40
0.0
 40
0.0
 40
0.0
 40
0.111428923041337
 40
0.4958785649679706
 40
0.7046555305618261
 40
0.8301760374257597
 40
0.9121018798659192
 40
0.9942797082137381
 40
1.0
 40
1.0
 40
1.0
 40
1.0
 10
983.3215597600364
 20
649.6654280035335
 30
0.0
 10
983.2021687144006
 20
649.5830956382844
 30
0.0
 10
982.6708572849798
 20
649.216701940707
 30
0.0
 10
981.996565761625
 20
648.5839307899886
 30
0.0
 10
981.5387019738632
 20
647.7929462752883
 30
0.0
 10
981.4542442235297
 20
647.2827515414255
 30
0.0
 10
981.5367085163819
 20
646.9384229357612
 30
0.0
 10
981.6564154600043
 20
646.7607232150285
 30
0.0
 10
981.7371267332103
 20
646.6853406456056
 30
0.0
 10
981.7423793146363
 20
646.6804348490763
 30
0.0
  0
SPLINE
  5
2CB
330
1F
100
AcDbEntity
  8
0
  6
Continuous
 62
     8
370
    18
100
AcDbSpline
210
0.0
220
0.0
230
1.0
 70
     8
 71
     3
 72
    14
 73
    10
 74
     0
 42
0.000000001
 43
0.00000001
 40
0.0
 40
0.0
 40
0.0
 40
0.0
 40
0.111428923041333
 40
0.4958785649680149
 40
0.7046555305618256
 40
0.8301760374257495
 40
0.912101879865906
 40
0.9942797082137614
 40
1.0
 40
1.0
 40
1.0
 40
1.0
 10
983.3215597600364
 20
616.2998207497112
 30
0.0
 10
983.2021687144006
 20
616.3821531149604
 30
0.0
 10
982.6708572849798
 20
616.7485468125377
 30
0.0
 10
981.9965657616252
 20
617.3813179632565
 30
0.0
 10
981.5387019738632
 20
618.1723024779567
 30
0.0
 10
981.4542442235297
 20
618.6824972118195
 30
0.0
 10
981.5367085163819
 20
619.0268258174837
 30
0.0
 10
981.6564154600043
 20
619.2045255382164
 30
0.0
 10
981.7371267332103
 20
619.2799081076395
 30
0.0
 10
981.7423793146361
 20
619.2848139041689
 30
0.0
  0
SPLINE
  5
2CC
330
1F
100
AcDbEntity
  8
0
  6
Continuous
 62
     8
370
    18
100
AcDbSpline
210
0.0
220
0.0
230
1.0
 70
     8
 71
     3
 72
    14
 73
    10
 74
     0
 42
0.000000001
 43
0.00000001
 40
0.0
 40
0.0
 40
0.0
 40
0.0
 40
0.1114289230413342
 40
0.4958785649679854
 40
0.7046555305618417
 40
0.830176037425767
 40
0.912101879865924
 40
0.9942797082137605
 40
1.0
 40
1.0
 40
1.0
 40
1.0
 10
886.4394609113871
 20
616.2998207497108
 30
0.0
 10
886.558851957023
 20
616.3821531149599
 30
0.0
 10
887.0901633864438
 20
616.7485468125373
 30
0.0
 10
887.7644549097985
 20
617.3813179632559
 30
0.0
 10
888.2223186975604
 20
618.1723024779562
 30
0.0
 10
888.306776447894
 20
618.682497211819
 30
0.0
 10
888.2243121550417
 20
619.0268258174832
 30
0.0
 10
888.1046052114193
 20
619.204525538216
 30
0.0
 10
888.0238939382132
 20
619.2799081076389
 30
0.0
 10
888.0186413567874
 20
619.2848139041683
 30
0.0
  0
SPLINE
  5
2CD
330
1F
100
AcDbEntity
  8
0
  6
Continuous
 62
     8
370
    18
100
AcDbSpline
210
0.0
220
0.0
230
1.0
 70
     8
 71
     3
 72
    14
 73
    10
 74
     0
 42
0.000000001
 43
0.00000001
 40
0.0
 40
0.0
 40
0.0
 40
0.0
 40
0.1114289230413358
 40
0.4958785649679985
 40
0.7046555305618084
 40
0.8301760374257408
 40
0.9121018798658995
 40
0.9942797082137375
 40
1.0
 40
1.0
 40
1.0
 40
1.0
 10
886.4394609113871
 20
649.6654280035332
 30
0.0
 10
886.558851957023
 20
649.5830956382839
 30
0.0
 10
887.0901633864438
 20
649.2167019407067
 30
0.0
 10
887.7644549097985
 20
648.5839307899879
 30
0.0
 10
888.2223186975605
 20
647.7929462752877
 30
0.0
 10
888.306776447894
 20
647.2827515414251
 30
0.0
 10
888.2243121550417
 20
646.9384229357609
 30
0.0
 10
888.1046052114193
 20
646.760723215028
 30
0.0
 10
888.0238939382132
 20
646.685340645605
 30
0.0
 10
888.0186413567874
 20
646.6804348490757
 30
0.0
  0
ARC
  5
2CE
330
1F
100
AcDbEntity
  8
0
  6
Continuous
 62
     8
370
    18
100
AcDbCircle
 10
888.8805103357
 20
632.9826243766
 30
0.0
 40
20.00000000000039
100
AcDbArc
 50
90.0
 51
167.5224163016
  0
LINE
  5
2CF
330
1F
100
AcDbEntity
  8
0
  6
Continuous
 62
     8
370
    18
100
AcDbLine
 10
888.8805103357
 20
645.6952751635
 30
0.0
 11
888.8805103357
 21
652.9826243766
 31
0.0
  0
LINE
  5
2D0
330
1F
100
AcDbEntity
  8
0
  6
Continuous
 62
     8
370
    18
100
AcDbLine
 10
888.8805103357
 20
620.2699735897
 30
0.0
 11
888.8805103357
 21
612.9826243766
 31
0.0
  0
ARC
  5
2D1
330
1F
100
AcDbEntity
  8
0
  6
Continuous
 62
     8
370
    18
100
AcDbCircle
 10
888.8805103357
 20
632.9826243766
 30
0.0
 40
20.00000000000044
100
AcDbArc
 50
192.4775836984
 51
270.0
  0
SPLINE
  5
2D2
330
1F
100
AcDbEntity
  8
0
  6
Continuous
 62
     8
370
    18
100
AcDbSpline
210
0.0
220
0.0
230
1.0
 70
     8
 71
     3
 72
    18
 73
    14
 74
     0
 42
0.000000001
 43
0.00000001
 40
0.0
 40
0.0
 40
0.0
 40
0.0
 40
0.0000017576874324
 40
0.0364929107765222
 40
0.1834197338049796
 40
0.2877695105078303
 40
0.3921441025453806
 40
0.4993591877198453
 40
0.6063886859551781
 40
0.713428438380986
 40
0.8178270444226949
 40
0.9079734932070048
 40
1.0
 40
1.0
 40
1.0
 40
1.0
 10
987.8805103357117
 20
654.7283367686117
 30
0.0
 10
987.8805303222059
 20
654.7283367684036
 30
0.0
 10
988.2954876875327
 20
654.7283324468864
 30
0.0
 10
990.3806965112087
 20
654.6659480444295
 30
0.0
 10
993.6376454588029
 20
654.0967827360731
 30
0.0
 10
997.4249658108228
 20
652.6318424052015
 30
0.0
 10
1000.5242028514
 20
650.7835468821904
 30
0.0
 10
1003.317200755607
 20
648.4492548214928
 30
0.0
 10
1005.680769806729
 20
645.6403620392543
 30
0.0
 10
1007.536006702615
 20
642.510209834627
 30
0.0
 10
1008.771937614596
 20
639.2974196144622
 30
0.0
 10
1009.496321017715
 20
636.1034965736877
 30
0.0
 10
1009.580751871512
 20
634.0300478980276
 30
0.0
 10
1009.623402969289
 20
632.9826243766224
 30
0.0
  0
LINE
  5
2D3
330
1F
100
AcDbEntity
  8
0
  6
Continuous
 62
     8
370
    18
100
AcDbLine
 10
987.8805103357
 20
654.7283367686
 30
0.0
 11
987.8805107328
 21
654.7326243766
 31
0.0
  0
LINE
  5
2D4
330
1F
100
AcDbEntity
  8
0
  6
Continuous
 62
     8
370
    18
100
AcDbLine
 10
1009.6234029693
 20
632.9826243766
 30
0.0
 11
1009.6189630262
 21
632.9826243766
 31
0.0
  0
LINE
  5
2D5
330
1F
100
AcDbEntity
  8
0
  6
Continuous
 62
     8
370
    18
100
AcDbLine
 10
987.8805103357
 20
654.7238968442
 30
0.0
 11
987.8805103357
 21
654.7283367686
 31
0.0
  0
SPLINE
  5
2D6
330
1F
100
AcDbEntity
  8
0
  6
Continuous
 62
     8
370
    18
100
AcDbSpline
210
0.0
220
0.0
230
1.0
 70
     8
 71
     3
 72
    18
 73
    14
 74
     0
 42
0.000000001
 43
0.00000001
 40
0.0
 40
0.0
 40
0.0
 40
0.0
 40
0.0000017576874324
 40
0.0364929107765221
 40
0.1834197338049789
 40
0.2877695105078348
 40
0.3921441025453849
 40
0.4993591877198519
 40
0.6063886859551842
 40
0.7134284383809918
 40
0.8178270444226959
 40
0.9079734932070058
 40
1.0
 40
1.0
 40
1.0
 40
1.0
 10
881.8805103357114
 20
611.2369119846326
 30
0.0
 10
881.8804903492172
 20
611.2369119848407
 30
0.0
 10
881.4655329838903
 20
611.236916306382
 30
0.0
 10
879.3803241602149
 20
611.2993007087676
 30
0.0
 10
876.1233752126201
 20
611.868466017184
 30
0.0
 10
872.3360548606003
 20
613.3334063480398
 30
0.0
 10
869.2368178200231
 20
615.1817018710548
 30
0.0
 10
866.4438199158158
 20
617.5159939317516
 30
0.0
 10
864.0802508646944
 20
620.3248867139902
 30
0.0
 10
862.2250139688082
 20
623.4550389186176
 30
0.0
 10
860.9890830568268
 20
626.6678291387822
 30
0.0
 10
860.2646996537085
 20
629.8617521795566
 30
0.0
 10
860.1802687999107
 20
631.9352008552166
 30
0.0
 10
860.1376177021341
 20
632.9826243766217
 30
0.0
  0
LINE
  5
2D7
330
1F
100
AcDbEntity
  8
0
  6
Continuous
 62
     8
370
    18
100
AcDbLine
 10
881.8805103357
 20
611.2369119846
 30
0.0
 11
881.8805099386
 21
611.2326243766
 31
0.0
  0
LINE
  5
2D8
330
1F
100
AcDbEntity
  8
0
  6
Continuous
 62
     8
370
    18
100
AcDbLine
 10
860.1376177021
 20
632.9826243766
 30
0.0
 11
860.1420576452
 21
632.9826243766
 31
0.0
  0
LINE
  5
2D9
330
1F
100
AcDbEntity
  8
0
  6
Continuous
 62
     8
370
    18
100
AcDbLine
 10
881.8805103357
 20
611.2413519091
 30
0.0
 11
881.8805103357
 21
611.2369119846
 31
0.0
  0
SPLINE
  5
2DA
330
1F
100
AcDbEntity
  8
0
  6
Continuous
 62
     8
370
    18
100
AcDbSpline
210
0.0
220
0.0
230
1.0
 70
     8
 71
     3
 72
    18
 73
    14
 74
     0
 42
0.000000001
 43
0.00000001
 40
0.0
 40
0.0
 40
0.0
 40
0.0
 40
0.0000017576874324
 40
0.0364929107765215
 40
0.1834197338049763
 40
0.2877695105078378
 40
0.3921441025453865
 40
0.4993591877198567
 40
0.6063886859551875
 40
0.7134284383809935
 40
0.8178270444226976
 40
0.9079734932070072
 40
1.0
 40
1.0
 40
1.0
 40
1.0
 10
881.8805103357117
 20
654.7283367686109
 30
0.0
 10
881.8804903492177
 20
654.7283367684029
 30
0.0
 10
881.4655329839383
 20
654.7283324468623
 30
0.0
 10
879.3803241601215
 20
654.6659480444742
 30
0.0
 10
876.123375212646
 20
654.0967827360597
 30
0.0
 10
872.3360548605945
 20
652.6318424052041
 30
0.0
 10
869.2368178200246
 20
650.7835468821892
 30
0.0
 10
866.4438199158154
 20
648.4492548214921
 30
0.0
 10
864.0802508646946
 20
645.6403620392535
 30
0.0
 10
862.225013968808
 20
642.510209834626
 30
0.0
 10
860.9890830568268
 20
639.2974196144614
 30
0.0
 10
860.2646996537086
 20
636.1034965736869
 30
0.0
 10
860.1802687999107
 20
634.030047898027
 30
0.0
 10
860.1376177021341
 20
632.9826243766217
 30
0.0
  0
LINE
  5
2DB
330
1F
100
AcDbEntity
  8
0
  6
Continuous
 62
     8
370
    18
100
AcDbLine
 10
881.8805103357
 20
654.7283367686
 30
0.0
 11
881.8805099386
 21
654.7326243766
 31
0.0
  0
LINE
  5
2DC
330
1F
100
AcDbEntity
  8
0
  6
Continuous
 62
     8
370
    18
100
AcDbLine
 10
881.8805103357
 20
654.7238968442
 30
0.0
 11
881.8805103357
 21
654.7283367686
 31
0.0
  0
SPLINE
  5
2DD
330
1F
100
AcDbEntity
  8
0
  6
Continuous
 62
     8
370
    18
100
AcDbSpline
210
0.0
220
0.0
230
1.0
 70
     8
 71
     3
 72
    18
 73
    14
 74
     0
 42
0.000000001
 43
0.00000001
 40
0.0
 40
0.0
 40
0.0
 40
0.0
 40
0.0000017576874324
 40
0.0364929107765218
 40
0.1834197338049776
 40
0.287769510507834
 40
0.3921441025453832
 40
0.4993591877198574
 40
0.6063886859551891
 40
0.7134284383809959
 40
0.8178270444226965
 40
0.9079734932070073
 40
1.0
 40
1.0
 40
1.0
 40
1.0
 10
987.8805103357114
 20
611.2369119846334
 30
0.0
 10
987.8805303222055
 20
611.2369119848415
 30
0.0
 10
988.2954876874367
 20
611.236916306406
 30
0.0
 10
990.3806965113965
 20
611.2993007087229
 30
0.0
 10
993.6376454587513
 20
611.8684660171975
 30
0.0
 10
997.4249658108345
 20
613.3334063480373
 30
0.0
 10
1000.524202851397
 20
615.181701871056
 30
0.0
 10
1003.317200755608
 20
617.5159939317522
 30
0.0
 10
1005.680769806728
 20
620.324886713991
 30
0.0
 10
1007.536006702615
 20
623.4550389186184
 30
0.0
 10
1008.771937614596
 20
626.6678291387828
 30
0.0
 10
1009.496321017714
 20
629.8617521795572
 30
0.0
 10
1009.580751871512
 20
631.9352008552174
 30
0.0
 10
1009.623402969289
 20
632.9826243766224
 30
0.0
  0
LINE
  5
2DE
330
1F
100
AcDbEntity
  8
0
  6
Continuous
 62
     8
370
    18
100
AcDbLine
 10
987.8805103357
 20
611.2369119846
 30
0.0
 11
987.8805107328
 21
611.2326243766
 31
0.0
  0
LINE
  5
2DF
330
1F
100
AcDbEntity
  8
0
  6
Continuous
 62
     8
370
    18
100
AcDbLine
 10
987.8805103357
 20
611.2413519091
 30
0.0
 11
987.8805103357
 21
611.2369119846
 31
0.0
  0
LINE
  5
2E0
330
1F
100
AcDbEntity
  8
0
  6
Continuous
 62
     8
370
    18
100
AcDbLine
 10
888.8805103357
 20
652.9826243766
 30
0.0
 11
980.8805103357
 21
652.9826243766
 31
0.0
  0
LINE
  5
2E1
330
1F
100
AcDbEntity
  8
0
  6
Continuous
 62
     8
370
    18
100
AcDbLine
 10
888.8805103357
 20
612.9826243766
 30
0.0
 11
980.8805103357
 21
612.9826243766
 31
0.0
  0
LINE
  5
2E2
330
1F
100
AcDbEntity
  8
0
  6
Continuous
 62
     8
370
    18
100
AcDbLine
 10
881.8805103357
 20
654.7283367686
 30
0.0
 11
987.8805103357
 21
654.7283367686
 31
0.0
  0
LINE
  5
2E3
330
1F
100
AcDbEntity
  8
0
  6
Continuous
 62
     8
370
    18
100
AcDbLine
 10
881.8805103357
 20
611.2369119846
 30
0.0
 11
987.8805103357
 21
611.2369119846
 31
0.0
  0
LINE
  5
2E4
330
1F
100
AcDbEntity
  8
0
  6
Continuous
 62
     8
370
    18
100
AcDbLine
 10
987.8805103357
 20
611.2326243766
 30
0.0
 11
987.8805103357
 21
606.7326243766
 31
0.0
  0
LINE
  5
2E5
330
1F
100
AcDbEntity
  8
0
  6
Continuous
 62
     8
370
    18
100
AcDbLine
 10
987.8805103357
 20
654.7326243766
 30
0.0
 11
987.8805103357
 21
659.2326243766
 31
0.0
  0
ARC
  5
2E6
330
1F
100
AcDbEntity
  8
0
  6
Continuous
 62
     8
370
    18
100
AcDbCircle
 10
987.8805103357
 20
632.9826243766
 30
0.0
 40
26.24999999999977
100
AcDbArc
 50
270.0
 51
90.0
  0
LINE
  5
2E7
330
1F
100
AcDbEntity
  8
0
  6
Continuous
 62
     8
370
    18
100
AcDbLine
 10
987.8805103357
 20
606.7326243766
 30
0.0
 11
987.8805103357
 21
605.9826243766
 31
0.0
  0
LINE
  5
2E8
330
1F
100
AcDbEntity
  8
0
  6
Continuous
 62
     8
370
    18
100
AcDbLine
 10
987.8805103357
 20
659.2326243766
 30
0.0
 11
987.8805103357
 21
659.9826243766
 31
0.0
  0
LINE
  5
2E9
330
1F
100
AcDbEntity
  8
0
  6
Continuous
 62
     8
370
    18
100
AcDbLine
 10
881.8805103357
 20
654.7326243766
 30
0.0
 11
881.8805103357
 21
659.2326243766
 31
0.0
  0
LINE
  5
2EA
330
1F
100
AcDbEntity
  8
0
  6
Continuous
 62
     8
370
    18
100
AcDbLine
 10
881.8805103357
 20
659.2326243766
 30
0.0
 11
987.8805103357
 21
659.2326243766
 31
0.0
  0
LINE
  5
2EB
330
1F
100
AcDbEntity
  8
0
  6
Continuous
 62
     8
370
    18
100
AcDbLine
 10
881.8805103357
 20
659.2326243766
 30
0.0
 11
881.8805103357
 21
659.9826243766
 31
0.0
  0
LINE
  5
2EC
330
1F
100
AcDbEntity
  8
0
  6
Continuous
 62
     8
370
    18
100
AcDbLine
 10
881.8805103357
 20
611.2326243766
 30
0.0
 11
881.8805103357
 21
606.7326243766
 31
0.0
  0
ARC
  5
2ED
330
1F
100
AcDbEntity
  8
0
  6
Continuous
 62
     8
370
    18
100
AcDbCircle
 10
881.8805103357
 20
632.9826243766
 30
0.0
 40
26.24999999999977
100
AcDbArc
 50
90.0
 51
270.0
  0
LINE
  5
2EE
330
1F
100
AcDbEntity
  8
0
  6
Continuous
 62
     8
370
    18
100
AcDbLine
 10
881.8805103357
 20
606.7326243766
 30
0.0
 11
881.8805103357
 21
605.9826243766
 31
0.0
  0
LINE
  5
2EF
330
1F
100
AcDbEntity
  8
0
  6
Continuous
 62
     8
370
    18
100
AcDbLine
 10
881.8805103357
 20
606.7326243766
 30
0.0
 11
987.8805103357
 21
606.7326243766
 31
0.0
  0
CIRCLE
  5
2F0
330
1F
100
AcDbEntity
  8
0
  6
Continuous
 62
     8
370
    18
100
AcDbCircle
 10
934.8805103357
 20
632.9826243766
 30
0.0
 40
3.548336454629634
  0
CIRCLE
  5
2F1
330
1F
100
AcDbEntity
  8
0
  6
Continuous
 62
     8
370
    18
100
AcDbCircle
 10
934.8805103357
 20
632.9826243766
 30
0.0
 40
5.614709433546636
  0
ARC
  5
2F2
330
1F
100
AcDbEntity
  8
0
  6
Continuous
 62
     8
370
    18
100
AcDbCircle
 10
934.8805103357
 20
632.9826243766
 30
0.0
 40
7.463480267439868
100
AcDbArc
 50
126.4944476701
 51
233.50555233
  0
ARC
  5
2F3
330
1F
100
AcDbEntity
  8
0
  6
Continuous
 62
     8
370
    18
100
AcDbCircle
 10
934.8805103357
 20
632.9826243766
 30
0.0
 40
7.463480267439774
100
AcDbArc
 50
306.49444767
 51
53.5055523299
  0
ARC
  5
2F4
330
1F
100
AcDbEntity
  8
0
  6
Continuous
 62
     8
370
    18
100
AcDbCircle
 10
934.8805103357
 20
632.9826243766
 30
0.0
 40
8.28496890136705
100
AcDbArc
 50
133.5974061618
 51
226.4025938382
  0
ARC
  5
2F5
330
1F
100
AcDbEntity
  8
0
  6
Continuous
 62
     8
370
    18
100
AcDbCircle
 10
934.8805103357
 20
632.9826243766
 30
0.0
 40
8.284968901367034
100
AcDbArc
 50
313.5974061618
 51
46.4025938382
  0
SPLINE
  5
2F6
330
1F
100
AcDbEntity
  8
0
  6
Continuous
 62
     7
370
    35
100
AcDbSpline
210
0.0
220
0.0
230
1.0
 70
     8
 71
     3
 72
    21
 73
    17
 74
     0
 42
0.000000001
 43
0.00000001
 40
0.0
 40
0.0
 40
0.0
 40
0.0
 40
0.019429744641815
 40
0.1063134160535915
 40
0.1971827435429607
 40
0.2431269965575842
 40
0.2877601062883722
 40
0.3091647742104779
 40
0.3297204036239337
 40
0.3691429066006958
 40
0.4450527365625845
 40
0.5209828835672857
 40
0.6006991125028637
 40
0.7803290563712443
 40
0.9937101053061765
 40
1.0
 40
1.0
 40
1.0
 40
1.0
 10
1813.847920140873
 20
955.8970396833573
 30
0.0
 10
1813.81090664507
 20
955.9861614711035
 30
0.0
 10
1813.608380505308
 20
956.4738076998509
 30
0.0
 10
1812.976494947499
 20
957.2482408647876
 30
0.0
 10
1812.11463547558
 20
957.956998190713
 30
0.0
 10
1811.336486987713
 20
958.4022141504659
 30
0.0
 10
1810.804755563913
 20
958.6170653877947
 30
0.0
 10
1810.542893418629
 20
958.9632184099696
 30
0.0
 10
1810.417534541842
 20
959.3379993269971
 30
0.0
 10
1810.466157993981
 20
959.9656810864145
 30
0.0
 10
1810.43980701457
 20
960.7626849765
 30
0.0
 10
1810.448241471672
 20
961.5457545581344
 30
0.0
 10
1810.445190533423
 20
962.3876914330017
 30
0.0
 10
1810.446956376115
 20
962.9735879130236
 30
0.0
 10
1810.446405867566
 20
963.1681635727122
 30
0.0
 10
1810.446408269825
 20
963.1096407487197
 30
0.0
 10
1810.446408338609
 20
963.1079650496307
 30
0.0
  0
ARC
  5
2F7
330
1F
100
AcDbEntity
  8
0
  6
Continuous
 62
     7
370
    35
100
AcDbCircle
 10
1801.8829762366
 20
908.2060362599
 30
0.0
 40
14.99995482260186
100
AcDbArc
 50
270.017911725
 51
305.1236860193
  0
ARC
  5
2F8
330
1F
100
AcDbEntity
  8
0
  6
Continuous
 62
     7
370
    35
100
AcDbCircle
 10
1762.0098324147
 20
908.2060368697
 30
0.0
 40
14.9999554324577
100
AcDbArc
 50
235.2278938985
 51
269.9820874844
  0
SPLINE
  5
2F9
330
1F
100
AcDbEntity
  8
0
  6
Continuous
 62
     7
370
    35
100
AcDbSpline
210
0.0
220
0.0
230
1.0
 70
     8
 71
     3
 72
    14
 73
    10
 74
     0
 42
0.000000001
 43
0.00000001
 40
0.0
 40
0.0
 40
0.0
 40
0.0
 40
0.0318510699584092
 40
0.1445183584985664
 40
0.2397810598263452
 40
0.3260834741479031
 40
0.5119178316719195
 40
0.8180500483779417
 40
1.0
 40
1.0
 40
1.0
 40
1.0
 10
1750.061689730972
 20
955.9298829183607
 30
0.0
 10
1750.062533274379
 20
955.9315314789206
 30
0.0
 10
1750.066360697088
 20
955.9390115185647
 30
0.0
 10
1750.057297621411
 20
955.921828778455
 30
0.0
 10
1750.036232877421
 20
955.8846344654606
 30
0.0
 10
1749.983713730033
 20
955.7961962554838
 30
0.0
 10
1749.870572846313
 20
955.626995723118
 30
0.0
 10
1749.728168576102
 20
955.4362906128327
 30
0.0
 10
1749.599451475846
 20
955.3207337485428
 30
0.0
 10
1749.551467608201
 20
955.2776558259479
 30
0.0
  0
SPLINE
  5
2FA
330
1F
100
AcDbEntity
  8
0
  6
Continuous
 62
     7
370
    35
100
AcDbSpline
210
0.0
220
0.0
230
1.0
 70
     8
 71
     3
 72
    14
 73
    10
 74
     0
 42
0.000000001
 43
0.00000001
 40
0.0
 40
0.0
 40
0.0
 40
0.0
 40
0.1910307360176257
 40
0.510095634404938
 40
0.6698730214020003
 40
0.7584351360328816
 40
0.8292863577681956
 40
0.9200950248304414
 40
1.0
 40
1.0
 40
1.0
 40
1.0
 10
1814.304484187552
 20
955.3104224686468
 30
0.0
 10
1814.258019799698
 20
955.3552039738603
 30
0.0
 10
1814.133949286785
 20
955.474780806299
 30
0.0
 10
1814.000390239605
 20
955.6573715862278
 30
0.0
 10
1813.898275959588
 20
955.814103243949
 30
0.0
 10
1813.857167237673
 20
955.8837443622969
 30
0.0
 10
1813.838581483936
 20
955.9164640199515
 30
0.0
 10
1813.829363076232
 20
955.9333455495874
 30
0.0
 10
1813.830038113895
 20
955.9320942258673
 30
0.0
 10
1813.830354074981
 20
955.9315085258055
 30
0.0
  0
SPLINE
  5
2FB
330
1F
100
AcDbEntity
  8
0
  6
Continuous
 62
     7
370
    35
100
AcDbSpline
210
0.0
220
0.0
230
1.0
 70
     8
 71
     3
 72
    13
 73
     9
 74
     0
 42
0.000000001
 43
0.00000001
 40
0.0
 40
0.0
 40
0.0
 40
0.0
 40
0.2312645543701408
 40
0.5779681677215566
 40
0.7146434887061113
 40
0.8157376950058219
 40
0.9213272857951146
 40
1.0
 40
1.0
 40
1.0
 40
1.0
 10
1754.099002114543
 20
895.4558991359756
 30
0.0
 10
1754.120006892109
 20
895.446795016317
 30
0.0
 10
1754.172501286834
 20
895.424042323531
 30
0.0
 10
1754.235247405893
 20
895.3898761436905
 30
0.0
 10
1754.277430916611
 20
895.3666807934853
 30
0.0
 10
1754.292799761369
 20
895.3579675580924
 30
0.0
 10
1754.299420510861
 20
895.3541670309578
 30
0.0
 10
1754.299010295525
 20
895.3544034455483
 30
0.0
 10
1754.298835149805
 20
895.3545043852251
 30
0.0
  0
LINE
  5
2FC
330
1F
100
AcDbEntity
  8
0
  6
Continuous
 62
     7
370
    35
100
AcDbLine
 10
1754.1102118821
 20
895.4686144784
 30
0.0
 11
1753.9839240413
 21
895.5473160473
 31
0.0
  0
SPLINE
  5
2FD
330
1F
100
AcDbEntity
  8
0
  6
Continuous
 62
     7
370
    35
100
AcDbSpline
210
0.0
220
0.0
230
1.0
 70
     8
 71
     3
 72
    12
 73
     8
 74
     0
 42
0.000000001
 43
0.00000001
 40
0.0
 40
0.0
 40
0.0
 40
0.0
 40
0.1423628141198404
 40
0.2495218665488408
 40
0.3688819399580004
 40
0.6085285388614624
 40
1.0
 40
1.0
 40
1.0
 40
1.0
 10
1809.593806543998
 20
895.3544043470368
 30
0.0
 10
1809.594251507462
 20
895.3546636172455
 30
0.0
 10
1809.595031402934
 20
895.3551180448067
 30
0.0
 10
1809.610482092271
 20
895.3639402513595
 30
0.0
 10
1809.643289793289
 20
895.3820448603315
 30
0.0
 10
1809.710744678407
 20
895.4194898769116
 30
0.0
 10
1809.772386907478
 20
895.443897935585
 30
0.0
 10
1809.810622500801
 20
895.4590378261971
 30
0.0
  0
LINE
  5
2FE
330
1F
100
AcDbEntity
  8
0
  6
Continuous
 62
     7
370
    35
100
AcDbLine
 10
1801.4451037708
 20
893.2060814377
 30
0.0
 11
1813.4464042221
 21
893.2060814377
 31
0.0
  0
ARC
  5
2FF
330
1F
100
AcDbEntity
  8
0
  6
Continuous
 62
     7
370
    35
100
AcDbCircle
 10
1813.4464042221
 20
906.2060814377
 30
0.0
 40
13.00000000000011
100
AcDbArc
 50
270.0
 51
0.0
  0
LINE
  5
300
330
1F
100
AcDbEntity
  8
0
  6
Continuous
 62
     7
370
    35
100
AcDbLine
 10
1753.4443923971
 20
959.6973058864
 30
0.0
 11
1753.4438868358
 21
959.3591899471
 31
0.0
  0
SPLINE
  5
301
330
1F
100
AcDbEntity
  8
0
  6
Continuous
 62
     7
370
    35
100
AcDbSpline
210
0.0
220
0.0
230
1.0
 70
     8
 71
     3
 72
    10
 73
     6
 74
     0
 42
0.000000001
 43
0.00000001
 40
0.0
 40
0.0
 40
0.0
 40
0.0
 40
0.243950098792923
 40
0.6120271436518668
 40
1.0
 40
1.0
 40
1.0
 40
1.0
 10
1810.446423862712
 20
959.7910493752148
 30
0.0
 10
1810.446422441035
 20
960.2698780653014
 30
0.0
 10
1810.4464188743
 20
961.4711735636116
 30
0.0
 10
1810.446412600487
 20
962.8381258418113
 30
0.0
 10
1810.446411148082
 20
963.3786878571713
 30
0.0
 10
1810.446410402769
 20
963.6560814376713
 30
0.0
  0
LINE
  5
302
330
1F
100
AcDbEntity
  8
0
  6
Continuous
 62
     7
370
    35
100
AcDbLine
 10
1816.9464042221
 20
986.6525199372
 30
0.0
 11
1746.9464042221
 21
986.6525199372
 31
0.0
  0
LWPOLYLINE
  5
303
330
1F
100
AcDbEntity
  8
0
  6
Continuous
 62
     7
370
    35
100
AcDbPolyline
 90
        3
 70
   128
 43
0.0
 10
1748.9464042221
 20
972.4144384265
 10
1748.9821164551
 20
972.0381757939
 10
1749.0714042221
 20
971.7184678812
  0
ARC
  5
304
330
1F
100
AcDbEntity
  8
0
  6
Continuous
 62
     7
370
    35
100
AcDbCircle
 10
1817.9464042221
 20
975.6525199372
 30
0.0
 40
1.0
100
AcDbArc
 50
180.0
 51
270.0
  0
LWPOLYLINE
  5
305
330
1F
100
AcDbEntity
  8
0
  6
Continuous
 62
     7
370
    35
100
AcDbPolyline
 90
        3
 70
   128
 43
0.0
 10
1814.9464042221
 20
972.4144384265
 10
1814.910691989
 20
972.0381757939
 10
1814.8214042221
 20
971.7184678812
  0
ARC
  5
306
330
1F
100
AcDbEntity
  8
0
  6
Continuous
 62
     7
370
    35
100
AcDbCircle
 10
1745.9464042221
 20
975.6525199372
 30
0.0
 40
1.0
100
AcDbArc
 50
270.0
 51
0.0
  0
LINE
  5
307
330
1F
100
AcDbEntity
  8
0
  6
Continuous
 62
     7
370
    35
100
AcDbLine
 10
1748.9464042221
 20
973.6525199372
 30
0.0
 11
1748.9464042221
 21
972.4144384265
 31
0.0
  0
LINE
  5
308
330
1F
100
AcDbEntity
  8
0
  6
Continuous
 62
     7
370
    35
100
AcDbLine
 10
1814.9464042221
 20
972.4144384265
 30
0.0
 11
1814.9464042221
 21
973.6525199372
 31
0.0
  0
LINE
  5
309
330
1F
100
AcDbEntity
  8
0
  6
Continuous
 62
     7
370
    35
100
AcDbLine
 10
1809.9464042221
 20
964.3792701037
 30
0.0
 11
1809.9464042221
 21
963.6560814378
 31
0.0
  0
LINE
  5
30A
330
1F
100
AcDbEntity
  8
0
  6
Continuous
 62
     7
370
    35
100
AcDbLine
 10
1753.9464042221
 20
964.3792701037
 30
0.0
 11
1753.9464042221
 21
963.6560814378
 31
0.0
  0
LINE
  5
30B
330
1F
100
AcDbEntity
  8
0
  6
Continuous
 62
     7
370
    35
100
AcDbLine
 10
1753.9464042221
 20
963.6560814378
 30
0.0
 11
1755.497287321
 21
963.6560814378
 31
0.0
  0
LINE
  5
30C
330
1F
100
AcDbEntity
  8
0
  6
Continuous
 62
     7
370
    35
100
AcDbLine
 10
1808.3955211232
 20
963.6560814378
 30
0.0
 11
1809.945150098
 21
963.6560814378
 31
0.0
  0
SPLINE
  5
30D
330
1F
100
AcDbEntity
  8
0
  6
Continuous
 62
     7
370
    35
100
AcDbSpline
210
0.0
220
0.0
230
1.0
 70
     8
 71
     3
 72
    12
 73
     8
 74
     0
 42
0.000000001
 43
0.00000001
 40
0.0
 40
0.0
 40
0.0
 40
0.0
 40
0.0000113964157658
 40
0.0165615426249112
 40
0.2254762501766212
 40
0.6569695733823597
 40
0.9999999999999999
 40
0.9999999999999999
 40
0.9999999999999999
 40
0.9999999999999999
 10
1813.839031473472
 20
955.6121510423287
 30
0.0
 10
1813.839036664778
 20
955.6121372336737
 30
0.0
 10
1813.846580795015
 20
955.5920701674517
 30
0.0
 10
1813.950637761066
 20
955.3153711884854
 30
0.0
 10
1814.302975554366
 20
954.3791354940278
 30
0.0
 10
1814.882834376869
 20
952.8041544470128
 30
0.0
 10
1815.317616438379
 20
951.5523900922374
 30
0.0
 10
1815.510177965484
 20
950.9979935863314
 30
0.0
  0
SPLINE
  5
30E
330
1F
100
AcDbEntity
  8
0
  6
Continuous
 62
     7
370
    35
100
AcDbSpline
210
0.0
220
0.0
230
1.0
 70
     8
 71
     3
 72
    15
 73
    11
 74
     0
 42
0.000000001
 43
0.00000001
 40
0.0
 40
0.0
 40
0.0
 40
0.0
 40
0.12145272417869
 40
0.2436356162157051
 40
0.3679634748124464
 40
0.49299964518497
 40
0.6185865433805136
 40
0.7450337263104057
 40
0.871990258811908
 40
1.0
 40
1.0
 40
1.0
 40
1.0
 10
1818.684758270678
 20
940.2190431712529
 30
0.0
 10
1819.016204468936
 20
938.7456564163122
 30
0.0
 10
1819.681089503843
 20
935.7900249770705
 30
0.0
 10
1820.245794482892
 20
931.2450709828356
 30
0.0
 10
1820.507409162818
 20
926.6313397750447
 30
0.0
 10
1820.413442724149
 20
921.9672317958474
 30
0.0
 10
1819.950293141833
 20
917.2982121465253
 30
0.0
 10
1819.088818656509
 20
912.6631875972942
 30
0.0
 10
1817.848625034789
 20
908.0776811469859
 30
0.0
 10
1816.669735142474
 20
905.1336521221659
 30
0.0
 10
1816.077855330996
 20
903.6555570468295
 30
0.0
  0
SPLINE
  5
30F
330
1F
100
AcDbEntity
  8
0
  6
Continuous
 62
     7
370
    35
100
AcDbSpline
210
0.0
220
0.0
230
1.0
 70
    24
 71
     3
 72
    10
 73
     6
 74
     0
 42
0.000000001
 43
0.00000001
 40
0.0
 40
0.0
 40
0.0
 40
0.0
 40
0.1884291686422634
 40
0.5522845095522015
 40
1.0
 40
1.0
 40
1.0
 40
1.0
 10
1781.946404222075
 20
932.9773202620191
 30
0.0
 10
1781.946404222075
 20
932.4495362111202
 30
0.0
 10
1781.946404222075
 20
930.9026050337418
 30
0.0
 10
1781.946404222075
 20
928.0908045158179
 30
0.0
 10
1781.946404222075
 20
925.8182703897501
 30
0.0
 10
1781.946404222075
 20
924.564592101301
 30
0.0
  0
SPLINE
  5
310
330
1F
100
AcDbEntity
  8
0
  6
Continuous
 62
     7
370
    35
100
AcDbSpline
210
0.0
220
0.0
230
1.0
 70
    24
 71
     3
 72
    10
 73
     6
 74
     0
 42
0.000000001
 43
0.00000001
 40
0.0
 40
0.0
 40
0.0
 40
0.0
 40
0.3005544716335556
 40
0.6481927251021716
 40
1.0
 40
1.0
 40
1.0
 40
1.0
 10
1781.946404222075
 20
920.7525199372222
 30
0.0
 10
1781.946404222075
 20
918.7487986283917
 30
0.0
 10
1781.946404222075
 20
914.4274602418521
 30
0.0
 10
1781.946404222075
 20
907.940639362855
 30
0.0
 10
1781.946404222075
 20
903.6501295757274
 30
0.0
 10
1781.946404222075
 20
901.4920879628842
 30
0.0
  0
SPLINE
  5
311
330
1F
100
AcDbEntity
  8
0
  6
Continuous
 62
     7
370
    35
100
AcDbSpline
210
0.0
220
0.0
230
1.0
 70
    24
 71
     3
 72
    13
 73
     9
 74
     0
 42
0.000000001
 43
0.00000001
 40
0.0
 40
0.0
 40
0.0
 40
0.0
 40
0.3696468379657264
 40
0.7491630569135292
 40
0.8272821734124607
 40
0.9051799163353812
 40
0.9820955461923448
 40
1.0
 40
1.0
 40
1.0
 40
1.0
 10
1810.446404222075
 20
963.6560814376711
 30
0.0
 10
1810.458279687996
 20
963.6560814376713
 30
0.0
 10
1810.482347688687
 20
963.6560814376714
 30
0.0
 10
1810.347355549594
 20
963.656081437671
 30
0.0
 10
1810.512237787863
 20
963.6560814376714
 30
0.0
 10
1810.195895265634
 20
963.6560814376704
 30
0.0
 10
1809.405151019089
 20
963.6560814376705
 30
0.0
 10
1808.555884360976
 20
963.6560814376708
 30
0.0
 10
1808.395521122906
 20
963.6560814376708
 30
0.0
  0
SPLINE
  5
312
330
1F
100
AcDbEntity
  8
0
  6
Continuous
 62
     7
370
    35
100
AcDbSpline
210
0.0
220
0.0
230
1.0
 70
     8
 71
     3
 72
    12
 73
     8
 74
     0
 42
0.000000001
 43
0.00000001
 40
0.0
 40
0.0
 40
0.0
 40
0.0
 40
0.000011396415745
 40
0.0165615426248908
 40
0.2254762501766545
 40
0.656969573382408
 40
1.0
 40
1.0
 40
1.0
 40
1.0
 10
1750.05377697068
 20
955.6121510423285
 30
0.0
 10
1750.053771779373
 20
955.6121372336735
 30
0.0
 10
1750.046227649127
 20
955.5920701674215
 30
0.0
 10
1749.942170683137
 20
955.3153711886704
 30
0.0
 10
1749.589832889736
 20
954.3791354938538
 30
0.0
 10
1749.009974067293
 20
952.8041544470553
 30
0.0
 10
1748.575192005776
 20
951.5523900922502
 30
0.0
 10
1748.382630478667
 20
950.9979935863311
 30
0.0
  0
SPLINE
  5
313
330
1F
100
AcDbEntity
  8
0
  6
Continuous
 62
     7
370
    35
100
AcDbSpline
210
0.0
220
0.0
230
1.0
 70
     8
 71
     3
 72
     9
 73
     5
 74
     0
 42
0.000000001
 43
0.00000001
 40
0.0
 40
0.0
 40
0.0
 40
0.0
 40
0.1562903953767082
 40
1.0
 40
1.0
 40
1.0
 40
1.0
 10
1750.06307275743
 20
955.9317517406967
 30
0.0
 10
1750.068868111295
 20
955.9437447788557
 30
0.0
 10
1750.105948789547
 20
956.0204803845859
 30
0.0
 10
1750.111849406682
 20
956.0260542619192
 30
0.0
 10
1750.116827814032
 20
956.0307569957602
 30
0.0
  0
SPLINE
  5
314
330
1F
100
AcDbEntity
  8
0
  6
Continuous
 62
     7
370
    35
100
AcDbSpline
210
0.0
220
0.0
230
1.0
 70
     8
 71
     3
 72
    11
 73
     7
 74
     0
 42
0.000000001
 43
0.00000001
 40
0.0
 40
0.0
 40
0.0
 40
0.0
 40
0.0402999249154325
 40
0.2187640754520135
 40
0.4992077406743786
 40
1.0
 40
1.0
 40
1.0
 40
1.0
 10
1753.425753116788
 20
959.5490365457894
 30
0.0
 10
1753.433328943087
 20
959.6037507941436
 30
0.0
 10
1753.474453551619
 20
959.9007615697319
 30
0.0
 10
1753.42867551825
 20
960.5872657403607
 30
0.0
 10
1753.456507355974
 20
961.8997805776318
 30
0.0
 10
1753.450350758754
 20
962.9700264142183
 30
0.0
 10
1753.446404222075
 20
963.656081437671
 30
0.0
  0
SPLINE
  5
315
330
1F
100
AcDbEntity
  8
0
  6
Continuous
 62
     7
370
    35
100
AcDbSpline
210
0.0
220
0.0
230
1.0
 70
    24
 71
     3
 72
    13
 73
     9
 74
     0
 42
0.000000001
 43
0.00000001
 40
0.0
 40
0.0
 40
0.0
 40
0.0
 40
0.3696468379656956
 40
0.7491630569134666
 40
0.8272821734123915
 40
0.9051799163353055
 40
0.9820955461922628
 40
1.0
 40
1.0
 40
1.0
 40
1.0
 10
1753.446404222075
 20
963.656081437671
 30
0.0
 10
1753.434528756154
 20
963.6560814376711
 30
0.0
 10
1753.410460755463
 20
963.6560814376713
 30
0.0
 10
1753.545452894557
 20
963.6560814376709
 30
0.0
 10
1753.380570656287
 20
963.6560814376711
 30
0.0
 10
1753.696913178516
 20
963.6560814376703
 30
0.0
 10
1754.487657425062
 20
963.6560814376703
 30
0.0
 10
1755.336924083176
 20
963.6560814376705
 30
0.0
 10
1755.497287321247
 20
963.6560814376705
 30
0.0
  0
SPLINE
  5
316
330
1F
100
AcDbEntity
  8
0
  6
Continuous
 62
     7
370
    35
100
AcDbSpline
210
0.0
220
0.0
230
1.0
 70
     8
 71
     3
 72
    15
 73
    11
 74
     0
 42
0.000000001
 43
0.00000001
 40
0.0
 40
0.0
 40
0.0
 40
0.0
 40
0.121452724178685
 40
0.2436356162156999
 40
0.3679634748124419
 40
0.4929996451849656
 40
0.6185865433805107
 40
0.7450337263103983
 40
0.8719902588119007
 40
1.0
 40
1.0
 40
1.0
 40
1.0
 10
1745.208050173472
 20
940.2190431712526
 30
0.0
 10
1744.876603975214
 20
938.7456564163118
 30
0.0
 10
1744.211718940309
 20
935.7900249770702
 30
0.0
 10
1743.64701396126
 20
931.2450709828352
 30
0.0
 10
1743.385399281332
 20
926.6313397750445
 30
0.0
 10
1743.479365720002
 20
921.967231795847
 30
0.0
 10
1743.942515302319
 20
917.2982121465252
 30
0.0
 10
1744.803989787641
 20
912.6631875972938
 30
0.0
 10
1746.044183409361
 20
908.0776811469857
 30
0.0
 10
1747.223073301677
 20
905.1336521221656
 30
0.0
 10
1747.814953113155
 20
903.6555570468294
 30
0.0
  0
SPLINE
  5
317
330
1F
100
AcDbEntity
  8
0
  6
Continuous
 62
     7
370
    35
100
AcDbSpline
210
0.0
220
0.0
230
1.0
 70
    24
 71
     3
 72
    14
 73
    10
 74
     0
 42
0.000000001
 43
0.00000001
 40
0.0
 40
0.0
 40
0.0
 40
0.0
 40
0.149783861674635
 40
0.3039198677007078
 40
0.4537011775423317
 40
0.6078081864720632
 40
0.757933700022959
 40
0.9123691506710971
 40
1.0
 40
1.0
 40
1.0
 40
1.0
 10
1781.946404222075
 20
901.4920879628842
 30
0.0
 10
1781.946404222075
 20
900.7669734500431
 30
0.0
 10
1781.946404222075
 20
899.2956753786315
 30
0.0
 10
1781.946404222075
 20
897.4012365818816
 30
0.0
 10
1781.946404222075
 20
895.784757452937
 30
0.0
 10
1781.946404222075
 20
894.5346857962417
 30
0.0
 10
1781.946404222075
 20
893.6667881859589
 30
0.0
 10
1781.946404222075
 20
893.2586667721486
 30
0.0
 10
1781.946404222075
 20
893.2200581964396
 30
0.0
 10
1781.946404222075
 20
893.2060814376711
 30
0.0
  0
LINE
  5
318
330
1F
100
AcDbEntity
  8
0
  6
Continuous
 62
     7
370
    35
100
AcDbLine
 10
1809.0218168489
 20
895.1031929794
 30
0.0
 11
1809.5372544892
 21
895.3217110208
 31
0.0
  0
SPLINE
  5
319
330
1F
100
AcDbEntity
  8
0
  6
Continuous
 62
     7
370
    35
100
AcDbSpline
210
0.0
220
0.0
230
1.0
 70
     8
 71
     3
 72
    10
 73
     6
 74
     0
 42
0.000000001
 43
0.00000001
 40
0.0
 40
0.0
 40
0.0
 40
0.0
 40
0.3651912706216383
 40
0.9388408861888081
 40
1.0
 40
1.0
 40
1.0
 40
1.0
 10
1809.917311087008
 20
895.5542684523009
 30
0.0
 10
1809.986815414254
 20
895.5981545239008
 30
0.0
 10
1810.165498502915
 20
895.7109776981298
 30
0.0
 10
1810.380887853122
 20
895.8535517718673
 30
0.0
 10
1810.51471833798
 20
895.951962405934
 30
0.0
 10
1810.527611912809
 20
895.961443540787
 30
0.0
  0
SPLINE
  5
31A
330
1F
100
AcDbEntity
  8
0
  6
Continuous
 62
     7
370
    35
100
AcDbSpline
210
0.0
220
0.0
230
1.0
 70
    24
 71
     3
 72
    18
 73
    14
 74
     0
 42
0.000000001
 43
0.00000001
 40
0.0
 40
0.0
 40
0.0
 40
0.0
 40
0.0528900501225382
 40
0.1308503043354514
 40
0.2088349706568537
 40
0.2788361590001403
 40
0.3488290097785831
 40
0.4127449371310026
 40
0.4766197031471406
 40
0.5405641088728134
 40
0.6045882679846268
 40
0.8596063559736797
 40
1.0
 40
1.0
 40
1.0
 40
1.0
 10
1781.946404222075
 20
893.2060814376711
 30
0.0
 10
1782.833558168016
 20
893.2060814376711
 30
0.0
 10
1785.028382403382
 20
893.2060814376711
 30
0.0
 10
1788.389094936628
 20
893.2060814376712
 30
0.0
 10
1791.762594604083
 20
893.2060814376711
 30
0.0
 10
1794.682298327732
 20
893.2060814376712
 30
0.0
 10
1797.06750541788
 20
893.2060814376712
 30
0.0
 10
1798.987536481509
 20
893.2060814376712
 30
0.0
 10
1800.430334830976
 20
893.2060814376712
 30
0.0
 10
1801.347240378398
 20
893.2060814376712
 30
0.0
 10
1801.889414391931
 20
893.2060814376712
 30
0.0
 10
1801.859683474612
 20
893.2060814376712
 30
0.0
 10
1801.856205212864
 20
893.2060814376712
 30
0.0
 10
1801.854970232204
 20
893.2060814376712
 30
0.0
  0
LINE
  5
31B
330
1F
100
AcDbEntity
  8
0
  6
Continuous
 62
     7
370
    35
100
AcDbLine
 10
1754.8709915953
 20
895.1031929794
 30
0.0
 11
1754.355553955
 21
895.3217110208
 31
0.0
  0
SPLINE
  5
31C
330
1F
100
AcDbEntity
  8
0
  6
Continuous
 62
     7
370
    35
100
AcDbSpline
210
0.0
220
0.0
230
1.0
 70
    24
 71
     3
 72
    18
 73
    14
 74
     0
 42
0.000000001
 43
0.00000001
 40
0.0
 40
0.0
 40
0.0
 40
0.0
 40
0.0528858667102823
 40
0.1296739535442629
 40
0.2088264841310581
 40
0.2780198271463586
 40
0.3488116530586089
 40
0.4119722453845605
 40
0.4765946606109349
 40
0.5395794985731205
 40
0.6046207084835581
 40
0.8595628981181036
 40
1.0
 40
1.0
 40
1.0
 40
1.0
 10
1781.946404222075
 20
893.2060814376711
 30
0.0
 10
1781.059309513358
 20
893.2060814376711
 30
0.0
 10
1778.884190049444
 20
893.2060814376711
 30
0.0
 10
1775.520594371035
 20
893.2060814376715
 30
0.0
 10
1772.158626778005
 20
893.2060814376697
 30
0.0
 10
1769.219524546423
 20
893.2060814376715
 30
0.0
 10
1766.843178906248
 20
893.206081437671
 30
0.0
 10
1764.908284974579
 20
893.2060814376711
 30
0.0
 10
1763.482225528142
 20
893.2060814376711
 30
0.0
 10
1762.516873902274
 20
893.2060814376711
 30
0.0
 10
1762.040274078395
 20
893.2060814376711
 30
0.0
 10
1762.031124800845
 20
893.2060814376711
 30
0.0
 10
1762.037168047364
 20
893.2060814376711
 30
0.0
 10
1762.039314583729
 20
893.2060814376711
 30
0.0
  0
SPLINE
  5
31D
330
1F
100
AcDbEntity
  8
0
  6
Continuous
 62
     7
370
    35
100
AcDbSpline
210
0.0
220
0.0
230
1.0
 70
     8
 71
     3
 72
     9
 73
     5
 74
     0
 42
0.000000001
 43
0.00000001
 40
0.0
 40
0.0
 40
0.0
 40
0.0
 40
0.4409399522092678
 40
1.0
 40
1.0
 40
1.0
 40
1.0
 10
1753.984688564194
 20
895.5484245137286
 30
0.0
 10
1753.912221740948
 20
895.5937497388204
 30
0.0
 10
1753.747875500871
 20
895.6965420234947
 30
0.0
 10
1753.563653297346
 20
895.8235521565233
 30
0.0
 10
1753.46066202344
 20
895.894558447564
 30
0.0
  0
SPLINE
  5
31E
330
1F
100
AcDbEntity
  8
0
  6
Continuous
 62
     7
370
    35
100
AcDbSpline
210
0.0
220
0.0
230
1.0
 70
     8
 71
     3
 72
    14
 73
    10
 74
     0
 42
0.000000001
 43
0.00000001
 40
0.0
 40
0.0
 40
0.0
 40
0.0
 40
0.1296969008660536
 40
0.2603671951156627
 40
0.385342144637652
 40
0.511184755725962
 40
0.6397642884787734
 40
0.7692911603858883
 40
1.0
 40
1.0
 40
1.0
 40
1.0
 10
1817.266519111522
 20
903.1463536574306
 30
0.0
 10
1817.880835834183
 20
904.6804046413783
 30
0.0
 10
1819.114079812444
 20
907.7600198764981
 30
0.0
 10
1820.432953820117
 20
912.4958832678669
 30
0.0
 10
1821.364729111212
 20
917.2672223392913
 30
0.0
 10
1821.88938330897
 20
922.0763690267491
 30
0.0
 10
1822.000694287122
 20
926.9677492816477
 30
0.0
 10
1821.656024708579
 20
933.196775693665
 30
0.0
 10
1820.676569246012
 20
937.6877321740943
 30
0.0
 10
1820.049288201974
 20
940.5639138663037
 30
0.0
  0
SPLINE
  5
31F
330
1F
100
AcDbEntity
  8
0
  6
Continuous
 62
     7
370
    35
100
AcDbSpline
210
0.0
220
0.0
230
1.0
 70
     8
 71
     3
 72
    14
 73
    10
 74
     0
 42
0.000000001
 43
0.00000001
 40
0.0
 40
0.0
 40
0.0
 40
0.0
 40
0.1296969008660465
 40
0.260367195115662
 40
0.3853421446376474
 40
0.5111847557259603
 40
0.6397642884787722
 40
0.7692911603858874
 40
1.0
 40
1.0
 40
1.0
 40
1.0
 10
1746.626289332629
 20
903.1463536574305
 30
0.0
 10
1746.011972609968
 20
904.6804046413782
 30
0.0
 10
1744.778728631708
 20
907.7600198764982
 30
0.0
 10
1743.459854624033
 20
912.4958832678664
 30
0.0
 10
1742.52807933294
 20
917.2672223392913
 30
0.0
 10
1742.00342513518
 20
922.0763690267487
 30
0.0
 10
1741.892114157028
 20
926.9677492816475
 30
0.0
 10
1742.236783735571
 20
933.1967756936648
 30
0.0
 10
1743.216239198139
 20
937.6877321740941
 30
0.0
 10
1743.843520242177
 20
940.5639138663034
 30
0.0
  0
SPLINE
  5
320
330
1F
100
AcDbEntity
  8
0
  6
Continuous
 62
     7
370
    35
100
AcDbSpline
210
0.0
220
0.0
230
1.0
 70
     8
 71
     3
 72
    10
 73
     6
 74
     0
 42
0.000000001
 43
0.00000001
 40
0.0
 40
0.0
 40
0.0
 40
0.0
 40
0.3422812336048897
 40
0.6664353245310205
 40
1.0
 40
1.0
 40
1.0
 40
1.0
 10
1810.527611912809
 20
895.961443540787
 30
0.0
 10
1811.292512536867
 20
896.3643575187649
 30
0.0
 10
1812.781804807609
 20
897.1488472345575
 30
0.0
 10
1814.64277176715
 20
898.927527159378
 30
0.0
 10
1815.619619672251
 20
900.2865080330515
 30
0.0
 10
1816.115031953451
 20
900.9757205616525
 30
0.0
  0
SPLINE
  5
321
330
1F
100
AcDbEntity
  8
0
  6
Continuous
 62
     7
370
    35
100
AcDbSpline
210
0.0
220
0.0
230
1.0
 70
     8
 71
     3
 72
    10
 73
     6
 74
     0
 42
0.000000001
 43
0.00000001
 40
0.0
 40
0.0
 40
0.0
 40
0.0
 40
0.3422812336048847
 40
0.6664353245310173
 40
0.9999999999999999
 40
0.9999999999999999
 40
0.9999999999999999
 40
0.9999999999999999
 10
1753.365196531342
 20
895.9614435407868
 30
0.0
 10
1752.600295907284
 20
896.3643575187648
 30
0.0
 10
1751.111003636542
 20
897.1488472345573
 30
0.0
 10
1749.250036677
 20
898.9275271593779
 30
0.0
 10
1748.2731887719
 20
900.2865080330513
 30
0.0
 10
1747.7777764907
 20
900.9757205616521
 30
0.0
  0
SPLINE
  5
322
330
1F
100
AcDbEntity
  8
0
  6
Continuous
 62
     7
370
    35
100
AcDbSpline
210
0.0
220
0.0
230
1.0
 70
     8
 71
     3
 72
     9
 73
     5
 74
     0
 42
0.000000001
 43
0.00000001
 40
0.0
 40
0.0
 40
0.0
 40
0.0
 40
0.8536363424240462
 40
1.0
 40
1.0
 40
1.0
 40
1.0
 10
1743.843520242177
 20
940.5639138663034
 30
0.0
 10
1744.715509165731
 20
943.6749947486034
 30
0.0
 10
1745.737008462584
 20
947.3194985351519
 30
0.0
 10
1746.961123919006
 20
950.899614093357
 30
0.0
 10
1747.140289934503
 20
951.4236129010005
 30
0.0
  0
SPLINE
  5
323
330
1F
100
AcDbEntity
  8
0
  6
Continuous
 62
     7
370
    35
100
AcDbSpline
210
0.0
220
0.0
230
1.0
 70
     8
 71
     3
 72
     9
 73
     5
 74
     0
 42
0.000000001
 43
0.00000001
 40
0.0
 40
0.0
 40
0.0
 40
0.0
 40
0.8536363424240649
 40
1.0
 40
1.0
 40
1.0
 40
1.0
 10
1820.049288201974
 20
940.5639138663037
 30
0.0
 10
1819.177299278419
 20
943.6749947486034
 30
0.0
 10
1818.155799981565
 20
947.3194985351515
 30
0.0
 10
1816.931684525145
 20
950.8996140933572
 30
0.0
 10
1816.752518509648
 20
951.4236129010006
 30
0.0
  0
SPLINE
  5
324
330
1F
100
AcDbEntity
  8
0
  6
Continuous
 62
     7
370
    35
100
AcDbSpline
210
0.0
220
0.0
230
1.0
 70
     8
 71
     3
 72
     9
 73
     5
 74
     0
 42
0.000000001
 43
0.00000001
 40
0.0
 40
0.0
 40
0.0
 40
0.0
 40
0.6310361367051168
 40
1.0
 40
1.0
 40
1.0
 40
1.0
 10
1747.140289934503
 20
951.4236129010005
 30
0.0
 10
1747.548071531075
 20
952.3600942790844
 30
0.0
 10
1748.194281110611
 20
953.844131917521
 30
0.0
 10
1749.29714608452
 20
954.9883038744798
 30
0.0
 10
1749.704063405986
 20
955.410461979993
 30
0.0
  0
SPLINE
  5
325
330
1F
100
AcDbEntity
  8
0
  6
Continuous
 62
     7
370
    35
100
AcDbSpline
210
0.0
220
0.0
230
1.0
 70
     8
 71
     3
 72
     9
 73
     5
 74
     0
 42
0.000000001
 43
0.00000001
 40
0.0
 40
0.0
 40
0.0
 40
0.0
 40
0.6310361367052172
 40
1.0
 40
1.0
 40
1.0
 40
1.0
 10
1816.752518509648
 20
951.4236129010006
 30
0.0
 10
1816.344736913076
 20
952.3600942790847
 30
0.0
 10
1815.698527333539
 20
953.8441319175208
 30
0.0
 10
1814.595662359631
 20
954.9883038744799
 30
0.0
 10
1814.188745038165
 20
955.4104619799932
 30
0.0
  0
LINE
  5
326
330
1F
100
AcDbEntity
  8
0
  6
Continuous
 62
     7
370
    35
100
AcDbLine
 10
1816.1150319535
 20
900.9757205617
 30
0.0
 11
1817.2665191115
 21
903.1463536574
 31
0.0
  0
LINE
  5
327
330
1F
100
AcDbEntity
  8
0
  6
Continuous
 62
     7
370
    35
100
AcDbLine
 10
1747.7777764907
 20
900.9757205617
 30
0.0
 11
1746.6262893326
 21
903.1463536574
 31
0.0
  0
LINE
  5
328
330
1F
100
AcDbEntity
  8
0
  6
Continuous
 62
     7
370
    35
100
AcDbLine
 10
1754.0843115732
 20
895.4651699945
 30
0.0
 11
1754.5772789159
 21
895.2466519531
 31
0.0
  0
LINE
  5
329
330
1F
100
AcDbEntity
  8
0
  6
Continuous
 62
     7
370
    35
100
AcDbLine
 10
1809.808496871
 20
895.4651699945
 30
0.0
 11
1809.3155295282
 21
895.2466519531
 31
0.0
  0
LINE
  5
32A
330
1F
100
AcDbEntity
  8
0
  6
Continuous
 62
     7
370
    35
100
AcDbLine
 10
1749.704063406
 20
955.41046198
 30
0.0
 11
1749.558994236
 21
955.2697525028
 31
0.0
  0
LINE
  5
32B
330
1F
100
AcDbEntity
  8
0
  6
Continuous
 62
     7
370
    35
100
AcDbLine
 10
1814.1887450382
 20
955.41046198
 30
0.0
 11
1814.3338142082
 21
955.2697525028
 31
0.0
  0
SPLINE
  5
32C
330
1F
100
AcDbEntity
  8
0
  6
Continuous
 62
     7
370
    35
100
AcDbSpline
210
0.0
220
0.0
230
1.0
 70
     8
 71
     3
 72
    21
 73
    17
 74
     0
 42
0.000000001
 43
0.00000001
 40
0.0
 40
0.0
 40
0.0
 40
0.0
 40
0.0385875042306172
 40
0.1137555859598121
 40
0.1905584151146641
 40
0.2679261122718404
 40
0.3425758673549474
 40
0.4177439138171314
 40
0.4945465859979152
 40
0.5719140750339702
 40
0.6465659329144191
 40
0.7217360672759647
 40
0.7985407486308923
 40
0.8759102056376941
 40
0.9905374157361704
 40
1.0
 40
1.0
 40
1.0
 40
1.0
 10
1819.224298287629
 20
943.3360550384535
 30
0.0
 10
1819.391390935711
 20
943.2552935942937
 30
0.0
 10
1819.883978431873
 20
943.0172096449282
 30
0.0
 10
1820.662981533573
 20
942.5310815417555
 30
0.0
 10
1821.556735559425
 20
941.8841523174634
 30
0.0
 10
1822.387694895702
 20
941.1607583288227
 30
0.0
 10
1823.149826783048
 20
940.3767397100407
 30
0.0
 10
1823.842349403989
 20
939.5339405051644
 30
0.0
 10
1824.468926751222
 20
938.6250668147117
 30
0.0
 10
1825.014324006801
 20
937.6680931701493
 30
0.0
 10
1825.473816628543
 20
936.6758030788776
 30
0.0
 10
1825.848383642021
 20
935.651327069878
 30
0.0
 10
1826.138884776231
 20
934.5861852818916
 30
0.0
 10
1826.371048887724
 20
933.3136061424534
 30
0.0
 10
1826.444211503117
 20
932.3444439903291
 30
0.0
 10
1826.446248861399
 20
931.7478708387903
 30
0.0
 10
1826.446404222076
 20
931.7023785906567
 30
0.0
  0
SPLINE
  5
32D
330
1F
100
AcDbEntity
  8
0
  6
Continuous
 62
     7
370
    35
100
AcDbSpline
210
0.0
220
0.0
230
1.0
 70
    24
 71
     3
 72
    20
 73
    16
 74
     0
 42
0.000000001
 43
0.00000001
 40
0.0
 40
0.0
 40
0.0
 40
0.0
 40
0.0031848875244883
 40
0.0996872166702682
 40
0.1961928561586083
 40
0.292913896026428
 40
0.3894614585497526
 40
0.4531459406897252
 40
0.5167654851003683
 40
0.6214864979190138
 40
0.7268808125404119
 40
0.8182687157727466
 40
0.8939620144270484
 40
0.9698304221395906
 40
0.9999999999999999
 40
0.9999999999999999
 40
0.9999999999999999
 40
0.9999999999999999
 10
1826.446404222076
 20
931.7023785906568
 30
0.0
 10
1826.446404222076
 20
931.7027812375333
 30
0.0
 10
1826.446404222076
 20
931.7153841147494
 30
0.0
 10
1826.446404222075
 20
931.5546465045094
 30
0.0
 10
1826.446404222075
 20
930.819122323652
 30
0.0
 10
1826.446404222075
 20
929.6094782015633
 30
0.0
 10
1826.446404222076
 20
928.1164721737646
 30
0.0
 10
1826.446404222075
 20
926.4886083634308
 30
0.0
 10
1826.446404222075
 20
924.5463554887457
 30
0.0
 10
1826.446404222076
 20
921.8788861863941
 30
0.0
 10
1826.446404222075
 20
918.6542875741778
 30
0.0
 10
1826.446404222076
 20
915.9334566577927
 30
0.0
 10
1826.446404222076
 20
913.78265801963
 30
0.0
 10
1826.446404222076
 20
912.3401384998708
 30
0.0
 10
1826.446404222076
 20
911.5708454290244
 30
0.0
 10
1826.446404222076
 20
911.3519687022272
 30
0.0
  0
SPLINE
  5
32E
330
1F
100
AcDbEntity
  8
0
  6
Continuous
 62
     7
370
    35
100
AcDbSpline
210
0.0
220
0.0
230
1.0
 70
    24
 71
     3
 72
    10
 73
     6
 74
     0
 42
0.000000001
 43
0.00000001
 40
0.0
 40
0.0
 40
0.0
 40
0.0
 40
0.2479681796226358
 40
0.497268806987863
 40
1.0
 40
1.0
 40
1.0
 40
1.0
 10
1826.446404222076
 20
911.3519687022272
 30
0.0
 10
1826.446404222075
 20
911.0454741322649
 30
0.0
 10
1826.446404222075
 20
910.430838055227
 30
0.0
 10
1826.446404222076
 20
909.324767837124
 30
0.0
 10
1826.446404222076
 20
908.5673167688442
 30
0.0
 10
1826.446404222076
 20
908.0609628235903
 30
0.0
  0
LINE
  5
32F
330
1F
100
AcDbEntity
  8
0
  6
Continuous
 62
     7
370
    35
100
AcDbLine
 10
1826.4464042221
 20
908.0609628236
 30
0.0
 11
1826.4464042221
 21
906.2060814377
 31
0.0
  0
LINE
  5
330
330
1F
100
AcDbEntity
  8
0
  6
Continuous
 62
     7
370
    35
100
AcDbLine
 10
1716.4464042221
 20
973.6525199372
 30
0.0
 11
1716.4464042221
 21
974.6525199372
 31
0.0
  0
LINE
  5
331
330
1F
100
AcDbEntity
  8
0
  6
Continuous
 62
     7
370
    35
100
AcDbLine
 10
1716.4464042221
 20
974.6525199372
 30
0.0
 11
1726.4464042221
 21
974.6525199372
 31
0.0
  0
LINE
  5
332
330
1F
100
AcDbEntity
  8
0
  6
Continuous
 62
     7
370
    35
100
AcDbLine
 10
1726.4464042221
 20
973.6525199372
 30
0.0
 11
1716.4464042221
 21
973.6525199372
 31
0.0
  0
LINE
  5
333
330
1F
100
AcDbEntity
  8
0
  6
Continuous
 62
     7
370
    35
100
AcDbLine
 10
1847.4464042221
 20
974.6525199372
 30
0.0
 11
1847.4464042221
 21
973.6525199372
 31
0.0
  0
LINE
  5
334
330
1F
100
AcDbEntity
  8
0
  6
Continuous
 62
     7
370
    35
100
AcDbLine
 10
1837.4464042221
 20
974.6525199372
 30
0.0
 11
1847.4464042221
 21
974.6525199372
 31
0.0
  0
LINE
  5
335
330
1F
100
AcDbEntity
  8
0
  6
Continuous
 62
     7
370
    35
100
AcDbLine
 10
1847.4464042221
 20
973.6525199372
 30
0.0
 11
1837.4464042221
 21
973.6525199372
 31
0.0
  0
LINE
  5
336
330
1F
100
AcDbEntity
  8
0
  6
Continuous
 62
     7
370
    35
100
AcDbLine
 10
1837.4464042221
 20
974.6525199372
 30
0.0
 11
1726.4464042221
 21
974.6525199372
 31
0.0
  0
LINE
  5
337
330
1F
100
AcDbEntity
  8
0
  6
Continuous
 62
     7
370
    35
100
AcDbLine
 10
1837.4464042221
 20
973.6525199372
 30
0.0
 11
1726.4464042221
 21
973.6525199372
 31
0.0
  0
LINE
  5
338
330
1F
100
AcDbEntity
  8
0
  6
Continuous
 62
     7
370
    35
100
AcDbLine
 10
1816.9464042221
 20
986.6525199372
 30
0.0
 11
1816.9464042221
 21
985.6525199372
 31
0.0
  0
LINE
  5
339
330
1F
100
AcDbEntity
  8
0
  6
Continuous
 62
     7
370
    35
100
AcDbLine
 10
1746.9464042221
 20
985.6525199372
 30
0.0
 11
1746.9464042221
 21
986.6525199372
 31
0.0
  0
LINE
  5
33A
330
1F
100
AcDbEntity
  8
0
  6
Continuous
 62
     7
370
    35
100
AcDbLine
 10
1798.1011676986
 20
958.8557456002
 30
0.0
 11
1813.6666407456
 21
966.1140448848
 31
0.0
  0
LINE
  5
33B
330
1F
100
AcDbEntity
  8
0
  6
Continuous
 62
     7
370
    35
100
AcDbLine
 10
1796.9464042221
 20
922.7525199372
 30
0.0
 11
1796.9464042221
 21
957.0431300261
 31
0.0
  0
ARC
  5
33C
330
1F
100
AcDbEntity
  8
0
  6
Continuous
 62
     7
370
    35
100
AcDbCircle
 10
1794.9464042221
 20
922.7525199372
 30
0.0
 40
2.000000000000227
100
AcDbArc
 50
270.0
 51
0.0
  0
ARC
  5
33D
330
1F
100
AcDbEntity
  8
0
  6
Continuous
 62
     7
370
    35
100
AcDbCircle
 10
1768.9464042221
 20
922.7525199372
 30
0.0
 40
2.000000000000227
100
AcDbArc
 50
180.0
 51
270.0
  0
ARC
  5
33E
330
1F
100
AcDbEntity
  8
0
  6
Continuous
 62
     7
370
    35
100
AcDbCircle
 10
1764.9464042221
 20
957.0431300261
 30
0.0
 40
2.000000000000233
100
AcDbArc
 50
0.0
 51
65.0
  0
ARC
  5
33F
330
1F
100
AcDbEntity
  8
0
  6
Continuous
 62
     7
370
    35
100
AcDbCircle
 10
1751.0714042221
 20
967.9266604588
 30
0.0
 40
2.000000000000528
100
AcDbArc
 50
180.0
 51
245.0
  0
LINE
  5
340
330
1F
100
AcDbEntity
  8
0
  6
Continuous
 62
     7
370
    35
100
AcDbLine
 10
1749.0714042221
 20
973.6525199372
 30
0.0
 11
1749.0714042221
 21
967.9266604588
 31
0.0
  0
LINE
  5
341
330
1F
100
AcDbEntity
  8
0
  6
Continuous
 62
     7
370
    35
100
AcDbLine
 10
1746.9464042221
 20
985.6525199372
 30
0.0
 11
1746.9464042221
 21
974.6525199372
 31
0.0
  0
LINE
  5
342
330
1F
100
AcDbEntity
  8
0
  6
Continuous
 62
     7
370
    35
100
AcDbLine
 10
1780.9464042221
 20
940.7525199372
 30
0.0
 11
1780.9464042221
 21
950.7525199372
 31
0.0
  0
ARC
  5
343
330
1F
100
AcDbEntity
  8
0
  6
Continuous
 62
     7
370
    35
100
AcDbCircle
 10
1798.9464042221
 20
957.0431300261
 30
0.0
 40
2.0
100
AcDbArc
 50
115.0
 51
180.0
  0
ARC
  5
344
330
1F
100
AcDbEntity
  8
0
  6
Continuous
 62
     7
370
    35
100
AcDbCircle
 10
1774.4464042221
 20
950.7525199372
 30
0.0
 40
6.5
100
AcDbArc
 50
0.0
 51
180.0
  0
CIRCLE
  5
345
330
1F
100
AcDbEntity
  8
0
  6
Continuous
 62
     7
370
    35
100
AcDbCircle
 10
1781.9464042221
 20
928.7525199372
 30
0.0
 40
4.25
  0
LINE
  5
346
330
1F
100
AcDbEntity
  8
0
  6
Continuous
 62
     7
370
    35
100
AcDbLine
 10
1766.9464042221
 20
957.0431300261
 30
0.0
 11
1766.9464042221
 21
922.7525199372
 31
0.0
  0
LINE
  5
347
330
1F
100
AcDbEntity
  8
0
  6
Continuous
 62
     7
370
    35
100
AcDbLine
 10
1750.2261676986
 20
966.1140448848
 30
0.0
 11
1765.7916407456
 21
958.8557456002
 31
0.0
  0
LINE
  5
348
330
1F
100
AcDbEntity
  8
0
  6
Continuous
 62
     7
370
    35
100
AcDbLine
 10
1795.9464042221
 20
950.7525199372
 30
0.0
 11
1795.9464042221
 21
940.7525199372
 31
0.0
  0
ARC
  5
349
330
1F
100
AcDbEntity
  8
0
  6
Continuous
 62
     7
370
    35
100
AcDbCircle
 10
1789.4464042221
 20
950.7525199372
 30
0.0
 40
6.5
100
AcDbArc
 50
0.0
 51
180.0
  0
LINE
  5
34A
330
1F
100
AcDbEntity
  8
0
  6
Continuous
 62
     7
370
    35
100
AcDbLine
 10
1767.9464042221
 20
950.7525199372
 30
0.0
 11
1767.9464042221
 21
940.7525199372
 31
0.0
  0
LINE
  5
34B
330
1F
100
AcDbEntity
  8
0
  6
Continuous
 62
     7
370
    35
100
AcDbLine
 10
1816.9464042221
 20
974.6525199372
 30
0.0
 11
1816.9464042221
 21
985.6525199372
 31
0.0
  0
LINE
  5
34C
330
1F
100
AcDbEntity
  8
0
  6
Continuous
 62
     7
370
    35
100
AcDbLine
 10
1814.8214042221
 20
967.9266604588
 30
0.0
 11
1814.8214042221
 21
973.6525199372
 31
0.0
  0
LINE
  5
34D
330
1F
100
AcDbEntity
  8
0
  6
Continuous
 62
     7
370
    35
100
AcDbLine
 10
1782.9464042221
 20
940.7525199372
 30
0.0
 11
1782.9464042221
 21
950.7525199372
 31
0.0
  0
ARC
  5
34E
330
1F
100
AcDbEntity
  8
0
  6
Continuous
 62
     7
370
    35
100
AcDbCircle
 10
1789.4464042221
 20
940.7525199372
 30
0.0
 40
6.5
100
AcDbArc
 50
180.0
 51
0.0
  0
ARC
  5
34F
330
1F
100
AcDbEntity
  8
0
  6
Continuous
 62
     7
370
    35
100
AcDbCircle
 10
1812.8214042221
 20
967.9266604588
 30
0.0
 40
1.999999999999545
100
AcDbArc
 50
295.0
 51
0.0
  0
LINE
  5
350
330
1F
100
AcDbEntity
  8
0
  6
Continuous
 62
     7
370
    35
100
AcDbLine
 10
1768.9464042221
 20
920.7525199372
 30
0.0
 11
1794.9464042221
 21
920.7525199372
 31
0.0
  0
ARC
  5
351
330
1F
100
AcDbEntity
  8
0
  6
Continuous
 62
     7
370
    35
100
AcDbCircle
 10
1774.4464042221
 20
940.7525199372
 30
0.0
 40
6.5
100
AcDbArc
 50
180.0
 51
0.0
  0
LINE
  5
352
330
1F
100
AcDbEntity
  8
0
  6
Continuous
 62
     8
370
    18
100
AcDbLine
 10
1748.9464042221
 20
972.4144384265
 30
0.0
 11
1749.0714042221
 21
972.4144384265
 31
0.0
  0
LINE
  5
353
330
1F
100
AcDbEntity
  8
0
  6
Continuous
 62
     8
370
    18
100
AcDbLine
 10
1814.8214042221
 20
972.4144384265
 30
0.0
 11
1814.9464042221
 21
972.4144384265
 31
0.0
  0
SPLINE
  5
354
330
1F
100
AcDbEntity
  8
0
  6
Continuous
 62
     8
370
    18
100
AcDbSpline
210
0.0
220
0.0
230
1.0
 70
     8
 71
     3
 72
     9
 73
     5
 74
     0
 42
0.000000001
 43
0.00000001
 40
0.0
 40
0.0
 40
0.0
 40
0.0
 40
0.4639726888007508
 40
1.0
 40
1.0
 40
1.0
 40
1.0
 10
1813.890791949243
 20
955.8059959256323
 30
0.0
 10
1813.861376729627
 20
955.8673655640665
 30
0.0
 10
1813.797978128102
 20
955.9996355013182
 30
0.0
 10
1813.783657094991
 20
956.0198965306731
 30
0.0
 10
1813.775980630119
 20
956.0307569957603
 30
0.0
  0
LINE
  5
355
330
1F
100
AcDbEntity
  8
0
  6
Continuous
 62
     8
370
    18
100
AcDbLine
 10
1813.7759806301
 20
956.0307569958
 30
0.0
 11
1813.6194133839
 21
956.1536779159
 31
0.0
  0
SPLINE
  5
356
330
1F
100
AcDbEntity
  8
0
  6
Continuous
 62
     8
370
    18
100
AcDbSpline
210
0.0
220
0.0
230
1.0
 70
     8
 71
     3
 72
    11
 73
     7
 74
     0
 42
0.000000001
 43
0.00000001
 40
0.0
 40
0.0
 40
0.0
 40
0.0
 40
0.2986044395549184
 40
0.578510769779666
 40
0.9999675635114517
 40
1.0
 40
1.0
 40
1.0
 40
1.0
 10
1813.619413383866
 20
956.1536779159092
 30
0.0
 10
1813.619346801811
 20
956.1478418368084
 30
0.0
 10
1813.619217806956
 20
956.136535124095
 30
0.0
 10
1813.698899015319
 20
955.9631011758717
 30
0.0
 10
1813.785972750437
 20
955.757396271034
 30
0.0
 10
1813.839027390553
 20
955.6121622190857
 30
0.0
 10
1813.839031473472
 20
955.6121510423287
 30
0.0
  0
SPLINE
  5
357
330
1F
100
AcDbEntity
  8
0
  6
Continuous
 62
     8
370
    18
100
AcDbSpline
210
0.0
220
0.0
230
1.0
 70
     8
 71
     3
 72
    10
 73
     6
 74
     0
 42
0.000000001
 43
0.00000001
 40
0.0
 40
0.0
 40
0.0
 40
0.0
 40
0.0305940752880616
 40
0.8849546452569946
 40
1.0
 40
1.0
 40
1.0
 40
1.0
 10
1815.510177965484
 20
950.9979935863314
 30
0.0
 10
1815.547270198968
 20
950.8895553441552
 30
0.0
 10
1816.620188534146
 20
947.7529046941943
 30
0.0
 10
1817.68058828394
 20
944.1551182307601
 30
0.0
 10
1818.578229656129
 20
940.6366065603096
 30
0.0
 10
1818.684758270678
 20
940.2190431712529
 30
0.0
  0
LINE
  5
358
330
1F
100
AcDbEntity
  8
0
  6
Continuous
 62
     8
370
    18
100
AcDbLine
 10
1816.077855331
 20
903.6555570468
 30
0.0
 11
1815.1605018088
 21
901.6523230014
 31
0.0
  0
SPLINE
  5
359
330
1F
100
AcDbEntity
  8
0
  6
Continuous
 62
     8
370
    18
100
AcDbSpline
210
0.0
220
0.0
230
1.0
 70
     8
 71
     3
 72
    18
 73
    14
 74
     0
 42
0.000000001
 43
0.00000001
 40
0.0
 40
0.0
 40
0.0
 40
0.0
 40
0.0497884573626106
 40
0.1520626953526053
 40
0.2542931679105416
 40
0.3525326664708923
 40
0.4508084200367183
 40
0.5543273934134058
 40
0.6578565275353612
 40
0.7740307271289424
 40
0.8901694733964504
 40
0.9999988953086805
 40
1.0
 40
1.0
 40
1.0
 40
1.0
 10
1815.160501808781
 20
901.6523230013894
 30
0.0
 10
1815.15130715119
 20
901.6679838975834
 30
0.0
 10
1815.12322505164
 20
901.7158150257817
 30
0.0
 10
1814.689431962276
 20
901.8010229948121
 30
0.0
 10
1813.173488393559
 20
901.856593934666
 30
0.0
 10
1810.813517358072
 20
901.9209876367132
 30
0.0
 10
1807.72404902984
 20
901.9460772893251
 30
0.0
 10
1803.909519603593
 20
901.9349264825103
 30
0.0
 10
1799.276040976202
 20
901.8880298186028
 30
0.0
 10
1793.90327496243
 20
901.8091484820776
 30
0.0
 10
1788.001916350539
 20
901.6838771609574
 30
0.0
 10
1783.930536677726
 20
901.5595175723189
 30
0.0
 10
1781.946424178566
 20
901.492088641094
 30
0.0
 10
1781.946404222075
 20
901.4920879628842
 30
0.0
  0
SPLINE
  5
35A
330
1F
100
AcDbEntity
  8
0
  6
Continuous
 62
     8
370
    18
100
AcDbSpline
210
0.0
220
0.0
230
1.0
 70
     8
 71
     3
 72
    10
 73
     6
 74
     0
 42
0.000000001
 43
0.00000001
 40
0.0
 40
0.0
 40
0.0
 40
0.0
 40
0.030594075288085
 40
0.8849546452569763
 40
1.0
 40
1.0
 40
1.0
 40
1.0
 10
1748.382630478667
 20
950.9979935863311
 30
0.0
 10
1748.345538245183
 20
950.889555344155
 30
0.0
 10
1747.272619909998
 20
947.7529046941967
 30
0.0
 10
1746.212220160213
 20
944.1551182307591
 30
0.0
 10
1745.314578788022
 20
940.6366065603094
 30
0.0
 10
1745.208050173472
 20
940.2190431712526
 30
0.0
  0
SPLINE
  5
35B
330
1F
100
AcDbEntity
  8
0
  6
Continuous
 62
     8
370
    18
100
AcDbSpline
210
0.0
220
0.0
230
1.0
 70
     8
 71
     3
 72
    11
 73
     7
 74
     0
 42
0.000000001
 43
0.00000001
 40
0.0
 40
0.0
 40
0.0
 40
0.0
 40
0.2986044395547366
 40
0.5785107697795633
 40
0.9999675635113832
 40
0.9999999999999999
 40
0.9999999999999999
 40
0.9999999999999999
 40
0.9999999999999999
 10
1750.273395060284
 20
956.1536779159088
 30
0.0
 10
1750.273461642337
 20
956.1478418368021
 30
0.0
 10
1750.273590637188
 20
956.1365351240763
 30
0.0
 10
1750.193909428863
 20
955.9631011759535
 30
0.0
 10
1750.106835693608
 20
955.7573962707602
 30
0.0
 10
1750.053781053598
 20
955.6121622190853
 30
0.0
 10
1750.05377697068
 20
955.6121510423285
 30
0.0
  0
LINE
  5
35C
330
1F
100
AcDbEntity
  8
0
  6
Continuous
 62
     8
370
    18
100
AcDbLine
 10
1750.116827814
 20
956.0307569958
 30
0.0
 11
1750.2733950603
 21
956.1536779159
 31
0.0
  0
SPLINE
  5
35D
330
1F
100
AcDbEntity
  8
0
  6
Continuous
 62
     8
370
    18
100
AcDbSpline
210
0.0
220
0.0
230
1.0
 70
     8
 71
     3
 72
    18
 73
    14
 74
     0
 42
0.000000001
 43
0.00000001
 40
0.0
 40
0.0
 40
0.0
 40
0.0
 40
0.0497884573626104
 40
0.1520626953526046
 40
0.2542931679105391
 40
0.3525326664708902
 40
0.4508084200367165
 40
0.5543273934134043
 40
0.65785652753536
 40
0.774030727128942
 40
0.8901694733964504
 40
0.9999988953086805
 40
1.0
 40
1.0
 40
1.0
 40
1.0
 10
1748.732306635371
 20
901.6523230013892
 30
0.0
 10
1748.741501292961
 20
901.6679838975831
 30
0.0
 10
1748.769583392512
 20
901.7158150257815
 30
0.0
 10
1749.203376481875
 20
901.8010229948119
 30
0.0
 10
1750.719320050592
 20
901.8565939346659
 30
0.0
 10
1753.079291086079
 20
901.9209876367127
 30
0.0
 10
1756.16875941431
 20
901.9460772893239
 30
0.0
 10
1759.983288840558
 20
901.9349264825096
 30
0.0
 10
1764.616767467949
 20
901.888029818603
 30
0.0
 10
1769.989533481721
 20
901.8091484820771
 30
0.0
 10
1775.890892093611
 20
901.6838771609561
 30
0.0
 10
1779.962271766425
 20
901.5595175723187
 30
0.0
 10
1781.946384265585
 20
901.492088641094
 30
0.0
 10
1781.946404222075
 20
901.492087962884
 30
0.0
  0
LINE
  5
35E
330
1F
100
AcDbEntity
  8
0
  6
Continuous
 62
     8
370
    18
100
AcDbLine
 10
1747.8149531132
 20
903.6555570468
 30
0.0
 11
1748.7323066354
 21
901.6523230014
 31
0.0
  0
LINE
  5
35F
330
1F
100
AcDbEntity
  8
0
  6
Continuous
 62
     8
370
    18
100
AcDbLine
 10
1815.1605018088
 20
901.6523230014
 30
0.0
 11
1815.0833807261
 21
901.4952111419
 31
0.0
  0
SPLINE
  5
360
330
1F
100
AcDbEntity
  8
0
  6
Continuous
 62
     8
370
    18
100
AcDbSpline
210
0.0
220
0.0
230
1.0
 70
     8
 71
     3
 72
    14
 73
    10
 74
     0
 42
0.000000001
 43
0.00000001
 40
0.0
 40
0.0
 40
0.0
 40
0.0
 40
0.2135072054013616
 40
0.6517504153255608
 40
0.873140029812623
 40
0.9340362681777997
 40
0.9607431005770671
 40
0.9801118651181869
 40
1.0
 40
1.0
 40
1.0
 40
1.0
 10
1815.083380726057
 20
901.4952111418745
 30
0.0
 10
1814.756495594108
 20
900.9013422733457
 30
0.0
 10
1813.758648612266
 20
899.0885028378568
 30
0.0
 10
1811.857322400608
 20
897.034478875775
 30
0.0
 10
1810.015186321336
 20
895.7030224831456
 30
0.0
 10
1809.270173705189
 20
895.2524519126848
 30
0.0
 10
1809.08502888927
 20
895.1435726038382
 30
0.0
 10
1809.019139467522
 20
895.1041266653725
 30
0.0
 10
1809.02091655147
 20
895.1035069410348
 30
0.0
 10
1809.02181684889
 20
895.1031929793769
 30
0.0
  0
SPLINE
  5
361
330
1F
100
AcDbEntity
  8
0
  6
Continuous
 62
     8
370
    18
100
AcDbSpline
210
0.0
220
0.0
230
1.0
 70
     8
 71
     3
 72
     9
 73
     5
 74
     0
 42
0.000000001
 43
0.00000001
 40
0.0
 40
0.0
 40
0.0
 40
0.0
 40
0.5224329713443152
 40
1.0
 40
1.0
 40
1.0
 40
1.0
 10
1809.537254489151
 20
895.3217110208296
 30
0.0
 10
1809.540029661848
 20
895.3231047387061
 30
0.0
 10
1809.545341678603
 20
895.3257724835707
 30
0.0
 10
1809.579644462463
 20
895.3460460286375
 30
0.0
 10
1809.596026341026
 20
895.3557280053154
 30
0.0
  0
SPLINE
  5
362
330
1F
100
AcDbEntity
  8
0
  6
Continuous
 62
     8
370
    18
100
AcDbSpline
210
0.0
220
0.0
230
1.0
 70
     8
 71
     3
 72
     9
 73
     5
 74
     0
 42
0.000000001
 43
0.00000001
 40
0.0
 40
0.0
 40
0.0
 40
0.0
 40
0.3615544521477628
 40
0.9999999999999999
 40
0.9999999999999999
 40
0.9999999999999999
 40
0.9999999999999999
 10
1809.694338664328
 20
895.4145669919244
 30
0.0
 10
1809.716535924159
 20
895.4278662687728
 30
0.0
 10
1809.777929884871
 20
895.464649875694
 30
0.0
 10
1809.862999054438
 20
895.5193471933585
 30
0.0
 10
1809.917311087008
 20
895.5542684523009
 30
0.0
  0
SPLINE
  5
363
330
1F
100
AcDbEntity
  8
0
  6
Continuous
 62
     8
370
    18
100
AcDbSpline
210
0.0
220
0.0
230
1.0
 70
     8
 71
     3
 72
    14
 73
    10
 74
     0
 42
0.000000001
 43
0.00000001
 40
0.0
 40
0.0
 40
0.0
 40
0.0
 40
0.2135072054014818
 40
0.651750415325589
 40
0.8731400298126335
 40
0.9340362681778053
 40
0.9607431005770704
 40
0.9801118651181885
 40
1.0
 40
1.0
 40
1.0
 40
1.0
 10
1748.809427718093
 20
901.4952111418767
 30
0.0
 10
1749.136312850042
 20
900.9013422733469
 30
0.0
 10
1750.134159831887
 20
899.0885028378565
 30
0.0
 10
1752.035486043543
 20
897.0344788757748
 30
0.0
 10
1753.877622122815
 20
895.7030224831454
 30
0.0
 10
1754.622634738961
 20
895.2524519126845
 30
0.0
 10
1754.807779554881
 20
895.143572603838
 30
0.0
 10
1754.873668976629
 20
895.1041266653723
 30
0.0
 10
1754.87189189268
 20
895.1035069410345
 30
0.0
 10
1754.870991595261
 20
895.1031929793768
 30
0.0
  0
LINE
  5
364
330
1F
100
AcDbEntity
  8
0
  6
Continuous
 62
     8
370
    18
100
AcDbLine
 10
1748.7323066354
 20
901.6523230014
 30
0.0
 11
1748.8094277181
 21
901.4952111419
 31
0.0
  0
SPLINE
  5
365
330
1F
100
AcDbEntity
  8
0
  6
Continuous
 62
     8
370
    18
100
AcDbSpline
210
0.0
220
0.0
230
1.0
 70
     8
 71
     3
 72
     9
 73
     5
 74
     0
 42
0.000000001
 43
0.00000001
 40
0.0
 40
0.0
 40
0.0
 40
0.0
 40
0.43742099430944
 40
1.0
 40
1.0
 40
1.0
 40
1.0
 10
1754.355553955001
 20
895.321711020829
 30
0.0
 10
1754.352349592746
 20
895.3233653811911
 30
0.0
 10
1754.345024013277
 20
895.3271474592891
 30
0.0
 10
1754.30307336369
 20
895.351956992932
 30
0.0
 10
1754.279472808956
 20
895.3659143157003
 30
0.0
  0
LINE
  5
366
330
1F
100
AcDbEntity
  8
0
  6
Continuous
 62
     8
370
    18
100
AcDbLine
 10
1754.1102118821
 20
895.4686144784
 30
0.0
 11
1753.9846885642
 21
895.5484245137
 31
0.0
  0
LWPOLYLINE
  5
367
330
1F
100
AcDbEntity
  8
0
  6
Continuous
 62
     8
370
    18
100
AcDbPolyline
 90
        9
 70
   128
 43
0.0
 10
1747.8149531132
 20
903.6555570468
 10
1747.7980177507
 20
903.648190339
 10
1747.7594843568
 20
903.6314818825
 10
1747.6996571512
 20
903.6055635902
 10
1747.6190084677
 20
903.5706400859
 10
1747.5181750248
 20
903.5269870896
 10
1747.397952899
 20
903.47494924
 10
1747.2592912398
 20
903.4149373744
 10
1747.1032847762
 20
903.3474252841
  0
SPLINE
  5
368
330
1F
100
AcDbEntity
  8
0
  6
Continuous
 62
     8
370
    18
100
AcDbSpline
210
0.0
220
0.0
230
1.0
 70
     8
 71
     3
 72
    14
 73
    10
 74
     0
 42
0.000000001
 43
0.00000001
 40
0.0
 40
0.0
 40
0.0
 40
0.0
 40
0.1277343155302458
 40
0.255473642475319
 40
0.3815295141037282
 40
0.5075900262814173
 40
0.710681955212542
 40
0.9137761853290174
 40
1.0
 40
1.0
 40
1.0
 40
1.0
 10
1747.103284776219
 20
903.3474252841387
 30
0.0
 10
1746.50404324137
 20
904.8431783079665
 30
0.0
 10
1745.305536661561
 20
907.8347430386694
 30
0.0
 10
1744.018136178432
 20
912.4786783594285
 30
0.0
 10
1743.108795360966
 20
917.1845784464633
 30
0.0
 10
1742.497574014601
 20
922.8976931803696
 30
0.0
 10
1742.510336664609
 20
929.6247307115516
 30
0.0
 10
1743.285434632263
 20
935.806563366198
 30
0.0
 10
1744.133225668251
 20
939.35473893812
 30
0.0
 10
1744.385888018505
 20
940.4121815637892
 30
0.0
  0
ARC
  5
369
330
1F
100
AcDbEntity
  8
0
  6
Continuous
 62
     8
370
    18
100
AcDbCircle
 10
1749.7415099523
 20
961.3638064235
 30
0.0
 40
21.62529238091386
100
AcDbArc
 50
255.6611818031
 51
257.8989240716
  0
SPLINE
  5
36A
330
1F
100
AcDbEntity
  8
0
  6
Continuous
 62
     8
370
    18
100
AcDbSpline
210
0.0
220
0.0
230
1.0
 70
     8
 71
     3
 72
    14
 73
    10
 74
     0
 42
0.000000001
 43
0.00000001
 40
0.0
 40
0.0
 40
0.0
 40
0.0
 40
0.127247386060472
 40
0.2554745767697363
 40
0.3810919869018175
 40
0.5075916090131541
 40
0.7089607368256274
 40
0.9137762176246974
 40
1.0
 40
1.0
 40
1.0
 40
1.0
 10
1816.789523667932
 20
903.3474252841389
 30
0.0
 10
1817.3868395222
 20
904.8373346480695
 30
0.0
 10
1818.586070561763
 20
907.828625675412
 30
0.0
 10
1819.871701446318
 20
912.4673882867041
 30
0.0
 10
1820.783781342457
 20
917.178964280183
 30
0.0
 10
1821.392769008571
 20
922.8705946061712
 30
0.0
 10
1821.383320954169
 20
929.602661733467
 30
0.0
 10
1820.612437940653
 20
935.7854646596666
 30
0.0
 10
1819.759587371827
 20
939.3547415728887
 30
0.0
 10
1819.506920425646
 20
940.4121815637894
 30
0.0
  0
LWPOLYLINE
  5
36B
330
1F
100
AcDbEntity
  8
0
  6
Continuous
 62
     8
370
    18
100
AcDbPolyline
 90
        9
 70
   128
 43
0.0
 10
1816.077855331
 20
903.6555570468
 10
1816.0947906935
 20
903.648190339
 10
1816.1333240874
 20
903.6314818825
 10
1816.1931512929
 20
903.6055635902
 10
1816.2737999764
 20
903.5706400859
 10
1816.3746334194
 20
903.5269870896
 10
1816.4948555451
 20
903.47494924
 10
1816.6335172043
 20
903.4149373744
 10
1816.7895236679
 20
903.3474252841
  0
ARC
  5
36C
330
1F
100
AcDbEntity
  8
0
  6
Continuous
 62
     8
370
    18
100
AcDbCircle
 10
1814.151298492
 20
961.3638064229
 30
0.0
 40
21.62529238029654
100
AcDbArc
 50
282.1010759284
 51
284.3388181969
  0
SPLINE
  5
36D
330
1F
100
AcDbEntity
  8
0
  6
Continuous
 62
     8
370
    18
100
AcDbSpline
210
0.0
220
0.0
230
1.0
 70
     8
 71
     3
 72
    17
 73
    13
 74
     0
 42
0.000000001
 43
0.00000001
 40
0.0
 40
0.0
 40
0.0
 40
0.0
 40
0.0045109817899505
 40
0.0089278415503376
 40
0.0130797684277631
 40
0.0177777921768899
 40
0.0339670776357903
 40
0.0840600072516064
 40
0.3047425979556598
 40
0.7692822253149066
 40
0.8273200843747952
 40
1.0
 40
1.0
 40
1.0
 40
1.0
 10
1809.315529528215
 20
895.246651953075
 30
0.0
 10
1809.311210240277
 20
895.244888164264
 30
0.0
 10
1809.30266178672
 20
895.2413973882498
 30
0.0
 10
1809.303854245468
 20
895.2431119240462
 30
0.0
 10
1809.318703341763
 20
895.2514328298962
 30
0.0
 10
1809.365641953335
 20
895.2761028813326
 30
0.0
 10
1809.547986479211
 20
895.369315073144
 30
0.0
 10
1810.315993535472
 20
895.7732590144707
 30
0.0
 10
1812.212909318619
 20
896.9643723837212
 30
0.0
 10
1813.856884431945
 20
898.5614849102936
 30
0.0
 10
1815.125542287251
 20
900.2481347472329
 30
0.0
 10
1815.491137554709
 20
900.8462666249868
 30
0.0
 10
1815.764766060461
 20
901.2939363475483
 30
0.0
  0
ARC
  5
36E
330
1F
100
AcDbEntity
  8
0
  6
Continuous
 62
     8
370
    18
100
AcDbCircle
 10
1810.4696042071
 20
892.5114436664
 30
0.0
 40
2.968712302659919
100
AcDbArc
 50
112.8764869256
 51
119.1883353829
  0
ARC
  5
36F
330
1F
100
AcDbEntity
  8
0
  6
Continuous
 62
     8
370
    18
100
AcDbCircle
 10
1814.9521948327
 20
899.7971003409
 30
0.0
 40
1.703170581846446
100
AcDbArc
 50
61.5042694372
 51
85.5824447659
  0
ARC
  5
370
330
1F
100
AcDbEntity
  8
0
  6
Continuous
 62
     8
370
    18
100
AcDbCircle
 10
1753.4232042369
 20
892.5114436663
 30
0.0
 40
2.968712302803128
100
AcDbArc
 50
60.8116646173
 51
67.1235130742
  0
SPLINE
  5
371
330
1F
100
AcDbEntity
  8
0
  6
Continuous
 62
     8
370
    18
100
AcDbSpline
210
0.0
220
0.0
230
1.0
 70
     8
 71
     3
 72
    17
 73
    13
 74
     0
 42
0.000000001
 43
0.00000001
 40
0.0
 40
0.0
 40
0.0
 40
0.0
 40
0.0045109817899509
 40
0.0089278415503384
 40
0.0130797684277642
 40
0.0177777921768911
 40
0.0339670776357925
 40
0.0840600072516118
 40
0.3047425979556778
 40
0.769282225314891
 40
0.8273200843747821
 40
0.9999999999999999
 40
0.9999999999999999
 40
0.9999999999999999
 40
0.9999999999999999
 10
1754.577278915936
 20
895.2466519530748
 30
0.0
 10
1754.581598203875
 20
895.2448881642638
 30
0.0
 10
1754.590146657431
 20
895.2413973882495
 30
0.0
 10
1754.588954198682
 20
895.2431119240458
 30
0.0
 10
1754.574105102388
 20
895.2514328298959
 30
0.0
 10
1754.527166490815
 20
895.2761028813325
 30
0.0
 10
1754.34482196494
 20
895.3693150731439
 30
0.0
 10
1753.576814908679
 20
895.7732590144705
 30
0.0
 10
1751.679899125532
 20
896.9643723837206
 30
0.0
 10
1750.035924012207
 20
898.5614849102938
 30
0.0
 10
1748.7672661569
 20
900.2481347472327
 30
0.0
 10
1748.401670889443
 20
900.8462666249866
 30
0.0
 10
1748.128042383691
 20
901.2939363475481
 30
0.0
  0
ARC
  5
372
330
1F
100
AcDbEntity
  8
0
  6
Continuous
 62
     8
370
    18
100
AcDbCircle
 10
1748.9406136115
 20
899.7971003409
 30
0.0
 40
1.703170581853215
100
AcDbArc
 50
94.4175552343
 51
118.4957305629
  0
SPLINE
  5
373
330
1F
100
AcDbEntity
  8
0
  6
Continuous
 62
     8
370
    18
100
AcDbSpline
210
0.0
220
0.0
230
1.0
 70
     8
 71
     3
 72
    10
 73
     6
 74
     0
 42
0.000000001
 43
0.00000001
 40
0.0
 40
0.0
 40
0.0
 40
0.0
 40
0.0049102993503902
 40
0.1151643441717018
 40
1.0
 40
1.0
 40
1.0
 40
1.0
 10
1744.385888018505
 20
940.4121815637892
 30
0.0
 10
1744.390518098532
 20
940.4301171258747
 30
0.0
 10
1744.499110282375
 20
940.85077116294
 30
0.0
 10
1745.457855878888
 20
944.4995607881128
 30
0.0
 10
1746.611291101916
 20
948.0735030783385
 30
0.0
 10
1747.636927897631
 20
951.2514593652944
 30
0.0
  0
ARC
  5
374
330
1F
100
AcDbEntity
  8
0
  6
Continuous
 62
     8
370
    18
100
AcDbCircle
 10
1781.9832422694
 20
1051.075493834
 30
0.0
 40
105.5675478948903
100
AcDbArc
 50
251.0132691526
 51
251.4407337295
  0
ARC
  5
375
330
1F
100
AcDbEntity
  8
0
  6
Continuous
 62
     8
370
    18
100
AcDbCircle
 10
1781.9095661808
 20
1051.0754938163
 30
0.0
 40
105.5675478761606
100
AcDbArc
 50
288.5592662704
 51
288.9867308475
  0
SPLINE
  5
376
330
1F
100
AcDbEntity
  8
0
  6
Continuous
 62
     8
370
    18
100
AcDbSpline
210
0.0
220
0.0
230
1.0
 70
     8
 71
     3
 72
    10
 73
     6
 74
     0
 42
0.000000001
 43
0.00000001
 40
0.0
 40
0.0
 40
0.0
 40
0.0
 40
0.0049102993503903
 40
0.1151643441716855
 40
1.0
 40
1.0
 40
1.0
 40
1.0
 10
1819.506920425646
 20
940.4121815637894
 30
0.0
 10
1819.502290345619
 20
940.430117125875
 30
0.0
 10
1819.393698161775
 20
940.8507711629401
 30
0.0
 10
1818.434952565266
 20
944.4995607881141
 30
0.0
 10
1817.281517342237
 20
948.0735030783393
 30
0.0
 10
1816.255880546521
 20
951.2514593652946
 30
0.0
  0
ARC
  5
377
330
1F
100
AcDbEntity
  8
0
  6
Continuous
 62
     8
370
    18
100
AcDbCircle
 10
1816.2505683162
 20
957.5795697855
 30
0.0
 40
2.992681724131341
100
AcDbArc
 50
208.4544255778
 51
226.4525487523
  0
SPLINE
  5
378
330
1F
100
AcDbEntity
  8
0
  6
Continuous
 62
     8
370
    18
100
AcDbSpline
210
0.0
220
0.0
230
1.0
 70
     8
 71
     3
 72
    15
 73
    11
 74
     0
 42
0.000000001
 43
0.00000001
 40
0.0
 40
0.0
 40
0.0
 40
0.0
 40
0.3092031051605921
 40
0.6638382552574926
 40
0.8039861739636709
 40
0.9077221477257728
 40
0.9361281220494162
 40
0.9546919441403818
 40
0.9789089794125909
 40
1.0
 40
1.0
 40
1.0
 40
1.0
 10
1816.255880546521
 20
951.2514593652946
 30
0.0
 10
1816.071921077805
 20
951.739178875023
 30
0.0
 10
1815.676972480226
 20
952.78627983549
 30
0.0
 10
1815.02743481695
 20
953.9874657381798
 30
0.0
 10
1814.526953979386
 20
954.8435434187247
 30
0.0
 10
1814.304257478787
 20
955.2056730877126
 30
0.0
 10
1814.209089154527
 20
955.3550157851663
 30
0.0
 10
1814.179815607676
 20
955.4043751285914
 30
0.0
 10
1814.17118113396
 20
955.4251768498165
 30
0.0
 10
1814.183166034886
 20
955.4151360152206
 30
0.0
 10
1814.188745038165
 20
955.4104619799932
 30
0.0
  0
SPLINE
  5
379
330
1F
100
AcDbEntity
  8
0
  6
Continuous
 62
     8
370
    18
100
AcDbSpline
210
0.0
220
0.0
230
1.0
 70
     8
 71
     3
 72
    15
 73
    11
 74
     0
 42
0.000000001
 43
0.00000001
 40
0.0
 40
0.0
 40
0.0
 40
0.0
 40
0.3092031051605249
 40
0.6638382552574172
 40
0.8039861739636748
 40
0.9077221477257744
 40
0.9361281220494174
 40
0.9546919441403826
 40
0.9789089794125913
 40
0.9999999999999999
 40
0.9999999999999999
 40
0.9999999999999999
 40
0.9999999999999999
 10
1747.636927897631
 20
951.2514593652944
 30
0.0
 10
1747.820887366346
 20
951.7391788750226
 30
0.0
 10
1748.215835963925
 20
952.7862798354898
 30
0.0
 10
1748.8653736272
 20
953.98746573818
 30
0.0
 10
1749.365854464766
 20
954.8435434187243
 30
0.0
 10
1749.588550965364
 20
955.2056730877124
 30
0.0
 10
1749.683719289624
 20
955.3550157851662
 30
0.0
 10
1749.712992836475
 20
955.404375128591
 30
0.0
 10
1749.721627310191
 20
955.4251768498164
 30
0.0
 10
1749.709642409265
 20
955.4151360152205
 30
0.0
 10
1749.704063405986
 20
955.410461979993
 30
0.0
  0
ARC
  5
37A
330
1F
100
AcDbEntity
  8
0
  6
Continuous
 62
     8
370
    18
100
AcDbCircle
 10
1747.6422401279
 20
957.5795697855
 30
0.0
 40
2.992681724087085
100
AcDbArc
 50
313.5474512476
 51
331.5455744223
  0
LINE
  5
37B
330
1F
100
AcDbEntity
  8
0
  6
Continuous
 62
     8
370
    18
100
AcDbLine
 10
1815.85743263
 20
901.4574735243
 30
0.0
 11
1816.7895236679
 21
903.3474252841
 31
0.0
  0
ARC
  5
37C
330
1F
100
AcDbEntity
  8
0
  6
Continuous
 62
     8
370
    18
100
AcDbCircle
 10
1815.0599975652
 20
899.9490392456
 30
0.0
 40
1.706246364315134
100
AcDbArc
 50
62.1367925984
 51
86.6231112419
  0
ARC
  5
37D
330
1F
100
AcDbEntity
  8
0
  6
Continuous
 62
     8
370
    18
100
AcDbCircle
 10
1748.832810879
 20
899.9490392456
 30
0.0
 40
1.706246364317489
100
AcDbArc
 50
93.3768887581
 51
117.8632074016
  0
LINE
  5
37E
330
1F
100
AcDbEntity
  8
0
  6
Continuous
 62
     8
370
    18
100
AcDbLine
 10
1748.0353758142
 20
901.4574735243
 30
0.0
 11
1747.1032847762
 21
903.3474252841
 31
0.0
  0
ARC
  5
37F
330
1F
100
AcDbEntity
  8
0
  6
Continuous
 62
     8
370
    18
100
AcDbCircle
 10
1816.2783332799
 20
952.9979945217
 30
0.0
 40
12.99332377679334
100
AcDbArc
 50
284.3876121929
 51
286.8712772964
  0
ARC
  5
380
330
1F
100
AcDbEntity
  8
0
  6
Continuous
 62
     8
370
    18
100
AcDbCircle
 10
1827.6911714423
 20
928.5427209745
 30
0.0
 40
27.45266561043877
100
AcDbArc
 50
246.6025480368
 51
247.6829243031
  0
ARC
  5
381
330
1F
100
AcDbEntity
  8
0
  6
Continuous
 62
     8
370
    18
100
AcDbCircle
 10
1747.6144751642
 20
952.9979945218
 30
0.0
 40
12.99332377690771
100
AcDbArc
 50
253.1287227036
 51
255.6123878071
  0
ARC
  5
382
330
1F
100
AcDbEntity
  8
0
  6
Continuous
 62
     8
370
    18
100
AcDbCircle
 10
1736.2016370052
 20
928.5427209666
 30
0.0
 40
27.45266560191393
100
AcDbArc
 50
292.3170756967
 51
293.3974519633
  0
LINE
  5
383
330
1F
100
AcDbEntity
  8
0
  6
Continuous
 62
     8
370
    18
100
AcDbLine
 10
1748.1280423837
 20
901.2939363475
 30
0.0
 11
1748.0353758142
 21
901.4574735243
 31
0.0
  0
LINE
  5
384
330
1F
100
AcDbEntity
  8
0
  6
Continuous
 62
     8
370
    18
100
AcDbLine
 10
1815.7647660605
 20
901.2939363475
 30
0.0
 11
1815.85743263
 21
901.4574735243
 31
0.0
  0
ARC
  5
385
330
1F
100
AcDbEntity
  8
0
  6
Continuous
 62
     8
370
    18
100
AcDbCircle
 10
1815.2308083037
 20
900.3543194435
 30
0.0
 40
1.080736236286195
100
AcDbArc
 50
35.0981925254
 51
60.3916535262
  0
ARC
  5
386
330
1F
100
AcDbEntity
  8
0
  6
Continuous
 62
     8
370
    18
100
AcDbCircle
 10
1748.6620001404
 20
900.3543194435
 30
0.0
 40
1.080736236298402
100
AcDbArc
 50
119.6083464739
 51
144.9018074744
  0
ARC
  5
387
330
1F
100
AcDbEntity
  8
0
  6
Continuous
 62
     8
370
    18
100
AcDbCircle
 10
1789.4299662654
 20
1072.6207499544
 30
0.0
 40
128.3634011473153
100
AcDbArc
 50
250.7644365914
 51
250.9990545453
  0
ARC
  5
388
330
1F
100
AcDbEntity
  8
0
  6
Continuous
 62
     8
370
    18
100
AcDbCircle
 10
1774.4628421715
 20
1072.6207499751
 30
0.0
 40
128.3634011692467
100
AcDbArc
 50
289.0009454547
 51
289.2355634086
  0
ARC
  5
389
330
1F
100
AcDbEntity
  8
0
  6
Continuous
 62
     8
370
    18
100
AcDbCircle
 10
1752.8222918068
 20
892.7508769064
 30
0.0
 40
2.993339415973886
100
AcDbArc
 50
59.1878754258
 51
65.0637682689
  0
ARC
  5
38A
330
1F
100
AcDbEntity
  8
0
  6
Continuous
 62
     8
370
    18
100
AcDbCircle
 10
1811.0705166374
 20
892.7508769063
 30
0.0
 40
2.993339416026512
100
AcDbArc
 50
114.9362317312
 51
120.8121245742
  0
ARC
  5
38B
330
1F
100
AcDbEntity
  8
0
  6
Continuous
 62
     8
370
    18
100
AcDbCircle
 10
1747.449724178
 20
957.400849951
 30
0.0
 40
2.998432342254673
100
AcDbArc
 50
314.7050712486
 51
332.8104033969
  0
ARC
  5
38C
330
1F
100
AcDbEntity
  8
0
  6
Continuous
 62
     8
370
    18
100
AcDbCircle
 10
1816.4430842661
 20
957.400849951
 30
0.0
 40
2.998432342276196
100
AcDbArc
 50
207.1895966032
 51
225.2949287514
  0
SPLINE
  5
38D
330
1F
100
AcDbEntity
  8
0
  6
Continuous
 62
     8
370
    18
100
AcDbSpline
210
0.0
220
0.0
230
1.0
 70
     8
 71
     3
 72
    14
 73
    10
 74
     0
 42
0.000000001
 43
0.00000001
 40
0.0
 40
0.0
 40
0.0
 40
0.0
 40
0.109237478264882
 40
0.2581253635230545
 40
0.4079301969031737
 40
0.5608445870782645
 40
0.714945185284821
 40
0.9256729043329562
 40
1.0
 40
1.0
 40
1.0
 40
1.0
 10
1817.113128110479
 20
902.289325461613
 30
0.0
 10
1817.283031231916
 20
902.6739166767288
 30
0.0
 10
1817.684507956584
 20
903.5826958685076
 30
0.0
 10
1818.294832117441
 20
905.1220407427284
 30
0.0
 10
1818.932068247915
 20
906.9214770079178
 30
0.0
 10
1819.526753913421
 20
908.840264571351
 30
0.0
 10
1820.122200651738
 20
911.1188134264653
 30
0.0
 10
1820.573310358261
 20
913.1258242893597
 30
0.0
 10
1820.772875393363
 20
914.4827710377314
 30
0.0
 10
1820.824911313088
 20
914.8365903930792
 30
0.0
  0
LWPOLYLINE
  5
38E
330
1F
100
AcDbEntity
  8
0
  6
Continuous
 62
     8
370
    18
100
AcDbPolyline
 90
        3
 70
   128
 43
0.0
 10
1817.1131281105
 20
902.2893254616
 10
1816.7934314398
 20
902.2987402704
 10
1816.7743030427
 20
902.2982897555
  0
LWPOLYLINE
  5
38F
330
1F
100
AcDbEntity
  8
0
  6
Continuous
 62
     8
370
    18
100
AcDbPolyline
 90
        9
 70
   128
 43
0.0
 10
1817.1131281105
 20
902.2893254616
 10
1819.0604630083
 20
902.8320358792
 10
1820.8632955273
 20
903.5940440647
 10
1822.4752218805
 20
904.5557364017
 10
1823.8547520869
 20
905.692359528
 10
1824.9663778976
 20
906.9746574718
 10
1825.7814867561
 20
908.3696246822
 10
1826.2790982678
 20
909.8413555713
 10
1826.4464042221
 20
911.3519687022
  0
SPLINE
  5
390
330
1F
100
AcDbEntity
  8
0
  6
Continuous
 62
     8
370
    18
100
AcDbSpline
210
0.0
220
0.0
230
1.0
 70
     8
 71
     3
 72
     9
 73
     5
 74
     0
 42
0.000000001
 43
0.00000001
 40
0.0
 40
0.0
 40
0.0
 40
0.0
 40
0.577047443601967
 40
1.0
 40
1.0
 40
1.0
 40
1.0
 10
1813.446404222075
 20
897.0620796714699
 30
0.0
 10
1814.237693742852
 20
897.9168758361294
 30
0.0
 10
1815.608966641727
 20
899.3982031934158
 30
0.0
 10
1816.666037351491
 20
901.4299801878052
 30
0.0
 10
1817.113128110479
 20
902.289325461613
 30
0.0
  0
SPLINE
  5
391
330
1F
100
AcDbEntity
  8
0
  6
Continuous
 62
     8
370
    18
100
AcDbSpline
210
0.0
220
0.0
230
1.0
 70
     8
 71
     3
 72
    10
 73
     6
 74
     0
 42
0.000000001
 43
0.00000001
 40
0.0
 40
0.0
 40
0.0
 40
0.0
 40
0.3947082167601095
 40
0.7987089853916717
 40
1.0
 40
1.0
 40
1.0
 40
1.0
 10
1813.446404222075
 20
897.0620796714699
 30
0.0
 10
1812.303033681601
 20
896.3320129576399
 30
0.0
 10
1809.989374412471
 20
894.8546916871135
 30
0.0
 10
1806.819505851865
 20
893.734234624845
 30
0.0
 10
1804.850665825035
 20
893.569311846117
 30
0.0
 10
1804.195924066472
 20
893.514466440345
 30
0.0
  0
LWPOLYLINE
  5
392
330
1F
100
AcDbEntity
  8
0
  6
Continuous
 62
     8
370
    18
100
AcDbPolyline
 90
       10
 70
   128
 43
0.0
 10
1826.4464042221
 20
908.0609628236
 10
1826.2489050112
 20
906.1510268079
 10
1825.6624082923
 20
904.2991232315
 10
1824.7047344713
 20
902.5615212475
 10
1823.4049819826
 20
900.991017013
 10
1821.802643148
 20
899.6353295044
 10
1819.9464042221
 20
898.5356506006
 10
1817.8926660853
 20
897.7253934887
 10
1815.7038305317
 20
897.2291774209
 10
1813.4464042221
 20
897.0620796715
  0
LINE
  5
393
330
1F
100
AcDbEntity
  8
0
  6
Continuous
 62
     8
370
    18
100
AcDbLine
 10
1813.4464042221
 20
893.2060814377
 30
0.0
 11
1813.4464042221
 21
897.0620796715
 31
0.0
  0
SPLINE
  5
394
330
1F
100
AcDbEntity
  8
0
  6
Continuous
 62
     8
370
    18
100
AcDbSpline
210
0.0
220
0.0
230
1.0
 70
     8
 71
     3
 72
    17
 73
    13
 74
     0
 42
0.000000001
 43
0.00000001
 40
0.0
 40
0.0
 40
0.0
 40
0.0
 40
0.2229912195096686
 40
0.5008176009795289
 40
0.6858965399870992
 40
0.866577165189906
 40
0.9279597470315037
 40
0.9497616361806115
 40
0.9717583090123122
 40
0.9770054670051183
 40
0.9922372900676586
 40
1.0
 40
1.0
 40
1.0
 40
1.0
 10
1752.247445670082
 20
896.6206057585877
 30
0.0
 10
1752.383188959195
 20
896.5201923001671
 30
0.0
 10
1752.688055799028
 20
896.2946729839233
 30
0.0
 10
1753.126587308951
 20
896.0157884424697
 30
0.0
 10
1753.542829937866
 20
895.7651674826594
 30
0.0
 10
1753.823416331656
 20
895.6071040964275
 30
0.0
 10
1753.990528487454
 20
895.5162615705989
 30
0.0
 10
1754.048514710117
 20
895.484957238835
 30
0.0
 10
1754.070330641019
 20
895.4731538633603
 30
0.0
 10
1754.082153741276
 20
895.4666618991207
 30
0.0
 10
1754.086210890544
 20
895.4643469191
 30
0.0
 10
1754.084790935072
 20
895.4649622614797
 30
0.0
 10
1754.084311573196
 20
895.4651699945268
 30
0.0
  0
LINE
  5
395
330
1F
100
AcDbEntity
  8
0
  6
Continuous
 62
     8
370
    18
100
AcDbLine
 10
1726.4464042221
 20
974.6525199372
 30
0.0
 11
1726.4464042221
 21
973.6525199372
 31
0.0
  0
LINE
  5
396
330
1F
100
AcDbEntity
  8
0
  6
Continuous
 62
     8
370
    18
100
AcDbLine
 10
1837.4464042221
 20
973.6525199372
 30
0.0
 11
1837.4464042221
 21
974.6525199372
 31
0.0
  0
LINE
  5
397
330
1F
100
AcDbEntity
  8
0
  6
Continuous
 62
     8
370
    18
100
AcDbLine
 10
1816.9464042221
 20
985.6525199372
 30
0.0
 11
1746.9464042221
 21
985.6525199372
 31
0.0
  0
ENDSEC
  0
SECTION
  2
OBJECTS
  0
DICTIONARY
  5
C
330
0
100
AcDbDictionary
281
     1
  3
ACAD_GROUP
350
D
  3
ACAD_LAYOUT
350
1A
  3
ACAD_MLINESTYLE
350
17
  3
ACAD_PLOTSETTINGS
350
19
  3
ACAD_PLOTSTYLENAME
350
E
  3
ACAD_SCALELIST
350
47
  0
DICTIONARY
  5
D
102
{ACAD_REACTORS
330
C
102
}
330
C
100
AcDbDictionary
281
     1
  0
DICTIONARY
  5
1A
102
{ACAD_REACTORS
330
C
102
}
330
C
100
AcDbDictionary
281
     1
  3
Layout1
350
1E
  3
Layout2
350
26
  3
Model
350
22
  0
DICTIONARY
  5
17
102
{ACAD_REACTORS
330
C
102
}
330
C
100
AcDbDictionary
281
     1
  3
Standard
350
18
  0
DICTIONARY
  5
19
102
{ACAD_REACTORS
330
C
102
}
330
C
100
AcDbDictionary
281
     1
  0
ACDBDICTIONARYWDFLT
  5
E
102
{ACAD_REACTORS
330
C
102
}
330
C
100
AcDbDictionary
281
     1
  3
Normal
350
F
100
AcDbDictionaryWithDefault
340
F
  0
DICTIONARY
  5
47
102
{ACAD_REACTORS
330
C
102
}
330
C
100
AcDbDictionary
281
     1
  3
A0
350
48
  3
A1
350
49
  3
A2
350
4A
  3
A3
350
4B
  3
A4
350
4C
  3
A5
350
4D
  3
A6
350
4E
  3
A7
350
4F
  3
A8
350
50
  3
A9
350
51
  3
B0
350
52
  3
B1
350
53
  3
B2
350
54
  3
B3
350
55
  3
B4
350
56
  3
B5
350
57
  3
B6
350
58
  3
B7
350
59
  3
B8
350
5A
  3
B9
350
5B
  3
C0
350
5C
  3
C1
350
5D
  3
C2
350
5E
  3
C3
350
5F
  3
C4
350
60
  3
C5
350
61
  3
C6
350
62
  3
C7
350
63
  3
C8
350
64
  3
C9
350
65
  3
D0
350
66
  3
D1
350
67
  3
D2
350
68
  0
LAYOUT
  5
1E
102
{ACAD_REACTORS
330
1A
102
}
330
1A
100
AcDbPlotSettings
  1

  2
none_device
  4

  6

 40
0.0
 41
0.0
 42
0.0
 43
0.0
 44
0.0
 45
0.0
 46
0.0
 47
0.0
 48
0.0
 49
0.0
140
0.0
141
0.0
142
1.0
143
1.0
 70
   688
 72
     1
 73
     0
 74
     5
  7

 75
    16
147
1.0
148
0.0
149
0.0
100
AcDbLayout
  1
Layout1
 70
     1
 71
     1
 10
0.0
 20
0.0
 11
420.0
 21
297.0
 12
0.0
 22
0.0
 32
0.0
 14
1.0000000000E+20
 24
1.0000000000E+20
 34
1.0000000000E+20
 15
-1.0000000000E+20
 25
-1.0000000000E+20
 35
-1.0000000000E+20
146
0.0
 13
0.0
 23
0.0
 33
0.0
 16
1.0
 26
0.0
 36
0.0
 17
0.0
 27
1.0
 37
0.0
 76
     0
330
1B
  0
LAYOUT
  5
26
102
{ACAD_REACTORS
330
1A
102
}
330
1A
100
AcDbPlotSettings
  1

  2
none_device
  4

  6

 40
0.0
 41
0.0
 42
0.0
 43
0.0
 44
0.0
 45
0.0
 46
0.0
 47
0.0
 48
0.0
 49
0.0
140
0.0
141
0.0
142
1.0
143
1.0
 70
   688
 72
     1
 73
     0
 74
     5
  7

 75
    16
147
1.0
148
0.0
149
0.0
100
AcDbLayout
  1
Layout2
 70
     1
 71
     2
 10
0.0
 20
0.0
 11
0.0
 21
0.0
 12
0.0
 22
0.0
 32
0.0
 14
0.0
 24
0.0
 34
0.0
 15
0.0
 25
0.0
 35
0.0
146
0.0
 13
0.0
 23
0.0
 33
0.0
 16
1.0
 26
0.0
 36
0.0
 17
0.0
 27
1.0
 37
0.0
 76
     0
330
23
  0
LAYOUT
  5
22
102
{ACAD_REACTORS
330
1A
102
}
330
1A
100
AcDbPlotSettings
  1

  2
none_device
  4
Letter_(8.50_x_11.00_Inches)
  6

 40
6.35
 41
6.35
 42
6.35000508
 43
6.35000508
 44
215.9
 45
279.4
 46
0.0
 47
0.0
 48
0.0
 49
0.0
140
0.0
141
0.0
142
1.0
143
1.0
 70
  1712
 72
     1
 73
     0
 74
     0
  7

 75
     0
147
1.0
148
0.0
149
0.0
100
AcDbLayout
  1
Model
 70
     1
 71
     0
 10
0.0
 20
0.0
 11
2100.0
 21
1485.0
 12
0.0
 22
0.0
 32
0.0
 14
0.0
 24
0.0
 34
0.0
 15
2100.0
 25
1485.0
 35
0.0
146
0.0
 13
0.0
 23
0.0
 33
0.0
 16
1.0
 26
0.0
 36
0.0
 17
0.0
 27
1.0
 37
0.0
 76
     0
330
1F
331
29
  0
MLINESTYLE
  5
18
102
{ACAD_REACTORS
330
17
102
}
330
17
100
AcDbMlineStyle
  2
Standard
 70
     0
  3

 62
   256
 51
90.0
 52
90.0
 71
     2
 49
0.5
 62
   256
  6
BYLAYER
 49
-0.5
 62
   256
  6
BYLAYER
  0
ACDBPLACEHOLDER
  5
F
102
{ACAD_REACTORS
330
E
102
}
330
E
  0
SCALE
  5
48
102
{ACAD_REACTORS
330
47
102
}
330
47
100
AcDbScale
 70
     0
300
1:1
140
1.0
141
1.0
290
     1
  0
SCALE
  5
49
102
{ACAD_REACTORS
330
47
102
}
330
47
100
AcDbScale
 70
     0
300
1:2
140
1.0
141
2.0
290
     0
  0
SCALE
  5
4A
102
{ACAD_REACTORS
330
47
102
}
330
47
100
AcDbScale
 70
     0
300
1:4
140
1.0
141
4.0
290
     0
  0
SCALE
  5
4B
102
{ACAD_REACTORS
330
47
102
}
330
47
100
AcDbScale
 70
     0
300
1:5
140
1.0
141
5.0
290
     0
  0
SCALE
  5
4C
102
{ACAD_REACTORS
330
47
102
}
330
47
100
AcDbScale
 70
     0
300
1:8
140
1.0
141
8.0
290
     0
  0
SCALE
  5
4D
102
{ACAD_REACTORS
330
47
102
}
330
47
100
AcDbScale
 70
     0
300
1:10
140
1.0
141
10.0
290
     0
  0
SCALE
  5
4E
102
{ACAD_REACTORS
330
47
102
}
330
47
100
AcDbScale
 70
     0
300
1:16
140
1.0
141
16.0
290
     0
  0
SCALE
  5
4F
102
{ACAD_REACTORS
330
47
102
}
330
47
100
AcDbScale
 70
     0
300
1:20
140
1.0
141
20.0
290
     0
  0
SCALE
  5
50
102
{ACAD_REACTORS
330
47
102
}
330
47
100
AcDbScale
 70
     0
300
1:30
140
1.0
141
30.0
290
     0
  0
SCALE
  5
51
102
{ACAD_REACTORS
330
47
102
}
330
47
100
AcDbScale
 70
     0
300
1:40
140
1.0
141
40.0
290
     0
  0
SCALE
  5
52
102
{ACAD_REACTORS
330
47
102
}
330
47
100
AcDbScale
 70
     0
300
1:50
140
1.0
141
50.0
290
     0
  0
SCALE
  5
53
102
{ACAD_REACTORS
330
47
102
}
330
47
100
AcDbScale
 70
     0
300
1:100
140
1.0
141
100.0
290
     0
  0
SCALE
  5
54
102
{ACAD_REACTORS
330
47
102
}
330
47
100
AcDbScale
 70
     0
300
2:1
140
2.0
141
1.0
290
     0
  0
SCALE
  5
55
102
{ACAD_REACTORS
330
47
102
}
330
47
100
AcDbScale
 70
     0
300
4:1
140
4.0
141
1.0
290
     0
  0
SCALE
  5
56
102
{ACAD_REACTORS
330
47
102
}
330
47
100
AcDbScale
 70
     0
300
8:1
140
8.0
141
1.0
290
     0
  0
SCALE
  5
57
102
{ACAD_REACTORS
330
47
102
}
330
47
100
AcDbScale
 70
     0
300
10:1
140
10.0
141
1.0
290
     0
  0
SCALE
  5
58
102
{ACAD_REACTORS
330
47
102
}
330
47
100
AcDbScale
 70
     0
300
100:1
140
100.0
141
1.0
290
     0
  0
SCALE
  5
59
102
{ACAD_REACTORS
330
47
102
}
330
47
100
AcDbScale
 70
     0
300
1/128" = 1'-0"
140
0.0078125
141
12.0
290
     0
  0
SCALE
  5
5A
102
{ACAD_REACTORS
330
47
102
}
330
47
100
AcDbScale
 70
     0
300
1/64" = 1'-0"
140
0.015625
141
12.0
290
     0
  0
SCALE
  5
5B
102
{ACAD_REACTORS
330
47
102
}
330
47
100
AcDbScale
 70
     0
300
1/32" = 1'-0"
140
0.03125
141
12.0
290
     0
  0
SCALE
  5
5C
102
{ACAD_REACTORS
330
47
102
}
330
47
100
AcDbScale
 70
     0
300
1/16" = 1'-0"
140
0.0625
141
12.0
290
     0
  0
SCALE
  5
5D
102
{ACAD_REACTORS
330
47
102
}
330
47
100
AcDbScale
 70
     0
300
3/32" = 1'-0"
140
0.09375
141
12.0
290
     0
  0
SCALE
  5
5E
102
{ACAD_REACTORS
330
47
102
}
330
47
100
AcDbScale
 70
     0
300
1/8" = 1'-0"
140
0.125
141
12.0
290
     0
  0
SCALE
  5
5F
102
{ACAD_REACTORS
330
47
102
}
330
47
100
AcDbScale
 70
     0
300
3/16" = 1'-0"
140
0.1875
141
12.0
290
     0
  0
SCALE
  5
60
102
{ACAD_REACTORS
330
47
102
}
330
47
100
AcDbScale
 70
     0
300
1/4" = 1'-0"
140
0.25
141
12.0
290
     0
  0
SCALE
  5
61
102
{ACAD_REACTORS
330
47
102
}
330
47
100
AcDbScale
 70
     0
300
3/8" = 1'-0"
140
0.375
141
12.0
290
     0
  0
SCALE
  5
62
102
{ACAD_REACTORS
330
47
102
}
330
47
100
AcDbScale
 70
     0
300
1/2" = 1'-0"
140
0.5
141
12.0
290
     0
  0
SCALE
  5
63
102
{ACAD_REACTORS
330
47
102
}
330
47
100
AcDbScale
 70
     0
300
3/4" = 1'-0"
140
0.75
141
12.0
290
     0
  0
SCALE
  5
64
102
{ACAD_REACTORS
330
47
102
}
330
47
100
AcDbScale
 70
     0
300
1" = 1'-0"
140
1.0
141
12.0
290
     0
  0
SCALE
  5
65
102
{ACAD_REACTORS
330
47
102
}
330
47
100
AcDbScale
 70
     0
300
1-1/2" = 1'-0"
140
1.5
141
12.0
290
     0
  0
SCALE
  5
66
102
{ACAD_REACTORS
330
47
102
}
330
47
100
AcDbScale
 70
     0
300
3" = 1'-0"
140
3.0
141
12.0
290
     0
  0
SCALE
  5
67
102
{ACAD_REACTORS
330
47
102
}
330
47
100
AcDbScale
 70
     0
300
6" = 1'-0"
140
6.0
141
12.0
290
     0
  0
SCALE
  5
68
102
{ACAD_REACTORS
330
47
102
}
330
47
100
AcDbScale
 70
     0
300
1'-0" = 1'-0"
140
12.0
141
12.0
290
     0
  0
ENDSEC
  0
EOF
