  0
SECTION
  2
HEADER
  9
$ACADVER
  1
AC1015
  9
$ACADMAINTVER
 70
     6
  9
$DWGCODEPAGE
  3
ANSI_1252
  9
$INSBASE
 10
0.0
 20
0.0
 30
0.0
  9
$EXTMIN
 10
0.0
 20
0.0
 30
0.0
  9
$EXTMAX
 10
2970.0
 20
2100.0
 30
0.0
  9
$LIMMIN
 10
0.0
 20
0.0
  9
$LIMMAX
 10
2970.0
 20
2100.0
  9
$ORTHOMODE
 70
     0
  9
$REGENMODE
 70
     1
  9
$FILLMODE
 70
     1
  9
$QTEXTMODE
 70
     0
  9
$MIRRTEXT
 70
     1
  9
$LTSCALE
 40
5.0
  9
$ATTMODE
 70
     1
  9
$TEXTSIZE
 40
12.5
  9
$TRACEWID
 40
1.0
  9
$TEXTSTYLE
  7
Standard
  9
$CLAYER
  8
0
  9
$CELTYPE
  6
ByLayer
  9
$CECOLOR
 62
   256
  9
$CELTSCALE
 40
1.0
  9
$DISPSILH
 70
     0
  9
$DIMSCALE
 40
1.0
  9
$DIMASZ
 40
12.5
  9
$DIMEXO
 40
0.0
  9
$DIMDLI
 40
3.75
  9
$DIMRND
 40
0.0
  9
$DIMDLE
 40
0.0
  9
$DIMEXE
 40
5.0
  9
$DIMTP
 40
0.0
  9
$DIMTM
 40
0.0
  9
$DIMTXT
 40
12.5
  9
$DIMCEN
 40
2.5
  9
$DIMTSZ
 40
0.0
  9
$DIMTOL
 70
     0
  9
$DIMLIM
 70
     0
  9
$DIMTIH
 70
     1
  9
$DIMTOH
 70
     1
  9
$DIMSE1
 70
     0
  9
$DIMSE2
 70
     0
  9
$DIMTAD
 70
     1
  9
$DIMZIN
 70
     0
  9
$DIMBLK
  1

  9
$DIMASO
 70
     1
  9
$DIMSHO
 70
     1
  9
$DIMPOST
  1

  9
$DIMAPOST
  1

  9
$DIMALT
 70
     0
  9
$DIMALTD
 70
     3
  9
$DIMALTF
 40
0.0393700787
  9
$DIMLFAC
 40
1.0
  9
$DIMTOFL
 70
     1
  9
$DIMTVP
 40
0.0
  9
$DIMTIX
 70
     0
  9
$DIMSOXD
 70
     0
  9
$DIMSAH
 70
     0
  9
$DIMBLK1
  1

  9
$DIMBLK2
  1

  9
$DIMSTYLE
  2
ISO-25
  9
$DIMCLRD
 70
     0
  9
$DIMCLRE
 70
     0
  9
$DIMCLRT
 70
     0
  9
$DIMTFAC
 40
1.0
  9
$DIMGAP
 40
7.62
  9
$DIMJUST
 70
     0
  9
$DIMSD1
 70
     0
  9
$DIMSD2
 70
     0
  9
$DIMTOLJ
 70
     0
  9
$DIMTZIN
 70
     0
  9
$DIMALTZ
 70
     0
  9
$DIMALTTZ
 70
     0
  9
$DIMUPT
 70
     0
  9
$DIMDEC
 70
     2
  9
$DIMTDEC
 70
     2
  9
$DIMALTU
 70
     2
  9
$DIMALTTD
 70
     3
  9
$DIMTXSTY
  7
Standard
  9
$DIMAUNIT
 70
     0
  9
$DIMADEC
 70
     2
  9
$DIMALTRND
 40
0.0
  9
$DIMAZIN
 70
     0
  9
$DIMDSEP
 70
    44
  9
$DIMATFIT
 70
     3
  9
$DIMFRAC
 70
     0
  9
$DIMLDRBLK
  1

  9
$DIMLUNIT
 70
     2
  9
$DIMLWD
 70
    -2
  9
$DIMLWE
 70
    -2
  9
$DIMTMOVE
 70
     0
  9
$LUNITS
 70
     2
  9
$LUPREC
 70
     1
  9
$SKETCHINC
 40
1.0
  9
$FILLETRAD
 40
10.0
  9
$AUNITS
 70
     0
  9
$AUPREC
 70
     2
  9
$MENU
  1
.
  9
$ELEVATION
 40
0.0
  9
$PELEVATION
 40
0.0
  9
$THICKNESS
 40
0.0
  9
$LIMCHECK
 70
     0
  9
$CHAMFERA
 40
0.0
  9
$CHAMFERB
 40
0.0
  9
$CHAMFERC
 40
0.0
  9
$CHAMFERD
 40
0.0
  9
$SKPOLY
 70
     0
  9
$TDCREATE
 40
2458906.672952789
  9
$TDUCREATE
 40
2458906.443786123
  9
$TDUPDATE
 40
2458906.672967604
  9
$TDUUPDATE
 40
2458906.443800937
  9
$TDINDWG
 40
0.0000000116
  9
$TDUSRTIMER
 40
0.0000000116
  9
$USRTIMER
 70
     1
  9
$ANGBASE
 50
0.0
  9
$ANGDIR
 70
     0
  9
$PDMODE
 70
     0
  9
$PDSIZE
 40
-1.0
  9
$PLINEWID
 40
0.0
  9
$SPLFRAME
 70
     0
  9
$SPLINETYPE
 70
     6
  9
$SPLINESEGS
 70
     8
  9
$HANDSEED
  5
395
  9
$SURFTAB1
 70
     6
  9
$SURFTAB2
 70
     6
  9
$SURFTYPE
 70
     6
  9
$SURFU
 70
     6
  9
$SURFV
 70
     6
  9
$UCSBASE
  2

  9
$UCSNAME
  2

  9
$UCSORG
 10
0.0
 20
0.0
 30
0.0
  9
$UCSXDIR
 10
1.0
 20
0.0
 30
0.0
  9
$UCSYDIR
 10
0.0
 20
1.0
 30
0.0
  9
$UCSORTHOREF
  2

  9
$UCSORTHOVIEW
 70
     0
  9
$UCSORGTOP
 10
0.0
 20
0.0
 30
0.0
  9
$UCSORGBOTTOM
 10
0.0
 20
0.0
 30
0.0
  9
$UCSORGLEFT
 10
0.0
 20
0.0
 30
0.0
  9
$UCSORGRIGHT
 10
0.0
 20
0.0
 30
0.0
  9
$UCSORGFRONT
 10
0.0
 20
0.0
 30
0.0
  9
$UCSORGBACK
 10
0.0
 20
0.0
 30
0.0
  9
$PUCSBASE
  2

  9
$PUCSNAME
  2

  9
$PUCSORG
 10
0.0
 20
0.0
 30
0.0
  9
$PUCSXDIR
 10
1.0
 20
0.0
 30
0.0
  9
$PUCSYDIR
 10
0.0
 20
1.0
 30
0.0
  9
$PUCSORTHOREF
  2

  9
$PUCSORTHOVIEW
 70
     0
  9
$PUCSORGTOP
 10
0.0
 20
0.0
 30
0.0
  9
$PUCSORGBOTTOM
 10
0.0
 20
0.0
 30
0.0
  9
$PUCSORGLEFT
 10
0.0
 20
0.0
 30
0.0
  9
$PUCSORGRIGHT
 10
0.0
 20
0.0
 30
0.0
  9
$PUCSORGFRONT
 10
0.0
 20
0.0
 30
0.0
  9
$PUCSORGBACK
 10
0.0
 20
0.0
 30
0.0
  9
$USERI1
 70
     0
  9
$USERI2
 70
     0
  9
$USERI3
 70
     0
  9
$USERI4
 70
     0
  9
$USERI5
 70
     0
  9
$USERR1
 40
0.0
  9
$USERR2
 40
0.0
  9
$USERR3
 40
0.0
  9
$USERR4
 40
0.0
  9
$USERR5
 40
0.0
  9
$WORLDVIEW
 70
     1
  9
$SHADEDGE
 70
     3
  9
$SHADEDIF
 70
    70
  9
$TILEMODE
 70
     1
  9
$MAXACTVP
 70
    64
  9
$PINSBASE
 10
0.0
 20
0.0
 30
0.0
  9
$PLIMCHECK
 70
     0
  9
$PEXTMIN
 10
1.0000000000E+20
 20
1.0000000000E+20
 30
1.0000000000E+20
  9
$PEXTMAX
 10
-1.0000000000E+20
 20
-1.0000000000E+20
 30
-1.0000000000E+20
  9
$PLIMMIN
 10
0.0
 20
0.0
  9
$PLIMMAX
 10
420.0
 20
297.0
  9
$UNITMODE
 70
     0
  9
$VISRETAIN
 70
     1
  9
$PLINEGEN
 70
     0
  9
$PSLTSCALE
 70
     1
  9
$TREEDEPTH
 70
  3020
  9
$CMLSTYLE
  2
Standard
  9
$CMLJUST
 70
     0
  9
$CMLSCALE
 40
20.0
  9
$PROXYGRAPHICS
 70
     1
  9
$MEASUREMENT
 70
     1
  9
$CELWEIGHT
370
    -1
  9
$ENDCAPS
280
     0
  9
$JOINSTYLE
280
     0
  9
$LWDISPLAY
290
     1
  9
$INSUNITS
 70
     4
  9
$HYPERLINKBASE
  1

  9
$STYLESHEET
  1

  9
$XEDIT
290
     1
  9
$CEPSNTYPE
380
     0
  9
$PSTYLEMODE
290
     1
  9
$FINGERPRINTGUID
  2
{c8b78552-f796-4984-882e-530de792c173}
  9
$VERSIONGUID
  2
{FAEB1C32-E019-11D5-929B-00C0DF256EC4}
  9
$EXTNAMES
290
     1
  9
$PSVPSCALE
 40
0.0
  9
$OLESTARTUP
290
     0
  0
ENDSEC
  0
SECTION
  2
CLASSES
  0
CLASS
  1
ACDBDICTIONARYWDFLT
  2
AcDbDictionaryWithDefault
  3
ObjectDBX Classes
 90
        0
280
     0
281
     0
  0
CLASS
  1
VISUALSTYLE
  2
AcDbVisualStyle
  3
ObjectDBX Classes
 90
     4095
280
     0
281
     0
  0
CLASS
  1
MATERIAL
  2
AcDbMaterial
  3
ObjectDBX Classes
 90
     1153
280
     0
281
     0
  0
CLASS
  1
SCALE
  2
AcDbScale
  3
ObjectDBX Classes
 90
     1153
280
     0
281
     0
  0
CLASS
  1
TABLESTYLE
  2
AcDbTableStyle
  3
ObjectDBX Classes
 90
     4095
280
     0
281
     0
  0
CLASS
  1
MLEADERSTYLE
  2
AcDbMLeaderStyle
  3
ACDB_MLEADERSTYLE_CLASS
 90
     4095
280
     0
281
     0
  0
CLASS
  1
SUN
  2
AcDbSun
  3
SCENEOE
 90
     1153
280
     0
281
     0
  0
CLASS
  1
ACDBPLACEHOLDER
  2
AcDbPlaceHolder
  3
ObjectDBX Classes
 90
        0
280
     0
281
     0
  0
CLASS
  1
LAYOUT
  2
AcDbLayout
  3
ObjectDBX Classes
 90
        0
280
     0
281
     0
  0
ENDSEC
  0
SECTION
  2
TABLES
  0
TABLE
  2
VPORT
  5
8
330
0
100
AcDbSymbolTable
 70
     1
  0
VPORT
  5
29
330
8
100
AcDbSymbolTableRecord
100
AcDbViewportTableRecord
  2
*Active
 70
     0
 10
0.0
 20
0.0
 11
1.0
 21
1.0
 12
1485.0
 22
1050.0
 13
0.0
 23
0.0
 14
10.0
 24
10.0
 15
10.0
 25
10.0
 16
0.0
 26
0.0
 36
1.0
 17
0.0
 27
0.0
 37
0.0
 40
2100.0
 41
1.4142857143
 42
50.0
 43
0.0
 44
0.0
 50
0.0
 51
0.0
 71
     0
 72
  2000
 73
     1
 74
     3
 75
     0
 76
     0
 77
     0
 78
     0
281
     0
 65
     1
110
0.0
120
0.0
130
0.0
111
1.0
121
0.0
131
0.0
112
0.0
122
1.0
132
0.0
 79
     0
146
0.0
  0
ENDTAB
  0
TABLE
  2
LTYPE
  5
5
330
0
100
AcDbSymbolTable
 70
     6
  0
LTYPE
  5
14
330
5
100
AcDbSymbolTableRecord
100
AcDbLinetypeTableRecord
  2
ByBlock
 70
     0
  3

 72
    65
 73
     0
 40
0.0
  0
LTYPE
  5
15
330
5
100
AcDbSymbolTableRecord
100
AcDbLinetypeTableRecord
  2
ByLayer
 70
     0
  3

 72
    65
 73
     0
 40
0.0
  0
LTYPE
  5
16
330
5
100
AcDbSymbolTableRecord
100
AcDbLinetypeTableRecord
  2
Continuous
 70
     0
  3
Solid line
 72
    65
 73
     0
 40
0.0
  0
LTYPE
  5
6E
330
5
100
AcDbSymbolTableRecord
100
AcDbLinetypeTableRecord
  2
HIDDEN
 70
     0
  3
Hidden __ __ __ __ __ __ __ __ __ __ __ __ __ __
 72
    65
 73
     2
 40
1.905
 49
1.27
 74
     0
 49
-0.635
 74
     0
  0
LTYPE
  5
6F
330
5
100
AcDbSymbolTableRecord
100
AcDbLinetypeTableRecord
  2
PHANTOM
 70
     0
  3
Phantom ______  __  __  ______  __  __  ______
 72
    65
 73
     6
 40
12.7
 49
6.35
 74
     0
 49
-1.27
 74
     0
 49
1.27
 74
     0
 49
-1.27
 74
     0
 49
1.27
 74
     0
 49
-1.27
 74
     0
  0
LTYPE
  5
70
330
5
100
AcDbSymbolTableRecord
100
AcDbLinetypeTableRecord
  2
CENTER
 70
     0
  3
Center ____ _ ____ _ ____ _ ____ _ ____ _ ____
 72
    65
 73
     4
 40
10.16
 49
6.35
 74
     0
 49
-1.27
 74
     0
 49
1.27
 74
     0
 49
-1.27
 74
     0
  0
LTYPE
  5
71
330
5
100
AcDbSymbolTableRecord
100
AcDbLinetypeTableRecord
  2
CENTERX2
 70
     0
  3
Center (2x) ________  __  ________  __  _____
 72
    65
 73
     4
 40
20.32
 49
12.7
 74
     0
 49
-2.54
 74
     0
 49
2.54
 74
     0
 49
-2.54
 74
     0
  0
LTYPE
  5
72
330
5
100
AcDbSymbolTableRecord
100
AcDbLinetypeTableRecord
  2
DOT2
 70
     0
  3
Dot (.5x) ........................................
 72
    65
 73
     2
 40
0.635
 49
0.0
 74
     0
 49
-0.635
 74
     0
  0
ENDTAB
  0
TABLE
  2
LAYER
  5
2
330
0
100
AcDbSymbolTable
 70
    10
  0
LAYER
  5
10
330
2
100
AcDbSymbolTableRecord
100
AcDbLayerTableRecord
  2
0
 70
     0
 62
     7
  6
Continuous
370
    -3
390
F
  0
LAYER
  5
73
330
2
100
AcDbSymbolTableRecord
100
AcDbLayerTableRecord
  2
DIMENSION
 70
     0
 62
     7
  6
Continuous
370
    -3
390
F
  0
LAYER
  5
74
330
2
100
AcDbSymbolTableRecord
100
AcDbLayerTableRecord
  2
NOTES
 70
     0
 62
     7
  6
Continuous
370
    -3
390
F
  0
LAYER
  5
75
330
2
100
AcDbSymbolTableRecord
100
AcDbLayerTableRecord
  2
TABLES
 70
     0
 62
     7
  6
Continuous
370
    -3
390
F
  0
LAYER
  5
76
330
2
100
AcDbSymbolTableRecord
100
AcDbLayerTableRecord
  2
INVISIBLE
 70
     0
 62
    -7
  6
Continuous
290
     0
370
    -3
390
F
  0
LAYER
  5
77
330
2
100
AcDbSymbolTableRecord
100
AcDbLayerTableRecord
  2
WEP
 70
     0
 62
  -150
  6
Continuous
290
     0
370
    -3
390
F
  0
LAYER
  5
78
330
2
100
AcDbSymbolTableRecord
100
AcDbLayerTableRecord
  2
EMP
 70
     0
 62
     1
  6
Continuous
370
    -3
390
F
  0
LAYER
  5
79
330
2
100
AcDbSymbolTableRecord
100
AcDbLayerTableRecord
  2
MARKETING_DRW
 70
     0
 62
    -7
  6
Continuous
290
     0
370
    -3
390
F
  0
LAYER
  5
7A
330
2
100
AcDbSymbolTableRecord
100
AcDbLayerTableRecord
  2
SINGLE_ARTICLE_DRW
 70
     0
 62
    -7
  6
Continuous
290
     0
370
    -3
390
F
  0
LAYER
  5
7B
330
2
100
AcDbSymbolTableRecord
100
AcDbLayerTableRecord
  2
TABLE_DRW
 70
     0
 62
     7
  6
Continuous
370
    -3
390
F
  0
ENDTAB
  0
TABLE
  2
STYLE
  5
3
330
0
100
AcDbSymbolTable
 70
     2
  0
STYLE
  5
11
330
3
100
AcDbSymbolTableRecord
100
AcDbTextStyleTableRecord
  2
Standard
 70
     0
 40
0.0
 41
1.0
 50
0.0
 71
     0
 42
12.5
  3
txt
  4

  0
STYLE
  5
B5
330
3
100
AcDbSymbolTableRecord
100
AcDbTextStyleTableRecord
  2
SLDTEXTSTYLE0
 70
     0
 40
0.0
 41
0.605
 50
0.0
 71
     0
 42
12.5
  3
TXT
  4

  0
ENDTAB
  0
TABLE
  2
VIEW
  5
6
330
0
100
AcDbSymbolTable
 70
     0
  0
ENDTAB
  0
TABLE
  2
UCS
  5
7
330
0
100
AcDbSymbolTable
 70
     0
  0
ENDTAB
  0
TABLE
  2
APPID
  5
9
330
0
100
AcDbSymbolTable
 70
     1
  0
APPID
  5
12
330
9
100
AcDbSymbolTableRecord
100
AcDbRegAppTableRecord
  2
ACAD
 70
     0
  0
ENDTAB
  0
TABLE
  2
DIMSTYLE
  5
A
330
0
100
AcDbSymbolTable
 70
     1
100
AcDbDimStyleTable
  0
DIMSTYLE
105
27
330
A
100
AcDbSymbolTableRecord
100
AcDbDimStyleTableRecord
  2
ISO-25
 70
     0
 41
2.5
 42
0.625
 43
3.75
 44
1.25
 73
     0
 74
     0
 77
     1
 78
     8
140
2.5
141
2.5
143
0.0393700787
147
0.625
171
     3
172
     1
178
     0
271
     2
272
     2
274
     3
278
    44
283
     0
284
     8
340
11
  0
ENDTAB
  0
TABLE
  2
BLOCK_RECORD
  5
1
330
0
100
AcDbSymbolTable
 70
     3
  0
BLOCK_RECORD
  5
1F
330
1
100
AcDbSymbolTableRecord
100
AcDbBlockTableRecord
  2
*Model_Space
340
22
  0
BLOCK_RECORD
  5
1B
330
1
100
AcDbSymbolTableRecord
100
AcDbBlockTableRecord
  2
*Paper_Space
340
1E
  0
BLOCK_RECORD
  5
23
330
1
100
AcDbSymbolTableRecord
100
AcDbBlockTableRecord
  2
*Paper_Space0
340
26
  0
BLOCK_RECORD
  5
C8
330
1
100
AcDbSymbolTableRecord
100
AcDbBlockTableRecord
  2
SW_NOTE_0
340
0
102
{BLKREFS
331
CE
102
}
  0
BLOCK_RECORD
  5
E8
330
1
100
AcDbSymbolTableRecord
100
AcDbBlockTableRecord
  2
SW_NOTE_0_1
340
0
102
{BLKREFS
331
EE
102
}
  0
ENDTAB
  0
ENDSEC
  0
SECTION
  2
BLOCKS
  0
BLOCK
  5
20
330
1F
100
AcDbEntity
  8
0
100
AcDbBlockBegin
  2
*Model_Space
 70
     0
 10
0.0
 20
0.0
 30
0.0
  3
*Model_Space
  1

  0
ENDBLK
  5
21
330
1F
100
AcDbEntity
  8
0
100
AcDbBlockEnd
  0
BLOCK
  5
1C
330
1B
100
AcDbEntity
 67
     1
  8
0
100
AcDbBlockBegin
  2
*Paper_Space
 70
     0
 10
0.0
 20
0.0
 30
0.0
  3
*Paper_Space
  1

  0
ENDBLK
  5
1D
330
1B
100
AcDbEntity
 67
     1
  8
0
100
AcDbBlockEnd
  0
BLOCK
  5
24
330
23
100
AcDbEntity
  8
0
100
AcDbBlockBegin
  2
*Paper_Space0
 70
     0
 10
0.0
 20
0.0
 30
0.0
  3
*Paper_Space0
  1

  0
ENDBLK
  5
25
330
23
100
AcDbEntity
  8
0
100
AcDbBlockEnd
  0
BLOCK
  5
C9
330
C8
100
AcDbEntity
  8
0
100
AcDbBlockBegin
  2
SW_NOTE_0
 70
     0
 10
0.0
 20
0.0
 30
0.0
  3
SW_NOTE_0
  1

  0
MTEXT
  5
CB
330
C8
100
AcDbEntity
  8
SINGLE_ARTICLE_DRW
 62
     0
100
AcDbMText
 10
0.0
 20
11.6016096579
 30
0.0
 40
9.0
 41
0.0
 71
     1
 72
     1
  1
The reproduction, distribution and utilization of this document as well as the communication of its contents to
  7
SLDTEXTSTYLE0
 73
     1
 44
1.0
  0
MTEXT
  5
CC
330
C8
100
AcDbEntity
  8
SINGLE_ARTICLE_DRW
 62
     0
100
AcDbMText
 10
0.0
 20
0.0016098055
 30
0.0
 40
9.0
 41
0.0
 71
     1
 72
     1
  1
others without express authorization is prohibited. Offenders will be held liable for the payment of damages.
  7
SLDTEXTSTYLE0
 73
     1
 44
1.0
  0
MTEXT
  5
CD
330
C8
100
AcDbEntity
  8
SINGLE_ARTICLE_DRW
 62
     0
100
AcDbMText
 10
0.0
 20
-11.598390047
 30
0.0
 40
9.0
 41
0.0
 71
     1
 72
     1
  1
All rights reserved in the event of the grant of a patent, utility model or design. Observe copyright by ISO 16016
  7
SLDTEXTSTYLE0
 73
     1
 44
1.0
  0
ENDBLK
  5
CA
330
C8
100
AcDbEntity
  8
0
100
AcDbBlockEnd
  0
BLOCK
  5
E9
330
E8
100
AcDbEntity
  8
0
100
AcDbBlockBegin
  2
SW_NOTE_0_1
 70
     0
 10
0.0
 20
0.0
 30
0.0
  3
SW_NOTE_0_1
  1

  0
MTEXT
  5
EB
330
E8
100
AcDbEntity
  8
MARKETING_DRW
 62
     0
100
AcDbMText
 10
0.0
 20
11.6016096579
 30
0.0
 40
9.0
 41
0.0
 71
     1
 72
     1
  1
The reproduction, distribution and utilization of this document as well as the communication of its contents to
  7
SLDTEXTSTYLE0
 73
     1
 44
1.0
  0
MTEXT
  5
EC
330
E8
100
AcDbEntity
  8
MARKETING_DRW
 62
     0
100
AcDbMText
 10
0.0
 20
-0.0233903849
 30
0.0
 40
9.0
 41
0.0
 71
     1
 72
     1
  1
others without express authorization is prohibited. Offenders will be held liable for the payment of damages.
  7
SLDTEXTSTYLE0
 73
     1
 44
1.0
  0
MTEXT
  5
ED
330
E8
100
AcDbEntity
  8
MARKETING_DRW
 62
     0
100
AcDbMText
 10
0.0
 20
-11.6483904277
 30
0.0
 40
9.0
 41
0.0
 71
     1
 72
     1
  1
All rights reserved in the event of the grant of a patent, utility model or design. Observe copyright by ISO 16016
  7
SLDTEXTSTYLE0
 73
     1
 44
1.0
  0
ENDBLK
  5
EA
330
E8
100
AcDbEntity
  8
0
100
AcDbBlockEnd
  0
ENDSEC
  0
SECTION
  2
ENTITIES
  0
LINE
  5
7C
330
1F
100
AcDbEntity
  8
SINGLE_ARTICLE_DRW
  6
CENTERX2
 62
     7
100
AcDbLine
 10
2825.0
 20
200.0
 30
0.0
 11
2850.0
 21
200.0
 31
0.0
  0
LINE
  5
7D
330
1F
100
AcDbEntity
  8
SINGLE_ARTICLE_DRW
  6
CENTERX2
 62
     7
100
AcDbLine
 10
2837.5
 20
212.5
 30
0.0
 11
2837.5
 21
187.5
 31
0.0
  0
LINE
  5
7E
330
1F
100
AcDbEntity
  8
SINGLE_ARTICLE_DRW
  6
CENTERX2
 62
     7
100
AcDbLine
 10
2785.0
 20
200.0
 30
0.0
 11
2820.0
 21
200.0
 31
0.0
  0
LINE
  5
7F
330
1F
100
AcDbEntity
  8
SINGLE_ARTICLE_DRW
 62
     7
100
AcDbLine
 10
2790.0
 20
194.95
 30
0.0
 11
2815.0
 21
190.0
 31
0.0
  0
LINE
  5
80
330
1F
100
AcDbEntity
  8
SINGLE_ARTICLE_DRW
 62
     7
100
AcDbLine
 10
2790.0
 20
205.05
 30
0.0
 11
2790.0
 21
194.95
 31
0.0
  0
LINE
  5
81
330
1F
100
AcDbEntity
  8
SINGLE_ARTICLE_DRW
 62
     7
100
AcDbLine
 10
2815.0
 20
210.0
 30
0.0
 11
2790.0
 21
205.05
 31
0.0
  0
LINE
  5
82
330
1F
100
AcDbEntity
  8
SINGLE_ARTICLE_DRW
 62
     7
100
AcDbLine
 10
2815.0
 20
190.0
 30
0.0
 11
2815.0
 21
210.0
 31
0.0
  0
LINE
  5
83
330
1F
100
AcDbEntity
  8
SINGLE_ARTICLE_DRW
 62
     7
100
AcDbLine
 10
2920.0
 20
50.0
 30
0.0
 11
2920.0
 21
340.0
 31
0.0
  0
LINE
  5
84
330
1F
100
AcDbEntity
  8
SINGLE_ARTICLE_DRW
 62
     7
100
AcDbLine
 10
2020.0
 20
340.0
 30
0.0
 11
2020.0
 21
50.0
 31
0.0
  0
LINE
  5
85
330
1F
100
AcDbEntity
  8
SINGLE_ARTICLE_DRW
 62
     7
100
AcDbLine
 10
2570.0
 20
95.0
 30
0.0
 11
2570.0
 21
50.0
 31
0.0
  0
LINE
  5
86
330
1F
100
AcDbEntity
  8
SINGLE_ARTICLE_DRW
 62
     7
100
AcDbLine
 10
2720.0
 20
50.0
 30
0.0
 11
2720.0
 21
95.0
 31
0.0
  0
LINE
  5
87
330
1F
100
AcDbEntity
  8
SINGLE_ARTICLE_DRW
 62
     7
100
AcDbLine
 10
2870.0
 20
95.0
 30
0.0
 11
2870.0
 21
50.0
 31
0.0
  0
LINE
  5
88
330
1F
100
AcDbEntity
  8
SINGLE_ARTICLE_DRW
 62
     7
100
AcDbLine
 10
2770.0
 20
320.0
 30
0.0
 11
2770.0
 21
185.0
 31
0.0
  0
LINE
  5
89
330
1F
100
AcDbEntity
  8
SINGLE_ARTICLE_DRW
 62
     7
100
AcDbLine
 10
2920.0
 20
320.0
 30
0.0
 11
2020.0
 21
320.0
 31
0.0
  0
LINE
  5
8A
330
1F
100
AcDbEntity
  8
SINGLE_ARTICLE_DRW
 62
     7
100
AcDbLine
 10
2670.0
 20
95.0
 30
0.0
 11
2670.0
 21
50.0
 31
0.0
  0
LINE
  5
8B
330
1F
100
AcDbEntity
  8
SINGLE_ARTICLE_DRW
 62
     7
100
AcDbLine
 10
2920.0
 20
275.0
 30
0.0
 11
2270.0
 21
275.0
 31
0.0
  0
LINE
  5
8C
330
1F
100
AcDbEntity
  8
SINGLE_ARTICLE_DRW
 62
     7
100
AcDbLine
 10
2520.0
 20
230.0
 30
0.0
 11
2520.0
 21
185.0
 31
0.0
  0
LINE
  5
8D
330
1F
100
AcDbEntity
  8
SINGLE_ARTICLE_DRW
 62
     7
100
AcDbLine
 10
2920.0
 20
230.0
 30
0.0
 11
2270.0
 21
230.0
 31
0.0
  0
LINE
  5
8E
330
1F
100
AcDbEntity
  8
SINGLE_ARTICLE_DRW
 62
     7
100
AcDbLine
 10
2270.0
 20
320.0
 30
0.0
 11
2270.0
 21
185.0
 31
0.0
  0
LINE
  5
8F
330
1F
100
AcDbEntity
  8
SINGLE_ARTICLE_DRW
 62
     7
100
AcDbLine
 10
2870.0
 20
230.0
 30
0.0
 11
2870.0
 21
185.0
 31
0.0
  0
LINE
  5
90
330
1F
100
AcDbEntity
  8
SINGLE_ARTICLE_DRW
 62
     7
100
AcDbLine
 10
2920.0
 20
95.0
 30
0.0
 11
2020.0
 21
95.0
 31
0.0
  0
LINE
  5
91
330
1F
100
AcDbEntity
  8
SINGLE_ARTICLE_DRW
 62
     7
100
AcDbLine
 10
2520.0
 20
275.0
 30
0.0
 11
2520.0
 21
320.0
 31
0.0
  0
LINE
  5
92
330
1F
100
AcDbEntity
  8
SINGLE_ARTICLE_DRW
 62
     7
100
AcDbLine
 10
2020.0
 20
340.0
 30
0.0
 11
2920.0
 21
340.0
 31
0.0
  0
LINE
  5
93
330
1F
100
AcDbEntity
  8
SINGLE_ARTICLE_DRW
 62
     7
100
AcDbLine
 10
2020.0
 20
185.0
 30
0.0
 11
2920.0
 21
185.0
 31
0.0
  0
LINE
  5
94
330
1F
100
AcDbEntity
  8
SINGLE_ARTICLE_DRW
 62
     7
100
AcDbLine
 10
2020.0
 20
50.0
 30
0.0
 11
2920.0
 21
50.0
 31
0.0
  0
LINE
  5
95
330
1F
100
AcDbEntity
  8
SINGLE_ARTICLE_DRW
 62
     7
100
AcDbLine
 10
2270.0
 20
275.0
 30
0.0
 11
2020.0
 21
275.0
 31
0.0
  0
LINE
  5
96
330
1F
100
AcDbEntity
  8
MARKETING_DRW
  6
CENTERX2
100
AcDbLine
 10
2825.0
 20
200.0
 30
0.0
 11
2850.0
 21
200.0
 31
0.0
  0
LINE
  5
97
330
1F
100
AcDbEntity
  8
MARKETING_DRW
  6
CENTERX2
100
AcDbLine
 10
2837.5
 20
212.5
 30
0.0
 11
2837.5
 21
187.5
 31
0.0
  0
LINE
  5
98
330
1F
100
AcDbEntity
  8
MARKETING_DRW
  6
CENTERX2
100
AcDbLine
 10
2785.0
 20
200.0
 30
0.0
 11
2820.0
 21
200.0
 31
0.0
  0
LINE
  5
99
330
1F
100
AcDbEntity
  8
MARKETING_DRW
100
AcDbLine
 10
2790.0
 20
194.95
 30
0.0
 11
2815.0
 21
190.0
 31
0.0
  0
LINE
  5
9A
330
1F
100
AcDbEntity
  8
MARKETING_DRW
100
AcDbLine
 10
2790.0
 20
205.05
 30
0.0
 11
2790.0
 21
194.95
 31
0.0
  0
LINE
  5
9B
330
1F
100
AcDbEntity
  8
MARKETING_DRW
100
AcDbLine
 10
2815.0
 20
210.0
 30
0.0
 11
2790.0
 21
205.05
 31
0.0
  0
LINE
  5
9C
330
1F
100
AcDbEntity
  8
MARKETING_DRW
100
AcDbLine
 10
2815.0
 20
190.0
 30
0.0
 11
2815.0
 21
210.0
 31
0.0
  0
LINE
  5
9D
330
1F
100
AcDbEntity
  8
MARKETING_DRW
100
AcDbLine
 10
2920.0
 20
50.0
 30
0.0
 11
2920.0
 21
230.0
 31
0.0
  0
LINE
  5
9E
330
1F
100
AcDbEntity
  8
MARKETING_DRW
100
AcDbLine
 10
2020.0
 20
50.0
 30
0.0
 11
2920.0
 21
50.0
 31
0.0
  0
LINE
  5
9F
330
1F
100
AcDbEntity
  8
MARKETING_DRW
100
AcDbLine
 10
2020.0
 20
275.0
 30
0.0
 11
2020.0
 21
50.0
 31
0.0
  0
LINE
  5
A0
330
1F
100
AcDbEntity
  8
MARKETING_DRW
100
AcDbLine
 10
2020.0
 20
275.0
 30
0.0
 11
2520.0
 21
275.0
 31
0.0
  0
LINE
  5
A1
330
1F
100
AcDbEntity
  8
MARKETING_DRW
100
AcDbLine
 10
2720.0
 20
50.0
 30
0.0
 11
2720.0
 21
95.0
 31
0.0
  0
LINE
  5
A2
330
1F
100
AcDbEntity
  8
MARKETING_DRW
100
AcDbLine
 10
2870.0
 20
95.0
 30
0.0
 11
2870.0
 21
50.0
 31
0.0
  0
LINE
  5
A3
330
1F
100
AcDbEntity
  8
MARKETING_DRW
100
AcDbLine
 10
2520.0
 20
275.0
 30
0.0
 11
2520.0
 21
230.0
 31
0.0
  0
LINE
  5
A4
330
1F
100
AcDbEntity
  8
MARKETING_DRW
100
AcDbLine
 10
2920.0
 20
230.0
 30
0.0
 11
2270.0
 21
230.0
 31
0.0
  0
LINE
  5
A5
330
1F
100
AcDbEntity
  8
MARKETING_DRW
100
AcDbLine
 10
2270.0
 20
275.0
 30
0.0
 11
2270.0
 21
185.0
 31
0.0
  0
LINE
  5
A6
330
1F
100
AcDbEntity
  8
MARKETING_DRW
100
AcDbLine
 10
2870.0
 20
230.0
 30
0.0
 11
2870.0
 21
185.0
 31
0.0
  0
LINE
  5
A7
330
1F
100
AcDbEntity
  8
MARKETING_DRW
100
AcDbLine
 10
2920.0
 20
95.0
 30
0.0
 11
2020.0
 21
95.0
 31
0.0
  0
LINE
  5
A8
330
1F
100
AcDbEntity
  8
MARKETING_DRW
100
AcDbLine
 10
2020.0
 20
185.0
 30
0.0
 11
2920.0
 21
185.0
 31
0.0
  0
LINE
  5
A9
330
1F
100
AcDbEntity
  8
MARKETING_DRW
100
AcDbLine
 10
2020.0
 20
50.0
 30
0.0
 11
2920.0
 21
50.0
 31
0.0
  0
LINE
  5
AA
330
1F
100
AcDbEntity
  8
MARKETING_DRW
100
AcDbLine
 10
2770.0
 20
230.0
 30
0.0
 11
2770.0
 21
185.0
 31
0.0
  0
LINE
  5
AB
330
1F
100
AcDbEntity
  8
MARKETING_DRW
100
AcDbLine
 10
2520.0
 20
275.0
 30
0.0
 11
2770.0
 21
275.0
 31
0.0
  0
LINE
  5
AC
330
1F
100
AcDbEntity
  8
MARKETING_DRW
100
AcDbLine
 10
2770.0
 20
275.0
 30
0.0
 11
2770.0
 21
230.0
 31
0.0
  0
LINE
  5
AD
330
1F
100
AcDbEntity
  8
MARKETING_DRW
100
AcDbLine
 10
2770.0
 20
275.0
 30
0.0
 11
2920.0
 21
275.0
 31
0.0
  0
LINE
  5
AE
330
1F
100
AcDbEntity
  8
MARKETING_DRW
100
AcDbLine
 10
2920.0
 20
275.0
 30
0.0
 11
2920.0
 21
230.0
 31
0.0
  0
LINE
  5
AF
330
1F
100
AcDbEntity
  8
MARKETING_DRW
100
AcDbLine
 10
2695.0
 20
275.0
 30
0.0
 11
2695.0
 21
230.0
 31
0.0
  0
LINE
  5
B0
330
1F
100
AcDbEntity
  8
MARKETING_DRW
100
AcDbLine
 10
2520.0
 20
230.0
 30
0.0
 11
2520.0
 21
185.0
 31
0.0
  0
CIRCLE
  5
B1
330
1F
100
AcDbEntity
  8
SINGLE_ARTICLE_DRW
 62
     7
100
AcDbCircle
 10
2837.5
 20
200.0
 30
0.0
 40
5.000000000000224
  0
CIRCLE
  5
B2
330
1F
100
AcDbEntity
  8
SINGLE_ARTICLE_DRW
 62
     7
100
AcDbCircle
 10
2837.5
 20
200.0
 30
0.0
 40
10.00000000000046
  0
CIRCLE
  5
B3
330
1F
100
AcDbEntity
  8
MARKETING_DRW
100
AcDbCircle
 10
2837.5
 20
200.0
 30
0.0
 40
4.99999999999979
  0
CIRCLE
  5
B4
330
1F
100
AcDbEntity
  8
MARKETING_DRW
100
AcDbCircle
 10
2837.5
 20
200.0
 30
0.0
 40
10.00000000000002
  0
MTEXT
  5
B6
330
1F
100
AcDbEntity
  8
SINGLE_ARTICLE_DRW
100
AcDbMText
 10
2025.0
 20
179.9766099061
 30
0.0
 40
9.0
 41
0.0
 71
     1
 72
     1
  1
title:
  7
SLDTEXTSTYLE0
 73
     1
 44
1.0
  0
MTEXT
  5
B7
330
1F
100
AcDbEntity
  8
SINGLE_ARTICLE_DRW
100
AcDbMText
 10
2025.0
 20
314.9766099061
 30
0.0
 40
9.0
 41
0.0
 71
     1
 72
     1
  1
technical reference:
  7
SLDTEXTSTYLE0
 73
     1
 44
1.0
  0
MTEXT
  5
B8
330
1F
100
AcDbEntity
  8
SINGLE_ARTICLE_DRW
100
AcDbMText
 10
2894.7829862405
 20
69.9675136777
 30
0.0
 40
12.5
 41
0.0
 71
     2
 72
     1
  1
1/1
  7
SLDTEXTSTYLE0
 73
     1
 44
1.0
  0
MTEXT
  5
B9
330
1F
100
AcDbEntity
  8
SINGLE_ARTICLE_DRW
100
AcDbMText
 10
2894.7829862405
 20
204.9675136777
 30
0.0
 40
12.5
 41
0.0
 71
     2
 72
     1
  1
1:5
  7
SLDTEXTSTYLE0
 73
     1
 44
1.0
  0
MTEXT
  5
BA
330
1F
100
AcDbEntity
  8
SINGLE_ARTICLE_DRW
100
AcDbMText
 10
2275.0
 20
314.9766099061
 30
0.0
 40
9.0
 41
0.0
 71
     1
 72
     1
  1
general tolerance:
  7
SLDTEXTSTYLE0
 73
     1
 44
1.0
  0
MTEXT
  5
BB
330
1F
100
AcDbEntity
  8
SINGLE_ARTICLE_DRW
100
AcDbMText
 10
2775.0
 20
249.9675136777
 30
0.0
 40
12.5
 41
0.0
 71
     1
 72
     1
  1
production drw.
  7
SLDTEXTSTYLE0
 73
     1
 44
1.0
  0
MTEXT
  5
BC
330
1F
100
AcDbEntity
  8
SINGLE_ARTICLE_DRW
100
AcDbMText
 10
2275.0
 20
269.9766099061
 30
0.0
 40
9.0
 41
0.0
 71
     1
 72
     1
  1
material:
  7
SLDTEXTSTYLE0
 73
     1
 44
1.0
  0
MTEXT
  5
BD
330
1F
100
AcDbEntity
  8
SINGLE_ARTICLE_DRW
100
AcDbMText
 10
2775.0
 20
224.9766099061
 30
0.0
 40
9.0
 41
0.0
 71
     1
 72
     1
  1
projection:ISO-E
  7
SLDTEXTSTYLE0
 73
     1
 44
1.0
  0
MTEXT
  5
BE
330
1F
100
AcDbEntity
  8
SINGLE_ARTICLE_DRW
100
AcDbMText
 10
2894.7500000913
 20
89.9766099061
 30
0.0
 40
9.0
 41
0.0
 71
     2
 72
     1
  1
sheet:
  7
SLDTEXTSTYLE0
 73
     1
 44
1.0
  0
MTEXT
  5
BF
330
1F
100
AcDbEntity
  8
SINGLE_ARTICLE_DRW
100
AcDbMText
 10
2725.0
 20
89.9766099061
 30
0.0
 40
9.0
 41
0.0
 71
     1
 72
     1
  1
release date:
  7
SLDTEXTSTYLE0
 73
     1
 44
1.0
  0
MTEXT
  5
C0
330
1F
100
AcDbEntity
  8
SINGLE_ARTICLE_DRW
100
AcDbMText
 10
2525.0
 20
224.9766099061
 30
0.0
 40
9.0
 41
0.0
 71
     1
 72
     1
  1
reviewed by:
  7
SLDTEXTSTYLE0
 73
     1
 44
1.0
  0
MTEXT
  5
C1
330
1F
100
AcDbEntity
  8
SINGLE_ARTICLE_DRW
100
AcDbMText
 10
2694.8125000894
 20
89.9766099061
 30
0.0
 40
9.0
 41
0.0
 71
     2
 72
     1
  1
index:
  7
SLDTEXTSTYLE0
 73
     1
 44
1.0
  0
MTEXT
  5
C2
330
1F
100
AcDbEntity
  8
SINGLE_ARTICLE_DRW
100
AcDbMText
 10
2775.0
 20
269.9766099061
 30
0.0
 40
9.0
 41
0.0
 71
     1
 72
     1
  1
documenttype:
  7
SLDTEXTSTYLE0
 73
     1
 44
1.0
  0
MTEXT
  5
C3
330
1F
100
AcDbEntity
  8
SINGLE_ARTICLE_DRW
100
AcDbMText
 10
2619.034373872
 20
89.9766099061
 30
0.0
 40
9.0
 41
0.0
 71
     2
 72
     1
  1
drawing-no.:
  7
SLDTEXTSTYLE0
 73
     1
 44
1.0
  0
MTEXT
  5
C4
330
1F
100
AcDbEntity
  8
SINGLE_ARTICLE_DRW
100
AcDbMText
 10
2775.0
 20
314.9766099061
 30
0.0
 40
9.0
 41
0.0
 71
     1
 72
     1
  1
weight:
  7
SLDTEXTSTYLE0
 73
     1
 44
1.0
  0
MTEXT
  5
C5
330
1F
100
AcDbEntity
  8
SINGLE_ARTICLE_DRW
100
AcDbMText
 10
2894.8750000875
 20
224.9766099061
 30
0.0
 40
9.0
 41
0.0
 71
     2
 72
     1
  1
scale:
  7
SLDTEXTSTYLE0
 73
     1
 44
1.0
  0
MTEXT
  5
C6
330
1F
100
AcDbEntity
  8
SINGLE_ARTICLE_DRW
100
AcDbMText
 10
2525.0
 20
314.9766099061
 30
0.0
 40
9.0
 41
0.0
 71
     1
 72
     1
  1
surface:
  7
SLDTEXTSTYLE0
 73
     1
 44
1.0
  0
MTEXT
  5
C7
330
1F
100
AcDbEntity
  8
SINGLE_ARTICLE_DRW
100
AcDbMText
 10
2275.0
 20
224.9766099061
 30
0.0
 40
9.0
 41
0.0
 71
     1
 72
     1
  1
created by:
  7
SLDTEXTSTYLE0
 73
     1
 44
1.0
  0
INSERT
  5
CE
330
1F
100
AcDbEntity
  8
SINGLE_ARTICLE_DRW
100
AcDbBlockReference
  2
SW_NOTE_0
 10
2025.0
 20
78.4000001475
 30
0.0
  0
MTEXT
  5
CF
330
1F
100
AcDbEntity
  8
SINGLE_ARTICLE_DRW
100
AcDbMText
 10
2025.0
 20
114.9675136777
 30
0.0
 40
12.5
 41
0.0
 71
     1
 72
     1
  1
ZB Duschrinne C mit Spalt und Flansch, mit Seitenauslaß, mit FAT GV50 L780, International
  7
SLDTEXTSTYLE0
 73
     1
 44
1.0
  0
MTEXT
  5
D0
330
1F
100
AcDbEntity
  8
SINGLE_ARTICLE_DRW
100
AcDbMText
 10
2025.0
 20
137.4675136777
 30
0.0
 40
12.5
 41
0.0
 71
     1
 72
     1
  1
ASM Shower Channel C with gap and flange, with Side outlet, with FAT GV50 L780, International
  7
SLDTEXTSTYLE0
 73
     1
 44
1.0
  0
MTEXT
  5
D1
330
1F
100
AcDbEntity
  8
SINGLE_ARTICLE_DRW
100
AcDbMText
 10
2025.0
 20
295.0022357116
 30
0.0
 40
12.5
 41
0.0
 71
     1
 72
     1
  1
Tittmar, Alexander
  7
SLDTEXTSTYLE0
 73
     1
 44
1.0
  0
MTEXT
  5
D2
330
1F
100
AcDbEntity
  8
SINGLE_ARTICLE_DRW
100
AcDbMText
 10
2619.0407964215
 20
69.9675136777
 30
0.0
 40
12.5
 41
0.0
 71
     2
 72
     1
  1
1077050-O
  7
SLDTEXTSTYLE0
 73
     1
 44
1.0
  0
MTEXT
  5
D3
330
1F
100
AcDbEntity
  8
SINGLE_ARTICLE_DRW
100
AcDbMText
 10
2694.7395830229
 20
69.9675136777
 30
0.0
 40
12.5
 41
0.0
 71
     2
 72
     1
  1
001
  7
SLDTEXTSTYLE0
 73
     1
 44
1.0
  0
MTEXT
  5
D4
330
1F
100
AcDbEntity
  8
SINGLE_ARTICLE_DRW
100
AcDbMText
 10
2025.0
 20
159.9675136777
 30
0.0
 40
12.5
 41
0.0
 71
     1
 72
     1
  1
ACO ShowerDrain
  7
SLDTEXTSTYLE0
 73
     1
 44
1.0
  0
MTEXT
  5
D5
330
1F
100
AcDbEntity
  8
SINGLE_ARTICLE_DRW
100
AcDbMText
 10
2025.0
 20
334.9766099061
 30
0.0
 40
9.0
 41
0.0
 71
     1
 72
     1
  1
modification:
  7
SLDTEXTSTYLE0
 73
     1
 44
1.0
  0
MTEXT
  5
D6
330
1F
100
AcDbEntity
  8
SINGLE_ARTICLE_DRW
100
AcDbMText
 10
2775.0
 20
294.9675136777
 30
0.0
 40
12.5
 41
0.0
 71
     1
 72
     1
  1
1.837 kg
  7
SLDTEXTSTYLE0
 73
     1
 44
1.0
  0
MTEXT
  5
D7
330
1F
100
AcDbEntity
  8
MARKETING_DRW
100
AcDbMText
 10
2025.0
 20
114.9675136777
 30
0.0
 40
12.5
 41
0.0
 71
     1
 72
     1
  1
ZB Duschrinne C mit Spalt und Flansch, mit Seitenauslaß, mit FAT GV50 L780, International
  7
SLDTEXTSTYLE0
 73
     1
 44
1.0
  0
MTEXT
  5
D8
330
1F
100
AcDbEntity
  8
MARKETING_DRW
100
AcDbMText
 10
2025.0
 20
137.4675136777
 30
0.0
 40
12.5
 41
0.0
 71
     1
 72
     1
  1
ASM Shower Channel C with gap and flange, with Side outlet, with FAT GV50 L780, International
  7
SLDTEXTSTYLE0
 73
     1
 44
1.0
  0
MTEXT
  5
D9
330
1F
100
AcDbEntity
  8
MARKETING_DRW
100
AcDbMText
 10
2606.5407964215
 20
249.9675136777
 30
0.0
 40
12.5
 41
0.0
 71
     2
 72
     1
  1
1077050-O
  7
SLDTEXTSTYLE0
 73
     1
 44
1.0
  0
MTEXT
  5
DA
330
1F
100
AcDbEntity
  8
MARKETING_DRW
100
AcDbMText
 10
2732.2395830229
 20
252.0971433073
 30
0.0
 40
12.5
 41
0.0
 71
     2
 72
     1
  1
001
  7
SLDTEXTSTYLE0
 73
     1
 44
1.0
  0
MTEXT
  5
DB
330
1F
100
AcDbEntity
  8
MARKETING_DRW
100
AcDbMText
 10
2025.0
 20
159.9675136777
 30
0.0
 40
12.5
 41
0.0
 71
     1
 72
     1
  1
ACO ShowerDrain
  7
SLDTEXTSTYLE0
 73
     1
 44
1.0
  0
MTEXT
  5
DC
330
1F
100
AcDbEntity
  8
MARKETING_DRW
100
AcDbMText
 10
2775.0
 20
269.9766099061
 30
0.0
 40
9.0
 41
0.0
 71
     1
 72
     1
  1
documenttype:
  7
SLDTEXTSTYLE0
 73
     1
 44
1.0
  0
MTEXT
  5
DD
330
1F
100
AcDbEntity
  8
MARKETING_DRW
100
AcDbMText
 10
2275.0
 20
224.9766099061
 30
0.0
 40
9.0
 41
0.0
 71
     1
 72
     1
  1
created by:
  7
SLDTEXTSTYLE0
 73
     1
 44
1.0
  0
MTEXT
  5
DE
330
1F
100
AcDbEntity
  8
MARKETING_DRW
100
AcDbMText
 10
2606.534373872
 20
270.0578764559
 30
0.0
 40
9.0
 41
0.0
 71
     2
 72
     1
  1
drawing-no.:
  7
SLDTEXTSTYLE0
 73
     1
 44
1.0
  0
MTEXT
  5
DF
330
1F
100
AcDbEntity
  8
MARKETING_DRW
100
AcDbMText
 10
2525.0
 20
224.9766099061
 30
0.0
 40
9.0
 41
0.0
 71
     1
 72
     1
  1
reviewed by:
  7
SLDTEXTSTYLE0
 73
     1
 44
1.0
  0
MTEXT
  5
E0
330
1F
100
AcDbEntity
  8
MARKETING_DRW
100
AcDbMText
 10
2775.0
 20
224.9766099061
 30
0.0
 40
9.0
 41
0.0
 71
     1
 72
     1
  1
projection:ISO-E
  7
SLDTEXTSTYLE0
 73
     1
 44
1.0
  0
MTEXT
  5
E1
330
1F
100
AcDbEntity
  8
MARKETING_DRW
100
AcDbMText
 10
2894.7500000913
 20
89.9766099061
 30
0.0
 40
9.0
 41
0.0
 71
     2
 72
     1
  1
sheet:
  7
SLDTEXTSTYLE0
 73
     1
 44
1.0
  0
MTEXT
  5
E2
330
1F
100
AcDbEntity
  8
MARKETING_DRW
100
AcDbMText
 10
2894.7829862405
 20
69.9675136777
 30
0.0
 40
12.5
 41
0.0
 71
     2
 72
     1
  1
1/1
  7
SLDTEXTSTYLE0
 73
     1
 44
1.0
  0
MTEXT
  5
E3
330
1F
100
AcDbEntity
  8
MARKETING_DRW
100
AcDbMText
 10
2725.0
 20
89.9766099061
 30
0.0
 40
9.0
 41
0.0
 71
     1
 72
     1
  1
release date:
  7
SLDTEXTSTYLE0
 73
     1
 44
1.0
  0
MTEXT
  5
E4
330
1F
100
AcDbEntity
  8
MARKETING_DRW
100
AcDbMText
 10
2732.3125000894
 20
269.9766099061
 30
0.0
 40
9.0
 41
0.0
 71
     2
 72
     1
  1
index:
  7
SLDTEXTSTYLE0
 73
     1
 44
1.0
  0
MTEXT
  5
E5
330
1F
100
AcDbEntity
  8
MARKETING_DRW
100
AcDbMText
 10
2025.0
 20
179.9766099061
 30
0.0
 40
9.0
 41
0.0
 71
     1
 72
     1
  1
title:
  7
SLDTEXTSTYLE0
 73
     1
 44
1.0
  0
MTEXT
  5
E6
330
1F
100
AcDbEntity
  8
MARKETING_DRW
100
AcDbMText
 10
2894.8750000875
 20
224.9766099061
 30
0.0
 40
9.0
 41
0.0
 71
     2
 72
     1
  1
scale:
  7
SLDTEXTSTYLE0
 73
     1
 44
1.0
  0
MTEXT
  5
E7
330
1F
100
AcDbEntity
  8
MARKETING_DRW
100
AcDbMText
 10
2894.7829862405
 20
204.9675136777
 30
0.0
 40
12.5
 41
0.0
 71
     2
 72
     1
  1
1:5
  7
SLDTEXTSTYLE0
 73
     1
 44
1.0
  0
INSERT
  5
EE
330
1F
100
AcDbEntity
  8
MARKETING_DRW
100
AcDbBlockReference
  2
SW_NOTE_0_1
 10
2025.0
 20
78.3750002482
 30
0.0
  0
MTEXT
  5
EF
330
1F
100
AcDbEntity
  8
MARKETING_DRW
100
AcDbMText
 10
2775.0
 20
249.9675136777
 30
0.0
 40
12.5
 41
0.0
 71
     1
 72
     1
  1
marketing drw.
  7
SLDTEXTSTYLE0
 73
     1
 44
1.0
  0
LINE
  5
F0
330
1F
100
AcDbEntity
  8
0
  6
Continuous
 62
     7
370
    35
100
AcDbLine
 10
1638.4920393625
 20
1455.5225099223
 30
0.0
 11
858.4920393625
 21
1455.5225099223
 31
0.0
  0
LINE
  5
F1
330
1F
100
AcDbEntity
  8
0
  6
Continuous
 62
     7
370
    35
100
AcDbLine
 10
1167.4920393625
 20
1435.5373349107
 30
0.0
 11
1167.4920393625
 21
1432.5260714231
 31
0.0
  0
LINE
  5
F2
330
1F
100
AcDbEntity
  8
0
  6
Continuous
 62
     7
370
    35
100
AcDbLine
 10
1329.4920393625
 20
1432.5260714231
 30
0.0
 11
1329.4920393625
 21
1435.5373349107
 31
0.0
  0
ARC
  5
F3
330
1F
100
AcDbEntity
  8
0
  6
Continuous
 62
     7
370
    35
100
AcDbCircle
 10
1165.4920393625
 20
1435.5292932634
 30
0.0
 40
2.000000000000093
100
AcDbArc
 50
0.2172817996
 51
85.9305858724
  0
ARC
  5
F4
330
1F
100
AcDbEntity
  8
0
  6
Continuous
 62
     7
370
    35
100
AcDbCircle
 10
1331.4920393625
 20
1435.5292932634
 30
0.0
 40
1.999999999999936
100
AcDbArc
 50
94.065898605
 51
179.7696267909
  0
LINE
  5
F5
330
1F
100
AcDbEntity
  8
0
  6
Continuous
 62
     7
370
    35
100
AcDbLine
 10
858.4920393625
 20
1437.5241208426
 30
0.0
 11
1165.6329013061
 21
1437.5241208426
 31
0.0
  0
LINE
  5
F6
330
1F
100
AcDbEntity
  8
0
  6
Continuous
 62
     7
370
    35
100
AcDbLine
 10
1331.351177419
 20
1437.5241208426
 30
0.0
 11
1638.4920393625
 21
1437.5241208426
 31
0.0
  0
ARC
  5
F7
330
1F
100
AcDbEntity
  8
0
  6
Continuous
 62
     7
370
    35
100
AcDbCircle
 10
1383.1804377082
 20
1409.1260714227
 30
0.0
 40
3.000000000000227
100
AcDbArc
 50
78.1402208791
 51
90.0
  0
ARC
  5
F8
330
1F
100
AcDbEntity
  8
0
  6
Continuous
 62
     7
370
    35
100
AcDbCircle
 10
1383.1804377082
 20
1365.0260714227
 30
0.0
 40
3.0
100
AcDbArc
 50
270.0
 51
281.8597791209
  0
LINE
  5
F9
330
1F
100
AcDbEntity
  8
0
  6
Continuous
 62
     7
370
    35
100
AcDbLine
 10
1339.9920393625
 20
1362.0260714227
 30
0.0
 11
1383.1804377082
 21
1362.0260714227
 31
0.0
  0
LINE
  5
FA
330
1F
100
AcDbEntity
  8
0
  6
Continuous
 62
     7
370
    35
100
AcDbLine
 10
1383.1804377082
 20
1412.1260714227
 30
0.0
 11
1339.9920393625
 21
1412.1260714227
 31
0.0
  0
LINE
  5
FB
330
1F
100
AcDbEntity
  8
0
  6
Continuous
 62
     7
370
    35
100
AcDbLine
 10
1383.7969894111
 20
1362.0901109329
 30
0.0
 11
1388.4920393625
 21
1363.0760714227
 31
0.0
  0
LINE
  5
FC
330
1F
100
AcDbEntity
  8
0
  6
Continuous
 62
     7
370
    35
100
AcDbLine
 10
1388.4920393625
 20
1411.0760714227
 30
0.0
 11
1383.7969894111
 21
1412.0620319125
 31
0.0
  0
LINE
  5
FD
330
1F
100
AcDbEntity
  8
0
  6
Continuous
 62
     7
370
    35
100
AcDbLine
 10
1339.9920393625
 20
1412.0760714227
 30
0.0
 11
1338.3898737891
 21
1412.0760714227
 31
0.0
  0
LINE
  5
FE
330
1F
100
AcDbEntity
  8
0
  6
Continuous
 62
     7
370
    35
100
AcDbLine
 10
1321.4920393625
 20
1362.0760714227
 30
0.0
 11
1339.9920393625
 21
1362.0760714227
 31
0.0
  0
LINE
  5
FF
330
1F
100
AcDbEntity
  8
0
  6
Continuous
 62
     7
370
    35
100
AcDbLine
 10
1317.5388217696
 20
1362.0760714227
 30
0.0
 11
1321.4920393625
 21
1362.0760714227
 31
0.0
  0
LINE
  5
100
330
1F
100
AcDbEntity
  8
0
  6
Continuous
 62
     7
370
    35
100
AcDbLine
 10
858.4920393625
 20
1443.5225099223
 30
0.0
 11
858.4920393625
 21
1442.5225099223
 31
0.0
  0
LINE
  5
101
330
1F
100
AcDbEntity
  8
0
  6
Continuous
 62
     7
370
    35
100
AcDbLine
 10
1638.4920393625
 20
1443.5225099223
 30
0.0
 11
858.4920393625
 21
1443.5225099223
 31
0.0
  0
LINE
  5
102
330
1F
100
AcDbEntity
  8
0
  6
Continuous
 62
     7
370
    35
100
AcDbLine
 10
1638.4920393625
 20
1443.5225099223
 30
0.0
 11
1638.4920393625
 21
1442.5225099223
 31
0.0
  0
LINE
  5
103
330
1F
100
AcDbEntity
  8
0
  6
Continuous
 62
     7
370
    35
100
AcDbLine
 10
1638.4920393625
 20
1442.5225099223
 30
0.0
 11
858.4920393625
 21
1442.5225099223
 31
0.0
  0
LINE
  5
104
330
1F
100
AcDbEntity
  8
0
  6
Continuous
 62
     7
370
    35
100
AcDbLine
 10
1638.4920393625
 20
1443.5225099223
 30
0.0
 11
1638.4920393625
 21
1444.5225099223
 31
0.0
  0
LINE
  5
105
330
1F
100
AcDbEntity
  8
0
  6
Continuous
 62
     7
370
    35
100
AcDbLine
 10
858.4920393625
 20
1444.5225099223
 30
0.0
 11
858.4920393625
 21
1443.5225099223
 31
0.0
  0
LINE
  5
106
330
1F
100
AcDbEntity
  8
0
  6
Continuous
 62
     7
370
    35
100
AcDbLine
 10
1638.4920393625
 20
1454.0225099223
 30
0.0
 11
1638.4920393625
 21
1444.5225099223
 31
0.0
  0
LINE
  5
107
330
1F
100
AcDbEntity
  8
0
  6
Continuous
 62
     7
370
    35
100
AcDbLine
 10
858.4920393625
 20
1444.5225099223
 30
0.0
 11
858.4920393625
 21
1454.0225099223
 31
0.0
  0
LINE
  5
108
330
1F
100
AcDbEntity
  8
0
  6
Continuous
 62
     7
370
    35
100
AcDbLine
 10
1638.4920393625
 20
1455.5225099223
 30
0.0
 11
1638.4920393625
 21
1454.5225099223
 31
0.0
  0
LINE
  5
109
330
1F
100
AcDbEntity
  8
0
  6
Continuous
 62
     7
370
    35
100
AcDbLine
 10
858.4920393625
 20
1454.5225099223
 30
0.0
 11
858.4920393625
 21
1455.5225099223
 31
0.0
  0
LINE
  5
10A
330
1F
100
AcDbEntity
  8
0
  6
Continuous
 62
     7
370
    35
100
AcDbLine
 10
858.4920393625
 20
1441.2844284116
 30
0.0
 11
858.4920393625
 21
1442.5225099223
 31
0.0
  0
LINE
  5
10B
330
1F
100
AcDbEntity
  8
0
  6
Continuous
 62
     7
370
    35
100
AcDbLine
 10
1638.4920393625
 20
1441.2844284116
 30
0.0
 11
1638.4920393625
 21
1442.5225099223
 31
0.0
  0
LINE
  5
10C
330
1F
100
AcDbEntity
  8
0
  6
Continuous
 62
     7
370
    35
100
AcDbLine
 10
1638.4920393625
 20
1440.5884578662
 30
0.0
 11
1638.4920393625
 21
1441.2844284116
 31
0.0
  0
LINE
  5
10D
330
1F
100
AcDbEntity
  8
0
  6
Continuous
 62
     7
370
    35
100
AcDbLine
 10
858.4920393625
 20
1441.2844284116
 30
0.0
 11
858.4920393625
 21
1440.5884578662
 31
0.0
  0
SPLINE
  5
10E
330
1F
100
AcDbEntity
  8
0
  6
Continuous
 62
     7
370
    35
100
AcDbSpline
210
0.0
220
0.0
230
1.0
 70
     8
 71
     3
 72
     8
 73
     4
 74
     0
 42
0.000000001
 43
0.00000001
 40
0.0000000000000255
 40
0.0000000000000255
 40
0.0000000000000255
 40
0.0000000000000255
 40
0.0000564308016788
 40
0.0000564308016788
 40
0.0000564308016788
 40
0.0000564308016788
 10
1331.363502141895
 20
1437.527337501484
 30
0.0
 10
1331.368664545707
 20
1437.528362960619
 30
0.0
 10
1331.371675313604
 20
1437.529438084884
 30
0.0
 10
1331.37149786502
 20
1437.530504443915
 30
0.0
  0
SPLINE
  5
10F
330
1F
100
AcDbEntity
  8
0
  6
Continuous
 62
     7
370
    35
100
AcDbSpline
210
0.0
220
0.0
230
1.0
 70
     8
 71
     3
 72
    14
 73
    10
 74
     0
 42
0.000000001
 43
0.00000001
 40
0.0
 40
0.0
 40
0.0
 40
0.0
 40
0.25
 40
0.25
 40
0.5
 40
0.5
 40
0.75
 40
0.75
 40
1.0
 40
1.0
 40
1.0
 40
1.0
 10
1331.371497865149
 20
1437.530504443915
 30
0.0
 10
1331.340125217271
 20
1437.719035147649
 30
0.0
 10
1330.751186305031
 20
1437.907030492554
 30
0.0
 10
1328.519465740454
 20
1438.262233817141
 30
0.0
 10
1326.879220620769
 20
1438.429018064462
 30
0.0
 10
1322.721802863687
 20
1438.723321804861
 30
0.0
 10
1320.209041497842
 20
1438.850516582388
 30
0.0
 10
1314.581228960316
 20
1439.051415136261
 30
0.0
 10
1311.472022498187
 20
1439.124909927318
 30
0.0
 10
1308.232370925236
 20
1439.167504805524
 30
0.0
  0
SPLINE
  5
110
330
1F
100
AcDbEntity
  8
0
  6
Continuous
 62
     7
370
    35
100
AcDbSpline
210
0.0
220
0.0
230
1.0
 70
     8
 71
     3
 72
    14
 73
    10
 74
     0
 42
0.000000001
 43
0.00000001
 40
0.0
 40
0.0
 40
0.0
 40
0.0
 40
0.125
 40
0.125
 40
0.2500000000000001
 40
0.2500000000000001
 40
0.5
 40
0.5
 40
1.0
 40
1.0
 40
1.0
 40
1.0
 10
1308.232370925208
 20
1439.167504805517
 30
0.0
 10
1307.956324484762
 20
1439.171134258946
 30
0.0
 10
1307.677029890866
 20
1439.173019214806
 30
0.0
 10
1307.117134851048
 20
1439.176087787818
 30
0.0
 10
1306.836435327552
 20
1439.177218193026
 30
0.0
 10
1305.993673509946
 20
1439.180253196106
 30
0.0
 10
1305.431136404934
 20
1439.181733215042
 30
0.0
 10
1303.743692374819
 20
1439.185324159351
 30
0.0
 10
1302.618138500085
 20
1439.186472769514
 30
0.0
 10
1301.49203936253
 20
1439.186472769514
 30
0.0
  0
LINE
  5
111
330
1F
100
AcDbEntity
  8
0
  6
Continuous
 62
     7
370
    35
100
AcDbLine
 10
1301.4920393625
 20
1439.1864727695
 30
0.0
 11
1195.4920393625
 21
1439.1864727695
 31
0.0
  0
SPLINE
  5
112
330
1F
100
AcDbEntity
  8
0
  6
Continuous
 62
     7
370
    35
100
AcDbSpline
210
0.0
220
0.0
230
1.0
 70
     8
 71
     3
 72
    14
 73
    10
 74
     0
 42
0.000000001
 43
0.00000001
 40
0.0
 40
0.0
 40
0.0
 40
0.0
 40
0.5
 40
0.5
 40
0.7500000000000016
 40
0.7500000000000016
 40
0.8750000000000008
 40
0.8750000000000008
 40
1.0
 40
1.0
 40
1.0
 40
1.0
 10
1195.492039362529
 20
1439.186472769514
 30
0.0
 10
1194.366136826232
 20
1439.186472769514
 30
0.0
 10
1193.240681403569
 20
1439.185324566353
 30
0.0
 10
1191.553225803817
 20
1439.181733928704
 30
0.0
 10
1190.990768447785
 20
1439.180254033664
 30
0.0
 10
1190.148420532304
 20
1439.177221226556
 30
0.0
 10
1189.867808059019
 20
1439.17609166675
 30
0.0
 10
1189.307743145321
 20
1439.173023875023
 30
0.0
 10
1189.027170029587
 20
1439.171126577754
 30
0.0
 10
1188.75170779985
 20
1439.167504805517
 30
0.0
  0
SPLINE
  5
113
330
1F
100
AcDbEntity
  8
0
  6
Continuous
 62
     7
370
    35
100
AcDbSpline
210
0.0
220
0.0
230
1.0
 70
     8
 71
     3
 72
    14
 73
    10
 74
     0
 42
0.000000001
 43
0.00000001
 40
0.0
 40
0.0
 40
0.0
 40
0.0
 40
0.25
 40
0.25
 40
0.5
 40
0.5
 40
0.75
 40
0.75
 40
1.0
 40
1.0
 40
1.0
 40
1.0
 10
1188.751707799823
 20
1439.167504805524
 30
0.0
 10
1185.512056130727
 20
1439.124909926054
 30
0.0
 10
1182.403180118601
 20
1439.051425867817
 30
0.0
 10
1176.774947697708
 20
1438.850514447601
 30
0.0
 10
1174.262377551022
 20
1438.723327560374
 30
0.0
 10
1170.104935403099
 20
1438.429024979485
 30
0.0
 10
1168.46459571079
 20
1438.262228412337
 30
0.0
 10
1166.233004727223
 20
1437.907051022872
 30
0.0
 10
1165.643953508518
 20
1437.719035152034
 30
0.0
 10
1165.61258085991
 20
1437.530504443915
 30
0.0
  0
SPLINE
  5
114
330
1F
100
AcDbEntity
  8
0
  6
Continuous
 62
     7
370
    35
100
AcDbSpline
210
0.0
220
0.0
230
1.0
 70
     8
 71
     3
 72
     8
 73
     4
 74
     0
 42
0.000000001
 43
0.00000001
 40
0.0000000000000194
 40
0.0000000000000194
 40
0.0000000000000194
 40
0.0000000000000194
 40
0.0000564308016788
 40
0.0000564308016788
 40
0.0000564308016788
 40
0.0000564308016788
 10
1165.612580860039
 20
1437.530504443915
 30
0.0
 10
1165.612403411455
 20
1437.529438084884
 30
0.0
 10
1165.615414179352
 20
1437.528362960619
 30
0.0
 10
1165.620576583164
 20
1437.527337501484
 30
0.0
  0
LINE
  5
115
330
1F
100
AcDbEntity
  8
0
  6
Continuous
 62
     7
370
    35
100
AcDbLine
 10
1167.4920393625
 20
1432.5260714228
 30
0.0
 11
1195.4920393625
 21
1432.5260714228
 31
0.0
  0
LINE
  5
116
330
1F
100
AcDbEntity
  8
0
  6
Continuous
 62
     7
370
    35
100
AcDbLine
 10
1195.4920393625
 20
1432.5260714228
 30
0.0
 11
1301.4920393625
 21
1432.5260714228
 31
0.0
  0
LINE
  5
117
330
1F
100
AcDbEntity
  8
0
  6
Continuous
 62
     7
370
    35
100
AcDbLine
 10
1301.4920393625
 20
1432.5260714228
 30
0.0
 11
1322.6461957118
 21
1432.5260714228
 31
0.0
  0
LINE
  5
118
330
1F
100
AcDbEntity
  8
0
  6
Continuous
 62
     7
370
    35
100
AcDbLine
 10
1323.2812456293
 20
1432.5260714228
 30
0.0
 11
1329.4920393625
 21
1432.5260714228
 31
0.0
  0
SPLINE
  5
119
330
1F
100
AcDbEntity
  8
0
  6
Continuous
 62
     7
370
    35
100
AcDbSpline
210
0.0
220
0.0
230
1.0
 70
    24
 71
     3
 72
     9
 73
     5
 74
     0
 42
0.000000001
 43
0.00000001
 40
0.0
 40
0.0
 40
0.0
 40
0.0
 40
0.1857572773172625
 40
0.9999999999999999
 40
0.9999999999999999
 40
0.9999999999999999
 40
0.9999999999999999
 10
1165.632970094433
 20
1437.524721825194
 30
0.0
 10
1165.633907746827
 20
1437.524523931709
 30
0.0
 10
1165.638955475819
 20
1437.523458598022
 30
0.0
 10
1165.628825137455
 20
1437.525596626971
 30
0.0
 10
1165.620576583164
 20
1437.527337501484
 30
0.0
  0
LINE
  5
11A
330
1F
100
AcDbEntity
  8
0
  6
Continuous
 62
     7
370
    35
100
AcDbLine
 10
1331.3635021419
 20
1437.5273375015
 30
0.0
 11
1331.3510904552
 21
1437.5247179892
 31
0.0
  0
LINE
  5
11B
330
1F
100
AcDbEntity
  8
0
  6
Continuous
 62
     7
370
    35
100
AcDbLine
 10
1195.4920393625
 20
1435.5760714227
 30
0.0
 11
1167.6920393625
 21
1435.5760714227
 31
0.0
  0
LINE
  5
11C
330
1F
100
AcDbEntity
  8
0
  6
Continuous
 62
     7
370
    35
100
AcDbLine
 10
1301.4920393625
 20
1435.5760714227
 30
0.0
 11
1329.2920393625
 21
1435.5760714227
 31
0.0
  0
LINE
  5
11D
330
1F
100
AcDbEntity
  8
0
  6
Continuous
 62
     7
370
    35
100
AcDbLine
 10
1339.9920393625
 20
1387.0760714227
 30
0.0
 11
1339.9920393625
 21
1412.1260714227
 31
0.0
  0
LINE
  5
11E
330
1F
100
AcDbEntity
  8
0
  6
Continuous
 62
     7
370
    35
100
AcDbLine
 10
1339.9920393625
 20
1362.0260714227
 30
0.0
 11
1339.9920393625
 21
1387.0760714227
 31
0.0
  0
LINE
  5
11F
330
1F
100
AcDbEntity
  8
0
  6
Continuous
 62
     7
370
    35
100
AcDbLine
 10
1388.4920393625
 20
1387.0760714227
 30
0.0
 11
1388.4920393625
 21
1411.0760714227
 31
0.0
  0
LINE
  5
120
330
1F
100
AcDbEntity
  8
0
  6
Continuous
 62
     7
370
    35
100
AcDbLine
 10
1388.4920393625
 20
1363.0760714227
 30
0.0
 11
1388.4920393625
 21
1387.0760714227
 31
0.0
  0
ARC
  5
121
330
1F
100
AcDbEntity
  8
0
  6
Continuous
 62
     7
370
    35
100
AcDbCircle
 10
1248.4920393625
 20
1387.1260714227
 30
0.0
 40
25.04999999999983
100
AcDbArc
 50
237.7865374201
 51
302.2134625799
  0
SPLINE
  5
122
330
1F
100
AcDbEntity
  8
0
  6
Continuous
 62
     7
370
    35
100
AcDbSpline
210
0.0
220
0.0
230
1.0
 70
    24
 71
     3
 72
    10
 73
     6
 74
     0
 42
0.000000001
 43
0.00000001
 40
0.0
 40
0.0
 40
0.0
 40
0.0
 40
0.2125176675663268
 40
0.6062581077228397
 40
1.0
 40
1.0
 40
1.0
 40
1.0
 10
1248.492039362531
 20
1412.438077949683
 30
0.0
 10
1248.49203936253
 20
1412.521361458396
 30
0.0
 10
1248.492039362528
 20
1412.758947834038
 30
0.0
 10
1248.492039362531
 20
1413.370412398449
 30
0.0
 10
1248.49203936253
 20
1413.995312236797
 30
0.0
 10
1248.492039362529
 20
1414.30776273213
 30
0.0
  0
SPLINE
  5
123
330
1F
100
AcDbEntity
  8
0
  6
Continuous
 62
     7
370
    35
100
AcDbSpline
210
0.0
220
0.0
230
1.0
 70
    24
 71
     3
 72
    18
 73
    14
 74
     0
 42
0.000000001
 43
0.00000001
 40
0.0
 40
0.0
 40
0.0
 40
0.0
 40
0.1056000872447511
 40
0.3249463313005458
 40
0.5456095245813405
 40
0.6686132746948426
 40
0.7011918426142504
 40
0.7339487647370313
 40
0.7672437697818079
 40
0.8035947759165873
 40
0.8401179485066326
 40
0.8975115054529719
 40
1.0
 40
1.0
 40
1.0
 40
1.0
 10
1248.492039362529
 20
1414.307762732129
 30
0.0
 10
1248.492039362529
 20
1414.983971341259
 30
0.0
 10
1248.492039362529
 20
1417.064760405584
 30
0.0
 10
1248.492039362529
 20
1420.496750449111
 30
0.0
 10
1248.492039362529
 20
1424.142914885073
 30
0.0
 10
1248.492039362529
 20
1426.287076631496
 30
0.0
 10
1248.492039362529
 20
1427.06918536128
 30
0.0
 10
1248.492039362529
 20
1427.350804362553
 30
0.0
 10
1248.492039362529
 20
1427.835013965258
 30
0.0
 10
1248.492039362529
 20
1428.595163892311
 30
0.0
 10
1248.492039362529
 20
1429.451472748938
 30
0.0
 10
1248.492039362529
 20
1430.773066132738
 30
0.0
 10
1248.492039362529
 20
1431.841303731317
 30
0.0
 10
1248.492039362529
 20
1432.526071422714
 30
0.0
  0
SPLINE
  5
124
330
1F
100
AcDbEntity
  8
0
  6
Continuous
 62
     7
370
    35
100
AcDbSpline
210
0.0
220
0.0
230
1.0
 70
    24
 71
     3
 72
    19
 73
    15
 74
     0
 42
0.000000001
 43
0.00000001
 40
0.0
 40
0.0
 40
0.0
 40
0.0
 40
0.2409130132110047
 40
0.4882582803106248
 40
0.5391715029117174
 40
0.5899404478678678
 40
0.6400693120936225
 40
0.6899887491764568
 40
0.7400419496428569
 40
0.7904190820051351
 40
0.8413201884464373
 40
0.8929676784851881
 40
0.9456873805534199
 40
1.0
 40
1.0
 40
1.0
 40
1.0
 10
1248.492039362529
 20
1432.526071422714
 30
0.0
 10
1256.338082460811
 20
1432.526071422714
 30
0.0
 10
1272.239653983868
 20
1432.526071422714
 30
0.0
 10
1289.805078569168
 20
1432.526071422714
 30
0.0
 10
1301.166965372171
 20
1432.526071422714
 30
0.0
 10
1306.122737966416
 20
1432.526071422713
 30
0.0
 10
1310.907098729826
 20
1432.526071422713
 30
0.0
 10
1315.390676673956
 20
1432.526071422714
 30
0.0
 10
1319.468926964534
 20
1432.526071422714
 30
0.0
 10
1323.042178906029
 20
1432.526071422714
 30
0.0
 10
1326.008584650849
 20
1432.526071422714
 30
0.0
 10
1328.238610870214
 20
1432.526071422714
 30
0.0
 10
1329.711920967236
 20
1432.526071422714
 30
0.0
 10
1329.897744718316
 20
1432.526071422714
 30
0.0
 10
1329.99203936253
 20
1432.526071422714
 30
0.0
  0
SPLINE
  5
125
330
1F
100
AcDbEntity
  8
0
  6
Continuous
 62
     7
370
    35
100
AcDbSpline
210
0.0
220
0.0
230
1.0
 70
     8
 71
     3
 72
    16
 73
    12
 74
     0
 42
0.000000001
 43
0.00000001
 40
0.0
 40
0.0
 40
0.0
 40
0.0
 40
0.1465768179208892
 40
0.2110706177997897
 40
0.2609182759381881
 40
0.301662719675315
 40
0.3460236197864481
 40
0.4164469026261889
 40
0.5419712682998772
 40
0.7688489389603064
 40
1.0
 40
1.0
 40
1.0
 40
1.0
 10
1329.99203936253
 20
1432.526071422714
 30
0.0
 10
1329.985369517
 20
1431.647019094107
 30
0.0
 10
1329.975764939438
 20
1430.381183740951
 30
0.0
 10
1330.015182801972
 20
1428.86412415673
 30
0.0
 10
1329.930513029595
 20
1427.861827301754
 30
0.0
 10
1330.609920051397
 20
1427.314812146735
 30
0.0
 10
1331.417883248531
 20
1426.895485763195
 30
0.0
 10
1332.4886510536
 20
1425.896016081963
 30
0.0
 10
1333.65777831105
 20
1423.615847343417
 30
0.0
 10
1334.260591311714
 20
1420.172622536619
 30
0.0
 10
1334.873812367891
 20
1417.517624127406
 30
0.0
 10
1335.183283560367
 20
1416.177739406485
 30
0.0
  0
SPLINE
  5
126
330
1F
100
AcDbEntity
  8
0
  6
Continuous
 62
     7
370
    35
100
AcDbSpline
210
0.0
220
0.0
230
1.0
 70
     8
 71
     3
 72
    25
 73
    21
 74
     0
 42
0.000000001
 43
0.00000001
 40
0.0
 40
0.0
 40
0.0
 40
0.0
 40
0.0403772850825327
 40
0.0581432905171142
 40
0.0718747463632702
 40
0.0830985540815625
 40
0.0953185813390222
 40
0.1147179721021833
 40
0.1492959713349548
 40
0.2292797835274531
 40
0.3102091618275117
 40
0.3726852819818989
 40
0.4313870265629148
 40
0.4804590282852343
 40
0.5235520429457714
 40
0.5708166295125219
 40
0.6751808706738784
 40
0.7818081507417537
 40
0.8902538127997789
 40
1.0
 40
1.0
 40
1.0
 40
1.0
 10
1166.992039362529
 20
1432.526071422714
 30
0.0
 10
1166.998710368059
 20
1431.647018747141
 30
0.0
 10
1167.008316616022
 20
1430.381182894353
 30
0.0
 10
1166.968891898046
 20
1428.864125360654
 30
0.0
 10
1167.05357639595
 20
1427.861824101147
 30
0.0
 10
1166.374125286617
 20
1427.314822133086
 30
0.0
 10
1165.566368060416
 20
1426.895434141875
 30
0.0
 10
1164.493983213227
 20
1425.896448131801
 30
0.0
 10
1163.166694294028
 20
1423.268770226407
 30
0.0
 10
1162.492475830267
 20
1419.065118942043
 30
0.0
 10
1161.393474654962
 20
1414.369582516881
 30
0.0
 10
1160.654949907359
 20
1410.060307940912
 30
0.0
 10
1160.093169812856
 20
1406.423443644955
 30
0.0
 10
1159.710628670542
 20
1403.183241376021
 30
0.0
 10
1159.518495268322
 20
1400.174003461255
 30
0.0
 10
1159.447911551148
 20
1395.964081455198
 30
0.0
 10
1159.804049975494
 20
1390.37884969747
 30
0.0
 10
1161.028773257933
 20
1383.571833309752
 30
0.0
 10
1163.00440122703
 20
1376.808900765021
 30
0.0
 10
1164.97906400379
 20
1372.519541081427
 30
0.0
 10
1165.972280347537
 20
1370.362077947927
 30
0.0
  0
SPLINE
  5
127
330
1F
100
AcDbEntity
  8
0
  6
Continuous
 62
     7
370
    35
100
AcDbSpline
210
0.0
220
0.0
230
1.0
 70
    24
 71
     3
 72
    19
 73
    15
 74
     0
 42
0.000000001
 43
0.00000001
 40
0.0
 40
0.0
 40
0.0
 40
0.0
 40
0.2409130132110047
 40
0.4882582803106248
 40
0.5391715029117174
 40
0.5899404478678678
 40
0.6400693120936225
 40
0.6899887491764568
 40
0.7400419496428569
 40
0.7904190820051351
 40
0.8413201884464373
 40
0.8929676784851881
 40
0.9456873805534199
 40
1.0
 40
1.0
 40
1.0
 40
1.0
 10
1248.492039362529
 20
1432.526071422714
 30
0.0
 10
1240.645996264248
 20
1432.526071422714
 30
0.0
 10
1224.744424741191
 20
1432.526071422714
 30
0.0
 10
1207.17900015589
 20
1432.526071422714
 30
0.0
 10
1195.817113352888
 20
1432.526071422714
 30
0.0
 10
1190.861340758643
 20
1432.526071422713
 30
0.0
 10
1186.076979995233
 20
1432.526071422713
 30
0.0
 10
1181.593402051103
 20
1432.526071422714
 30
0.0
 10
1177.515151760525
 20
1432.526071422714
 30
0.0
 10
1173.94189981903
 20
1432.526071422714
 30
0.0
 10
1170.97549407421
 20
1432.526071422714
 30
0.0
 10
1168.745467854845
 20
1432.526071422714
 30
0.0
 10
1167.272157757823
 20
1432.526071422714
 30
0.0
 10
1167.086334006743
 20
1432.526071422714
 30
0.0
 10
1166.992039362529
 20
1432.526071422714
 30
0.0
  0
SPLINE
  5
128
330
1F
100
AcDbEntity
  8
0
  6
Continuous
 62
     7
370
    35
100
AcDbSpline
210
0.0
220
0.0
230
1.0
 70
     8
 71
     3
 72
    14
 73
    10
 74
     0
 42
0.000000001
 43
0.00000001
 40
0.0
 40
0.0
 40
0.0
 40
0.0
 40
0.149783861674635
 40
0.3039198677007078
 40
0.4537011775423317
 40
0.6078081864720632
 40
0.757933700022959
 40
0.9123691506710971
 40
1.0
 40
1.0
 40
1.0
 40
1.0
 10
1165.972280347537
 20
1370.362077947927
 30
0.0
 10
1166.381127060648
 20
1369.636963435086
 30
0.0
 10
1167.210700003751
 20
1368.165665363674
 30
0.0
 10
1168.894235248687
 20
1366.271226566924
 30
0.0
 10
1170.864342420815
 20
1364.65474743798
 30
0.0
 10
1173.065656462703
 20
1363.404675781285
 30
0.0
 10
1175.466216226949
 20
1362.536778171002
 30
0.0
 10
1177.616728407101
 20
1362.128656757191
 30
0.0
 10
1178.959248780829
 20
1362.090048181482
 30
0.0
 10
1179.445256955458
 20
1362.076071422714
 30
0.0
  0
SPLINE
  5
129
330
1F
100
AcDbEntity
  8
0
  6
Continuous
 62
     7
370
    35
100
AcDbSpline
210
0.0
220
0.0
230
1.0
 70
    24
 71
     3
 72
    19
 73
    15
 74
     0
 42
0.000000001
 43
0.00000001
 40
0.0
 40
0.0
 40
0.0
 40
0.0
 40
0.0339082014123468
 40
0.0838890956615421
 40
0.133885640693628
 40
0.178763919083391
 40
0.2236368521988092
 40
0.2646138248638288
 40
0.3055644086924265
 40
0.3465596390526824
 40
0.387605999897298
 40
0.5510999779005354
 40
0.7146015071203452
 40
1.0
 40
1.0
 40
1.0
 40
1.0
 10
1179.445256955458
 20
1362.076071422714
 30
0.0
 10
1179.585686808888
 20
1362.076071422714
 30
0.0
 10
1179.933111116796
 20
1362.076071422714
 30
0.0
 10
1181.130987283594
 20
1362.076071422714
 30
0.0
 10
1182.981182104063
 20
1362.076071422714
 30
0.0
 10
1185.273534524543
 20
1362.076071422714
 30
0.0
 10
1187.796426055793
 20
1362.076071422714
 30
0.0
 10
1190.562043759141
 20
1362.076071422714
 30
0.0
 10
1193.490834766448
 20
1362.076071422714
 30
0.0
 10
1196.6372773472
 20
1362.076071422714
 30
0.0
 10
1203.128133898188
 20
1362.076071422714
 30
0.0
 10
1212.865743012202
 20
1362.076071422714
 30
0.0
 10
1229.068549229624
 20
1362.076071422714
 30
0.0
 10
1240.942746129175
 20
1362.076071422714
 30
0.0
 10
1248.492039362529
 20
1362.076071422714
 30
0.0
  0
SPLINE
  5
12A
330
1F
100
AcDbEntity
  8
0
  6
Continuous
 62
     7
370
    35
100
AcDbSpline
210
0.0
220
0.0
230
1.0
 70
    24
 71
     3
 72
    19
 73
    15
 74
     0
 42
0.000000001
 43
0.00000001
 40
0.0
 40
0.0
 40
0.0
 40
0.0
 40
0.0339064855174944
 40
0.0831372973791105
 40
0.1338840147718002
 40
0.1782456415880458
 40
0.2236320967859899
 40
0.2641259724126861
 40
0.305557060192373
 40
0.3459382551888677
 40
0.38763784298138
 40
0.551087819285942
 40
0.7146159494612702
 40
1.0
 40
1.0
 40
1.0
 40
1.0
 10
1317.5388217696
 20
1362.076071422714
 30
0.0
 10
1317.3982358368
 20
1362.076071422714
 30
0.0
 10
1317.053524955559
 20
1362.076071422714
 30
0.0
 10
1315.865253751451
 20
1362.076071422713
 30
0.0
 10
1314.020539472907
 20
1362.076071422716
 30
0.0
 10
1311.721266688623
 20
1362.076071422714
 30
0.0
 10
1309.2074054778
 20
1362.076071422714
 30
0.0
 10
1306.434698048833
 20
1362.076071422714
 30
0.0
 10
1303.517657499226
 20
1362.076071422714
 30
0.0
 10
1300.370248282033
 20
1362.076071422714
 30
0.0
 10
1293.868200601487
 20
1362.076071422714
 30
0.0
 10
1284.121515069545
 20
1362.076071422714
 30
0.0
 10
1267.915367519443
 20
1362.076071422714
 30
0.0
 10
1256.040911096361
 20
1362.076071422714
 30
0.0
 10
1248.492039362529
 20
1362.076071422714
 30
0.0
  0
LINE
  5
12B
330
1F
100
AcDbEntity
  8
0
  6
Continuous
 62
     7
370
    35
100
AcDbLine
 10
1335.1832835604
 20
1416.1777394065
 30
0.0
 11
1335.4053421484
 21
1414.7572719173
 31
0.0
  0
SPLINE
  5
12C
330
1F
100
AcDbEntity
  8
0
  6
Continuous
 62
     7
370
    35
100
AcDbSpline
210
0.0
220
0.0
230
1.0
 70
     8
 71
     3
 72
    13
 73
     9
 74
     0
 42
0.000000001
 43
0.00000001
 40
0.0
 40
0.0
 40
0.0
 40
0.0
 40
0.0095081972613503
 40
0.0791116948017361
 40
0.3094644223199412
 40
0.5396843471459964
 40
0.7698410895023545
 40
1.0
 40
1.0
 40
1.0
 40
1.0
 10
1338.389873789056
 20
1412.076071422714
 30
0.0
 10
1338.376007559242
 20
1412.076133586646
 30
0.0
 10
1338.260635432334
 20
1412.076650813399
 30
0.0
 10
1337.8098570922
 20
1412.106185958099
 30
0.0
 10
1337.050383026164
 20
1412.32629764516
 30
0.0
 10
1336.221390893035
 20
1412.924338404212
 30
0.0
 10
1335.611734835734
 20
1413.761919329312
 30
0.0
 10
1335.474139926858
 20
1414.425486679447
 30
0.0
 10
1335.405342148376
 20
1414.757271917254
 30
0.0
  0
LINE
  5
12D
330
1F
100
AcDbEntity
  8
0
  6
Continuous
 62
     7
370
    35
100
AcDbLine
 10
1670.9920393625
 20
1443.5225099223
 30
0.0
 11
1670.9920393625
 21
1442.5225099223
 31
0.0
  0
LINE
  5
12E
330
1F
100
AcDbEntity
  8
0
  6
Continuous
 62
     7
370
    35
100
AcDbLine
 10
1670.9920393625
 20
1442.5225099223
 30
0.0
 11
1660.9920393625
 21
1442.5225099223
 31
0.0
  0
LINE
  5
12F
330
1F
100
AcDbEntity
  8
0
  6
Continuous
 62
     7
370
    35
100
AcDbLine
 10
1660.9920393625
 20
1443.5225099223
 30
0.0
 11
1670.9920393625
 21
1443.5225099223
 31
0.0
  0
LINE
  5
130
330
1F
100
AcDbEntity
  8
0
  6
Continuous
 62
     7
370
    35
100
AcDbLine
 10
1660.9920393625
 20
1442.5225099223
 30
0.0
 11
1638.4920393625
 21
1442.5225099223
 31
0.0
  0
LINE
  5
131
330
1F
100
AcDbEntity
  8
0
  6
Continuous
 62
     7
370
    35
100
AcDbLine
 10
1660.9920393625
 20
1443.5225099223
 30
0.0
 11
1638.4920393625
 21
1443.5225099223
 31
0.0
  0
LINE
  5
132
330
1F
100
AcDbEntity
  8
0
  6
Continuous
 62
     7
370
    35
100
AcDbLine
 10
835.9920393625
 20
1442.5225099223
 30
0.0
 11
825.9920393625
 21
1442.5225099223
 31
0.0
  0
LINE
  5
133
330
1F
100
AcDbEntity
  8
0
  6
Continuous
 62
     7
370
    35
100
AcDbLine
 10
825.9920393625
 20
1442.5225099223
 30
0.0
 11
825.9920393625
 21
1443.5225099223
 31
0.0
  0
LINE
  5
134
330
1F
100
AcDbEntity
  8
0
  6
Continuous
 62
     7
370
    35
100
AcDbLine
 10
825.9920393625
 20
1443.5225099223
 30
0.0
 11
835.9920393625
 21
1443.5225099223
 31
0.0
  0
LINE
  5
135
330
1F
100
AcDbEntity
  8
0
  6
Continuous
 62
     7
370
    35
100
AcDbLine
 10
858.4920393625
 20
1443.5225099223
 30
0.0
 11
835.9920393625
 21
1443.5225099223
 31
0.0
  0
LINE
  5
136
330
1F
100
AcDbEntity
  8
0
  6
Continuous
 62
     7
370
    35
100
AcDbLine
 10
858.4920393625
 20
1442.5225099223
 30
0.0
 11
835.9920393625
 21
1442.5225099223
 31
0.0
  0
LINE
  5
137
330
1F
100
AcDbEntity
  8
0
  6
Continuous
 62
     7
370
    35
100
AcDbLine
 10
1638.4920393625
 20
1454.5225099223
 30
0.0
 11
1638.4920393625
 21
1444.5225099223
 31
0.0
  0
ARC
  5
138
330
1F
100
AcDbEntity
  8
0
  6
Continuous
 62
     7
370
    35
100
AcDbCircle
 10
1639.4920393625
 20
1454.5225099223
 30
0.0
 40
1.000000000000227
100
AcDbArc
 50
0.0
 51
180.0
  0
LINE
  5
139
330
1F
100
AcDbEntity
  8
0
  6
Continuous
 62
     7
370
    35
100
AcDbLine
 10
1640.4920393625
 20
1454.5225099223
 30
0.0
 11
1640.4920393625
 21
1443.5225099223
 31
0.0
  0
LINE
  5
13A
330
1F
100
AcDbEntity
  8
0
  6
Continuous
 62
     7
370
    35
100
AcDbLine
 10
1640.4920393625
 20
1442.5225099223
 30
0.0
 11
1640.4920393625
 21
1436.7966504439
 31
0.0
  0
LINE
  5
13B
330
1F
100
AcDbEntity
  8
0
  6
Continuous
 62
     7
370
    35
100
AcDbLine
 10
1638.4920393625
 20
1440.5884578662
 30
0.0
 11
1638.4920393625
 21
1436.7966504439
 31
0.0
  0
LINE
  5
13C
330
1F
100
AcDbEntity
  8
0
  6
Continuous
 62
     7
370
    35
100
AcDbLine
 10
1640.4920393625
 20
1436.7966504439
 30
0.0
 11
1640.4920393625
 21
1434.9840348698
 31
0.0
  0
LINE
  5
13D
330
1F
100
AcDbEntity
  8
0
  6
Continuous
 62
     7
370
    35
100
AcDbLine
 10
1638.4920393625
 20
1434.9840348698
 30
0.0
 11
1638.4920393625
 21
1436.7966504439
 31
0.0
  0
LINE
  5
13E
330
1F
100
AcDbEntity
  8
0
  6
Continuous
 62
     7
370
    35
100
AcDbLine
 10
1640.4920393625
 20
1434.9840348698
 30
0.0
 11
1640.4920393625
 21
1427.7257355852
 31
0.0
  0
LINE
  5
13F
330
1F
100
AcDbEntity
  8
0
  6
Continuous
 62
     7
370
    35
100
AcDbLine
 10
1638.4920393625
 20
1434.9840348698
 30
0.0
 11
1638.4920393625
 21
1427.7257355852
 31
0.0
  0
LINE
  5
140
330
1F
100
AcDbEntity
  8
0
  6
Continuous
 62
     7
370
    35
100
AcDbLine
 10
1640.4920393625
 20
1427.7257355852
 30
0.0
 11
1640.4920393625
 21
1425.9131200111
 31
0.0
  0
LINE
  5
141
330
1F
100
AcDbEntity
  8
0
  6
Continuous
 62
     7
370
    35
100
AcDbLine
 10
1638.4920393625
 20
1425.9131200111
 30
0.0
 11
1638.4920393625
 21
1427.7257355852
 31
0.0
  0
LINE
  5
142
330
1F
100
AcDbEntity
  8
0
  6
Continuous
 62
     7
370
    35
100
AcDbLine
 10
1640.4920393625
 20
1425.9131200111
 30
0.0
 11
1640.4920393625
 21
1391.6225099223
 31
0.0
  0
LINE
  5
143
330
1F
100
AcDbEntity
  8
0
  6
Continuous
 62
     7
370
    35
100
AcDbLine
 10
1638.4920393625
 20
1425.9131200111
 30
0.0
 11
1638.4920393625
 21
1391.6225099223
 31
0.0
  0
LINE
  5
144
330
1F
100
AcDbEntity
  8
0
  6
Continuous
 62
     7
370
    35
100
AcDbLine
 10
1640.4920393625
 20
1389.6225099223
 30
0.0
 11
1638.4920393625
 21
1389.6225099223
 31
0.0
  0
LINE
  5
145
330
1F
100
AcDbEntity
  8
0
  6
Continuous
 62
     7
370
    35
100
AcDbLine
 10
1640.4920393625
 20
1391.6225099223
 30
0.0
 11
1640.4920393625
 21
1389.6225099223
 31
0.0
  0
LINE
  5
146
330
1F
100
AcDbEntity
  8
0
  6
Continuous
 62
     7
370
    35
100
AcDbLine
 10
1638.4920393625
 20
1389.6225099223
 30
0.0
 11
1638.4920393625
 21
1391.6225099223
 31
0.0
  0
ARC
  5
147
330
1F
100
AcDbEntity
  8
0
  6
Continuous
 62
     7
370
    35
100
AcDbCircle
 10
857.4920393625
 20
1454.5225099223
 30
0.0
 40
1.0
100
AcDbArc
 50
0.0
 51
180.0
  0
LINE
  5
148
330
1F
100
AcDbEntity
  8
0
  6
Continuous
 62
     7
370
    35
100
AcDbLine
 10
858.4920393625
 20
1444.5225099223
 30
0.0
 11
858.4920393625
 21
1454.5225099223
 31
0.0
  0
LINE
  5
149
330
1F
100
AcDbEntity
  8
0
  6
Continuous
 62
     7
370
    35
100
AcDbLine
 10
856.4920393625
 20
1443.5225099223
 30
0.0
 11
856.4920393625
 21
1454.5225099223
 31
0.0
  0
LINE
  5
14A
330
1F
100
AcDbEntity
  8
0
  6
Continuous
 62
     7
370
    35
100
AcDbLine
 10
858.4920393625
 20
1436.7966504439
 30
0.0
 11
858.4920393625
 21
1440.5884578662
 31
0.0
  0
LINE
  5
14B
330
1F
100
AcDbEntity
  8
0
  6
Continuous
 62
     7
370
    35
100
AcDbLine
 10
856.4920393625
 20
1436.7966504439
 30
0.0
 11
856.4920393625
 21
1442.5225099223
 31
0.0
  0
LINE
  5
14C
330
1F
100
AcDbEntity
  8
0
  6
Continuous
 62
     7
370
    35
100
AcDbLine
 10
858.4920393625
 20
1436.7966504439
 30
0.0
 11
858.4920393625
 21
1434.9840348698
 31
0.0
  0
LINE
  5
14D
330
1F
100
AcDbEntity
  8
0
  6
Continuous
 62
     7
370
    35
100
AcDbLine
 10
856.4920393625
 20
1434.9840348698
 30
0.0
 11
856.4920393625
 21
1436.7966504439
 31
0.0
  0
LINE
  5
14E
330
1F
100
AcDbEntity
  8
0
  6
Continuous
 62
     7
370
    35
100
AcDbLine
 10
858.4920393625
 20
1427.7257355852
 30
0.0
 11
858.4920393625
 21
1434.9840348698
 31
0.0
  0
LINE
  5
14F
330
1F
100
AcDbEntity
  8
0
  6
Continuous
 62
     7
370
    35
100
AcDbLine
 10
856.4920393625
 20
1427.7257355852
 30
0.0
 11
856.4920393625
 21
1434.9840348698
 31
0.0
  0
LINE
  5
150
330
1F
100
AcDbEntity
  8
0
  6
Continuous
 62
     7
370
    35
100
AcDbLine
 10
858.4920393625
 20
1427.7257355852
 30
0.0
 11
858.4920393625
 21
1425.9131200111
 31
0.0
  0
LINE
  5
151
330
1F
100
AcDbEntity
  8
0
  6
Continuous
 62
     7
370
    35
100
AcDbLine
 10
856.4920393625
 20
1425.9131200111
 30
0.0
 11
856.4920393625
 21
1427.7257355852
 31
0.0
  0
LINE
  5
152
330
1F
100
AcDbEntity
  8
0
  6
Continuous
 62
     7
370
    35
100
AcDbLine
 10
858.4920393625
 20
1391.6225099223
 30
0.0
 11
858.4920393625
 21
1425.9131200111
 31
0.0
  0
LINE
  5
153
330
1F
100
AcDbEntity
  8
0
  6
Continuous
 62
     7
370
    35
100
AcDbLine
 10
856.4920393625
 20
1391.6225099223
 30
0.0
 11
856.4920393625
 21
1425.9131200111
 31
0.0
  0
LINE
  5
154
330
1F
100
AcDbEntity
  8
0
  6
Continuous
 62
     7
370
    35
100
AcDbLine
 10
858.4920393625
 20
1389.6225099223
 30
0.0
 11
856.4920393625
 21
1389.6225099223
 31
0.0
  0
LINE
  5
155
330
1F
100
AcDbEntity
  8
0
  6
Continuous
 62
     7
370
    35
100
AcDbLine
 10
858.4920393625
 20
1391.6225099223
 30
0.0
 11
858.4920393625
 21
1389.6225099223
 31
0.0
  0
LINE
  5
156
330
1F
100
AcDbEntity
  8
0
  6
Continuous
 62
     7
370
    35
100
AcDbLine
 10
856.4920393625
 20
1389.6225099223
 30
0.0
 11
856.4920393625
 21
1391.6225099223
 31
0.0
  0
LINE
  5
157
330
1F
100
AcDbEntity
  8
0
  6
Continuous
 62
     8
370
    18
100
AcDbLine
 10
1638.4920393625
 20
1444.5225099223
 30
0.0
 11
858.4920393625
 21
1444.5225099223
 31
0.0
  0
LINE
  5
158
330
1F
100
AcDbEntity
  8
0
  6
Continuous
 62
     8
370
    18
100
AcDbLine
 10
858.4920393625
 20
1454.0225099223
 30
0.0
 11
1638.4920393625
 21
1454.0225099223
 31
0.0
  0
LINE
  5
159
330
1F
100
AcDbEntity
  8
0
  6
Continuous
 62
     8
370
    18
100
AcDbLine
 10
858.4920393625
 20
1441.2844284116
 30
0.0
 11
1638.4920393625
 21
1441.2844284116
 31
0.0
  0
LINE
  5
15A
330
1F
100
AcDbEntity
  8
0
  6
Continuous
 62
     8
370
    18
100
AcDbLine
 10
858.4920393625
 20
1439.2876450704
 30
0.0
 11
1638.4920393625
 21
1439.2876450704
 31
0.0
  0
LINE
  5
15B
330
1F
100
AcDbEntity
  8
0
  6
Continuous
 62
     8
370
    18
100
AcDbLine
 10
858.4920393625
 20
1437.5273375015
 30
0.0
 11
1165.6205765832
 21
1437.5273375015
 31
0.0
  0
LINE
  5
15C
330
1F
100
AcDbEntity
  8
0
  6
Continuous
 62
     8
370
    18
100
AcDbLine
 10
1331.3635021419
 20
1437.5273375015
 30
0.0
 11
1638.4920393625
 21
1437.5273375015
 31
0.0
  0
SPLINE
  5
15D
330
1F
100
AcDbEntity
  8
0
  6
Continuous
 62
     8
370
    18
100
AcDbSpline
210
0.0
220
0.0
230
1.0
 70
     8
 71
     3
 72
    10
 73
     6
 74
     0
 42
0.000000001
 43
0.00000001
 40
0.0
 40
0.0
 40
0.0
 40
0.0
 40
0.5
 40
0.5
 40
1.0
 40
1.0
 40
1.0
 40
1.0
 10
1195.492039362529
 20
1437.301438335837
 30
0.0
 10
1194.425227105184
 20
1437.301438335837
 30
0.0
 10
1193.365709693728
 20
1437.282985718979
 30
0.0
 10
1191.2605832589
 20
1437.229962112583
 30
0.0
 10
1190.214970938193
 20
1437.195492135462
 30
0.0
 10
1189.175927255434
 20
1437.180854999518
 30
0.0
  0
ARC
  5
15E
330
1F
100
AcDbEntity
  8
0
  6
Continuous
 62
     8
370
    18
100
AcDbCircle
 10
1186.0053636819
 20
1437.5424461788
 30
0.0
 40
3.191116035872819
100
AcDbArc
 50
353.4937367838
 51
30.6135263841
  0
LINE
  5
15F
330
1F
100
AcDbEntity
  8
0
  6
Continuous
 62
     8
370
    18
100
AcDbLine
 10
1195.4920393625
 20
1437.3014383358
 30
0.0
 11
1195.4920393625
 21
1439.1864727695
 31
0.0
  0
SPLINE
  5
160
330
1F
100
AcDbEntity
  8
0
  6
Continuous
 62
     8
370
    18
100
AcDbSpline
210
0.0
220
0.0
230
1.0
 70
     8
 71
     3
 72
    10
 73
     6
 74
     0
 42
0.000000001
 43
0.00000001
 40
0.0
 40
0.0
 40
0.0
 40
0.0
 40
0.5
 40
0.5
 40
1.0
 40
1.0
 40
1.0
 40
1.0
 10
1307.808151469625
 20
1437.180854999654
 30
0.0
 10
1306.769107786866
 20
1437.195492135598
 30
0.0
 10
1305.723495466159
 20
1437.229962112583
 30
0.0
 10
1303.618369031331
 20
1437.282985718979
 30
0.0
 10
1302.558851619871
 20
1437.301438335541
 30
0.0
 10
1301.492039362527
 20
1437.301438335541
 30
0.0
  0
LINE
  5
161
330
1F
100
AcDbEntity
  8
0
  6
Continuous
 62
     8
370
    18
100
AcDbLine
 10
1301.4920393625
 20
1437.3014383357
 30
0.0
 11
1301.4920393625
 21
1439.1864727695
 31
0.0
  0
ARC
  5
162
330
1F
100
AcDbEntity
  8
0
  6
Continuous
 62
     8
370
    18
100
AcDbCircle
 10
1310.9787150428
 20
1437.5424461788
 30
0.0
 40
3.191116035540805
100
AcDbArc
 50
149.386473613
 51
186.5062632177
  0
LINE
  5
163
330
1F
100
AcDbEntity
  8
0
  6
Continuous
 62
     8
370
    18
100
AcDbLine
 10
1301.4920393625
 20
1437.3014383357
 30
0.0
 11
1195.4920393625
 21
1437.3014383358
 31
0.0
  0
ELLIPSE
  5
164
330
1F
100
AcDbEntity
  8
0
  6
Continuous
 62
     8
370
    18
100
AcDbEllipse
 10
1301.4920393625
 20
1435.5212386617
 30
0.0
 11
28.0
 21
0.0
 31
0.0
210
0.0
220
0.0
230
1.0
 40
0.0608401234
 41
0.0094489386178824
 42
1.34326267484347
  0
ARC
  5
165
330
1F
100
AcDbEntity
  8
0
  6
Continuous
 62
     8
370
    18
100
AcDbCircle
 10
1331.4901903117
 20
1435.534627853
 30
0.0
 40
1.999402726573743
100
AcDbArc
 50
93.4033047991
 51
179.9224253183
  0
ELLIPSE
  5
166
330
1F
100
AcDbEntity
  8
0
  6
Continuous
 62
     8
370
    18
100
AcDbEllipse
 10
1195.4920393625
 20
1435.5212386617
 30
0.0
 11
28.0
 21
0.0
 31
0.0
210
0.0
220
0.0
230
1.0
 40
0.0608401234
 41
1.798329978746332
 42
3.132143714971908
  0
ARC
  5
167
330
1F
100
AcDbEntity
  8
0
  6
Continuous
 62
     8
370
    18
100
AcDbCircle
 10
1165.4938884134
 20
1435.534627853
 30
0.0
 40
1.999402726573743
100
AcDbArc
 50
0.0775746817
 51
86.5966952046
  0
LINE
  5
168
330
1F
100
AcDbEntity
  8
0
  6
Continuous
 62
     8
370
    18
100
AcDbLine
 10
1195.4920393625
 20
1437.3014383358
 30
0.0
 11
1195.4920393625
 21
1432.5260714228
 31
0.0
  0
LINE
  5
169
330
1F
100
AcDbEntity
  8
0
  6
Continuous
 62
     8
370
    18
100
AcDbLine
 10
1301.4920393625
 20
1437.3014383357
 30
0.0
 11
1301.4920393625
 21
1432.5260714228
 31
0.0
  0
LINE
  5
16A
330
1F
100
AcDbEntity
  8
0
  6
Continuous
 62
     8
370
    18
100
AcDbLine
 10
1195.4920393625
 20
1435.2332698944
 30
0.0
 11
1167.5520117813
 21
1435.2332698944
 31
0.0
  0
LINE
  5
16B
330
1F
100
AcDbEntity
  8
0
  6
Continuous
 62
     8
370
    18
100
AcDbLine
 10
1301.4920393625
 20
1435.2332698944
 30
0.0
 11
1329.4320669438
 21
1435.2332698944
 31
0.0
  0
LINE
  5
16C
330
1F
100
AcDbEntity
  8
0
  6
Continuous
 62
     8
370
    18
100
AcDbLine
 10
1383.1804377082
 20
1362.0260714227
 30
0.0
 11
1383.1804377082
 21
1412.1260714227
 31
0.0
  0
LINE
  5
16D
330
1F
100
AcDbEntity
  8
0
  6
Continuous
 62
     8
370
    18
100
AcDbLine
 10
1383.7969894111
 20
1412.0620319125
 30
0.0
 11
1383.7969894111
 21
1362.0901109329
 31
0.0
  0
SPLINE
  5
16E
330
1F
100
AcDbEntity
  8
0
  6
Continuous
 62
     8
370
    18
100
AcDbSpline
210
0.0
220
0.0
230
1.0
 70
     8
 71
     3
 72
    33
 73
    29
 74
     0
 42
0.000000001
 43
0.00000001
 40
0.0
 40
0.0
 40
0.0
 40
0.0
 40
0.0420694805196952
 40
0.084388443038162
 40
0.1054254118363549
 40
0.1478084180885782
 40
0.1908708294596759
 40
0.2346249844283155
 40
0.2566774230954355
 40
0.2919631051304046
 40
0.3274716165362356
 40
0.3636903997735276
 40
0.4001608597629994
 40
0.4308871503519112
 40
0.4617758629698845
 40
0.4929198210567731
 40
0.5244145950467511
 40
0.5762252118466479
 40
0.6285929245268294
 40
0.6833701247922489
 40
0.7388451995033064
 40
0.7691720205739077
 40
0.8150603675630219
 40
0.8615324906874935
 40
0.8956623911437293
 40
0.9301881902968916
 40
0.9649049432978497
 40
1.0
 40
1.0
 40
1.0
 40
1.0
 10
1248.492039362532
 20
1412.438077949683
 30
0.0
 10
1249.309068927011
 20
1412.417320213053
 30
0.0
 10
1250.947973235095
 20
1412.375681641491
 30
0.0
 10
1252.975910069682
 20
1412.078864182855
 30
0.0
 10
1254.979734954082
 20
1411.653134962711
 30
0.0
 10
1256.962791914337
 20
1411.080363156447
 30
0.0
 10
1259.287880122963
 20
1410.163117896931
 30
0.0
 10
1261.16115776528
 20
1409.206379483132
 30
0.0
 10
1262.827365900011
 20
1408.196607559218
 30
0.0
 10
1264.295246730607
 20
1407.173812850782
 30
0.0
 10
1265.887683578769
 20
1405.862242895024
 30
0.0
 10
1267.385874446793
 20
1404.408196061864
 30
0.0
 10
1268.698984107471
 20
1402.902239522759
 30
0.0
 10
1269.830752978821
 20
1401.380017818756
 30
0.0
 10
1270.79660443188
 20
1399.865522417061
 30
0.0
 10
1271.658040626549
 20
1398.269698930912
 30
0.0
 10
1272.566720501854
 20
1396.242825213388
 30
0.0
 10
1273.404779463075
 20
1393.738060053399
 30
0.0
 10
1274.013535189514
 20
1390.703271519208
 30
0.0
 10
1274.231909108412
 20
1387.549301143049
 30
0.0
 10
1274.059793459001
 20
1384.834469346247
 30
0.0
 10
1273.645097294977
 20
1382.343358966001
 30
0.0
 10
1273.055583610192
 20
1380.078105760196
 30
0.0
 10
1272.210287799276
 20
1377.841871789513
 30
0.0
 10
1271.269003125018
 20
1375.901887627556
 30
0.0
 10
1270.298722501689
 20
1374.241502731111
 30
0.0
 10
1269.210298760244
 20
1372.645731713461
 30
0.0
 10
1268.390714870629
 20
1371.656574253005
 30
0.0
 10
1267.978702301402
 20
1371.159315446656
 30
0.0
  0
LINE
  5
16F
330
1F
100
AcDbEntity
  8
0
  6
Continuous
 62
     8
370
    18
100
AcDbLine
 10
1267.9787023014
 20
1371.1593154467
 30
0.0
 11
1259.4099431486
 21
1380.2219586873
 31
0.0
  0
SPLINE
  5
170
330
1F
100
AcDbEntity
  8
0
  6
Continuous
 62
     8
370
    18
100
AcDbSpline
210
0.0
220
0.0
230
1.0
 70
     8
 71
     3
 72
    19
 73
    15
 74
     0
 42
0.000000001
 43
0.00000001
 40
0.0
 40
0.0
 40
0.0
 40
0.0
 40
0.0723119353046641
 40
0.1445206361806436
 40
0.2538055534572514
 40
0.3457400466261737
 40
0.4376020288244568
 40
0.5576187311953653
 40
0.6329165099067152
 40
0.7083141187347093
 40
0.8053610917388584
 40
0.9023999691423442
 40
0.9968144251432691
 40
1.0
 40
1.0
 40
1.0
 40
1.0
 10
1259.409943148551
 20
1380.22195868727
 30
0.0
 10
1259.94256424307
 20
1380.755531947943
 30
0.0
 10
1261.007046048166
 20
1381.821916726009
 30
0.0
 10
1262.56985797257
 20
1383.962819281975
 30
0.0
 10
1263.771170889851
 20
1386.59975712914
 30
0.0
 10
1263.990898354218
 20
1389.708199637048
 30
0.0
 10
1263.11133982743
 20
1392.800594585222
 30
0.0
 10
1261.391318635168
 20
1395.318586795028
 30
0.0
 10
1259.27462649202
 20
1397.197290268792
 30
0.0
 10
1257.088124215414
 20
1398.583614682768
 30
0.0
 10
1254.501094118709
 20
1399.704262000791
 30
0.0
 10
1251.573413202721
 20
1400.433510943695
 30
0.0
 10
1249.541283767636
 20
1400.585084989367
 30
0.0
 10
1248.525203290771
 20
1400.572770508966
 30
0.0
 10
1248.492039362532
 20
1400.5723685757
 30
0.0
  0
SPLINE
  5
171
330
1F
100
AcDbEntity
  8
0
  6
Continuous
 62
     8
370
    18
100
AcDbSpline
210
0.0
220
0.0
230
1.0
 70
    24
 71
     3
 72
    21
 73
    17
 74
     0
 42
0.000000001
 43
0.00000001
 40
0.0
 40
0.0
 40
0.0
 40
0.0
 40
0.0720514219264898
 40
0.1446031256582966
 40
0.218732676106082
 40
0.2934074331762745
 40
0.3654588516753317
 40
0.4380105213676725
 40
0.5121399203051896
 40
0.586814476498339
 40
0.6588679246025998
 40
0.7314216095207167
 40
0.8055529476989853
 40
0.8802294033636552
 40
0.990866780231003
 40
0.9999999999999999
 40
0.9999999999999999
 40
0.9999999999999999
 40
0.9999999999999999
 10
1248.492039362528
 20
1412.438077949682
 30
0.0
 10
1248.492039362529
 20
1412.283525107712
 30
0.0
 10
1248.492039362532
 20
1411.973346301649
 30
0.0
 10
1248.492039362538
 20
1411.402681648921
 30
0.0
 10
1248.492039362513
 20
1410.753702879772
 30
0.0
 10
1248.492039362538
 20
1410.03086177955
 30
0.0
 10
1248.492039362527
 20
1409.246699542778
 30
0.0
 10
1248.492039362534
 20
1408.403938788139
 30
0.0
 10
1248.492039362525
 20
1407.49505453515
 30
0.0
 10
1248.492039362525
 20
1406.538083739965
 30
0.0
 10
1248.492039362524
 20
1405.545792908529
 30
0.0
 10
1248.492039362534
 20
1404.521317097653
 30
0.0
 10
1248.492039362528
 20
1403.456175255391
 30
0.0
 10
1248.492039362517
 20
1402.183596132495
 30
0.0
 10
1248.492039362569
 20
1401.214433975284
 30
0.0
 10
1248.49203936252
 20
1400.617860823827
 30
0.0
 10
1248.492039362517
 20
1400.5723685757
 30
0.0
  0
SPLINE
  5
172
330
1F
100
AcDbEntity
  8
0
  6
Continuous
 62
     8
370
    18
100
AcDbSpline
210
0.0
220
0.0
230
1.0
 70
     8
 71
     3
 72
    33
 73
    29
 74
     0
 42
0.000000001
 43
0.00000001
 40
0.0
 40
0.0
 40
0.0
 40
0.0
 40
0.027251912176166
 40
0.0643955705395717
 40
0.1017679836315406
 40
0.1399161503387467
 40
0.1783602451249384
 40
0.2309313350457291
 40
0.2840751350454411
 40
0.3463079719325252
 40
0.3778605917353931
 40
0.4098349893637236
 40
0.4664493290388059
 40
0.5237708874937607
 40
0.5552660258970179
 40
0.5869395080180234
 40
0.6191572696364613
 40
0.6515559584292162
 40
0.6730472716079228
 40
0.716355812032914
 40
0.7603800963832682
 40
0.8051322093176838
 40
0.827694976782534
 40
0.8487242154456205
 40
0.8910915758444983
 40
0.9341506962041375
 40
0.977926365073945
 40
1.0
 40
1.0
 40
1.0
 40
1.0
 10
1229.005376423657
 20
1371.159315446656
 30
0.0
 10
1228.683905649821
 20
1371.543904663701
 30
0.0
 10
1227.924278444245
 20
1372.452679134089
 30
0.0
 10
1226.8411589385
 20
1373.992069440701
 30
0.0
 10
1225.768637527722
 20
1375.791321052649
 30
0.0
 10
1224.834142157517
 20
1377.710813304876
 30
0.0
 10
1223.959211573201
 20
1379.986374932844
 30
0.0
 10
1223.245885336696
 20
1382.642574707728
 30
0.0
 10
1222.80094914002
 20
1385.844923782052
 30
0.0
 10
1222.800295239735
 20
1388.69928786598
 30
0.0
 10
1223.074904890363
 20
1391.125087214593
 30
0.0
 10
1223.513331737192
 20
1393.418315038699
 30
0.0
 10
1224.340394291848
 20
1396.137956067353
 30
0.0
 10
1225.521296692306
 20
1398.70895657963
 30
0.0
 10
1226.710712331846
 20
1400.717489021224
 30
0.0
 10
1227.765597461159
 20
1402.232257600546
 30
0.0
 10
1228.939168489135
 20
1403.676271335547
 30
0.0
 10
1230.080426475693
 20
1404.884835952111
 30
0.0
 10
1231.448065720592
 20
1406.165372867776
 30
0.0
 10
1233.081557550093
 20
1407.483445212558
 30
0.0
 10
1235.211832345518
 20
1408.879033895863
 30
0.0
 10
1237.117641222301
 20
1409.876370399662
 30
0.0
 10
1238.684323421769
 20
1410.552415954445
 30
0.0
 10
1240.239930747905
 20
1411.13614887253
 30
0.0
 10
1242.217589165671
 20
1411.72390135166
 30
0.0
 10
1244.678121306052
 20
1412.203372864098
 30
0.0
 10
1246.785031679257
 20
1412.415470215801
 30
0.0
 10
1248.06348380053
 20
1412.432402128657
 30
0.0
 10
1248.492039362529
 20
1412.438077949682
 30
0.0
  0
SPLINE
  5
173
330
1F
100
AcDbEntity
  8
0
  6
Continuous
 62
     8
370
    18
100
AcDbSpline
210
0.0
220
0.0
230
1.0
 70
     8
 71
     3
 72
    20
 73
    16
 74
     0
 42
0.000000001
 43
0.00000001
 40
0.0
 40
0.0
 40
0.0
 40
0.0
 40
0.0031848875244883
 40
0.0996872166702683
 40
0.1961928561586086
 40
0.2929138960264281
 40
0.3894614585497524
 40
0.4531459406897251
 40
0.5167654851003682
 40
0.6214864979190138
 40
0.7268808125404119
 40
0.8182687157727466
 40
0.8939620144270485
 40
0.9698304221395907
 40
1.0
 40
1.0
 40
1.0
 40
1.0
 10
1248.492039362532
 20
1400.5723685757
 30
0.0
 10
1248.458875366947
 20
1400.572771222576
 30
0.0
 10
1247.420839835664
 20
1400.585374099792
 30
0.0
 10
1245.372303171123
 20
1400.424636489552
 30
0.0
 10
1242.432623038827
 20
1399.689112308695
 30
0.0
 10
1239.653006831688
 20
1398.479468186606
 30
0.0
 10
1237.410300108327
 20
1396.986462158807
 30
0.0
 10
1235.728492905786
 20
1395.358598348474
 30
0.0
 10
1234.276946274787
 20
1393.416345473789
 30
0.0
 10
1233.122906907523
 20
1390.748876171437
 30
0.0
 10
1233.023105143163
 20
1387.524277559221
 30
0.0
 10
1233.969125077708
 20
1384.803446642836
 30
0.0
 10
1235.32098931614
 20
1382.652648004673
 30
0.0
 10
1236.556478253749
 20
1381.210128484914
 30
0.0
 10
1237.34872744894
 20
1380.440835414067
 30
0.0
 10
1237.574135576508
 20
1380.22195868727
 30
0.0
  0
LINE
  5
174
330
1F
100
AcDbEntity
  8
0
  6
Continuous
 62
     8
370
    18
100
AcDbLine
 10
1229.0053764237
 20
1371.1593154467
 30
0.0
 11
1237.5741355765
 21
1380.2219586873
 31
0.0
  0
SPLINE
  5
175
330
1F
100
AcDbEntity
  8
0
  6
Continuous
 62
     8
370
    18
100
AcDbSpline
210
0.0
220
0.0
230
1.0
 70
     8
 71
     3
 72
     9
 73
     5
 74
     0
 42
0.000000001
 43
0.00000001
 40
0.0
 40
0.0
 40
0.0
 40
0.0
 40
0.5770474436019692
 40
1.0
 40
1.0
 40
1.0
 40
1.0
 10
1235.138508401235
 20
1365.932069656513
 30
0.0
 10
1233.878458008057
 20
1366.786865821172
 30
0.0
 10
1231.694841379738
 20
1368.268193178458
 30
0.0
 10
1229.804781908684
 20
1370.299970172848
 30
0.0
 10
1229.005376423657
 20
1371.159315446656
 30
0.0
  0
SPLINE
  5
176
330
1F
100
AcDbEntity
  8
0
  6
Continuous
 62
     8
370
    18
100
AcDbSpline
210
0.0
220
0.0
230
1.0
 70
     8
 71
     3
 72
    10
 73
     6
 74
     0
 42
0.000000001
 43
0.00000001
 40
0.0
 40
0.0
 40
0.0
 40
0.0
 40
0.2479681796226363
 40
0.497268806987864
 40
1.0
 40
1.0
 40
1.0
 40
1.0
 10
1237.574135576508
 20
1380.22195868727
 30
0.0
 10
1237.918835724285
 20
1379.915464117308
 30
0.0
 10
1238.610088253196
 20
1379.30082804027
 30
0.0
 10
1240.107095112012
 20
1378.194757822167
 30
0.0
 10
1241.282637627122
 20
1377.437306753887
 30
0.0
 10
1242.068484548813
 20
1376.930952808633
 30
0.0
  0
LINE
  5
177
330
1F
100
AcDbEntity
  8
0
  6
Continuous
 62
     8
370
    18
100
AcDbLine
 10
1242.0684845488
 20
1376.9309528086
 30
0.0
 11
1235.1385084012
 21
1365.9320696565
 31
0.0
  0
ARC
  5
178
330
1F
100
AcDbEntity
  8
0
  6
Continuous
 62
     8
370
    18
100
AcDbCircle
 10
1248.4920393625
 20
1387.1260714227
 30
0.0
 40
12.04999999999989
100
AcDbArc
 50
237.7865374201
 51
302.2134625799
  0
LINE
  5
179
330
1F
100
AcDbEntity
  8
0
  6
Continuous
 62
     8
370
    18
100
AcDbLine
 10
1254.9155941762
 20
1376.9309528086
 30
0.0
 11
1261.8455703238
 21
1365.9320696565
 31
0.0
  0
SPLINE
  5
17A
330
1F
100
AcDbEntity
  8
0
  6
Continuous
 62
     8
370
    18
100
AcDbSpline
210
0.0
220
0.0
230
1.0
 70
     8
 71
     3
 72
    10
 73
     6
 74
     0
 42
0.000000001
 43
0.00000001
 40
0.0
 40
0.0
 40
0.0
 40
0.0
 40
0.351467034588856
 40
0.7035972473579625
 40
1.0
 40
1.0
 40
1.0
 40
1.0
 10
1254.915594176246
 20
1376.930952808633
 30
0.0
 10
1255.46548178144
 20
1377.283787820503
 30
0.0
 10
1256.566294566979
 20
1377.990123603641
 30
0.0
 10
1258.089268703006
 20
1379.061758907662
 30
0.0
 10
1258.995680534148
 20
1379.858032970716
 30
0.0
 10
1259.409943148551
 20
1380.22195868727
 30
0.0
  0
SPLINE
  5
17B
330
1F
100
AcDbEntity
  8
0
  6
Continuous
 62
     8
370
    18
100
AcDbSpline
210
0.0
220
0.0
230
1.0
 70
     8
 71
     3
 72
     9
 73
     5
 74
     0
 42
0.000000001
 43
0.00000001
 40
0.0
 40
0.0
 40
0.0
 40
0.0
 40
0.3490261811818432
 40
1.0
 40
1.0
 40
1.0
 40
1.0
 10
1267.978702301402
 20
1371.159315446656
 30
0.0
 10
1267.323116343383
 20
1370.445172619731
 30
0.0
 10
1265.444787457571
 20
1368.399071595142
 30
0.0
 10
1263.264730395053
 20
1366.904800813552
 30
0.0
 10
1261.845570323824
 20
1365.932069656513
 30
0.0
  0
SPLINE
  5
17C
330
1F
100
AcDbEntity
  8
0
  6
Continuous
 62
     8
370
    18
100
AcDbSpline
210
0.0
220
0.0
230
1.0
 70
     8
 71
     3
 72
    25
 73
    21
 74
     0
 42
0.000000001
 43
0.00000001
 40
0.0
 40
0.0
 40
0.0
 40
0.0
 40
0.0492540181151009
 40
0.1492409839198741
 40
0.2001416191492477
 40
0.2518526251234167
 40
0.3040335595223628
 40
0.3577923743443071
 40
0.4121322905460627
 40
0.4583035622698642
 40
0.5524517173646443
 40
0.6005416407375761
 40
0.6462083951794703
 40
0.7390265475467571
 40
0.7862778751716629
 40
0.8386307217057706
 40
0.8914004261034277
 40
0.945476810414539
 40
0.9999986794956645
 40
1.0
 40
1.0
 40
1.0
 40
1.0
 10
1227.000125983924
 20
1370.402625434855
 30
0.0
 10
1226.54675731356
 20
1370.934331516218
 30
0.0
 10
1225.173038193112
 20
1372.545415073978
 30
0.0
 10
1223.633078161602
 20
1374.984845985985
 30
0.0
 10
1222.374549694485
 20
1377.643370607688
 30
0.0
 10
1221.590677970027
 20
1379.77403263986
 30
0.0
 10
1220.986258132405
 20
1382.0273822345
 30
0.0
 10
1220.585017178037
 20
1384.385523462201
 30
0.0
 10
1220.417103981531
 20
1386.698160600758
 30
0.0
 10
1220.466739921475
 20
1389.63437414323
 30
0.0
 10
1220.871908472322
 20
1392.474396224608
 30
0.0
 10
1221.623069263266
 20
1395.221992186387
 30
0.0
 10
1222.587108519514
 20
1397.878799964006
 30
0.0
 10
1223.854324963316
 20
1400.399588416479
 30
0.0
 10
1225.461820100987
 20
1402.817300826816
 30
0.0
 10
1226.891315465077
 20
1404.614252392186
 30
0.0
 10
1228.540012024687
 20
1406.351039170264
 30
0.0
 10
1230.360754029422
 20
1407.951608071959
 30
0.0
 10
1231.678137441663
 20
1408.912677245598
 30
0.0
 10
1232.359879045056
 20
1409.363499921165
 30
0.0
 10
1232.359895556247
 20
1409.3635108397
 30
0.0
  0
SPLINE
  5
17D
330
1F
100
AcDbEntity
  8
0
  6
Continuous
 62
     8
370
    18
100
AcDbSpline
210
0.0
220
0.0
230
1.0
 70
     8
 71
     3
 72
    17
 73
    13
 74
     0
 42
0.000000001
 43
0.00000001
 40
0.0
 40
0.0
 40
0.0
 40
0.0
 40
0.0000034855140939
 40
0.1237311811743981
 40
0.2481852880018891
 40
0.3749118306512849
 40
0.5024199211247035
 40
0.6249563428645112
 40
0.7482076745729955
 40
0.8737113440217107
 40
0.9999965144859068
 40
1.0
 40
1.0
 40
1.0
 40
1.0
 10
1232.359895556247
 20
1409.3635108397
 30
0.0
 10
1232.359911847309
 20
1409.363522071332
 30
0.0
 10
1232.938223216508
 20
1409.762230313492
 30
0.0
 10
1234.130097918788
 20
1410.518361127209
 30
0.0
 10
1236.014827423581
 20
1411.520842803376
 30
0.0
 10
1237.994055249513
 20
1412.385477107395
 30
0.0
 10
1240.027283121936
 20
1413.091933380705
 30
0.0
 10
1242.092096533593
 20
1413.638103807071
 30
0.0
 10
1244.183570817859
 20
1414.027924317647
 30
0.0
 10
1246.322232631085
 20
1414.262603823426
 30
0.0
 10
1247.76746834179
 20
1414.311022631921
 30
0.0
 10
1248.492019365224
 20
1414.307762822099
 30
0.0
 10
1248.492039362529
 20
1414.307762732129
 30
0.0
  0
ARC
  5
17E
330
1F
100
AcDbEntity
  8
0
  6
Continuous
 62
     8
370
    18
100
AcDbCircle
 10
1229.1360502609
 20
1367.777695127
 30
0.0
 40
3.384144151533051
100
AcDbArc
 50
92.2129439008
 51
129.1354920666
  0
SPLINE
  5
17F
330
1F
100
AcDbEntity
  8
0
  6
Continuous
 62
     8
370
    18
100
AcDbSpline
210
0.0
220
0.0
230
1.0
 70
     8
 71
     3
 72
    13
 73
     9
 74
     0
 42
0.000000001
 43
0.00000001
 40
0.0
 40
0.0
 40
0.0
 40
0.0
 40
0.000003488132369
 40
0.2457799679353304
 40
0.4975795644761291
 40
0.7457645563596917
 40
0.9999965118676328
 40
1.0
 40
1.0
 40
1.0
 40
1.0
 10
1248.492039362529
 20
1414.307762732129
 30
0.0
 10
1248.492059359835
 20
1414.307762822099
 30
0.0
 10
1249.901104805039
 20
1414.314102225672
 30
0.0
 10
1252.758340331322
 20
1414.115503927908
 30
0.0
 10
1256.935304856437
 20
1413.183434758659
 30
0.0
 10
1260.95531521309
 20
1411.619594850217
 30
0.0
 10
1263.436779161219
 20
1410.182149017705
 30
0.0
 10
1264.62416687775
 20
1409.363522071332
 30
0.0
 10
1264.624183168812
 20
1409.3635108397
 30
0.0
  0
SPLINE
  5
180
330
1F
100
AcDbEntity
  8
0
  6
Continuous
 62
     8
370
    18
100
AcDbSpline
210
0.0
220
0.0
230
1.0
 70
     8
 71
     3
 72
    19
 73
    15
 74
     0
 42
0.000000001
 43
0.00000001
 40
0.0
 40
0.0
 40
0.0
 40
0.0
 40
0.0000013213841023
 40
0.0176852170218708
 40
0.1143733902378737
 40
0.2137145610419428
 40
0.3053523452007507
 40
0.3995000333270463
 40
0.4922123793434039
 40
0.5879403428335863
 40
0.6917200092822475
 40
0.7998090016712739
 40
0.8985189583178741
 40
1.0
 40
1.0
 40
1.0
 40
1.0
 10
1264.624183168812
 20
1409.3635108397
 30
0.0
 10
1264.624199680002
 20
1409.363499921165
 30
0.0
 10
1264.845183101567
 20
1409.217367812857
 30
0.0
 10
1266.260183494809
 20
1408.251124531106
 30
0.0
 10
1268.731869166277
 20
1406.18947060815
 30
0.0
 10
1271.566771640038
 20
1402.900542226625
 30
0.0
 10
1273.820211338077
 20
1399.218208685881
 30
0.0
 10
1275.424088024564
 20
1395.304180379317
 30
0.0
 10
1276.396939937619
 20
1391.118114179057
 30
0.0
 10
1276.666629230157
 20
1386.692573145116
 30
0.0
 10
1276.128151206935
 20
1382.093328461911
 30
0.0
 10
1274.740334420401
 20
1377.715173003082
 30
0.0
 10
1272.692086604191
 20
1373.729566855432
 30
0.0
 10
1270.894956112304
 20
1371.521792729787
 30
0.0
 10
1269.983952741134
 20
1370.402625434855
 30
0.0
  0
ARC
  5
181
330
1F
100
AcDbEntity
  8
0
  6
Continuous
 62
     8
370
    18
100
AcDbCircle
 10
1267.8480284641
 20
1367.777695127
 30
0.0
 40
3.384144151533102
100
AcDbArc
 50
50.8645079334
 51
87.7870560992
  0
SPLINE
  5
182
330
1F
100
AcDbEntity
  8
0
  6
Continuous
 62
     8
370
    18
100
AcDbSpline
210
0.0
220
0.0
230
1.0
 70
     8
 71
     3
 72
    14
 73
    10
 74
     0
 42
0.000000001
 43
0.00000001
 40
0.0
 40
0.0
 40
0.0
 40
0.0
 40
0.070646935810895
 40
0.2691496022583709
 40
0.4748299235320574
 40
0.6841240356853442
 40
0.8123563766451365
 40
0.9412272031615675
 40
1.0
 40
1.0
 40
1.0
 40
1.0
 10
1214.842646546067
 20
1372.455227404166
 30
0.0
 10
1214.841170192448
 20
1373.267626274244
 30
0.0
 10
1214.835545603287
 20
1376.362690911468
 30
0.0
 10
1214.914372901855
 20
1382.086040186438
 30
0.0
 10
1215.040087923615
 20
1389.675234279201
 30
0.0
 10
1215.101233838211
 20
1396.456578695041
 30
0.0
 10
1215.078994146336
 20
1402.245549600982
 30
0.0
 10
1215.033258737013
 20
1406.138918219633
 30
0.0
 10
1214.997863208859
 20
1408.418798341605
 30
0.0
 10
1214.986776798632
 20
1409.132890986103
 30
0.0
  0
ARC
  5
183
330
1F
100
AcDbEntity
  8
0
  6
Continuous
 62
     8
370
    18
100
AcDbCircle
 10
1214.7815668843
 20
1366.1281295491
 30
0.0
 40
6.327392669385063
100
AcDbArc
 50
89.4469031132
 51
106.8009889676
  0
SPLINE
  5
184
330
1F
100
AcDbEntity
  8
0
  6
Continuous
 62
     8
370
    18
100
AcDbSpline
210
0.0
220
0.0
230
1.0
 70
     8
 71
     3
 72
    14
 73
    10
 74
     0
 42
0.000000001
 43
0.00000001
 40
0.0
 40
0.0
 40
0.0
 40
0.0
 40
0.0588507131428024
 40
0.1865507860318869
 40
0.3150706499745844
 40
0.5205160403891211
 40
0.7296050309949654
 40
0.9289213534635682
 40
1.0
 40
1.0
 40
1.0
 40
1.0
 10
1212.951349253388
 20
1409.285290224303
 30
0.0
 10
1212.951021723872
 20
1408.56342206673
 30
0.0
 10
1212.949983488558
 20
1406.275173292582
 30
0.0
 10
1212.946812765374
 20
1402.349051106293
 30
0.0
 10
1212.945342075113
 20
1396.545578573887
 30
0.0
 10
1212.953112326402
 20
1389.6761934555
 30
0.0
 10
1212.954249215969
 20
1381.997871480003
 30
0.0
 10
1212.952710031513
 20
1376.165168544841
 30
0.0
 10
1212.952658265084
 20
1373.013826670572
 30
0.0
 10
1212.952644657258
 20
1372.185434352398
 30
0.0
  0
ARC
  5
185
330
1F
100
AcDbEntity
  8
0
  6
Continuous
 62
     8
370
    18
100
AcDbCircle
 10
1214.7252654427
 20
1419.3088473153
 30
0.0
 40
10.17931605776487
100
AcDbArc
 50
259.9640104619
 51
271.4721171424
  0
ARC
  5
186
330
1F
100
AcDbEntity
  8
0
  6
Continuous
 62
     8
370
    18
100
AcDbCircle
 10
1211.7641155264
 20
1376.2672691367
 30
0.0
 40
4.251349985718001
100
AcDbArc
 50
269.1903220348
 51
286.2342508995
  0
SPLINE
  5
187
330
1F
100
AcDbEntity
  8
0
  6
Continuous
 62
     8
370
    18
100
AcDbSpline
210
0.0
220
0.0
230
1.0
 70
     8
 71
     3
 72
    14
 73
    10
 74
     0
 42
0.000000001
 43
0.00000001
 40
0.0
 40
0.0
 40
0.0
 40
0.0
 40
0.2078011624980594
 40
0.4196948388477488
 40
0.5443918098789571
 40
0.669951265477286
 40
0.7982264655367506
 40
0.9274422558336506
 40
1.0
 40
1.0
 40
1.0
 40
1.0
 10
1211.599712860329
 20
1409.433903851346
 30
0.0
 10
1211.569528803154
 20
1406.846508658078
 30
0.0
 10
1211.508566232686
 20
1401.620761142423
 30
0.0
 10
1211.520235991495
 20
1394.657617732336
 30
0.0
 10
1211.576211412775
 20
1388.781423139456
 30
0.0
 10
1211.630809936102
 20
1384.005970472546
 30
0.0
 10
1211.681324179437
 20
1379.253081310337
 30
0.0
 10
1211.708779969116
 20
1375.245923461197
 30
0.0
 10
1211.705293213503
 20
1372.870533610976
 30
0.0
 10
1211.70403937651
 20
1372.016343642473
 30
0.0
  0
ARC
  5
188
330
1F
100
AcDbEntity
  8
0
  6
Continuous
 62
     8
370
    18
100
AcDbCircle
 10
1211.6000156969
 20
1403.215805498
 30
0.0
 40
6.218098360724329
100
AcDbArc
 50
77.4481726938
 51
90.0027904447
  0
SPLINE
  5
189
330
1F
100
AcDbEntity
  8
0
  6
Continuous
 62
     8
370
    18
100
AcDbSpline
210
0.0
220
0.0
230
1.0
 70
     8
 71
     3
 72
    14
 73
    10
 74
     0
 42
0.000000001
 43
0.00000001
 40
0.0
 40
0.0
 40
0.0
 40
0.0
 40
0.0588507131428024
 40
0.1865507860318868
 40
0.3150706499745843
 40
0.5205160403891211
 40
0.7296050309949654
 40
0.9289213534635682
 40
1.0
 40
1.0
 40
1.0
 40
1.0
 10
1284.032729471671
 20
1409.285290224303
 30
0.0
 10
1284.033057001187
 20
1408.56342206673
 30
0.0
 10
1284.034095236501
 20
1406.275173292582
 30
0.0
 10
1284.037265959685
 20
1402.349051106293
 30
0.0
 10
1284.038736649946
 20
1396.545578573887
 30
0.0
 10
1284.030966398657
 20
1389.6761934555
 30
0.0
 10
1284.02982950909
 20
1381.997871480003
 30
0.0
 10
1284.031368693546
 20
1376.165168544841
 30
0.0
 10
1284.031420459975
 20
1373.013826670572
 30
0.0
 10
1284.031434067801
 20
1372.185434352398
 30
0.0
  0
ARC
  5
18A
330
1F
100
AcDbEntity
  8
0
  6
Continuous
 62
     8
370
    18
100
AcDbCircle
 10
1282.2025118408
 20
1366.1281295491
 30
0.0
 40
6.327392669381037
100
AcDbArc
 50
73.1990110324
 51
90.5530968868
  0
SPLINE
  5
18B
330
1F
100
AcDbEntity
  8
0
  6
Continuous
 62
     8
370
    18
100
AcDbSpline
210
0.0
220
0.0
230
1.0
 70
     8
 71
     3
 72
    14
 73
    10
 74
     0
 42
0.000000001
 43
0.00000001
 40
0.0
 40
0.0
 40
0.0
 40
0.0
 40
0.0706469358108949
 40
0.269149602258371
 40
0.4748299235320581
 40
0.6841240356853447
 40
0.8123563766451372
 40
0.9412272031615684
 40
1.0
 40
1.0
 40
1.0
 40
1.0
 10
1282.141432178991
 20
1372.455227404166
 30
0.0
 10
1282.142908532611
 20
1373.267626274244
 30
0.0
 10
1282.148533121772
 20
1376.362690911468
 30
0.0
 10
1282.069705823204
 20
1382.086040186438
 30
0.0
 10
1281.943990801444
 20
1389.675234279201
 30
0.0
 10
1281.882844886848
 20
1396.456578695041
 30
0.0
 10
1281.905084578723
 20
1402.245549600982
 30
0.0
 10
1281.950819988046
 20
1406.138918219633
 30
0.0
 10
1281.9862155162
 20
1408.418798341605
 30
0.0
 10
1281.997301926428
 20
1409.132890986103
 30
0.0
  0
ARC
  5
18C
330
1F
100
AcDbEntity
  8
0
  6
Continuous
 62
     8
370
    18
100
AcDbCircle
 10
1282.2588132824
 20
1419.3088473154
 30
0.0
 40
10.17931605778321
100
AcDbArc
 50
268.5278828577
 51
280.035989538
  0
SPLINE
  5
18D
330
1F
100
AcDbEntity
  8
0
  6
Continuous
 62
     8
370
    18
100
AcDbSpline
210
0.0
220
0.0
230
1.0
 70
     8
 71
     3
 72
    14
 73
    10
 74
     0
 42
0.000000001
 43
0.00000001
 40
0.0
 40
0.0
 40
0.0
 40
0.0
 40
0.2078011624980595
 40
0.4196948388477487
 40
0.5443918098789567
 40
0.6699512654772858
 40
0.7982264655367506
 40
0.9274422558336506
 40
1.0
 40
1.0
 40
1.0
 40
1.0
 10
1285.384365864729
 20
1409.433903851346
 30
0.0
 10
1285.414549921905
 20
1406.846508658078
 30
0.0
 10
1285.475512492373
 20
1401.620761142423
 30
0.0
 10
1285.463842733564
 20
1394.657617732336
 30
0.0
 10
1285.407867312284
 20
1388.781423139456
 30
0.0
 10
1285.353268788956
 20
1384.005970472546
 30
0.0
 10
1285.302754545622
 20
1379.253081310337
 30
0.0
 10
1285.275298755943
 20
1375.245923461197
 30
0.0
 10
1285.278785511556
 20
1372.870533610976
 30
0.0
 10
1285.280039348549
 20
1372.016343642473
 30
0.0
  0
ARC
  5
18E
330
1F
100
AcDbEntity
  8
0
  6
Continuous
 62
     8
370
    18
100
AcDbCircle
 10
1285.2199631987
 20
1376.2672691367
 30
0.0
 40
4.251349985720043
100
AcDbArc
 50
253.7657491005
 51
270.8096779652
  0
ARC
  5
18F
330
1F
100
AcDbEntity
  8
0
  6
Continuous
 62
     8
370
    18
100
AcDbCircle
 10
1285.3840630281
 20
1403.215805498
 30
0.0
 40
6.218098360724329
100
AcDbArc
 50
89.9972095553
 51
102.5518273062
  0
SPLINE
  5
190
330
1F
100
AcDbEntity
  8
0
  6
Continuous
 62
     8
370
    18
100
AcDbSpline
210
0.0
220
0.0
230
1.0
 70
     8
 71
     3
 72
    14
 73
    10
 74
     0
 42
0.000000001
 43
0.00000001
 40
0.0
 40
0.0
 40
0.0
 40
0.0
 40
0.127247386060472
 40
0.2554745767697358
 40
0.3810919869018173
 40
0.5075916090131538
 40
0.708960736825627
 40
0.9137762176246971
 40
0.9999999999999999
 40
0.9999999999999999
 40
0.9999999999999999
 40
0.9999999999999999
 10
1204.018438550617
 20
1372.217415269182
 30
0.0
 10
1204.016993512638
 20
1373.707324633112
 30
0.0
 10
1204.01409230989
 20
1376.698615660455
 30
0.0
 10
1204.017793944387
 20
1381.337378271747
 30
0.0
 10
1204.023447746102
 20
1386.048954265226
 30
0.0
 10
1204.031996431032
 20
1391.740584591214
 30
0.0
 10
1204.040505917813
 20
1398.47265171851
 30
0.0
 10
1204.033876141771
 20
1404.65545464471
 30
0.0
 10
1204.028934941571
 20
1408.224731557932
 30
0.0
 10
1204.027471053276
 20
1409.282171548832
 30
0.0
  0
ARC
  5
191
330
1F
100
AcDbEntity
  8
0
  6
Continuous
 62
     8
370
    18
100
AcDbCircle
 10
1202.1073348516
 20
1366.4462121055
 30
0.0
 40
6.079399913262779
100
AcDbArc
 50
71.6779814803
 51
90.2649234322
  0
SPLINE
  5
192
330
1F
100
AcDbEntity
  8
0
  6
Continuous
 62
     8
370
    18
100
AcDbSpline
210
0.0
220
0.0
230
1.0
 70
     8
 71
     3
 72
    15
 73
    11
 74
     0
 42
0.000000001
 43
0.00000001
 40
0.0
 40
0.0
 40
0.0
 40
0.0
 40
0.1214527241786904
 40
0.2436356162157055
 40
0.3679634748124467
 40
0.4929996451849704
 40
0.6185865433805138
 40
0.7450337263104061
 40
0.8719902588119085
 40
1.0
 40
1.0
 40
1.0
 40
1.0
 10
1201.977947977337
 20
1409.089033156296
 30
0.0
 10
1201.960736315654
 20
1407.615646401355
 30
0.0
 10
1201.926209516618
 20
1404.660014962114
 30
0.0
 10
1201.894330767942
 20
1400.115060967878
 30
0.0
 10
1201.89693251049
 20
1395.501329760088
 30
0.0
 10
1201.929502312354
 20
1390.83722178089
 30
0.0
 10
1201.978283090572
 20
1386.168202131568
 30
0.0
 10
1202.030895930342
 20
1381.533177582337
 30
0.0
 10
1202.074500885141
 20
1376.947671132029
 30
0.0
 10
1202.077646035486
 20
1374.003642107209
 30
0.0
 10
1202.079225106615
 20
1372.525547031872
 30
0.0
  0
ARC
  5
193
330
1F
100
AcDbEntity
  8
0
  6
Continuous
 62
     8
370
    18
100
AcDbCircle
 10
1202.119207106
 20
1418.5610483821
 30
0.0
 40
9.473068488034901
100
AcDbArc
 50
269.1455934394
 51
281.6212347178
  0
SPLINE
  5
194
330
1F
100
AcDbEntity
  8
0
  6
Continuous
 62
     8
370
    18
100
AcDbSpline
210
0.0
220
0.0
230
1.0
 70
     8
 71
     3
 72
    15
 73
    11
 74
     0
 42
0.000000001
 43
0.00000001
 40
0.0
 40
0.0
 40
0.0
 40
0.0
 40
0.1214527241786901
 40
0.2436356162157053
 40
0.3679634748124466
 40
0.4929996451849702
 40
0.6185865433805136
 40
0.745033726310406
 40
0.8719902588119085
 40
1.0
 40
1.0
 40
1.0
 40
1.0
 10
1295.006130747722
 20
1409.089033156296
 30
0.0
 10
1295.023342409404
 20
1407.615646401355
 30
0.0
 10
1295.05786920844
 20
1404.660014962114
 30
0.0
 10
1295.089747957117
 20
1400.115060967878
 30
0.0
 10
1295.087146214569
 20
1395.501329760088
 30
0.0
 10
1295.054576412705
 20
1390.83722178089
 30
0.0
 10
1295.005795634487
 20
1386.168202131568
 30
0.0
 10
1294.953182794716
 20
1381.533177582337
 30
0.0
 10
1294.909577839918
 20
1376.947671132029
 30
0.0
 10
1294.906432689573
 20
1374.003642107209
 30
0.0
 10
1294.904853618444
 20
1372.525547031872
 30
0.0
  0
ARC
  5
195
330
1F
100
AcDbEntity
  8
0
  6
Continuous
 62
     8
370
    18
100
AcDbCircle
 10
1294.8767438734
 20
1366.4462121055
 30
0.0
 40
6.079399913257744
100
AcDbArc
 50
89.7350765678
 51
108.3220185197
  0
SPLINE
  5
196
330
1F
100
AcDbEntity
  8
0
  6
Continuous
 62
     8
370
    18
100
AcDbSpline
210
0.0
220
0.0
230
1.0
 70
     8
 71
     3
 72
    14
 73
    10
 74
     0
 42
0.000000001
 43
0.00000001
 40
0.0
 40
0.0
 40
0.0
 40
0.0
 40
0.1277343155302418
 40
0.2554736424753116
 40
0.3815295141037225
 40
0.5075900262814128
 40
0.7106819552125373
 40
0.9137761853290123
 40
1.0
 40
1.0
 40
1.0
 40
1.0
 10
1292.965640174442
 20
1372.217415269182
 30
0.0
 10
1292.967112544958
 20
1373.71316829301
 30
0.0
 10
1292.970057343756
 20
1376.704733023713
 30
0.0
 10
1292.966260992352
 20
1381.348668344472
 30
0.0
 10
1292.960599533992
 20
1386.054568431507
 30
0.0
 10
1292.951723715097
 20
1391.767683165413
 30
0.0
 10
1292.945847476214
 20
1398.494720696595
 30
0.0
 10
1292.950024629341
 20
1404.676553351241
 30
0.0
 10
1292.95509621569
 20
1408.224728923163
 30
0.0
 10
1292.956607671783
 20
1409.282171548832
 30
0.0
  0
ARC
  5
197
330
1F
100
AcDbEntity
  8
0
  6
Continuous
 62
     8
370
    18
100
AcDbCircle
 10
1294.864871619
 20
1418.5610483821
 30
0.0
 40
9.4730684880324
100
AcDbArc
 50
258.3787652822
 51
270.8544065606
  0
SPLINE
  5
198
330
1F
100
AcDbEntity
  8
0
  6
Continuous
 62
     8
370
    18
100
AcDbSpline
210
0.0
220
0.0
230
1.0
 70
     8
 71
     3
 72
    14
 73
    10
 74
     0
 42
0.000000001
 43
0.00000001
 40
0.0
 40
0.0
 40
0.0
 40
0.0
 40
0.129696900866054
 40
0.2603671951156627
 40
0.3853421446376522
 40
0.511184755725962
 40
0.6397642884787734
 40
0.7692911603858883
 40
1.0
 40
1.0
 40
1.0
 40
1.0
 10
1291.623041841968
 20
1372.016343642473
 30
0.0
 10
1291.6241483425
 20
1373.550394626421
 30
0.0
 10
1291.626369648004
 20
1376.630009861541
 30
0.0
 10
1291.601006841086
 20
1381.36587325291
 30
0.0
 10
1291.570232713745
 20
1386.137212324334
 30
0.0
 10
1291.539914862104
 20
1390.946359011792
 30
0.0
 10
1291.517858489796
 20
1395.837739266691
 30
0.0
 10
1291.516593636531
 20
1402.066765678708
 30
0.0
 10
1291.546377734436
 20
1406.557722159137
 30
0.0
 10
1291.565452619149
 20
1409.433903851346
 30
0.0
  0
ARC
  5
199
330
1F
100
AcDbEntity
  8
0
  6
Continuous
 62
     8
370
    18
100
AcDbCircle
 10
1291.604329235
 20
1403.3370864947
 30
0.0
 40
6.096941304611939
100
AcDbArc
 50
77.1854453734
 51
90.3653440292
  0
ARC
  5
19A
330
1F
100
AcDbEntity
  8
0
  6
Continuous
 62
     8
370
    18
100
AcDbCircle
 10
1291.6939594901
 20
1376.1257554881
 30
0.0
 40
4.110023726143573
100
AcDbArc
 50
269.0113235705
 51
288.0236522042
  0
ARC
  5
19B
330
1F
100
AcDbEntity
  8
0
  6
Continuous
 62
     8
370
    18
100
AcDbCircle
 10
1205.3797494901
 20
1403.3370864947
 30
0.0
 40
6.096941304610143
100
AcDbArc
 50
89.6346559708
 51
102.8145546266
  0
SPLINE
  5
19C
330
1F
100
AcDbEntity
  8
0
  6
Continuous
 62
     8
370
    18
100
AcDbSpline
210
0.0
220
0.0
230
1.0
 70
     8
 71
     3
 72
    14
 73
    10
 74
     0
 42
0.000000001
 43
0.00000001
 40
0.0
 40
0.0
 40
0.0
 40
0.0
 40
0.1296969008660541
 40
0.2603671951156628
 40
0.3853421446376523
 40
0.5111847557259621
 40
0.6397642884787735
 40
0.7692911603858884
 40
1.0
 40
1.0
 40
1.0
 40
1.0
 10
1205.361036883091
 20
1372.016343642473
 30
0.0
 10
1205.359930382559
 20
1373.550394626421
 30
0.0
 10
1205.357709077055
 20
1376.630009861541
 30
0.0
 10
1205.383071883972
 20
1381.36587325291
 30
0.0
 10
1205.413846011313
 20
1386.137212324334
 30
0.0
 10
1205.444163862955
 20
1390.946359011792
 30
0.0
 10
1205.466220235263
 20
1395.837739266691
 30
0.0
 10
1205.467485088528
 20
1402.066765678708
 30
0.0
 10
1205.437700990622
 20
1406.557722159137
 30
0.0
 10
1205.41862610591
 20
1409.433903851346
 30
0.0
  0
ARC
  5
19D
330
1F
100
AcDbEntity
  8
0
  6
Continuous
 62
     8
370
    18
100
AcDbCircle
 10
1205.290119235
 20
1376.1257554881
 30
0.0
 40
4.110023726138102
100
AcDbArc
 50
251.9763477958
 51
270.9886764295
  0
LINE
  5
19E
330
1F
100
AcDbEntity
  8
0
  6
Continuous
 62
     8
370
    18
100
AcDbLine
 10
1211.7040393765
 20
1372.0163436425
 30
0.0
 11
1205.3610368831
 21
1372.0163436425
 31
0.0
  0
LINE
  5
19F
330
1F
100
AcDbEntity
  8
0
  6
Continuous
 62
     8
370
    18
100
AcDbLine
 10
1211.5997128603
 20
1409.4339038513
 30
0.0
 11
1205.4186261059
 21
1409.4339038513
 31
0.0
  0
LINE
  5
1A0
330
1F
100
AcDbEntity
  8
0
  6
Continuous
 62
     8
370
    18
100
AcDbLine
 10
1285.2800393485
 20
1372.0163436425
 30
0.0
 11
1291.623041842
 21
1372.0163436425
 31
0.0
  0
LINE
  5
1A1
330
1F
100
AcDbEntity
  8
0
  6
Continuous
 62
     8
370
    18
100
AcDbLine
 10
1285.3843658647
 20
1409.4339038513
 30
0.0
 11
1291.5654526191
 21
1409.4339038513
 31
0.0
  0
SPLINE
  5
1A2
330
1F
100
AcDbEntity
  8
0
  6
Continuous
 62
     8
370
    18
100
AcDbSpline
210
0.0
220
0.0
230
1.0
 70
     8
 71
     3
 72
    14
 73
    10
 74
     0
 42
0.000000001
 43
0.00000001
 40
0.0
 40
0.0
 40
0.0
 40
0.0
 40
0.083481340853267
 40
0.2549666805167995
 40
0.4263786377711392
 40
0.5910988460081826
 40
0.7558798437661323
 40
0.8779365795297039
 40
1.0
 40
1.0
 40
1.0
 40
1.0
 10
1294.833656394659
 20
1370.522312986432
 30
0.0
 10
1295.734743448251
 20
1370.537973759443
 30
0.0
 10
1298.486821608026
 20
1370.585804511418
 30
0.0
 10
1303.089386320586
 20
1370.671017615947
 30
0.0
 10
1308.389538452092
 20
1370.726567223624
 30
0.0
 10
1313.282309779066
 20
1370.791037163157
 30
0.0
 10
1317.308632632323
 20
1370.813299855555
 30
0.0
 10
1320.613600500787
 20
1370.809582444532
 30
0.0
 10
1322.32663473166
 20
1370.793204125946
 30
0.0
 10
1323.183175300981
 20
1370.78501474241
 30
0.0
  0
LINE
  5
1A3
330
1F
100
AcDbEntity
  8
0
  6
Continuous
 62
     8
370
    18
100
AcDbLine
 10
1294.9048536184
 20
1372.5255470319
 30
0.0
 11
1294.8336563947
 21
1370.5223129864
 31
0.0
  0
SPLINE
  5
1A4
330
1F
100
AcDbEntity
  8
0
  6
Continuous
 62
     8
370
    18
100
AcDbSpline
210
0.0
220
0.0
230
1.0
 70
     8
 71
     3
 72
    10
 73
     6
 74
     0
 42
0.000000001
 43
0.00000001
 40
0.0
 40
0.0
 40
0.0
 40
0.0
 40
0.0305940752880607
 40
0.8849546452569947
 40
0.9999999999999999
 40
0.9999999999999999
 40
0.9999999999999999
 40
0.9999999999999999
 10
1294.922875227975
 20
1419.867983571374
 30
0.0
 10
1294.923087364971
 20
1419.759545329198
 30
0.0
 10
1294.929223573307
 20
1416.622894679237
 30
0.0
 10
1294.969669141551
 20
1413.025108215803
 30
0.0
 10
1295.002262673152
 20
1409.506596545352
 30
0.0
 10
1295.006130747722
 20
1409.089033156296
 30
0.0
  0
SPLINE
  5
1A5
330
1F
100
AcDbEntity
  8
0
  6
Continuous
 62
     8
370
    18
100
AcDbSpline
210
0.0
220
0.0
230
1.0
 70
     8
 71
     3
 72
    12
 73
     8
 74
     0
 42
0.000000001
 43
0.00000001
 40
0.0
 40
0.0
 40
0.0
 40
0.0
 40
0.000011396415791
 40
0.016561542624936
 40
0.2254762501766381
 40
0.6569695733823662
 40
1.0
 40
1.0
 40
1.0
 40
1.0
 10
1293.715072054892
 20
1424.482141027372
 30
0.0
 10
1293.715084836374
 20
1424.482127218717
 30
0.0
 10
1293.733659190229
 20
1424.462060152526
 30
0.0
 10
1293.982269357874
 20
1424.185361173328
 30
0.0
 10
1294.534229282554
 20
1423.249125479259
 30
0.0
 10
1294.866422600129
 20
1421.67414443201
 30
0.0
 10
1294.905547236704
 20
1420.422380077266
 30
0.0
 10
1294.922875227975
 20
1419.867983571374
 30
0.0
  0
SPLINE
  5
1A6
330
1F
100
AcDbEntity
  8
0
  6
Continuous
 62
     8
370
    18
100
AcDbSpline
210
0.0
220
0.0
230
1.0
 70
     8
 71
     3
 72
    11
 73
     7
 74
     0
 42
0.000000001
 43
0.00000001
 40
0.0
 40
0.0
 40
0.0
 40
0.0
 40
0.2986044395549415
 40
0.5785107697797107
 40
0.9999675635115337
 40
1.0
 40
1.0
 40
1.0
 40
1.0
 10
1291.994411388069
 20
1425.023667900952
 30
0.0
 10
1292.179297314105
 20
1425.017831821857
 30
0.0
 10
1292.53749191949
 20
1425.006525109154
 30
0.0
 10
1293.130799341801
 20
1424.833091160843
 30
0.0
 10
1293.506171020661
 20
1424.627386256316
 30
0.0
 10
1293.715055979761
 20
1424.482152204128
 30
0.0
 10
1293.715072054892
 20
1424.482141027372
 30
0.0
  0
LINE
  5
1A7
330
1F
100
AcDbEntity
  8
0
  6
Continuous
 62
     8
370
    18
100
AcDbLine
 10
1284.8880205248
 20
1424.9007469808
 30
0.0
 11
1291.9944113881
 21
1425.023667901
 31
0.0
  0
SPLINE
  5
1A8
330
1F
100
AcDbEntity
  8
0
  6
Continuous
 62
     8
370
    18
100
AcDbSpline
210
0.0
220
0.0
230
1.0
 70
     8
 71
     3
 72
    11
 73
     7
 74
     0
 42
0.000000001
 43
0.00000001
 40
0.0
 40
0.0
 40
0.0
 40
0.0
 40
0.0000403578891936
 40
0.167089691390114
 40
0.6133765181115398
 40
1.0
 40
1.0
 40
1.0
 40
1.0
 10
1283.482048911513
 20
1424.51065497948
 30
0.0
 10
1283.482065984588
 20
1424.510664596601
 30
0.0
 10
1283.552751911375
 20
1424.550481391793
 30
0.0
 10
1283.817329287547
 20
1424.687213633745
 30
0.0
 10
1284.283061083099
 20
1424.858403583878
 30
0.0
 10
1284.696232869883
 20
1424.887323038243
 30
0.0
 10
1284.888020524777
 20
1424.900746980803
 30
0.0
  0
SPLINE
  5
1A9
330
1F
100
AcDbEntity
  8
0
  6
Continuous
 62
     8
370
    18
100
AcDbSpline
210
0.0
220
0.0
230
1.0
 70
     8
 71
     3
 72
    11
 73
     7
 74
     0
 42
0.000000001
 43
0.00000001
 40
0.0
 40
0.0
 40
0.0
 40
0.0
 40
0.5574252101166758
 40
0.8582360298869187
 40
0.9999887157359582
 40
1.0
 40
1.0
 40
1.0
 40
1.0
 10
1282.114837390619
 20
1419.928249651195
 30
0.0
 10
1282.156197229638
 20
1420.841642632153
 30
0.0
 10
1282.219876631632
 20
1422.247942080898
 30
0.0
 10
1282.831947735981
 20
1423.786233888076
 30
0.0
 10
1283.305800432876
 20
1424.353065528136
 30
0.0
 10
1283.482034883435
 20
1424.510642436522
 30
0.0
 10
1283.482048911513
 20
1424.51065497948
 30
0.0
  0
SPLINE
  5
1AA
330
1F
100
AcDbEntity
  8
0
  6
Continuous
 62
     8
370
    18
100
AcDbSpline
210
0.0
220
0.0
230
1.0
 70
     8
 71
     3
 72
     9
 73
     5
 74
     0
 42
0.000000001
 43
0.00000001
 40
0.0
 40
0.0
 40
0.0
 40
0.0
 40
0.8892351459143061
 40
1.0
 40
1.0
 40
1.0
 40
1.0
 10
1281.997301926428
 20
1409.132890986103
 30
0.0
 10
1282.046364433047
 20
1412.359879342454
 30
0.0
 10
1282.101538260626
 20
1415.988827625906
 30
0.0
 10
1282.113511208766
 20
1419.535412675657
 30
0.0
 10
1282.114837390619
 20
1419.928249651195
 30
0.0
  0
LINE
  5
1AB
330
1F
100
AcDbEntity
  8
0
  6
Continuous
 62
     8
370
    18
100
AcDbLine
 10
1282.2238517708
 20
1370.397821374
 30
0.0
 11
1282.141432179
 21
1372.4552274042
 31
0.0
  0
SPLINE
  5
1AC
330
1F
100
AcDbEntity
  8
0
  6
Continuous
 62
     8
370
    18
100
AcDbSpline
210
0.0
220
0.0
230
1.0
 70
     8
 71
     3
 72
     9
 73
     5
 74
     0
 42
0.000000001
 43
0.00000001
 40
0.0
 40
0.0
 40
0.0
 40
0.0
 40
0.0843934950201051
 40
1.0
 40
1.0
 40
1.0
 40
1.0
 10
1269.983952741134
 20
1370.402625434855
 30
0.0
 10
1270.328263134455
 20
1370.400820899875
 30
0.0
 10
1274.408084609307
 20
1370.379438505651
 30
0.0
 10
1278.488132960118
 20
1370.389034875414
 30
0.0
 10
1282.223851770753
 20
1370.397821373994
 30
0.0
  0
SPLINE
  5
1AD
330
1F
100
AcDbEntity
  8
0
  6
Continuous
 62
     8
370
    18
100
AcDbSpline
210
0.0
220
0.0
230
1.0
 70
     8
 71
     3
 72
    12
 73
     8
 74
     0
 42
0.000000001
 43
0.00000001
 40
0.0
 40
0.0
 40
0.0
 40
0.0
 40
0.3429907427795655
 40
0.6931111831538849
 40
0.8460382371952906
 40
0.9999906400284372
 40
0.9999999999999999
 40
0.9999999999999999
 40
0.9999999999999999
 40
0.9999999999999999
 10
1334.90088202984
 20
1413.802055323592
 30
0.0
 10
1334.941526447332
 20
1414.191584040623
 30
0.0
 10
1335.023660151781
 20
1414.978738550232
 30
0.0
 10
1335.106905734104
 20
1415.653580885093
 30
0.0
 10
1335.156992718659
 20
1416.017048303371
 30
0.0
 10
1335.17542820028
 20
1416.133481520544
 30
0.0
 10
1335.183283082836
 20
1416.177736716029
 30
0.0
 10
1335.183283560367
 20
1416.177739406485
 30
0.0
  0
SPLINE
  5
1AE
330
1F
100
AcDbEntity
  8
0
  6
Continuous
 62
     8
370
    18
100
AcDbSpline
210
0.0
220
0.0
230
1.0
 70
     8
 71
     3
 72
    20
 73
    16
 74
     0
 42
0.000000001
 43
0.00000001
 40
0.0
 40
0.0
 40
0.0
 40
0.0
 40
0.0777495206401191
 40
0.1580444463721884
 40
0.2279673988375376
 40
0.2994604618770939
 40
0.3760581917562253
 40
0.4543933132980215
 40
0.5398335171527775
 40
0.6277318368777263
 40
0.7140713710304734
 40
0.8026163874373405
 40
0.8879068463690991
 40
0.97583557289479
 40
1.0
 40
1.0
 40
1.0
 40
1.0
 10
1323.183175300981
 20
1370.78501474241
 30
0.0
 10
1323.178544723775
 20
1371.949859680034
 30
0.0
 10
1323.169131971069
 20
1374.317684867385
 30
0.0
 10
1323.650997751115
 20
1378.136777879817
 30
0.0
 10
1324.42020589525
 20
1381.977010090382
 30
0.0
 10
1325.409529933544
 20
1385.825725307691
 30
0.0
 10
1326.582215823617
 20
1389.82408423491
 30
0.0
 10
1327.878589656725
 20
1394.004598702617
 30
0.0
 10
1329.166495164095
 20
1398.228244406152
 30
0.0
 10
1330.379448599357
 20
1402.304028629546
 30
0.0
 10
1331.547482878712
 20
1405.995707344945
 30
0.0
 10
1332.671107008273
 20
1409.166014890708
 30
0.0
 10
1333.782759609737
 20
1411.725739958923
 30
0.0
 10
1334.511249281874
 20
1413.140113510505
 30
0.0
 10
1334.831783106425
 20
1413.684664095862
 30
0.0
 10
1334.90088202984
 20
1413.802055323592
 30
0.0
  0
LINE
  5
1AF
330
1F
100
AcDbEntity
  8
0
  6
Continuous
 62
     8
370
    18
100
AcDbLine
 10
1214.7602269543
 20
1370.397821374
 30
0.0
 11
1214.8426465461
 21
1372.4552274042
 31
0.0
  0
SPLINE
  5
1B0
330
1F
100
AcDbEntity
  8
0
  6
Continuous
 62
     8
370
    18
100
AcDbSpline
210
0.0
220
0.0
230
1.0
 70
     8
 71
     3
 72
     9
 73
     5
 74
     0
 42
0.000000001
 43
0.00000001
 40
0.0
 40
0.0
 40
0.0
 40
0.0
 40
0.8892351459143044
 40
0.9999999999999999
 40
0.9999999999999999
 40
0.9999999999999999
 40
0.9999999999999999
 10
1214.986776798632
 20
1409.132890986103
 30
0.0
 10
1214.937714292013
 20
1412.359879342454
 30
0.0
 10
1214.882540464433
 20
1415.988827625906
 30
0.0
 10
1214.870567516293
 20
1419.535412675657
 30
0.0
 10
1214.869241334439
 20
1419.928249651195
 30
0.0
  0
SPLINE
  5
1B1
330
1F
100
AcDbEntity
  8
0
  6
Continuous
 62
     8
370
    18
100
AcDbSpline
210
0.0
220
0.0
230
1.0
 70
     8
 71
     3
 72
    11
 73
     7
 74
     0
 42
0.000000001
 43
0.00000001
 40
0.0
 40
0.0
 40
0.0
 40
0.0
 40
0.5574252101167234
 40
0.8582360298869939
 40
0.9999887157360463
 40
1.0
 40
1.0
 40
1.0
 40
1.0
 10
1214.869241334439
 20
1419.928249651195
 30
0.0
 10
1214.827881495076
 20
1420.841642631825
 30
0.0
 10
1214.764202092552
 20
1422.247942080066
 30
0.0
 10
1214.15213099044
 20
1423.786233889371
 30
0.0
 10
1213.678278290817
 20
1424.353065526837
 30
0.0
 10
1213.502043841624
 20
1424.510642436522
 30
0.0
 10
1213.502029813546
 20
1424.51065497948
 30
0.0
  0
SPLINE
  5
1B2
330
1F
100
AcDbEntity
  8
0
  6
Continuous
 62
     8
370
    18
100
AcDbSpline
210
0.0
220
0.0
230
1.0
 70
     8
 71
     3
 72
    11
 73
     7
 74
     0
 42
0.000000001
 43
0.00000001
 40
0.0
 40
0.0
 40
0.0
 40
0.0
 40
0.0000403578895606
 40
0.1670896913904197
 40
0.6133765181116816
 40
1.0
 40
1.0
 40
1.0
 40
1.0
 10
1213.502029813546
 20
1424.51065497948
 30
0.0
 10
1213.502012740471
 20
1424.510664596601
 30
0.0
 10
1213.431326813428
 20
1424.550481391409
 30
0.0
 10
1213.166749437841
 20
1424.687213634238
 30
0.0
 10
1212.701017641866
 20
1424.858403583737
 30
0.0
 10
1212.287845855145
 20
1424.887323038198
 30
0.0
 10
1212.096058200282
 20
1424.900746980803
 30
0.0
  0
LINE
  5
1B3
330
1F
100
AcDbEntity
  8
0
  6
Continuous
 62
     8
370
    18
100
AcDbLine
 10
1212.0960582003
 20
1424.9007469808
 30
0.0
 11
1204.989667337
 21
1425.023667901
 31
0.0
  0
SPLINE
  5
1B4
330
1F
100
AcDbEntity
  8
0
  6
Continuous
 62
     8
370
    18
100
AcDbSpline
210
0.0
220
0.0
230
1.0
 70
     8
 71
     3
 72
    11
 73
     7
 74
     0
 42
0.000000001
 43
0.00000001
 40
0.0
 40
0.0
 40
0.0
 40
0.0
 40
0.2986044395549169
 40
0.5785107697796631
 40
0.9999675635114516
 40
1.0
 40
1.0
 40
1.0
 40
1.0
 10
1204.98966733699
 20
1425.023667900952
 30
0.0
 10
1204.804781410959
 20
1425.017831821851
 30
0.0
 10
1204.446586805586
 20
1425.006525109137
 30
0.0
 10
1203.853279383183
 20
1424.833091160917
 30
0.0
 10
1203.477907704647
 20
1424.627386256068
 30
0.0
 10
1203.269022745298
 20
1424.482152204128
 30
0.0
 10
1203.269006670167
 20
1424.482141027372
 30
0.0
  0
SPLINE
  5
1B5
330
1F
100
AcDbEntity
  8
0
  6
Continuous
 62
     8
370
    18
100
AcDbSpline
210
0.0
220
0.0
230
1.0
 70
     8
 71
     3
 72
    12
 73
     8
 74
     0
 42
0.000000001
 43
0.00000001
 40
0.0
 40
0.0
 40
0.0
 40
0.0
 40
0.0000113964157658
 40
0.0165615426249112
 40
0.2254762501766183
 40
0.6569695733823566
 40
1.0
 40
1.0
 40
1.0
 40
1.0
 10
1203.269006670167
 20
1424.482141027372
 30
0.0
 10
1203.268993888685
 20
1424.482127218717
 30
0.0
 10
1203.250419534867
 20
1424.462060152494
 30
0.0
 10
1203.001809366951
 20
1424.185361173534
 30
0.0
 10
1202.449849442724
 20
1423.249125479066
 30
0.0
 10
1202.117656124876
 20
1421.674144432057
 30
0.0
 10
1202.078531488338
 20
1420.422380077281
 30
0.0
 10
1202.061203497084
 20
1419.867983571374
 30
0.0
  0
SPLINE
  5
1B6
330
1F
100
AcDbEntity
  8
0
  6
Continuous
 62
     8
370
    18
100
AcDbSpline
210
0.0
220
0.0
230
1.0
 70
     8
 71
     3
 72
    10
 73
     6
 74
     0
 42
0.000000001
 43
0.00000001
 40
0.0
 40
0.0
 40
0.0
 40
0.0
 40
0.0305940752880602
 40
0.8849546452569956
 40
1.0
 40
1.0
 40
1.0
 40
1.0
 10
1202.061203497084
 20
1419.867983571374
 30
0.0
 10
1202.060991360088
 20
1419.759545329198
 30
0.0
 10
1202.054855151752
 20
1416.622894679237
 30
0.0
 10
1202.014409583508
 20
1413.025108215803
 30
0.0
 10
1201.981816051907
 20
1409.506596545352
 30
0.0
 10
1201.977947977337
 20
1409.089033156296
 30
0.0
  0
LINE
  5
1B7
330
1F
100
AcDbEntity
  8
0
  6
Continuous
 62
     8
370
    18
100
AcDbLine
 10
1202.0792251066
 20
1372.5255470319
 30
0.0
 11
1202.1504223304
 21
1370.5223129864
 31
0.0
  0
SPLINE
  5
1B8
330
1F
100
AcDbEntity
  8
0
  6
Continuous
 62
     8
370
    18
100
AcDbSpline
210
0.0
220
0.0
230
1.0
 70
     8
 71
     3
 72
    18
 73
    14
 74
     0
 42
0.000000001
 43
0.00000001
 40
0.0
 40
0.0
 40
0.0
 40
0.0
 40
0.0497884573626106
 40
0.1520626953526053
 40
0.2542931679105416
 40
0.3525326664708924
 40
0.4508084200367183
 40
0.5543273934134058
 40
0.6578565275353612
 40
0.7740307271289424
 40
0.8901694733964504
 40
0.9999988953086805
 40
1.0
 40
1.0
 40
1.0
 40
1.0
 10
1202.1504223304
 20
1370.522312986432
 30
0.0
 10
1201.249332055296
 20
1370.537973882626
 30
0.0
 10
1198.497244056459
 20
1370.585805010825
 30
0.0
 10
1193.894813648339
 20
1370.671012979855
 30
0.0
 10
1188.59410363412
 20
1370.726583919709
 30
0.0
 10
1183.703326082779
 20
1370.790977621756
 30
0.0
 10
1179.210153716977
 20
1370.816067274368
 30
0.0
 10
1175.178514368927
 20
1370.804916467553
 30
0.0
 10
1171.568317080789
 20
1370.758019803646
 30
0.0
 10
1168.656221235443
 20
1370.679138467121
 30
0.0
 10
1166.67640550071
 20
1370.553867146
 30
0.0
 10
1166.084699234529
 20
1370.429507557362
 30
0.0
 10
1165.972281478251
 20
1370.362078626137
 30
0.0
 10
1165.972280347537
 20
1370.362077947927
 30
0.0
  0
SPLINE
  5
1B9
330
1F
100
AcDbEntity
  8
0
  6
Continuous
 62
     8
370
    18
100
AcDbSpline
210
0.0
220
0.0
230
1.0
 70
     8
 71
     3
 72
     9
 73
     5
 74
     0
 42
0.000000001
 43
0.00000001
 40
0.0
 40
0.0
 40
0.0
 40
0.0
 40
0.08439349502011
 40
1.0
 40
1.0
 40
1.0
 40
1.0
 10
1227.000125983924
 20
1370.402625434855
 30
0.0
 10
1226.655815590604
 20
1370.400820899875
 30
0.0
 10
1222.575994115753
 20
1370.379438505651
 30
0.0
 10
1218.495945764942
 20
1370.389034875414
 30
0.0
 10
1214.760226954307
 20
1370.397821373994
 30
0.0
  0
SPLINE
  5
1BA
330
1F
100
AcDbEntity
  8
0
  6
Continuous
 62
     8
370
    18
100
AcDbSpline
210
0.0
220
0.0
230
1.0
 70
     8
 71
     3
 72
     9
 73
     5
 74
     0
 42
0.000000001
 43
0.00000001
 40
0.0
 40
0.0
 40
0.0
 40
0.0
 40
0.3531288107769724
 40
1.0
 40
1.0
 40
1.0
 40
1.0
 10
1212.953025147328
 20
1420.144677388025
 30
0.0
 10
1212.953148586154
 20
1418.879684578223
 30
0.0
 10
1212.953498143656
 20
1415.297442712943
 30
0.0
 10
1212.952193311631
 20
1411.646791388187
 30
0.0
 10
1212.951349253388
 20
1409.285290224303
 30
0.0
  0
LINE
  5
1BB
330
1F
100
AcDbEntity
  8
0
  6
Continuous
 62
     8
370
    18
100
AcDbLine
 10
1211.6860460125
 20
1420.293602886
 30
0.0
 11
1211.5997128603
 21
1409.4339038513
 31
0.0
  0
ARC
  5
1BC
330
1F
100
AcDbEntity
  8
0
  6
Continuous
 62
     8
370
    18
100
AcDbCircle
 10
1211.7333326352
 20
1415.2320364535
 30
0.0
 40
5.061787310425442
100
AcDbArc
 50
76.056743273
 51
90.5352582305
  0
LINE
  5
1BD
330
1F
100
AcDbEntity
  8
0
  6
Continuous
 62
     8
370
    18
100
AcDbLine
 10
1285.2980327126
 20
1420.293602886
 30
0.0
 11
1285.3843658647
 21
1409.4339038513
 31
0.0
  0
SPLINE
  5
1BE
330
1F
100
AcDbEntity
  8
0
  6
Continuous
 62
     8
370
    18
100
AcDbSpline
210
0.0
220
0.0
230
1.0
 70
     8
 71
     3
 72
     9
 73
     5
 74
     0
 42
0.000000001
 43
0.00000001
 40
0.0
 40
0.0
 40
0.0
 40
0.0
 40
0.3531288107769724
 40
1.0
 40
1.0
 40
1.0
 40
1.0
 10
1284.031053577731
 20
1420.144677388025
 30
0.0
 10
1284.030930138905
 20
1418.879684578223
 30
0.0
 10
1284.030580581403
 20
1415.297442712943
 30
0.0
 10
1284.031885413428
 20
1411.646791388187
 30
0.0
 10
1284.032729471671
 20
1409.285290224303
 30
0.0
  0
ARC
  5
1BF
330
1F
100
AcDbEntity
  8
0
  6
Continuous
 62
     8
370
    18
100
AcDbCircle
 10
1285.2507460899
 20
1415.2320364535
 30
0.0
 40
5.061787310421605
100
AcDbArc
 50
89.4647417695
 51
103.943256727
  0
SPLINE
  5
1C0
330
1F
100
AcDbEntity
  8
0
  6
Continuous
 62
     8
370
    18
100
AcDbSpline
210
0.0
220
0.0
230
1.0
 70
     8
 71
     3
 72
    10
 73
     6
 74
     0
 42
0.000000001
 43
0.00000001
 40
0.0
 40
0.0
 40
0.0
 40
0.0
 40
0.0049102993503903
 40
0.1151643441716845
 40
0.9999999999999999
 40
0.9999999999999999
 40
0.9999999999999999
 40
0.9999999999999999
 10
1204.027471053276
 20
1409.282171548832
 30
0.0
 10
1204.02744895542
 20
1409.300107110918
 30
0.0
 10
1204.026930680502
 20
1409.720761147983
 30
0.0
 10
1204.021626857049
 20
1413.369550773157
 30
0.0
 10
1204.019212953463
 20
1416.943493063382
 30
0.0
 10
1204.017066505801
 20
1420.121449350338
 30
0.0
  0
ARC
  5
1C1
330
1F
100
AcDbEntity
  8
0
  6
Continuous
 62
     8
370
    18
100
AcDbCircle
 10
1205.3053067953
 20
1415.3990963019
 30
0.0
 40
4.894913825389767
100
AcDbArc
 50
89.260915705
 51
105.2587981171
  0
SPLINE
  5
1C2
330
1F
100
AcDbEntity
  8
0
  6
Continuous
 62
     8
370
    18
100
AcDbSpline
210
0.0
220
0.0
230
1.0
 70
     8
 71
     3
 72
     9
 73
     5
 74
     0
 42
0.000000001
 43
0.00000001
 40
0.0
 40
0.0
 40
0.0
 40
0.0
 40
0.8536363424240662
 40
1.0
 40
1.0
 40
1.0
 40
1.0
 10
1205.41862610591
 20
1409.433903851346
 30
0.0
 10
1205.397978353396
 20
1412.544984733646
 30
0.0
 10
1205.373790357304
 20
1416.189488520195
 30
0.0
 10
1205.369129013278
 20
1419.7696040784
 30
0.0
 10
1205.368446761918
 20
1420.293602886044
 30
0.0
  0
SPLINE
  5
1C3
330
1F
100
AcDbEntity
  8
0
  6
Continuous
 62
     8
370
    18
100
AcDbSpline
210
0.0
220
0.0
230
1.0
 70
     8
 71
     3
 72
     9
 73
     5
 74
     0
 42
0.000000001
 43
0.00000001
 40
0.0
 40
0.0
 40
0.0
 40
0.0
 40
0.8536363424240662
 40
1.0
 40
1.0
 40
1.0
 40
1.0
 10
1291.565452619149
 20
1409.433903851346
 30
0.0
 10
1291.586100371663
 20
1412.544984733646
 30
0.0
 10
1291.610288367755
 20
1416.189488520195
 30
0.0
 10
1291.61494971178
 20
1419.7696040784
 30
0.0
 10
1291.615631963141
 20
1420.293602886044
 30
0.0
  0
ARC
  5
1C4
330
1F
100
AcDbEntity
  8
0
  6
Continuous
 62
     8
370
    18
100
AcDbCircle
 10
1291.6787719297
 20
1415.3990963019
 30
0.0
 40
4.894913825386357
100
AcDbArc
 50
74.7412018829
 51
90.739084295
  0
SPLINE
  5
1C5
330
1F
100
AcDbEntity
  8
0
  6
Continuous
 62
     8
370
    18
100
AcDbSpline
210
0.0
220
0.0
230
1.0
 70
     8
 71
     3
 72
    10
 73
     6
 74
     0
 42
0.000000001
 43
0.00000001
 40
0.0
 40
0.0
 40
0.0
 40
0.0
 40
0.0049102993503903
 40
0.1151643441716845
 40
0.9999999999999999
 40
0.9999999999999999
 40
0.9999999999999999
 40
0.9999999999999999
 10
1292.956607671783
 20
1409.282171548832
 30
0.0
 10
1292.956629769639
 20
1409.300107110918
 30
0.0
 10
1292.957148044557
 20
1409.720761147983
 30
0.0
 10
1292.96245186801
 20
1413.369550773157
 30
0.0
 10
1292.964865771595
 20
1416.943493063382
 30
0.0
 10
1292.967012219258
 20
1420.121449350338
 30
0.0
  0
LINE
  5
1C6
330
1F
100
AcDbEntity
  8
0
  6
Continuous
 62
     8
370
    18
100
AcDbLine
 10
1285.2980327126
 20
1420.293602886
 30
0.0
 11
1291.6156319631
 21
1420.293602886
 31
0.0
  0
LINE
  5
1C7
330
1F
100
AcDbEntity
  8
0
  6
Continuous
 62
     8
370
    18
100
AcDbLine
 10
1211.6860460125
 20
1420.293602886
 30
0.0
 11
1205.3684467619
 21
1420.293602886
 31
0.0
  0
ARC
  5
1C8
330
1F
100
AcDbEntity
  8
0
  6
Continuous
 62
     8
370
    18
100
AcDbCircle
 10
1282.2210066057
 20
1427.5793925969
 30
0.0
 40
7.651879525844453
100
AcDbArc
 50
269.2050001421
 51
283.6829680609
  0
ARC
  5
1C9
330
1F
100
AcDbEntity
  8
0
  6
Continuous
 62
     8
370
    18
100
AcDbCircle
 10
1214.7630721193
 20
1427.5793925969
 30
0.0
 40
7.651879525844429
100
AcDbArc
 50
256.3170319391
 51
270.7949998579
  0
ARC
  5
1CA
330
1F
100
AcDbEntity
  8
0
  6
Continuous
 62
     8
370
    18
100
AcDbCircle
 10
1294.8739925854
 20
1427.1637012029
 30
0.0
 40
7.295881391055953
100
AcDbArc
 50
254.8481769985
 51
270.3838864582
  0
ARC
  5
1CB
330
1F
100
AcDbEntity
  8
0
  6
Continuous
 62
     8
370
    18
100
AcDbCircle
 10
1202.1100861397
 20
1427.1637012029
 30
0.0
 40
7.295881391054577
100
AcDbArc
 50
269.6161135418
 51
285.1518230015
  0
LINE
  5
1CC
330
1F
100
AcDbEntity
  8
0
  6
Continuous
 62
     8
370
    18
100
AcDbLine
 10
1202.1504223304
 20
1370.5223129864
 30
0.0
 11
1202.1642092816
 21
1370.3652011269
 31
0.0
  0
SPLINE
  5
1CD
330
1F
100
AcDbEntity
  8
0
  6
Continuous
 62
     8
370
    18
100
AcDbSpline
210
0.0
220
0.0
230
1.0
 70
     8
 71
     3
 72
    14
 73
    10
 74
     0
 42
0.000000001
 43
0.00000001
 40
0.0
 40
0.0
 40
0.0
 40
0.0
 40
0.2135072054013608
 40
0.6517504153255619
 40
0.8731400298126233
 40
0.9340362681777998
 40
0.9607431005770671
 40
0.9801118651181869
 40
1.0
 40
1.0
 40
1.0
 40
1.0
 10
1202.164209281619
 20
1370.365201126917
 30
0.0
 10
1202.220456532791
 20
1369.771332258388
 30
0.0
 10
1202.392156449162
 20
1367.9584928229
 30
0.0
 10
1202.74964242213
 20
1365.904468860818
 30
0.0
 10
1203.201366306587
 20
1364.573012468188
 30
0.0
 10
1203.700405388395
 20
1364.122441897728
 30
0.0
 10
1203.970607721422
 20
1364.013562588881
 30
0.0
 10
1204.170675951477
 20
1363.974116650415
 30
0.0
 10
1204.29652894991
 20
1363.973496926078
 30
0.0
 10
1204.360287969214
 20
1363.97318296442
 30
0.0
  0
LINE
  5
1CE
330
1F
100
AcDbEntity
  8
0
  6
Continuous
 62
     8
370
    18
100
AcDbLine
 10
1204.3602879692
 20
1363.9731829644
 30
0.0
 11
1212.6536375593
 21
1364.1917010059
 31
0.0
  0
SPLINE
  5
1CF
330
1F
100
AcDbEntity
  8
0
  6
Continuous
 62
     8
370
    18
100
AcDbSpline
210
0.0
220
0.0
230
1.0
 70
     8
 71
     3
 72
    16
 73
    12
 74
     0
 42
0.000000001
 43
0.00000001
 40
0.0
 40
0.0
 40
0.0
 40
0.0
 40
0.0145165189494729
 40
0.041073550409797
 40
0.0660449149745839
 40
0.1244471088434245
 40
0.1776973916031253
 40
0.2535931192178164
 40
0.3633556422017122
 40
0.5223716192680045
 40
1.0
 40
1.0
 40
1.0
 40
1.0
 10
1212.653637559305
 20
1364.191701005872
 30
0.0
 10
1212.696299852952
 20
1364.193768155576
 30
0.0
 10
1212.817010050402
 20
1364.199617021811
 30
0.0
 10
1212.996171330099
 20
1364.244872402277
 30
0.0
 10
1213.235490496811
 20
1364.358930257398
 30
0.0
 10
1213.443065236823
 20
1364.547305369307
 30
0.0
 10
1213.648359041512
 20
1364.834688189541
 30
0.0
 10
1213.845425102818
 20
1365.234232782829
 30
0.0
 10
1214.060404346681
 20
1365.863227870068
 30
0.0
 10
1214.41884949754
 20
1367.354897859675
 30
0.0
 10
1214.59964607076
 20
1368.949879805855
 30
0.0
 10
1214.735284710216
 20
1370.146479814822
 30
0.0
  0
LINE
  5
1D0
330
1F
100
AcDbEntity
  8
0
  6
Continuous
 62
     8
370
    18
100
AcDbLine
 10
1214.7352847102
 20
1370.1464798148
 30
0.0
 11
1214.7602269543
 21
1370.397821374
 31
0.0
  0
SPLINE
  5
1D1
330
1F
100
AcDbEntity
  8
0
  6
Continuous
 62
     8
370
    18
100
AcDbSpline
210
0.0
220
0.0
230
1.0
 70
     8
 71
     3
 72
     9
 73
     5
 74
     0
 42
0.000000001
 43
0.00000001
 40
0.0
 40
0.0
 40
0.0
 40
0.0
 40
0.0094533958096251
 40
1.0
 40
1.0
 40
1.0
 40
1.0
 10
1248.492039362529
 20
1362.076071422714
 30
0.0
 10
1248.482831270851
 20
1362.076071445691
 30
0.0
 10
1247.50878005544
 20
1362.076073876291
 30
0.0
 10
1246.536921466961
 20
1362.201396777514
 30
0.0
 10
1245.574250242389
 20
1362.325534951746
 30
0.0
  0
SPLINE
  5
1D2
330
1F
100
AcDbEntity
  8
0
  6
Continuous
 62
     8
370
    18
100
AcDbSpline
210
0.0
220
0.0
230
1.0
 70
     8
 71
     3
 72
    12
 73
     8
 74
     0
 42
0.000000001
 43
0.00000001
 40
0.0
 40
0.0
 40
0.0
 40
0.0
 40
0.0986927005379105
 40
0.3626715646535656
 40
0.6320534788937997
 40
0.8140997464528011
 40
1.0
 40
1.0
 40
1.0
 40
1.0
 10
1244.578683691591
 20
1362.411463029614
 30
0.0
 10
1243.96434871767
 20
1362.452443098394
 30
0.0
 10
1241.706817765542
 20
1362.603034840063
 30
0.0
 10
1237.825744330376
 20
1363.711190122412
 30
0.0
 10
1233.548486220469
 20
1365.527223467068
 30
0.0
 10
1229.894766420544
 20
1367.786860291531
 30
0.0
 10
1227.971720323229
 20
1369.524636385143
 30
0.0
 10
1227.000125983924
 20
1370.402625434855
 30
0.0
  0
LINE
  5
1D3
330
1F
100
AcDbEntity
  8
0
  6
Continuous
 62
     8
370
    18
100
AcDbLine
 10
1212.6391482557
 20
1364.3351599796
 30
0.0
 11
1204.3266904389
 21
1364.1166419381
 31
0.0
  0
SPLINE
  5
1D4
330
1F
100
AcDbEntity
  8
0
  6
Continuous
 62
     8
370
    18
100
AcDbSpline
210
0.0
220
0.0
230
1.0
 70
     8
 71
     3
 72
    10
 73
     6
 74
     0
 42
0.000000001
 43
0.00000001
 40
0.0
 40
0.0
 40
0.0
 40
0.0
 40
0.445489637819774
 40
0.7187778752024849
 40
1.0
 40
1.0
 40
1.0
 40
1.0
 10
1204.326690438882
 20
1364.116641938118
 30
0.0
 10
1204.551751273695
 20
1364.728302622596
 30
0.0
 10
1204.914877000772
 20
1365.715190149961
 30
0.0
 10
1205.149941537166
 20
1367.791902018907
 30
0.0
 10
1205.248747138282
 20
1369.154608540836
 30
0.0
 10
1205.298856789936
 20
1369.845710546695
 30
0.0
  0
LINE
  5
1D5
330
1F
100
AcDbEntity
  8
0
  6
Continuous
 62
     8
370
    18
100
AcDbLine
 10
1205.2988567899
 20
1369.8457105467
 30
0.0
 11
1205.3610368831
 21
1372.0163436425
 31
0.0
  0
LINE
  5
1D6
330
1F
100
AcDbEntity
  8
0
  6
Continuous
 62
     8
370
    18
100
AcDbLine
 10
1211.7040393765
 20
1372.0163436425
 30
0.0
 11
1211.7713657518
 21
1369.7184301122
 31
0.0
  0
SPLINE
  5
1D7
330
1F
100
AcDbEntity
  8
0
  6
Continuous
 62
     8
370
    18
100
AcDbSpline
210
0.0
220
0.0
230
1.0
 70
     8
 71
     3
 72
    10
 73
     6
 74
     0
 42
0.000000001
 43
0.00000001
 40
0.0
 40
0.0
 40
0.0
 40
0.0
 40
0.5085358280598276
 40
0.7966056673011385
 40
1.0
 40
1.0
 40
1.0
 40
1.0
 10
1211.771365751811
 20
1369.718430112232
 30
0.0
 10
1211.860408316482
 20
1368.593608720745
 30
0.0
 10
1211.999890743745
 20
1366.831610753801
 30
0.0
 10
1212.301813755249
 20
1365.199840438712
 30
0.0
 10
1212.540405957571
 20
1364.588263458639
 30
0.0
 10
1212.639148255686
 20
1364.33515997957
 30
0.0
  0
LINE
  5
1D8
330
1F
100
AcDbEntity
  8
0
  6
Continuous
 62
     8
370
    18
100
AcDbLine
 10
1285.2800393485
 20
1372.0163436425
 30
0.0
 11
1285.2127129732
 21
1369.7184301122
 31
0.0
  0
LINE
  5
1D9
330
1F
100
AcDbEntity
  8
0
  6
Continuous
 62
     8
370
    18
100
AcDbLine
 10
1291.6852219351
 20
1369.8457105467
 30
0.0
 11
1291.623041842
 21
1372.0163436425
 31
0.0
  0
SPLINE
  5
1DA
330
1F
100
AcDbEntity
  8
0
  6
Continuous
 62
     8
370
    18
100
AcDbSpline
210
0.0
220
0.0
230
1.0
 70
     8
 71
     3
 72
    10
 73
     6
 74
     0
 42
0.000000001
 43
0.00000001
 40
0.0
 40
0.0
 40
0.0
 40
0.0
 40
0.445489637819774
 40
0.718777875202486
 40
1.0
 40
1.0
 40
1.0
 40
1.0
 10
1292.657388286177
 20
1364.116641938118
 30
0.0
 10
1292.432327451364
 20
1364.728302622596
 30
0.0
 10
1292.069201724287
 20
1365.715190149961
 30
0.0
 10
1291.834137187893
 20
1367.791902018907
 30
0.0
 10
1291.735331586777
 20
1369.154608540836
 30
0.0
 10
1291.685221935123
 20
1369.845710546695
 30
0.0
  0
LINE
  5
1DB
330
1F
100
AcDbEntity
  8
0
  6
Continuous
 62
     8
370
    18
100
AcDbLine
 10
1284.3449304694
 20
1364.3351599796
 30
0.0
 11
1292.6573882862
 21
1364.1166419381
 31
0.0
  0
SPLINE
  5
1DC
330
1F
100
AcDbEntity
  8
0
  6
Continuous
 62
     8
370
    18
100
AcDbSpline
210
0.0
220
0.0
230
1.0
 70
     8
 71
     3
 72
    10
 73
     6
 74
     0
 42
0.000000001
 43
0.00000001
 40
0.0
 40
0.0
 40
0.0
 40
0.0
 40
0.5085358280598281
 40
0.7966056673011387
 40
1.0
 40
1.0
 40
1.0
 40
1.0
 10
1285.212712973248
 20
1369.718430112232
 30
0.0
 10
1285.123670408577
 20
1368.593608720745
 30
0.0
 10
1284.984187981313
 20
1366.831610753801
 30
0.0
 10
1284.68226496981
 20
1365.199840438712
 30
0.0
 10
1284.443672767488
 20
1364.588263458639
 30
0.0
 10
1284.344930469373
 20
1364.33515997957
 30
0.0
  0
LINE
  5
1DD
330
1F
100
AcDbEntity
  8
0
  6
Continuous
 62
     8
370
    18
100
AcDbLine
 10
1212.9526446573
 20
1372.1854343524
 30
0.0
 11
1212.9507883512
 21
1370.2520651598
 31
0.0
  0
LINE
  5
1DE
330
1F
100
AcDbEntity
  8
0
  6
Continuous
 62
     8
370
    18
100
AcDbLine
 10
1212.9507883512
 20
1370.2520651598
 30
0.0
 11
1212.9505936286
 21
1369.9927542784
 31
0.0
  0
ARC
  5
1DF
330
1F
100
AcDbEntity
  8
0
  6
Continuous
 62
     8
370
    18
100
AcDbCircle
 10
1211.6234038747
 20
1373.0261840354
 30
0.0
 40
3.311061571934991
100
AcDbArc
 50
272.5612375306
 51
293.6303960838
  0
LINE
  5
1E0
330
1F
100
AcDbEntity
  8
0
  6
Continuous
 62
     8
370
    18
100
AcDbLine
 10
1204.0172941184
 20
1370.1639263326
 30
0.0
 11
1204.0177465703
 21
1370.3274635094
 31
0.0
  0
LINE
  5
1E1
330
1F
100
AcDbEntity
  8
0
  6
Continuous
 62
     8
370
    18
100
AcDbLine
 10
1204.0177465703
 20
1370.3274635094
 30
0.0
 11
1204.0184385506
 21
1372.2174152692
 31
0.0
  0
ARC
  5
1E2
330
1F
100
AcDbEntity
  8
0
  6
Continuous
 62
     8
370
    18
100
AcDbCircle
 10
1205.4304007348
 20
1373.1152337423
 30
0.0
 40
3.272168353909497
100
AcDbArc
 50
244.4145746888
 51
267.6960401779
  0
LINE
  5
1E3
330
1F
100
AcDbEntity
  8
0
  6
Continuous
 62
     8
370
    18
100
AcDbLine
 10
1292.9663321548
 20
1370.3274635094
 30
0.0
 11
1292.9656401744
 21
1372.2174152692
 31
0.0
  0
LINE
  5
1E4
330
1F
100
AcDbEntity
  8
0
  6
Continuous
 62
     8
370
    18
100
AcDbLine
 10
1292.9667846067
 20
1370.1639263326
 30
0.0
 11
1292.9663321548
 21
1370.3274635094
 31
0.0
  0
ARC
  5
1E5
330
1F
100
AcDbEntity
  8
0
  6
Continuous
 62
     8
370
    18
100
AcDbCircle
 10
1291.5536779902
 20
1373.1152337423
 30
0.0
 40
3.272168353911334
100
AcDbArc
 50
272.3039598221
 51
295.5854253112
  0
ARC
  5
1E6
330
1F
100
AcDbEntity
  8
0
  6
Continuous
 62
     8
370
    18
100
AcDbCircle
 10
1285.3606748503
 20
1373.0261840354
 30
0.0
 40
3.311061571936332
100
AcDbArc
 50
246.3696039162
 51
267.4387624695
  0
LINE
  5
1E7
330
1F
100
AcDbEntity
  8
0
  6
Continuous
 62
     8
370
    18
100
AcDbLine
 10
1284.0332903738
 20
1370.2520651598
 30
0.0
 11
1284.0334850965
 21
1369.9927542784
 31
0.0
  0
LINE
  5
1E8
330
1F
100
AcDbEntity
  8
0
  6
Continuous
 62
     8
370
    18
100
AcDbLine
 10
1284.0314340678
 20
1372.1854343524
 30
0.0
 11
1284.0332903738
 21
1370.2520651598
 31
0.0
  0
LINE
  5
1E9
330
1F
100
AcDbEntity
  8
0
  6
Continuous
 62
     8
370
    18
100
AcDbLine
 10
1282.2487940149
 20
1370.1464798148
 30
0.0
 11
1282.2238517708
 21
1370.397821374
 31
0.0
  0
SPLINE
  5
1EA
330
1F
100
AcDbEntity
  8
0
  6
Continuous
 62
     8
370
    18
100
AcDbSpline
210
0.0
220
0.0
230
1.0
 70
     8
 71
     3
 72
    16
 73
    12
 74
     0
 42
0.000000001
 43
0.00000001
 40
0.0
 40
0.0
 40
0.0
 40
0.0
 40
0.0145165189495134
 40
0.041073550409839
 40
0.0660449149746274
 40
0.1244471088434715
 40
0.1776973916031755
 40
0.2535931192178711
 40
0.3633556422018376
 40
0.5223716192680685
 40
1.0
 40
1.0
 40
1.0
 40
1.0
 10
1284.330441165754
 20
1364.191701005872
 30
0.0
 10
1284.287778872108
 20
1364.193768155576
 30
0.0
 10
1284.167068674657
 20
1364.199617021811
 30
0.0
 10
1283.987907394959
 20
1364.244872402277
 30
0.0
 10
1283.748588228248
 20
1364.358930257398
 30
0.0
 10
1283.541013488236
 20
1364.547305369307
 30
0.0
 10
1283.335719683547
 20
1364.834688189541
 30
0.0
 10
1283.138653622241
 20
1365.234232782829
 30
0.0
 10
1282.923674378378
 20
1365.863227870069
 30
0.0
 10
1282.565229227516
 20
1367.354897859674
 30
0.0
 10
1282.384432654314
 20
1368.949879805856
 30
0.0
 10
1282.248794014871
 20
1370.146479814825
 30
0.0
  0
LINE
  5
1EB
330
1F
100
AcDbEntity
  8
0
  6
Continuous
 62
     8
370
    18
100
AcDbLine
 10
1292.6237907558
 20
1363.9731829644
 30
0.0
 11
1284.3304411658
 21
1364.1917010059
 31
0.0
  0
SPLINE
  5
1EC
330
1F
100
AcDbEntity
  8
0
  6
Continuous
 62
     8
370
    18
100
AcDbSpline
210
0.0
220
0.0
230
1.0
 70
     8
 71
     3
 72
    14
 73
    10
 74
     0
 42
0.000000001
 43
0.00000001
 40
0.0
 40
0.0
 40
0.0
 40
0.0
 40
0.2135072054014697
 40
0.6517504153256278
 40
0.8731400298126404
 40
0.9340362681778087
 40
0.9607431005770724
 40
0.9801118651181896
 40
0.9999999999999999
 40
0.9999999999999999
 40
0.9999999999999999
 40
0.9999999999999999
 10
1294.81986944342
 20
1370.36520112692
 30
0.0
 10
1294.763622192256
 20
1369.77133225839
 30
0.0
 10
1294.591922275909
 20
1367.958492822899
 30
0.0
 10
1294.234436302926
 20
1365.904468860818
 30
0.0
 10
1293.782712418472
 20
1364.573012468188
 30
0.0
 10
1293.283673336664
 20
1364.122441897728
 30
0.0
 10
1293.013471003637
 20
1364.013562588881
 30
0.0
 10
1292.813402773582
 20
1363.974116650415
 30
0.0
 10
1292.687549775149
 20
1363.973496926078
 30
0.0
 10
1292.623790755845
 20
1363.97318296442
 30
0.0
  0
LINE
  5
1ED
330
1F
100
AcDbEntity
  8
0
  6
Continuous
 62
     8
370
    18
100
AcDbLine
 10
1294.8336563947
 20
1370.5223129864
 30
0.0
 11
1294.8198694434
 21
1370.3652011269
 31
0.0
  0
SPLINE
  5
1EE
330
1F
100
AcDbEntity
  8
0
  6
Continuous
 62
     8
370
    18
100
AcDbSpline
210
0.0
220
0.0
230
1.0
 70
     8
 71
     3
 72
    15
 73
    11
 74
     0
 42
0.000000001
 43
0.00000001
 40
0.0
 40
0.0
 40
0.0
 40
0.0
 40
0.0014239395057858
 40
0.135106108557625
 40
0.2892216052154419
 40
0.4462432513906066
 40
0.5840152296265022
 40
0.7248088485654306
 40
0.8605044118101318
 40
1.0
 40
1.0
 40
1.0
 40
1.0
 10
1317.5388217696
 20
1362.076071422714
 30
0.0
 10
1317.544321837515
 20
1362.076074342177
 30
0.0
 10
1318.066178819322
 20
1362.076351346432
 30
0.0
 10
1319.116209013849
 20
1362.162705785023
 30
0.0
 10
1320.510452747469
 20
1362.628518424692
 30
0.0
 10
1321.66154934109
 20
1363.519057743895
 30
0.0
 10
1322.518081125632
 20
1364.802818819013
 30
0.0
 10
1323.061426735899
 20
1366.418839207791
 30
0.0
 10
1323.336715709298
 20
1368.399387923562
 30
0.0
 10
1323.234824431571
 20
1369.982518823205
 30
0.0
 10
1323.183175300981
 20
1370.78501474241
 30
0.0
  0
SPLINE
  5
1EF
330
1F
100
AcDbEntity
  8
0
  6
Continuous
 62
     8
370
    18
100
AcDbSpline
210
0.0
220
0.0
230
1.0
 70
     8
 71
     3
 72
    12
 73
     8
 74
     0
 42
0.000000001
 43
0.00000001
 40
0.0
 40
0.0
 40
0.0
 40
0.0
 40
0.1729070209294325
 40
0.3500592529376605
 40
0.6008939024630691
 40
0.857489987549236
 40
1.0
 40
1.0
 40
1.0
 40
1.0
 10
1269.983952741134
 20
1370.402625434855
 30
0.0
 10
1269.034727368708
 20
1369.543161662505
 30
0.0
 10
1267.112971254036
 20
1367.803132573699
 30
0.0
 10
1263.493031936014
 20
1365.559820825567
 30
0.0
 10
1259.194433594372
 20
1363.712684512141
 30
0.0
 10
1254.99731004253
 20
1362.544427693885
 30
0.0
 10
1252.385067128495
 20
1362.385831582023
 30
0.0
 10
1251.452305708659
 20
1362.32920119222
 30
0.0
  0
SPLINE
  5
1F0
330
1F
100
AcDbEntity
  8
0
  6
Continuous
 62
     8
370
    18
100
AcDbSpline
210
0.0
220
0.0
230
1.0
 70
     8
 71
     3
 72
     9
 73
     5
 74
     0
 42
0.000000001
 43
0.00000001
 40
0.0
 40
0.0
 40
0.0
 40
0.0
 40
0.9809099457843521
 40
1.0
 40
1.0
 40
1.0
 40
1.0
 10
1249.936949608623
 20
1362.198409697813
 30
0.0
 10
1249.464869129248
 20
1362.137730058446
 30
0.0
 10
1248.98360121938
 20
1362.07586949762
 30
0.0
 10
1248.501247520787
 20
1362.076067640162
 30
0.0
 10
1248.492039362529
 20
1362.076071422714
 30
0.0
  0
ARC
  5
1F1
330
1F
100
AcDbEntity
  8
0
  6
Continuous
 62
     8
370
    18
100
AcDbCircle
 10
1214.3029361593
 20
1364.7705014454
 30
0.0
 40
5.64586968058814
100
AcDbArc
 50
85.3542029002
 51
103.8566348579
  0
ARC
  5
1F2
330
1F
100
AcDbEntity
  8
0
  6
Continuous
 62
     8
370
    18
100
AcDbCircle
 10
1282.6811425657
 20
1364.7705014454
 30
0.0
 40
5.645869680594195
100
AcDbArc
 50
76.1433651422
 51
94.6457970998
  0
ARC
  5
1F3
330
1F
100
AcDbEntity
  8
0
  6
Continuous
 62
     8
370
    18
100
AcDbCircle
 10
1294.4655768059
 20
1365.0046737004
 30
0.0
 40
5.529902881129859
100
AcDbArc
 50
86.1834753415
 51
105.7306807766
  0
ARC
  5
1F4
330
1F
100
AcDbEntity
  8
0
  6
Continuous
 62
     8
370
    18
100
AcDbCircle
 10
1202.5185019191
 20
1365.0046737004
 30
0.0
 40
5.529902881131234
100
AcDbArc
 50
74.2693192234
 51
93.8165246585
  0
SPLINE
  5
1F5
330
1F
100
AcDbEntity
  8
0
  6
Continuous
 62
     8
370
    18
100
AcDbSpline
210
0.0
220
0.0
230
1.0
 70
     8
 71
     3
 72
    15
 73
    11
 74
     0
 42
0.000000001
 43
0.00000001
 40
0.0
 40
0.0
 40
0.0
 40
0.0
 40
0.0247383799946505
 40
0.0492201071029638
 40
0.0751567027976506
 40
0.1186953964311378
 40
0.2418825692051085
 40
0.4816368506398228
 40
0.8380569172747722
 40
1.0
 40
1.0
 40
1.0
 40
1.0
 10
1284.909811800467
 20
1424.139742487839
 30
0.0
 10
1284.869739478897
 20
1424.14064212895
 30
0.0
 10
1284.790010573447
 20
1424.142432077679
 30
0.0
 10
1284.675498643837
 20
1424.102051050691
 30
0.0
 10
1284.556288748263
 20
1424.023187494825
 30
0.0
 10
1284.367465276326
 20
1423.813250819004
 30
0.0
 10
1284.143658392939
 20
1423.277526490187
 30
0.0
 10
1284.048619973829
 20
1422.27373231083
 30
0.0
 10
1284.032516021251
 20
1421.171787131553
 30
0.0
 10
1284.031401704208
 20
1420.389175101436
 30
0.0
 10
1284.031053577731
 20
1420.144677388025
 30
0.0
  0
SPLINE
  5
1F6
330
1F
100
AcDbEntity
  8
0
  6
Continuous
 62
     8
370
    18
100
AcDbSpline
210
0.0
220
0.0
230
1.0
 70
     8
 71
     3
 72
     9
 73
     5
 74
     0
 42
0.000000001
 43
0.00000001
 40
0.0
 40
0.0
 40
0.0
 40
0.0
 40
0.3204572925053654
 40
1.0
 40
1.0
 40
1.0
 40
1.0
 10
1284.909811800467
 20
1424.139742487839
 30
0.0
 10
1284.984999966176
 20
1423.784742128752
 30
0.0
 10
1285.219627691828
 20
1422.676949086155
 30
0.0
 10
1285.266310053891
 20
1421.257904372688
 30
0.0
 10
1285.2980327126
 20
1420.293602886044
 30
0.0
  0
SPLINE
  5
1F7
330
1F
100
AcDbEntity
  8
0
  6
Continuous
 62
     8
370
    18
100
AcDbSpline
210
0.0
220
0.0
230
1.0
 70
     8
 71
     3
 72
    15
 73
    11
 74
     0
 42
0.000000001
 43
0.00000001
 40
0.0
 40
0.0
 40
0.0
 40
0.0
 40
0.0247383799946505
 40
0.0492201071029638
 40
0.0751567027976506
 40
0.1186953964311378
 40
0.2418825692051085
 40
0.4816368506398228
 40
0.8380569172747722
 40
1.0
 40
1.0
 40
1.0
 40
1.0
 10
1212.074266924591
 20
1424.139742487839
 30
0.0
 10
1212.114339246162
 20
1424.14064212895
 30
0.0
 10
1212.194068151612
 20
1424.142432077679
 30
0.0
 10
1212.308580081222
 20
1424.102051050691
 30
0.0
 10
1212.427789976796
 20
1424.023187494825
 30
0.0
 10
1212.616613448733
 20
1423.813250819004
 30
0.0
 10
1212.84042033212
 20
1423.277526490187
 30
0.0
 10
1212.93545875123
 20
1422.27373231083
 30
0.0
 10
1212.951562703808
 20
1421.171787131553
 30
0.0
 10
1212.952677020851
 20
1420.389175101436
 30
0.0
 10
1212.953025147328
 20
1420.144677388025
 30
0.0
  0
SPLINE
  5
1F8
330
1F
100
AcDbEntity
  8
0
  6
Continuous
 62
     8
370
    18
100
AcDbSpline
210
0.0
220
0.0
230
1.0
 70
     8
 71
     3
 72
     9
 73
     5
 74
     0
 42
0.000000001
 43
0.00000001
 40
0.0
 40
0.0
 40
0.0
 40
0.0
 40
0.3204572925053654
 40
1.0
 40
1.0
 40
1.0
 40
1.0
 10
1212.074266924591
 20
1424.139742487839
 30
0.0
 10
1211.999078758882
 20
1423.784742128752
 30
0.0
 10
1211.764451033231
 20
1422.676949086155
 30
0.0
 10
1211.717768671168
 20
1421.257904372688
 30
0.0
 10
1211.686046012459
 20
1420.293602886044
 30
0.0
  0
SPLINE
  5
1F9
330
1F
100
AcDbEntity
  8
0
  6
Continuous
 62
     8
370
    18
100
AcDbSpline
210
0.0
220
0.0
230
1.0
 70
     8
 71
     3
 72
     9
 73
     5
 74
     0
 42
0.000000001
 43
0.00000001
 40
0.0
 40
0.0
 40
0.0
 40
0.0
 40
0.6310361367052231
 40
1.0
 40
1.0
 40
1.0
 40
1.0
 10
1291.615631963141
 20
1420.293602886044
 30
0.0
 10
1291.645537698492
 20
1421.230084264128
 30
0.0
 10
1291.692929176747
 20
1422.714121902564
 30
0.0
 10
1291.947309860788
 20
1423.858293859523
 30
0.0
 10
1292.04116714072
 20
1424.280451965036
 30
0.0
  0
SPLINE
  5
1FA
330
1F
100
AcDbEntity
  8
0
  6
Continuous
 62
     8
370
    18
100
AcDbSpline
210
0.0
220
0.0
230
1.0
 70
     8
 71
     3
 72
    15
 73
    11
 74
     0
 42
0.000000001
 43
0.00000001
 40
0.0
 40
0.0
 40
0.0
 40
0.0
 40
0.3092031051605961
 40
0.663838255257497
 40
0.8039861739636707
 40
0.9077221477257725
 40
0.9361281220494161
 40
0.9546919441403817
 40
0.9789089794125909
 40
1.0
 40
1.0
 40
1.0
 40
1.0
 10
1292.967012219258
 20
1420.121449350338
 30
0.0
 10
1292.966272168989
 20
1420.609168860066
 30
0.0
 10
1292.964683330873
 20
1421.656269820533
 30
0.0
 10
1292.954492661918
 20
1422.857455723223
 30
0.0
 10
1292.7574868644
 20
1423.713533403768
 30
0.0
 10
1292.552633343972
 20
1424.075663072756
 30
0.0
 10
1292.366544708252
 20
1424.225005770209
 30
0.0
 10
1292.260181026192
 20
1424.274365113634
 30
0.0
 10
1292.151510789713
 20
1424.295166834859
 30
0.0
 10
1292.076216727207
 20
1424.285126000264
 30
0.0
 10
1292.04116714072
 20
1424.280451965036
 30
0.0
  0
SPLINE
  5
1FB
330
1F
100
AcDbEntity
  8
0
  6
Continuous
 62
     8
370
    18
100
AcDbSpline
210
0.0
220
0.0
230
1.0
 70
     8
 71
     3
 72
    15
 73
    11
 74
     0
 42
0.000000001
 43
0.00000001
 40
0.0
 40
0.0
 40
0.0
 40
0.0
 40
0.3092031051605961
 40
0.663838255257497
 40
0.8039861739636707
 40
0.9077221477257725
 40
0.9361281220494161
 40
0.9546919441403817
 40
0.9789089794125909
 40
1.0
 40
1.0
 40
1.0
 40
1.0
 10
1204.017066505801
 20
1420.121449350338
 30
0.0
 10
1204.01780655607
 20
1420.609168860066
 30
0.0
 10
1204.019395394186
 20
1421.656269820533
 30
0.0
 10
1204.029586063141
 20
1422.857455723223
 30
0.0
 10
1204.226591860659
 20
1423.713533403768
 30
0.0
 10
1204.431445381087
 20
1424.075663072756
 30
0.0
 10
1204.617534016807
 20
1424.225005770209
 30
0.0
 10
1204.723897698866
 20
1424.274365113634
 30
0.0
 10
1204.832567935346
 20
1424.295166834859
 30
0.0
 10
1204.907861997852
 20
1424.285126000264
 30
0.0
 10
1204.942911584339
 20
1424.280451965036
 30
0.0
  0
SPLINE
  5
1FC
330
1F
100
AcDbEntity
  8
0
  6
Continuous
 62
     8
370
    18
100
AcDbSpline
210
0.0
220
0.0
230
1.0
 70
     8
 71
     3
 72
     9
 73
     5
 74
     0
 42
0.000000001
 43
0.00000001
 40
0.0
 40
0.0
 40
0.0
 40
0.0
 40
0.6310361367052231
 40
1.0
 40
1.0
 40
1.0
 40
1.0
 10
1205.368446761918
 20
1420.293602886044
 30
0.0
 10
1205.338541026567
 20
1421.230084264128
 30
0.0
 10
1205.291149548312
 20
1422.714121902564
 30
0.0
 10
1205.03676886427
 20
1423.858293859523
 30
0.0
 10
1204.942911584339
 20
1424.280451965036
 30
0.0
  0
LINE
  5
1FD
330
1F
100
AcDbEntity
  8
0
  6
Continuous
 62
     8
370
    18
100
AcDbLine
 10
1292.0411671407
 20
1424.280451965
 30
0.0
 11
1284.9098118005
 21
1424.1397424878
 31
0.0
  0
LINE
  5
1FE
330
1F
100
AcDbEntity
  8
0
  6
Continuous
 62
     8
370
    18
100
AcDbLine
 10
1204.9429115843
 20
1424.280451965
 30
0.0
 11
1212.0742669246
 21
1424.1397424878
 31
0.0
  0
ARC
  5
1FF
330
1F
100
AcDbEntity
  8
0
  6
Continuous
 62
     8
370
    18
100
AcDbCircle
 10
1118.3185872964
 20
1427.2052397784
 30
0.0
 40
93.8057819975697
100
AcDbArc
 50
358.1272867192
 51
358.5922936386
  0
ARC
  5
200
330
1F
100
AcDbEntity
  8
0
  6
Continuous
 62
     8
370
    18
100
AcDbCircle
 10
1378.6654914581
 20
1427.2052397793
 30
0.0
 40
93.80578202710764
100
AcDbArc
 50
181.4077063615
 51
181.8727132808
  0
ARC
  5
201
330
1F
100
AcDbEntity
  8
0
  6
Continuous
 62
     8
370
    18
100
AcDbCircle
 10
1164.3704284689
 20
1427.2059476303
 30
0.0
 40
40.67781841542336
100
AcDbArc
 50
355.8758017505
 51
356.9247251143
  0
ARC
  5
202
330
1F
100
AcDbEntity
  8
0
  6
Continuous
 62
     8
370
    18
100
AcDbCircle
 10
1332.6136502616
 20
1427.2059476306
 30
0.0
 40
40.67781842093073
100
AcDbArc
 50
183.0752748858
 51
184.1241982495
  0
SPLINE
  5
203
330
1F
100
AcDbEntity
  8
0
  6
Continuous
 62
     8
370
    18
100
AcDbSpline
210
0.0
220
0.0
230
1.0
 70
     8
 71
     3
 72
    19
 73
    15
 74
     0
 42
0.000000001
 43
0.00000001
 40
0.0
 40
0.0
 40
0.0
 40
0.0
 40
0.5108655809785183
 40
0.6773161886274565
 40
0.7897294814090563
 40
0.8649135704138772
 40
0.9149987759643989
 40
0.9638937301973748
 40
0.9805048002912535
 40
0.9864047265890653
 40
0.992357364345202
 40
0.9937773259466397
 40
0.9978992913798034
 40
1.0
 40
1.0
 40
1.0
 40
1.0
 10
1284.033485096454
 20
1369.992754278417
 30
0.0
 10
1284.032535458435
 20
1368.813656856623
 30
0.0
 10
1284.031276408643
 20
1367.250385026448
 30
0.0
 10
1284.029509565402
 20
1365.828483915853
 30
0.0
 10
1284.036599640998
 20
1365.246565605072
 30
0.0
 10
1284.053699982954
 20
1364.885262253541
 30
0.0
 10
1284.086887689374
 20
1364.635272286002
 30
0.0
 10
1284.128561853214
 20
1364.477084336637
 30
0.0
 10
1284.196796788959
 20
1364.386251995826
 30
0.0
 10
1284.242084835576
 20
1364.354947154062
 30
0.0
 10
1284.270991754824
 20
1364.343143852029
 30
0.0
 10
1284.300202151323
 20
1364.336651882738
 30
0.0
 10
1284.321700620579
 20
1364.334336904371
 30
0.0
 10
1284.339067571376
 20
1364.334952246581
 30
0.0
 10
1284.344930469373
 20
1364.33515997957
 30
0.0
  0
SPLINE
  5
204
330
1F
100
AcDbEntity
  8
0
  6
Continuous
 62
     8
370
    18
100
AcDbSpline
210
0.0
220
0.0
230
1.0
 70
     8
 71
     3
 72
    19
 73
    15
 74
     0
 42
0.000000001
 43
0.00000001
 40
0.0
 40
0.0
 40
0.0
 40
0.0
 40
0.5108655809785182
 40
0.6773161886274562
 40
0.7897294814090561
 40
0.864913570413877
 40
0.9149987759643987
 40
0.9638937301973746
 40
0.9805048002912533
 40
0.986404726589065
 40
0.9923573643452022
 40
0.9937773259466396
 40
0.9978992913798034
 40
1.0
 40
1.0
 40
1.0
 40
1.0
 10
1212.950593628604
 20
1369.992754278417
 30
0.0
 10
1212.951543266624
 20
1368.813656856623
 30
0.0
 10
1212.952802316416
 20
1367.250385026448
 30
0.0
 10
1212.954569159657
 20
1365.828483915853
 30
0.0
 10
1212.947479084061
 20
1365.246565605072
 30
0.0
 10
1212.930378742105
 20
1364.885262253541
 30
0.0
 10
1212.897191035685
 20
1364.635272286002
 30
0.0
 10
1212.855516871845
 20
1364.477084336637
 30
0.0
 10
1212.7872819361
 20
1364.386251995826
 30
0.0
 10
1212.741993889483
 20
1364.354947154062
 30
0.0
 10
1212.713086970235
 20
1364.343143852029
 30
0.0
 10
1212.683876573736
 20
1364.336651882738
 30
0.0
 10
1212.66237810448
 20
1364.334336904371
 30
0.0
 10
1212.645011153683
 20
1364.334952246581
 30
0.0
 10
1212.639148255686
 20
1364.33515997957
 30
0.0
  0
ARC
  5
205
330
1F
100
AcDbEntity
  8
0
  6
Continuous
 62
     8
370
    18
100
AcDbCircle
 10
1214.3074610677
 20
1364.6767063537
 30
0.0
 40
5.486479270476624
100
AcDbArc
 50
85.5276603397
 51
104.3184561189
  0
ARC
  5
206
330
1F
100
AcDbEntity
  8
0
  6
Continuous
 62
     8
370
    18
100
AcDbCircle
 10
1205.4582405199
 20
1363.5374297434
 30
0.0
 40
7.225081967643454
100
AcDbArc
 50
5.1955682005
 51
6.339022105
  0
ARC
  5
207
330
1F
100
AcDbEntity
  8
0
  6
Continuous
 62
     8
370
    18
100
AcDbCircle
 10
1282.6766176574
 20
1364.6767063537
 30
0.0
 40
5.486479270454184
100
AcDbArc
 50
75.6815438811
 51
94.4723396601
  0
ARC
  5
208
330
1F
100
AcDbEntity
  8
0
  6
Continuous
 62
     8
370
    18
100
AcDbCircle
 10
1291.5258382107
 20
1363.5374297428
 30
0.0
 40
7.225081973208336
100
AcDbArc
 50
173.6609778955
 51
174.8044317991
  0
SPLINE
  5
209
330
1F
100
AcDbEntity
  8
0
  6
Continuous
 62
     8
370
    18
100
AcDbSpline
210
0.0
220
0.0
230
1.0
 70
     8
 71
     3
 72
    17
 73
    13
 74
     0
 42
0.000000001
 43
0.00000001
 40
0.0
 40
0.0
 40
0.0
 40
0.0
 40
0.0045109817899505
 40
0.0089278415503376
 40
0.0130797684277631
 40
0.0177777921768899
 40
0.0339670776357902
 40
0.0840600072516061
 40
0.3047425979556586
 40
0.7692822253149074
 40
0.8273200843747958
 40
1.0
 40
1.0
 40
1.0
 40
1.0
 10
1292.657388286177
 20
1364.116641938118
 30
0.0
 10
1292.670357777198
 20
1364.114878149307
 30
0.0
 10
1292.696026149675
 20
1364.111387373293
 30
0.0
 10
1292.736902159769
 20
1364.113101909089
 30
0.0
 10
1292.77426284987
 20
1364.121422814939
 30
0.0
 10
1292.83019287279
 20
1364.146092866375
 30
0.0
 10
1292.91469900367
 20
1364.239305058187
 30
0.0
 10
1293.008973994809
 20
1364.643248999514
 30
0.0
 10
1292.976173889713
 20
1365.834362368764
 30
0.0
 10
1292.975516573003
 20
1367.431474895337
 30
0.0
 10
1292.96959087745
 20
1369.118124732276
 30
0.0
 10
1292.967985869384
 20
1369.71625661003
 30
0.0
 10
1292.966784606682
 20
1370.163926332591
 30
0.0
  0
ARC
  5
20A
330
1F
100
AcDbEntity
  8
0
  6
Continuous
 62
     8
370
    18
100
AcDbCircle
 10
1295.4222830149
 20
1363.3934507189
 30
0.0
 40
2.857909795690781
100
AcDbArc
 50
165.3419899913
 51
168.2962236798
  0
ARC
  5
20B
330
1F
100
AcDbEntity
  8
0
  6
Continuous
 62
     8
370
    18
100
AcDbCircle
 10
1294.4713830113
 20
1364.9425521657
 30
0.0
 40
5.433835160331572
100
AcDbArc
 50
86.3229443242
 51
106.074938564
  0
SPLINE
  5
20C
330
1F
100
AcDbEntity
  8
0
  6
Continuous
 62
     8
370
    18
100
AcDbSpline
210
0.0
220
0.0
230
1.0
 70
     8
 71
     3
 72
    17
 73
    13
 74
     0
 42
0.000000001
 43
0.00000001
 40
0.0
 40
0.0
 40
0.0
 40
0.0
 40
0.0045109817899505
 40
0.0089278415503376
 40
0.0130797684277631
 40
0.0177777921768899
 40
0.0339670776357902
 40
0.0840600072516061
 40
0.3047425979556586
 40
0.7692822253149074
 40
0.8273200843747958
 40
1.0
 40
1.0
 40
1.0
 40
1.0
 10
1204.326690438882
 20
1364.116641938118
 30
0.0
 10
1204.313720947861
 20
1364.114878149307
 30
0.0
 10
1204.288052575384
 20
1364.111387373293
 30
0.0
 10
1204.24717656529
 20
1364.113101909089
 30
0.0
 10
1204.209815875189
 20
1364.121422814939
 30
0.0
 10
1204.153885852269
 20
1364.146092866375
 30
0.0
 10
1204.069379721388
 20
1364.239305058187
 30
0.0
 10
1203.975104730249
 20
1364.643248999514
 30
0.0
 10
1204.007904835346
 20
1365.834362368764
 30
0.0
 10
1204.008562152056
 20
1367.431474895337
 30
0.0
 10
1204.014487847608
 20
1369.118124732276
 30
0.0
 10
1204.016092855675
 20
1369.71625661003
 30
0.0
 10
1204.017294118377
 20
1370.163926332591
 30
0.0
  0
ARC
  5
20D
330
1F
100
AcDbEntity
  8
0
  6
Continuous
 62
     8
370
    18
100
AcDbCircle
 10
1201.5617957108
 20
1363.393450719
 30
0.0
 40
2.857909795097101
100
AcDbArc
 50
11.7037763199
 51
14.658010009
  0
ARC
  5
20E
330
1F
100
AcDbEntity
  8
0
  6
Continuous
 62
     8
370
    18
100
AcDbCircle
 10
1202.5126957137
 20
1364.9425521657
 30
0.0
 40
5.433835160401527
100
AcDbArc
 50
73.9250614362
 51
93.6770556759
  0
SPLINE
  5
20F
330
1F
100
AcDbEntity
  8
0
  6
Continuous
 62
     8
370
    18
100
AcDbSpline
210
0.0
220
0.0
230
1.0
 70
     8
 71
     3
 72
    20
 73
    16
 74
     0
 42
0.000000001
 43
0.00000001
 40
0.0
 40
0.0
 40
0.0
 40
0.0
 40
0.0177553498927665
 40
0.0895541770723949
 40
0.1635124813712812
 40
0.2505819007214778
 40
0.3150328805895259
 40
0.3805147797652316
 40
0.4675444081230345
 40
0.5694410813320726
 40
0.6754503316775967
 40
0.7871440412594523
 40
0.8785532165774713
 40
0.9388623767392659
 40
1.0
 40
1.0
 40
1.0
 40
1.0
 10
1324.630586497766
 20
1371.338127463064
 30
0.0
 10
1324.619882567565
 20
1371.587235822207
 30
0.0
 10
1324.565894239184
 20
1372.843684962303
 30
0.0
 10
1324.630676547865
 20
1375.326831919594
 30
0.0
 10
1325.073685489867
 20
1379.12271339313
 30
0.0
 10
1325.828548304367
 20
1382.975856493303
 30
0.0
 10
1326.738839892343
 20
1386.729671566584
 30
0.0
 10
1327.735806257416
 20
1390.480822745368
 30
0.0
 10
1328.939703861927
 20
1394.817559686815
 30
0.0
 10
1330.215649159822
 20
1399.635030336663
 30
0.0
 10
1331.486825816217
 20
1404.373940691521
 30
0.0
 10
1332.678521822648
 20
1408.29040860108
 30
0.0
 10
1333.684117257999
 20
1410.970619393903
 30
0.0
 10
1334.414097300106
 20
1412.72230229822
 30
0.0
 10
1334.737884203485
 20
1413.440504548918
 30
0.0
 10
1334.90088202984
 20
1413.802055323592
 30
0.0
  0
ARC
  5
210
330
1F
100
AcDbEntity
  8
0
  6
Continuous
 62
     8
370
    18
100
AcDbCircle
 10
1325.2603666973
 20
1367.5197062615
 30
0.0
 40
3.870008213487779
100
AcDbArc
 50
99.3655973717
 51
122.4620469832
  0
ARC
  5
211
330
1F
100
AcDbEntity
  8
0
  6
Continuous
 62
     8
370
    18
100
AcDbCircle
 10
1327.6507901582
 20
1410.7267905002
 30
0.0
 40
7.875346714975353
100
AcDbArc
 50
22.4525517096
 51
22.9851555307
  0
SPLINE
  5
212
330
1F
100
AcDbEntity
  8
0
  6
Continuous
 62
     8
370
    18
100
AcDbSpline
210
0.0
220
0.0
230
1.0
 70
     8
 71
     3
 72
    19
 73
    15
 74
     0
 42
0.000000001
 43
0.00000001
 40
0.0
 40
0.0
 40
0.0
 40
0.0
 40
0.0812843755281375
 40
0.1625926981205918
 40
0.2503967158277944
 40
0.3382767484838725
 40
0.4242704765567137
 40
0.5102462209491119
 40
0.5965701789596966
 40
0.6829065819723051
 40
0.7657398742054033
 40
0.8485711078275141
 40
0.9243009273350651
 40
1.0
 40
1.0
 40
1.0
 40
1.0
 10
1324.696643798473
 20
1371.34764624827
 30
0.0
 10
1324.687773310683
 20
1372.525604668321
 30
0.0
 10
1324.670029721781
 20
1374.881868544934
 30
0.0
 10
1325.149605751666
 20
1378.977287249478
 30
0.0
 10
1326.005358580134
 20
1383.355091211113
 30
0.0
 10
1327.129102652065
 20
1387.892453371244
 30
0.0
 10
1328.345119269399
 20
1392.36410541264
 30
0.0
 10
1329.528541140842
 20
1396.689076854469
 30
0.0
 10
1330.601331554488
 20
1400.783432371564
 30
0.0
 10
1331.602032265326
 20
1404.480671009386
 30
0.0
 10
1332.574957944022
 20
1407.689765551127
 30
0.0
 10
1333.485679893605
 20
1410.294629448499
 30
0.0
 10
1334.323209836314
 20
1412.367547232126
 30
0.0
 10
1334.727200681544
 20
1413.2789299745
 30
0.0
 10
1334.929155090048
 20
1413.734528819943
 30
0.0
  0
ARC
  5
213
330
1F
100
AcDbEntity
  8
0
  6
Continuous
 62
     8
370
    18
100
AcDbCircle
 10
1321.59232988
 20
1392.6566165106
 30
0.0
 40
21.53390300302055
100
AcDbArc
 50
278.1110275317
 51
278.2886032807
  0
SPLINE
  5
214
330
1F
100
AcDbEntity
  8
0
  6
Continuous
 62
     8
370
    18
100
AcDbSpline
210
0.0
220
0.0
230
1.0
 70
     8
 71
     3
 72
    30
 73
    26
 74
     0
 42
0.000000001
 43
0.00000001
 40
0.0
 40
0.0
 40
0.0
 40
0.0
 40
0.0367442153817575
 40
0.0737232841850677
 40
0.1110413367406515
 40
0.148808577200663
 40
0.188870720856045
 40
0.2291780738353255
 40
0.2702466874566161
 40
0.3115759369700019
 40
0.3541334999732087
 40
0.3969808370193869
 40
0.4407360718523627
 40
0.4848040276228704
 40
0.527670640031918
 40
0.5708266682466341
 40
0.6148725539342166
 40
0.659222019876097
 40
0.7025795290829527
 40
0.7462563583192048
 40
0.7910386023489433
 40
0.8362596963443323
 40
0.9039599048262004
 40
0.9728711860774645
 40
1.0
 40
1.0
 40
1.0
 40
1.0
 10
1337.80853703166
 20
1411.410405135232
 30
0.0
 10
1337.694016822789
 20
1411.253123911868
 30
0.0
 10
1337.464244440503
 20
1410.937556190348
 30
0.0
 10
1337.045372855916
 20
1410.293355980145
 30
0.0
 10
1336.582643606433
 20
1409.524414516274
 30
0.0
 10
1336.071366052254
 20
1408.603641976843
 30
0.0
 10
1335.523244820252
 20
1407.529478959064
 30
0.0
 10
1334.946841447156
 20
1406.293365930626
 30
0.0
 10
1334.366614118284
 20
1404.915461481559
 30
0.0
 10
1333.777189859174
 20
1403.388848925174
 30
0.0
 10
1333.174045760728
 20
1401.725305686474
 30
0.0
 10
1332.549009926196
 20
1399.924278871079
 30
0.0
 10
1331.902277338859
 20
1398.008819007672
 30
0.0
 10
1331.237168780424
 20
1396.014717524322
 30
0.0
 10
1330.546323909765
 20
1393.971780899874
 30
0.0
 10
1329.829256704995
 20
1391.887128510639
 30
0.0
 10
1329.094950443986
 20
1389.745790818668
 30
0.0
 10
1328.368125499658
 20
1387.578000723035
 30
0.0
 10
1327.672686169172
 20
1385.402943659386
 30
0.0
 10
1327.026140392347
 20
1383.217400435776
 30
0.0
 10
1326.447149241076
 20
1381.010187180161
 30
0.0
 10
1325.883822295689
 20
1378.437472086806
 30
0.0
 10
1325.448122571471
 20
1375.553663154738
 30
0.0
 10
1325.317758679464
 20
1373.107239880269
 30
0.0
 10
1325.368898958368
 20
1371.789600797671
 30
0.0
 10
1325.383344749033
 20
1371.417402233893
 30
0.0
  0
ARC
  5
215
330
1F
100
AcDbEntity
  8
0
  6
Continuous
 62
     8
370
    18
100
AcDbCircle
 10
1325.5187253632
 20
1366.6697373561
 30
0.0
 40
4.749594688273147
100
AcDbArc
 50
91.6333580123
 51
99.9672112785
  0
ARC
  5
216
330
1F
100
AcDbEntity
  8
0
  6
Continuous
 62
     8
370
    18
100
AcDbCircle
 10
1337.9214523792
 20
1414.496007719
 30
0.0
 40
3.087667919414717
100
AcDbArc
 50
194.2775571615
 51
267.9042384386
  0
SPLINE
  5
217
330
1F
100
AcDbEntity
  8
0
  6
Continuous
 62
     8
370
    18
100
AcDbSpline
210
0.0
220
0.0
230
1.0
 70
     8
 71
     3
 72
     9
 73
     5
 74
     0
 42
0.000000001
 43
0.00000001
 40
0.0
 40
0.0
 40
0.0
 40
0.0
 40
0.4955319650024687
 40
1.0
 40
1.0
 40
1.0
 40
1.0
 10
1338.389873789056
 20
1412.076071422714
 30
0.0
 10
1338.343618680479
 20
1412.047983903887
 30
0.0
 10
1338.250274331692
 20
1411.991302355952
 30
0.0
 10
1337.956657392178
 20
1411.605187658128
 30
0.0
 10
1337.80853703166
 20
1411.410405135232
 30
0.0
  0
SPLINE
  5
218
330
1F
100
AcDbEntity
  8
0
  6
Continuous
 62
     8
370
    18
100
AcDbSpline
210
0.0
220
0.0
230
1.0
 70
     8
 71
     3
 72
    10
 73
     6
 74
     0
 42
0.000000001
 43
0.00000001
 40
0.0
 40
0.0
 40
0.0
 40
0.0
 40
0.4337470054426096
 40
0.8726448366891221
 40
1.0
 40
1.0
 40
1.0
 40
1.0
 10
1321.720741150979
 20
1362.84664264307
 30
0.0
 10
1321.68778219987
 20
1362.652560059302
 30
0.0
 10
1321.62147290402
 20
1362.262090125235
 30
0.0
 10
1321.545027231861
 20
1362.091092737277
 30
0.0
 10
1321.501768600393
 20
1362.078829524601
 30
0.0
 10
1321.492039362529
 20
1362.076071422714
 30
0.0
  0
SPLINE
  5
219
330
1F
100
AcDbEntity
  8
0
  6
Continuous
 62
     8
370
    18
100
AcDbSpline
210
0.0
220
0.0
230
1.0
 70
     8
 71
     3
 72
    13
 73
     9
 74
     0
 42
0.000000001
 43
0.00000001
 40
0.0
 40
0.0
 40
0.0
 40
0.0
 40
0.1663795665670601
 40
0.3327993424822734
 40
0.5326933616013211
 40
0.7327069656730665
 40
0.9440944502581979
 40
1.0
 40
1.0
 40
1.0
 40
1.0
 10
1325.383344749033
 20
1371.417402233893
 30
0.0
 10
1325.393339341452
 20
1370.714676697626
 30
0.0
 10
1325.413330941707
 20
1369.309055795729
 30
0.0
 10
1325.080564103756
 20
1367.353727803606
 30
0.0
 10
1324.414059154694
 20
1365.592874261317
 30
0.0
 10
1323.433927706006
 20
1364.097327316952
 30
0.0
 10
1322.250201669951
 20
1363.28926999519
 30
0.0
 10
1321.812325034198
 20
1362.92320648546
 30
0.0
 10
1321.720741150979
 20
1362.84664264307
 30
0.0
  0
SPLINE
  5
21A
330
1F
100
AcDbEntity
  8
0
  6
Continuous
 62
     8
370
    18
100
AcDbSpline
210
0.0
220
0.0
230
1.0
 70
     8
 71
     3
 72
    12
 73
     8
 74
     0
 42
0.000000001
 43
0.00000001
 40
0.0
 40
0.0
 40
0.0
 40
0.0
 40
0.258425414975085
 40
0.5253727836647595
 40
0.6325637335472095
 40
0.8141005554129467
 40
1.0
 40
1.0
 40
1.0
 40
1.0
 10
1321.492039362531
 20
1362.845475771367
 30
0.0
 10
1321.998345009487
 20
1363.227701348428
 30
0.0
 10
1323.027652468091
 20
1364.004756946571
 30
0.0
 10
1323.873763517859
 20
1365.61983315159
 30
0.0
 10
1324.3849825977
 20
1367.346122619498
 30
0.0
 10
1324.6671993885
 20
1369.028145007078
 30
0.0
 10
1324.642887016088
 20
1370.562062504656
 30
0.0
 10
1324.630586497766
 20
1371.338127463064
 30
0.0
  0
SPLINE
  5
21B
330
1F
100
AcDbEntity
  8
0
  6
Continuous
 62
     8
370
    18
100
AcDbSpline
210
0.0
220
0.0
230
1.0
 70
     8
 71
     3
 72
    11
 73
     7
 74
     0
 42
0.000000001
 43
0.00000001
 40
0.0
 40
0.0
 40
0.0
 40
0.0
 40
0.2821978531715183
 40
0.5662711511816111
 40
0.995686545031333
 40
1.0
 40
1.0
 40
1.0
 40
1.0
 10
1321.492039362531
 20
1362.845475771367
 30
0.0
 10
1321.164914696917
 20
1362.707600032507
 30
0.0
 10
1320.508491343958
 20
1362.430932253193
 30
0.0
 10
1319.215620094776
 20
1362.151505240871
 30
0.0
 10
1318.195324114472
 20
1362.076351129745
 30
0.0
 10
1317.545286426728
 20
1362.076074177023
 30
0.0
 10
1317.5388217696
 20
1362.076071422714
 30
0.0
  0
SPLINE
  5
21C
330
1F
100
AcDbEntity
  8
0
  6
Continuous
 62
     8
370
    18
100
AcDbSpline
210
0.0
220
0.0
230
1.0
 70
     8
 71
     3
 72
    14
 73
    10
 74
     0
 42
0.000000001
 43
0.00000001
 40
0.0
 40
0.0
 40
0.0
 40
0.0
 40
0.0665232667018164
 40
0.1346138509585659
 40
0.2705263731886161
 40
0.4679094570369361
 40
0.6697252416072341
 40
0.8332896955030697
 40
1.0
 40
1.0
 40
1.0
 40
1.0
 10
1321.680382011841
 20
1362.846703805887
 30
0.0
 10
1321.767519960072
 20
1362.938360543718
 30
0.0
 10
1321.943848865094
 20
1363.123833492619
 30
0.0
 10
1322.478488988594
 20
1363.549151193672
 30
0.0
 10
1323.148308747953
 20
1364.306424793132
 30
0.0
 10
1323.906868537449
 20
1365.604690226424
 30
0.0
 10
1324.44053868628
 20
1367.3424390008
 30
0.0
 10
1324.722308243278
 20
1369.270004457086
 30
0.0
 10
1324.70525276427
 20
1370.650715250726
 30
0.0
 10
1324.696643798473
 20
1371.34764624827
 30
0.0
  0
ARC
  5
21D
330
1F
100
AcDbEntity
  8
0
  6
Continuous
 62
     8
370
    18
100
AcDbCircle
 10
1321.4920395661
 20
1377.2890375648
 30
0.0
 40
14.44356179342799
100
AcDbArc
 50
269.9999991926
 51
270.747151793
  0
ARC
  5
21E
330
1F
100
AcDbEntity
  8
0
  6
Continuous
 62
     8
370
    18
100
AcDbCircle
 10
1321.6958760045
 20
1359.7548298597
 30
0.0
 40
3.091912767675406
100
AcDbArc
 50
89.5392226717
 51
90.2871180955
  0
SPLINE
  5
21F
330
1F
100
AcDbEntity
  8
0
  6
Continuous
 62
     8
370
    18
100
AcDbSpline
210
0.0
220
0.0
230
1.0
 70
     8
 71
     3
 72
    10
 73
     6
 74
     0
 42
0.000000001
 43
0.00000001
 40
0.0
 40
0.0
 40
0.0
 40
0.0
 40
0.0149525925089902
 40
0.5037698573839661
 40
1.0
 40
1.0
 40
1.0
 40
1.0
 10
1321.492039362529
 20
1362.076071422714
 30
0.0
 10
1321.492979940886
 20
1362.076112085854
 30
0.0
 10
1321.524669096062
 20
1362.077482073305
 30
0.0
 10
1321.587669150782
 20
1362.195084410384
 30
0.0
 10
1321.649323067984
 20
1362.628410356737
 30
0.0
 10
1321.680382011841
 20
1362.846703805887
 30
0.0
  0
LINE
  5
220
330
1F
100
AcDbEntity
  8
0
  6
Continuous
 62
     8
370
    18
100
AcDbLine
 10
1321.4920393625
 20
1362.0760714227
 30
0.0
 11
1321.4920393625
 21
1362.8454757714
 31
0.0
  0
SPLINE
  5
221
330
1F
100
AcDbEntity
  8
0
  6
Continuous
 62
     8
370
    18
100
AcDbSpline
210
0.0
220
0.0
230
1.0
 70
     8
 71
     3
 72
     9
 73
     5
 74
     0
 42
0.000000001
 43
0.00000001
 40
0.0
 40
0.0
 40
0.0
 40
0.0
 40
0.4953932977280405
 40
0.9999999999999999
 40
0.9999999999999999
 40
0.9999999999999999
 40
0.9999999999999999
 10
1334.929155090049
 20
1413.734528819943
 30
0.0
 10
1335.048430042146
 20
1413.994001918648
 30
0.0
 10
1335.28919824116
 20
1414.517773838644
 30
0.0
 10
1335.36639044497
 20
1414.676950371786
 30
0.0
 10
1335.405342148376
 20
1414.757271917254
 30
0.0
  0
LINE
  5
222
330
1F
100
AcDbEntity
  8
0
  6
Continuous
 62
     8
370
    18
100
AcDbLine
 10
1660.9920393625
 20
1442.5225099223
 30
0.0
 11
1660.9920393625
 21
1443.5225099223
 31
0.0
  0
LINE
  5
223
330
1F
100
AcDbEntity
  8
0
  6
Continuous
 62
     8
370
    18
100
AcDbLine
 10
835.9920393625
 20
1443.5225099223
 30
0.0
 11
835.9920393625
 21
1442.5225099223
 31
0.0
  0
LINE
  5
224
330
1F
100
AcDbEntity
  8
0
  6
Continuous
 62
     8
370
    18
100
AcDbLine
 10
1638.4920393625
 20
1436.7966504439
 30
0.0
 11
1640.4920393625
 21
1436.7966504439
 31
0.0
  0
LINE
  5
225
330
1F
100
AcDbEntity
  8
0
  6
Continuous
 62
     8
370
    18
100
AcDbLine
 10
1640.4920393625
 20
1434.9840348698
 30
0.0
 11
1638.4920393625
 21
1434.9840348698
 31
0.0
  0
LINE
  5
226
330
1F
100
AcDbEntity
  8
0
  6
Continuous
 62
     8
370
    18
100
AcDbLine
 10
1638.4920393625
 20
1427.7257355852
 30
0.0
 11
1640.4920393625
 21
1427.7257355852
 31
0.0
  0
LINE
  5
227
330
1F
100
AcDbEntity
  8
0
  6
Continuous
 62
     8
370
    18
100
AcDbLine
 10
1640.4920393625
 20
1425.9131200111
 30
0.0
 11
1638.4920393625
 21
1425.9131200111
 31
0.0
  0
LINE
  5
228
330
1F
100
AcDbEntity
  8
0
  6
Continuous
 62
     8
370
    18
100
AcDbLine
 10
1638.4920393625
 20
1391.6225099223
 30
0.0
 11
1640.4920393625
 21
1391.6225099223
 31
0.0
  0
LINE
  5
229
330
1F
100
AcDbEntity
  8
0
  6
Continuous
 62
     8
370
    18
100
AcDbLine
 10
856.4920393625
 20
1436.7966504439
 30
0.0
 11
858.4920393625
 21
1436.7966504439
 31
0.0
  0
LINE
  5
22A
330
1F
100
AcDbEntity
  8
0
  6
Continuous
 62
     8
370
    18
100
AcDbLine
 10
858.4920393625
 20
1434.9840348698
 30
0.0
 11
856.4920393625
 21
1434.9840348698
 31
0.0
  0
LINE
  5
22B
330
1F
100
AcDbEntity
  8
0
  6
Continuous
 62
     8
370
    18
100
AcDbLine
 10
856.4920393625
 20
1427.7257355852
 30
0.0
 11
858.4920393625
 21
1427.7257355852
 31
0.0
  0
LINE
  5
22C
330
1F
100
AcDbEntity
  8
0
  6
Continuous
 62
     8
370
    18
100
AcDbLine
 10
858.4920393625
 20
1425.9131200111
 30
0.0
 11
856.4920393625
 21
1425.9131200111
 31
0.0
  0
LINE
  5
22D
330
1F
100
AcDbEntity
  8
0
  6
Continuous
 62
     8
370
    18
100
AcDbLine
 10
856.4920393625
 20
1391.6225099223
 30
0.0
 11
858.4920393625
 21
1391.6225099223
 31
0.0
  0
LINE
  5
22E
330
1F
100
AcDbEntity
  8
0
  6
Continuous
 62
     7
370
    35
100
AcDbLine
 10
858.4920393625
 20
1039.888203023
 30
0.0
 11
858.4920393625
 21
1042.7166301477
 31
0.0
  0
LINE
  5
22F
330
1F
100
AcDbEntity
  8
0
  6
Continuous
 62
     7
370
    35
100
AcDbLine
 10
1638.4920393625
 20
1042.8024165853
 30
0.0
 11
858.4920393625
 21
1042.8024165853
 31
0.0
  0
LINE
  5
230
330
1F
100
AcDbEntity
  8
0
  6
Continuous
 62
     7
370
    35
100
AcDbLine
 10
1638.4920393625
 20
1039.8024165853
 30
0.0
 11
858.4920393625
 21
1039.8024165853
 31
0.0
  0
LINE
  5
231
330
1F
100
AcDbEntity
  8
0
  6
Continuous
 62
     7
370
    35
100
AcDbLine
 10
1638.4920393625
 20
1042.7166301477
 30
0.0
 11
1638.4920393625
 21
1039.888203023
 31
0.0
  0
LINE
  5
232
330
1F
100
AcDbEntity
  8
0
  6
Continuous
 62
     7
370
    35
100
AcDbLine
 10
858.4920393625
 20
975.8024165853
 30
0.0
 11
1638.4920393625
 21
975.8024165853
 31
0.0
  0
LINE
  5
233
330
1F
100
AcDbEntity
  8
0
  6
Continuous
 62
     7
370
    35
100
AcDbLine
 10
858.4920393625
 20
972.8024165853
 30
0.0
 11
1638.4920393625
 21
972.8024165853
 31
0.0
  0
LINE
  5
234
330
1F
100
AcDbEntity
  8
0
  6
Continuous
 62
     7
370
    35
100
AcDbLine
 10
858.4920393625
 20
972.888203023
 30
0.0
 11
858.4920393625
 21
975.7166301477
 31
0.0
  0
LINE
  5
235
330
1F
100
AcDbEntity
  8
0
  6
Continuous
 62
     7
370
    35
100
AcDbLine
 10
1638.4920393625
 20
975.7166301477
 30
0.0
 11
1638.4920393625
 21
972.888203023
 31
0.0
  0
LINE
  5
236
330
1F
100
AcDbEntity
  8
0
  6
Continuous
 62
     7
370
    35
100
AcDbLine
 10
1638.4920393625
 20
1043.8024165853
 30
0.0
 11
1638.4920393625
 21
1042.8024165853
 31
0.0
  0
LINE
  5
237
330
1F
100
AcDbEntity
  8
0
  6
Continuous
 62
     7
370
    35
100
AcDbLine
 10
858.4920393625
 20
1042.8024165853
 30
0.0
 11
858.4920393625
 21
1043.8024165853
 31
0.0
  0
LINE
  5
238
330
1F
100
AcDbEntity
  8
0
  6
Continuous
 62
     7
370
    35
100
AcDbLine
 10
1638.4920393625
 20
971.8024165853
 30
0.0
 11
1638.4920393625
 21
972.8024165853
 31
0.0
  0
LINE
  5
239
330
1F
100
AcDbEntity
  8
0
  6
Continuous
 62
     7
370
    35
100
AcDbLine
 10
858.4920393625
 20
972.8024165853
 30
0.0
 11
858.4920393625
 21
971.8024165853
 31
0.0
  0
LINE
  5
23A
330
1F
100
AcDbEntity
  8
0
  6
Continuous
 62
     7
370
    35
100
AcDbLine
 10
1638.4920393625
 20
942.3024165853
 30
0.0
 11
858.4920393625
 21
942.3024165853
 31
0.0
  0
LINE
  5
23B
330
1F
100
AcDbEntity
  8
0
  6
Continuous
 62
     7
370
    35
100
AcDbLine
 10
1638.4920393625
 20
971.8024165853
 30
0.0
 11
1638.4920393625
 21
942.3024165853
 31
0.0
  0
LINE
  5
23C
330
1F
100
AcDbEntity
  8
0
  6
Continuous
 62
     7
370
    35
100
AcDbLine
 10
858.4920393625
 20
942.3024165853
 30
0.0
 11
858.4920393625
 21
971.8024165853
 31
0.0
  0
LINE
  5
23D
330
1F
100
AcDbEntity
  8
0
  6
Continuous
 62
     7
370
    35
100
AcDbLine
 10
858.4920393625
 20
1043.8024165853
 30
0.0
 11
858.4920393625
 21
1073.3024165853
 31
0.0
  0
LINE
  5
23E
330
1F
100
AcDbEntity
  8
0
  6
Continuous
 62
     7
370
    35
100
AcDbLine
 10
858.4920393625
 20
1073.3024165853
 30
0.0
 11
1638.4920393625
 21
1073.3024165853
 31
0.0
  0
LINE
  5
23F
330
1F
100
AcDbEntity
  8
0
  6
Continuous
 62
     7
370
    35
100
AcDbLine
 10
1638.4920393625
 20
1073.3024165853
 30
0.0
 11
1638.4920393625
 21
1043.8024165853
 31
0.0
  0
SPLINE
  5
240
330
1F
100
AcDbEntity
  8
0
  6
Continuous
 62
     7
370
    35
100
AcDbSpline
210
0.0
220
0.0
230
1.0
 70
     8
 71
     3
 72
     8
 73
     4
 74
     0
 42
0.000000001
 43
0.00000001
 40
0.0
 40
0.0
 40
0.0
 40
0.0
 40
1.0
 40
1.0
 40
1.0
 40
1.0
 10
1301.49203936253
 20
1037.058200783941
 30
0.0
 10
1303.749161619542
 20
1037.058200783941
 30
0.0
 10
1306.005990337329
 20
1036.990209577897
 30
0.0
 10
1308.259302334417
 20
1036.859310959553
 30
0.0
  0
LINE
  5
241
330
1F
100
AcDbEntity
  8
0
  6
Continuous
 62
     7
370
    35
100
AcDbLine
 10
1195.4920393625
 20
1037.0582007839
 30
0.0
 11
1301.4920393625
 21
1037.0582007839
 31
0.0
  0
SPLINE
  5
242
330
1F
100
AcDbEntity
  8
0
  6
Continuous
 62
     7
370
    35
100
AcDbSpline
210
0.0
220
0.0
230
1.0
 70
     8
 71
     3
 72
     8
 73
     4
 74
     0
 42
0.000000001
 43
0.00000001
 40
0.0
 40
0.0
 40
0.0
 40
0.0
 40
1.0
 40
1.0
 40
1.0
 40
1.0
 10
1188.724776390642
 20
1036.859310959553
 30
0.0
 10
1190.978088081035
 20
1036.990209559868
 30
0.0
 10
1193.234912211298
 20
1037.058200783941
 30
0.0
 10
1195.492039362529
 20
1037.058200783941
 30
0.0
  0
SPLINE
  5
243
330
1F
100
AcDbEntity
  8
0
  6
Continuous
 62
     7
370
    35
100
AcDbSpline
210
0.0
220
0.0
230
1.0
 70
     8
 71
     3
 72
    22
 73
    18
 74
     0
 42
0.000000001
 43
0.00000001
 40
3.369126305560274
 40
3.369126305560274
 40
3.369126305560274
 40
3.369126305560274
 40
3.535853022596993
 40
3.535853022596993
 40
3.702579739633712
 40
3.702579739633712
 40
3.869306456670431
 40
3.869306456670431
 40
4.036033173707151
 40
4.036033173707151
 40
4.20275989074387
 40
4.20275989074387
 40
4.369486607780589
 40
4.369486607780589
 40
4.536213324817307
 40
4.536213324817307
 40
4.702940041854027
 40
4.702940041854027
 40
4.702940041854027
 40
4.702940041854027
 10
1165.493378589156
 20
1007.916003747116
 30
0.0
 10
1165.509132352737
 20
1009.583206331017
 30
0.0
 10
1165.664189571056
 20
1011.249051475903
 30
0.0
 10
1166.248619120617
 20
1014.531971117189
 30
0.0
 10
1166.677983842168
 20
1016.148993548206
 30
0.0
 10
1167.799127343853
 20
1019.2894006107
 30
0.0
 10
1168.4908917043
 20
1020.812744851554
 30
0.0
 10
1170.117655964405
 20
1023.723544966914
 30
0.0
 10
1171.052634941291
 20
1025.110963403907
 30
0.0
 10
1173.139904150669
 20
1027.711429999947
 30
0.0
 10
1174.292167537563
 20
1028.924444712862
 30
0.0
 10
1176.78205448932
 20
1031.142457841093
 30
0.0
 10
1178.119646030282
 20
1032.147427729236
 30
0.0
 10
1180.943097532589
 20
1033.921474200909
 30
0.0
 10
1182.428921179862
 20
1034.690527967384
 30
0.0
 10
1185.507633140208
 20
1035.97140732734
 30
0.0
 10
1187.100472354271
 20
1036.48321424658
 30
0.0
 10
1188.724776390642
 20
1036.859310959553
 30
0.0
  0
SPLINE
  5
244
330
1F
100
AcDbEntity
  8
0
  6
Continuous
 62
     7
370
    35
100
AcDbSpline
210
0.0
220
0.0
230
1.0
 70
     8
 71
     3
 72
     8
 73
     4
 74
     0
 42
0.000000001
 43
0.00000001
 40
0.0
 40
0.0
 40
0.0
 40
0.0
 40
0.0000569949035218
 40
0.0000569949035218
 40
0.0000569949035218
 40
0.0000569949035218
 10
1165.492372701792
 20
1007.859109372905
 30
0.0
 10
1165.492595924053
 20
1007.87807580923
 30
0.0
 10
1165.492931432286
 20
1007.897041256027
 30
0.0
 10
1165.493378589156
 20
1007.916003747116
 30
0.0
  0
SPLINE
  5
245
330
1F
100
AcDbEntity
  8
0
  6
Continuous
 62
     7
370
    35
100
AcDbSpline
210
0.0
220
0.0
230
1.0
 70
     8
 71
     3
 72
     8
 73
     4
 74
     0
 42
0.000000001
 43
0.00000001
 40
0.0
 40
0.0
 40
0.0
 40
0.0
 40
0.0000569949035218
 40
0.0000569949035218
 40
0.0000569949035218
 40
0.0000569949035218
 10
1331.490700135903
 20
1007.916003747116
 30
0.0
 10
1331.491147292772
 20
1007.897041256027
 30
0.0
 10
1331.491482801006
 20
1007.87807580923
 30
0.0
 10
1331.491706023266
 20
1007.859109372905
 30
0.0
  0
SPLINE
  5
246
330
1F
100
AcDbEntity
  8
0
  6
Continuous
 62
     7
370
    35
100
AcDbSpline
210
0.0
220
0.0
230
1.0
 70
     8
 71
     3
 72
    22
 73
    18
 74
     0
 42
0.000000001
 43
0.00000001
 40
1.580245265325559
 40
1.580245265325559
 40
1.580245265325559
 40
1.580245265325559
 40
1.746971982362278
 40
1.746971982362278
 40
1.913698699398998
 40
1.913698699398998
 40
2.080425416435717
 40
2.080425416435717
 40
2.247152133472436
 40
2.247152133472436
 40
2.413878850509155
 40
2.413878850509155
 40
2.580605567545874
 40
2.580605567545874
 40
2.747332284582593
 40
2.747332284582593
 40
2.914059001619312
 40
2.914059001619312
 40
2.914059001619312
 40
2.914059001619312
 10
1308.259302334417
 20
1036.859310959553
 30
0.0
 10
1309.883606370788
 20
1036.48321424658
 30
0.0
 10
1311.476445584851
 20
1035.97140732734
 30
0.0
 10
1314.555157545197
 20
1034.690527967384
 30
0.0
 10
1316.04098119247
 20
1033.921474200909
 30
0.0
 10
1318.864432694777
 20
1032.147427729236
 30
0.0
 10
1320.202024235738
 20
1031.142457841093
 30
0.0
 10
1322.691911187496
 20
1028.924444712862
 30
0.0
 10
1323.84417457439
 20
1027.711429999947
 30
0.0
 10
1325.931443783768
 20
1025.110963403906
 30
0.0
 10
1326.866422760654
 20
1023.723544966914
 30
0.0
 10
1328.493187020759
 20
1020.812744851554
 30
0.0
 10
1329.184951381206
 20
1019.2894006107
 30
0.0
 10
1330.30609488289
 20
1016.148993548206
 30
0.0
 10
1330.735459604442
 20
1014.531971117189
 30
0.0
 10
1331.319889154003
 20
1011.249051475903
 30
0.0
 10
1331.474946372322
 20
1009.583206331017
 30
0.0
 10
1331.490700135903
 20
1007.916003747116
 30
0.0
  0
SPLINE
  5
247
330
1F
100
AcDbEntity
  8
0
  6
Continuous
 62
     7
370
    35
100
AcDbSpline
210
0.0
220
0.0
230
1.0
 70
     8
 71
     3
 72
    14
 73
    10
 74
     0
 42
0.000000001
 43
0.00000001
 40
0.0
 40
0.0
 40
0.0
 40
0.0
 40
0.25
 40
0.25
 40
0.5
 40
0.5
 40
0.75
 40
0.75
 40
1.0
 40
1.0
 40
1.0
 40
1.0
 10
1308.259302334417
 20
1036.859109372905
 30
0.0
 10
1311.507891403394
 20
1036.106920347153
 30
0.0
 10
1314.629255441317
 20
1034.808295850098
 30
0.0
 10
1320.276158445931
 20
1031.260202906751
 30
0.0
 10
1322.800539969701
 20
1029.011461711318
 30
0.0
 10
1326.975078388457
 20
1023.810528519238
 30
0.0
 10
1328.624379630363
 20
1020.859402555299
 30
0.0
 10
1330.866666633733
 20
1014.57858843031
 30
0.0
 10
1331.459192794736
 20
1011.25018764463
 30
0.0
 10
1331.490700135903
 20
1007.915802160468
 30
0.0
  0
LINE
  5
248
330
1F
100
AcDbEntity
  8
0
  6
Continuous
 62
     7
370
    35
100
AcDbLine
 10
1308.2593023344
 20
1036.8593109596
 30
0.0
 11
1308.2593023344
 21
1036.8591093729
 31
0.0
  0
SPLINE
  5
249
330
1F
100
AcDbEntity
  8
0
  6
Continuous
 62
     7
370
    35
100
AcDbSpline
210
0.0
220
0.0
230
1.0
 70
     8
 71
     3
 72
    14
 73
    10
 74
     0
 42
0.000000001
 43
0.00000001
 40
0.0
 40
0.0
 40
0.0
 40
0.0
 40
0.2499999999999999
 40
0.2499999999999999
 40
0.4999999999999999
 40
0.4999999999999999
 40
0.7499999999999999
 40
0.7499999999999999
 40
1.0
 40
1.0
 40
1.0
 40
1.0
 10
1331.490700135903
 20
1007.689031010215
 30
0.0
 10
1331.459192794736
 20
1004.354645526053
 30
0.0
 10
1330.866666633733
 20
1001.026244740373
 30
0.0
 10
1328.624379630363
 20
994.7454306153833
 30
0.0
 10
1326.975078388457
 20
991.7943046514443
 30
0.0
 10
1322.800539969701
 20
986.5933714593643
 30
0.0
 10
1320.276158445931
 20
984.3446302639319
 30
0.0
 10
1314.629255441317
 20
980.7965373205849
 30
0.0
 10
1311.507891403394
 20
979.4979128235293
 30
0.0
 10
1308.259302334417
 20
978.7457237977779
 30
0.0
  0
ARC
  5
24A
330
1F
100
AcDbEntity
  8
0
  6
Continuous
 62
     7
370
    35
100
AcDbCircle
 10
1301.4920393625
 20
1007.8024165853
 30
0.0
 40
27.00000000000001
100
AcDbArc
 50
283.0367179551
 51
359.4586157013
  0
LINE
  5
24B
330
1F
100
AcDbEntity
  8
0
  6
Continuous
 62
     7
370
    35
100
AcDbLine
 10
1308.2593023344
 20
978.7455222111
 30
0.0
 11
1308.2593023344
 21
978.7457237978
 31
0.0
  0
SPLINE
  5
24C
330
1F
100
AcDbEntity
  8
0
  6
Continuous
 62
     7
370
    35
100
AcDbSpline
210
0.0
220
0.0
230
1.0
 70
     8
 71
     3
 72
    22
 73
    18
 74
     0
 42
0.000000001
 43
0.00000001
 40
3.369126305560276
 40
3.369126305560276
 40
3.369126305560276
 40
3.369126305560276
 40
3.535853022596996
 40
3.535853022596996
 40
3.702579739633714
 40
3.702579739633714
 40
3.869306456670433
 40
3.869306456670433
 40
4.036033173707152
 40
4.036033173707152
 40
4.20275989074387
 40
4.20275989074387
 40
4.369486607780589
 40
4.369486607780589
 40
4.536213324817308
 40
4.536213324817308
 40
4.702940041854027
 40
4.702940041854027
 40
4.702940041854027
 40
4.702940041854027
 10
1331.490700135903
 20
1007.688829423566
 30
0.0
 10
1331.474946372322
 20
1006.021626839666
 30
0.0
 10
1331.319889154003
 20
1004.355781694779
 30
0.0
 10
1330.735459604442
 20
1001.072862053494
 30
0.0
 10
1330.30609488289
 20
999.4558396224769
 30
0.0
 10
1329.184951381206
 20
996.3154325599822
 30
0.0
 10
1328.493187020759
 20
994.7920883191289
 30
0.0
 10
1326.866422760654
 20
991.8812882037688
 30
0.0
 10
1325.931443783768
 20
990.493869766776
 30
0.0
 10
1323.84417457439
 20
987.893403170736
 30
0.0
 10
1322.691911187496
 20
986.6803884578206
 30
0.0
 10
1320.202024235739
 20
984.4623753295897
 30
0.0
 10
1318.864432694777
 20
983.4574054414469
 30
0.0
 10
1316.04098119247
 20
981.6833589697734
 30
0.0
 10
1314.555157545197
 20
980.9143052032988
 30
0.0
 10
1311.476445584851
 20
979.6334258433432
 30
0.0
 10
1309.883606370788
 20
979.1216189241026
 30
0.0
 10
1308.259302334417
 20
978.7455222111297
 30
0.0
  0
SPLINE
  5
24D
330
1F
100
AcDbEntity
  8
0
  6
Continuous
 62
     7
370
    35
100
AcDbSpline
210
0.0
220
0.0
230
1.0
 70
     8
 71
     3
 72
    14
 73
    10
 74
     0
 42
0.000000001
 43
0.00000001
 40
0.0
 40
0.0
 40
0.0
 40
0.0
 40
0.25
 40
0.25
 40
0.5
 40
0.5
 40
0.75
 40
0.75
 40
1.0
 40
1.0
 40
1.0
 40
1.0
 10
1188.724776390641
 20
978.7457237977779
 30
0.0
 10
1185.476187321665
 20
979.4979128235293
 30
0.0
 10
1182.354823283742
 20
980.796537320585
 30
0.0
 10
1176.707920279128
 20
984.3446302639319
 30
0.0
 10
1174.183538755358
 20
986.5933714593643
 30
0.0
 10
1170.009000336602
 20
991.7943046514443
 30
0.0
 10
1168.359699094696
 20
994.7454306153833
 30
0.0
 10
1166.117412091326
 20
1001.026244740373
 30
0.0
 10
1165.524885930323
 20
1004.354645526053
 30
0.0
 10
1165.493378589156
 20
1007.689031010215
 30
0.0
  0
ARC
  5
24E
330
1F
100
AcDbEntity
  8
0
  6
Continuous
 62
     7
370
    35
100
AcDbCircle
 10
1195.4920393625
 20
1007.8024165853
 30
0.0
 40
27.00000000000006
100
AcDbArc
 50
180.5413842987
 51
256.9632820449
  0
LINE
  5
24F
330
1F
100
AcDbEntity
  8
0
  6
Continuous
 62
     7
370
    35
100
AcDbLine
 10
1188.7247763906
 20
978.7455222111
 30
0.0
 11
1188.7247763906
 21
978.7457237978
 31
0.0
  0
SPLINE
  5
250
330
1F
100
AcDbEntity
  8
0
  6
Continuous
 62
     7
370
    35
100
AcDbSpline
210
0.0
220
0.0
230
1.0
 70
     8
 71
     3
 72
    22
 73
    18
 74
     0
 42
0.000000001
 43
0.00000001
 40
1.580245265325559
 40
1.580245265325559
 40
1.580245265325559
 40
1.580245265325559
 40
1.746971982362278
 40
1.746971982362278
 40
1.913698699398996
 40
1.913698699398996
 40
2.080425416435715
 40
2.080425416435715
 40
2.247152133472434
 40
2.247152133472434
 40
2.413878850509152
 40
2.413878850509152
 40
2.580605567545871
 40
2.580605567545871
 40
2.74733228458259
 40
2.74733228458259
 40
2.914059001619308
 40
2.914059001619308
 40
2.914059001619308
 40
2.914059001619308
 10
1188.724776390641
 20
978.7455222111297
 30
0.0
 10
1187.100472354271
 20
979.1216189241026
 30
0.0
 10
1185.507633140208
 20
979.6334258433432
 30
0.0
 10
1182.428921179862
 20
980.914305203299
 30
0.0
 10
1180.943097532589
 20
981.6833589697734
 30
0.0
 10
1178.119646030282
 20
983.4574054414469
 30
0.0
 10
1176.78205448932
 20
984.4623753295897
 30
0.0
 10
1174.292167537563
 20
986.6803884578206
 30
0.0
 10
1173.139904150669
 20
987.8934031707361
 30
0.0
 10
1171.052634941291
 20
990.493869766776
 30
0.0
 10
1170.117655964405
 20
991.8812882037688
 30
0.0
 10
1168.4908917043
 20
994.792088319129
 30
0.0
 10
1167.799127343853
 20
996.3154325599824
 30
0.0
 10
1166.677983842168
 20
999.455839622477
 30
0.0
 10
1166.248619120617
 20
1001.072862053494
 30
0.0
 10
1165.664189571056
 20
1004.35578169478
 30
0.0
 10
1165.509132352737
 20
1006.021626839666
 30
0.0
 10
1165.493378589156
 20
1007.688829423566
 30
0.0
  0
ARC
  5
251
330
1F
100
AcDbEntity
  8
0
  6
Continuous
 62
     7
370
    35
100
AcDbCircle
 10
1301.4920393625
 20
1007.8024165853
 30
0.0
 40
26.99999999999996
100
AcDbArc
 50
0.5413842987
 51
76.9632820449
  0
LINE
  5
252
330
1F
100
AcDbEntity
  8
0
  6
Continuous
 62
     7
370
    35
100
AcDbLine
 10
1188.7247763906
 20
1036.8593109596
 30
0.0
 11
1188.7247763906
 21
1036.8591093729
 31
0.0
  0
SPLINE
  5
253
330
1F
100
AcDbEntity
  8
0
  6
Continuous
 62
     7
370
    35
100
AcDbSpline
210
0.0
220
0.0
230
1.0
 70
     8
 71
     3
 72
    14
 73
    10
 74
     0
 42
0.000000001
 43
0.00000001
 40
0.0
 40
0.0
 40
0.0
 40
0.0
 40
0.25
 40
0.25
 40
0.5
 40
0.5
 40
0.75
 40
0.75
 40
1.0
 40
1.0
 40
1.0
 40
1.0
 10
1165.493378589156
 20
1007.915802160468
 30
0.0
 10
1165.524885930323
 20
1011.25018764463
 30
0.0
 10
1166.117412091326
 20
1014.57858843031
 30
0.0
 10
1168.359699094696
 20
1020.859402555299
 30
0.0
 10
1170.009000336602
 20
1023.810528519238
 30
0.0
 10
1174.183538755358
 20
1029.011461711318
 30
0.0
 10
1176.707920279128
 20
1031.260202906751
 30
0.0
 10
1182.354823283742
 20
1034.808295850098
 30
0.0
 10
1185.476187321665
 20
1036.106920347153
 30
0.0
 10
1188.724776390642
 20
1036.859109372905
 30
0.0
  0
ARC
  5
254
330
1F
100
AcDbEntity
  8
0
  6
Continuous
 62
     7
370
    35
100
AcDbCircle
 10
1195.4920393625
 20
1007.8024165853
 30
0.0
 40
27.00000000000001
100
AcDbArc
 50
103.0367179551
 51
179.4586157013
  0
SPLINE
  5
255
330
1F
100
AcDbEntity
  8
0
  6
Continuous
 62
     7
370
    35
100
AcDbSpline
210
0.0
220
0.0
230
1.0
 70
     8
 71
     3
 72
     8
 73
     4
 74
     0
 42
0.000000001
 43
0.00000001
 40
0.0
 40
0.0
 40
0.0
 40
0.0
 40
0.0000569949035229
 40
0.0000569949035229
 40
0.0000569949035229
 40
0.0000569949035229
 10
1165.493378589156
 20
1007.688829423566
 30
0.0
 10
1165.492931432286
 20
1007.707791914656
 30
0.0
 10
1165.492595924053
 20
1007.726757361453
 30
0.0
 10
1165.492372701792
 20
1007.745723797779
 30
0.0
  0
SPLINE
  5
256
330
1F
100
AcDbEntity
  8
0
  6
Continuous
 62
     7
370
    35
100
AcDbSpline
210
0.0
220
0.0
230
1.0
 70
     8
 71
     3
 72
     8
 73
     4
 74
     0
 42
0.000000001
 43
0.00000001
 40
0.0
 40
0.0
 40
0.0
 40
0.0
 40
1.0
 40
1.0
 40
1.0
 40
1.0
 10
1195.492039362529
 20
978.5466323867414
 30
0.0
 10
1193.234917105517
 20
978.5466323867414
 30
0.0
 10
1190.97808838773
 20
978.6146235927852
 30
0.0
 10
1188.724776390641
 20
978.7455222111297
 30
0.0
  0
LINE
  5
257
330
1F
100
AcDbEntity
  8
0
  6
Continuous
 62
     7
370
    35
100
AcDbLine
 10
1301.4920393625
 20
978.5466323867
 30
0.0
 11
1195.4920393625
 21
978.5466323867
 31
0.0
  0
SPLINE
  5
258
330
1F
100
AcDbEntity
  8
0
  6
Continuous
 62
     7
370
    35
100
AcDbSpline
210
0.0
220
0.0
230
1.0
 70
     8
 71
     3
 72
     8
 73
     4
 74
     0
 42
0.000000001
 43
0.00000001
 40
0.0
 40
0.0
 40
0.0
 40
0.0
 40
1.0
 40
1.0
 40
1.0
 40
1.0
 10
1308.259302334417
 20
978.7455222111298
 30
0.0
 10
1306.005990644024
 20
978.6146236108143
 30
0.0
 10
1303.74916651376
 20
978.5466323867414
 30
0.0
 10
1301.49203936253
 20
978.5466323867414
 30
0.0
  0
SPLINE
  5
259
330
1F
100
AcDbEntity
  8
0
  6
Continuous
 62
     7
370
    35
100
AcDbSpline
210
0.0
220
0.0
230
1.0
 70
     8
 71
     3
 72
     8
 73
     4
 74
     0
 42
0.000000001
 43
0.00000001
 40
0.0
 40
0.0
 40
0.0
 40
0.0
 40
0.0000569949035229
 40
0.0000569949035229
 40
0.0000569949035229
 40
0.0000569949035229
 10
1331.491706023267
 20
1007.745723797779
 30
0.0
 10
1331.491482801006
 20
1007.726757361453
 30
0.0
 10
1331.491147292773
 20
1007.707791914656
 30
0.0
 10
1331.490700135903
 20
1007.688829423566
 30
0.0
  0
SPLINE
  5
25A
330
1F
100
AcDbEntity
  8
0
  6
Continuous
 62
     7
370
    35
100
AcDbSpline
210
0.0
220
0.0
230
1.0
 70
     8
 71
     3
 72
    10
 73
     6
 74
     0
 42
0.000000001
 43
0.00000001
 40
0.0
 40
0.0
 40
0.0
 40
0.0
 40
0.5
 40
0.5
 40
1.0
 40
1.0
 40
1.0
 40
1.0
 10
1195.492039362529
 20
978.5524165853412
 30
0.0
 10
1194.349079214572
 20
978.5524165853412
 30
0.0
 10
1193.213885736829
 20
978.5686906041698
 30
0.0
 10
1190.958359404457
 20
978.6331249961788
 30
0.0
 10
1189.838023458402
 20
978.6812825734847
 30
0.0
 10
1188.724776390641
 20
978.7457237977778
 30
0.0
  0
SPLINE
  5
25B
330
1F
100
AcDbEntity
  8
0
  6
Continuous
 62
     7
370
    35
100
AcDbSpline
210
0.0
220
0.0
230
1.0
 70
     8
 71
     3
 72
    10
 73
     6
 74
     0
 42
0.000000001
 43
0.00000001
 40
0.0
 40
0.0
 40
0.0
 40
0.0
 40
0.5
 40
0.5
 40
1.0
 40
1.0
 40
1.0
 40
1.0
 10
1195.492039362529
 20
980.8024165853412
 30
0.0
 10
1194.463299629441
 20
980.8024165853412
 30
0.0
 10
1193.441620153142
 20
980.8610101223504
 30
0.0
 10
1191.411694570497
 20
981.092972796366
 30
0.0
 10
1190.403445053731
 20
981.2663295106535
 30
0.0
 10
1189.40150268783
 20
981.4983225501128
 30
0.0
  0
SPLINE
  5
25C
330
1F
100
AcDbEntity
  8
0
  6
Continuous
 62
     7
370
    35
100
AcDbSpline
210
0.0
220
0.0
230
1.0
 70
     8
 71
     3
 72
    10
 73
     6
 74
     0
 42
0.000000001
 43
0.00000001
 40
0.0
 40
0.0
 40
0.0
 40
0.0
 40
0.5
 40
0.5
 40
1.0
 40
1.0
 40
1.0
 40
1.0
 10
1308.259302334417
 20
978.7457237977778
 30
0.0
 10
1307.146055266657
 20
978.6812825734847
 30
0.0
 10
1306.025719320601
 20
978.6331249961788
 30
0.0
 10
1303.77019298823
 20
978.5686906041698
 30
0.0
 10
1302.634999510487
 20
978.5524165853412
 30
0.0
 10
1301.49203936253
 20
978.5524165853412
 30
0.0
  0
SPLINE
  5
25D
330
1F
100
AcDbEntity
  8
0
  6
Continuous
 62
     7
370
    35
100
AcDbSpline
210
0.0
220
0.0
230
1.0
 70
     8
 71
     3
 72
    10
 73
     6
 74
     0
 42
0.000000001
 43
0.00000001
 40
0.0
 40
0.0
 40
0.0
 40
0.0
 40
0.5
 40
0.5
 40
1.0
 40
1.0
 40
1.0
 40
1.0
 10
1307.582576037229
 20
981.4983225501128
 30
0.0
 10
1306.580633671326
 20
981.2663295106532
 30
0.0
 10
1305.57238415456
 20
981.0929727963658
 30
0.0
 10
1303.542458571913
 20
980.8610101223501
 30
0.0
 10
1302.520779095619
 20
980.8024165853412
 30
0.0
 10
1301.49203936253
 20
980.8024165853412
 30
0.0
  0
SPLINE
  5
25E
330
1F
100
AcDbEntity
  8
0
  6
Continuous
 62
     7
370
    35
100
AcDbSpline
210
0.0
220
0.0
230
1.0
 70
     8
 71
     3
 72
    10
 73
     6
 74
     0
 42
0.000000001
 43
0.00000001
 40
0.0
 40
0.0
 40
0.0
 40
0.0
 40
0.5
 40
0.5
 40
1.0
 40
1.0
 40
1.0
 40
1.0
 10
1188.724776390642
 20
1036.859109372905
 30
0.0
 10
1189.838023458402
 20
1036.923550597198
 30
0.0
 10
1190.958359404458
 20
1036.971708174504
 30
0.0
 10
1193.213885736829
 20
1037.036142566513
 30
0.0
 10
1194.349079214572
 20
1037.052416585341
 30
0.0
 10
1195.492039362529
 20
1037.052416585341
 30
0.0
  0
SPLINE
  5
25F
330
1F
100
AcDbEntity
  8
0
  6
Continuous
 62
     7
370
    35
100
AcDbSpline
210
0.0
220
0.0
230
1.0
 70
     8
 71
     3
 72
    10
 73
     6
 74
     0
 42
0.000000001
 43
0.00000001
 40
0.0
 40
0.0
 40
0.0
 40
0.0
 40
0.5
 40
0.5
 40
1.0
 40
1.0
 40
1.0
 40
1.0
 10
1189.40150268783
 20
1034.10651062057
 30
0.0
 10
1190.403445053732
 20
1034.338503660029
 30
0.0
 10
1191.411694570499
 20
1034.511860374317
 30
0.0
 10
1193.441620153146
 20
1034.743823048332
 30
0.0
 10
1194.46329962944
 20
1034.802416585341
 30
0.0
 10
1195.492039362529
 20
1034.802416585341
 30
0.0
  0
SPLINE
  5
260
330
1F
100
AcDbEntity
  8
0
  6
Continuous
 62
     7
370
    35
100
AcDbSpline
210
0.0
220
0.0
230
1.0
 70
     8
 71
     3
 72
    10
 73
     6
 74
     0
 42
0.000000001
 43
0.00000001
 40
0.0
 40
0.0
 40
0.0
 40
0.0
 40
0.5
 40
0.5
 40
1.0
 40
1.0
 40
1.0
 40
1.0
 10
1301.49203936253
 20
1037.052416585341
 30
0.0
 10
1302.634999510487
 20
1037.052416585341
 30
0.0
 10
1303.77019298823
 20
1037.036142566513
 30
0.0
 10
1306.025719320601
 20
1036.971708174504
 30
0.0
 10
1307.146055266657
 20
1036.923550597198
 30
0.0
 10
1308.259302334417
 20
1036.859109372905
 30
0.0
  0
SPLINE
  5
261
330
1F
100
AcDbEntity
  8
0
  6
Continuous
 62
     7
370
    35
100
AcDbSpline
210
0.0
220
0.0
230
1.0
 70
     8
 71
     3
 72
    10
 73
     6
 74
     0
 42
0.000000001
 43
0.00000001
 40
0.0
 40
0.0
 40
0.0
 40
0.0
 40
0.5
 40
0.5
 40
1.0
 40
1.0
 40
1.0
 40
1.0
 10
1301.49203936253
 20
1034.802416585341
 30
0.0
 10
1302.520779095618
 20
1034.802416585341
 30
0.0
 10
1303.542458571917
 20
1034.743823048332
 30
0.0
 10
1305.572384154562
 20
1034.511860374316
 30
0.0
 10
1306.580633671327
 20
1034.338503660029
 30
0.0
 10
1307.582576037228
 20
1034.10651062057
 30
0.0
  0
LINE
  5
262
330
1F
100
AcDbEntity
  8
0
  6
Continuous
 62
     7
370
    35
100
AcDbLine
 10
1195.4920393625
 20
978.5524165853
 30
0.0
 11
1301.4920393625
 21
978.5524165853
 31
0.0
  0
LINE
  5
263
330
1F
100
AcDbEntity
  8
0
  6
Continuous
 62
     7
370
    35
100
AcDbLine
 10
1301.4920393625
 20
980.8024165853
 30
0.0
 11
1195.4920393625
 21
980.8024165853
 31
0.0
  0
LINE
  5
264
330
1F
100
AcDbEntity
  8
0
  6
Continuous
 62
     7
370
    35
100
AcDbLine
 10
1301.4920393625
 20
1037.0524165853
 30
0.0
 11
1195.4920393625
 21
1037.0524165853
 31
0.0
  0
LINE
  5
265
330
1F
100
AcDbEntity
  8
0
  6
Continuous
 62
     7
370
    35
100
AcDbLine
 10
1195.4920393625
 20
1034.8024165853
 30
0.0
 11
1301.4920393625
 21
1034.8024165853
 31
0.0
  0
SPLINE
  5
266
330
1F
100
AcDbEntity
  8
0
  6
Continuous
 62
     7
370
    35
100
AcDbSpline
210
0.0
220
0.0
230
1.0
 70
     8
 71
     3
 72
     8
 73
     4
 74
     0
 42
0.000000001
 43
0.00000001
 40
0.0
 40
0.0
 40
0.0
 40
0.0
 40
1.0
 40
1.0
 40
1.0
 40
1.0
 10
1331.490700135903
 20
1007.915802160468
 30
0.0
 10
1331.492485811263
 20
1007.84021177705
 30
0.0
 10
1331.492485811263
 20
1007.764621393632
 30
0.0
 10
1331.490700135903
 20
1007.689031010215
 30
0.0
  0
SPLINE
  5
267
330
1F
100
AcDbEntity
  8
0
  6
Continuous
 62
     7
370
    35
100
AcDbSpline
210
0.0
220
0.0
230
1.0
 70
     8
 71
     3
 72
     8
 73
     4
 74
     0
 42
0.000000001
 43
0.00000001
 40
0.0
 40
0.0
 40
0.0
 40
0.0
 40
1.0
 40
1.0
 40
1.0
 40
1.0
 10
1328.490834058566
 20
1008.057534129377
 30
0.0
 10
1328.492441166389
 20
1007.887455766686
 30
0.0
 10
1328.492441166389
 20
1007.717377403996
 30
0.0
 10
1328.490834058566
 20
1007.547299041306
 30
0.0
  0
SPLINE
  5
268
330
1F
100
AcDbEntity
  8
0
  6
Continuous
 62
     7
370
    35
100
AcDbSpline
210
0.0
220
0.0
230
1.0
 70
     8
 71
     3
 72
     8
 73
     4
 74
     0
 42
0.000000001
 43
0.00000001
 40
0.0
 40
0.0
 40
0.0
 40
0.0
 40
0.0001133855751267
 40
0.0001133855751267
 40
0.0001133855751267
 40
0.0001133855751267
 10
1331.491706023266
 20
1007.745723797778
 30
0.0
 10
1331.492150101294
 20
1007.783455597609
 30
0.0
 10
1331.492150101295
 20
1007.821377573083
 30
0.0
 10
1331.491706023266
 20
1007.859109372914
 30
0.0
  0
SPLINE
  5
269
330
1F
100
AcDbEntity
  8
0
  6
Continuous
 62
     7
370
    35
100
AcDbSpline
210
0.0
220
0.0
230
1.0
 70
     8
 71
     3
 72
     8
 73
     4
 74
     0
 42
0.000000001
 43
0.00000001
 40
0.0
 40
0.0
 40
0.0
 40
0.0
 40
1.0
 40
1.0
 40
1.0
 40
1.0
 10
1168.493244666493
 20
1007.547299041306
 30
0.0
 10
1168.491637558669
 20
1007.717377403996
 30
0.0
 10
1168.491637558669
 20
1007.887455766686
 30
0.0
 10
1168.493244666493
 20
1008.057534129377
 30
0.0
  0
SPLINE
  5
26A
330
1F
100
AcDbEntity
  8
0
  6
Continuous
 62
     7
370
    35
100
AcDbSpline
210
0.0
220
0.0
230
1.0
 70
     8
 71
     3
 72
     8
 73
     4
 74
     0
 42
0.000000001
 43
0.00000001
 40
0.0
 40
0.0
 40
0.0
 40
0.0
 40
1.0
 40
1.0
 40
1.0
 40
1.0
 10
1165.493378589156
 20
1007.689031010215
 30
0.0
 10
1165.491592913796
 20
1007.764621393632
 30
0.0
 10
1165.491592913796
 20
1007.84021177705
 30
0.0
 10
1165.493378589156
 20
1007.915802160468
 30
0.0
  0
SPLINE
  5
26B
330
1F
100
AcDbEntity
  8
0
  6
Continuous
 62
     7
370
    35
100
AcDbSpline
210
0.0
220
0.0
230
1.0
 70
     8
 71
     3
 72
     8
 73
     4
 74
     0
 42
0.000000001
 43
0.00000001
 40
0.0
 40
0.0
 40
0.0
 40
0.0
 40
0.0001133855751265
 40
0.0001133855751265
 40
0.0001133855751265
 40
0.0001133855751265
 10
1165.492372701792
 20
1007.859109372905
 30
0.0
 10
1165.491928623764
 20
1007.821377573077
 30
0.0
 10
1165.491928623764
 20
1007.783455597606
 30
0.0
 10
1165.492372701792
 20
1007.745723797778
 30
0.0
  0
LINE
  5
26C
330
1F
100
AcDbEntity
  8
0
  6
Continuous
 62
     7
370
    35
100
AcDbLine
 10
1291.4920393625
 20
1012.735591088
 30
0.0
 11
1291.911640447
 21
1015.6019400932
 31
0.0
  0
SPLINE
  5
26D
330
1F
100
AcDbEntity
  8
0
  6
Continuous
 62
     7
370
    35
100
AcDbSpline
210
0.0
220
0.0
230
1.0
 70
     8
 71
     3
 72
    11
 73
     7
 74
     0
 42
0.000000001
 43
0.00000001
 40
0.0
 40
0.0
 40
0.0
 40
0.0
 40
0.2606216717109345
 40
0.46320044808223
 40
0.6713667795608234
 40
1.0
 40
1.0
 40
1.0
 40
1.0
 10
1291.911640447031
 20
1015.601940093223
 30
0.0
 10
1292.278521817693
 20
1016.603658273033
 30
0.0
 10
1292.930576630202
 20
1018.384002580912
 30
0.0
 10
1294.467941492025
 20
1020.639002202974
 30
0.0
 10
1296.482707276521
 20
1022.853636383327
 30
0.0
 10
1298.328035362359
 20
1023.974098481298
 30
0.0
 10
1299.457760805402
 20
1024.660054843074
 30
0.0
  0
SPLINE
  5
26E
330
1F
100
AcDbEntity
  8
0
  6
Continuous
 62
     7
370
    35
100
AcDbSpline
210
0.0
220
0.0
230
1.0
 70
     8
 71
     3
 72
    16
 73
    12
 74
     0
 42
0.000000001
 43
0.00000001
 40
0.0
 40
0.0
 40
0.0
 40
0.0
 40
0.6093642604521688
 40
0.7233750503883771
 40
0.8172213162021837
 40
0.8496365726798873
 40
0.8823612341657242
 40
0.9067814804504445
 40
0.9311421346358176
 40
0.9706402276081948
 40
1.0
 40
1.0
 40
1.0
 40
1.0
 10
1299.457760805402
 20
1024.660054843074
 30
0.0
 10
1300.034595074991
 20
1024.957709919024
 30
0.0
 10
1300.71935384066
 20
1025.311055642654
 30
0.0
 10
1301.386596811844
 20
1025.836793966312
 30
0.0
 10
1301.556850209822
 20
1026.021946976366
 30
0.0
 10
1301.625123670499
 20
1026.170603276538
 30
0.0
 10
1301.636762811493
 20
1026.26420394192
 30
0.0
 10
1301.612237363279
 20
1026.348166626927
 30
0.0
 10
1301.555974655636
 20
1026.426305614101
 30
0.0
 10
1301.472902492972
 20
1026.488502809936
 30
0.0
 10
1301.404481624526
 20
1026.520392739165
 30
0.0
 10
1301.375308179869
 20
1026.533990039326
 30
0.0
  0
SPLINE
  5
26F
330
1F
100
AcDbEntity
  8
0
  6
Continuous
 62
     7
370
    35
100
AcDbSpline
210
0.0
220
0.0
230
1.0
 70
     8
 71
     3
 72
    13
 73
     9
 74
     0
 42
0.000000001
 43
0.00000001
 40
0.0
 40
0.0
 40
0.0
 40
0.0
 40
0.1585077763893686
 40
0.3168380823633753
 40
0.4791716695217826
 40
0.6493085002788165
 40
0.8235953482372503
 40
0.9999999999999999
 40
0.9999999999999999
 40
0.9999999999999999
 40
0.9999999999999999
 10
1314.019651599689
 20
1012.123569245817
 30
0.0
 10
1313.72707644593
 20
1013.133894697623
 30
0.0
 10
1313.142253714983
 20
1015.153414408297
 30
0.0
 10
1311.646227163296
 20
1017.974017159858
 30
0.0
 10
1309.719548493591
 20
1020.604067967843
 30
0.0
 10
1307.320474095812
 20
1022.967000564091
 30
0.0
 10
1304.528147823078
 20
1025.022892909167
 30
0.0
 10
1302.430477294192
 20
1026.028267198674
 30
0.0
 10
1301.375308179869
 20
1026.533990039326
 30
0.0
  0
SPLINE
  5
270
330
1F
100
AcDbEntity
  8
0
  6
Continuous
 62
     7
370
    35
100
AcDbSpline
210
0.0
220
0.0
230
1.0
 70
     8
 71
     3
 72
     9
 73
     5
 74
     0
 42
0.000000001
 43
0.00000001
 40
0.0
 40
0.0
 40
0.0
 40
0.0
 40
0.4230848072461941
 40
1.0
 40
1.0
 40
1.0
 40
1.0
 10
1314.019651599689
 20
1012.123569245817
 30
0.0
 10
1314.245772005947
 20
1010.908853621662
 30
0.0
 10
1314.780228460977
 20
1008.037761104628
 30
0.0
 10
1314.297909015529
 20
1005.148260641509
 30
0.0
 10
1314.019651599689
 20
1003.481263924867
 30
0.0
  0
SPLINE
  5
271
330
1F
100
AcDbEntity
  8
0
  6
Continuous
 62
     7
370
    35
100
AcDbSpline
210
0.0
220
0.0
230
1.0
 70
     8
 71
     3
 72
    13
 73
     9
 74
     0
 42
0.000000001
 43
0.00000001
 40
0.0
 40
0.0
 40
0.0
 40
0.0
 40
0.1585077763893749
 40
0.3168380823633751
 40
0.479171669521783
 40
0.6493085002788178
 40
0.8235953482372498
 40
1.0
 40
1.0
 40
1.0
 40
1.0
 10
1314.019651599689
 20
1003.481263924867
 30
0.0
 10
1313.72707644593
 20
1002.47093847306
 30
0.0
 10
1313.142253714983
 20
1000.451418762387
 30
0.0
 10
1311.646227163296
 20
997.6308160108254
 30
0.0
 10
1309.719548493591
 20
995.0007652028409
 30
0.0
 10
1307.320474095812
 20
992.6378326065925
 30
0.0
 10
1304.528147823078
 20
990.5819402615164
 30
0.0
 10
1302.430477294192
 20
989.57656597201
 30
0.0
 10
1301.375308179869
 20
989.0708431313577
 30
0.0
  0
SPLINE
  5
272
330
1F
100
AcDbEntity
  8
0
  6
Continuous
 62
     7
370
    35
100
AcDbSpline
210
0.0
220
0.0
230
1.0
 70
     8
 71
     3
 72
    16
 73
    12
 74
     0
 42
0.000000001
 43
0.00000001
 40
0.0
 40
0.0
 40
0.0
 40
0.0
 40
0.6093642604521428
 40
0.7233750503883587
 40
0.8172213162021715
 40
0.8496365726798772
 40
0.8823612341657163
 40
0.9067814804504382
 40
0.9311421346358131
 40
0.9706402276081928
 40
1.0
 40
1.0
 40
1.0
 40
1.0
 10
1299.457760805402
 20
990.9447783276086
 30
0.0
 10
1300.034595074991
 20
990.6471232516591
 30
0.0
 10
1300.71935384066
 20
990.2937775280295
 30
0.0
 10
1301.386596811844
 20
989.7680392043719
 30
0.0
 10
1301.556850209822
 20
989.5828861943177
 30
0.0
 10
1301.625123670499
 20
989.4342298941458
 30
0.0
 10
1301.636762811493
 20
989.340629228764
 30
0.0
 10
1301.612237363279
 20
989.2566665437561
 30
0.0
 10
1301.555974655636
 20
989.1785275565827
 30
0.0
 10
1301.472902492972
 20
989.1163303607475
 30
0.0
 10
1301.404481624526
 20
989.0844404315181
 30
0.0
 10
1301.375308179869
 20
989.0708431313577
 30
0.0
  0
SPLINE
  5
273
330
1F
100
AcDbEntity
  8
0
  6
Continuous
 62
     7
370
    35
100
AcDbSpline
210
0.0
220
0.0
230
1.0
 70
     8
 71
     3
 72
    11
 73
     7
 74
     0
 42
0.000000001
 43
0.00000001
 40
0.0
 40
0.0
 40
0.0
 40
0.0
 40
0.2606216717109248
 40
0.4632004480822215
 40
0.671366779560804
 40
1.0
 40
1.0
 40
1.0
 40
1.0
 10
1291.911640447031
 20
1000.00289307746
 30
0.0
 10
1292.278521817693
 20
999.0011748976498
 30
0.0
 10
1292.930576630202
 20
997.2208305897716
 30
0.0
 10
1294.467941492025
 20
994.9658309677088
 30
0.0
 10
1296.482707276522
 20
992.7511967873569
 30
0.0
 10
1298.328035362359
 20
991.6307346893849
 30
0.0
 10
1299.457760805402
 20
990.9447783276086
 30
0.0
  0
LINE
  5
274
330
1F
100
AcDbEntity
  8
0
  6
Continuous
 62
     7
370
    35
100
AcDbLine
 10
1291.4920393625
 20
1002.8692420827
 30
0.0
 11
1291.911640447
 21
1000.0028930775
 31
0.0
  0
LINE
  5
275
330
1F
100
AcDbEntity
  8
0
  6
Continuous
 62
     7
370
    35
100
AcDbLine
 10
1291.4920393625
 20
1012.735591088
 30
0.0
 11
1291.4920393625
 21
1002.8692420827
 31
0.0
  0
LINE
  5
276
330
1F
100
AcDbEntity
  8
0
  6
Continuous
 62
     7
370
    35
100
AcDbLine
 10
1205.4920393625
 20
1002.8692420827
 30
0.0
 11
1205.072438278
 21
1000.0028930775
 31
0.0
  0
SPLINE
  5
277
330
1F
100
AcDbEntity
  8
0
  6
Continuous
 62
     7
370
    35
100
AcDbSpline
210
0.0
220
0.0
230
1.0
 70
     8
 71
     3
 72
    11
 73
     7
 74
     0
 42
0.000000001
 43
0.00000001
 40
0.0
 40
0.0
 40
0.0
 40
0.0
 40
0.2606216717109242
 40
0.4632004480822201
 40
0.6713667795608154
 40
1.0
 40
1.0
 40
1.0
 40
1.0
 10
1205.072438278028
 20
1000.00289307746
 30
0.0
 10
1204.705556907366
 20
999.0011748976493
 30
0.0
 10
1204.053502094857
 20
997.2208305897711
 30
0.0
 10
1202.516137233034
 20
994.9658309677084
 30
0.0
 10
1200.501371448538
 20
992.7511967873562
 30
0.0
 10
1198.656043362701
 20
991.6307346893842
 30
0.0
 10
1197.526317919657
 20
990.9447783276082
 30
0.0
  0
SPLINE
  5
278
330
1F
100
AcDbEntity
  8
0
  6
Continuous
 62
     7
370
    35
100
AcDbSpline
210
0.0
220
0.0
230
1.0
 70
     8
 71
     3
 72
    16
 73
    12
 74
     0
 42
0.000000001
 43
0.00000001
 40
0.0
 40
0.0
 40
0.0
 40
0.0
 40
0.6093642604521698
 40
0.7233750503883779
 40
0.8172213162021843
 40
0.8496365726798878
 40
0.8823612341657245
 40
0.9067814804504447
 40
0.931142134635818
 40
0.9706402276081949
 40
1.0
 40
1.0
 40
1.0
 40
1.0
 10
1197.526317919657
 20
990.9447783276082
 30
0.0
 10
1196.949483650068
 20
990.6471232516584
 30
0.0
 10
1196.2647248844
 20
990.2937775280286
 30
0.0
 10
1195.597481913216
 20
989.7680392043709
 30
0.0
 10
1195.427228515238
 20
989.5828861943166
 30
0.0
 10
1195.358955054561
 20
989.4342298941449
 30
0.0
 10
1195.347315913567
 20
989.3406292287632
 30
0.0
 10
1195.37184136178
 20
989.256666543755
 30
0.0
 10
1195.428104069424
 20
989.1785275565819
 30
0.0
 10
1195.511176232088
 20
989.1163303607466
 30
0.0
 10
1195.579597100533
 20
989.0844404315171
 30
0.0
 10
1195.60877054519
 20
989.0708431313568
 30
0.0
  0
SPLINE
  5
279
330
1F
100
AcDbEntity
  8
0
  6
Continuous
 62
     7
370
    35
100
AcDbSpline
210
0.0
220
0.0
230
1.0
 70
     8
 71
     3
 72
    13
 73
     9
 74
     0
 42
0.000000001
 43
0.00000001
 40
0.0
 40
0.0
 40
0.0
 40
0.0
 40
0.1585077763893662
 40
0.3168380823633634
 40
0.4791716695217862
 40
0.6493085002788176
 40
0.8235953482372531
 40
1.0
 40
1.0
 40
1.0
 40
1.0
 10
1182.96442712537
 20
1003.481263924866
 30
0.0
 10
1183.257002279129
 20
1002.470938473059
 30
0.0
 10
1183.841825010075
 20
1000.451418762386
 30
0.0
 10
1185.337851561763
 20
997.6308160108246
 30
0.0
 10
1187.264530231469
 20
995.0007652028404
 30
0.0
 10
1189.663604629247
 20
992.6378326065918
 30
0.0
 10
1192.455930901982
 20
990.5819402615155
 30
0.0
 10
1194.553601430868
 20
989.576565972009
 30
0.0
 10
1195.60877054519
 20
989.0708431313568
 30
0.0
  0
SPLINE
  5
27A
330
1F
100
AcDbEntity
  8
0
  6
Continuous
 62
     7
370
    35
100
AcDbSpline
210
0.0
220
0.0
230
1.0
 70
     8
 71
     3
 72
     9
 73
     5
 74
     0
 42
0.000000001
 43
0.00000001
 40
0.0
 40
0.0
 40
0.0
 40
0.0
 40
0.4230848072461841
 40
1.0
 40
1.0
 40
1.0
 40
1.0
 10
1182.96442712537
 20
1012.123569245816
 30
0.0
 10
1182.738306719112
 20
1010.908853621661
 30
0.0
 10
1182.203850264082
 20
1008.037761104628
 30
0.0
 10
1182.68616970953
 20
1005.148260641509
 30
0.0
 10
1182.96442712537
 20
1003.481263924866
 30
0.0
  0
SPLINE
  5
27B
330
1F
100
AcDbEntity
  8
0
  6
Continuous
 62
     7
370
    35
100
AcDbSpline
210
0.0
220
0.0
230
1.0
 70
     8
 71
     3
 72
    13
 73
     9
 74
     0
 42
0.000000001
 43
0.00000001
 40
0.0
 40
0.0
 40
0.0
 40
0.0
 40
0.1585077763893715
 40
0.3168380823633755
 40
0.4791716695217982
 40
0.6493085002788295
 40
0.8235953482372533
 40
1.0
 40
1.0
 40
1.0
 40
1.0
 10
1182.96442712537
 20
1012.123569245816
 30
0.0
 10
1183.257002279129
 20
1013.133894697623
 30
0.0
 10
1183.841825010075
 20
1015.153414408296
 30
0.0
 10
1185.337851561763
 20
1017.974017159858
 30
0.0
 10
1187.264530231469
 20
1020.604067967842
 30
0.0
 10
1189.663604629247
 20
1022.96700056409
 30
0.0
 10
1192.455930901982
 20
1025.022892909166
 30
0.0
 10
1194.553601430868
 20
1026.028267198673
 30
0.0
 10
1195.60877054519
 20
1026.533990039325
 30
0.0
  0
SPLINE
  5
27C
330
1F
100
AcDbEntity
  8
0
  6
Continuous
 62
     7
370
    35
100
AcDbSpline
210
0.0
220
0.0
230
1.0
 70
     8
 71
     3
 72
    16
 73
    12
 74
     0
 42
0.000000001
 43
0.00000001
 40
0.0
 40
0.0
 40
0.0
 40
0.0
 40
0.6093642604521418
 40
0.723375050388358
 40
0.8172213162021711
 40
0.8496365726798769
 40
0.882361234165716
 40
0.906781480450438
 40
0.931142134635813
 40
0.9706402276081928
 40
1.0
 40
1.0
 40
1.0
 40
1.0
 10
1197.526317919657
 20
1024.660054843074
 30
0.0
 10
1196.949483650068
 20
1024.957709919024
 30
0.0
 10
1196.2647248844
 20
1025.311055642653
 30
0.0
 10
1195.597481913216
 20
1025.836793966311
 30
0.0
 10
1195.427228515238
 20
1026.021946976365
 30
0.0
 10
1195.358955054561
 20
1026.170603276537
 30
0.0
 10
1195.347315913567
 20
1026.264203941919
 30
0.0
 10
1195.37184136178
 20
1026.348166626927
 30
0.0
 10
1195.428104069424
 20
1026.4263056141
 30
0.0
 10
1195.511176232088
 20
1026.488502809935
 30
0.0
 10
1195.579597100533
 20
1026.520392739164
 30
0.0
 10
1195.60877054519
 20
1026.533990039325
 30
0.0
  0
SPLINE
  5
27D
330
1F
100
AcDbEntity
  8
0
  6
Continuous
 62
     7
370
    35
100
AcDbSpline
210
0.0
220
0.0
230
1.0
 70
     8
 71
     3
 72
    11
 73
     7
 74
     0
 42
0.000000001
 43
0.00000001
 40
0.0
 40
0.0
 40
0.0
 40
0.0
 40
0.2606216717109353
 40
0.463200448082231
 40
0.6713667795608111
 40
1.0
 40
1.0
 40
1.0
 40
1.0
 10
1205.072438278028
 20
1015.601940093223
 30
0.0
 10
1204.705556907366
 20
1016.603658273033
 30
0.0
 10
1204.053502094857
 20
1018.384002580911
 30
0.0
 10
1202.516137233034
 20
1020.639002202974
 30
0.0
 10
1200.501371448538
 20
1022.853636383326
 30
0.0
 10
1198.656043362701
 20
1023.974098481298
 30
0.0
 10
1197.526317919657
 20
1024.660054843074
 30
0.0
  0
LINE
  5
27E
330
1F
100
AcDbEntity
  8
0
  6
Continuous
 62
     7
370
    35
100
AcDbLine
 10
1205.4920393625
 20
1012.735591088
 30
0.0
 11
1205.072438278
 21
1015.6019400932
 31
0.0
  0
LINE
  5
27F
330
1F
100
AcDbEntity
  8
0
  6
Continuous
 62
     7
370
    35
100
AcDbLine
 10
1205.4920393625
 20
1012.735591088
 30
0.0
 11
1205.4920393625
 21
1002.8692420827
 31
0.0
  0
SPLINE
  5
280
330
1F
100
AcDbEntity
  8
0
  6
Continuous
 62
     7
370
    35
100
AcDbSpline
210
0.0
220
0.0
230
1.0
 70
     8
 71
     3
 72
    17
 73
    13
 74
     0
 42
0.000000001
 43
0.00000001
 40
0.0
 40
0.0
 40
0.0
 40
0.0
 40
0.0364925733413336
 40
0.1833587448077211
 40
0.2877156143828504
 40
0.3934837304905567
 40
0.4992474923956489
 40
0.6063189697897137
 40
0.7133499989193067
 40
0.8177518468878916
 40
0.9088657685707868
 40
1.0
 40
1.0
 40
1.0
 40
1.0
 10
1301.49203936253
 20
1029.543689052877
 30
0.0
 10
1301.90684499853
 20
1029.535884389934
 30
0.0
 10
1303.991056491227
 20
1029.496669473861
 30
0.0
 10
1307.246634811321
 20
1028.908485735087
 30
0.0
 10
1311.047282699112
 20
1027.44355528433
 30
0.0
 10
1314.144712497005
 20
1025.592512410141
 30
0.0
 10
1316.933327199074
 20
1023.255775919394
 30
0.0
 10
1319.286946349217
 20
1020.46049273542
 30
0.0
 10
1321.141376754872
 20
1017.330696488633
 30
0.0
 10
1322.384800990935
 20
1014.109248519718
 30
0.0
 10
1323.096648772074
 20
1010.912372374719
 30
0.0
 10
1323.185874311621
 20
1008.839145528647
 30
0.0
 10
1323.230492053045
 20
1007.802416585342
 30
0.0
  0
SPLINE
  5
281
330
1F
100
AcDbEntity
  8
0
  6
Continuous
 62
     7
370
    35
100
AcDbSpline
210
0.0
220
0.0
230
1.0
 70
     8
 71
     3
 72
    17
 73
    13
 74
     0
 42
0.000000001
 43
0.00000001
 40
0.0
 40
0.0
 40
0.0
 40
0.0
 40
0.0364925733413336
 40
0.183358744807721
 40
0.2877156143828377
 40
0.3934837304905527
 40
0.4992474923956532
 40
0.606318969789718
 40
0.713349998919311
 40
0.8177518468878916
 40
0.9088657685707867
 40
0.9999999999999999
 40
0.9999999999999999
 40
0.9999999999999999
 40
0.9999999999999999
 10
1195.492039362529
 20
986.0611441178056
 30
0.0
 10
1195.077233726529
 20
986.0689487807487
 30
0.0
 10
1192.993022233832
 20
986.1081636968215
 30
0.0
 10
1189.737443913739
 20
986.6963474355953
 30
0.0
 10
1185.936796025948
 20
988.161277886353
 30
0.0
 10
1182.839366228055
 20
990.0123207605416
 30
0.0
 10
1180.050751525986
 20
992.3490572512884
 30
0.0
 10
1177.697132375842
 20
995.1443404352632
 30
0.0
 10
1175.842701970187
 20
998.2741366820499
 30
0.0
 10
1174.599277734124
 20
1001.495584650964
 30
0.0
 10
1173.887429952985
 20
1004.692460795963
 30
0.0
 10
1173.798204413438
 20
1006.765687642036
 30
0.0
 10
1173.753586672014
 20
1007.802416585341
 30
0.0
  0
SPLINE
  5
282
330
1F
100
AcDbEntity
  8
0
  6
Continuous
 62
     7
370
    35
100
AcDbSpline
210
0.0
220
0.0
230
1.0
 70
     8
 71
     3
 72
    17
 73
    13
 74
     0
 42
0.000000001
 43
0.00000001
 40
0.0
 40
0.0
 40
0.0
 40
0.0
 40
0.0364925733413333
 40
0.1833587448077195
 40
0.2877156143828606
 40
0.3934837304905678
 40
0.49924749239566
 40
0.6063189697897239
 40
0.7133499989193159
 40
0.8177518468878925
 40
0.9088657685707873
 40
1.0
 40
1.0
 40
1.0
 40
1.0
 10
1301.492039362529
 20
986.0611441178066
 30
0.0
 10
1301.906844998529
 20
986.0689487807496
 30
0.0
 10
1303.991056491226
 20
986.1081636968224
 30
0.0
 10
1307.24663481132
 20
986.6963474355965
 30
0.0
 10
1311.047282699112
 20
988.1612778863536
 30
0.0
 10
1314.144712497005
 20
990.0123207605426
 30
0.0
 10
1316.933327199074
 20
992.3490572512894
 30
0.0
 10
1319.286946349217
 20
995.1443404352642
 30
0.0
 10
1321.141376754872
 20
998.2741366820508
 30
0.0
 10
1322.384800990935
 20
1001.495584650965
 30
0.0
 10
1323.096648772074
 20
1004.692460795964
 30
0.0
 10
1323.185874311621
 20
1006.765687642037
 30
0.0
 10
1323.230492053045
 20
1007.802416585342
 30
0.0
  0
SPLINE
  5
283
330
1F
100
AcDbEntity
  8
0
  6
Continuous
 62
     7
370
    35
100
AcDbSpline
210
0.0
220
0.0
230
1.0
 70
     8
 71
     3
 72
    17
 73
    13
 74
     0
 42
0.000000001
 43
0.00000001
 40
0.0
 40
0.0
 40
0.0
 40
0.0
 40
0.0364925733413331
 40
0.1833587448077188
 40
0.2877156143828469
 40
0.3934837304905604
 40
0.4992474923956576
 40
0.6063189697897211
 40
0.7133499989193127
 40
0.8177518468878933
 40
0.9088657685707877
 40
1.0
 40
1.0
 40
1.0
 40
1.0
 10
1195.49203936253
 20
1029.543689052876
 30
0.0
 10
1195.07723372653
 20
1029.535884389933
 30
0.0
 10
1192.993022233833
 20
1029.49666947386
 30
0.0
 10
1189.737443913739
 20
1028.908485735086
 30
0.0
 10
1185.936796025948
 20
1027.443555284329
 30
0.0
 10
1182.839366228055
 20
1025.59251241014
 30
0.0
 10
1180.050751525986
 20
1023.255775919393
 30
0.0
 10
1177.697132375842
 20
1020.460492735419
 30
0.0
 10
1175.842701970187
 20
1017.330696488632
 30
0.0
 10
1174.599277734124
 20
1014.109248519718
 30
0.0
 10
1173.887429952985
 20
1010.912372374718
 30
0.0
 10
1173.798204413438
 20
1008.839145528646
 30
0.0
 10
1173.753586672014
 20
1007.802416585341
 30
0.0
  0
LINE
  5
284
330
1F
100
AcDbEntity
  8
0
  6
Continuous
 62
     7
370
    35
100
AcDbLine
 10
1291.6482105527
 20
1013.8024165853
 30
0.0
 11
1205.3358681723
 21
1013.8024165853
 31
0.0
  0
LINE
  5
285
330
1F
100
AcDbEntity
  8
0
  6
Continuous
 62
     7
370
    35
100
AcDbLine
 10
1291.6482105527
 20
1001.8024165853
 30
0.0
 11
1205.3358681723
 21
1001.8024165853
 31
0.0
  0
LINE
  5
286
330
1F
100
AcDbEntity
  8
0
  6
Continuous
 62
     7
370
    35
100
AcDbLine
 10
1195.4920393625
 20
986.0611441178
 30
0.0
 11
1301.4920393625
 21
986.0611441178
 31
0.0
  0
LINE
  5
287
330
1F
100
AcDbEntity
  8
0
  6
Continuous
 62
     7
370
    35
100
AcDbLine
 10
1195.4920393625
 20
1029.5436890529
 30
0.0
 11
1301.4920393625
 21
1029.5436890529
 31
0.0
  0
ARC
  5
288
330
1F
100
AcDbEntity
  8
0
  6
Continuous
 62
     7
370
    35
100
AcDbCircle
 10
1301.4920393625
 20
1007.8024165853
 30
0.0
 40
21.74999999999955
100
AcDbArc
 50
270.0
 51
90.0
  0
LINE
  5
289
330
1F
100
AcDbEntity
  8
0
  6
Continuous
 62
     7
370
    35
100
AcDbLine
 10
1195.4920393625
 20
1029.5524165853
 30
0.0
 11
1301.4920393625
 21
1029.5524165853
 31
0.0
  0
ARC
  5
28A
330
1F
100
AcDbEntity
  8
0
  6
Continuous
 62
     7
370
    35
100
AcDbCircle
 10
1195.4920393625
 20
1007.8024165853
 30
0.0
 40
21.74999999999966
100
AcDbArc
 50
90.0
 51
270.0
  0
LINE
  5
28B
330
1F
100
AcDbEntity
  8
0
  6
Continuous
 62
     7
370
    35
100
AcDbLine
 10
1195.4920393625
 20
986.0524165853
 30
0.0
 11
1301.4920393625
 21
986.0524165853
 31
0.0
  0
LINE
  5
28C
330
1F
100
AcDbEntity
  8
0
  6
Continuous
 62
     7
370
    35
100
AcDbLine
 10
1638.4920393625
 20
1073.3024165853
 30
0.0
 11
1660.9920393625
 21
1073.3024165853
 31
0.0
  0
ARC
  5
28D
330
1F
100
AcDbEntity
  8
0
  6
Continuous
 62
     7
370
    35
100
AcDbCircle
 10
1660.9920393625
 20
1063.3024165853
 30
0.0
 40
10.00000000000045
100
AcDbArc
 50
0.0
 51
90.0
  0
LINE
  5
28E
330
1F
100
AcDbEntity
  8
0
  6
Continuous
 62
     7
370
    35
100
AcDbLine
 10
1670.9920393625
 20
1063.3024165853
 30
0.0
 11
1670.9920393625
 21
952.3024165853
 31
0.0
  0
ARC
  5
28F
330
1F
100
AcDbEntity
  8
0
  6
Continuous
 62
     7
370
    35
100
AcDbCircle
 10
1660.9920393625
 20
952.3024165853
 30
0.0
 40
10.0
100
AcDbArc
 50
270.0
 51
0.0
  0
LINE
  5
290
330
1F
100
AcDbEntity
  8
0
  6
Continuous
 62
     7
370
    35
100
AcDbLine
 10
1660.9920393625
 20
942.3024165853
 30
0.0
 11
1638.4920393625
 21
942.3024165853
 31
0.0
  0
LINE
  5
291
330
1F
100
AcDbEntity
  8
0
  6
Continuous
 62
     7
370
    35
100
AcDbLine
 10
858.4920393625
 20
942.3024165853
 30
0.0
 11
835.9920393625
 21
942.3024165853
 31
0.0
  0
ARC
  5
292
330
1F
100
AcDbEntity
  8
0
  6
Continuous
 62
     7
370
    35
100
AcDbCircle
 10
835.9920393625
 20
952.3024165853
 30
0.0
 40
10.00000000000023
100
AcDbArc
 50
180.0
 51
270.0
  0
LINE
  5
293
330
1F
100
AcDbEntity
  8
0
  6
Continuous
 62
     7
370
    35
100
AcDbLine
 10
825.9920393625
 20
952.3024165853
 30
0.0
 11
825.9920393625
 21
1063.3024165853
 31
0.0
  0
LINE
  5
294
330
1F
100
AcDbEntity
  8
0
  6
Continuous
 62
     7
370
    35
100
AcDbLine
 10
835.9920393625
 20
1073.3024165853
 30
0.0
 11
858.4920393625
 21
1073.3024165853
 31
0.0
  0
ARC
  5
295
330
1F
100
AcDbEntity
  8
0
  6
Continuous
 62
     7
370
    35
100
AcDbCircle
 10
835.9920393625
 20
1063.3024165853
 30
0.0
 40
10.0
100
AcDbArc
 50
90.0
 51
180.0
  0
LINE
  5
296
330
1F
100
AcDbEntity
  8
0
  6
Continuous
 62
     7
370
    35
100
AcDbLine
 10
1638.4920393625
 20
1042.8024165853
 30
0.0
 11
1640.4920393625
 21
1042.8024165853
 31
0.0
  0
LINE
  5
297
330
1F
100
AcDbEntity
  8
0
  6
Continuous
 62
     7
370
    35
100
AcDbLine
 10
1640.4920393625
 20
1042.8024165853
 30
0.0
 11
1640.4920393625
 21
972.8024165853
 31
0.0
  0
LINE
  5
298
330
1F
100
AcDbEntity
  8
0
  6
Continuous
 62
     7
370
    35
100
AcDbLine
 10
1640.4920393625
 20
972.8024165853
 30
0.0
 11
1638.4920393625
 21
972.8024165853
 31
0.0
  0
LINE
  5
299
330
1F
100
AcDbEntity
  8
0
  6
Continuous
 62
     7
370
    35
100
AcDbLine
 10
1638.4920393625
 20
972.8024165853
 30
0.0
 11
1638.4920393625
 21
972.888203023
 31
0.0
  0
LINE
  5
29A
330
1F
100
AcDbEntity
  8
0
  6
Continuous
 62
     7
370
    35
100
AcDbLine
 10
1638.4920393625
 20
975.7166301477
 30
0.0
 11
1638.4920393625
 21
1039.888203023
 31
0.0
  0
LINE
  5
29B
330
1F
100
AcDbEntity
  8
0
  6
Continuous
 62
     7
370
    35
100
AcDbLine
 10
1638.4920393625
 20
1042.7166301477
 30
0.0
 11
1638.4920393625
 21
1042.8024165853
 31
0.0
  0
LINE
  5
29C
330
1F
100
AcDbEntity
  8
0
  6
Continuous
 62
     7
370
    35
100
AcDbLine
 10
858.4920393625
 20
972.8024165853
 30
0.0
 11
856.4920393625
 21
972.8024165853
 31
0.0
  0
LINE
  5
29D
330
1F
100
AcDbEntity
  8
0
  6
Continuous
 62
     7
370
    35
100
AcDbLine
 10
856.4920393625
 20
972.8024165853
 30
0.0
 11
856.4920393625
 21
1042.8024165853
 31
0.0
  0
LINE
  5
29E
330
1F
100
AcDbEntity
  8
0
  6
Continuous
 62
     7
370
    35
100
AcDbLine
 10
858.4920393625
 20
1042.8024165853
 30
0.0
 11
858.4920393625
 21
1042.7166301477
 31
0.0
  0
LINE
  5
29F
330
1F
100
AcDbEntity
  8
0
  6
Continuous
 62
     7
370
    35
100
AcDbLine
 10
858.4920393625
 20
1039.888203023
 30
0.0
 11
858.4920393625
 21
975.7166301477
 31
0.0
  0
LINE
  5
2A0
330
1F
100
AcDbEntity
  8
0
  6
Continuous
 62
     7
370
    35
100
AcDbLine
 10
858.4920393625
 20
972.888203023
 30
0.0
 11
858.4920393625
 21
972.8024165853
 31
0.0
  0
LINE
  5
2A1
330
1F
100
AcDbEntity
  8
0
  6
Continuous
 62
     7
370
    35
100
AcDbLine
 10
856.4920393625
 20
1042.8024165853
 30
0.0
 11
858.4920393625
 21
1042.8024165853
 31
0.0
  0
LINE
  5
2A2
330
1F
100
AcDbEntity
  8
0
  6
Continuous
 62
     8
370
    18
100
AcDbLine
 10
1638.4920393625
 20
1043.8024165853
 30
0.0
 11
858.4920393625
 21
1043.8024165853
 31
0.0
  0
LINE
  5
2A3
330
1F
100
AcDbEntity
  8
0
  6
Continuous
 62
     8
370
    18
100
AcDbLine
 10
858.4920393625
 20
971.8024165853
 30
0.0
 11
1638.4920393625
 21
971.8024165853
 31
0.0
  0
LINE
  5
2A4
330
1F
100
AcDbEntity
  8
0
  6
Continuous
 62
     8
370
    18
100
AcDbLine
 10
858.4920393625
 20
1038.8591093729
 30
0.0
 11
1638.4920393625
 21
1038.8591093729
 31
0.0
  0
LINE
  5
2A5
330
1F
100
AcDbEntity
  8
0
  6
Continuous
 62
     8
370
    18
100
AcDbLine
 10
858.4920393625
 20
976.7457237978
 30
0.0
 11
1638.4920393625
 21
976.7457237978
 31
0.0
  0
LINE
  5
2A6
330
1F
100
AcDbEntity
  8
0
  6
Continuous
 62
     8
370
    18
100
AcDbLine
 10
858.4920393625
 20
1007.8591093729
 30
0.0
 11
1165.4923727018
 21
1007.8591093729
 31
0.0
  0
LINE
  5
2A7
330
1F
100
AcDbEntity
  8
0
  6
Continuous
 62
     8
370
    18
100
AcDbLine
 10
1331.4917060233
 20
1007.8591093729
 30
0.0
 11
1638.4920393625
 21
1007.8591093729
 31
0.0
  0
LINE
  5
2A8
330
1F
100
AcDbEntity
  8
0
  6
Continuous
 62
     8
370
    18
100
AcDbLine
 10
1331.4907001359
 20
1007.9160037471
 30
0.0
 11
1331.4907001359
 21
1007.9158021605
 31
0.0
  0
ARC
  5
2A9
330
1F
100
AcDbEntity
  8
0
  6
Continuous
 62
     8
370
    18
100
AcDbCircle
 10
1255.2423287623
 20
967.1709888313
 30
0.0
 40
54.26577168243881
100
AcDbArc
 50
12.3156445559
 51
15.3088218734
  0
ARC
  5
2AA
330
1F
100
AcDbEntity
  8
0
  6
Continuous
 62
     8
370
    18
100
AcDbCircle
 10
1330.6176914335
 20
994.3488295048
 30
0.0
 40
13.36873667926749
100
AcDbArc
 50
86.2557918319
 51
99.1541892989
  0
LINE
  5
2AB
330
1F
100
AcDbEntity
  8
0
  6
Continuous
 62
     8
370
    18
100
AcDbLine
 10
1331.4907001359
 20
1007.6888294236
 30
0.0
 11
1331.4907001359
 21
1007.6890310102
 31
0.0
  0
ARC
  5
2AC
330
1F
100
AcDbEntity
  8
0
  6
Continuous
 62
     8
370
    18
100
AcDbCircle
 10
1166.3663872915
 20
994.3488295048
 30
0.0
 40
13.3687366792607
100
AcDbArc
 50
80.8458107011
 51
93.7442081681
  0
ARC
  5
2AD
330
1F
100
AcDbEntity
  8
0
  6
Continuous
 62
     8
370
    18
100
AcDbCircle
 10
1241.7417499631
 20
967.1709888312
 30
0.0
 40
54.26577168282034
100
AcDbArc
 50
164.6911781266
 51
167.6843554441
  0
LINE
  5
2AE
330
1F
100
AcDbEntity
  8
0
  6
Continuous
 62
     8
370
    18
100
AcDbLine
 10
1165.4933785892
 20
1007.6888294236
 30
0.0
 11
1165.4933785892
 21
1007.6890310102
 31
0.0
  0
ARC
  5
2AF
330
1F
100
AcDbEntity
  8
0
  6
Continuous
 62
     8
370
    18
100
AcDbCircle
 10
1330.6176914335
 20
1021.2560036659
 30
0.0
 40
13.36873667923553
100
AcDbArc
 50
260.8458107011
 51
273.7442081681
  0
ARC
  5
2B0
330
1F
100
AcDbEntity
  8
0
  6
Continuous
 62
     8
370
    18
100
AcDbCircle
 10
1255.2423287623
 20
1048.4338443394
 30
0.0
 40
54.26577168241771
100
AcDbArc
 50
344.6911781266
 51
347.6843554441
  0
LINE
  5
2B1
330
1F
100
AcDbEntity
  8
0
  6
Continuous
 62
     8
370
    18
100
AcDbLine
 10
1165.4933785892
 20
1007.9160037471
 30
0.0
 11
1165.4933785892
 21
1007.9158021605
 31
0.0
  0
ARC
  5
2B2
330
1F
100
AcDbEntity
  8
0
  6
Continuous
 62
     8
370
    18
100
AcDbCircle
 10
1241.7417499622
 20
1048.4338443392
 30
0.0
 40
54.26577168187091
100
AcDbArc
 50
192.3156445558
 51
195.3088218734
  0
ARC
  5
2B3
330
1F
100
AcDbEntity
  8
0
  6
Continuous
 62
     8
370
    18
100
AcDbCircle
 10
1166.3663872915
 20
1021.2560036658
 30
0.0
 40
13.36873667922681
100
AcDbArc
 50
266.2557918319
 51
279.1541892989
  0
LINE
  5
2B4
330
1F
100
AcDbEntity
  8
0
  6
Continuous
 62
     8
370
    18
100
AcDbLine
 10
858.4920393625
 20
1007.7457237978
 30
0.0
 11
1165.4923727018
 21
1007.7457237978
 31
0.0
  0
LINE
  5
2B5
330
1F
100
AcDbEntity
  8
0
  6
Continuous
 62
     8
370
    18
100
AcDbLine
 10
1331.4917060233
 20
1007.7457237978
 30
0.0
 11
1638.4920393625
 21
1007.7457237978
 31
0.0
  0
LINE
  5
2B6
330
1F
100
AcDbEntity
  8
0
  6
Continuous
 62
     8
370
    18
100
AcDbLine
 10
1195.4920393625
 20
980.8024165853
 30
0.0
 11
1195.4920393625
 21
978.5524165853
 31
0.0
  0
LINE
  5
2B7
330
1F
100
AcDbEntity
  8
0
  6
Continuous
 62
     8
370
    18
100
AcDbLine
 10
1301.4920393625
 20
980.8024165853
 30
0.0
 11
1301.4920393625
 21
978.5524165853
 31
0.0
  0
LINE
  5
2B8
330
1F
100
AcDbEntity
  8
0
  6
Continuous
 62
     8
370
    18
100
AcDbLine
 10
1195.4920393625
 20
1037.0524165853
 30
0.0
 11
1195.4920393625
 21
1034.8024165853
 31
0.0
  0
LINE
  5
2B9
330
1F
100
AcDbEntity
  8
0
  6
Continuous
 62
     8
370
    18
100
AcDbLine
 10
1195.4920393625
 20
1037.0582007839
 30
0.0
 11
1195.4920393625
 21
1037.0524165853
 31
0.0
  0
LINE
  5
2BA
330
1F
100
AcDbEntity
  8
0
  6
Continuous
 62
     8
370
    18
100
AcDbLine
 10
1301.4920393625
 20
1037.0524165853
 30
0.0
 11
1301.4920393625
 21
1034.8024165853
 31
0.0
  0
LINE
  5
2BB
330
1F
100
AcDbEntity
  8
0
  6
Continuous
 62
     8
370
    18
100
AcDbLine
 10
1301.4920393625
 20
1037.0582007839
 30
0.0
 11
1301.4920393625
 21
1037.0524165853
 31
0.0
  0
LINE
  5
2BC
330
1F
100
AcDbEntity
  8
0
  6
Continuous
 62
     8
370
    18
100
AcDbLine
 10
1195.4920393625
 20
978.5466323867
 30
0.0
 11
1195.4920393625
 21
978.5524165853
 31
0.0
  0
LINE
  5
2BD
330
1F
100
AcDbEntity
  8
0
  6
Continuous
 62
     8
370
    18
100
AcDbLine
 10
1301.4920393625
 20
978.5466323867
 30
0.0
 11
1301.4920393625
 21
978.5524165853
 31
0.0
  0
SPLINE
  5
2BE
330
1F
100
AcDbEntity
  8
0
  6
Continuous
 62
     8
370
    18
100
AcDbSpline
210
0.0
220
0.0
230
1.0
 70
     8
 71
     3
 72
     9
 73
     5
 74
     0
 42
0.000000001
 43
0.00000001
 40
0.0
 40
0.0
 40
0.0
 40
0.0
 40
0.1546895589938871
 40
1.0
 40
1.0
 40
1.0
 40
1.0
 10
1301.375308179869
 20
989.0708431313577
 30
0.0
 10
1301.132255723291
 20
989.1435176663599
 30
0.0
 10
1299.561028433235
 20
989.6133265886616
 30
0.0
 10
1298.136910524409
 20
990.4296046177111
 30
0.0
 10
1296.933088786854
 20
991.1196129584305
 30
0.0
  0
ARC
  5
2BF
330
1F
100
AcDbEntity
  8
0
  6
Continuous
 62
     8
370
    18
100
AcDbCircle
 10
1295.47667211
 20
992.5659429436
 30
0.0
 40
2.052564240815104
100
AcDbArc
 50
315.1990950652
 51
348.3527908007
  0
SPLINE
  5
2C0
330
1F
100
AcDbEntity
  8
0
  6
Continuous
 62
     8
370
    18
100
AcDbSpline
210
0.0
220
0.0
230
1.0
 70
     8
 71
     3
 72
     9
 73
     5
 74
     0
 42
0.000000001
 43
0.00000001
 40
0.0
 40
0.0
 40
0.0
 40
0.0
 40
0.1546895589938871
 40
1.0
 40
1.0
 40
1.0
 40
1.0
 10
1195.60877054519
 20
1026.533990039325
 30
0.0
 10
1195.851823001768
 20
1026.461315504323
 30
0.0
 10
1197.423050291824
 20
1025.991506582021
 30
0.0
 10
1198.84716820065
 20
1025.175228552972
 30
0.0
 10
1200.050989938205
 20
1024.485220212252
 30
0.0
  0
ARC
  5
2C1
330
1F
100
AcDbEntity
  8
0
  6
Continuous
 62
     8
370
    18
100
AcDbCircle
 10
1201.5074066151
 20
1023.0388902271
 30
0.0
 40
2.052564240817921
100
AcDbArc
 50
135.1990950652
 51
168.3527908007
  0
ARC
  5
2C2
330
1F
100
AcDbEntity
  8
0
  6
Continuous
 62
     8
370
    18
100
AcDbCircle
 10
1295.47667211
 20
1023.0388902271
 30
0.0
 40
2.05256424081594
100
AcDbArc
 50
11.6472091993
 51
44.8009049348
  0
SPLINE
  5
2C3
330
1F
100
AcDbEntity
  8
0
  6
Continuous
 62
     8
370
    18
100
AcDbSpline
210
0.0
220
0.0
230
1.0
 70
     8
 71
     3
 72
     9
 73
     5
 74
     0
 42
0.000000001
 43
0.00000001
 40
0.0
 40
0.0
 40
0.0
 40
0.0
 40
0.1546895589938806
 40
1.0
 40
1.0
 40
1.0
 40
1.0
 10
1301.375308179869
 20
1026.533990039326
 30
0.0
 10
1301.132255723291
 20
1026.461315504324
 30
0.0
 10
1299.561028433235
 20
1025.991506582022
 30
0.0
 10
1298.136910524409
 20
1025.175228552972
 30
0.0
 10
1296.933088786854
 20
1024.485220212253
 30
0.0
  0
ARC
  5
2C4
330
1F
100
AcDbEntity
  8
0
  6
Continuous
 62
     8
370
    18
100
AcDbCircle
 10
1201.5074066151
 20
992.5659429436
 30
0.0
 40
2.05256424081771
100
AcDbArc
 50
191.6472091993
 51
224.8009049348
  0
SPLINE
  5
2C5
330
1F
100
AcDbEntity
  8
0
  6
Continuous
 62
     8
370
    18
100
AcDbSpline
210
0.0
220
0.0
230
1.0
 70
     8
 71
     3
 72
     9
 73
     5
 74
     0
 42
0.000000001
 43
0.00000001
 40
0.0
 40
0.0
 40
0.0
 40
0.0
 40
0.1546895589938807
 40
1.0
 40
1.0
 40
1.0
 40
1.0
 10
1195.60877054519
 20
989.0708431313568
 30
0.0
 10
1195.851823001768
 20
989.143517666359
 30
0.0
 10
1197.423050291825
 20
989.6133265886607
 30
0.0
 10
1198.847168200651
 20
990.4296046177104
 30
0.0
 10
1200.050989938205
 20
991.11961295843
 30
0.0
  0
ARC
  5
2C6
330
1F
100
AcDbEntity
  8
0
  6
Continuous
 62
     8
370
    18
100
AcDbCircle
 10
1294.4920393625
 20
1007.8024165853
 30
0.0
 40
19.99999999999966
100
AcDbArc
 50
270.0
 51
347.5224163016
  0
LINE
  5
2C7
330
1F
100
AcDbEntity
  8
0
  6
Continuous
 62
     8
370
    18
100
AcDbLine
 10
1294.4920393625
 20
995.0897657984
 30
0.0
 11
1294.4920393625
 21
987.8024165853
 31
0.0
  0
LINE
  5
2C8
330
1F
100
AcDbEntity
  8
0
  6
Continuous
 62
     8
370
    18
100
AcDbLine
 10
1294.4920393625
 20
1020.5150673723
 30
0.0
 11
1294.4920393625
 21
1027.8024165853
 31
0.0
  0
ARC
  5
2C9
330
1F
100
AcDbEntity
  8
0
  6
Continuous
 62
     8
370
    18
100
AcDbCircle
 10
1294.4920393625
 20
1007.8024165853
 30
0.0
 40
19.99999999999952
100
AcDbArc
 50
12.4775836984
 51
90.0
  0
SPLINE
  5
2CA
330
1F
100
AcDbEntity
  8
0
  6
Continuous
 62
     8
370
    18
100
AcDbSpline
210
0.0
220
0.0
230
1.0
 70
     8
 71
     3
 72
    14
 73
    10
 74
     0
 42
0.000000001
 43
0.00000001
 40
0.0
 40
0.0
 40
0.0
 40
0.0
 40
0.1114289230413377
 40
0.4958785649679655
 40
0.704655530561825
 40
0.8301760374257602
 40
0.9121018798659202
 40
0.9942797082137358
 40
1.0
 40
1.0
 40
1.0
 40
1.0
 10
1296.933088786854
 20
1024.485220212253
 30
0.0
 10
1296.813697741219
 20
1024.402887847004
 30
0.0
 10
1296.282386311798
 20
1024.036494149426
 30
0.0
 10
1295.608094788443
 20
1023.403722998708
 30
0.0
 10
1295.150231000681
 20
1022.612738484007
 30
0.0
 10
1295.065773250348
 20
1022.102543750145
 30
0.0
 10
1295.1482375432
 20
1021.75821514448
 30
0.0
 10
1295.267944486822
 20
1021.580515423748
 30
0.0
 10
1295.348655760028
 20
1021.505132854325
 30
0.0
 10
1295.353908341454
 20
1021.500227057795
 30
0.0
  0
SPLINE
  5
2CB
330
1F
100
AcDbEntity
  8
0
  6
Continuous
 62
     8
370
    18
100
AcDbSpline
210
0.0
220
0.0
230
1.0
 70
     8
 71
     3
 72
    14
 73
    10
 74
     0
 42
0.000000001
 43
0.00000001
 40
0.0
 40
0.0
 40
0.0
 40
0.0
 40
0.1114289230413334
 40
0.4958785649680142
 40
0.7046555305618227
 40
0.8301760374257472
 40
0.912101879865904
 40
0.9942797082137621
 40
1.0
 40
1.0
 40
1.0
 40
1.0
 10
1296.933088786854
 20
991.1196129584305
 30
0.0
 10
1296.813697741219
 20
991.2019453236796
 30
0.0
 10
1296.282386311798
 20
991.568339021257
 30
0.0
 10
1295.608094788443
 20
992.2011101719758
 30
0.0
 10
1295.150231000681
 20
992.992094686676
 30
0.0
 10
1295.065773250348
 20
993.5022894205388
 30
0.0
 10
1295.1482375432
 20
993.8466180262029
 30
0.0
 10
1295.267944486822
 20
994.0243177469357
 30
0.0
 10
1295.348655760028
 20
994.0997003163587
 30
0.0
 10
1295.353908341454
 20
994.1046061128881
 30
0.0
  0
SPLINE
  5
2CC
330
1F
100
AcDbEntity
  8
0
  6
Continuous
 62
     8
370
    18
100
AcDbSpline
210
0.0
220
0.0
230
1.0
 70
     8
 71
     3
 72
    14
 73
    10
 74
     0
 42
0.000000001
 43
0.00000001
 40
0.0
 40
0.0
 40
0.0
 40
0.0
 40
0.1114289230413349
 40
0.4958785649679803
 40
0.7046555305618415
 40
0.8301760374257675
 40
0.912101879865925
 40
0.9942797082137613
 40
1.0
 40
1.0
 40
1.0
 40
1.0
 10
1200.050989938205
 20
991.11961295843
 30
0.0
 10
1200.170380983841
 20
991.2019453236791
 30
0.0
 10
1200.701692413262
 20
991.5683390212565
 30
0.0
 10
1201.375983936617
 20
992.2011101719751
 30
0.0
 10
1201.833847724378
 20
992.9920946866755
 30
0.0
 10
1201.918305474712
 20
993.5022894205382
 30
0.0
 10
1201.83584118186
 20
993.8466180262023
 30
0.0
 10
1201.716134238237
 20
994.0243177469351
 30
0.0
 10
1201.635422965031
 20
994.099700316358
 30
0.0
 10
1201.630170383605
 20
994.1046061128875
 30
0.0
  0
SPLINE
  5
2CD
330
1F
100
AcDbEntity
  8
0
  6
Continuous
 62
     8
370
    18
100
AcDbSpline
210
0.0
220
0.0
230
1.0
 70
     8
 71
     3
 72
    14
 73
    10
 74
     0
 42
0.000000001
 43
0.00000001
 40
0.0
 40
0.0
 40
0.0
 40
0.0
 40
0.1114289230413364
 40
0.4958785649679985
 40
0.7046555305618057
 40
0.8301760374257395
 40
0.9121018798658989
 40
0.9942797082137366
 40
1.0
 40
1.0
 40
1.0
 40
1.0
 10
1200.050989938205
 20
1024.485220212252
 30
0.0
 10
1200.170380983841
 20
1024.402887847003
 30
0.0
 10
1200.701692413262
 20
1024.036494149426
 30
0.0
 10
1201.375983936616
 20
1023.403722998707
 30
0.0
 10
1201.833847724378
 20
1022.612738484007
 30
0.0
 10
1201.918305474712
 20
1022.102543750144
 30
0.0
 10
1201.83584118186
 20
1021.75821514448
 30
0.0
 10
1201.716134238237
 20
1021.580515423747
 30
0.0
 10
1201.635422965031
 20
1021.505132854324
 30
0.0
 10
1201.630170383605
 20
1021.500227057795
 30
0.0
  0
ARC
  5
2CE
330
1F
100
AcDbEntity
  8
0
  6
Continuous
 62
     8
370
    18
100
AcDbCircle
 10
1202.4920393625
 20
1007.8024165853
 30
0.0
 40
20.00000000000037
100
AcDbArc
 50
90.0
 51
167.5224163016
  0
LINE
  5
2CF
330
1F
100
AcDbEntity
  8
0
  6
Continuous
 62
     8
370
    18
100
AcDbLine
 10
1202.4920393625
 20
1020.5150673723
 30
0.0
 11
1202.4920393625
 21
1027.8024165853
 31
0.0
  0
LINE
  5
2D0
330
1F
100
AcDbEntity
  8
0
  6
Continuous
 62
     8
370
    18
100
AcDbLine
 10
1202.4920393625
 20
995.0897657984
 30
0.0
 11
1202.4920393625
 21
987.8024165853
 31
0.0
  0
ARC
  5
2D1
330
1F
100
AcDbEntity
  8
0
  6
Continuous
 62
     8
370
    18
100
AcDbCircle
 10
1202.4920393625
 20
1007.8024165853
 30
0.0
 40
20.00000000000044
100
AcDbArc
 50
192.4775836984
 51
270.0
  0
SPLINE
  5
2D2
330
1F
100
AcDbEntity
  8
0
  6
Continuous
 62
     8
370
    18
100
AcDbSpline
210
0.0
220
0.0
230
1.0
 70
     8
 71
     3
 72
    18
 73
    14
 74
     0
 42
0.000000001
 43
0.00000001
 40
0.0
 40
0.0
 40
0.0
 40
0.0
 40
0.0000017576874324
 40
0.0364929107765223
 40
0.1834197338049799
 40
0.2877695105078311
 40
0.3921441025453815
 40
0.4993591877198452
 40
0.6063886859551781
 40
0.7134284383809862
 40
0.817827044422695
 40
0.9079734932070048
 40
1.0
 40
1.0
 40
1.0
 40
1.0
 10
1301.49203936253
 20
1029.548128977331
 30
0.0
 10
1301.492059349024
 20
1029.548128977123
 30
0.0
 10
1301.907016714303
 20
1029.548124655581
 30
0.0
 10
1303.992225538121
 20
1029.485740253196
 30
0.0
 10
1307.249174485595
 20
1028.91657494478
 30
0.0
 10
1311.036494837647
 20
1027.451634613923
 30
0.0
 10
1314.135731878216
 20
1025.603339090909
 30
0.0
 10
1316.928729782426
 20
1023.269047030212
 30
0.0
 10
1319.292298833546
 20
1020.460154247973
 30
0.0
 10
1321.147535729433
 20
1017.330002043346
 30
0.0
 10
1322.383466641414
 20
1014.117211823181
 30
0.0
 10
1323.107850044532
 20
1010.923288782407
 30
0.0
 10
1323.19228089833
 20
1008.849840106747
 30
0.0
 10
1323.234931996107
 20
1007.802416585342
 30
0.0
  0
LINE
  5
2D3
330
1F
100
AcDbEntity
  8
0
  6
Continuous
 62
     8
370
    18
100
AcDbLine
 10
1301.4920393625
 20
1029.5481289773
 30
0.0
 11
1301.4920397596
 21
1029.5524165853
 31
0.0
  0
LINE
  5
2D4
330
1F
100
AcDbEntity
  8
0
  6
Continuous
 62
     8
370
    18
100
AcDbLine
 10
1323.2349319961
 20
1007.8024165853
 30
0.0
 11
1323.230492053
 21
1007.8024165853
 31
0.0
  0
LINE
  5
2D5
330
1F
100
AcDbEntity
  8
0
  6
Continuous
 62
     8
370
    18
100
AcDbLine
 10
1301.4920393625
 20
1029.5436890529
 30
0.0
 11
1301.4920393625
 21
1029.5481289773
 31
0.0
  0
SPLINE
  5
2D6
330
1F
100
AcDbEntity
  8
0
  6
Continuous
 62
     8
370
    18
100
AcDbSpline
210
0.0
220
0.0
230
1.0
 70
     8
 71
     3
 72
    18
 73
    14
 74
     0
 42
0.000000001
 43
0.00000001
 40
0.0
 40
0.0
 40
0.0
 40
0.0
 40
0.0000017576874324
 40
0.0364929107765222
 40
0.1834197338049795
 40
0.2877695105078343
 40
0.3921441025453848
 40
0.499359187719851
 40
0.6063886859551838
 40
0.7134284383809917
 40
0.8178270444226959
 40
0.9079734932070057
 40
1.0
 40
1.0
 40
1.0
 40
1.0
 10
1195.492039362529
 20
986.0567041933517
 30
0.0
 10
1195.492019376035
 20
986.0567041935599
 30
0.0
 10
1195.077062010708
 20
986.0567085151011
 30
0.0
 10
1192.991853187033
 20
986.1190929174869
 30
0.0
 10
1189.734904239438
 20
986.6882582259032
 30
0.0
 10
1185.947583887418
 20
988.1531985567592
 30
0.0
 10
1182.848346846841
 20
990.0014940797739
 30
0.0
 10
1180.055348942634
 20
992.3357861404706
 30
0.0
 10
1177.691779891512
 20
995.1446789227093
 30
0.0
 10
1175.836542995626
 20
998.2748311273366
 30
0.0
 10
1174.600612083645
 20
1001.487621347501
 30
0.0
 10
1173.876228680527
 20
1004.681544388276
 30
0.0
 10
1173.791797826728
 20
1006.754993063936
 30
0.0
 10
1173.749146728952
 20
1007.802416585341
 30
0.0
  0
LINE
  5
2D7
330
1F
100
AcDbEntity
  8
0
  6
Continuous
 62
     8
370
    18
100
AcDbLine
 10
1195.4920393625
 20
986.0567041934
 30
0.0
 11
1195.4920389655
 21
986.0524165853
 31
0.0
  0
LINE
  5
2D8
330
1F
100
AcDbEntity
  8
0
  6
Continuous
 62
     8
370
    18
100
AcDbLine
 10
1173.749146729
 20
1007.8024165853
 30
0.0
 11
1173.753586672
 21
1007.8024165853
 31
0.0
  0
LINE
  5
2D9
330
1F
100
AcDbEntity
  8
0
  6
Continuous
 62
     8
370
    18
100
AcDbLine
 10
1195.4920393625
 20
986.0611441178
 30
0.0
 11
1195.4920393625
 21
986.0567041934
 31
0.0
  0
SPLINE
  5
2DA
330
1F
100
AcDbEntity
  8
0
  6
Continuous
 62
     8
370
    18
100
AcDbSpline
210
0.0
220
0.0
230
1.0
 70
     8
 71
     3
 72
    18
 73
    14
 74
     0
 42
0.000000001
 43
0.00000001
 40
0.0
 40
0.0
 40
0.0
 40
0.0
 40
0.0000017576874324
 40
0.0364929107765218
 40
0.1834197338049776
 40
0.2877695105078354
 40
0.3921441025453846
 40
0.4993591877198587
 40
0.6063886859551904
 40
0.7134284383809971
 40
0.8178270444226972
 40
0.9079734932070078
 40
1.0
 40
1.0
 40
1.0
 40
1.0
 10
1301.492039362529
 20
986.0567041933526
 30
0.0
 10
1301.492059349023
 20
986.0567041935608
 30
0.0
 10
1301.907016714255
 20
986.0567085151253
 30
0.0
 10
1303.992225538214
 20
986.1190929174423
 30
0.0
 10
1307.249174485569
 20
986.6882582259168
 30
0.0
 10
1311.036494837652
 20
988.1531985567566
 30
0.0
 10
1314.135731878215
 20
990.0014940797752
 30
0.0
 10
1316.928729782426
 20
992.3357861404713
 30
0.0
 10
1319.292298833546
 20
995.1446789227103
 30
0.0
 10
1321.147535729433
 20
998.2748311273376
 30
0.0
 10
1322.383466641414
 20
1001.487621347502
 30
0.0
 10
1323.107850044532
 20
1004.681544388277
 30
0.0
 10
1323.19228089833
 20
1006.754993063937
 30
0.0
 10
1323.234931996107
 20
1007.802416585342
 30
0.0
  0
LINE
  5
2DB
330
1F
100
AcDbEntity
  8
0
  6
Continuous
 62
     8
370
    18
100
AcDbLine
 10
1301.4920393625
 20
986.0567041934
 30
0.0
 11
1301.4920397596
 21
986.0524165853
 31
0.0
  0
LINE
  5
2DC
330
1F
100
AcDbEntity
  8
0
  6
Continuous
 62
     8
370
    18
100
AcDbLine
 10
1301.4920393625
 20
986.0611441178
 30
0.0
 11
1301.4920393625
 21
986.0567041934
 31
0.0
  0
SPLINE
  5
2DD
330
1F
100
AcDbEntity
  8
0
  6
Continuous
 62
     8
370
    18
100
AcDbSpline
210
0.0
220
0.0
230
1.0
 70
     8
 71
     3
 72
    18
 73
    14
 74
     0
 42
0.000000001
 43
0.00000001
 40
0.0
 40
0.0
 40
0.0
 40
0.0
 40
0.0000017576874324
 40
0.0364929107765216
 40
0.1834197338049765
 40
0.2877695105078378
 40
0.3921441025453867
 40
0.499359187719857
 40
0.606388685955188
 40
0.7134284383809942
 40
0.8178270444226979
 40
0.9079734932070074
 40
1.0
 40
1.0
 40
1.0
 40
1.0
 10
1195.49203936253
 20
1029.54812897733
 30
0.0
 10
1195.492019376036
 20
1029.548128977122
 30
0.0
 10
1195.077062010804
 20
1029.548124655533
 30
0.0
 10
1192.991853186845
 20
1029.485740253288
 30
0.0
 10
1189.73490423949
 20
1028.916574944753
 30
0.0
 10
1185.947583887406
 20
1027.451634613929
 30
0.0
 10
1182.848346846844
 20
1025.603339090907
 30
0.0
 10
1180.055348942633
 20
1023.269047030212
 30
0.0
 10
1177.691779891513
 20
1020.460154247972
 30
0.0
 10
1175.836542995626
 20
1017.330002043345
 30
0.0
 10
1174.600612083645
 20
1014.117211823181
 30
0.0
 10
1173.876228680527
 20
1010.923288782406
 30
0.0
 10
1173.791797826728
 20
1008.849840106746
 30
0.0
 10
1173.749146728952
 20
1007.802416585341
 30
0.0
  0
LINE
  5
2DE
330
1F
100
AcDbEntity
  8
0
  6
Continuous
 62
     8
370
    18
100
AcDbLine
 10
1195.4920393625
 20
1029.5481289773
 30
0.0
 11
1195.4920389655
 21
1029.5524165853
 31
0.0
  0
LINE
  5
2DF
330
1F
100
AcDbEntity
  8
0
  6
Continuous
 62
     8
370
    18
100
AcDbLine
 10
1195.4920393625
 20
1029.5436890529
 30
0.0
 11
1195.4920393625
 21
1029.5481289773
 31
0.0
  0
LINE
  5
2E0
330
1F
100
AcDbEntity
  8
0
  6
Continuous
 62
     8
370
    18
100
AcDbLine
 10
1202.4920393625
 20
1027.8024165853
 30
0.0
 11
1294.4920393625
 21
1027.8024165853
 31
0.0
  0
LINE
  5
2E1
330
1F
100
AcDbEntity
  8
0
  6
Continuous
 62
     8
370
    18
100
AcDbLine
 10
1202.4920393625
 20
987.8024165853
 30
0.0
 11
1294.4920393625
 21
987.8024165853
 31
0.0
  0
LINE
  5
2E2
330
1F
100
AcDbEntity
  8
0
  6
Continuous
 62
     8
370
    18
100
AcDbLine
 10
1195.4920393625
 20
1029.5481289773
 30
0.0
 11
1301.4920393625
 21
1029.5481289773
 31
0.0
  0
LINE
  5
2E3
330
1F
100
AcDbEntity
  8
0
  6
Continuous
 62
     8
370
    18
100
AcDbLine
 10
1195.4920393625
 20
986.0567041934
 30
0.0
 11
1301.4920393625
 21
986.0567041934
 31
0.0
  0
LINE
  5
2E4
330
1F
100
AcDbEntity
  8
0
  6
Continuous
 62
     8
370
    18
100
AcDbLine
 10
1301.4920393625
 20
986.0524165853
 30
0.0
 11
1301.4920393625
 21
981.5524165853
 31
0.0
  0
LINE
  5
2E5
330
1F
100
AcDbEntity
  8
0
  6
Continuous
 62
     8
370
    18
100
AcDbLine
 10
1301.4920393625
 20
1029.5524165853
 30
0.0
 11
1301.4920393625
 21
1034.0524165853
 31
0.0
  0
ARC
  5
2E6
330
1F
100
AcDbEntity
  8
0
  6
Continuous
 62
     8
370
    18
100
AcDbCircle
 10
1301.4920393625
 20
1007.8024165853
 30
0.0
 40
26.24999999999977
100
AcDbArc
 50
270.0
 51
90.0
  0
LINE
  5
2E7
330
1F
100
AcDbEntity
  8
0
  6
Continuous
 62
     8
370
    18
100
AcDbLine
 10
1301.4920393625
 20
981.5524165853
 30
0.0
 11
1301.4920393625
 21
980.8024165853
 31
0.0
  0
LINE
  5
2E8
330
1F
100
AcDbEntity
  8
0
  6
Continuous
 62
     8
370
    18
100
AcDbLine
 10
1301.4920393625
 20
1034.0524165853
 30
0.0
 11
1301.4920393625
 21
1034.8024165853
 31
0.0
  0
LINE
  5
2E9
330
1F
100
AcDbEntity
  8
0
  6
Continuous
 62
     8
370
    18
100
AcDbLine
 10
1195.4920393625
 20
1029.5524165853
 30
0.0
 11
1195.4920393625
 21
1034.0524165853
 31
0.0
  0
LINE
  5
2EA
330
1F
100
AcDbEntity
  8
0
  6
Continuous
 62
     8
370
    18
100
AcDbLine
 10
1195.4920393625
 20
1034.0524165853
 30
0.0
 11
1301.4920393625
 21
1034.0524165853
 31
0.0
  0
LINE
  5
2EB
330
1F
100
AcDbEntity
  8
0
  6
Continuous
 62
     8
370
    18
100
AcDbLine
 10
1195.4920393625
 20
1034.0524165853
 30
0.0
 11
1195.4920393625
 21
1034.8024165853
 31
0.0
  0
LINE
  5
2EC
330
1F
100
AcDbEntity
  8
0
  6
Continuous
 62
     8
370
    18
100
AcDbLine
 10
1195.4920393625
 20
986.0524165853
 30
0.0
 11
1195.4920393625
 21
981.5524165853
 31
0.0
  0
ARC
  5
2ED
330
1F
100
AcDbEntity
  8
0
  6
Continuous
 62
     8
370
    18
100
AcDbCircle
 10
1195.4920393625
 20
1007.8024165853
 30
0.0
 40
26.24999999999955
100
AcDbArc
 50
90.0
 51
270.0
  0
LINE
  5
2EE
330
1F
100
AcDbEntity
  8
0
  6
Continuous
 62
     8
370
    18
100
AcDbLine
 10
1195.4920393625
 20
981.5524165853
 30
0.0
 11
1195.4920393625
 21
980.8024165853
 31
0.0
  0
LINE
  5
2EF
330
1F
100
AcDbEntity
  8
0
  6
Continuous
 62
     8
370
    18
100
AcDbLine
 10
1195.4920393625
 20
981.5524165853
 30
0.0
 11
1301.4920393625
 21
981.5524165853
 31
0.0
  0
CIRCLE
  5
2F0
330
1F
100
AcDbEntity
  8
0
  6
Continuous
 62
     8
370
    18
100
AcDbCircle
 10
1248.4920393625
 20
1007.8024165853
 30
0.0
 40
5.614709433546636
  0
ARC
  5
2F1
330
1F
100
AcDbEntity
  8
0
  6
Continuous
 62
     8
370
    18
100
AcDbCircle
 10
1248.4920393625
 20
1007.8024165853
 30
0.0
 40
7.463480267439868
100
AcDbArc
 50
126.4944476701
 51
233.50555233
  0
ARC
  5
2F2
330
1F
100
AcDbEntity
  8
0
  6
Continuous
 62
     8
370
    18
100
AcDbCircle
 10
1248.4920393625
 20
1007.8024165853
 30
0.0
 40
7.463480267439909
100
AcDbArc
 50
306.49444767
 51
53.5055523299
  0
ARC
  5
2F3
330
1F
100
AcDbEntity
  8
0
  6
Continuous
 62
     8
370
    18
100
AcDbCircle
 10
1248.4920393625
 20
1007.8024165853
 30
0.0
 40
8.284968901367112
100
AcDbArc
 50
133.5974061618
 51
226.4025938382
  0
ARC
  5
2F4
330
1F
100
AcDbEntity
  8
0
  6
Continuous
 62
     8
370
    18
100
AcDbCircle
 10
1248.4920393625
 20
1007.8024165853
 30
0.0
 40
8.284968901366963
100
AcDbArc
 50
313.5974061618
 51
46.4025938382
  0
SPLINE
  5
2F5
330
1F
100
AcDbEntity
  8
0
  6
Continuous
 62
     7
370
    35
100
AcDbSpline
210
0.0
220
0.0
230
1.0
 70
     8
 71
     3
 72
    21
 73
    17
 74
     0
 42
0.000000001
 43
0.00000001
 40
0.0
 40
0.0
 40
0.0
 40
0.0
 40
0.0194297446420111
 40
0.1063134160538947
 40
0.1971827435433896
 40
0.243126996558063
 40
0.2877601062888644
 40
0.3091647742109636
 40
0.3297204036244058
 40
0.3691429066011327
 40
0.4450527365629293
 40
0.5209828835675353
 40
0.6006991125030459
 40
0.780329056371418
 40
0.9937101053065313
 40
0.9999999999999999
 40
0.9999999999999999
 40
0.9999999999999999
 40
0.9999999999999999
 10
2089.200005902557
 20
1424.767029668401
 30
0.0
 10
2089.162992406754
 20
1424.856151456149
 30
0.0
 10
2088.960466266992
 20
1425.343797684897
 30
0.0
 10
2088.328580709181
 20
1426.118230849834
 30
0.0
 10
2087.466721237261
 20
1426.826988175759
 30
0.0
 10
2086.688572749392
 20
1427.272204135511
 30
0.0
 10
2086.156841325593
 20
1427.487055372841
 30
0.0
 10
2085.894979180311
 20
1427.833208395018
 30
0.0
 10
2085.769620303527
 20
1428.207989312046
 30
0.0
 10
2085.818243755666
 20
1428.835671071462
 30
0.0
 10
2085.791892776255
 20
1429.632674961548
 30
0.0
 10
2085.800327233357
 20
1430.415744543182
 30
0.0
 10
2085.797276295108
 20
1431.25768141805
 30
0.0
 10
2085.7990421378
 20
1431.84357789807
 30
0.0
 10
2085.798491629251
 20
1432.038153557759
 30
0.0
 10
2085.79849403151
 20
1431.979630733766
 30
0.0
 10
2085.798494100294
 20
1431.977955034677
 30
0.0
  0
ARC
  5
2F6
330
1F
100
AcDbEntity
  8
0
  6
Continuous
 62
     7
370
    35
100
AcDbCircle
 10
2077.2350619983
 20
1377.0760262449
 30
0.0
 40
14.99995482260204
100
AcDbArc
 50
270.017911725
 51
305.1236860193
  0
ARC
  5
2F7
330
1F
100
AcDbEntity
  8
0
  6
Continuous
 62
     7
370
    35
100
AcDbCircle
 10
2037.3619181764
 20
1377.0760268547
 30
0.0
 40
14.99995543245824
100
AcDbArc
 50
235.2278938985
 51
269.9820874844
  0
SPLINE
  5
2F8
330
1F
100
AcDbEntity
  8
0
  6
Continuous
 62
     7
370
    35
100
AcDbSpline
210
0.0
220
0.0
230
1.0
 70
     8
 71
     3
 72
    14
 73
    10
 74
     0
 42
0.000000001
 43
0.00000001
 40
0.0
 40
0.0
 40
0.0
 40
0.0
 40
0.0318510699531939
 40
0.1445183584924046
 40
0.2397810598272171
 40
0.3260834741499879
 40
0.51191783169255
 40
0.8180500483314166
 40
1.0
 40
1.0
 40
1.0
 40
1.0
 10
2025.413775492658
 20
1424.799872903405
 30
0.0
 10
2025.414619036065
 20
1424.801521463964
 30
0.0
 10
2025.418446458774
 20
1424.809001503608
 30
0.0
 10
2025.409383383096
 20
1424.791818763498
 30
0.0
 10
2025.388318639105
 20
1424.754624450501
 30
0.0
 10
2025.335799491713
 20
1424.666186240519
 30
0.0
 10
2025.222658608001
 20
1424.496985708166
 30
0.0
 10
2025.08025433779
 20
1424.306280597885
 30
0.0
 10
2024.951537237542
 20
1424.190723733597
 30
0.0
 10
2024.903553369887
 20
1424.14764581099
 30
0.0
  0
SPLINE
  5
2F9
330
1F
100
AcDbEntity
  8
0
  6
Continuous
 62
     7
370
    35
100
AcDbSpline
210
0.0
220
0.0
230
1.0
 70
     8
 71
     3
 72
    14
 73
    10
 74
     0
 42
0.000000001
 43
0.00000001
 40
0.0
 40
0.0
 40
0.0
 40
0.0
 40
0.1910307361993356
 40
0.5100956345392749
 40
0.6698730214504051
 40
0.7584351360564403
 40
0.8292863577935856
 40
0.9200950248631677
 40
1.0
 40
1.0
 40
1.0
 40
1.0
 10
2089.65656994924
 20
1424.180412453687
 30
0.0
 10
2089.610105561344
 20
1424.225193958945
 30
0.0
 10
2089.486035048405
 20
1424.344770791423
 30
0.0
 10
2089.352476001219
 20
1424.527361571372
 30
0.0
 10
2089.250361721241
 20
1424.684093229044
 30
0.0
 10
2089.209252999348
 20
1424.753734347356
 30
0.0
 10
2089.190667245616
 20
1424.786454005003
 30
0.0
 10
2089.181448837916
 20
1424.803335534633
 30
0.0
 10
2089.182123875581
 20
1424.80208421091
 30
0.0
 10
2089.182439836667
 20
1424.801498510847
 30
0.0
  0
SPLINE
  5
2FA
330
1F
100
AcDbEntity
  8
0
  6
Continuous
 62
     7
370
    35
100
AcDbSpline
210
0.0
220
0.0
230
1.0
 70
     8
 71
     3
 72
    13
 73
     9
 74
     0
 42
0.000000001
 43
0.00000001
 40
0.0
 40
0.0
 40
0.0
 40
0.0
 40
0.2312645558709851
 40
0.5779681682317509
 40
0.714643489042695
 40
0.815737695273154
 40
0.9213272860155993
 40
1.0
 40
1.0
 40
1.0
 40
1.0
 10
2029.451087876063
 20
1364.325889121088
 30
0.0
 10
2029.472092653777
 20
1364.316785001363
 30
0.0
 10
2029.524587048578
 20
1364.294032308539
 30
0.0
 10
2029.587333167697
 20
1364.25986612867
 30
0.0
 10
2029.629516678329
 20
1364.23667077851
 30
0.0
 10
2029.64488552307
 20
1364.227957543126
 30
0.0
 10
2029.65150627255
 20
1364.224157015999
 30
0.0
 10
2029.651096057209
 20
1364.224393430591
 30
0.0
 10
2029.650920911489
 20
1364.224494370269
 30
0.0
  0
LINE
  5
2FB
330
1F
100
AcDbEntity
  8
0
  6
Continuous
 62
     7
370
    35
100
AcDbLine
 10
2029.4622976438
 20
1364.3386044634
 30
0.0
 11
2029.3360098026
 21
1364.4173060325
 31
0.0
  0
SPLINE
  5
2FC
330
1F
100
AcDbEntity
  8
0
  6
Continuous
 62
     7
370
    35
100
AcDbSpline
210
0.0
220
0.0
230
1.0
 70
     8
 71
     3
 72
    12
 73
     8
 74
     0
 42
0.000000001
 43
0.00000001
 40
0.0
 40
0.0
 40
0.0
 40
0.0
 40
0.1423628141132196
 40
0.2495218665479933
 40
0.3688819399489325
 40
0.6085285388905592
 40
1.0
 40
1.0
 40
1.0
 40
1.0
 10
2084.945892305683
 20
1364.22439433208
 30
0.0
 10
2084.946337269147
 20
1364.224653602288
 30
0.0
 10
2084.947117164618
 20
1364.225108029849
 30
0.0
 10
2084.962567853956
 20
1364.233930236403
 30
0.0
 10
2084.995375554974
 20
1364.252034845374
 30
0.0
 10
2085.062830440096
 20
1364.289479861956
 30
0.0
 10
2085.124472669166
 20
1364.313887920631
 30
0.0
 10
2085.162708262485
 20
1364.329027811242
 30
0.0
  0
LINE
  5
2FD
330
1F
100
AcDbEntity
  8
0
  6
Continuous
 62
     7
370
    35
100
AcDbLine
 10
2076.7971895325
 20
1362.0760714227
 30
0.0
 11
2088.7984899838
 21
1362.0760714227
 31
0.0
  0
ARC
  5
2FE
330
1F
100
AcDbEntity
  8
0
  6
Continuous
 62
     7
370
    35
100
AcDbCircle
 10
2088.7984899838
 20
1375.0760714227
 30
0.0
 40
13.0
100
AcDbArc
 50
270.0
 51
0.0
  0
SPLINE
  5
2FF
330
1F
100
AcDbEntity
  8
0
  6
Continuous
 62
     7
370
    35
100
AcDbSpline
210
0.0
220
0.0
230
1.0
 70
     8
 71
     3
 72
    10
 73
     6
 74
     0
 42
0.000000001
 43
0.00000001
 40
0.0
 40
0.0
 40
0.0
 40
0.0
 40
0.2439500987910261
 40
0.6120271436501009
 40
1.0
 40
1.0
 40
1.0
 40
1.0
 10
2085.798509624397
 20
1428.661039360263
 30
0.0
 10
2085.79850820272
 20
1429.139868050346
 30
0.0
 10
2085.798504635985
 20
1430.341163548652
 30
0.0
 10
2085.798498362172
 20
1431.70811582685
 30
0.0
 10
2085.798496909767
 20
1432.248677842213
 30
0.0
 10
2085.798496164454
 20
1432.526071422714
 30
0.0
  0
LINE
  5
300
330
1F
100
AcDbEntity
  8
0
  6
Continuous
 62
     7
370
    35
100
AcDbLine
 10
2092.2984899838
 20
1455.5225099223
 30
0.0
 11
2022.2984899838
 21
1455.5225099223
 31
0.0
  0
LWPOLYLINE
  5
301
330
1F
100
AcDbEntity
  8
0
  6
Continuous
 62
     7
370
    35
100
AcDbPolyline
 90
        3
 70
   128
 43
0.0
 10
2024.2984899838
 20
1441.2844284116
 10
2024.3342022168
 20
1440.9081657789
 10
2024.4234899838
 20
1440.5884578662
  0
ARC
  5
302
330
1F
100
AcDbEntity
  8
0
  6
Continuous
 62
     7
370
    35
100
AcDbCircle
 10
2093.2984899838
 20
1444.5225099223
 30
0.0
 40
1.0
100
AcDbArc
 50
180.0
 51
270.0
  0
LWPOLYLINE
  5
303
330
1F
100
AcDbEntity
  8
0
  6
Continuous
 62
     7
370
    35
100
AcDbPolyline
 90
        3
 70
   128
 43
0.0
 10
2090.2984899838
 20
1441.2844284116
 10
2090.2627777507
 20
1440.9081657789
 10
2090.1734899838
 20
1440.5884578662
  0
ARC
  5
304
330
1F
100
AcDbEntity
  8
0
  6
Continuous
 62
     7
370
    35
100
AcDbCircle
 10
2021.2984899838
 20
1444.5225099223
 30
0.0
 40
1.0
100
AcDbArc
 50
270.0
 51
0.0
  0
LINE
  5
305
330
1F
100
AcDbEntity
  8
0
  6
Continuous
 62
     7
370
    35
100
AcDbLine
 10
2024.2984899838
 20
1442.5225099223
 30
0.0
 11
2024.2984899838
 21
1441.2844284116
 31
0.0
  0
LINE
  5
306
330
1F
100
AcDbEntity
  8
0
  6
Continuous
 62
     7
370
    35
100
AcDbLine
 10
2090.2984899838
 20
1441.2844284116
 30
0.0
 11
2090.2984899838
 21
1442.5225099223
 31
0.0
  0
LINE
  5
307
330
1F
100
AcDbEntity
  8
0
  6
Continuous
 62
     7
370
    35
100
AcDbLine
 10
2085.2984899838
 20
1433.2492600888
 30
0.0
 11
2085.2984899838
 21
1432.5260714228
 31
0.0
  0
LINE
  5
308
330
1F
100
AcDbEntity
  8
0
  6
Continuous
 62
     7
370
    35
100
AcDbLine
 10
2029.2984899838
 20
1433.2492600888
 30
0.0
 11
2029.2984899838
 21
1432.5260714228
 31
0.0
  0
LINE
  5
309
330
1F
100
AcDbEntity
  8
0
  6
Continuous
 62
     7
370
    35
100
AcDbLine
 10
2029.2984899838
 20
1432.5260714228
 30
0.0
 11
2030.8493730827
 21
1432.5260714228
 31
0.0
  0
LINE
  5
30A
330
1F
100
AcDbEntity
  8
0
  6
Continuous
 62
     7
370
    35
100
AcDbLine
 10
2083.7476068848
 20
1432.5260714228
 30
0.0
 11
2085.2972358597
 21
1432.5260714228
 31
0.0
  0
SPLINE
  5
30B
330
1F
100
AcDbEntity
  8
0
  6
Continuous
 62
     7
370
    35
100
AcDbSpline
210
0.0
220
0.0
230
1.0
 70
     8
 71
     3
 72
    12
 73
     8
 74
     0
 42
0.000000001
 43
0.00000001
 40
0.0
 40
0.0
 40
0.0
 40
0.0
 40
0.0000113964157658
 40
0.0165615426249112
 40
0.2254762501766174
 40
0.6569695733823557
 40
1.0
 40
1.0
 40
1.0
 40
1.0
 10
2089.191117235157
 20
1424.482141027372
 30
0.0
 10
2089.191122426463
 20
1424.482127218717
 30
0.0
 10
2089.198666556697
 20
1424.462060152495
 30
0.0
 10
2089.302723522773
 20
1424.185361173523
 30
0.0
 10
2089.65506131603
 20
1423.249125479076
 30
0.0
 10
2090.234920138559
 20
1421.674144432054
 30
0.0
 10
2090.669702200066
 20
1420.42238007728
 30
0.0
 10
2090.86226372717
 20
1419.867983571374
 30
0.0
  0
SPLINE
  5
30C
330
1F
100
AcDbEntity
  8
0
  6
Continuous
 62
     7
370
    35
100
AcDbSpline
210
0.0
220
0.0
230
1.0
 70
     8
 71
     3
 72
    15
 73
    11
 74
     0
 42
0.000000001
 43
0.00000001
 40
0.0
 40
0.0
 40
0.0
 40
0.0
 40
0.1214527241786904
 40
0.2436356162157055
 40
0.3679634748124467
 40
0.4929996451849704
 40
0.6185865433805138
 40
0.7450337263104062
 40
0.8719902588119085
 40
1.0
 40
1.0
 40
1.0
 40
1.0
 10
2094.036844032363
 20
1409.089033156296
 30
0.0
 10
2094.368290230621
 20
1407.615646401355
 30
0.0
 10
2095.033175265527
 20
1404.660014962114
 30
0.0
 10
2095.597880244577
 20
1400.115060967878
 30
0.0
 10
2095.859494924503
 20
1395.501329760088
 30
0.0
 10
2095.765528485833
 20
1390.83722178089
 30
0.0
 10
2095.302378903518
 20
1386.168202131568
 30
0.0
 10
2094.440904418194
 20
1381.533177582337
 30
0.0
 10
2093.200710796475
 20
1376.947671132029
 30
0.0
 10
2092.021820904159
 20
1374.003642107209
 30
0.0
 10
2091.429941092681
 20
1372.525547031873
 30
0.0
  0
SPLINE
  5
30D
330
1F
100
AcDbEntity
  8
0
  6
Continuous
 62
     7
370
    35
100
AcDbSpline
210
0.0
220
0.0
230
1.0
 70
    24
 71
     3
 72
    10
 73
     6
 74
     0
 42
0.000000001
 43
0.00000001
 40
0.0
 40
0.0
 40
0.0
 40
0.0
 40
0.1884291686422634
 40
0.5522845095522015
 40
1.0
 40
1.0
 40
1.0
 40
1.0
 10
2057.29848998376
 20
1401.847310247062
 30
0.0
 10
2057.29848998376
 20
1401.319526196163
 30
0.0
 10
2057.29848998376
 20
1399.772595018785
 30
0.0
 10
2057.29848998376
 20
1396.960794500861
 30
0.0
 10
2057.29848998376
 20
1394.688260374793
 30
0.0
 10
2057.29848998376
 20
1393.434582086344
 30
0.0
  0
SPLINE
  5
30E
330
1F
100
AcDbEntity
  8
0
  6
Continuous
 62
     7
370
    35
100
AcDbSpline
210
0.0
220
0.0
230
1.0
 70
    24
 71
     3
 72
    10
 73
     6
 74
     0
 42
0.000000001
 43
0.00000001
 40
0.0
 40
0.0
 40
0.0
 40
0.0
 40
0.3005544716335556
 40
0.6481927251021716
 40
1.0
 40
1.0
 40
1.0
 40
1.0
 10
2057.29848998376
 20
1389.622509922265
 30
0.0
 10
2057.29848998376
 20
1387.618788613435
 30
0.0
 10
2057.29848998376
 20
1383.297450226895
 30
0.0
 10
2057.29848998376
 20
1376.810629347898
 30
0.0
 10
2057.29848998376
 20
1372.52011956077
 30
0.0
 10
2057.29848998376
 20
1370.362077947927
 30
0.0
  0
SPLINE
  5
30F
330
1F
100
AcDbEntity
  8
0
  6
Continuous
 62
     7
370
    35
100
AcDbSpline
210
0.0
220
0.0
230
1.0
 70
    24
 71
     3
 72
    13
 73
     9
 74
     0
 42
0.000000001
 43
0.00000001
 40
0.0
 40
0.0
 40
0.0
 40
0.0
 40
0.3696468379657263
 40
0.749163056913529
 40
0.8272821734124605
 40
0.9051799163353809
 40
0.9820955461923445
 40
1.0
 40
1.0
 40
1.0
 40
1.0
 10
2085.79848998376
 20
1432.526071422714
 30
0.0
 10
2085.810365449681
 20
1432.526071422714
 30
0.0
 10
2085.834433450372
 20
1432.526071422714
 30
0.0
 10
2085.699441311279
 20
1432.526071422714
 30
0.0
 10
2085.864323549548
 20
1432.526071422714
 30
0.0
 10
2085.54798102732
 20
1432.526071422713
 30
0.0
 10
2084.757236780774
 20
1432.526071422713
 30
0.0
 10
2083.907970122661
 20
1432.526071422714
 30
0.0
 10
2083.747606884591
 20
1432.526071422714
 30
0.0
  0
SPLINE
  5
310
330
1F
100
AcDbEntity
  8
0
  6
Continuous
 62
     7
370
    35
100
AcDbSpline
210
0.0
220
0.0
230
1.0
 70
     8
 71
     3
 72
    12
 73
     8
 74
     0
 42
0.000000001
 43
0.00000001
 40
0.0
 40
0.0
 40
0.0
 40
0.0
 40
0.000011396415745
 40
0.0165615426248908
 40
0.2254762501766582
 40
0.656969573382412
 40
1.0
 40
1.0
 40
1.0
 40
1.0
 10
2025.405862732365
 20
1424.482141027371
 30
0.0
 10
2025.405857541058
 20
1424.482127218716
 30
0.0
 10
2025.398313410813
 20
1424.462060152465
 30
0.0
 10
2025.294256444823
 20
1424.185361173708
 30
0.0
 10
2024.94191865142
 20
1423.249125478902
 30
0.0
 10
2024.362059828978
 20
1421.674144432097
 30
0.0
 10
2023.927277767461
 20
1420.422380077293
 30
0.0
 10
2023.734716240352
 20
1419.867983571374
 30
0.0
  0
SPLINE
  5
311
330
1F
100
AcDbEntity
  8
0
  6
Continuous
 62
     7
370
    35
100
AcDbSpline
210
0.0
220
0.0
230
1.0
 70
     8
 71
     3
 72
     9
 73
     5
 74
     0
 42
0.000000001
 43
0.00000001
 40
0.0
 40
0.0
 40
0.0
 40
0.0
 40
0.156290395373632
 40
1.0
 40
1.0
 40
1.0
 40
1.0
 10
2025.415158519116
 20
1424.801741725741
 30
0.0
 10
2025.42095387298
 20
1424.813734763899
 30
0.0
 10
2025.458034551232
 20
1424.890470369629
 30
0.0
 10
2025.463935168367
 20
1424.896044246962
 30
0.0
 10
2025.468913575717
 20
1424.900746980803
 30
0.0
  0
SPLINE
  5
312
330
1F
100
AcDbEntity
  8
0
  6
Continuous
 62
     7
370
    35
100
AcDbSpline
210
0.0
220
0.0
230
1.0
 70
     8
 71
     3
 72
    11
 73
     7
 74
     0
 42
0.000000001
 43
0.00000001
 40
0.0
 40
0.0
 40
0.0
 40
0.0
 40
0.0402999249154326
 40
0.2187640754520135
 40
0.4992077406743786
 40
1.0
 40
1.0
 40
1.0
 40
1.0
 10
2028.777838878473
 20
1428.419026530832
 30
0.0
 10
2028.785414704772
 20
1428.473740779187
 30
0.0
 10
2028.826539313304
 20
1428.770751554775
 30
0.0
 10
2028.780761279935
 20
1429.457255725404
 30
0.0
 10
2028.808593117659
 20
1430.769770562675
 30
0.0
 10
2028.80243652044
 20
1431.840016399261
 30
0.0
 10
2028.79848998376
 20
1432.526071422714
 30
0.0
  0
SPLINE
  5
313
330
1F
100
AcDbEntity
  8
0
  6
Continuous
 62
     7
370
    35
100
AcDbSpline
210
0.0
220
0.0
230
1.0
 70
    24
 71
     3
 72
    13
 73
     9
 74
     0
 42
0.000000001
 43
0.00000001
 40
0.0
 40
0.0
 40
0.0
 40
0.0
 40
0.3696468379656955
 40
0.7491630569134665
 40
0.8272821734123914
 40
0.9051799163353053
 40
0.9820955461922626
 40
1.0
 40
1.0
 40
1.0
 40
1.0
 10
2028.79848998376
 20
1432.526071422714
 30
0.0
 10
2028.786614517839
 20
1432.526071422714
 30
0.0
 10
2028.762546517148
 20
1432.526071422714
 30
0.0
 10
2028.897538656242
 20
1432.526071422714
 30
0.0
 10
2028.732656417972
 20
1432.526071422714
 30
0.0
 10
2029.048998940201
 20
1432.526071422713
 30
0.0
 10
2029.839743186747
 20
1432.526071422713
 30
0.0
 10
2030.689009844861
 20
1432.526071422713
 30
0.0
 10
2030.849373082932
 20
1432.526071422713
 30
0.0
  0
SPLINE
  5
314
330
1F
100
AcDbEntity
  8
0
  6
Continuous
 62
     7
370
    35
100
AcDbSpline
210
0.0
220
0.0
230
1.0
 70
     8
 71
     3
 72
    15
 73
    11
 74
     0
 42
0.000000001
 43
0.00000001
 40
0.0
 40
0.0
 40
0.0
 40
0.0
 40
0.1214527241786847
 40
0.2436356162156996
 40
0.3679634748124417
 40
0.4929996451849654
 40
0.6185865433805107
 40
0.7450337263103978
 40
0.8719902588119003
 40
1.0
 40
1.0
 40
1.0
 40
1.0
 10
2020.560135935157
 20
1409.089033156295
 30
0.0
 10
2020.228689736899
 20
1407.615646401355
 30
0.0
 10
2019.563804701994
 20
1404.660014962113
 30
0.0
 10
2018.999099722944
 20
1400.115060967878
 30
0.0
 10
2018.737485043017
 20
1395.501329760087
 30
0.0
 10
2018.831451481687
 20
1390.83722178089
 30
0.0
 10
2019.294601064004
 20
1386.168202131568
 30
0.0
 10
2020.156075549326
 20
1381.533177582337
 30
0.0
 10
2021.396269171046
 20
1376.947671132029
 30
0.0
 10
2022.575159063363
 20
1374.003642107209
 30
0.0
 10
2023.167038874841
 20
1372.525547031872
 30
0.0
  0
SPLINE
  5
315
330
1F
100
AcDbEntity
  8
0
  6
Continuous
 62
     7
370
    35
100
AcDbSpline
210
0.0
220
0.0
230
1.0
 70
    24
 71
     3
 72
    14
 73
    10
 74
     0
 42
0.000000001
 43
0.00000001
 40
0.0
 40
0.0
 40
0.0
 40
0.0
 40
0.149783861674635
 40
0.3039198677007078
 40
0.4537011775423317
 40
0.6078081864720632
 40
0.757933700022959
 40
0.9123691506710971
 40
1.0
 40
1.0
 40
1.0
 40
1.0
 10
2057.29848998376
 20
1370.362077947927
 30
0.0
 10
2057.29848998376
 20
1369.636963435086
 30
0.0
 10
2057.29848998376
 20
1368.165665363674
 30
0.0
 10
2057.29848998376
 20
1366.271226566924
 30
0.0
 10
2057.29848998376
 20
1364.65474743798
 30
0.0
 10
2057.29848998376
 20
1363.404675781285
 30
0.0
 10
2057.29848998376
 20
1362.536778171002
 30
0.0
 10
2057.29848998376
 20
1362.128656757191
 30
0.0
 10
2057.29848998376
 20
1362.090048181482
 30
0.0
 10
2057.29848998376
 20
1362.076071422714
 30
0.0
  0
LINE
  5
316
330
1F
100
AcDbEntity
  8
0
  6
Continuous
 62
     7
370
    35
100
AcDbLine
 10
2084.3739026106
 20
1363.9731829644
 30
0.0
 11
2084.8893402508
 21
1364.1917010059
 31
0.0
  0
SPLINE
  5
317
330
1F
100
AcDbEntity
  8
0
  6
Continuous
 62
     7
370
    35
100
AcDbSpline
210
0.0
220
0.0
230
1.0
 70
     8
 71
     3
 72
    10
 73
     6
 74
     0
 42
0.000000001
 43
0.00000001
 40
0.0
 40
0.0
 40
0.0
 40
0.0
 40
0.365191270618259
 40
0.9388408861884855
 40
1.0
 40
1.0
 40
1.0
 40
1.0
 10
2085.269396848696
 20
1364.424258437346
 30
0.0
 10
2085.338901175941
 20
1364.468144508945
 30
0.0
 10
2085.517584264601
 20
1364.580967683174
 30
0.0
 10
2085.732973614808
 20
1364.72354175691
 30
0.0
 10
2085.866804099665
 20
1364.821952390977
 30
0.0
 10
2085.879697674494
 20
1364.83143352583
 30
0.0
  0
SPLINE
  5
318
330
1F
100
AcDbEntity
  8
0
  6
Continuous
 62
     7
370
    35
100
AcDbSpline
210
0.0
220
0.0
230
1.0
 70
    24
 71
     3
 72
    18
 73
    14
 74
     0
 42
0.000000001
 43
0.00000001
 40
0.0
 40
0.0
 40
0.0
 40
0.0
 40
0.0528900501225384
 40
0.130850304335452
 40
0.2088349706568545
 40
0.2788361590001414
 40
0.3488290097785846
 40
0.4127449371310043
 40
0.4766197031471425
 40
0.5405641088728156
 40
0.6045882679846294
 40
0.8596063559736834
 40
1.0
 40
1.0
 40
1.0
 40
1.0
 10
2057.29848998376
 20
1362.076071422714
 30
0.0
 10
2058.185643929701
 20
1362.076071422714
 30
0.0
 10
2060.380468165068
 20
1362.076071422714
 30
0.0
 10
2063.741180698314
 20
1362.076071422714
 30
0.0
 10
2067.114680365768
 20
1362.076071422714
 30
0.0
 10
2070.034384089417
 20
1362.076071422714
 30
0.0
 10
2072.419591179565
 20
1362.076071422714
 30
0.0
 10
2074.339622243194
 20
1362.076071422714
 30
0.0
 10
2075.782420592661
 20
1362.076071422714
 30
0.0
 10
2076.699326140083
 20
1362.076071422714
 30
0.0
 10
2077.241500153616
 20
1362.076071422714
 30
0.0
 10
2077.211769236297
 20
1362.076071422714
 30
0.0
 10
2077.208290974549
 20
1362.076071422714
 30
0.0
 10
2077.207055993889
 20
1362.076071422714
 30
0.0
  0
LINE
  5
319
330
1F
100
AcDbEntity
  8
0
  6
Continuous
 62
     7
370
    35
100
AcDbLine
 10
2030.2230773569
 20
1363.9731829644
 30
0.0
 11
2029.7076397167
 21
1364.1917010059
 31
0.0
  0
SPLINE
  5
31A
330
1F
100
AcDbEntity
  8
0
  6
Continuous
 62
     7
370
    35
100
AcDbSpline
210
0.0
220
0.0
230
1.0
 70
    24
 71
     3
 72
    18
 73
    14
 74
     0
 42
0.000000001
 43
0.00000001
 40
0.0
 40
0.0
 40
0.0
 40
0.0
 40
0.0528858667102825
 40
0.1296739535442633
 40
0.2088264841310587
 40
0.2780198271463594
 40
0.3488116530586099
 40
0.4119722453845616
 40
0.4765946606109361
 40
0.5395794985731219
 40
0.6046207084835598
 40
0.8595628981181059
 40
1.0
 40
1.0
 40
1.0
 40
1.0
 10
2057.29848998376
 20
1362.076071422714
 30
0.0
 10
2056.411395275044
 20
1362.076071422714
 30
0.0
 10
2054.236275811129
 20
1362.076071422714
 30
0.0
 10
2050.87268013272
 20
1362.076071422714
 30
0.0
 10
2047.51071253969
 20
1362.076071422712
 30
0.0
 10
2044.571610308108
 20
1362.076071422714
 30
0.0
 10
2042.195264667933
 20
1362.076071422714
 30
0.0
 10
2040.260370736264
 20
1362.076071422714
 30
0.0
 10
2038.834311289827
 20
1362.076071422714
 30
0.0
 10
2037.868959663959
 20
1362.076071422714
 30
0.0
 10
2037.39235984008
 20
1362.076071422714
 30
0.0
 10
2037.383210562531
 20
1362.076071422714
 30
0.0
 10
2037.389253809049
 20
1362.076071422714
 30
0.0
 10
2037.391400345414
 20
1362.076071422714
 30
0.0
  0
SPLINE
  5
31B
330
1F
100
AcDbEntity
  8
0
  6
Continuous
 62
     7
370
    35
100
AcDbSpline
210
0.0
220
0.0
230
1.0
 70
     8
 71
     3
 72
     9
 73
     5
 74
     0
 42
0.000000001
 43
0.00000001
 40
0.0
 40
0.0
 40
0.0
 40
0.0
 40
0.4409399518623672
 40
1.0
 40
1.0
 40
1.0
 40
1.0
 10
2029.336774325568
 20
1364.41841449897
 30
0.0
 10
2029.264307502423
 20
1364.463739723999
 30
0.0
 10
2029.099961262445
 20
1364.566532008612
 30
0.0
 10
2028.915739059033
 20
1364.693542141565
 30
0.0
 10
2028.812747785125
 20
1364.764548432607
 30
0.0
  0
SPLINE
  5
31C
330
1F
100
AcDbEntity
  8
0
  6
Continuous
 62
     7
370
    35
100
AcDbSpline
210
0.0
220
0.0
230
1.0
 70
     8
 71
     3
 72
    14
 73
    10
 74
     0
 42
0.000000001
 43
0.00000001
 40
0.0
 40
0.0
 40
0.0
 40
0.0
 40
0.1296969008660542
 40
0.2603671951156628
 40
0.3853421446376523
 40
0.5111847557259621
 40
0.6397642884787735
 40
0.7692911603858884
 40
1.0
 40
1.0
 40
1.0
 40
1.0
 10
2092.618604873207
 20
1372.016343642474
 30
0.0
 10
2093.232921595868
 20
1373.550394626421
 30
0.0
 10
2094.466165574129
 20
1376.630009861541
 30
0.0
 10
2095.785039581802
 20
1381.36587325291
 30
0.0
 10
2096.716814872898
 20
1386.137212324334
 30
0.0
 10
2097.241469070655
 20
1390.946359011792
 30
0.0
 10
2097.352780048807
 20
1395.837739266691
 30
0.0
 10
2097.008110470264
 20
1402.066765678708
 30
0.0
 10
2096.028655007697
 20
1406.557722159137
 30
0.0
 10
2095.401373963659
 20
1409.433903851347
 30
0.0
  0
SPLINE
  5
31D
330
1F
100
AcDbEntity
  8
0
  6
Continuous
 62
     7
370
    35
100
AcDbSpline
210
0.0
220
0.0
230
1.0
 70
     8
 71
     3
 72
    14
 73
    10
 74
     0
 42
0.000000001
 43
0.00000001
 40
0.0
 40
0.0
 40
0.0
 40
0.0
 40
0.129696900866046
 40
0.260367195115662
 40
0.3853421446376472
 40
0.5111847557259602
 40
0.6397642884787722
 40
0.7692911603858874
 40
1.0
 40
1.0
 40
1.0
 40
1.0
 10
2021.978375094314
 20
1372.016343642473
 30
0.0
 10
2021.364058371653
 20
1373.550394626421
 30
0.0
 10
2020.130814393393
 20
1376.630009861541
 30
0.0
 10
2018.811940385719
 20
1381.365873252909
 30
0.0
 10
2017.880165094625
 20
1386.137212324334
 30
0.0
 10
2017.355510896865
 20
1390.946359011792
 30
0.0
 10
2017.244199918714
 20
1395.837739266691
 30
0.0
 10
2017.588869497257
 20
1402.066765678707
 30
0.0
 10
2018.568324959824
 20
1406.557722159137
 30
0.0
 10
2019.195606003861
 20
1409.433903851346
 30
0.0
  0
SPLINE
  5
31E
330
1F
100
AcDbEntity
  8
0
  6
Continuous
 62
     7
370
    35
100
AcDbSpline
210
0.0
220
0.0
230
1.0
 70
     8
 71
     3
 72
    10
 73
     6
 74
     0
 42
0.000000001
 43
0.00000001
 40
0.0
 40
0.0
 40
0.0
 40
0.0
 40
0.3422812336048897
 40
0.6664353245310205
 40
1.0
 40
1.0
 40
1.0
 40
1.0
 10
2085.879697674494
 20
1364.83143352583
 30
0.0
 10
2086.644598298552
 20
1365.234347503808
 30
0.0
 10
2088.133890569294
 20
1366.0188372196
 30
0.0
 10
2089.994857528835
 20
1367.797517144421
 30
0.0
 10
2090.971705433936
 20
1369.156498018094
 30
0.0
 10
2091.467117715136
 20
1369.845710546695
 30
0.0
  0
SPLINE
  5
31F
330
1F
100
AcDbEntity
  8
0
  6
Continuous
 62
     7
370
    35
100
AcDbSpline
210
0.0
220
0.0
230
1.0
 70
     8
 71
     3
 72
    10
 73
     6
 74
     0
 42
0.000000001
 43
0.00000001
 40
0.0
 40
0.0
 40
0.0
 40
0.0
 40
0.3422812336048847
 40
0.6664353245310173
 40
0.9999999999999999
 40
0.9999999999999999
 40
0.9999999999999999
 40
0.9999999999999999
 10
2028.717282293027
 20
1364.83143352583
 30
0.0
 10
2027.952381668969
 20
1365.234347503808
 30
0.0
 10
2026.463089398227
 20
1366.0188372196
 30
0.0
 10
2024.602122438686
 20
1367.797517144421
 30
0.0
 10
2023.625274533585
 20
1369.156498018094
 30
0.0
 10
2023.129862252385
 20
1369.845710546695
 30
0.0
  0
SPLINE
  5
320
330
1F
100
AcDbEntity
  8
0
  6
Continuous
 62
     7
370
    35
100
AcDbSpline
210
0.0
220
0.0
230
1.0
 70
     8
 71
     3
 72
     9
 73
     5
 74
     0
 42
0.000000001
 43
0.00000001
 40
0.0
 40
0.0
 40
0.0
 40
0.0
 40
0.8536363424240446
 40
1.0
 40
1.0
 40
1.0
 40
1.0
 10
2019.195606003861
 20
1409.433903851346
 30
0.0
 10
2020.067594927416
 20
1412.544984733646
 30
0.0
 10
2021.089094224269
 20
1416.189488520195
 30
0.0
 10
2022.313209680691
 20
1419.7696040784
 30
0.0
 10
2022.492375696188
 20
1420.293602886043
 30
0.0
  0
SPLINE
  5
321
330
1F
100
AcDbEntity
  8
0
  6
Continuous
 62
     7
370
    35
100
AcDbSpline
210
0.0
220
0.0
230
1.0
 70
     8
 71
     3
 72
     9
 73
     5
 74
     0
 42
0.000000001
 43
0.00000001
 40
0.0
 40
0.0
 40
0.0
 40
0.0
 40
0.8536363424240666
 40
1.0
 40
1.0
 40
1.0
 40
1.0
 10
2095.401373963659
 20
1409.433903851347
 30
0.0
 10
2094.529385040104
 20
1412.544984733646
 30
0.0
 10
2093.50788574325
 20
1416.189488520195
 30
0.0
 10
2092.28377028683
 20
1419.7696040784
 30
0.0
 10
2092.104604271333
 20
1420.293602886044
 30
0.0
  0
SPLINE
  5
322
330
1F
100
AcDbEntity
  8
0
  6
Continuous
 62
     7
370
    35
100
AcDbSpline
210
0.0
220
0.0
230
1.0
 70
     8
 71
     3
 72
     9
 73
     5
 74
     0
 42
0.000000001
 43
0.00000001
 40
0.0
 40
0.0
 40
0.0
 40
0.0
 40
0.6310361367051092
 40
1.0
 40
1.0
 40
1.0
 40
1.0
 10
2022.492375696188
 20
1420.293602886043
 30
0.0
 10
2022.90015729276
 20
1421.230084264127
 30
0.0
 10
2023.546366872296
 20
1422.714121902564
 30
0.0
 10
2024.649231846205
 20
1423.858293859523
 30
0.0
 10
2025.056149167672
 20
1424.280451965036
 30
0.0
  0
SPLINE
  5
323
330
1F
100
AcDbEntity
  8
0
  6
Continuous
 62
     7
370
    35
100
AcDbSpline
210
0.0
220
0.0
230
1.0
 70
     8
 71
     3
 72
     9
 73
     5
 74
     0
 42
0.000000001
 43
0.00000001
 40
0.0
 40
0.0
 40
0.0
 40
0.0
 40
0.6310361367052247
 40
1.0
 40
1.0
 40
1.0
 40
1.0
 10
2092.104604271333
 20
1420.293602886044
 30
0.0
 10
2091.696822674761
 20
1421.230084264128
 30
0.0
 10
2091.050613095224
 20
1422.714121902564
 30
0.0
 10
2089.947748121316
 20
1423.858293859523
 30
0.0
 10
2089.54083079985
 20
1424.280451965036
 30
0.0
  0
LINE
  5
324
330
1F
100
AcDbEntity
  8
0
  6
Continuous
 62
     7
370
    35
100
AcDbLine
 10
2091.4671177151
 20
1369.8457105467
 30
0.0
 11
2092.6186048732
 21
1372.0163436425
 31
0.0
  0
LINE
  5
325
330
1F
100
AcDbEntity
  8
0
  6
Continuous
 62
     7
370
    35
100
AcDbLine
 10
2023.1298622524
 20
1369.8457105467
 30
0.0
 11
2021.9783750943
 21
1372.0163436425
 31
0.0
  0
LINE
  5
326
330
1F
100
AcDbEntity
  8
0
  6
Continuous
 62
     7
370
    35
100
AcDbLine
 10
2029.4363973349
 20
1364.3351599796
 30
0.0
 11
2029.9293646776
 21
1364.1166419381
 31
0.0
  0
LINE
  5
327
330
1F
100
AcDbEntity
  8
0
  6
Continuous
 62
     7
370
    35
100
AcDbLine
 10
2085.1605826326
 20
1364.3351599796
 30
0.0
 11
2084.6676152899
 21
1364.1166419381
 31
0.0
  0
LINE
  5
328
330
1F
100
AcDbEntity
  8
0
  6
Continuous
 62
     7
370
    35
100
AcDbLine
 10
2025.0561491677
 20
1424.280451965
 30
0.0
 11
2024.9110799977
 21
1424.1397424878
 31
0.0
  0
LINE
  5
329
330
1F
100
AcDbEntity
  8
0
  6
Continuous
 62
     7
370
    35
100
AcDbLine
 10
2089.5408307999
 20
1424.280451965
 30
0.0
 11
2089.6858999698
 21
1424.1397424878
 31
0.0
  0
SPLINE
  5
32A
330
1F
100
AcDbEntity
  8
0
  6
Continuous
 62
     7
370
    35
100
AcDbSpline
210
0.0
220
0.0
230
1.0
 70
     8
 71
     3
 72
    21
 73
    17
 74
     0
 42
0.000000001
 43
0.00000001
 40
0.0
 40
0.0
 40
0.0
 40
0.0
 40
0.0385875042306224
 40
0.1137555859598133
 40
0.1905584151146651
 40
0.2679261122718444
 40
0.3425758673549481
 40
0.4177439138171346
 40
0.4945465859979156
 40
0.5719140750339724
 40
0.6465659329144193
 40
0.7217360672759661
 40
0.7985407486308923
 40
0.8759102056376945
 40
0.9905374157361704
 40
1.0
 40
1.0
 40
1.0
 40
1.0
 10
2094.576384049315
 20
1412.206045023497
 30
0.0
 10
2094.743476697396
 20
1412.125283579337
 30
0.0
 10
2095.236064193558
 20
1411.887199629971
 30
0.0
 10
2096.015067295258
 20
1411.401071526798
 30
0.0
 10
2096.90882132111
 20
1410.754142302506
 30
0.0
 10
2097.739780657388
 20
1410.030748313866
 30
0.0
 10
2098.501912544733
 20
1409.246729695084
 30
0.0
 10
2099.194435165674
 20
1408.403930490207
 30
0.0
 10
2099.821012512907
 20
1407.495056799755
 30
0.0
 10
2100.366409768485
 20
1406.538083155192
 30
0.0
 10
2100.825902390228
 20
1405.54579306392
 30
0.0
 10
2101.200469403706
 20
1404.521317054921
 30
0.0
 10
2101.490970537916
 20
1403.456175266934
 30
0.0
 10
2101.723134649409
 20
1402.183596127496
 30
0.0
 10
2101.796297264803
 20
1401.214433975372
 30
0.0
 10
2101.798334623084
 20
1400.617860823833
 30
0.0
 10
2101.798489983761
 20
1400.5723685757
 30
0.0
  0
SPLINE
  5
32B
330
1F
100
AcDbEntity
  8
0
  6
Continuous
 62
     7
370
    35
100
AcDbSpline
210
0.0
220
0.0
230
1.0
 70
    24
 71
     3
 72
    20
 73
    16
 74
     0
 42
0.000000001
 43
0.00000001
 40
0.0
 40
0.0
 40
0.0
 40
0.0
 40
0.0031848875244883
 40
0.0996872166702684
 40
0.1961928561586087
 40
0.2929138960264281
 40
0.3894614585497523
 40
0.453145940689725
 40
0.5167654851003681
 40
0.6214864979190137
 40
0.7268808125404118
 40
0.8182687157727465
 40
0.8939620144270484
 40
0.9698304221395906
 40
0.9999999999999999
 40
0.9999999999999999
 40
0.9999999999999999
 40
0.9999999999999999
 10
2101.798489983761
 20
1400.5723685757
 30
0.0
 10
2101.798489983761
 20
1400.572771222576
 30
0.0
 10
2101.798489983761
 20
1400.585374099792
 30
0.0
 10
2101.798489983761
 20
1400.424636489552
 30
0.0
 10
2101.79848998376
 20
1399.689112308695
 30
0.0
 10
2101.798489983761
 20
1398.479468186606
 30
0.0
 10
2101.798489983761
 20
1396.986462158807
 30
0.0
 10
2101.798489983761
 20
1395.358598348474
 30
0.0
 10
2101.79848998376
 20
1393.416345473789
 30
0.0
 10
2101.798489983762
 20
1390.748876171437
 30
0.0
 10
2101.79848998376
 20
1387.524277559221
 30
0.0
 10
2101.798489983761
 20
1384.803446642836
 30
0.0
 10
2101.798489983761
 20
1382.652648004673
 30
0.0
 10
2101.798489983761
 20
1381.210128484914
 30
0.0
 10
2101.798489983761
 20
1380.440835414067
 30
0.0
 10
2101.798489983761
 20
1380.22195868727
 30
0.0
  0
SPLINE
  5
32C
330
1F
100
AcDbEntity
  8
0
  6
Continuous
 62
     7
370
    35
100
AcDbSpline
210
0.0
220
0.0
230
1.0
 70
    24
 71
     3
 72
    10
 73
     6
 74
     0
 42
0.000000001
 43
0.00000001
 40
0.0
 40
0.0
 40
0.0
 40
0.0
 40
0.2479681796226364
 40
0.4972688069878642
 40
1.0
 40
1.0
 40
1.0
 40
1.0
 10
2101.798489983761
 20
1380.22195868727
 30
0.0
 10
2101.798489983761
 20
1379.915464117308
 30
0.0
 10
2101.79848998376
 20
1379.30082804027
 30
0.0
 10
2101.798489983762
 20
1378.194757822167
 30
0.0
 10
2101.798489983761
 20
1377.437306753887
 30
0.0
 10
2101.798489983761
 20
1376.930952808633
 30
0.0
  0
LINE
  5
32D
330
1F
100
AcDbEntity
  8
0
  6
Continuous
 62
     7
370
    35
100
AcDbLine
 10
2101.7984899838
 20
1376.9309528086
 30
0.0
 11
2101.7984899838
 21
1375.0760714227
 31
0.0
  0
LINE
  5
32E
330
1F
100
AcDbEntity
  8
0
  6
Continuous
 62
     7
370
    35
100
AcDbLine
 10
1991.7984899838
 20
1442.5225099223
 30
0.0
 11
1991.7984899838
 21
1443.5225099223
 31
0.0
  0
LINE
  5
32F
330
1F
100
AcDbEntity
  8
0
  6
Continuous
 62
     7
370
    35
100
AcDbLine
 10
1991.7984899838
 20
1443.5225099223
 30
0.0
 11
2001.7984899838
 21
1443.5225099223
 31
0.0
  0
LINE
  5
330
330
1F
100
AcDbEntity
  8
0
  6
Continuous
 62
     7
370
    35
100
AcDbLine
 10
2001.7984899838
 20
1442.5225099223
 30
0.0
 11
1991.7984899838
 21
1442.5225099223
 31
0.0
  0
LINE
  5
331
330
1F
100
AcDbEntity
  8
0
  6
Continuous
 62
     7
370
    35
100
AcDbLine
 10
2122.7984899838
 20
1443.5225099223
 30
0.0
 11
2122.7984899838
 21
1442.5225099223
 31
0.0
  0
LINE
  5
332
330
1F
100
AcDbEntity
  8
0
  6
Continuous
 62
     7
370
    35
100
AcDbLine
 10
2112.7984899838
 20
1443.5225099223
 30
0.0
 11
2122.7984899838
 21
1443.5225099223
 31
0.0
  0
LINE
  5
333
330
1F
100
AcDbEntity
  8
0
  6
Continuous
 62
     7
370
    35
100
AcDbLine
 10
2122.7984899838
 20
1442.5225099223
 30
0.0
 11
2112.7984899838
 21
1442.5225099223
 31
0.0
  0
LINE
  5
334
330
1F
100
AcDbEntity
  8
0
  6
Continuous
 62
     7
370
    35
100
AcDbLine
 10
2112.7984899838
 20
1443.5225099223
 30
0.0
 11
2001.7984899838
 21
1443.5225099223
 31
0.0
  0
LINE
  5
335
330
1F
100
AcDbEntity
  8
0
  6
Continuous
 62
     7
370
    35
100
AcDbLine
 10
2112.7984899838
 20
1442.5225099223
 30
0.0
 11
2001.7984899838
 21
1442.5225099223
 31
0.0
  0
LINE
  5
336
330
1F
100
AcDbEntity
  8
0
  6
Continuous
 62
     7
370
    35
100
AcDbLine
 10
2092.2984899838
 20
1455.5225099223
 30
0.0
 11
2092.2984899838
 21
1454.5225099223
 31
0.0
  0
LINE
  5
337
330
1F
100
AcDbEntity
  8
0
  6
Continuous
 62
     7
370
    35
100
AcDbLine
 10
2022.2984899838
 20
1454.5225099223
 30
0.0
 11
2022.2984899838
 21
1455.5225099223
 31
0.0
  0
LINE
  5
338
330
1F
100
AcDbEntity
  8
0
  6
Continuous
 62
     7
370
    35
100
AcDbLine
 10
2073.4532534603
 20
1427.7257355852
 30
0.0
 11
2089.0187265072
 21
1434.9840348698
 31
0.0
  0
LINE
  5
339
330
1F
100
AcDbEntity
  8
0
  6
Continuous
 62
     7
370
    35
100
AcDbLine
 10
2072.2984899838
 20
1391.6225099223
 30
0.0
 11
2072.2984899838
 21
1425.9131200111
 31
0.0
  0
ARC
  5
33A
330
1F
100
AcDbEntity
  8
0
  6
Continuous
 62
     7
370
    35
100
AcDbCircle
 10
2070.2984899838
 20
1391.6225099223
 30
0.0
 40
2.000000000000455
100
AcDbArc
 50
270.0
 51
0.0
  0
ARC
  5
33B
330
1F
100
AcDbEntity
  8
0
  6
Continuous
 62
     7
370
    35
100
AcDbCircle
 10
2044.2984899838
 20
1391.6225099223
 30
0.0
 40
2.0
100
AcDbArc
 50
180.0
 51
270.0
  0
ARC
  5
33C
330
1F
100
AcDbEntity
  8
0
  6
Continuous
 62
     7
370
    35
100
AcDbCircle
 10
2040.2984899838
 20
1425.9131200111
 30
0.0
 40
2.000000000000137
100
AcDbArc
 50
0.0
 51
65.0
  0
ARC
  5
33D
330
1F
100
AcDbEntity
  8
0
  6
Continuous
 62
     7
370
    35
100
AcDbCircle
 10
2026.4234899838
 20
1436.7966504439
 30
0.0
 40
2.000000000000329
100
AcDbArc
 50
180.0
 51
245.0
  0
LINE
  5
33E
330
1F
100
AcDbEntity
  8
0
  6
Continuous
 62
     7
370
    35
100
AcDbLine
 10
2024.4234899838
 20
1442.5225099223
 30
0.0
 11
2024.4234899838
 21
1436.7966504439
 31
0.0
  0
LINE
  5
33F
330
1F
100
AcDbEntity
  8
0
  6
Continuous
 62
     7
370
    35
100
AcDbLine
 10
2022.2984899838
 20
1454.5225099223
 30
0.0
 11
2022.2984899838
 21
1443.5225099223
 31
0.0
  0
LINE
  5
340
330
1F
100
AcDbEntity
  8
0
  6
Continuous
 62
     7
370
    35
100
AcDbLine
 10
2056.2984899838
 20
1409.6225099223
 30
0.0
 11
2056.2984899838
 21
1419.6225099223
 31
0.0
  0
ARC
  5
341
330
1F
100
AcDbEntity
  8
0
  6
Continuous
 62
     7
370
    35
100
AcDbCircle
 10
2074.2984899838
 20
1425.9131200111
 30
0.0
 40
2.0
100
AcDbArc
 50
115.0
 51
180.0
  0
ARC
  5
342
330
1F
100
AcDbEntity
  8
0
  6
Continuous
 62
     7
370
    35
100
AcDbCircle
 10
2049.7984899838
 20
1419.6225099223
 30
0.0
 40
6.500000000000455
100
AcDbArc
 50
0.0
 51
180.0
  0
CIRCLE
  5
343
330
1F
100
AcDbEntity
  8
0
  6
Continuous
 62
     7
370
    35
100
AcDbCircle
 10
2057.2984899838
 20
1397.6225099223
 30
0.0
 40
4.250000000000455
  0
LINE
  5
344
330
1F
100
AcDbEntity
  8
0
  6
Continuous
 62
     7
370
    35
100
AcDbLine
 10
2042.2984899838
 20
1425.9131200111
 30
0.0
 11
2042.2984899838
 21
1391.6225099223
 31
0.0
  0
LINE
  5
345
330
1F
100
AcDbEntity
  8
0
  6
Continuous
 62
     7
370
    35
100
AcDbLine
 10
2025.5782534603
 20
1434.9840348698
 30
0.0
 11
2041.1437265072
 21
1427.7257355852
 31
0.0
  0
LINE
  5
346
330
1F
100
AcDbEntity
  8
0
  6
Continuous
 62
     7
370
    35
100
AcDbLine
 10
2071.2984899838
 20
1419.6225099223
 30
0.0
 11
2071.2984899838
 21
1409.6225099223
 31
0.0
  0
ARC
  5
347
330
1F
100
AcDbEntity
  8
0
  6
Continuous
 62
     7
370
    35
100
AcDbCircle
 10
2064.7984899838
 20
1419.6225099223
 30
0.0
 40
6.5
100
AcDbArc
 50
0.0
 51
180.0
  0
LINE
  5
348
330
1F
100
AcDbEntity
  8
0
  6
Continuous
 62
     7
370
    35
100
AcDbLine
 10
2043.2984899838
 20
1419.6225099223
 30
0.0
 11
2043.2984899838
 21
1409.6225099223
 31
0.0
  0
LINE
  5
349
330
1F
100
AcDbEntity
  8
0
  6
Continuous
 62
     7
370
    35
100
AcDbLine
 10
2092.2984899838
 20
1443.5225099223
 30
0.0
 11
2092.2984899838
 21
1454.5225099223
 31
0.0
  0
LINE
  5
34A
330
1F
100
AcDbEntity
  8
0
  6
Continuous
 62
     7
370
    35
100
AcDbLine
 10
2090.1734899838
 20
1436.7966504439
 30
0.0
 11
2090.1734899838
 21
1442.5225099223
 31
0.0
  0
LINE
  5
34B
330
1F
100
AcDbEntity
  8
0
  6
Continuous
 62
     7
370
    35
100
AcDbLine
 10
2058.2984899838
 20
1409.6225099223
 30
0.0
 11
2058.2984899838
 21
1419.6225099223
 31
0.0
  0
ARC
  5
34C
330
1F
100
AcDbEntity
  8
0
  6
Continuous
 62
     7
370
    35
100
AcDbCircle
 10
2064.7984899838
 20
1409.6225099223
 30
0.0
 40
6.5
100
AcDbArc
 50
180.0
 51
0.0
  0
ARC
  5
34D
330
1F
100
AcDbEntity
  8
0
  6
Continuous
 62
     7
370
    35
100
AcDbCircle
 10
2088.1734899838
 20
1436.7966504439
 30
0.0
 40
1.999999999999545
100
AcDbArc
 50
295.0
 51
0.0
  0
LINE
  5
34E
330
1F
100
AcDbEntity
  8
0
  6
Continuous
 62
     7
370
    35
100
AcDbLine
 10
2044.2984899838
 20
1389.6225099223
 30
0.0
 11
2070.2984899838
 21
1389.6225099223
 31
0.0
  0
ARC
  5
34F
330
1F
100
AcDbEntity
  8
0
  6
Continuous
 62
     7
370
    35
100
AcDbCircle
 10
2049.7984899838
 20
1409.6225099223
 30
0.0
 40
6.500000000000455
100
AcDbArc
 50
180.0
 51
0.0
  0
LINE
  5
350
330
1F
100
AcDbEntity
  8
0
  6
Continuous
 62
     8
370
    18
100
AcDbLine
 10
2024.2984899838
 20
1441.2844284116
 30
0.0
 11
2024.4234899838
 21
1441.2844284116
 31
0.0
  0
LINE
  5
351
330
1F
100
AcDbEntity
  8
0
  6
Continuous
 62
     8
370
    18
100
AcDbLine
 10
2090.1734899838
 20
1441.2844284116
 30
0.0
 11
2090.2984899838
 21
1441.2844284116
 31
0.0
  0
SPLINE
  5
352
330
1F
100
AcDbEntity
  8
0
  6
Continuous
 62
     8
370
    18
100
AcDbSpline
210
0.0
220
0.0
230
1.0
 70
     8
 71
     3
 72
     9
 73
     5
 74
     0
 42
0.000000001
 43
0.00000001
 40
0.0
 40
0.0
 40
0.0
 40
0.0
 40
0.463972688728338
 40
1.0
 40
1.0
 40
1.0
 40
1.0
 10
2089.242877710905
 20
1424.675985910722
 30
0.0
 10
2089.213462491299
 20
1424.737355549137
 30
0.0
 10
2089.150063889784
 20
1424.869625486368
 30
0.0
 10
2089.135742856675
 20
1424.889886515718
 30
0.0
 10
2089.128066391804
 20
1424.900746980803
 30
0.0
  0
LINE
  5
353
330
1F
100
AcDbEntity
  8
0
  6
Continuous
 62
     8
370
    18
100
AcDbLine
 10
2089.1280663918
 20
1424.9007469808
 30
0.0
 11
2088.9714991456
 21
1425.023667901
 31
0.0
  0
SPLINE
  5
354
330
1F
100
AcDbEntity
  8
0
  6
Continuous
 62
     8
370
    18
100
AcDbSpline
210
0.0
220
0.0
230
1.0
 70
     8
 71
     3
 72
    11
 73
     7
 74
     0
 42
0.000000001
 43
0.00000001
 40
0.0
 40
0.0
 40
0.0
 40
0.0
 40
0.2986044395549165
 40
0.5785107697796622
 40
0.9999675635114514
 40
0.9999999999999999
 40
0.9999999999999999
 40
0.9999999999999999
 40
0.9999999999999999
 10
2088.971499145552
 20
1425.023667900952
 30
0.0
 10
2088.971432563496
 20
1425.017831821851
 30
0.0
 10
2088.971303568642
 20
1425.006525109137
 30
0.0
 10
2089.050984776995
 20
1424.833091160917
 30
0.0
 10
2089.138058512149
 20
1424.627386256068
 30
0.0
 10
2089.191113152238
 20
1424.482152204129
 30
0.0
 10
2089.191117235157
 20
1424.482141027372
 30
0.0
  0
SPLINE
  5
355
330
1F
100
AcDbEntity
  8
0
  6
Continuous
 62
     8
370
    18
100
AcDbSpline
210
0.0
220
0.0
230
1.0
 70
     8
 71
     3
 72
    10
 73
     6
 74
     0
 42
0.000000001
 43
0.00000001
 40
0.0
 40
0.0
 40
0.0
 40
0.0
 40
0.0305940752880598
 40
0.8849546452569959
 40
1.0
 40
1.0
 40
1.0
 40
1.0
 10
2090.86226372717
 20
1419.867983571374
 30
0.0
 10
2090.899355960653
 20
1419.759545329198
 30
0.0
 10
2091.972274295831
 20
1416.622894679237
 30
0.0
 10
2093.032674045626
 20
1413.025108215803
 30
0.0
 10
2093.930315417814
 20
1409.506596545353
 30
0.0
 10
2094.036844032363
 20
1409.089033156296
 30
0.0
  0
LINE
  5
356
330
1F
100
AcDbEntity
  8
0
  6
Continuous
 62
     8
370
    18
100
AcDbLine
 10
2091.4299410927
 20
1372.5255470319
 30
0.0
 11
2090.5125875705
 21
1370.5223129864
 31
0.0
  0
SPLINE
  5
357
330
1F
100
AcDbEntity
  8
0
  6
Continuous
 62
     8
370
    18
100
AcDbSpline
210
0.0
220
0.0
230
1.0
 70
     8
 71
     3
 72
    18
 73
    14
 74
     0
 42
0.000000001
 43
0.00000001
 40
0.0
 40
0.0
 40
0.0
 40
0.0
 40
0.0497884573626106
 40
0.1520626953526053
 40
0.2542931679105417
 40
0.3525326664708925
 40
0.4508084200367184
 40
0.554327393413406
 40
0.6578565275353613
 40
0.7740307271289425
 40
0.8901694733964505
 40
0.9999988953086805
 40
1.0
 40
1.0
 40
1.0
 40
1.0
 10
2090.512587570466
 20
1370.522312986432
 30
0.0
 10
2090.503392912875
 20
1370.537973882626
 30
0.0
 10
2090.475310813325
 20
1370.585805010825
 30
0.0
 10
2090.041517723962
 20
1370.671012979855
 30
0.0
 10
2088.525574155244
 20
1370.726583919709
 30
0.0
 10
2086.165603119757
 20
1370.790977621756
 30
0.0
 10
2083.076134791525
 20
1370.816067274369
 30
0.0
 10
2079.261605365278
 20
1370.804916467547
 30
0.0
 10
2074.628126737887
 20
1370.758019803668
 30
0.0
 10
2069.255360724115
 20
1370.679138467027
 30
0.0
 10
2063.354002112224
 20
1370.55386714634
 30
0.0
 10
2059.282622439411
 20
1370.429507556672
 30
0.0
 10
2057.298509940251
 20
1370.362078626137
 30
0.0
 10
2057.29848998376
 20
1370.362077947927
 30
0.0
  0
SPLINE
  5
358
330
1F
100
AcDbEntity
  8
0
  6
Continuous
 62
     8
370
    18
100
AcDbSpline
210
0.0
220
0.0
230
1.0
 70
     8
 71
     3
 72
    10
 73
     6
 74
     0
 42
0.000000001
 43
0.00000001
 40
0.0
 40
0.0
 40
0.0
 40
0.0
 40
0.0305940752880868
 40
0.8849546452569753
 40
1.0
 40
1.0
 40
1.0
 40
1.0
 10
2023.734716240352
 20
1419.867983571374
 30
0.0
 10
2023.697624006868
 20
1419.759545329198
 30
0.0
 10
2022.624705671682
 20
1416.62289467924
 30
0.0
 10
2021.564305921898
 20
1413.025108215802
 30
0.0
 10
2020.666664549707
 20
1409.506596545352
 30
0.0
 10
2020.560135935157
 20
1409.089033156295
 30
0.0
  0
SPLINE
  5
359
330
1F
100
AcDbEntity
  8
0
  6
Continuous
 62
     8
370
    18
100
AcDbSpline
210
0.0
220
0.0
230
1.0
 70
     8
 71
     3
 72
    11
 73
     7
 74
     0
 42
0.000000001
 43
0.00000001
 40
0.0
 40
0.0
 40
0.0
 40
0.0
 40
0.2986044395547385
 40
0.578510769779567
 40
0.9999675635113832
 40
0.9999999999999999
 40
0.9999999999999999
 40
0.9999999999999999
 40
0.9999999999999999
 10
2025.625480821969
 20
1425.023667900952
 30
0.0
 10
2025.625547404021
 20
1425.017831821845
 30
0.0
 10
2025.62567639887
 20
1425.006525109119
 30
0.0
 10
2025.545995190562
 20
1424.833091160996
 30
0.0
 10
2025.458921455249
 20
1424.627386255803
 30
0.0
 10
2025.405866815283
 20
1424.482152204128
 30
0.0
 10
2025.405862732365
 20
1424.482141027371
 30
0.0
  0
LINE
  5
35A
330
1F
100
AcDbEntity
  8
0
  6
Continuous
 62
     8
370
    18
100
AcDbLine
 10
2025.4689135757
 20
1424.9007469808
 30
0.0
 11
2025.625480822
 21
1425.023667901
 31
0.0
  0
SPLINE
  5
35B
330
1F
100
AcDbEntity
  8
0
  6
Continuous
 62
     8
370
    18
100
AcDbSpline
210
0.0
220
0.0
230
1.0
 70
     8
 71
     3
 72
    18
 73
    14
 74
     0
 42
0.000000001
 43
0.00000001
 40
0.0
 40
0.0
 40
0.0
 40
0.0
 40
0.0497884573626104
 40
0.1520626953526046
 40
0.254293167910539
 40
0.35253266647089
 40
0.4508084200367164
 40
0.5543273934134042
 40
0.65785652753536
 40
0.774030727128942
 40
0.8901694733964506
 40
0.9999988953086806
 40
1.0
 40
1.0
 40
1.0
 40
1.0
 10
2024.084392397056
 20
1370.522312986432
 30
0.0
 10
2024.093587054647
 20
1370.537973882626
 30
0.0
 10
2024.121669154197
 20
1370.585805010824
 30
0.0
 10
2024.55546224356
 20
1370.671012979855
 30
0.0
 10
2026.071405812277
 20
1370.726583919709
 30
0.0
 10
2028.431376847764
 20
1370.790977621755
 30
0.0
 10
2031.520845175996
 20
1370.816067274367
 30
0.0
 10
2035.335374602241
 20
1370.804916467553
 30
0.0
 10
2039.968853229641
 20
1370.758019803644
 30
0.0
 10
2045.341619243379
 20
1370.679138467127
 30
0.0
 10
2051.242977855394
 20
1370.553867145971
 30
0.0
 10
2055.31435752791
 20
1370.429507557418
 30
0.0
 10
2057.29847002727
 20
1370.362078626137
 30
0.0
 10
2057.29848998376
 20
1370.362077947927
 30
0.0
  0
LINE
  5
35C
330
1F
100
AcDbEntity
  8
0
  6
Continuous
 62
     8
370
    18
100
AcDbLine
 10
2023.1670388748
 20
1372.5255470319
 30
0.0
 11
2024.0843923971
 21
1370.5223129864
 31
0.0
  0
LINE
  5
35D
330
1F
100
AcDbEntity
  8
0
  6
Continuous
 62
     8
370
    18
100
AcDbLine
 10
2090.5125875705
 20
1370.5223129864
 30
0.0
 11
2090.4354664877
 21
1370.3652011269
 31
0.0
  0
SPLINE
  5
35E
330
1F
100
AcDbEntity
  8
0
  6
Continuous
 62
     8
370
    18
100
AcDbSpline
210
0.0
220
0.0
230
1.0
 70
     8
 71
     3
 72
    14
 73
    10
 74
     0
 42
0.000000001
 43
0.00000001
 40
0.0
 40
0.0
 40
0.0
 40
0.0
 40
0.2135072054013606
 40
0.6517504153255622
 40
0.8731400298126234
 40
0.9340362681777998
 40
0.9607431005770671
 40
0.9801118651181869
 40
0.9999999999999999
 40
0.9999999999999999
 40
0.9999999999999999
 40
0.9999999999999999
 10
2090.435466487742
 20
1370.365201126917
 30
0.0
 10
2090.108581355793
 20
1369.771332258388
 30
0.0
 10
2089.110734373951
 20
1367.9584928229
 30
0.0
 10
2087.209408162293
 20
1365.904468860818
 30
0.0
 10
2085.367272083021
 20
1364.573012468188
 30
0.0
 10
2084.622259466874
 20
1364.122441897728
 30
0.0
 10
2084.437114650955
 20
1364.013562588881
 30
0.0
 10
2084.371225229208
 20
1363.974116650415
 30
0.0
 10
2084.373002313155
 20
1363.973496926078
 30
0.0
 10
2084.373902610575
 20
1363.97318296442
 30
0.0
  0
SPLINE
  5
35F
330
1F
100
AcDbEntity
  8
0
  6
Continuous
 62
     8
370
    18
100
AcDbSpline
210
0.0
220
0.0
230
1.0
 70
     8
 71
     3
 72
    11
 73
     7
 74
     0
 42
0.000000001
 43
0.00000001
 40
0.0
 40
0.0
 40
0.0
 40
0.0
 40
0.1603195048274613
 40
0.4536136580763054
 40
0.7293958077657123
 40
0.9999999999999999
 40
0.9999999999999999
 40
0.9999999999999999
 40
0.9999999999999999
 10
2084.889340250836
 20
1364.191701005872
 30
0.0
 10
2084.893182662833
 20
1364.19374489848
 30
0.0
 10
2084.904054518779
 20
1364.19952796027
 30
0.0
 10
2084.982179243094
 20
1364.245575688692
 30
0.0
 10
2085.109036538813
 20
1364.321360902753
 30
0.0
 10
2085.216282191539
 20
1364.390176641943
 30
0.0
 10
2085.269396848696
 20
1364.424258437346
 30
0.0
  0
SPLINE
  5
360
330
1F
100
AcDbEntity
  8
0
  6
Continuous
 62
     8
370
    18
100
AcDbSpline
210
0.0
220
0.0
230
1.0
 70
     8
 71
     3
 72
    14
 73
    10
 74
     0
 42
0.000000001
 43
0.00000001
 40
0.0
 40
0.0
 40
0.0
 40
0.0
 40
0.2135072054014827
 40
0.6517504153255874
 40
0.873140029812633
 40
0.9340362681778049
 40
0.9607431005770702
 40
0.9801118651181884
 40
1.0
 40
1.0
 40
1.0
 40
1.0
 10
2024.161513479778
 20
1370.36520112692
 30
0.0
 10
2024.488398611728
 20
1369.77133225839
 30
0.0
 10
2025.486245593572
 20
1367.958492822899
 30
0.0
 10
2027.387571805228
 20
1365.904468860818
 30
0.0
 10
2029.2297078845
 20
1364.573012468188
 30
0.0
 10
2029.974720500646
 20
1364.122441897727
 30
0.0
 10
2030.159865316566
 20
1364.013562588881
 30
0.0
 10
2030.225754738314
 20
1363.974116650415
 30
0.0
 10
2030.223977654365
 20
1363.973496926078
 30
0.0
 10
2030.223077356946
 20
1363.97318296442
 30
0.0
  0
LINE
  5
361
330
1F
100
AcDbEntity
  8
0
  6
Continuous
 62
     8
370
    18
100
AcDbLine
 10
2024.0843923971
 20
1370.5223129864
 30
0.0
 11
2024.1615134798
 21
1370.3652011269
 31
0.0
  0
SPLINE
  5
362
330
1F
100
AcDbEntity
  8
0
  6
Continuous
 62
     8
370
    18
100
AcDbSpline
210
0.0
220
0.0
230
1.0
 70
     8
 71
     3
 72
     9
 73
     5
 74
     0
 42
0.000000001
 43
0.00000001
 40
0.0
 40
0.0
 40
0.0
 40
0.0
 40
0.4374209942400509
 40
1.0
 40
1.0
 40
1.0
 40
1.0
 10
2029.707639716686
 20
1364.191701005872
 30
0.0
 10
2029.70443535443
 20
1364.193355366234
 30
0.0
 10
2029.69710977496
 20
1364.197137444333
 30
0.0
 10
2029.655159125365
 20
1364.22194697798
 30
0.0
 10
2029.631558570625
 20
1364.235904300753
 30
0.0
  0
LINE
  5
363
330
1F
100
AcDbEntity
  8
0
  6
Continuous
 62
     8
370
    18
100
AcDbLine
 10
2029.4622976438
 20
1364.3386044634
 30
0.0
 11
2029.3367743256
 21
1364.418414499
 31
0.0
  0
LWPOLYLINE
  5
364
330
1F
100
AcDbEntity
  8
0
  6
Continuous
 62
     8
370
    18
100
AcDbPolyline
 90
        9
 70
   128
 43
0.0
 10
2023.1670388748
 20
1372.5255470319
 10
2023.1501035124
 20
1372.518180324
 10
2023.1115701185
 20
1372.5014718676
 10
2023.0517429129
 20
1372.4755535752
 10
2022.9710942294
 20
1372.4406300709
 10
2022.8702607865
 20
1372.3969770746
 10
2022.7500386607
 20
1372.3449392251
 10
2022.6113770015
 20
1372.2849273594
 10
2022.4553705379
 20
1372.2174152692
  0
SPLINE
  5
365
330
1F
100
AcDbEntity
  8
0
  6
Continuous
 62
     8
370
    18
100
AcDbSpline
210
0.0
220
0.0
230
1.0
 70
     8
 71
     3
 72
    14
 73
    10
 74
     0
 42
0.000000001
 43
0.00000001
 40
0.0
 40
0.0
 40
0.0
 40
0.0
 40
0.1277343155302462
 40
0.2554736424753196
 40
0.3815295141037282
 40
0.5075900262814175
 40
0.7106819552125423
 40
0.9137761853290178
 40
1.0
 40
1.0
 40
1.0
 40
1.0
 10
2022.455370537904
 20
1372.217415269182
 30
0.0
 10
2021.856129003055
 20
1373.71316829301
 30
0.0
 10
2020.657622423246
 20
1376.704733023713
 30
0.0
 10
2019.370221940117
 20
1381.348668344471
 30
0.0
 10
2018.460881122651
 20
1386.054568431506
 30
0.0
 10
2017.849659776286
 20
1391.767683165412
 30
0.0
 10
2017.862422426294
 20
1398.494720696594
 30
0.0
 10
2018.637520393948
 20
1404.676553351241
 30
0.0
 10
2019.485311429936
 20
1408.224728923163
 30
0.0
 10
2019.73797378019
 20
1409.282171548832
 30
0.0
  0
ARC
  5
366
330
1F
100
AcDbEntity
  8
0
  6
Continuous
 62
     8
370
    18
100
AcDbCircle
 10
2025.0935957137
 20
1430.2337964071
 30
0.0
 40
21.62529237948025
100
AcDbArc
 50
255.6611818031
 51
257.8989240717
  0
SPLINE
  5
367
330
1F
100
AcDbEntity
  8
0
  6
Continuous
 62
     8
370
    18
100
AcDbSpline
210
0.0
220
0.0
230
1.0
 70
     8
 71
     3
 72
    14
 73
    10
 74
     0
 42
0.000000001
 43
0.00000001
 40
0.0
 40
0.0
 40
0.0
 40
0.0
 40
0.127247386060472
 40
0.2554745767697357
 40
0.3810919869018173
 40
0.5075916090131538
 40
0.708960736825627
 40
0.9137762176246971
 40
0.9999999999999999
 40
0.9999999999999999
 40
0.9999999999999999
 40
0.9999999999999999
 10
2092.141609429617
 20
1372.217415269182
 30
0.0
 10
2092.738925283885
 20
1373.707324633112
 30
0.0
 10
2093.938156323448
 20
1376.698615660455
 30
0.0
 10
2095.223787208003
 20
1381.337378271747
 30
0.0
 10
2096.135867104142
 20
1386.048954265226
 30
0.0
 10
2096.744854770257
 20
1391.740584591214
 30
0.0
 10
2096.735406715854
 20
1398.47265171851
 30
0.0
 10
2095.964523702338
 20
1404.65545464471
 30
0.0
 10
2095.111673133512
 20
1408.224731557932
 30
0.0
 10
2094.859006187331
 20
1409.282171548832
 30
0.0
  0
LWPOLYLINE
  5
368
330
1F
100
AcDbEntity
  8
0
  6
Continuous
 62
     8
370
    18
100
AcDbPolyline
 90
        9
 70
   128
 43
0.0
 10
2091.4299410927
 20
1372.5255470319
 10
2091.4468764551
 20
1372.518180324
 10
2091.4854098491
 20
1372.5014718676
 10
2091.5452370546
 20
1372.4755535752
 10
2091.6258857381
 20
1372.4406300709
 10
2091.726719181
 20
1372.3969770746
 10
2091.8469413068
 20
1372.3449392251
 10
2091.985602966
 20
1372.2849273594
 10
2092.1416094296
 20
1372.2174152692
  0
ARC
  5
369
330
1F
100
AcDbEntity
  8
0
  6
Continuous
 62
     8
370
    18
100
AcDbCircle
 10
2089.5033842535
 20
1430.2337964084
 30
0.0
 40
21.62529238080468
100
AcDbArc
 50
282.1010759284
 51
284.3388181969
  0
SPLINE
  5
36A
330
1F
100
AcDbEntity
  8
0
  6
Continuous
 62
     8
370
    18
100
AcDbSpline
210
0.0
220
0.0
230
1.0
 70
     8
 71
     3
 72
    17
 73
    13
 74
     0
 42
0.000000001
 43
0.00000001
 40
0.0
 40
0.0
 40
0.0
 40
0.0
 40
0.0045109817899505
 40
0.0089278415503376
 40
0.013079768427763
 40
0.0177777921768898
 40
0.0339670776357901
 40
0.084060007251606
 40
0.3047425979556582
 40
0.7692822253149076
 40
0.827320084374796
 40
1.0
 40
1.0
 40
1.0
 40
1.0
 10
2084.6676152899
 20
1364.116641938118
 30
0.0
 10
2084.663296001961
 20
1364.114878149307
 30
0.0
 10
2084.654747548405
 20
1364.111387373293
 30
0.0
 10
2084.655940007153
 20
1364.113101909089
 30
0.0
 10
2084.670789103448
 20
1364.121422814939
 30
0.0
 10
2084.71772771502
 20
1364.146092866376
 30
0.0
 10
2084.900072240895
 20
1364.239305058187
 30
0.0
 10
2085.668079297157
 20
1364.643248999514
 30
0.0
 10
2087.564995080304
 20
1365.834362368764
 30
0.0
 10
2089.20897019363
 20
1367.431474895337
 30
0.0
 10
2090.477628048936
 20
1369.118124732276
 30
0.0
 10
2090.843223316394
 20
1369.71625661003
 30
0.0
 10
2091.116851822146
 20
1370.163926332591
 30
0.0
  0
ARC
  5
36B
330
1F
100
AcDbEntity
  8
0
  6
Continuous
 62
     8
370
    18
100
AcDbCircle
 10
2085.8216899689
 20
1361.3814336514
 30
0.0
 40
2.968712302763383
100
AcDbArc
 50
112.8764869257
 51
119.1883353828
  0
ARC
  5
36C
330
1F
100
AcDbEntity
  8
0
  6
Continuous
 62
     8
370
    18
100
AcDbCircle
 10
2090.3042805944
 20
1368.667090326
 30
0.0
 40
1.703170581845338
100
AcDbArc
 50
61.5042694372
 51
85.582444766
  0
ARC
  5
36D
330
1F
100
AcDbEntity
  8
0
  6
Continuous
 62
     8
370
    18
100
AcDbCircle
 10
2028.7752899986
 20
1361.3814336513
 30
0.0
 40
2.968712302796107
100
AcDbArc
 50
60.8116646173
 51
67.1235130743
  0
SPLINE
  5
36E
330
1F
100
AcDbEntity
  8
0
  6
Continuous
 62
     8
370
    18
100
AcDbSpline
210
0.0
220
0.0
230
1.0
 70
     8
 71
     3
 72
    17
 73
    13
 74
     0
 42
0.000000001
 43
0.00000001
 40
0.0
 40
0.0
 40
0.0
 40
0.0
 40
0.004510981789951
 40
0.0089278415503384
 40
0.0130797684277643
 40
0.0177777921768912
 40
0.0339670776357927
 40
0.0840600072516122
 40
0.3047425979556794
 40
0.7692822253148899
 40
0.8273200843747813
 40
1.0
 40
1.0
 40
1.0
 40
1.0
 10
2029.929364677621
 20
1364.116641938118
 30
0.0
 10
2029.93368396556
 20
1364.114878149307
 30
0.0
 10
2029.942232419116
 20
1364.111387373292
 30
0.0
 10
2029.941039960367
 20
1364.113101909089
 30
0.0
 10
2029.926190864073
 20
1364.121422814939
 30
0.0
 10
2029.8792522525
 20
1364.146092866375
 30
0.0
 10
2029.696907726626
 20
1364.239305058187
 30
0.0
 10
2028.928900670365
 20
1364.643248999513
 30
0.0
 10
2027.031984887217
 20
1365.834362368764
 30
0.0
 10
2025.388009773892
 20
1367.431474895337
 30
0.0
 10
2024.119351918585
 20
1369.118124732276
 30
0.0
 10
2023.753756651128
 20
1369.71625661003
 30
0.0
 10
2023.480128145376
 20
1370.163926332591
 30
0.0
  0
ARC
  5
36F
330
1F
100
AcDbEntity
  8
0
  6
Continuous
 62
     8
370
    18
100
AcDbCircle
 10
2024.2926993731
 20
1368.667090326
 30
0.0
 40
1.703170581852107
100
AcDbArc
 50
94.4175552344
 51
118.4957305629
  0
SPLINE
  5
370
330
1F
100
AcDbEntity
  8
0
  6
Continuous
 62
     8
370
    18
100
AcDbSpline
210
0.0
220
0.0
230
1.0
 70
     8
 71
     3
 72
    10
 73
     6
 74
     0
 42
0.000000001
 43
0.00000001
 40
0.0
 40
0.0
 40
0.0
 40
0.0
 40
0.0049102993503902
 40
0.115164344171703
 40
1.0
 40
1.0
 40
1.0
 40
1.0
 10
2019.73797378019
 20
1409.282171548832
 30
0.0
 10
2019.742603860217
 20
1409.300107110918
 30
0.0
 10
2019.851196044061
 20
1409.720761147983
 30
0.0
 10
2020.809941640573
 20
1413.369550773156
 30
0.0
 10
2021.963376863601
 20
1416.943493063382
 30
0.0
 10
2022.989013659316
 20
1420.121449350337
 30
0.0
  0
ARC
  5
371
330
1F
100
AcDbEntity
  8
0
  6
Continuous
 62
     8
370
    18
100
AcDbCircle
 10
2057.3353280278
 20
1519.9454838095
 30
0.0
 40
105.5675478848107
100
AcDbArc
 50
251.0132691526
 51
251.4407337295
  0
ARC
  5
372
330
1F
100
AcDbEntity
  8
0
  6
Continuous
 62
     8
370
    18
100
AcDbCircle
 10
2057.2616519389
 20
1519.9454838118
 30
0.0
 40
105.5675478871792
100
AcDbArc
 50
288.5592662705
 51
288.9867308475
  0
SPLINE
  5
373
330
1F
100
AcDbEntity
  8
0
  6
Continuous
 62
     8
370
    18
100
AcDbSpline
210
0.0
220
0.0
230
1.0
 70
     8
 71
     3
 72
    10
 73
     6
 74
     0
 42
0.000000001
 43
0.00000001
 40
0.0
 40
0.0
 40
0.0
 40
0.0
 40
0.0049102993503903
 40
0.1151643441716843
 40
1.0
 40
1.0
 40
1.0
 40
1.0
 10
2094.859006187331
 20
1409.282171548832
 30
0.0
 10
2094.854376107304
 20
1409.300107110918
 30
0.0
 10
2094.74578392346
 20
1409.720761147983
 30
0.0
 10
2093.787038326951
 20
1413.369550773157
 30
0.0
 10
2092.633603103922
 20
1416.943493063382
 30
0.0
 10
2091.607966308206
 20
1420.121449350338
 30
0.0
  0
ARC
  5
374
330
1F
100
AcDbEntity
  8
0
  6
Continuous
 62
     8
370
    18
100
AcDbCircle
 10
2091.6026540779
 20
1426.4495597705
 30
0.0
 40
2.992681724127492
100
AcDbArc
 50
208.4544255779
 51
226.4525487523
  0
SPLINE
  5
375
330
1F
100
AcDbEntity
  8
0
  6
Continuous
 62
     8
370
    18
100
AcDbSpline
210
0.0
220
0.0
230
1.0
 70
     8
 71
     3
 72
    15
 73
    11
 74
     0
 42
0.000000001
 43
0.00000001
 40
0.0
 40
0.0
 40
0.0
 40
0.0
 40
0.3092031051605972
 40
0.6638382552574982
 40
0.8039861739636707
 40
0.9077221477257726
 40
0.9361281220494162
 40
0.9546919441403818
 40
0.9789089794125909
 40
1.0
 40
1.0
 40
1.0
 40
1.0
 10
2091.607966308206
 20
1420.121449350338
 30
0.0
 10
2091.42400683949
 20
1420.609168860066
 30
0.0
 10
2091.029058241911
 20
1421.656269820533
 30
0.0
 10
2090.379520578635
 20
1422.857455723223
 30
0.0
 10
2089.879039741071
 20
1423.713533403768
 30
0.0
 10
2089.656343240472
 20
1424.075663072756
 30
0.0
 10
2089.561174916212
 20
1424.225005770209
 30
0.0
 10
2089.531901369361
 20
1424.274365113634
 30
0.0
 10
2089.523266895645
 20
1424.295166834859
 30
0.0
 10
2089.535251796572
 20
1424.285126000264
 30
0.0
 10
2089.54083079985
 20
1424.280451965036
 30
0.0
  0
SPLINE
  5
376
330
1F
100
AcDbEntity
  8
0
  6
Continuous
 62
     8
370
    18
100
AcDbSpline
210
0.0
220
0.0
230
1.0
 70
     8
 71
     3
 72
    15
 73
    11
 74
     0
 42
0.000000001
 43
0.00000001
 40
0.0
 40
0.0
 40
0.0
 40
0.0
 40
0.3092031051605198
 40
0.6638382552574117
 40
0.8039861739636751
 40
0.9077221477257748
 40
0.9361281220494176
 40
0.9546919441403828
 40
0.9789089794125915
 40
1.0
 40
1.0
 40
1.0
 40
1.0
 10
2022.989013659316
 20
1420.121449350337
 30
0.0
 10
2023.172973128031
 20
1420.609168860066
 30
0.0
 10
2023.56792172561
 20
1421.656269820533
 30
0.0
 10
2024.217459388885
 20
1422.857455723223
 30
0.0
 10
2024.717940226451
 20
1423.713533403767
 30
0.0
 10
2024.940636727049
 20
1424.075663072755
 30
0.0
 10
2025.03580505131
 20
1424.225005770209
 30
0.0
 10
2025.06507859816
 20
1424.274365113634
 30
0.0
 10
2025.073713071876
 20
1424.295166834859
 30
0.0
 10
2025.06172817095
 20
1424.285126000264
 30
0.0
 10
2025.056149167672
 20
1424.280451965036
 30
0.0
  0
ARC
  5
377
330
1F
100
AcDbEntity
  8
0
  6
Continuous
 62
     8
370
    18
100
AcDbCircle
 10
2022.9943258896
 20
1426.4495597705
 30
0.0
 40
2.99268172408384
100
AcDbArc
 50
313.5474512476
 51
331.5455744223
  0
LINE
  5
378
330
1F
100
AcDbEntity
  8
0
  6
Continuous
 62
     8
370
    18
100
AcDbLine
 10
2091.2095183916
 20
1370.3274635094
 30
0.0
 11
2092.1416094296
 21
1372.2174152692
 31
0.0
  0
ARC
  5
379
330
1F
100
AcDbEntity
  8
0
  6
Continuous
 62
     8
370
    18
100
AcDbCircle
 10
2090.4120833269
 20
1368.8190292306
 30
0.0
 40
1.706246364314614
100
AcDbArc
 50
62.1367925984
 51
86.6231112419
  0
ARC
  5
37A
330
1F
100
AcDbEntity
  8
0
  6
Continuous
 62
     8
370
    18
100
AcDbCircle
 10
2024.1848966406
 20
1368.8190292306
 30
0.0
 40
1.70624636431095
100
AcDbArc
 50
93.376888758
 51
117.8632074016
  0
LINE
  5
37B
330
1F
100
AcDbEntity
  8
0
  6
Continuous
 62
     8
370
    18
100
AcDbLine
 10
2023.3874615759
 20
1370.3274635094
 30
0.0
 11
2022.4553705379
 21
1372.2174152692
 31
0.0
  0
ARC
  5
37C
330
1F
100
AcDbEntity
  8
0
  6
Continuous
 62
     8
370
    18
100
AcDbCircle
 10
2091.6304190416
 20
1421.8679845068
 30
0.0
 40
12.99332377686495
100
AcDbArc
 50
284.3876121929
 51
286.8712772964
  0
ARC
  5
37D
330
1F
100
AcDbEntity
  8
0
  6
Continuous
 62
     8
370
    18
100
AcDbCircle
 10
2103.0432572025
 20
1397.412710956
 30
0.0
 40
27.45266560660007
100
AcDbArc
 50
246.6025480368
 51
247.6829243032
  0
ARC
  5
37E
330
1F
100
AcDbEntity
  8
0
  6
Continuous
 62
     8
370
    18
100
AcDbCircle
 10
2022.9665609258
 20
1421.8679845063
 30
0.0
 40
12.99332377637201
100
AcDbArc
 50
253.1287227035
 51
255.6123878072
  0
ARC
  5
37F
330
1F
100
AcDbEntity
  8
0
  6
Continuous
 62
     8
370
    18
100
AcDbCircle
 10
2011.5537227674
 20
1397.4127109504
 30
0.0
 40
27.45266560056648
100
AcDbArc
 50
292.3170756967
 51
293.3974519633
  0
LINE
  5
380
330
1F
100
AcDbEntity
  8
0
  6
Continuous
 62
     8
370
    18
100
AcDbLine
 10
2023.4801281454
 20
1370.1639263326
 30
0.0
 11
2023.3874615759
 21
1370.3274635094
 31
0.0
  0
LINE
  5
381
330
1F
100
AcDbEntity
  8
0
  6
Continuous
 62
     8
370
    18
100
AcDbLine
 10
2091.1168518221
 20
1370.1639263326
 30
0.0
 11
2091.2095183916
 21
1370.3274635094
 31
0.0
  0
ARC
  5
382
330
1F
100
AcDbEntity
  8
0
  6
Continuous
 62
     8
370
    18
100
AcDbCircle
 10
2090.5828940654
 20
1369.2243094285
 30
0.0
 40
1.080736236293109
100
AcDbArc
 50
35.0981925255
 51
60.3916535261
  0
ARC
  5
383
330
1F
100
AcDbEntity
  8
0
  6
Continuous
 62
     8
370
    18
100
AcDbCircle
 10
2024.0140859021
 20
1369.2243094285
 30
0.0
 40
1.080736236300656
100
AcDbArc
 50
119.6083464739
 51
144.9018074744
  0
ARC
  5
384
330
1F
100
AcDbEntity
  8
0
  6
Continuous
 62
     8
370
    18
100
AcDbCircle
 10
2064.7820520346
 20
1541.4907399611
 30
0.0
 40
128.363401170289
100
AcDbArc
 50
250.7644365914
 51
250.9990545453
  0
ARC
  5
385
330
1F
100
AcDbEntity
  8
0
  6
Continuous
 62
     8
370
    18
100
AcDbCircle
 10
2049.8149279456
 20
1541.4907399245
 30
0.0
 40
128.3634011315606
100
AcDbArc
 50
289.0009454547
 51
289.2355634086
  0
ARC
  5
386
330
1F
100
AcDbEntity
  8
0
  6
Continuous
 62
     8
370
    18
100
AcDbCircle
 10
2028.1743775685
 20
1361.6208668914
 30
0.0
 40
2.9933394159794
100
AcDbArc
 50
59.1878754258
 51
65.0637682689
  0
ARC
  5
387
330
1F
100
AcDbEntity
  8
0
  6
Continuous
 62
     8
370
    18
100
AcDbCircle
 10
2086.4226023991
 20
1361.6208668914
 30
0.0
 40
2.993339415967389
100
AcDbArc
 50
114.9362317311
 51
120.8121245742
  0
ARC
  5
388
330
1F
100
AcDbEntity
  8
0
  6
Continuous
 62
     8
370
    18
100
AcDbCircle
 10
2022.8018099397
 20
1426.270839936
 30
0.0
 40
2.998432342251674
100
AcDbArc
 50
314.7050712486
 51
332.8104033969
  0
ARC
  5
389
330
1F
100
AcDbEntity
  8
0
  6
Continuous
 62
     8
370
    18
100
AcDbCircle
 10
2091.7951700278
 20
1426.2708399361
 30
0.0
 40
2.998432342273143
100
AcDbArc
 50
207.1895966032
 51
225.2949287514
  0
SPLINE
  5
38A
330
1F
100
AcDbEntity
  8
0
  6
Continuous
 62
     8
370
    18
100
AcDbSpline
210
0.0
220
0.0
230
1.0
 70
     8
 71
     3
 72
    14
 73
    10
 74
     0
 42
0.000000001
 43
0.00000001
 40
0.0
 40
0.0
 40
0.0
 40
0.0
 40
0.1092374782648812
 40
0.2581253635230496
 40
0.4079301969031659
 40
0.5608445870782538
 40
0.7149451852848073
 40
0.9256729043329394
 40
1.0
 40
1.0
 40
1.0
 40
1.0
 10
2092.465213872164
 20
1371.159315446656
 30
0.0
 10
2092.635116993601
 20
1371.543906661772
 30
0.0
 10
2093.036593718269
 20
1372.452685853551
 30
0.0
 10
2093.646917879126
 20
1373.992030727771
 30
0.0
 10
2094.284154009601
 20
1375.791466992961
 30
0.0
 10
2094.878839675106
 20
1377.710254556394
 30
0.0
 10
2095.474286413424
 20
1379.988803411508
 30
0.0
 10
2095.925396119946
 20
1381.995814274403
 30
0.0
 10
2096.124961155048
 20
1383.352761022775
 30
0.0
 10
2096.176997074773
 20
1383.706580378122
 30
0.0
  0
LWPOLYLINE
  5
38B
330
1F
100
AcDbEntity
  8
0
  6
Continuous
 62
     8
370
    18
100
AcDbPolyline
 90
        3
 70
   128
 43
0.0
 10
2092.4652138722
 20
1371.1593154467
 10
2092.1455172015
 20
1371.1687302555
 10
2092.1263888044
 20
1371.1682797405
  0
LWPOLYLINE
  5
38C
330
1F
100
AcDbEntity
  8
0
  6
Continuous
 62
     8
370
    18
100
AcDbPolyline
 90
        9
 70
   128
 43
0.0
 10
2092.4652138722
 20
1371.1593154467
 10
2094.41254877
 20
1371.7020258643
 10
2096.215381289
 20
1372.4640340498
 10
2097.8273076422
 20
1373.4257263868
 10
2099.2068378486
 20
1374.5623495131
 10
2100.3184636592
 20
1375.8446474569
 10
2101.1335725178
 20
1377.2396146672
 10
2101.6311840295
 20
1378.7113455564
 10
2101.7984899838
 20
1380.2219586873
  0
SPLINE
  5
38D
330
1F
100
AcDbEntity
  8
0
  6
Continuous
 62
     8
370
    18
100
AcDbSpline
210
0.0
220
0.0
230
1.0
 70
     8
 71
     3
 72
     9
 73
     5
 74
     0
 42
0.000000001
 43
0.00000001
 40
0.0
 40
0.0
 40
0.0
 40
0.0
 40
0.5770474436019699
 40
1.0
 40
1.0
 40
1.0
 40
1.0
 10
2088.798489983761
 20
1365.932069656513
 30
0.0
 10
2089.589779504537
 20
1366.786865821172
 30
0.0
 10
2090.961052403412
 20
1368.268193178459
 30
0.0
 10
2092.018123113176
 20
1370.299970172848
 30
0.0
 10
2092.465213872164
 20
1371.159315446656
 30
0.0
  0
SPLINE
  5
38E
330
1F
100
AcDbEntity
  8
0
  6
Continuous
 62
     8
370
    18
100
AcDbSpline
210
0.0
220
0.0
230
1.0
 70
     8
 71
     3
 72
    10
 73
     6
 74
     0
 42
0.000000001
 43
0.00000001
 40
0.0
 40
0.0
 40
0.0
 40
0.0
 40
0.3947082167602302
 40
0.7987089853919173
 40
1.0
 40
1.0
 40
1.0
 40
1.0
 10
2088.798489983761
 20
1365.932069656513
 30
0.0
 10
2087.655119443286
 20
1365.202002942683
 30
0.0
 10
2085.341460174156
 20
1363.724681672157
 30
0.0
 10
2082.171591613551
 20
1362.604224609888
 30
0.0
 10
2080.202751586722
 20
1362.43930183116
 30
0.0
 10
2079.54800982816
 20
1362.384456425388
 30
0.0
  0
LWPOLYLINE
  5
38F
330
1F
100
AcDbEntity
  8
0
  6
Continuous
 62
     8
370
    18
100
AcDbPolyline
 90
       10
 70
   128
 43
0.0
 10
2101.7984899838
 20
1376.9309528086
 10
2101.6009907729
 20
1375.0210167929
 10
2101.014494054
 20
1373.1691132165
 10
2100.056820233
 20
1371.4315112326
 10
2098.7570677443
 20
1369.8610069981
 10
2097.1547289097
 20
1368.5053194894
 10
2095.2984899838
 20
1367.4056405856
 10
2093.244751847
 20
1366.5953834737
 10
2091.0559162934
 20
1366.0991674059
 10
2088.7984899838
 20
1365.9320696565
  0
LINE
  5
390
330
1F
100
AcDbEntity
  8
0
  6
Continuous
 62
     8
370
    18
100
AcDbLine
 10
2088.7984899838
 20
1362.0760714227
 30
0.0
 11
2088.7984899838
 21
1365.9320696565
 31
0.0
  0
SPLINE
  5
391
330
1F
100
AcDbEntity
  8
0
  6
Continuous
 62
     8
370
    18
100
AcDbSpline
210
0.0
220
0.0
230
1.0
 70
     8
 71
     3
 72
    17
 73
    13
 74
     0
 42
0.000000001
 43
0.00000001
 40
0.0
 40
0.0
 40
0.0
 40
0.0
 40
0.2229912195096686
 40
0.5008176009795289
 40
0.6858965399870874
 40
0.866577165189906
 40
0.9279597470315037
 40
0.9497616361806115
 40
0.9717583090123122
 40
0.9770054670051183
 40
0.9922372900676586
 40
1.0
 40
1.0
 40
1.0
 40
1.0
 10
2027.599531431767
 20
1365.490595743631
 30
0.0
 10
2027.73527472088
 20
1365.39018228521
 30
0.0
 10
2028.040141560713
 20
1365.164662968966
 30
0.0
 10
2028.478673070636
 20
1364.885778427513
 30
0.0
 10
2028.894915699551
 20
1364.635157467702
 30
0.0
 10
2029.175502093341
 20
1364.47709408147
 30
0.0
 10
2029.342614249138
 20
1364.386251555642
 30
0.0
 10
2029.400600471802
 20
1364.354947223878
 30
0.0
 10
2029.422416402704
 20
1364.343143848403
 30
0.0
 10
2029.434239502961
 20
1364.336651884164
 30
0.0
 10
2029.43829665223
 20
1364.334336904143
 30
0.0
 10
2029.436876696757
 20
1364.334952246523
 30
0.0
 10
2029.436397334881
 20
1364.33515997957
 30
0.0
  0
LINE
  5
392
330
1F
100
AcDbEntity
  8
0
  6
Continuous
 62
     8
370
    18
100
AcDbLine
 10
2001.7984899838
 20
1443.5225099223
 30
0.0
 11
2001.7984899838
 21
1442.5225099223
 31
0.0
  0
LINE
  5
393
330
1F
100
AcDbEntity
  8
0
  6
Continuous
 62
     8
370
    18
100
AcDbLine
 10
2112.7984899838
 20
1442.5225099223
 30
0.0
 11
2112.7984899838
 21
1443.5225099223
 31
0.0
  0
LINE
  5
394
330
1F
100
AcDbEntity
  8
0
  6
Continuous
 62
     8
370
    18
100
AcDbLine
 10
2092.2984899838
 20
1454.5225099223
 30
0.0
 11
2022.2984899838
 21
1454.5225099223
 31
0.0
  0
ENDSEC
  0
SECTION
  2
OBJECTS
  0
DICTIONARY
  5
C
330
0
100
AcDbDictionary
281
     1
  3
ACAD_GROUP
350
D
  3
ACAD_LAYOUT
350
1A
  3
ACAD_MLINESTYLE
350
17
  3
ACAD_PLOTSETTINGS
350
19
  3
ACAD_PLOTSTYLENAME
350
E
  3
ACAD_SCALELIST
350
47
  0
DICTIONARY
  5
D
102
{ACAD_REACTORS
330
C
102
}
330
C
100
AcDbDictionary
281
     1
  0
DICTIONARY
  5
1A
102
{ACAD_REACTORS
330
C
102
}
330
C
100
AcDbDictionary
281
     1
  3
Layout1
350
1E
  3
Layout2
350
26
  3
Model
350
22
  0
DICTIONARY
  5
17
102
{ACAD_REACTORS
330
C
102
}
330
C
100
AcDbDictionary
281
     1
  3
Standard
350
18
  0
DICTIONARY
  5
19
102
{ACAD_REACTORS
330
C
102
}
330
C
100
AcDbDictionary
281
     1
  0
ACDBDICTIONARYWDFLT
  5
E
102
{ACAD_REACTORS
330
C
102
}
330
C
100
AcDbDictionary
281
     1
  3
Normal
350
F
100
AcDbDictionaryWithDefault
340
F
  0
DICTIONARY
  5
47
102
{ACAD_REACTORS
330
C
102
}
330
C
100
AcDbDictionary
281
     1
  3
A0
350
48
  3
A1
350
49
  3
A2
350
4A
  3
A3
350
4B
  3
A4
350
4C
  3
A5
350
4D
  3
A6
350
4E
  3
A7
350
4F
  3
A8
350
50
  3
A9
350
51
  3
B0
350
52
  3
B1
350
53
  3
B2
350
54
  3
B3
350
55
  3
B4
350
56
  3
B5
350
57
  3
B6
350
58
  3
B7
350
59
  3
B8
350
5A
  3
B9
350
5B
  3
C0
350
5C
  3
C1
350
5D
  3
C2
350
5E
  3
C3
350
5F
  3
C4
350
60
  3
C5
350
61
  3
C6
350
62
  3
C7
350
63
  3
C8
350
64
  3
C9
350
65
  3
D0
350
66
  3
D1
350
67
  3
D2
350
68
  0
LAYOUT
  5
1E
102
{ACAD_REACTORS
330
1A
102
}
330
1A
100
AcDbPlotSettings
  1

  2
none_device
  4

  6

 40
0.0
 41
0.0
 42
0.0
 43
0.0
 44
0.0
 45
0.0
 46
0.0
 47
0.0
 48
0.0
 49
0.0
140
0.0
141
0.0
142
1.0
143
1.0
 70
   688
 72
     1
 73
     0
 74
     5
  7

 75
    16
147
1.0
148
0.0
149
0.0
100
AcDbLayout
  1
Layout1
 70
     1
 71
     1
 10
0.0
 20
0.0
 11
420.0
 21
297.0
 12
0.0
 22
0.0
 32
0.0
 14
1.0000000000E+20
 24
1.0000000000E+20
 34
1.0000000000E+20
 15
-1.0000000000E+20
 25
-1.0000000000E+20
 35
-1.0000000000E+20
146
0.0
 13
0.0
 23
0.0
 33
0.0
 16
1.0
 26
0.0
 36
0.0
 17
0.0
 27
1.0
 37
0.0
 76
     0
330
1B
  0
LAYOUT
  5
26
102
{ACAD_REACTORS
330
1A
102
}
330
1A
100
AcDbPlotSettings
  1

  2
none_device
  4

  6

 40
0.0
 41
0.0
 42
0.0
 43
0.0
 44
0.0
 45
0.0
 46
0.0
 47
0.0
 48
0.0
 49
0.0
140
0.0
141
0.0
142
1.0
143
1.0
 70
   688
 72
     1
 73
     0
 74
     5
  7

 75
    16
147
1.0
148
0.0
149
0.0
100
AcDbLayout
  1
Layout2
 70
     1
 71
     2
 10
0.0
 20
0.0
 11
0.0
 21
0.0
 12
0.0
 22
0.0
 32
0.0
 14
0.0
 24
0.0
 34
0.0
 15
0.0
 25
0.0
 35
0.0
146
0.0
 13
0.0
 23
0.0
 33
0.0
 16
1.0
 26
0.0
 36
0.0
 17
0.0
 27
1.0
 37
0.0
 76
     0
330
23
  0
LAYOUT
  5
22
102
{ACAD_REACTORS
330
1A
102
}
330
1A
100
AcDbPlotSettings
  1

  2
none_device
  4
Letter_(8.50_x_11.00_Inches)
  6

 40
6.35
 41
6.35
 42
6.35000508
 43
6.35000508
 44
215.9
 45
279.4
 46
0.0
 47
0.0
 48
0.0
 49
0.0
140
0.0
141
0.0
142
1.0
143
1.0
 70
  1712
 72
     1
 73
     0
 74
     0
  7

 75
     0
147
1.0
148
0.0
149
0.0
100
AcDbLayout
  1
Model
 70
     1
 71
     0
 10
0.0
 20
0.0
 11
2970.0
 21
2100.0
 12
0.0
 22
0.0
 32
0.0
 14
0.0
 24
0.0
 34
0.0
 15
2970.0
 25
2100.0
 35
0.0
146
0.0
 13
0.0
 23
0.0
 33
0.0
 16
1.0
 26
0.0
 36
0.0
 17
0.0
 27
1.0
 37
0.0
 76
     0
330
1F
331
29
  0
MLINESTYLE
  5
18
102
{ACAD_REACTORS
330
17
102
}
330
17
100
AcDbMlineStyle
  2
Standard
 70
     0
  3

 62
   256
 51
90.0
 52
90.0
 71
     2
 49
0.5
 62
   256
  6
BYLAYER
 49
-0.5
 62
   256
  6
BYLAYER
  0
ACDBPLACEHOLDER
  5
F
102
{ACAD_REACTORS
330
E
102
}
330
E
  0
SCALE
  5
48
102
{ACAD_REACTORS
330
47
102
}
330
47
100
AcDbScale
 70
     0
300
1:1
140
1.0
141
1.0
290
     1
  0
SCALE
  5
49
102
{ACAD_REACTORS
330
47
102
}
330
47
100
AcDbScale
 70
     0
300
1:2
140
1.0
141
2.0
290
     0
  0
SCALE
  5
4A
102
{ACAD_REACTORS
330
47
102
}
330
47
100
AcDbScale
 70
     0
300
1:4
140
1.0
141
4.0
290
     0
  0
SCALE
  5
4B
102
{ACAD_REACTORS
330
47
102
}
330
47
100
AcDbScale
 70
     0
300
1:5
140
1.0
141
5.0
290
     0
  0
SCALE
  5
4C
102
{ACAD_REACTORS
330
47
102
}
330
47
100
AcDbScale
 70
     0
300
1:8
140
1.0
141
8.0
290
     0
  0
SCALE
  5
4D
102
{ACAD_REACTORS
330
47
102
}
330
47
100
AcDbScale
 70
     0
300
1:10
140
1.0
141
10.0
290
     0
  0
SCALE
  5
4E
102
{ACAD_REACTORS
330
47
102
}
330
47
100
AcDbScale
 70
     0
300
1:16
140
1.0
141
16.0
290
     0
  0
SCALE
  5
4F
102
{ACAD_REACTORS
330
47
102
}
330
47
100
AcDbScale
 70
     0
300
1:20
140
1.0
141
20.0
290
     0
  0
SCALE
  5
50
102
{ACAD_REACTORS
330
47
102
}
330
47
100
AcDbScale
 70
     0
300
1:30
140
1.0
141
30.0
290
     0
  0
SCALE
  5
51
102
{ACAD_REACTORS
330
47
102
}
330
47
100
AcDbScale
 70
     0
300
1:40
140
1.0
141
40.0
290
     0
  0
SCALE
  5
52
102
{ACAD_REACTORS
330
47
102
}
330
47
100
AcDbScale
 70
     0
300
1:50
140
1.0
141
50.0
290
     0
  0
SCALE
  5
53
102
{ACAD_REACTORS
330
47
102
}
330
47
100
AcDbScale
 70
     0
300
1:100
140
1.0
141
100.0
290
     0
  0
SCALE
  5
54
102
{ACAD_REACTORS
330
47
102
}
330
47
100
AcDbScale
 70
     0
300
2:1
140
2.0
141
1.0
290
     0
  0
SCALE
  5
55
102
{ACAD_REACTORS
330
47
102
}
330
47
100
AcDbScale
 70
     0
300
4:1
140
4.0
141
1.0
290
     0
  0
SCALE
  5
56
102
{ACAD_REACTORS
330
47
102
}
330
47
100
AcDbScale
 70
     0
300
8:1
140
8.0
141
1.0
290
     0
  0
SCALE
  5
57
102
{ACAD_REACTORS
330
47
102
}
330
47
100
AcDbScale
 70
     0
300
10:1
140
10.0
141
1.0
290
     0
  0
SCALE
  5
58
102
{ACAD_REACTORS
330
47
102
}
330
47
100
AcDbScale
 70
     0
300
100:1
140
100.0
141
1.0
290
     0
  0
SCALE
  5
59
102
{ACAD_REACTORS
330
47
102
}
330
47
100
AcDbScale
 70
     0
300
1/128" = 1'-0"
140
0.0078125
141
12.0
290
     0
  0
SCALE
  5
5A
102
{ACAD_REACTORS
330
47
102
}
330
47
100
AcDbScale
 70
     0
300
1/64" = 1'-0"
140
0.015625
141
12.0
290
     0
  0
SCALE
  5
5B
102
{ACAD_REACTORS
330
47
102
}
330
47
100
AcDbScale
 70
     0
300
1/32" = 1'-0"
140
0.03125
141
12.0
290
     0
  0
SCALE
  5
5C
102
{ACAD_REACTORS
330
47
102
}
330
47
100
AcDbScale
 70
     0
300
1/16" = 1'-0"
140
0.0625
141
12.0
290
     0
  0
SCALE
  5
5D
102
{ACAD_REACTORS
330
47
102
}
330
47
100
AcDbScale
 70
     0
300
3/32" = 1'-0"
140
0.09375
141
12.0
290
     0
  0
SCALE
  5
5E
102
{ACAD_REACTORS
330
47
102
}
330
47
100
AcDbScale
 70
     0
300
1/8" = 1'-0"
140
0.125
141
12.0
290
     0
  0
SCALE
  5
5F
102
{ACAD_REACTORS
330
47
102
}
330
47
100
AcDbScale
 70
     0
300
3/16" = 1'-0"
140
0.1875
141
12.0
290
     0
  0
SCALE
  5
60
102
{ACAD_REACTORS
330
47
102
}
330
47
100
AcDbScale
 70
     0
300
1/4" = 1'-0"
140
0.25
141
12.0
290
     0
  0
SCALE
  5
61
102
{ACAD_REACTORS
330
47
102
}
330
47
100
AcDbScale
 70
     0
300
3/8" = 1'-0"
140
0.375
141
12.0
290
     0
  0
SCALE
  5
62
102
{ACAD_REACTORS
330
47
102
}
330
47
100
AcDbScale
 70
     0
300
1/2" = 1'-0"
140
0.5
141
12.0
290
     0
  0
SCALE
  5
63
102
{ACAD_REACTORS
330
47
102
}
330
47
100
AcDbScale
 70
     0
300
3/4" = 1'-0"
140
0.75
141
12.0
290
     0
  0
SCALE
  5
64
102
{ACAD_REACTORS
330
47
102
}
330
47
100
AcDbScale
 70
     0
300
1" = 1'-0"
140
1.0
141
12.0
290
     0
  0
SCALE
  5
65
102
{ACAD_REACTORS
330
47
102
}
330
47
100
AcDbScale
 70
     0
300
1-1/2" = 1'-0"
140
1.5
141
12.0
290
     0
  0
SCALE
  5
66
102
{ACAD_REACTORS
330
47
102
}
330
47
100
AcDbScale
 70
     0
300
3" = 1'-0"
140
3.0
141
12.0
290
     0
  0
SCALE
  5
67
102
{ACAD_REACTORS
330
47
102
}
330
47
100
AcDbScale
 70
     0
300
6" = 1'-0"
140
6.0
141
12.0
290
     0
  0
SCALE
  5
68
102
{ACAD_REACTORS
330
47
102
}
330
47
100
AcDbScale
 70
     0
300
1'-0" = 1'-0"
140
12.0
141
12.0
290
     0
  0
ENDSEC
  0
EOF
