  0
SECTION
  2
HEADER
  9
$ACADVER
  1
AC1015
  9
$ACADMAINTVER
 70
     6
  9
$DWGCODEPAGE
  3
ANSI_1252
  9
$INSBASE
 10
0.0
 20
0.0
 30
0.0
  9
$EXTMIN
 10
0.0
 20
0.0
 30
0.0
  9
$EXTMAX
 10
2970.0
 20
2100.0
 30
0.0
  9
$LIMMIN
 10
0.0
 20
0.0
  9
$LIMMAX
 10
2970.0
 20
2100.0
  9
$ORTHOMODE
 70
     0
  9
$REGENMODE
 70
     1
  9
$FILLMODE
 70
     1
  9
$QTEXTMODE
 70
     0
  9
$MIRRTEXT
 70
     1
  9
$LTSCALE
 40
5.0
  9
$ATTMODE
 70
     1
  9
$TEXTSIZE
 40
12.5
  9
$TRACEWID
 40
1.0
  9
$TEXTSTYLE
  7
Standard
  9
$CLAYER
  8
0
  9
$CELTYPE
  6
ByLayer
  9
$CECOLOR
 62
   256
  9
$CELTSCALE
 40
1.0
  9
$DISPSILH
 70
     0
  9
$DIMSCALE
 40
1.0
  9
$DIMASZ
 40
12.5
  9
$DIMEXO
 40
0.0
  9
$DIMDLI
 40
3.75
  9
$DIMRND
 40
0.0
  9
$DIMDLE
 40
0.0
  9
$DIMEXE
 40
5.0
  9
$DIMTP
 40
0.0
  9
$DIMTM
 40
0.0
  9
$DIMTXT
 40
12.5
  9
$DIMCEN
 40
2.5
  9
$DIMTSZ
 40
0.0
  9
$DIMTOL
 70
     0
  9
$DIMLIM
 70
     0
  9
$DIMTIH
 70
     1
  9
$DIMTOH
 70
     1
  9
$DIMSE1
 70
     0
  9
$DIMSE2
 70
     0
  9
$DIMTAD
 70
     1
  9
$DIMZIN
 70
     0
  9
$DIMBLK
  1

  9
$DIMASO
 70
     1
  9
$DIMSHO
 70
     1
  9
$DIMPOST
  1

  9
$DIMAPOST
  1

  9
$DIMALT
 70
     0
  9
$DIMALTD
 70
     3
  9
$DIMALTF
 40
0.0393700787
  9
$DIMLFAC
 40
1.0
  9
$DIMTOFL
 70
     1
  9
$DIMTVP
 40
0.0
  9
$DIMTIX
 70
     0
  9
$DIMSOXD
 70
     0
  9
$DIMSAH
 70
     0
  9
$DIMBLK1
  1

  9
$DIMBLK2
  1

  9
$DIMSTYLE
  2
ISO-25
  9
$DIMCLRD
 70
     0
  9
$DIMCLRE
 70
     0
  9
$DIMCLRT
 70
     0
  9
$DIMTFAC
 40
1.0
  9
$DIMGAP
 40
7.62
  9
$DIMJUST
 70
     0
  9
$DIMSD1
 70
     0
  9
$DIMSD2
 70
     0
  9
$DIMTOLJ
 70
     0
  9
$DIMTZIN
 70
     0
  9
$DIMALTZ
 70
     0
  9
$DIMALTTZ
 70
     0
  9
$DIMUPT
 70
     0
  9
$DIMDEC
 70
     2
  9
$DIMTDEC
 70
     2
  9
$DIMALTU
 70
     2
  9
$DIMALTTD
 70
     3
  9
$DIMTXSTY
  7
Standard
  9
$DIMAUNIT
 70
     0
  9
$DIMADEC
 70
     2
  9
$DIMALTRND
 40
0.0
  9
$DIMAZIN
 70
     0
  9
$DIMDSEP
 70
    44
  9
$DIMATFIT
 70
     3
  9
$DIMFRAC
 70
     0
  9
$DIMLDRBLK
  1

  9
$DIMLUNIT
 70
     2
  9
$DIMLWD
 70
    -2
  9
$DIMLWE
 70
    -2
  9
$DIMTMOVE
 70
     0
  9
$LUNITS
 70
     2
  9
$LUPREC
 70
     1
  9
$SKETCHINC
 40
1.0
  9
$FILLETRAD
 40
10.0
  9
$AUNITS
 70
     0
  9
$AUPREC
 70
     2
  9
$MENU
  1
.
  9
$ELEVATION
 40
0.0
  9
$PELEVATION
 40
0.0
  9
$THICKNESS
 40
0.0
  9
$LIMCHECK
 70
     0
  9
$CHAMFERA
 40
0.0
  9
$CHAMFERB
 40
0.0
  9
$CHAMFERC
 40
0.0
  9
$CHAMFERD
 40
0.0
  9
$SKPOLY
 70
     0
  9
$TDCREATE
 40
2458906.672611169
  9
$TDUCREATE
 40
2458906.443444503
  9
$TDUPDATE
 40
2458906.672624548
  9
$TDUUPDATE
 40
2458906.443457882
  9
$TDINDWG
 40
0.0000000116
  9
$TDUSRTIMER
 40
0.0000000116
  9
$USRTIMER
 70
     1
  9
$ANGBASE
 50
0.0
  9
$ANGDIR
 70
     0
  9
$PDMODE
 70
     0
  9
$PDSIZE
 40
-1.0
  9
$PLINEWID
 40
0.0
  9
$SPLFRAME
 70
     0
  9
$SPLINETYPE
 70
     6
  9
$SPLINESEGS
 70
     8
  9
$HANDSEED
  5
398
  9
$SURFTAB1
 70
     6
  9
$SURFTAB2
 70
     6
  9
$SURFTYPE
 70
     6
  9
$SURFU
 70
     6
  9
$SURFV
 70
     6
  9
$UCSBASE
  2

  9
$UCSNAME
  2

  9
$UCSORG
 10
0.0
 20
0.0
 30
0.0
  9
$UCSXDIR
 10
1.0
 20
0.0
 30
0.0
  9
$UCSYDIR
 10
0.0
 20
1.0
 30
0.0
  9
$UCSORTHOREF
  2

  9
$UCSORTHOVIEW
 70
     0
  9
$UCSORGTOP
 10
0.0
 20
0.0
 30
0.0
  9
$UCSORGBOTTOM
 10
0.0
 20
0.0
 30
0.0
  9
$UCSORGLEFT
 10
0.0
 20
0.0
 30
0.0
  9
$UCSORGRIGHT
 10
0.0
 20
0.0
 30
0.0
  9
$UCSORGFRONT
 10
0.0
 20
0.0
 30
0.0
  9
$UCSORGBACK
 10
0.0
 20
0.0
 30
0.0
  9
$PUCSBASE
  2

  9
$PUCSNAME
  2

  9
$PUCSORG
 10
0.0
 20
0.0
 30
0.0
  9
$PUCSXDIR
 10
1.0
 20
0.0
 30
0.0
  9
$PUCSYDIR
 10
0.0
 20
1.0
 30
0.0
  9
$PUCSORTHOREF
  2

  9
$PUCSORTHOVIEW
 70
     0
  9
$PUCSORGTOP
 10
0.0
 20
0.0
 30
0.0
  9
$PUCSORGBOTTOM
 10
0.0
 20
0.0
 30
0.0
  9
$PUCSORGLEFT
 10
0.0
 20
0.0
 30
0.0
  9
$PUCSORGRIGHT
 10
0.0
 20
0.0
 30
0.0
  9
$PUCSORGFRONT
 10
0.0
 20
0.0
 30
0.0
  9
$PUCSORGBACK
 10
0.0
 20
0.0
 30
0.0
  9
$USERI1
 70
     0
  9
$USERI2
 70
     0
  9
$USERI3
 70
     0
  9
$USERI4
 70
     0
  9
$USERI5
 70
     0
  9
$USERR1
 40
0.0
  9
$USERR2
 40
0.0
  9
$USERR3
 40
0.0
  9
$USERR4
 40
0.0
  9
$USERR5
 40
0.0
  9
$WORLDVIEW
 70
     1
  9
$SHADEDGE
 70
     3
  9
$SHADEDIF
 70
    70
  9
$TILEMODE
 70
     1
  9
$MAXACTVP
 70
    64
  9
$PINSBASE
 10
0.0
 20
0.0
 30
0.0
  9
$PLIMCHECK
 70
     0
  9
$PEXTMIN
 10
1.0000000000E+20
 20
1.0000000000E+20
 30
1.0000000000E+20
  9
$PEXTMAX
 10
-1.0000000000E+20
 20
-1.0000000000E+20
 30
-1.0000000000E+20
  9
$PLIMMIN
 10
0.0
 20
0.0
  9
$PLIMMAX
 10
420.0
 20
297.0
  9
$UNITMODE
 70
     0
  9
$VISRETAIN
 70
     1
  9
$PLINEGEN
 70
     0
  9
$PSLTSCALE
 70
     1
  9
$TREEDEPTH
 70
  3020
  9
$CMLSTYLE
  2
Standard
  9
$CMLJUST
 70
     0
  9
$CMLSCALE
 40
20.0
  9
$PROXYGRAPHICS
 70
     1
  9
$MEASUREMENT
 70
     1
  9
$CELWEIGHT
370
    -1
  9
$ENDCAPS
280
     0
  9
$JOINSTYLE
280
     0
  9
$LWDISPLAY
290
     1
  9
$INSUNITS
 70
     4
  9
$HYPERLINKBASE
  1

  9
$STYLESHEET
  1

  9
$XEDIT
290
     1
  9
$CEPSNTYPE
380
     0
  9
$PSTYLEMODE
290
     1
  9
$FINGERPRINTGUID
  2
{044c8a15-6774-40b0-afa4-218ca22f77ad}
  9
$VERSIONGUID
  2
{FAEB1C32-E019-11D5-929B-00C0DF256EC4}
  9
$EXTNAMES
290
     1
  9
$PSVPSCALE
 40
0.0
  9
$OLESTARTUP
290
     0
  0
ENDSEC
  0
SECTION
  2
CLASSES
  0
CLASS
  1
ACDBDICTIONARYWDFLT
  2
AcDbDictionaryWithDefault
  3
ObjectDBX Classes
 90
        0
280
     0
281
     0
  0
CLASS
  1
VISUALSTYLE
  2
AcDbVisualStyle
  3
ObjectDBX Classes
 90
     4095
280
     0
281
     0
  0
CLASS
  1
MATERIAL
  2
AcDbMaterial
  3
ObjectDBX Classes
 90
     1153
280
     0
281
     0
  0
CLASS
  1
SCALE
  2
AcDbScale
  3
ObjectDBX Classes
 90
     1153
280
     0
281
     0
  0
CLASS
  1
TABLESTYLE
  2
AcDbTableStyle
  3
ObjectDBX Classes
 90
     4095
280
     0
281
     0
  0
CLASS
  1
MLEADERSTYLE
  2
AcDbMLeaderStyle
  3
ACDB_MLEADERSTYLE_CLASS
 90
     4095
280
     0
281
     0
  0
CLASS
  1
SUN
  2
AcDbSun
  3
SCENEOE
 90
     1153
280
     0
281
     0
  0
CLASS
  1
ACDBPLACEHOLDER
  2
AcDbPlaceHolder
  3
ObjectDBX Classes
 90
        0
280
     0
281
     0
  0
CLASS
  1
LAYOUT
  2
AcDbLayout
  3
ObjectDBX Classes
 90
        0
280
     0
281
     0
  0
ENDSEC
  0
SECTION
  2
TABLES
  0
TABLE
  2
VPORT
  5
8
330
0
100
AcDbSymbolTable
 70
     1
  0
VPORT
  5
29
330
8
100
AcDbSymbolTableRecord
100
AcDbViewportTableRecord
  2
*Active
 70
     0
 10
0.0
 20
0.0
 11
1.0
 21
1.0
 12
1485.0
 22
1050.0
 13
0.0
 23
0.0
 14
10.0
 24
10.0
 15
10.0
 25
10.0
 16
0.0
 26
0.0
 36
1.0
 17
0.0
 27
0.0
 37
0.0
 40
2100.0
 41
1.4142857143
 42
50.0
 43
0.0
 44
0.0
 50
0.0
 51
0.0
 71
     0
 72
  2000
 73
     1
 74
     3
 75
     0
 76
     0
 77
     0
 78
     0
281
     0
 65
     1
110
0.0
120
0.0
130
0.0
111
1.0
121
0.0
131
0.0
112
0.0
122
1.0
132
0.0
 79
     0
146
0.0
  0
ENDTAB
  0
TABLE
  2
LTYPE
  5
5
330
0
100
AcDbSymbolTable
 70
     6
  0
LTYPE
  5
14
330
5
100
AcDbSymbolTableRecord
100
AcDbLinetypeTableRecord
  2
ByBlock
 70
     0
  3

 72
    65
 73
     0
 40
0.0
  0
LTYPE
  5
15
330
5
100
AcDbSymbolTableRecord
100
AcDbLinetypeTableRecord
  2
ByLayer
 70
     0
  3

 72
    65
 73
     0
 40
0.0
  0
LTYPE
  5
16
330
5
100
AcDbSymbolTableRecord
100
AcDbLinetypeTableRecord
  2
Continuous
 70
     0
  3
Solid line
 72
    65
 73
     0
 40
0.0
  0
LTYPE
  5
6E
330
5
100
AcDbSymbolTableRecord
100
AcDbLinetypeTableRecord
  2
HIDDEN
 70
     0
  3
Hidden __ __ __ __ __ __ __ __ __ __ __ __ __ __
 72
    65
 73
     2
 40
1.905
 49
1.27
 74
     0
 49
-0.635
 74
     0
  0
LTYPE
  5
6F
330
5
100
AcDbSymbolTableRecord
100
AcDbLinetypeTableRecord
  2
PHANTOM
 70
     0
  3
Phantom ______  __  __  ______  __  __  ______
 72
    65
 73
     6
 40
12.7
 49
6.35
 74
     0
 49
-1.27
 74
     0
 49
1.27
 74
     0
 49
-1.27
 74
     0
 49
1.27
 74
     0
 49
-1.27
 74
     0
  0
LTYPE
  5
70
330
5
100
AcDbSymbolTableRecord
100
AcDbLinetypeTableRecord
  2
CENTER
 70
     0
  3
Center ____ _ ____ _ ____ _ ____ _ ____ _ ____
 72
    65
 73
     4
 40
10.16
 49
6.35
 74
     0
 49
-1.27
 74
     0
 49
1.27
 74
     0
 49
-1.27
 74
     0
  0
LTYPE
  5
71
330
5
100
AcDbSymbolTableRecord
100
AcDbLinetypeTableRecord
  2
CENTERX2
 70
     0
  3
Center (2x) ________  __  ________  __  _____
 72
    65
 73
     4
 40
20.32
 49
12.7
 74
     0
 49
-2.54
 74
     0
 49
2.54
 74
     0
 49
-2.54
 74
     0
  0
LTYPE
  5
72
330
5
100
AcDbSymbolTableRecord
100
AcDbLinetypeTableRecord
  2
DOT2
 70
     0
  3
Dot (.5x) ........................................
 72
    65
 73
     2
 40
0.635
 49
0.0
 74
     0
 49
-0.635
 74
     0
  0
ENDTAB
  0
TABLE
  2
LAYER
  5
2
330
0
100
AcDbSymbolTable
 70
    10
  0
LAYER
  5
10
330
2
100
AcDbSymbolTableRecord
100
AcDbLayerTableRecord
  2
0
 70
     0
 62
     7
  6
Continuous
370
    -3
390
F
  0
LAYER
  5
73
330
2
100
AcDbSymbolTableRecord
100
AcDbLayerTableRecord
  2
DIMENSION
 70
     0
 62
     7
  6
Continuous
370
    -3
390
F
  0
LAYER
  5
74
330
2
100
AcDbSymbolTableRecord
100
AcDbLayerTableRecord
  2
NOTES
 70
     0
 62
     7
  6
Continuous
370
    -3
390
F
  0
LAYER
  5
75
330
2
100
AcDbSymbolTableRecord
100
AcDbLayerTableRecord
  2
TABLES
 70
     0
 62
     7
  6
Continuous
370
    -3
390
F
  0
LAYER
  5
76
330
2
100
AcDbSymbolTableRecord
100
AcDbLayerTableRecord
  2
INVISIBLE
 70
     0
 62
    -7
  6
Continuous
290
     0
370
    -3
390
F
  0
LAYER
  5
77
330
2
100
AcDbSymbolTableRecord
100
AcDbLayerTableRecord
  2
WEP
 70
     0
 62
  -150
  6
Continuous
290
     0
370
    -3
390
F
  0
LAYER
  5
78
330
2
100
AcDbSymbolTableRecord
100
AcDbLayerTableRecord
  2
EMP
 70
     0
 62
     1
  6
Continuous
370
    -3
390
F
  0
LAYER
  5
79
330
2
100
AcDbSymbolTableRecord
100
AcDbLayerTableRecord
  2
MARKETING_DRW
 70
     0
 62
    -7
  6
Continuous
290
     0
370
    -3
390
F
  0
LAYER
  5
7A
330
2
100
AcDbSymbolTableRecord
100
AcDbLayerTableRecord
  2
SINGLE_ARTICLE_DRW
 70
     0
 62
    -7
  6
Continuous
290
     0
370
    -3
390
F
  0
LAYER
  5
7B
330
2
100
AcDbSymbolTableRecord
100
AcDbLayerTableRecord
  2
TABLE_DRW
 70
     0
 62
     7
  6
Continuous
370
    -3
390
F
  0
ENDTAB
  0
TABLE
  2
STYLE
  5
3
330
0
100
AcDbSymbolTable
 70
     2
  0
STYLE
  5
11
330
3
100
AcDbSymbolTableRecord
100
AcDbTextStyleTableRecord
  2
Standard
 70
     0
 40
0.0
 41
1.0
 50
0.0
 71
     0
 42
12.5
  3
txt
  4

  0
STYLE
  5
B5
330
3
100
AcDbSymbolTableRecord
100
AcDbTextStyleTableRecord
  2
SLDTEXTSTYLE0
 70
     0
 40
0.0
 41
0.605
 50
0.0
 71
     0
 42
12.5
  3
TXT
  4

  0
ENDTAB
  0
TABLE
  2
VIEW
  5
6
330
0
100
AcDbSymbolTable
 70
     0
  0
ENDTAB
  0
TABLE
  2
UCS
  5
7
330
0
100
AcDbSymbolTable
 70
     0
  0
ENDTAB
  0
TABLE
  2
APPID
  5
9
330
0
100
AcDbSymbolTable
 70
     1
  0
APPID
  5
12
330
9
100
AcDbSymbolTableRecord
100
AcDbRegAppTableRecord
  2
ACAD
 70
     0
  0
ENDTAB
  0
TABLE
  2
DIMSTYLE
  5
A
330
0
100
AcDbSymbolTable
 70
     1
100
AcDbDimStyleTable
  0
DIMSTYLE
105
27
330
A
100
AcDbSymbolTableRecord
100
AcDbDimStyleTableRecord
  2
ISO-25
 70
     0
 41
2.5
 42
0.625
 43
3.75
 44
1.25
 73
     0
 74
     0
 77
     1
 78
     8
140
2.5
141
2.5
143
0.0393700787
147
0.625
171
     3
172
     1
178
     0
271
     2
272
     2
274
     3
278
    44
283
     0
284
     8
340
11
  0
ENDTAB
  0
TABLE
  2
BLOCK_RECORD
  5
1
330
0
100
AcDbSymbolTable
 70
     3
  0
BLOCK_RECORD
  5
1F
330
1
100
AcDbSymbolTableRecord
100
AcDbBlockTableRecord
  2
*Model_Space
340
22
  0
BLOCK_RECORD
  5
1B
330
1
100
AcDbSymbolTableRecord
100
AcDbBlockTableRecord
  2
*Paper_Space
340
1E
  0
BLOCK_RECORD
  5
23
330
1
100
AcDbSymbolTableRecord
100
AcDbBlockTableRecord
  2
*Paper_Space0
340
26
  0
BLOCK_RECORD
  5
C8
330
1
100
AcDbSymbolTableRecord
100
AcDbBlockTableRecord
  2
SW_NOTE_0
340
0
102
{BLKREFS
331
CE
102
}
  0
BLOCK_RECORD
  5
E8
330
1
100
AcDbSymbolTableRecord
100
AcDbBlockTableRecord
  2
SW_NOTE_0_1
340
0
102
{BLKREFS
331
EE
102
}
  0
ENDTAB
  0
ENDSEC
  0
SECTION
  2
BLOCKS
  0
BLOCK
  5
20
330
1F
100
AcDbEntity
  8
0
100
AcDbBlockBegin
  2
*Model_Space
 70
     0
 10
0.0
 20
0.0
 30
0.0
  3
*Model_Space
  1

  0
ENDBLK
  5
21
330
1F
100
AcDbEntity
  8
0
100
AcDbBlockEnd
  0
BLOCK
  5
1C
330
1B
100
AcDbEntity
 67
     1
  8
0
100
AcDbBlockBegin
  2
*Paper_Space
 70
     0
 10
0.0
 20
0.0
 30
0.0
  3
*Paper_Space
  1

  0
ENDBLK
  5
1D
330
1B
100
AcDbEntity
 67
     1
  8
0
100
AcDbBlockEnd
  0
BLOCK
  5
24
330
23
100
AcDbEntity
  8
0
100
AcDbBlockBegin
  2
*Paper_Space0
 70
     0
 10
0.0
 20
0.0
 30
0.0
  3
*Paper_Space0
  1

  0
ENDBLK
  5
25
330
23
100
AcDbEntity
  8
0
100
AcDbBlockEnd
  0
BLOCK
  5
C9
330
C8
100
AcDbEntity
  8
0
100
AcDbBlockBegin
  2
SW_NOTE_0
 70
     0
 10
0.0
 20
0.0
 30
0.0
  3
SW_NOTE_0
  1

  0
MTEXT
  5
CB
330
C8
100
AcDbEntity
  8
SINGLE_ARTICLE_DRW
 62
     0
100
AcDbMText
 10
0.0
 20
11.6016096579
 30
0.0
 40
9.0
 41
0.0
 71
     1
 72
     1
  1
The reproduction, distribution and utilization of this document as well as the communication of its contents to
  7
SLDTEXTSTYLE0
 73
     1
 44
1.0
  0
MTEXT
  5
CC
330
C8
100
AcDbEntity
  8
SINGLE_ARTICLE_DRW
 62
     0
100
AcDbMText
 10
0.0
 20
0.0016098055
 30
0.0
 40
9.0
 41
0.0
 71
     1
 72
     1
  1
others without express authorization is prohibited. Offenders will be held liable for the payment of damages.
  7
SLDTEXTSTYLE0
 73
     1
 44
1.0
  0
MTEXT
  5
CD
330
C8
100
AcDbEntity
  8
SINGLE_ARTICLE_DRW
 62
     0
100
AcDbMText
 10
0.0
 20
-11.598390047
 30
0.0
 40
9.0
 41
0.0
 71
     1
 72
     1
  1
All rights reserved in the event of the grant of a patent, utility model or design. Observe copyright by ISO 16016
  7
SLDTEXTSTYLE0
 73
     1
 44
1.0
  0
ENDBLK
  5
CA
330
C8
100
AcDbEntity
  8
0
100
AcDbBlockEnd
  0
BLOCK
  5
E9
330
E8
100
AcDbEntity
  8
0
100
AcDbBlockBegin
  2
SW_NOTE_0_1
 70
     0
 10
0.0
 20
0.0
 30
0.0
  3
SW_NOTE_0_1
  1

  0
MTEXT
  5
EB
330
E8
100
AcDbEntity
  8
MARKETING_DRW
 62
     0
100
AcDbMText
 10
0.0
 20
11.6016096579
 30
0.0
 40
9.0
 41
0.0
 71
     1
 72
     1
  1
The reproduction, distribution and utilization of this document as well as the communication of its contents to
  7
SLDTEXTSTYLE0
 73
     1
 44
1.0
  0
MTEXT
  5
EC
330
E8
100
AcDbEntity
  8
MARKETING_DRW
 62
     0
100
AcDbMText
 10
0.0
 20
-0.0233903849
 30
0.0
 40
9.0
 41
0.0
 71
     1
 72
     1
  1
others without express authorization is prohibited. Offenders will be held liable for the payment of damages.
  7
SLDTEXTSTYLE0
 73
     1
 44
1.0
  0
MTEXT
  5
ED
330
E8
100
AcDbEntity
  8
MARKETING_DRW
 62
     0
100
AcDbMText
 10
0.0
 20
-11.6483904277
 30
0.0
 40
9.0
 41
0.0
 71
     1
 72
     1
  1
All rights reserved in the event of the grant of a patent, utility model or design. Observe copyright by ISO 16016
  7
SLDTEXTSTYLE0
 73
     1
 44
1.0
  0
ENDBLK
  5
EA
330
E8
100
AcDbEntity
  8
0
100
AcDbBlockEnd
  0
ENDSEC
  0
SECTION
  2
ENTITIES
  0
LINE
  5
7C
330
1F
100
AcDbEntity
  8
SINGLE_ARTICLE_DRW
  6
CENTERX2
 62
     7
100
AcDbLine
 10
2825.0
 20
200.0
 30
0.0
 11
2850.0
 21
200.0
 31
0.0
  0
LINE
  5
7D
330
1F
100
AcDbEntity
  8
SINGLE_ARTICLE_DRW
  6
CENTERX2
 62
     7
100
AcDbLine
 10
2837.5
 20
212.5
 30
0.0
 11
2837.5
 21
187.5
 31
0.0
  0
LINE
  5
7E
330
1F
100
AcDbEntity
  8
SINGLE_ARTICLE_DRW
  6
CENTERX2
 62
     7
100
AcDbLine
 10
2785.0
 20
200.0
 30
0.0
 11
2820.0
 21
200.0
 31
0.0
  0
LINE
  5
7F
330
1F
100
AcDbEntity
  8
SINGLE_ARTICLE_DRW
 62
     7
100
AcDbLine
 10
2790.0
 20
194.95
 30
0.0
 11
2815.0
 21
190.0
 31
0.0
  0
LINE
  5
80
330
1F
100
AcDbEntity
  8
SINGLE_ARTICLE_DRW
 62
     7
100
AcDbLine
 10
2790.0
 20
205.05
 30
0.0
 11
2790.0
 21
194.95
 31
0.0
  0
LINE
  5
81
330
1F
100
AcDbEntity
  8
SINGLE_ARTICLE_DRW
 62
     7
100
AcDbLine
 10
2815.0
 20
210.0
 30
0.0
 11
2790.0
 21
205.05
 31
0.0
  0
LINE
  5
82
330
1F
100
AcDbEntity
  8
SINGLE_ARTICLE_DRW
 62
     7
100
AcDbLine
 10
2815.0
 20
190.0
 30
0.0
 11
2815.0
 21
210.0
 31
0.0
  0
LINE
  5
83
330
1F
100
AcDbEntity
  8
SINGLE_ARTICLE_DRW
 62
     7
100
AcDbLine
 10
2920.0
 20
50.0
 30
0.0
 11
2920.0
 21
340.0
 31
0.0
  0
LINE
  5
84
330
1F
100
AcDbEntity
  8
SINGLE_ARTICLE_DRW
 62
     7
100
AcDbLine
 10
2020.0
 20
340.0
 30
0.0
 11
2020.0
 21
50.0
 31
0.0
  0
LINE
  5
85
330
1F
100
AcDbEntity
  8
SINGLE_ARTICLE_DRW
 62
     7
100
AcDbLine
 10
2570.0
 20
95.0
 30
0.0
 11
2570.0
 21
50.0
 31
0.0
  0
LINE
  5
86
330
1F
100
AcDbEntity
  8
SINGLE_ARTICLE_DRW
 62
     7
100
AcDbLine
 10
2720.0
 20
50.0
 30
0.0
 11
2720.0
 21
95.0
 31
0.0
  0
LINE
  5
87
330
1F
100
AcDbEntity
  8
SINGLE_ARTICLE_DRW
 62
     7
100
AcDbLine
 10
2870.0
 20
95.0
 30
0.0
 11
2870.0
 21
50.0
 31
0.0
  0
LINE
  5
88
330
1F
100
AcDbEntity
  8
SINGLE_ARTICLE_DRW
 62
     7
100
AcDbLine
 10
2770.0
 20
320.0
 30
0.0
 11
2770.0
 21
185.0
 31
0.0
  0
LINE
  5
89
330
1F
100
AcDbEntity
  8
SINGLE_ARTICLE_DRW
 62
     7
100
AcDbLine
 10
2920.0
 20
320.0
 30
0.0
 11
2020.0
 21
320.0
 31
0.0
  0
LINE
  5
8A
330
1F
100
AcDbEntity
  8
SINGLE_ARTICLE_DRW
 62
     7
100
AcDbLine
 10
2670.0
 20
95.0
 30
0.0
 11
2670.0
 21
50.0
 31
0.0
  0
LINE
  5
8B
330
1F
100
AcDbEntity
  8
SINGLE_ARTICLE_DRW
 62
     7
100
AcDbLine
 10
2920.0
 20
275.0
 30
0.0
 11
2270.0
 21
275.0
 31
0.0
  0
LINE
  5
8C
330
1F
100
AcDbEntity
  8
SINGLE_ARTICLE_DRW
 62
     7
100
AcDbLine
 10
2520.0
 20
230.0
 30
0.0
 11
2520.0
 21
185.0
 31
0.0
  0
LINE
  5
8D
330
1F
100
AcDbEntity
  8
SINGLE_ARTICLE_DRW
 62
     7
100
AcDbLine
 10
2920.0
 20
230.0
 30
0.0
 11
2270.0
 21
230.0
 31
0.0
  0
LINE
  5
8E
330
1F
100
AcDbEntity
  8
SINGLE_ARTICLE_DRW
 62
     7
100
AcDbLine
 10
2270.0
 20
320.0
 30
0.0
 11
2270.0
 21
185.0
 31
0.0
  0
LINE
  5
8F
330
1F
100
AcDbEntity
  8
SINGLE_ARTICLE_DRW
 62
     7
100
AcDbLine
 10
2870.0
 20
230.0
 30
0.0
 11
2870.0
 21
185.0
 31
0.0
  0
LINE
  5
90
330
1F
100
AcDbEntity
  8
SINGLE_ARTICLE_DRW
 62
     7
100
AcDbLine
 10
2920.0
 20
95.0
 30
0.0
 11
2020.0
 21
95.0
 31
0.0
  0
LINE
  5
91
330
1F
100
AcDbEntity
  8
SINGLE_ARTICLE_DRW
 62
     7
100
AcDbLine
 10
2520.0
 20
275.0
 30
0.0
 11
2520.0
 21
320.0
 31
0.0
  0
LINE
  5
92
330
1F
100
AcDbEntity
  8
SINGLE_ARTICLE_DRW
 62
     7
100
AcDbLine
 10
2020.0
 20
340.0
 30
0.0
 11
2920.0
 21
340.0
 31
0.0
  0
LINE
  5
93
330
1F
100
AcDbEntity
  8
SINGLE_ARTICLE_DRW
 62
     7
100
AcDbLine
 10
2020.0
 20
185.0
 30
0.0
 11
2920.0
 21
185.0
 31
0.0
  0
LINE
  5
94
330
1F
100
AcDbEntity
  8
SINGLE_ARTICLE_DRW
 62
     7
100
AcDbLine
 10
2020.0
 20
50.0
 30
0.0
 11
2920.0
 21
50.0
 31
0.0
  0
LINE
  5
95
330
1F
100
AcDbEntity
  8
SINGLE_ARTICLE_DRW
 62
     7
100
AcDbLine
 10
2270.0
 20
275.0
 30
0.0
 11
2020.0
 21
275.0
 31
0.0
  0
LINE
  5
96
330
1F
100
AcDbEntity
  8
MARKETING_DRW
  6
CENTERX2
100
AcDbLine
 10
2825.0
 20
200.0
 30
0.0
 11
2850.0
 21
200.0
 31
0.0
  0
LINE
  5
97
330
1F
100
AcDbEntity
  8
MARKETING_DRW
  6
CENTERX2
100
AcDbLine
 10
2837.5
 20
212.5
 30
0.0
 11
2837.5
 21
187.5
 31
0.0
  0
LINE
  5
98
330
1F
100
AcDbEntity
  8
MARKETING_DRW
  6
CENTERX2
100
AcDbLine
 10
2785.0
 20
200.0
 30
0.0
 11
2820.0
 21
200.0
 31
0.0
  0
LINE
  5
99
330
1F
100
AcDbEntity
  8
MARKETING_DRW
100
AcDbLine
 10
2790.0
 20
194.95
 30
0.0
 11
2815.0
 21
190.0
 31
0.0
  0
LINE
  5
9A
330
1F
100
AcDbEntity
  8
MARKETING_DRW
100
AcDbLine
 10
2790.0
 20
205.05
 30
0.0
 11
2790.0
 21
194.95
 31
0.0
  0
LINE
  5
9B
330
1F
100
AcDbEntity
  8
MARKETING_DRW
100
AcDbLine
 10
2815.0
 20
210.0
 30
0.0
 11
2790.0
 21
205.05
 31
0.0
  0
LINE
  5
9C
330
1F
100
AcDbEntity
  8
MARKETING_DRW
100
AcDbLine
 10
2815.0
 20
190.0
 30
0.0
 11
2815.0
 21
210.0
 31
0.0
  0
LINE
  5
9D
330
1F
100
AcDbEntity
  8
MARKETING_DRW
100
AcDbLine
 10
2920.0
 20
50.0
 30
0.0
 11
2920.0
 21
230.0
 31
0.0
  0
LINE
  5
9E
330
1F
100
AcDbEntity
  8
MARKETING_DRW
100
AcDbLine
 10
2020.0
 20
50.0
 30
0.0
 11
2920.0
 21
50.0
 31
0.0
  0
LINE
  5
9F
330
1F
100
AcDbEntity
  8
MARKETING_DRW
100
AcDbLine
 10
2020.0
 20
275.0
 30
0.0
 11
2020.0
 21
50.0
 31
0.0
  0
LINE
  5
A0
330
1F
100
AcDbEntity
  8
MARKETING_DRW
100
AcDbLine
 10
2020.0
 20
275.0
 30
0.0
 11
2520.0
 21
275.0
 31
0.0
  0
LINE
  5
A1
330
1F
100
AcDbEntity
  8
MARKETING_DRW
100
AcDbLine
 10
2720.0
 20
50.0
 30
0.0
 11
2720.0
 21
95.0
 31
0.0
  0
LINE
  5
A2
330
1F
100
AcDbEntity
  8
MARKETING_DRW
100
AcDbLine
 10
2870.0
 20
95.0
 30
0.0
 11
2870.0
 21
50.0
 31
0.0
  0
LINE
  5
A3
330
1F
100
AcDbEntity
  8
MARKETING_DRW
100
AcDbLine
 10
2520.0
 20
275.0
 30
0.0
 11
2520.0
 21
230.0
 31
0.0
  0
LINE
  5
A4
330
1F
100
AcDbEntity
  8
MARKETING_DRW
100
AcDbLine
 10
2920.0
 20
230.0
 30
0.0
 11
2270.0
 21
230.0
 31
0.0
  0
LINE
  5
A5
330
1F
100
AcDbEntity
  8
MARKETING_DRW
100
AcDbLine
 10
2270.0
 20
275.0
 30
0.0
 11
2270.0
 21
185.0
 31
0.0
  0
LINE
  5
A6
330
1F
100
AcDbEntity
  8
MARKETING_DRW
100
AcDbLine
 10
2870.0
 20
230.0
 30
0.0
 11
2870.0
 21
185.0
 31
0.0
  0
LINE
  5
A7
330
1F
100
AcDbEntity
  8
MARKETING_DRW
100
AcDbLine
 10
2920.0
 20
95.0
 30
0.0
 11
2020.0
 21
95.0
 31
0.0
  0
LINE
  5
A8
330
1F
100
AcDbEntity
  8
MARKETING_DRW
100
AcDbLine
 10
2020.0
 20
185.0
 30
0.0
 11
2920.0
 21
185.0
 31
0.0
  0
LINE
  5
A9
330
1F
100
AcDbEntity
  8
MARKETING_DRW
100
AcDbLine
 10
2020.0
 20
50.0
 30
0.0
 11
2920.0
 21
50.0
 31
0.0
  0
LINE
  5
AA
330
1F
100
AcDbEntity
  8
MARKETING_DRW
100
AcDbLine
 10
2770.0
 20
230.0
 30
0.0
 11
2770.0
 21
185.0
 31
0.0
  0
LINE
  5
AB
330
1F
100
AcDbEntity
  8
MARKETING_DRW
100
AcDbLine
 10
2520.0
 20
275.0
 30
0.0
 11
2770.0
 21
275.0
 31
0.0
  0
LINE
  5
AC
330
1F
100
AcDbEntity
  8
MARKETING_DRW
100
AcDbLine
 10
2770.0
 20
275.0
 30
0.0
 11
2770.0
 21
230.0
 31
0.0
  0
LINE
  5
AD
330
1F
100
AcDbEntity
  8
MARKETING_DRW
100
AcDbLine
 10
2770.0
 20
275.0
 30
0.0
 11
2920.0
 21
275.0
 31
0.0
  0
LINE
  5
AE
330
1F
100
AcDbEntity
  8
MARKETING_DRW
100
AcDbLine
 10
2920.0
 20
275.0
 30
0.0
 11
2920.0
 21
230.0
 31
0.0
  0
LINE
  5
AF
330
1F
100
AcDbEntity
  8
MARKETING_DRW
100
AcDbLine
 10
2695.0
 20
275.0
 30
0.0
 11
2695.0
 21
230.0
 31
0.0
  0
LINE
  5
B0
330
1F
100
AcDbEntity
  8
MARKETING_DRW
100
AcDbLine
 10
2520.0
 20
230.0
 30
0.0
 11
2520.0
 21
185.0
 31
0.0
  0
CIRCLE
  5
B1
330
1F
100
AcDbEntity
  8
SINGLE_ARTICLE_DRW
 62
     7
100
AcDbCircle
 10
2837.5
 20
200.0
 30
0.0
 40
5.000000000000224
  0
CIRCLE
  5
B2
330
1F
100
AcDbEntity
  8
SINGLE_ARTICLE_DRW
 62
     7
100
AcDbCircle
 10
2837.5
 20
200.0
 30
0.0
 40
10.00000000000046
  0
CIRCLE
  5
B3
330
1F
100
AcDbEntity
  8
MARKETING_DRW
100
AcDbCircle
 10
2837.5
 20
200.0
 30
0.0
 40
4.99999999999979
  0
CIRCLE
  5
B4
330
1F
100
AcDbEntity
  8
MARKETING_DRW
100
AcDbCircle
 10
2837.5
 20
200.0
 30
0.0
 40
10.00000000000002
  0
MTEXT
  5
B6
330
1F
100
AcDbEntity
  8
SINGLE_ARTICLE_DRW
100
AcDbMText
 10
2025.0
 20
179.9766099061
 30
0.0
 40
9.0
 41
0.0
 71
     1
 72
     1
  1
title:
  7
SLDTEXTSTYLE0
 73
     1
 44
1.0
  0
MTEXT
  5
B7
330
1F
100
AcDbEntity
  8
SINGLE_ARTICLE_DRW
100
AcDbMText
 10
2025.0
 20
314.9766099061
 30
0.0
 40
9.0
 41
0.0
 71
     1
 72
     1
  1
technical reference:
  7
SLDTEXTSTYLE0
 73
     1
 44
1.0
  0
MTEXT
  5
B8
330
1F
100
AcDbEntity
  8
SINGLE_ARTICLE_DRW
100
AcDbMText
 10
2894.7829862405
 20
69.9675136777
 30
0.0
 40
12.5
 41
0.0
 71
     2
 72
     1
  1
1/1
  7
SLDTEXTSTYLE0
 73
     1
 44
1.0
  0
MTEXT
  5
B9
330
1F
100
AcDbEntity
  8
SINGLE_ARTICLE_DRW
100
AcDbMText
 10
2894.7829862405
 20
204.9675136777
 30
0.0
 40
12.5
 41
0.0
 71
     2
 72
     1
  1
1:5
  7
SLDTEXTSTYLE0
 73
     1
 44
1.0
  0
MTEXT
  5
BA
330
1F
100
AcDbEntity
  8
SINGLE_ARTICLE_DRW
100
AcDbMText
 10
2275.0
 20
314.9766099061
 30
0.0
 40
9.0
 41
0.0
 71
     1
 72
     1
  1
general tolerance:
  7
SLDTEXTSTYLE0
 73
     1
 44
1.0
  0
MTEXT
  5
BB
330
1F
100
AcDbEntity
  8
SINGLE_ARTICLE_DRW
100
AcDbMText
 10
2775.0
 20
249.9675136777
 30
0.0
 40
12.5
 41
0.0
 71
     1
 72
     1
  1
production drw.
  7
SLDTEXTSTYLE0
 73
     1
 44
1.0
  0
MTEXT
  5
BC
330
1F
100
AcDbEntity
  8
SINGLE_ARTICLE_DRW
100
AcDbMText
 10
2275.0
 20
269.9766099061
 30
0.0
 40
9.0
 41
0.0
 71
     1
 72
     1
  1
material:
  7
SLDTEXTSTYLE0
 73
     1
 44
1.0
  0
MTEXT
  5
BD
330
1F
100
AcDbEntity
  8
SINGLE_ARTICLE_DRW
100
AcDbMText
 10
2775.0
 20
224.9766099061
 30
0.0
 40
9.0
 41
0.0
 71
     1
 72
     1
  1
projection:ISO-E
  7
SLDTEXTSTYLE0
 73
     1
 44
1.0
  0
MTEXT
  5
BE
330
1F
100
AcDbEntity
  8
SINGLE_ARTICLE_DRW
100
AcDbMText
 10
2894.7500000913
 20
89.9766099061
 30
0.0
 40
9.0
 41
0.0
 71
     2
 72
     1
  1
sheet:
  7
SLDTEXTSTYLE0
 73
     1
 44
1.0
  0
MTEXT
  5
BF
330
1F
100
AcDbEntity
  8
SINGLE_ARTICLE_DRW
100
AcDbMText
 10
2725.0
 20
89.9766099061
 30
0.0
 40
9.0
 41
0.0
 71
     1
 72
     1
  1
release date:
  7
SLDTEXTSTYLE0
 73
     1
 44
1.0
  0
MTEXT
  5
C0
330
1F
100
AcDbEntity
  8
SINGLE_ARTICLE_DRW
100
AcDbMText
 10
2525.0
 20
224.9766099061
 30
0.0
 40
9.0
 41
0.0
 71
     1
 72
     1
  1
reviewed by:
  7
SLDTEXTSTYLE0
 73
     1
 44
1.0
  0
MTEXT
  5
C1
330
1F
100
AcDbEntity
  8
SINGLE_ARTICLE_DRW
100
AcDbMText
 10
2694.8125000894
 20
89.9766099061
 30
0.0
 40
9.0
 41
0.0
 71
     2
 72
     1
  1
index:
  7
SLDTEXTSTYLE0
 73
     1
 44
1.0
  0
MTEXT
  5
C2
330
1F
100
AcDbEntity
  8
SINGLE_ARTICLE_DRW
100
AcDbMText
 10
2775.0
 20
269.9766099061
 30
0.0
 40
9.0
 41
0.0
 71
     1
 72
     1
  1
documenttype:
  7
SLDTEXTSTYLE0
 73
     1
 44
1.0
  0
MTEXT
  5
C3
330
1F
100
AcDbEntity
  8
SINGLE_ARTICLE_DRW
100
AcDbMText
 10
2619.034373872
 20
89.9766099061
 30
0.0
 40
9.0
 41
0.0
 71
     2
 72
     1
  1
drawing-no.:
  7
SLDTEXTSTYLE0
 73
     1
 44
1.0
  0
MTEXT
  5
C4
330
1F
100
AcDbEntity
  8
SINGLE_ARTICLE_DRW
100
AcDbMText
 10
2775.0
 20
314.9766099061
 30
0.0
 40
9.0
 41
0.0
 71
     1
 72
     1
  1
weight:
  7
SLDTEXTSTYLE0
 73
     1
 44
1.0
  0
MTEXT
  5
C5
330
1F
100
AcDbEntity
  8
SINGLE_ARTICLE_DRW
100
AcDbMText
 10
2894.8750000875
 20
224.9766099061
 30
0.0
 40
9.0
 41
0.0
 71
     2
 72
     1
  1
scale:
  7
SLDTEXTSTYLE0
 73
     1
 44
1.0
  0
MTEXT
  5
C6
330
1F
100
AcDbEntity
  8
SINGLE_ARTICLE_DRW
100
AcDbMText
 10
2525.0
 20
314.9766099061
 30
0.0
 40
9.0
 41
0.0
 71
     1
 72
     1
  1
surface:
  7
SLDTEXTSTYLE0
 73
     1
 44
1.0
  0
MTEXT
  5
C7
330
1F
100
AcDbEntity
  8
SINGLE_ARTICLE_DRW
100
AcDbMText
 10
2275.0
 20
224.9766099061
 30
0.0
 40
9.0
 41
0.0
 71
     1
 72
     1
  1
created by:
  7
SLDTEXTSTYLE0
 73
     1
 44
1.0
  0
INSERT
  5
CE
330
1F
100
AcDbEntity
  8
SINGLE_ARTICLE_DRW
100
AcDbBlockReference
  2
SW_NOTE_0
 10
2025.0
 20
78.4000001475
 30
0.0
  0
MTEXT
  5
CF
330
1F
100
AcDbEntity
  8
SINGLE_ARTICLE_DRW
100
AcDbMText
 10
2025.0
 20
114.9675136777
 30
0.0
 40
12.5
 41
0.0
 71
     1
 72
     1
  1
ZB Duschrinne C mit Spalt und Flansch, mit Seitenauslaß, mit FAT GV50 L680, International
  7
SLDTEXTSTYLE0
 73
     1
 44
1.0
  0
MTEXT
  5
D0
330
1F
100
AcDbEntity
  8
SINGLE_ARTICLE_DRW
100
AcDbMText
 10
2025.0
 20
137.4675136777
 30
0.0
 40
12.5
 41
0.0
 71
     1
 72
     1
  1
ASM Shower Channel C with gap and flange, with Side outlet, with FAT GV50 L680, International
  7
SLDTEXTSTYLE0
 73
     1
 44
1.0
  0
MTEXT
  5
D1
330
1F
100
AcDbEntity
  8
SINGLE_ARTICLE_DRW
100
AcDbMText
 10
2025.0
 20
295.0022357116
 30
0.0
 40
12.5
 41
0.0
 71
     1
 72
     1
  1
Tittmar, Alexander
  7
SLDTEXTSTYLE0
 73
     1
 44
1.0
  0
MTEXT
  5
D2
330
1F
100
AcDbEntity
  8
SINGLE_ARTICLE_DRW
100
AcDbMText
 10
2619.0407964215
 20
69.9675136777
 30
0.0
 40
12.5
 41
0.0
 71
     2
 72
     1
  1
1077049-O
  7
SLDTEXTSTYLE0
 73
     1
 44
1.0
  0
MTEXT
  5
D3
330
1F
100
AcDbEntity
  8
SINGLE_ARTICLE_DRW
100
AcDbMText
 10
2694.7395830229
 20
69.9675136777
 30
0.0
 40
12.5
 41
0.0
 71
     2
 72
     1
  1
001
  7
SLDTEXTSTYLE0
 73
     1
 44
1.0
  0
MTEXT
  5
D4
330
1F
100
AcDbEntity
  8
SINGLE_ARTICLE_DRW
100
AcDbMText
 10
2025.0
 20
159.9675136777
 30
0.0
 40
12.5
 41
0.0
 71
     1
 72
     1
  1
ACO ShowerDrain
  7
SLDTEXTSTYLE0
 73
     1
 44
1.0
  0
MTEXT
  5
D5
330
1F
100
AcDbEntity
  8
SINGLE_ARTICLE_DRW
100
AcDbMText
 10
2025.0
 20
334.9766099061
 30
0.0
 40
9.0
 41
0.0
 71
     1
 72
     1
  1
modification:
  7
SLDTEXTSTYLE0
 73
     1
 44
1.0
  0
MTEXT
  5
D6
330
1F
100
AcDbEntity
  8
SINGLE_ARTICLE_DRW
100
AcDbMText
 10
2775.0
 20
294.9675136777
 30
0.0
 40
12.5
 41
0.0
 71
     1
 72
     1
  1
1.694 kg
  7
SLDTEXTSTYLE0
 73
     1
 44
1.0
  0
MTEXT
  5
D7
330
1F
100
AcDbEntity
  8
MARKETING_DRW
100
AcDbMText
 10
2025.0
 20
114.9675136777
 30
0.0
 40
12.5
 41
0.0
 71
     1
 72
     1
  1
ZB Duschrinne C mit Spalt und Flansch, mit Seitenauslaß, mit FAT GV50 L680, International
  7
SLDTEXTSTYLE0
 73
     1
 44
1.0
  0
MTEXT
  5
D8
330
1F
100
AcDbEntity
  8
MARKETING_DRW
100
AcDbMText
 10
2025.0
 20
137.4675136777
 30
0.0
 40
12.5
 41
0.0
 71
     1
 72
     1
  1
ASM Shower Channel C with gap and flange, with Side outlet, with FAT GV50 L680, International
  7
SLDTEXTSTYLE0
 73
     1
 44
1.0
  0
MTEXT
  5
D9
330
1F
100
AcDbEntity
  8
MARKETING_DRW
100
AcDbMText
 10
2606.5407964215
 20
249.9675136777
 30
0.0
 40
12.5
 41
0.0
 71
     2
 72
     1
  1
1077049-O
  7
SLDTEXTSTYLE0
 73
     1
 44
1.0
  0
MTEXT
  5
DA
330
1F
100
AcDbEntity
  8
MARKETING_DRW
100
AcDbMText
 10
2732.2395830229
 20
252.0971433073
 30
0.0
 40
12.5
 41
0.0
 71
     2
 72
     1
  1
001
  7
SLDTEXTSTYLE0
 73
     1
 44
1.0
  0
MTEXT
  5
DB
330
1F
100
AcDbEntity
  8
MARKETING_DRW
100
AcDbMText
 10
2025.0
 20
159.9675136777
 30
0.0
 40
12.5
 41
0.0
 71
     1
 72
     1
  1
ACO ShowerDrain
  7
SLDTEXTSTYLE0
 73
     1
 44
1.0
  0
MTEXT
  5
DC
330
1F
100
AcDbEntity
  8
MARKETING_DRW
100
AcDbMText
 10
2775.0
 20
269.9766099061
 30
0.0
 40
9.0
 41
0.0
 71
     1
 72
     1
  1
documenttype:
  7
SLDTEXTSTYLE0
 73
     1
 44
1.0
  0
MTEXT
  5
DD
330
1F
100
AcDbEntity
  8
MARKETING_DRW
100
AcDbMText
 10
2275.0
 20
224.9766099061
 30
0.0
 40
9.0
 41
0.0
 71
     1
 72
     1
  1
created by:
  7
SLDTEXTSTYLE0
 73
     1
 44
1.0
  0
MTEXT
  5
DE
330
1F
100
AcDbEntity
  8
MARKETING_DRW
100
AcDbMText
 10
2606.534373872
 20
270.0578764559
 30
0.0
 40
9.0
 41
0.0
 71
     2
 72
     1
  1
drawing-no.:
  7
SLDTEXTSTYLE0
 73
     1
 44
1.0
  0
MTEXT
  5
DF
330
1F
100
AcDbEntity
  8
MARKETING_DRW
100
AcDbMText
 10
2525.0
 20
224.9766099061
 30
0.0
 40
9.0
 41
0.0
 71
     1
 72
     1
  1
reviewed by:
  7
SLDTEXTSTYLE0
 73
     1
 44
1.0
  0
MTEXT
  5
E0
330
1F
100
AcDbEntity
  8
MARKETING_DRW
100
AcDbMText
 10
2775.0
 20
224.9766099061
 30
0.0
 40
9.0
 41
0.0
 71
     1
 72
     1
  1
projection:ISO-E
  7
SLDTEXTSTYLE0
 73
     1
 44
1.0
  0
MTEXT
  5
E1
330
1F
100
AcDbEntity
  8
MARKETING_DRW
100
AcDbMText
 10
2894.7500000913
 20
89.9766099061
 30
0.0
 40
9.0
 41
0.0
 71
     2
 72
     1
  1
sheet:
  7
SLDTEXTSTYLE0
 73
     1
 44
1.0
  0
MTEXT
  5
E2
330
1F
100
AcDbEntity
  8
MARKETING_DRW
100
AcDbMText
 10
2894.7829862405
 20
69.9675136777
 30
0.0
 40
12.5
 41
0.0
 71
     2
 72
     1
  1
1/1
  7
SLDTEXTSTYLE0
 73
     1
 44
1.0
  0
MTEXT
  5
E3
330
1F
100
AcDbEntity
  8
MARKETING_DRW
100
AcDbMText
 10
2725.0
 20
89.9766099061
 30
0.0
 40
9.0
 41
0.0
 71
     1
 72
     1
  1
release date:
  7
SLDTEXTSTYLE0
 73
     1
 44
1.0
  0
MTEXT
  5
E4
330
1F
100
AcDbEntity
  8
MARKETING_DRW
100
AcDbMText
 10
2732.3125000894
 20
269.9766099061
 30
0.0
 40
9.0
 41
0.0
 71
     2
 72
     1
  1
index:
  7
SLDTEXTSTYLE0
 73
     1
 44
1.0
  0
MTEXT
  5
E5
330
1F
100
AcDbEntity
  8
MARKETING_DRW
100
AcDbMText
 10
2025.0
 20
179.9766099061
 30
0.0
 40
9.0
 41
0.0
 71
     1
 72
     1
  1
title:
  7
SLDTEXTSTYLE0
 73
     1
 44
1.0
  0
MTEXT
  5
E6
330
1F
100
AcDbEntity
  8
MARKETING_DRW
100
AcDbMText
 10
2894.8750000875
 20
224.9766099061
 30
0.0
 40
9.0
 41
0.0
 71
     2
 72
     1
  1
scale:
  7
SLDTEXTSTYLE0
 73
     1
 44
1.0
  0
MTEXT
  5
E7
330
1F
100
AcDbEntity
  8
MARKETING_DRW
100
AcDbMText
 10
2894.7829862405
 20
204.9675136777
 30
0.0
 40
12.5
 41
0.0
 71
     2
 72
     1
  1
1:5
  7
SLDTEXTSTYLE0
 73
     1
 44
1.0
  0
INSERT
  5
EE
330
1F
100
AcDbEntity
  8
MARKETING_DRW
100
AcDbBlockReference
  2
SW_NOTE_0_1
 10
2025.0
 20
78.3750002482
 30
0.0
  0
MTEXT
  5
EF
330
1F
100
AcDbEntity
  8
MARKETING_DRW
100
AcDbMText
 10
2775.0
 20
249.9675136777
 30
0.0
 40
12.5
 41
0.0
 71
     1
 72
     1
  1
marketing drw.
  7
SLDTEXTSTYLE0
 73
     1
 44
1.0
  0
LINE
  5
F0
330
1F
100
AcDbEntity
  8
0
  6
Continuous
 62
     7
370
    35
100
AcDbLine
 10
1546.6192553314
 20
1382.952018119
 30
0.0
 11
866.6192553314
 21
1382.952018119
 31
0.0
  0
LINE
  5
F1
330
1F
100
AcDbEntity
  8
0
  6
Continuous
 62
     7
370
    35
100
AcDbLine
 10
1125.6192553314
 20
1362.9668431075
 30
0.0
 11
1125.6192553314
 21
1359.9555796198
 31
0.0
  0
LINE
  5
F2
330
1F
100
AcDbEntity
  8
0
  6
Continuous
 62
     7
370
    35
100
AcDbLine
 10
1287.6192553314
 20
1359.9555796198
 30
0.0
 11
1287.6192553314
 21
1362.9668431075
 31
0.0
  0
ARC
  5
F3
330
1F
100
AcDbEntity
  8
0
  6
Continuous
 62
     7
370
    35
100
AcDbCircle
 10
1123.6192553314
 20
1362.9588014601
 30
0.0
 40
2.000000000000093
100
AcDbArc
 50
0.2172817996
 51
85.9305858724
  0
ARC
  5
F4
330
1F
100
AcDbEntity
  8
0
  6
Continuous
 62
     7
370
    35
100
AcDbCircle
 10
1289.6192553314
 20
1362.9588014601
 30
0.0
 40
1.999999999999936
100
AcDbArc
 50
94.065898605
 51
179.7696267909
  0
LINE
  5
F5
330
1F
100
AcDbEntity
  8
0
  6
Continuous
 62
     7
370
    35
100
AcDbLine
 10
866.6192553314
 20
1364.9536290393
 30
0.0
 11
1123.760117275
 21
1364.9536290393
 31
0.0
  0
LINE
  5
F6
330
1F
100
AcDbEntity
  8
0
  6
Continuous
 62
     7
370
    35
100
AcDbLine
 10
1289.4783933879
 20
1364.9536290393
 30
0.0
 11
1546.6192553314
 21
1364.9536290393
 31
0.0
  0
ARC
  5
F7
330
1F
100
AcDbEntity
  8
0
  6
Continuous
 62
     7
370
    35
100
AcDbCircle
 10
1341.3076536771
 20
1336.5555796194
 30
0.0
 40
3.000000000000227
100
AcDbArc
 50
78.1402208791
 51
90.0
  0
ARC
  5
F8
330
1F
100
AcDbEntity
  8
0
  6
Continuous
 62
     7
370
    35
100
AcDbCircle
 10
1341.3076536771
 20
1292.4555796194
 30
0.0
 40
2.999999999999773
100
AcDbArc
 50
270.0
 51
281.8597791209
  0
LINE
  5
F9
330
1F
100
AcDbEntity
  8
0
  6
Continuous
 62
     7
370
    35
100
AcDbLine
 10
1298.1192553314
 20
1289.4555796194
 30
0.0
 11
1341.3076536771
 21
1289.4555796194
 31
0.0
  0
LINE
  5
FA
330
1F
100
AcDbEntity
  8
0
  6
Continuous
 62
     7
370
    35
100
AcDbLine
 10
1341.3076536771
 20
1339.5555796194
 30
0.0
 11
1298.1192553314
 21
1339.5555796194
 31
0.0
  0
LINE
  5
FB
330
1F
100
AcDbEntity
  8
0
  6
Continuous
 62
     7
370
    35
100
AcDbLine
 10
1341.92420538
 20
1289.5196191296
 30
0.0
 11
1346.6192553314
 21
1290.5055796194
 31
0.0
  0
LINE
  5
FC
330
1F
100
AcDbEntity
  8
0
  6
Continuous
 62
     7
370
    35
100
AcDbLine
 10
1346.6192553314
 20
1338.5055796194
 30
0.0
 11
1341.92420538
 21
1339.4915401092
 31
0.0
  0
LINE
  5
FD
330
1F
100
AcDbEntity
  8
0
  6
Continuous
 62
     7
370
    35
100
AcDbLine
 10
1298.1192553314
 20
1339.5055796194
 30
0.0
 11
1296.517089758
 21
1339.5055796194
 31
0.0
  0
LINE
  5
FE
330
1F
100
AcDbEntity
  8
0
  6
Continuous
 62
     7
370
    35
100
AcDbLine
 10
1279.6192553314
 20
1289.5055796194
 30
0.0
 11
1298.1192553314
 21
1289.5055796194
 31
0.0
  0
LINE
  5
FF
330
1F
100
AcDbEntity
  8
0
  6
Continuous
 62
     7
370
    35
100
AcDbLine
 10
1275.6660377385
 20
1289.5055796194
 30
0.0
 11
1279.6192553314
 21
1289.5055796194
 31
0.0
  0
LINE
  5
100
330
1F
100
AcDbEntity
  8
0
  6
Continuous
 62
     7
370
    35
100
AcDbLine
 10
866.6192553314
 20
1370.952018119
 30
0.0
 11
866.6192553314
 21
1369.952018119
 31
0.0
  0
LINE
  5
101
330
1F
100
AcDbEntity
  8
0
  6
Continuous
 62
     7
370
    35
100
AcDbLine
 10
1546.6192553314
 20
1370.952018119
 30
0.0
 11
866.6192553314
 21
1370.952018119
 31
0.0
  0
LINE
  5
102
330
1F
100
AcDbEntity
  8
0
  6
Continuous
 62
     7
370
    35
100
AcDbLine
 10
1546.6192553314
 20
1370.952018119
 30
0.0
 11
1546.6192553314
 21
1369.952018119
 31
0.0
  0
LINE
  5
103
330
1F
100
AcDbEntity
  8
0
  6
Continuous
 62
     7
370
    35
100
AcDbLine
 10
1546.6192553314
 20
1369.952018119
 30
0.0
 11
866.6192553314
 21
1369.952018119
 31
0.0
  0
LINE
  5
104
330
1F
100
AcDbEntity
  8
0
  6
Continuous
 62
     7
370
    35
100
AcDbLine
 10
1546.6192553314
 20
1370.952018119
 30
0.0
 11
1546.6192553314
 21
1371.952018119
 31
0.0
  0
LINE
  5
105
330
1F
100
AcDbEntity
  8
0
  6
Continuous
 62
     7
370
    35
100
AcDbLine
 10
866.6192553314
 20
1371.952018119
 30
0.0
 11
866.6192553314
 21
1370.952018119
 31
0.0
  0
LINE
  5
106
330
1F
100
AcDbEntity
  8
0
  6
Continuous
 62
     7
370
    35
100
AcDbLine
 10
1546.6192553314
 20
1381.452018119
 30
0.0
 11
1546.6192553314
 21
1371.952018119
 31
0.0
  0
LINE
  5
107
330
1F
100
AcDbEntity
  8
0
  6
Continuous
 62
     7
370
    35
100
AcDbLine
 10
866.6192553314
 20
1371.952018119
 30
0.0
 11
866.6192553314
 21
1381.452018119
 31
0.0
  0
LINE
  5
108
330
1F
100
AcDbEntity
  8
0
  6
Continuous
 62
     7
370
    35
100
AcDbLine
 10
1546.6192553314
 20
1382.952018119
 30
0.0
 11
1546.6192553314
 21
1381.952018119
 31
0.0
  0
LINE
  5
109
330
1F
100
AcDbEntity
  8
0
  6
Continuous
 62
     7
370
    35
100
AcDbLine
 10
866.6192553314
 20
1381.952018119
 30
0.0
 11
866.6192553314
 21
1382.952018119
 31
0.0
  0
LINE
  5
10A
330
1F
100
AcDbEntity
  8
0
  6
Continuous
 62
     7
370
    35
100
AcDbLine
 10
866.6192553314
 20
1368.7139366083
 30
0.0
 11
866.6192553314
 21
1369.952018119
 31
0.0
  0
LINE
  5
10B
330
1F
100
AcDbEntity
  8
0
  6
Continuous
 62
     7
370
    35
100
AcDbLine
 10
1546.6192553314
 20
1368.7139366083
 30
0.0
 11
1546.6192553314
 21
1369.952018119
 31
0.0
  0
LINE
  5
10C
330
1F
100
AcDbEntity
  8
0
  6
Continuous
 62
     7
370
    35
100
AcDbLine
 10
1546.6192553314
 20
1368.0179660629
 30
0.0
 11
1546.6192553314
 21
1368.7139366083
 31
0.0
  0
LINE
  5
10D
330
1F
100
AcDbEntity
  8
0
  6
Continuous
 62
     7
370
    35
100
AcDbLine
 10
866.6192553314
 20
1368.7139366083
 30
0.0
 11
866.6192553314
 21
1368.0179660629
 31
0.0
  0
SPLINE
  5
10E
330
1F
100
AcDbEntity
  8
0
  6
Continuous
 62
     7
370
    35
100
AcDbSpline
210
0.0
220
0.0
230
1.0
 70
     8
 71
     3
 72
     8
 73
     4
 74
     0
 42
0.000000001
 43
0.00000001
 40
0.0000000000000255
 40
0.0000000000000255
 40
0.0000000000000255
 40
0.0000000000000255
 40
0.0000564308016788
 40
0.0000564308016788
 40
0.0000564308016788
 40
0.0000564308016788
 10
1289.490718110785
 20
1364.956845698205
 30
0.0
 10
1289.495880514597
 20
1364.95787115734
 30
0.0
 10
1289.498891282494
 20
1364.958946281605
 30
0.0
 10
1289.49871383391
 20
1364.960012640636
 30
0.0
  0
SPLINE
  5
10F
330
1F
100
AcDbEntity
  8
0
  6
Continuous
 62
     7
370
    35
100
AcDbSpline
210
0.0
220
0.0
230
1.0
 70
     8
 71
     3
 72
    14
 73
    10
 74
     0
 42
0.000000001
 43
0.00000001
 40
0.0
 40
0.0
 40
0.0
 40
0.0
 40
0.25
 40
0.25
 40
0.5
 40
0.5
 40
0.75
 40
0.75
 40
1.0
 40
1.0
 40
1.0
 40
1.0
 10
1289.498713834039
 20
1364.960012640636
 30
0.0
 10
1289.467341186161
 20
1365.14854334437
 30
0.0
 10
1288.878402273921
 20
1365.336538689275
 30
0.0
 10
1286.646681709344
 20
1365.691742013862
 30
0.0
 10
1285.00643658966
 20
1365.858526261183
 30
0.0
 10
1280.849018832576
 20
1366.152830001582
 30
0.0
 10
1278.336257466732
 20
1366.280024779109
 30
0.0
 10
1272.708444929206
 20
1366.480923332982
 30
0.0
 10
1269.599238467076
 20
1366.554418124039
 30
0.0
 10
1266.359586894125
 20
1366.597013002244
 30
0.0
  0
SPLINE
  5
110
330
1F
100
AcDbEntity
  8
0
  6
Continuous
 62
     7
370
    35
100
AcDbSpline
210
0.0
220
0.0
230
1.0
 70
     8
 71
     3
 72
    14
 73
    10
 74
     0
 42
0.000000001
 43
0.00000001
 40
0.0
 40
0.0
 40
0.0
 40
0.0
 40
0.125
 40
0.125
 40
0.2500000000000001
 40
0.2500000000000001
 40
0.5
 40
0.5
 40
1.0
 40
1.0
 40
1.0
 40
1.0
 10
1266.359586894098
 20
1366.597013002238
 30
0.0
 10
1266.083540453652
 20
1366.600642455667
 30
0.0
 10
1265.804245859756
 20
1366.602527411527
 30
0.0
 10
1265.244350819938
 20
1366.605595984539
 30
0.0
 10
1264.963651296442
 20
1366.606726389746
 30
0.0
 10
1264.120889478836
 20
1366.609761392827
 30
0.0
 10
1263.558352373824
 20
1366.611241411762
 30
0.0
 10
1261.870908343709
 20
1366.614832356072
 30
0.0
 10
1260.745354468975
 20
1366.615980966235
 30
0.0
 10
1259.619255331419
 20
1366.615980966235
 30
0.0
  0
LINE
  5
111
330
1F
100
AcDbEntity
  8
0
  6
Continuous
 62
     7
370
    35
100
AcDbLine
 10
1259.6192553314
 20
1366.6159809662
 30
0.0
 11
1153.6192553314
 21
1366.6159809662
 31
0.0
  0
SPLINE
  5
112
330
1F
100
AcDbEntity
  8
0
  6
Continuous
 62
     7
370
    35
100
AcDbSpline
210
0.0
220
0.0
230
1.0
 70
     8
 71
     3
 72
    14
 73
    10
 74
     0
 42
0.000000001
 43
0.00000001
 40
0.0
 40
0.0
 40
0.0
 40
0.0
 40
0.5
 40
0.5
 40
0.7500000000000016
 40
0.7500000000000016
 40
0.8750000000000008
 40
0.8750000000000008
 40
1.0
 40
1.0
 40
1.0
 40
1.0
 10
1153.619255331419
 20
1366.615980966235
 30
0.0
 10
1152.493352795122
 20
1366.615980966235
 30
0.0
 10
1151.367897372459
 20
1366.614832763074
 30
0.0
 10
1149.680441772707
 20
1366.611242125424
 30
0.0
 10
1149.117984416675
 20
1366.609762230385
 30
0.0
 10
1148.275636501194
 20
1366.606729423277
 30
0.0
 10
1147.995024027909
 20
1366.605599863471
 30
0.0
 10
1147.434959114211
 20
1366.602532071744
 30
0.0
 10
1147.154385998477
 20
1366.600634774475
 30
0.0
 10
1146.87892376874
 20
1366.597013002238
 30
0.0
  0
SPLINE
  5
113
330
1F
100
AcDbEntity
  8
0
  6
Continuous
 62
     7
370
    35
100
AcDbSpline
210
0.0
220
0.0
230
1.0
 70
     8
 71
     3
 72
    14
 73
    10
 74
     0
 42
0.000000001
 43
0.00000001
 40
0.0
 40
0.0
 40
0.0
 40
0.0
 40
0.25
 40
0.25
 40
0.5
 40
0.5
 40
0.75
 40
0.75
 40
1.0
 40
1.0
 40
1.0
 40
1.0
 10
1146.878923768713
 20
1366.597013002244
 30
0.0
 10
1143.639272099617
 20
1366.554418122775
 30
0.0
 10
1140.530396087491
 20
1366.480934064538
 30
0.0
 10
1134.902163666597
 20
1366.280022644322
 30
0.0
 10
1132.389593519912
 20
1366.152835757095
 30
0.0
 10
1128.232151371989
 20
1365.858533176206
 30
0.0
 10
1126.591811679679
 20
1365.691736609058
 30
0.0
 10
1124.360220696113
 20
1365.336559219593
 30
0.0
 10
1123.771169477408
 20
1365.148543348755
 30
0.0
 10
1123.739796828799
 20
1364.960012640636
 30
0.0
  0
SPLINE
  5
114
330
1F
100
AcDbEntity
  8
0
  6
Continuous
 62
     7
370
    35
100
AcDbSpline
210
0.0
220
0.0
230
1.0
 70
     8
 71
     3
 72
     8
 73
     4
 74
     0
 42
0.000000001
 43
0.00000001
 40
0.0000000000000194
 40
0.0000000000000194
 40
0.0000000000000194
 40
0.0000000000000194
 40
0.0000564308016788
 40
0.0000564308016788
 40
0.0000564308016788
 40
0.0000564308016788
 10
1123.739796828929
 20
1364.960012640636
 30
0.0
 10
1123.739619380345
 20
1364.958946281605
 30
0.0
 10
1123.742630148241
 20
1364.95787115734
 30
0.0
 10
1123.747792552054
 20
1364.956845698205
 30
0.0
  0
LINE
  5
115
330
1F
100
AcDbEntity
  8
0
  6
Continuous
 62
     7
370
    35
100
AcDbLine
 10
1125.6192553314
 20
1359.9555796195
 30
0.0
 11
1153.6192553314
 21
1359.9555796195
 31
0.0
  0
LINE
  5
116
330
1F
100
AcDbEntity
  8
0
  6
Continuous
 62
     7
370
    35
100
AcDbLine
 10
1153.6192553314
 20
1359.9555796195
 30
0.0
 11
1259.6192553314
 21
1359.9555796195
 31
0.0
  0
LINE
  5
117
330
1F
100
AcDbEntity
  8
0
  6
Continuous
 62
     7
370
    35
100
AcDbLine
 10
1259.6192553314
 20
1359.9555796195
 30
0.0
 11
1280.7734116807
 21
1359.9555796195
 31
0.0
  0
LINE
  5
118
330
1F
100
AcDbEntity
  8
0
  6
Continuous
 62
     7
370
    35
100
AcDbLine
 10
1281.4084615982
 20
1359.9555796195
 30
0.0
 11
1287.6192553314
 21
1359.9555796195
 31
0.0
  0
SPLINE
  5
119
330
1F
100
AcDbEntity
  8
0
  6
Continuous
 62
     7
370
    35
100
AcDbSpline
210
0.0
220
0.0
230
1.0
 70
    24
 71
     3
 72
     9
 73
     5
 74
     0
 42
0.000000001
 43
0.00000001
 40
0.0
 40
0.0
 40
0.0
 40
0.0
 40
0.1857572773134753
 40
0.9999999999999999
 40
0.9999999999999999
 40
0.9999999999999999
 40
0.9999999999999999
 10
1123.760186063323
 20
1364.954230021915
 30
0.0
 10
1123.761123715717
 20
1364.95403212843
 30
0.0
 10
1123.766171444709
 20
1364.952966794743
 30
0.0
 10
1123.756041106345
 20
1364.955104823692
 30
0.0
 10
1123.747792552054
 20
1364.956845698205
 30
0.0
  0
LINE
  5
11A
330
1F
100
AcDbEntity
  8
0
  6
Continuous
 62
     7
370
    35
100
AcDbLine
 10
1289.4907181108
 20
1364.9568456982
 30
0.0
 11
1289.4783064241
 21
1364.954226186
 31
0.0
  0
LINE
  5
11B
330
1F
100
AcDbEntity
  8
0
  6
Continuous
 62
     7
370
    35
100
AcDbLine
 10
1153.6192553314
 20
1363.0055796194
 30
0.0
 11
1125.8192553314
 21
1363.0055796194
 31
0.0
  0
LINE
  5
11C
330
1F
100
AcDbEntity
  8
0
  6
Continuous
 62
     7
370
    35
100
AcDbLine
 10
1259.6192553314
 20
1363.0055796194
 30
0.0
 11
1287.4192553314
 21
1363.0055796194
 31
0.0
  0
LINE
  5
11D
330
1F
100
AcDbEntity
  8
0
  6
Continuous
 62
     7
370
    35
100
AcDbLine
 10
1298.1192553314
 20
1314.5055796194
 30
0.0
 11
1298.1192553314
 21
1339.5555796194
 31
0.0
  0
LINE
  5
11E
330
1F
100
AcDbEntity
  8
0
  6
Continuous
 62
     7
370
    35
100
AcDbLine
 10
1298.1192553314
 20
1289.4555796194
 30
0.0
 11
1298.1192553314
 21
1314.5055796194
 31
0.0
  0
LINE
  5
11F
330
1F
100
AcDbEntity
  8
0
  6
Continuous
 62
     7
370
    35
100
AcDbLine
 10
1346.6192553314
 20
1314.5055796194
 30
0.0
 11
1346.6192553314
 21
1338.5055796194
 31
0.0
  0
LINE
  5
120
330
1F
100
AcDbEntity
  8
0
  6
Continuous
 62
     7
370
    35
100
AcDbLine
 10
1346.6192553314
 20
1290.5055796194
 30
0.0
 11
1346.6192553314
 21
1314.5055796194
 31
0.0
  0
ARC
  5
121
330
1F
100
AcDbEntity
  8
0
  6
Continuous
 62
     7
370
    35
100
AcDbCircle
 10
1206.6192553314
 20
1314.5555796194
 30
0.0
 40
25.04999999999983
100
AcDbArc
 50
237.7865374201
 51
302.2134625799
  0
SPLINE
  5
122
330
1F
100
AcDbEntity
  8
0
  6
Continuous
 62
     7
370
    35
100
AcDbSpline
210
0.0
220
0.0
230
1.0
 70
    24
 71
     3
 72
    10
 73
     6
 74
     0
 42
0.000000001
 43
0.00000001
 40
0.0
 40
0.0
 40
0.0
 40
0.0
 40
0.2125176675663013
 40
0.6062581077228196
 40
1.0
 40
1.0
 40
1.0
 40
1.0
 10
1206.619255331421
 20
1339.867586146403
 30
0.0
 10
1206.61925533142
 20
1339.950869655117
 30
0.0
 10
1206.619255331418
 20
1340.188456030759
 30
0.0
 10
1206.619255331421
 20
1340.79992059517
 30
0.0
 10
1206.61925533142
 20
1341.424820433518
 30
0.0
 10
1206.619255331419
 20
1341.737270928851
 30
0.0
  0
SPLINE
  5
123
330
1F
100
AcDbEntity
  8
0
  6
Continuous
 62
     7
370
    35
100
AcDbSpline
210
0.0
220
0.0
230
1.0
 70
    24
 71
     3
 72
    18
 73
    14
 74
     0
 42
0.000000001
 43
0.00000001
 40
0.0
 40
0.0
 40
0.0
 40
0.0
 40
0.1056000872447501
 40
0.3249463313005451
 40
0.5456095245813402
 40
0.6686132746948424
 40
0.7011918426142504
 40
0.7339487647370313
 40
0.7672437697818075
 40
0.803594775916587
 40
0.8401179485066324
 40
0.8975115054529716
 40
1.0
 40
1.0
 40
1.0
 40
1.0
 10
1206.619255331419
 20
1341.73727092885
 30
0.0
 10
1206.619255331419
 20
1342.41347953798
 30
0.0
 10
1206.619255331419
 20
1344.494268602305
 30
0.0
 10
1206.619255331419
 20
1347.926258645832
 30
0.0
 10
1206.619255331419
 20
1351.572423081794
 30
0.0
 10
1206.619255331419
 20
1353.716584828217
 30
0.0
 10
1206.619255331419
 20
1354.498693558001
 30
0.0
 10
1206.619255331419
 20
1354.780312559274
 30
0.0
 10
1206.619255331419
 20
1355.264522161979
 30
0.0
 10
1206.619255331419
 20
1356.024672089032
 30
0.0
 10
1206.619255331419
 20
1356.880980945659
 30
0.0
 10
1206.619255331419
 20
1358.202574329458
 30
0.0
 10
1206.619255331419
 20
1359.270811928038
 30
0.0
 10
1206.619255331419
 20
1359.955579619435
 30
0.0
  0
SPLINE
  5
124
330
1F
100
AcDbEntity
  8
0
  6
Continuous
 62
     7
370
    35
100
AcDbSpline
210
0.0
220
0.0
230
1.0
 70
    24
 71
     3
 72
    19
 73
    15
 74
     0
 42
0.000000001
 43
0.00000001
 40
0.0
 40
0.0
 40
0.0
 40
0.0
 40
0.2409130132110047
 40
0.4882582803106248
 40
0.5391715029117174
 40
0.5899404478678678
 40
0.6400693120936225
 40
0.6899887491764568
 40
0.7400419496428569
 40
0.7904190820051351
 40
0.8413201884464373
 40
0.8929676784851881
 40
0.9456873805534199
 40
1.0
 40
1.0
 40
1.0
 40
1.0
 10
1206.619255331419
 20
1359.955579619435
 30
0.0
 10
1214.465298429701
 20
1359.955579619435
 30
0.0
 10
1230.366869952758
 20
1359.955579619435
 30
0.0
 10
1247.932294538058
 20
1359.955579619435
 30
0.0
 10
1259.294181341061
 20
1359.955579619435
 30
0.0
 10
1264.249953935305
 20
1359.955579619434
 30
0.0
 10
1269.034314698715
 20
1359.955579619434
 30
0.0
 10
1273.517892642846
 20
1359.955579619435
 30
0.0
 10
1277.596142933424
 20
1359.955579619435
 30
0.0
 10
1281.169394874919
 20
1359.955579619435
 30
0.0
 10
1284.135800619739
 20
1359.955579619435
 30
0.0
 10
1286.365826839104
 20
1359.955579619435
 30
0.0
 10
1287.839136936126
 20
1359.955579619435
 30
0.0
 10
1288.024960687206
 20
1359.955579619435
 30
0.0
 10
1288.119255331419
 20
1359.955579619435
 30
0.0
  0
SPLINE
  5
125
330
1F
100
AcDbEntity
  8
0
  6
Continuous
 62
     7
370
    35
100
AcDbSpline
210
0.0
220
0.0
230
1.0
 70
     8
 71
     3
 72
    16
 73
    12
 74
     0
 42
0.000000001
 43
0.00000001
 40
0.0
 40
0.0
 40
0.0
 40
0.0
 40
0.1465768179208892
 40
0.2110706177997897
 40
0.2609182759381881
 40
0.301662719675315
 40
0.3460236197864481
 40
0.4164469026261889
 40
0.5419712682998772
 40
0.7688489389603064
 40
1.0
 40
1.0
 40
1.0
 40
1.0
 10
1288.119255331419
 20
1359.955579619435
 30
0.0
 10
1288.11258548589
 20
1359.076527290828
 30
0.0
 10
1288.102980908328
 20
1357.810691937672
 30
0.0
 10
1288.142398770862
 20
1356.29363235345
 30
0.0
 10
1288.057728998485
 20
1355.291335498475
 30
0.0
 10
1288.737136020287
 20
1354.744320343456
 30
0.0
 10
1289.545099217421
 20
1354.324993959916
 30
0.0
 10
1290.61586702249
 20
1353.325524278684
 30
0.0
 10
1291.78499427994
 20
1351.045355540138
 30
0.0
 10
1292.387807280604
 20
1347.602130733339
 30
0.0
 10
1293.001028336781
 20
1344.947132324127
 30
0.0
 10
1293.310499529257
 20
1343.607247603206
 30
0.0
  0
SPLINE
  5
126
330
1F
100
AcDbEntity
  8
0
  6
Continuous
 62
     7
370
    35
100
AcDbSpline
210
0.0
220
0.0
230
1.0
 70
     8
 71
     3
 72
    25
 73
    21
 74
     0
 42
0.000000001
 43
0.00000001
 40
0.0
 40
0.0
 40
0.0
 40
0.0
 40
0.0403772850825327
 40
0.0581432905171142
 40
0.0718747463632702
 40
0.0830985540815625
 40
0.0953185813390222
 40
0.1147179721021833
 40
0.1492959713349548
 40
0.2292797835274531
 40
0.3102091618275117
 40
0.3726852819818989
 40
0.4313870265629148
 40
0.4804590282852343
 40
0.5235520429457714
 40
0.5708166295125219
 40
0.6751808706738784
 40
0.7818081507417537
 40
0.8902538127997789
 40
1.0
 40
1.0
 40
1.0
 40
1.0
 10
1125.119255331419
 20
1359.955579619435
 30
0.0
 10
1125.125926336949
 20
1359.076526943862
 30
0.0
 10
1125.135532584912
 20
1357.810691091074
 30
0.0
 10
1125.096107866935
 20
1356.293633557375
 30
0.0
 10
1125.18079236484
 20
1355.291332297868
 30
0.0
 10
1124.501341255507
 20
1354.744330329807
 30
0.0
 10
1123.693584029306
 20
1354.324942338596
 30
0.0
 10
1122.621199182117
 20
1353.325956328522
 30
0.0
 10
1121.293910262918
 20
1350.698278423127
 30
0.0
 10
1120.619691799157
 20
1346.494627138763
 30
0.0
 10
1119.520690623852
 20
1341.799090713602
 30
0.0
 10
1118.782165876249
 20
1337.489816137632
 30
0.0
 10
1118.220385781746
 20
1333.852951841676
 30
0.0
 10
1117.837844639432
 20
1330.612749572741
 30
0.0
 10
1117.645711237212
 20
1327.603511657976
 30
0.0
 10
1117.575127520038
 20
1323.393589651919
 30
0.0
 10
1117.931265944384
 20
1317.808357894191
 30
0.0
 10
1119.155989226823
 20
1311.001341506472
 30
0.0
 10
1121.13161719592
 20
1304.238408961742
 30
0.0
 10
1123.10627997268
 20
1299.949049278148
 30
0.0
 10
1124.099496316427
 20
1297.791586144648
 30
0.0
  0
SPLINE
  5
127
330
1F
100
AcDbEntity
  8
0
  6
Continuous
 62
     7
370
    35
100
AcDbSpline
210
0.0
220
0.0
230
1.0
 70
    24
 71
     3
 72
    19
 73
    15
 74
     0
 42
0.000000001
 43
0.00000001
 40
0.0
 40
0.0
 40
0.0
 40
0.0
 40
0.2409130132110047
 40
0.4882582803106248
 40
0.5391715029117174
 40
0.5899404478678678
 40
0.6400693120936225
 40
0.6899887491764568
 40
0.7400419496428569
 40
0.7904190820051351
 40
0.8413201884464373
 40
0.8929676784851881
 40
0.9456873805534199
 40
1.0
 40
1.0
 40
1.0
 40
1.0
 10
1206.619255331419
 20
1359.955579619435
 30
0.0
 10
1198.773212233138
 20
1359.955579619435
 30
0.0
 10
1182.871640710081
 20
1359.955579619435
 30
0.0
 10
1165.30621612478
 20
1359.955579619435
 30
0.0
 10
1153.944329321778
 20
1359.955579619435
 30
0.0
 10
1148.988556727533
 20
1359.955579619434
 30
0.0
 10
1144.204195964123
 20
1359.955579619434
 30
0.0
 10
1139.720618019993
 20
1359.955579619435
 30
0.0
 10
1135.642367729415
 20
1359.955579619435
 30
0.0
 10
1132.06911578792
 20
1359.955579619435
 30
0.0
 10
1129.1027100431
 20
1359.955579619435
 30
0.0
 10
1126.872683823735
 20
1359.955579619435
 30
0.0
 10
1125.399373726713
 20
1359.955579619435
 30
0.0
 10
1125.213549975633
 20
1359.955579619435
 30
0.0
 10
1125.119255331419
 20
1359.955579619435
 30
0.0
  0
SPLINE
  5
128
330
1F
100
AcDbEntity
  8
0
  6
Continuous
 62
     7
370
    35
100
AcDbSpline
210
0.0
220
0.0
230
1.0
 70
     8
 71
     3
 72
    14
 73
    10
 74
     0
 42
0.000000001
 43
0.00000001
 40
0.0
 40
0.0
 40
0.0
 40
0.0
 40
0.149783861674635
 40
0.3039198677007078
 40
0.4537011775423317
 40
0.6078081864720632
 40
0.757933700022959
 40
0.9123691506710971
 40
1.0
 40
1.0
 40
1.0
 40
1.0
 10
1124.099496316427
 20
1297.791586144648
 30
0.0
 10
1124.508343029538
 20
1297.066471631807
 30
0.0
 10
1125.337915972641
 20
1295.595173560395
 30
0.0
 10
1127.021451217577
 20
1293.700734763645
 30
0.0
 10
1128.991558389705
 20
1292.084255634701
 30
0.0
 10
1131.192872431593
 20
1290.834183978006
 30
0.0
 10
1133.593432195839
 20
1289.966286367723
 30
0.0
 10
1135.743944375991
 20
1289.558164953912
 30
0.0
 10
1137.086464749719
 20
1289.519556378203
 30
0.0
 10
1137.572472924348
 20
1289.505579619435
 30
0.0
  0
SPLINE
  5
129
330
1F
100
AcDbEntity
  8
0
  6
Continuous
 62
     7
370
    35
100
AcDbSpline
210
0.0
220
0.0
230
1.0
 70
    24
 71
     3
 72
    19
 73
    15
 74
     0
 42
0.000000001
 43
0.00000001
 40
0.0
 40
0.0
 40
0.0
 40
0.0
 40
0.0339082014123468
 40
0.0838890956615421
 40
0.133885640693628
 40
0.178763919083391
 40
0.2236368521988092
 40
0.2646138248638288
 40
0.3055644086924265
 40
0.3465596390526824
 40
0.387605999897298
 40
0.5510999779005354
 40
0.7146015071203452
 40
1.0
 40
1.0
 40
1.0
 40
1.0
 10
1137.572472924348
 20
1289.505579619435
 30
0.0
 10
1137.712902777778
 20
1289.505579619435
 30
0.0
 10
1138.060327085687
 20
1289.505579619435
 30
0.0
 10
1139.258203252484
 20
1289.505579619435
 30
0.0
 10
1141.108398072953
 20
1289.505579619435
 30
0.0
 10
1143.400750493432
 20
1289.505579619435
 30
0.0
 10
1145.923642024683
 20
1289.505579619435
 30
0.0
 10
1148.689259728031
 20
1289.505579619435
 30
0.0
 10
1151.618050735338
 20
1289.505579619435
 30
0.0
 10
1154.76449331609
 20
1289.505579619435
 30
0.0
 10
1161.255349867078
 20
1289.505579619435
 30
0.0
 10
1170.992958981092
 20
1289.505579619435
 30
0.0
 10
1187.195765198514
 20
1289.505579619435
 30
0.0
 10
1199.069962098065
 20
1289.505579619435
 30
0.0
 10
1206.619255331419
 20
1289.505579619435
 30
0.0
  0
SPLINE
  5
12A
330
1F
100
AcDbEntity
  8
0
  6
Continuous
 62
     7
370
    35
100
AcDbSpline
210
0.0
220
0.0
230
1.0
 70
    24
 71
     3
 72
    19
 73
    15
 74
     0
 42
0.000000001
 43
0.00000001
 40
0.0
 40
0.0
 40
0.0
 40
0.0
 40
0.0339064855174944
 40
0.0831372973791105
 40
0.1338840147718002
 40
0.1782456415880458
 40
0.2236320967859899
 40
0.2641259724126861
 40
0.305557060192373
 40
0.3459382551888677
 40
0.38763784298138
 40
0.551087819285942
 40
0.7146159494612702
 40
1.0
 40
1.0
 40
1.0
 40
1.0
 10
1275.66603773849
 20
1289.505579619435
 30
0.0
 10
1275.52545180569
 20
1289.505579619435
 30
0.0
 10
1275.180740924449
 20
1289.505579619435
 30
0.0
 10
1273.992469720341
 20
1289.505579619435
 30
0.0
 10
1272.147755441797
 20
1289.505579619436
 30
0.0
 10
1269.848482657513
 20
1289.505579619435
 30
0.0
 10
1267.33462144669
 20
1289.505579619435
 30
0.0
 10
1264.561914017723
 20
1289.505579619435
 30
0.0
 10
1261.644873468116
 20
1289.505579619435
 30
0.0
 10
1258.497464250923
 20
1289.505579619435
 30
0.0
 10
1251.995416570377
 20
1289.505579619435
 30
0.0
 10
1242.248731038434
 20
1289.505579619435
 30
0.0
 10
1226.042583488333
 20
1289.505579619435
 30
0.0
 10
1214.168127065251
 20
1289.505579619435
 30
0.0
 10
1206.619255331419
 20
1289.505579619435
 30
0.0
  0
LINE
  5
12B
330
1F
100
AcDbEntity
  8
0
  6
Continuous
 62
     7
370
    35
100
AcDbLine
 10
1293.3104995293
 20
1343.6072476032
 30
0.0
 11
1293.5325581173
 21
1342.186780114
 31
0.0
  0
SPLINE
  5
12C
330
1F
100
AcDbEntity
  8
0
  6
Continuous
 62
     7
370
    35
100
AcDbSpline
210
0.0
220
0.0
230
1.0
 70
     8
 71
     3
 72
    13
 73
     9
 74
     0
 42
0.000000001
 43
0.00000001
 40
0.0
 40
0.0
 40
0.0
 40
0.0
 40
0.0095081972613503
 40
0.0791116948017361
 40
0.3094644223199412
 40
0.5396843471459964
 40
0.7698410895023545
 40
1.0
 40
1.0
 40
1.0
 40
1.0
 10
1296.517089757946
 20
1339.505579619435
 30
0.0
 10
1296.503223528132
 20
1339.505641783367
 30
0.0
 10
1296.387851401224
 20
1339.50615901012
 30
0.0
 10
1295.93707306109
 20
1339.53569415482
 30
0.0
 10
1295.177598995054
 20
1339.755805841881
 30
0.0
 10
1294.348606861925
 20
1340.353846600933
 30
0.0
 10
1293.738950804624
 20
1341.191427526033
 30
0.0
 10
1293.601355895748
 20
1341.854994876167
 30
0.0
 10
1293.532558117266
 20
1342.186780113975
 30
0.0
  0
LINE
  5
12D
330
1F
100
AcDbEntity
  8
0
  6
Continuous
 62
     7
370
    35
100
AcDbLine
 10
1579.1192553314
 20
1370.952018119
 30
0.0
 11
1579.1192553314
 21
1369.952018119
 31
0.0
  0
LINE
  5
12E
330
1F
100
AcDbEntity
  8
0
  6
Continuous
 62
     7
370
    35
100
AcDbLine
 10
1579.1192553314
 20
1369.952018119
 30
0.0
 11
1569.1192553314
 21
1369.952018119
 31
0.0
  0
LINE
  5
12F
330
1F
100
AcDbEntity
  8
0
  6
Continuous
 62
     7
370
    35
100
AcDbLine
 10
1569.1192553314
 20
1370.952018119
 30
0.0
 11
1579.1192553314
 21
1370.952018119
 31
0.0
  0
LINE
  5
130
330
1F
100
AcDbEntity
  8
0
  6
Continuous
 62
     7
370
    35
100
AcDbLine
 10
1569.1192553314
 20
1369.952018119
 30
0.0
 11
1546.6192553314
 21
1369.952018119
 31
0.0
  0
LINE
  5
131
330
1F
100
AcDbEntity
  8
0
  6
Continuous
 62
     7
370
    35
100
AcDbLine
 10
1569.1192553314
 20
1370.952018119
 30
0.0
 11
1546.6192553314
 21
1370.952018119
 31
0.0
  0
LINE
  5
132
330
1F
100
AcDbEntity
  8
0
  6
Continuous
 62
     7
370
    35
100
AcDbLine
 10
844.1192553314
 20
1369.952018119
 30
0.0
 11
834.1192553314
 21
1369.952018119
 31
0.0
  0
LINE
  5
133
330
1F
100
AcDbEntity
  8
0
  6
Continuous
 62
     7
370
    35
100
AcDbLine
 10
834.1192553314
 20
1369.952018119
 30
0.0
 11
834.1192553314
 21
1370.952018119
 31
0.0
  0
LINE
  5
134
330
1F
100
AcDbEntity
  8
0
  6
Continuous
 62
     7
370
    35
100
AcDbLine
 10
834.1192553314
 20
1370.952018119
 30
0.0
 11
844.1192553314
 21
1370.952018119
 31
0.0
  0
LINE
  5
135
330
1F
100
AcDbEntity
  8
0
  6
Continuous
 62
     7
370
    35
100
AcDbLine
 10
866.6192553314
 20
1370.952018119
 30
0.0
 11
844.1192553314
 21
1370.952018119
 31
0.0
  0
LINE
  5
136
330
1F
100
AcDbEntity
  8
0
  6
Continuous
 62
     7
370
    35
100
AcDbLine
 10
866.6192553314
 20
1369.952018119
 30
0.0
 11
844.1192553314
 21
1369.952018119
 31
0.0
  0
LINE
  5
137
330
1F
100
AcDbEntity
  8
0
  6
Continuous
 62
     7
370
    35
100
AcDbLine
 10
1546.6192553314
 20
1381.952018119
 30
0.0
 11
1546.6192553314
 21
1371.952018119
 31
0.0
  0
ARC
  5
138
330
1F
100
AcDbEntity
  8
0
  6
Continuous
 62
     7
370
    35
100
AcDbCircle
 10
1547.6192553314
 20
1381.952018119
 30
0.0
 40
1.000000000000227
100
AcDbArc
 50
0.0
 51
180.0
  0
LINE
  5
139
330
1F
100
AcDbEntity
  8
0
  6
Continuous
 62
     7
370
    35
100
AcDbLine
 10
1548.6192553314
 20
1381.952018119
 30
0.0
 11
1548.6192553314
 21
1370.952018119
 31
0.0
  0
LINE
  5
13A
330
1F
100
AcDbEntity
  8
0
  6
Continuous
 62
     7
370
    35
100
AcDbLine
 10
1548.6192553314
 20
1369.952018119
 30
0.0
 11
1548.6192553314
 21
1364.2261586406
 31
0.0
  0
LINE
  5
13B
330
1F
100
AcDbEntity
  8
0
  6
Continuous
 62
     7
370
    35
100
AcDbLine
 10
1546.6192553314
 20
1368.0179660629
 30
0.0
 11
1546.6192553314
 21
1364.2261586406
 31
0.0
  0
LINE
  5
13C
330
1F
100
AcDbEntity
  8
0
  6
Continuous
 62
     7
370
    35
100
AcDbLine
 10
1548.6192553314
 20
1364.2261586406
 30
0.0
 11
1548.6192553314
 21
1362.4135430665
 31
0.0
  0
LINE
  5
13D
330
1F
100
AcDbEntity
  8
0
  6
Continuous
 62
     7
370
    35
100
AcDbLine
 10
1546.6192553314
 20
1362.4135430665
 30
0.0
 11
1546.6192553314
 21
1364.2261586406
 31
0.0
  0
LINE
  5
13E
330
1F
100
AcDbEntity
  8
0
  6
Continuous
 62
     7
370
    35
100
AcDbLine
 10
1548.6192553314
 20
1362.4135430665
 30
0.0
 11
1548.6192553314
 21
1355.1552437819
 31
0.0
  0
LINE
  5
13F
330
1F
100
AcDbEntity
  8
0
  6
Continuous
 62
     7
370
    35
100
AcDbLine
 10
1546.6192553314
 20
1362.4135430665
 30
0.0
 11
1546.6192553314
 21
1355.1552437819
 31
0.0
  0
LINE
  5
140
330
1F
100
AcDbEntity
  8
0
  6
Continuous
 62
     7
370
    35
100
AcDbLine
 10
1548.6192553314
 20
1355.1552437819
 30
0.0
 11
1548.6192553314
 21
1353.3426282079
 31
0.0
  0
LINE
  5
141
330
1F
100
AcDbEntity
  8
0
  6
Continuous
 62
     7
370
    35
100
AcDbLine
 10
1546.6192553314
 20
1353.3426282079
 30
0.0
 11
1546.6192553314
 21
1355.1552437819
 31
0.0
  0
LINE
  5
142
330
1F
100
AcDbEntity
  8
0
  6
Continuous
 62
     7
370
    35
100
AcDbLine
 10
1548.6192553314
 20
1353.3426282079
 30
0.0
 11
1548.6192553314
 21
1319.052018119
 31
0.0
  0
LINE
  5
143
330
1F
100
AcDbEntity
  8
0
  6
Continuous
 62
     7
370
    35
100
AcDbLine
 10
1546.6192553314
 20
1353.3426282079
 30
0.0
 11
1546.6192553314
 21
1319.052018119
 31
0.0
  0
LINE
  5
144
330
1F
100
AcDbEntity
  8
0
  6
Continuous
 62
     7
370
    35
100
AcDbLine
 10
1548.6192553314
 20
1317.052018119
 30
0.0
 11
1546.6192553314
 21
1317.052018119
 31
0.0
  0
LINE
  5
145
330
1F
100
AcDbEntity
  8
0
  6
Continuous
 62
     7
370
    35
100
AcDbLine
 10
1548.6192553314
 20
1319.052018119
 30
0.0
 11
1548.6192553314
 21
1317.052018119
 31
0.0
  0
LINE
  5
146
330
1F
100
AcDbEntity
  8
0
  6
Continuous
 62
     7
370
    35
100
AcDbLine
 10
1546.6192553314
 20
1317.052018119
 30
0.0
 11
1546.6192553314
 21
1319.052018119
 31
0.0
  0
ARC
  5
147
330
1F
100
AcDbEntity
  8
0
  6
Continuous
 62
     7
370
    35
100
AcDbCircle
 10
865.6192553314
 20
1381.952018119
 30
0.0
 40
1.000000000000114
100
AcDbArc
 50
0.0
 51
180.0
  0
LINE
  5
148
330
1F
100
AcDbEntity
  8
0
  6
Continuous
 62
     7
370
    35
100
AcDbLine
 10
866.6192553314
 20
1371.952018119
 30
0.0
 11
866.6192553314
 21
1381.952018119
 31
0.0
  0
LINE
  5
149
330
1F
100
AcDbEntity
  8
0
  6
Continuous
 62
     7
370
    35
100
AcDbLine
 10
864.6192553314
 20
1370.952018119
 30
0.0
 11
864.6192553314
 21
1381.952018119
 31
0.0
  0
LINE
  5
14A
330
1F
100
AcDbEntity
  8
0
  6
Continuous
 62
     7
370
    35
100
AcDbLine
 10
866.6192553314
 20
1364.2261586406
 30
0.0
 11
866.6192553314
 21
1368.0179660629
 31
0.0
  0
LINE
  5
14B
330
1F
100
AcDbEntity
  8
0
  6
Continuous
 62
     7
370
    35
100
AcDbLine
 10
864.6192553314
 20
1364.2261586406
 30
0.0
 11
864.6192553314
 21
1369.952018119
 31
0.0
  0
LINE
  5
14C
330
1F
100
AcDbEntity
  8
0
  6
Continuous
 62
     7
370
    35
100
AcDbLine
 10
866.6192553314
 20
1364.2261586406
 30
0.0
 11
866.6192553314
 21
1362.4135430665
 31
0.0
  0
LINE
  5
14D
330
1F
100
AcDbEntity
  8
0
  6
Continuous
 62
     7
370
    35
100
AcDbLine
 10
864.6192553314
 20
1362.4135430665
 30
0.0
 11
864.6192553314
 21
1364.2261586406
 31
0.0
  0
LINE
  5
14E
330
1F
100
AcDbEntity
  8
0
  6
Continuous
 62
     7
370
    35
100
AcDbLine
 10
866.6192553314
 20
1355.1552437819
 30
0.0
 11
866.6192553314
 21
1362.4135430665
 31
0.0
  0
LINE
  5
14F
330
1F
100
AcDbEntity
  8
0
  6
Continuous
 62
     7
370
    35
100
AcDbLine
 10
864.6192553314
 20
1355.1552437819
 30
0.0
 11
864.6192553314
 21
1362.4135430665
 31
0.0
  0
LINE
  5
150
330
1F
100
AcDbEntity
  8
0
  6
Continuous
 62
     7
370
    35
100
AcDbLine
 10
866.6192553314
 20
1355.1552437819
 30
0.0
 11
866.6192553314
 21
1353.3426282079
 31
0.0
  0
LINE
  5
151
330
1F
100
AcDbEntity
  8
0
  6
Continuous
 62
     7
370
    35
100
AcDbLine
 10
864.6192553314
 20
1353.3426282079
 30
0.0
 11
864.6192553314
 21
1355.1552437819
 31
0.0
  0
LINE
  5
152
330
1F
100
AcDbEntity
  8
0
  6
Continuous
 62
     7
370
    35
100
AcDbLine
 10
866.6192553314
 20
1319.052018119
 30
0.0
 11
866.6192553314
 21
1353.3426282079
 31
0.0
  0
LINE
  5
153
330
1F
100
AcDbEntity
  8
0
  6
Continuous
 62
     7
370
    35
100
AcDbLine
 10
864.6192553314
 20
1319.052018119
 30
0.0
 11
864.6192553314
 21
1353.3426282079
 31
0.0
  0
LINE
  5
154
330
1F
100
AcDbEntity
  8
0
  6
Continuous
 62
     7
370
    35
100
AcDbLine
 10
866.6192553314
 20
1317.052018119
 30
0.0
 11
864.6192553314
 21
1317.052018119
 31
0.0
  0
LINE
  5
155
330
1F
100
AcDbEntity
  8
0
  6
Continuous
 62
     7
370
    35
100
AcDbLine
 10
866.6192553314
 20
1319.052018119
 30
0.0
 11
866.6192553314
 21
1317.052018119
 31
0.0
  0
LINE
  5
156
330
1F
100
AcDbEntity
  8
0
  6
Continuous
 62
     7
370
    35
100
AcDbLine
 10
864.6192553314
 20
1317.052018119
 30
0.0
 11
864.6192553314
 21
1319.052018119
 31
0.0
  0
LINE
  5
157
330
1F
100
AcDbEntity
  8
0
  6
Continuous
 62
     8
370
    18
100
AcDbLine
 10
1546.6192553314
 20
1371.952018119
 30
0.0
 11
866.6192553314
 21
1371.952018119
 31
0.0
  0
LINE
  5
158
330
1F
100
AcDbEntity
  8
0
  6
Continuous
 62
     8
370
    18
100
AcDbLine
 10
866.6192553314
 20
1381.452018119
 30
0.0
 11
1546.6192553314
 21
1381.452018119
 31
0.0
  0
LINE
  5
159
330
1F
100
AcDbEntity
  8
0
  6
Continuous
 62
     8
370
    18
100
AcDbLine
 10
866.6192553314
 20
1368.7139366083
 30
0.0
 11
1546.6192553314
 21
1368.7139366083
 31
0.0
  0
LINE
  5
15A
330
1F
100
AcDbEntity
  8
0
  6
Continuous
 62
     8
370
    18
100
AcDbLine
 10
866.6192553314
 20
1366.7171532672
 30
0.0
 11
1546.6192553314
 21
1366.7171532672
 31
0.0
  0
LINE
  5
15B
330
1F
100
AcDbEntity
  8
0
  6
Continuous
 62
     8
370
    18
100
AcDbLine
 10
866.6192553314
 20
1364.9568456982
 30
0.0
 11
1123.7477925521
 21
1364.9568456982
 31
0.0
  0
LINE
  5
15C
330
1F
100
AcDbEntity
  8
0
  6
Continuous
 62
     8
370
    18
100
AcDbLine
 10
1289.4907181108
 20
1364.9568456982
 30
0.0
 11
1546.6192553314
 21
1364.9568456982
 31
0.0
  0
SPLINE
  5
15D
330
1F
100
AcDbEntity
  8
0
  6
Continuous
 62
     8
370
    18
100
AcDbSpline
210
0.0
220
0.0
230
1.0
 70
     8
 71
     3
 72
    10
 73
     6
 74
     0
 42
0.000000001
 43
0.00000001
 40
0.0
 40
0.0
 40
0.0
 40
0.0
 40
0.5
 40
0.5
 40
1.0
 40
1.0
 40
1.0
 40
1.0
 10
1153.619255331419
 20
1364.730946532558
 30
0.0
 10
1152.552443074074
 20
1364.730946532558
 30
0.0
 10
1151.492925662618
 20
1364.7124939157
 30
0.0
 10
1149.38779922779
 20
1364.659470309304
 30
0.0
 10
1148.342186907083
 20
1364.625000332183
 30
0.0
 10
1147.303143224324
 20
1364.610363196239
 30
0.0
  0
ARC
  5
15E
330
1F
100
AcDbEntity
  8
0
  6
Continuous
 62
     8
370
    18
100
AcDbCircle
 10
1144.1325796508
 20
1364.9719543755
 30
0.0
 40
3.191116035872108
100
AcDbArc
 50
353.4937367838
 51
30.6135263841
  0
LINE
  5
15F
330
1F
100
AcDbEntity
  8
0
  6
Continuous
 62
     8
370
    18
100
AcDbLine
 10
1153.6192553314
 20
1364.7309465326
 30
0.0
 11
1153.6192553314
 21
1366.6159809662
 31
0.0
  0
SPLINE
  5
160
330
1F
100
AcDbEntity
  8
0
  6
Continuous
 62
     8
370
    18
100
AcDbSpline
210
0.0
220
0.0
230
1.0
 70
     8
 71
     3
 72
    10
 73
     6
 74
     0
 42
0.000000001
 43
0.00000001
 40
0.0
 40
0.0
 40
0.0
 40
0.0
 40
0.5
 40
0.5
 40
1.0
 40
1.0
 40
1.0
 40
1.0
 10
1265.935367438515
 20
1364.610363196375
 30
0.0
 10
1264.896323755756
 20
1364.625000332318
 30
0.0
 10
1263.850711435048
 20
1364.659470309304
 30
0.0
 10
1261.745585000221
 20
1364.7124939157
 30
0.0
 10
1260.686067588761
 20
1364.730946532262
 30
0.0
 10
1259.619255331417
 20
1364.730946532262
 30
0.0
  0
LINE
  5
161
330
1F
100
AcDbEntity
  8
0
  6
Continuous
 62
     8
370
    18
100
AcDbLine
 10
1259.6192553314
 20
1364.7309465324
 30
0.0
 11
1259.6192553314
 21
1366.6159809662
 31
0.0
  0
ARC
  5
162
330
1F
100
AcDbEntity
  8
0
  6
Continuous
 62
     8
370
    18
100
AcDbCircle
 10
1269.1059310117
 20
1364.9719543755
 30
0.0
 40
3.191116035541392
100
AcDbArc
 50
149.386473613
 51
186.5062632177
  0
LINE
  5
163
330
1F
100
AcDbEntity
  8
0
  6
Continuous
 62
     8
370
    18
100
AcDbLine
 10
1259.6192553314
 20
1364.7309465324
 30
0.0
 11
1153.6192553314
 21
1364.7309465326
 31
0.0
  0
ELLIPSE
  5
164
330
1F
100
AcDbEntity
  8
0
  6
Continuous
 62
     8
370
    18
100
AcDbEllipse
 10
1259.6192553314
 20
1362.9507468584
 30
0.0
 11
28.0
 21
0.0
 31
0.0
210
0.0
220
0.0
230
1.0
 40
0.0608401234
 41
0.0094489386178824
 42
1.343262674843462
  0
ARC
  5
165
330
1F
100
AcDbEntity
  8
0
  6
Continuous
 62
     8
370
    18
100
AcDbCircle
 10
1289.6174062806
 20
1362.9641360497
 30
0.0
 40
1.999402726573743
100
AcDbArc
 50
93.4033047991
 51
179.9224253183
  0
ELLIPSE
  5
166
330
1F
100
AcDbEntity
  8
0
  6
Continuous
 62
     8
370
    18
100
AcDbEllipse
 10
1153.6192553314
 20
1362.9507468584
 30
0.0
 11
27.99999999999977
 21
0.0
 31
0.0
210
0.0
220
0.0
230
1.0
 40
0.0608401234
 41
1.798329978746341
 42
3.132143714971908
  0
ARC
  5
167
330
1F
100
AcDbEntity
  8
0
  6
Continuous
 62
     8
370
    18
100
AcDbCircle
 10
1123.6211043823
 20
1362.9641360497
 30
0.0
 40
1.999402726574208
100
AcDbArc
 50
0.0775746817
 51
86.5966952046
  0
LINE
  5
168
330
1F
100
AcDbEntity
  8
0
  6
Continuous
 62
     8
370
    18
100
AcDbLine
 10
1153.6192553314
 20
1364.7309465326
 30
0.0
 11
1153.6192553314
 21
1359.9555796195
 31
0.0
  0
LINE
  5
169
330
1F
100
AcDbEntity
  8
0
  6
Continuous
 62
     8
370
    18
100
AcDbLine
 10
1259.6192553314
 20
1364.7309465324
 30
0.0
 11
1259.6192553314
 21
1359.9555796195
 31
0.0
  0
LINE
  5
16A
330
1F
100
AcDbEntity
  8
0
  6
Continuous
 62
     8
370
    18
100
AcDbLine
 10
1153.6192553314
 20
1362.6627780911
 30
0.0
 11
1125.6792277502
 21
1362.6627780911
 31
0.0
  0
LINE
  5
16B
330
1F
100
AcDbEntity
  8
0
  6
Continuous
 62
     8
370
    18
100
AcDbLine
 10
1259.6192553314
 20
1362.6627780911
 30
0.0
 11
1287.5592829127
 21
1362.6627780911
 31
0.0
  0
LINE
  5
16C
330
1F
100
AcDbEntity
  8
0
  6
Continuous
 62
     8
370
    18
100
AcDbLine
 10
1341.3076536771
 20
1289.4555796194
 30
0.0
 11
1341.3076536771
 21
1339.5555796194
 31
0.0
  0
LINE
  5
16D
330
1F
100
AcDbEntity
  8
0
  6
Continuous
 62
     8
370
    18
100
AcDbLine
 10
1341.92420538
 20
1339.4915401092
 30
0.0
 11
1341.92420538
 21
1289.5196191296
 31
0.0
  0
SPLINE
  5
16E
330
1F
100
AcDbEntity
  8
0
  6
Continuous
 62
     8
370
    18
100
AcDbSpline
210
0.0
220
0.0
230
1.0
 70
     8
 71
     3
 72
    33
 73
    29
 74
     0
 42
0.000000001
 43
0.00000001
 40
0.0
 40
0.0
 40
0.0
 40
0.0
 40
0.0420694805196953
 40
0.084388443038162
 40
0.105425411836355
 40
0.147808418088578
 40
0.1908708294596755
 40
0.2346249844283153
 40
0.2566774230954351
 40
0.2919631051304047
 40
0.3274716165362355
 40
0.3636903997735275
 40
0.4001608597629994
 40
0.4308871503519113
 40
0.4617758629698847
 40
0.4929198210567731
 40
0.524414595046751
 40
0.576225211846648
 40
0.6285929245268296
 40
0.6833701247922492
 40
0.7388451995033067
 40
0.7691720205739081
 40
0.8150603675630224
 40
0.8615324906874936
 40
0.8956623911437294
 40
0.930188190296892
 40
0.9649049432978501
 40
1.0
 40
1.0
 40
1.0
 40
1.0
 10
1206.619255331422
 20
1339.867586146403
 30
0.0
 10
1207.436284895901
 20
1339.846828409774
 30
0.0
 10
1209.075189203985
 20
1339.805189838212
 30
0.0
 10
1211.103126038572
 20
1339.508372379576
 30
0.0
 10
1213.106950922972
 20
1339.082643159432
 30
0.0
 10
1215.090007883227
 20
1338.509871353168
 30
0.0
 10
1217.415096091853
 20
1337.592626093652
 30
0.0
 10
1219.288373734169
 20
1336.635887679853
 30
0.0
 10
1220.954581868901
 20
1335.626115755939
 30
0.0
 10
1222.422462699497
 20
1334.603321047503
 30
0.0
 10
1224.01489954766
 20
1333.291751091745
 30
0.0
 10
1225.513090415683
 20
1331.837704258585
 30
0.0
 10
1226.826200076361
 20
1330.33174771948
 30
0.0
 10
1227.95796894771
 20
1328.809526015477
 30
0.0
 10
1228.92382040077
 20
1327.295030613782
 30
0.0
 10
1229.785256595439
 20
1325.699207127633
 30
0.0
 10
1230.693936470744
 20
1323.672333410109
 30
0.0
 10
1231.531995431965
 20
1321.16756825012
 30
0.0
 10
1232.140751158404
 20
1318.132779715929
 30
0.0
 10
1232.359125077302
 20
1314.978809339769
 30
0.0
 10
1232.187009427891
 20
1312.263977542967
 30
0.0
 10
1231.772313263867
 20
1309.772867162721
 30
0.0
 10
1231.182799579082
 20
1307.507613956918
 30
0.0
 10
1230.337503768166
 20
1305.271379986234
 30
0.0
 10
1229.396219093908
 20
1303.331395824277
 30
0.0
 10
1228.425938470579
 20
1301.671010927832
 30
0.0
 10
1227.337514729134
 20
1300.075239910182
 30
0.0
 10
1226.517930839519
 20
1299.086082449726
 30
0.0
 10
1226.105918270292
 20
1298.588823643377
 30
0.0
  0
LINE
  5
16F
330
1F
100
AcDbEntity
  8
0
  6
Continuous
 62
     8
370
    18
100
AcDbLine
 10
1226.1059182703
 20
1298.5888236434
 30
0.0
 11
1217.5371591174
 21
1307.651466884
 31
0.0
  0
SPLINE
  5
170
330
1F
100
AcDbEntity
  8
0
  6
Continuous
 62
     8
370
    18
100
AcDbSpline
210
0.0
220
0.0
230
1.0
 70
     8
 71
     3
 72
    19
 73
    15
 74
     0
 42
0.000000001
 43
0.00000001
 40
0.0
 40
0.0
 40
0.0
 40
0.0
 40
0.0723119353046641
 40
0.1445206361806437
 40
0.2538055534572516
 40
0.345740046626174
 40
0.4376020288244571
 40
0.5576187311953656
 40
0.6329165099067158
 40
0.7083141187347097
 40
0.8053610917388587
 40
0.9023999691423442
 40
0.9968144251432692
 40
1.0
 40
1.0
 40
1.0
 40
1.0
 10
1217.537159117441
 20
1307.651466883991
 30
0.0
 10
1218.06978021196
 20
1308.185040144664
 30
0.0
 10
1219.134262017056
 20
1309.25142492273
 30
0.0
 10
1220.69707394146
 20
1311.392327478696
 30
0.0
 10
1221.898386858741
 20
1314.029265325861
 30
0.0
 10
1222.118114323108
 20
1317.137707833769
 30
0.0
 10
1221.23855579632
 20
1320.230102781943
 30
0.0
 10
1219.518534604058
 20
1322.748094991749
 30
0.0
 10
1217.40184246091
 20
1324.626798465513
 30
0.0
 10
1215.215340184304
 20
1326.013122879489
 30
0.0
 10
1212.628310087598
 20
1327.133770197512
 30
0.0
 10
1209.700629171611
 20
1327.863019140416
 30
0.0
 10
1207.668499736526
 20
1328.014593186088
 30
0.0
 10
1206.652419259661
 20
1328.002278705686
 30
0.0
 10
1206.619255331422
 20
1328.00187677242
 30
0.0
  0
SPLINE
  5
171
330
1F
100
AcDbEntity
  8
0
  6
Continuous
 62
     8
370
    18
100
AcDbSpline
210
0.0
220
0.0
230
1.0
 70
    24
 71
     3
 72
    21
 73
    17
 74
     0
 42
0.000000001
 43
0.00000001
 40
0.0
 40
0.0
 40
0.0
 40
0.0
 40
0.0720514219264896
 40
0.144603125658301
 40
0.2187326761060863
 40
0.2934074331762744
 40
0.3654588516753354
 40
0.4380105213676725
 40
0.5121399203051926
 40
0.586814476498339
 40
0.658867924602602
 40
0.7314216095207168
 40
0.8055529476989868
 40
0.8802294033636554
 40
0.990866780231003
 40
0.9999999999999999
 40
0.9999999999999999
 40
0.9999999999999999
 40
0.9999999999999999
 10
1206.619255331418
 20
1339.867586146403
 30
0.0
 10
1206.619255331419
 20
1339.713033304433
 30
0.0
 10
1206.619255331422
 20
1339.40285449837
 30
0.0
 10
1206.619255331428
 20
1338.832189845642
 30
0.0
 10
1206.619255331403
 20
1338.183211076493
 30
0.0
 10
1206.619255331428
 20
1337.460369976271
 30
0.0
 10
1206.619255331417
 20
1336.676207739499
 30
0.0
 10
1206.619255331424
 20
1335.83344698486
 30
0.0
 10
1206.619255331415
 20
1334.924562731871
 30
0.0
 10
1206.619255331415
 20
1333.967591936686
 30
0.0
 10
1206.619255331414
 20
1332.97530110525
 30
0.0
 10
1206.619255331424
 20
1331.950825294374
 30
0.0
 10
1206.619255331418
 20
1330.885683452112
 30
0.0
 10
1206.619255331407
 20
1329.613104329216
 30
0.0
 10
1206.619255331459
 20
1328.643942172005
 30
0.0
 10
1206.61925533141
 20
1328.047369020548
 30
0.0
 10
1206.619255331407
 20
1328.00187677242
 30
0.0
  0
SPLINE
  5
172
330
1F
100
AcDbEntity
  8
0
  6
Continuous
 62
     8
370
    18
100
AcDbSpline
210
0.0
220
0.0
230
1.0
 70
     8
 71
     3
 72
    33
 73
    29
 74
     0
 42
0.000000001
 43
0.00000001
 40
0.0
 40
0.0
 40
0.0
 40
0.0
 40
0.0272519121761655
 40
0.0643955705395717
 40
0.1017679836315406
 40
0.1399161503387467
 40
0.1783602451249384
 40
0.2309313350457288
 40
0.284075135045441
 40
0.3463079719325251
 40
0.377860591735393
 40
0.4098349893637235
 40
0.4664493290388058
 40
0.5237708874937604
 40
0.5552660258970177
 40
0.5869395080180233
 40
0.619157269636461
 40
0.6515559584292159
 40
0.6730472716079227
 40
0.7163558120329134
 40
0.7603800963832676
 40
0.8051322093176835
 40
0.8276949767825337
 40
0.84872421544562
 40
0.8910915758444982
 40
0.9341506962041375
 40
0.9779263650739449
 40
1.0
 40
1.0
 40
1.0
 40
1.0
 10
1187.132592392547
 20
1298.588823643377
 30
0.0
 10
1186.811121618711
 20
1298.973412860422
 30
0.0
 10
1186.051494413135
 20
1299.88218733081
 30
0.0
 10
1184.96837490739
 20
1301.421577637422
 30
0.0
 10
1183.895853496612
 20
1303.22082924937
 30
0.0
 10
1182.961358126407
 20
1305.140321501597
 30
0.0
 10
1182.086427542091
 20
1307.415883129565
 30
0.0
 10
1181.373101305586
 20
1310.072082904449
 30
0.0
 10
1180.92816510891
 20
1313.274431978773
 30
0.0
 10
1180.927511208625
 20
1316.128796062701
 30
0.0
 10
1181.202120859253
 20
1318.554595411314
 30
0.0
 10
1181.640547706082
 20
1320.84782323542
 30
0.0
 10
1182.467610260738
 20
1323.567464264074
 30
0.0
 10
1183.648512661196
 20
1326.13846477635
 30
0.0
 10
1184.837928300736
 20
1328.146997217945
 30
0.0
 10
1185.892813430049
 20
1329.661765797267
 30
0.0
 10
1187.066384458025
 20
1331.105779532268
 30
0.0
 10
1188.207642444583
 20
1332.314344148832
 30
0.0
 10
1189.575281689483
 20
1333.594881064497
 30
0.0
 10
1191.208773518983
 20
1334.912953409279
 30
0.0
 10
1193.339048314408
 20
1336.308542092584
 30
0.0
 10
1195.244857191191
 20
1337.305878596383
 30
0.0
 10
1196.811539390659
 20
1337.981924151166
 30
0.0
 10
1198.367146716795
 20
1338.565657069251
 30
0.0
 10
1200.344805134561
 20
1339.153409548381
 30
0.0
 10
1202.805337274942
 20
1339.632881060819
 30
0.0
 10
1204.912247648147
 20
1339.844978412522
 30
0.0
 10
1206.19069976942
 20
1339.861910325378
 30
0.0
 10
1206.619255331419
 20
1339.867586146403
 30
0.0
  0
SPLINE
  5
173
330
1F
100
AcDbEntity
  8
0
  6
Continuous
 62
     8
370
    18
100
AcDbSpline
210
0.0
220
0.0
230
1.0
 70
     8
 71
     3
 72
    20
 73
    16
 74
     0
 42
0.000000001
 43
0.00000001
 40
0.0
 40
0.0
 40
0.0
 40
0.0
 40
0.0031848875244883
 40
0.0996872166702681
 40
0.1961928561586082
 40
0.292913896026428
 40
0.3894614585497527
 40
0.4531459406897254
 40
0.5167654851003685
 40
0.6214864979190139
 40
0.7268808125404119
 40
0.8182687157727467
 40
0.8939620144270485
 40
0.9698304221395906
 40
0.9999999999999999
 40
0.9999999999999999
 40
0.9999999999999999
 40
0.9999999999999999
 10
1206.619255331422
 20
1328.00187677242
 30
0.0
 10
1206.586091335836
 20
1328.002279419297
 30
0.0
 10
1205.548055804554
 20
1328.014882296513
 30
0.0
 10
1203.499519140013
 20
1327.854144686273
 30
0.0
 10
1200.559839007717
 20
1327.118620505416
 30
0.0
 10
1197.780222800578
 20
1325.908976383327
 30
0.0
 10
1195.537516077216
 20
1324.415970355528
 30
0.0
 10
1193.855708874676
 20
1322.788106545195
 30
0.0
 10
1192.404162243677
 20
1320.84585367051
 30
0.0
 10
1191.250122876413
 20
1318.178384368158
 30
0.0
 10
1191.150321112053
 20
1314.953785755941
 30
0.0
 10
1192.096341046598
 20
1312.232954839556
 30
0.0
 10
1193.448205285029
 20
1310.082156201394
 30
0.0
 10
1194.683694222639
 20
1308.639636681635
 30
0.0
 10
1195.47594341783
 20
1307.870343610788
 30
0.0
 10
1195.701351545398
 20
1307.651466883991
 30
0.0
  0
LINE
  5
174
330
1F
100
AcDbEntity
  8
0
  6
Continuous
 62
     8
370
    18
100
AcDbLine
 10
1187.1325923925
 20
1298.5888236434
 30
0.0
 11
1195.7013515454
 21
1307.651466884
 31
0.0
  0
SPLINE
  5
175
330
1F
100
AcDbEntity
  8
0
  6
Continuous
 62
     8
370
    18
100
AcDbSpline
210
0.0
220
0.0
230
1.0
 70
     8
 71
     3
 72
     9
 73
     5
 74
     0
 42
0.000000001
 43
0.00000001
 40
0.0
 40
0.0
 40
0.0
 40
0.0
 40
0.5770474436019655
 40
1.0
 40
1.0
 40
1.0
 40
1.0
 10
1193.265724370125
 20
1293.361577853234
 30
0.0
 10
1192.005673976947
 20
1294.216374017893
 30
0.0
 10
1189.822057348628
 20
1295.69770137518
 30
0.0
 10
1187.931997877574
 20
1297.729478369569
 30
0.0
 10
1187.132592392547
 20
1298.588823643377
 30
0.0
  0
SPLINE
  5
176
330
1F
100
AcDbEntity
  8
0
  6
Continuous
 62
     8
370
    18
100
AcDbSpline
210
0.0
220
0.0
230
1.0
 70
     8
 71
     3
 72
    10
 73
     6
 74
     0
 42
0.000000001
 43
0.00000001
 40
0.0
 40
0.0
 40
0.0
 40
0.0
 40
0.2479681796226355
 40
0.4972688069878624
 40
1.0
 40
1.0
 40
1.0
 40
1.0
 10
1195.701351545398
 20
1307.651466883991
 30
0.0
 10
1196.046051693175
 20
1307.344972314029
 30
0.0
 10
1196.737304222086
 20
1306.730336236991
 30
0.0
 10
1198.234311080902
 20
1305.624266018888
 30
0.0
 10
1199.409853596012
 20
1304.866814950608
 30
0.0
 10
1200.195700517703
 20
1304.360461005354
 30
0.0
  0
LINE
  5
177
330
1F
100
AcDbEntity
  8
0
  6
Continuous
 62
     8
370
    18
100
AcDbLine
 10
1200.1957005177
 20
1304.3604610054
 30
0.0
 11
1193.2657243701
 21
1293.3615778532
 31
0.0
  0
ARC
  5
178
330
1F
100
AcDbEntity
  8
0
  6
Continuous
 62
     8
370
    18
100
AcDbCircle
 10
1206.6192553314
 20
1314.5555796194
 30
0.0
 40
12.04999999999989
100
AcDbArc
 50
237.7865374201
 51
302.2134625799
  0
LINE
  5
179
330
1F
100
AcDbEntity
  8
0
  6
Continuous
 62
     8
370
    18
100
AcDbLine
 10
1213.0428101451
 20
1304.3604610054
 30
0.0
 11
1219.9727862927
 21
1293.3615778532
 31
0.0
  0
SPLINE
  5
17A
330
1F
100
AcDbEntity
  8
0
  6
Continuous
 62
     8
370
    18
100
AcDbSpline
210
0.0
220
0.0
230
1.0
 70
     8
 71
     3
 72
    10
 73
     6
 74
     0
 42
0.000000001
 43
0.00000001
 40
0.0
 40
0.0
 40
0.0
 40
0.0
 40
0.351467034588854
 40
0.7035972473579616
 40
1.0
 40
1.0
 40
1.0
 40
1.0
 10
1213.042810145136
 20
1304.360461005354
 30
0.0
 10
1213.59269775033
 20
1304.713296017224
 30
0.0
 10
1214.693510535869
 20
1305.419631800362
 30
0.0
 10
1216.216484671896
 20
1306.491267104383
 30
0.0
 10
1217.122896503038
 20
1307.287541167437
 30
0.0
 10
1217.537159117441
 20
1307.651466883991
 30
0.0
  0
SPLINE
  5
17B
330
1F
100
AcDbEntity
  8
0
  6
Continuous
 62
     8
370
    18
100
AcDbSpline
210
0.0
220
0.0
230
1.0
 70
     8
 71
     3
 72
     9
 73
     5
 74
     0
 42
0.000000001
 43
0.00000001
 40
0.0
 40
0.0
 40
0.0
 40
0.0
 40
0.3490261811818432
 40
1.0
 40
1.0
 40
1.0
 40
1.0
 10
1226.105918270292
 20
1298.588823643377
 30
0.0
 10
1225.450332312273
 20
1297.874680816452
 30
0.0
 10
1223.572003426461
 20
1295.828579791862
 30
0.0
 10
1221.391946363943
 20
1294.334309010273
 30
0.0
 10
1219.972786292714
 20
1293.361577853234
 30
0.0
  0
SPLINE
  5
17C
330
1F
100
AcDbEntity
  8
0
  6
Continuous
 62
     8
370
    18
100
AcDbSpline
210
0.0
220
0.0
230
1.0
 70
     8
 71
     3
 72
    25
 73
    21
 74
     0
 42
0.000000001
 43
0.00000001
 40
0.0
 40
0.0
 40
0.0
 40
0.0
 40
0.0492540181151015
 40
0.1492409839198747
 40
0.2001416191492483
 40
0.2518526251234173
 40
0.3040335595223633
 40
0.3577923743443072
 40
0.4121322905460628
 40
0.4583035622698645
 40
0.5524517173646445
 40
0.6005416407375762
 40
0.6462083951794704
 40
0.7390265475467572
 40
0.786277875171663
 40
0.838630721705771
 40
0.8914004261034281
 40
0.9454768104145393
 40
0.9999986794956643
 40
1.0
 40
1.0
 40
1.0
 40
1.0
 10
1185.127341952814
 20
1297.832133631576
 30
0.0
 10
1184.67397328245
 20
1298.363839712939
 30
0.0
 10
1183.300254162002
 20
1299.974923270699
 30
0.0
 10
1181.760294130492
 20
1302.414354182705
 30
0.0
 10
1180.501765663374
 20
1305.072878804409
 30
0.0
 10
1179.717893938917
 20
1307.203540836581
 30
0.0
 10
1179.113474101295
 20
1309.45689043122
 30
0.0
 10
1178.712233146927
 20
1311.815031658922
 30
0.0
 10
1178.544319950421
 20
1314.127668797478
 30
0.0
 10
1178.593955890365
 20
1317.063882339951
 30
0.0
 10
1178.999124441212
 20
1319.903904421329
 30
0.0
 10
1179.750285232156
 20
1322.651500383108
 30
0.0
 10
1180.714324488403
 20
1325.308308160727
 30
0.0
 10
1181.981540932206
 20
1327.8290966132
 30
0.0
 10
1183.589036069877
 20
1330.246809023535
 30
0.0
 10
1185.018531433965
 20
1332.043760588915
 30
0.0
 10
1186.667227993584
 20
1333.780547366957
 30
0.0
 10
1188.487969998288
 20
1335.381116268787
 30
0.0
 10
1189.805353410606
 20
1336.342185442086
 30
0.0
 10
1190.487095013947
 20
1336.793008117886
 30
0.0
 10
1190.487111525136
 20
1336.79301903642
 30
0.0
  0
SPLINE
  5
17D
330
1F
100
AcDbEntity
  8
0
  6
Continuous
 62
     8
370
    18
100
AcDbSpline
210
0.0
220
0.0
230
1.0
 70
     8
 71
     3
 72
    17
 73
    13
 74
     0
 42
0.000000001
 43
0.00000001
 40
0.0
 40
0.0
 40
0.0
 40
0.0
 40
0.0000034855140939
 40
0.1237311811743977
 40
0.248185288001888
 40
0.3749118306512843
 40
0.5024199211247022
 40
0.6249563428645111
 40
0.7482076745729956
 40
0.8737113440217109
 40
0.9999965144859068
 40
1.0
 40
1.0
 40
1.0
 40
1.0
 10
1190.487111525136
 20
1336.79301903642
 30
0.0
 10
1190.487127816199
 20
1336.793030268053
 30
0.0
 10
1191.06543918548
 20
1337.191738510336
 30
0.0
 10
1192.25731388764
 20
1337.947869323873
 30
0.0
 10
1194.142043392481
 20
1338.950351000113
 30
0.0
 10
1196.1212712184
 20
1339.814985304111
 30
0.0
 10
1198.154499090826
 20
1340.521441577427
 30
0.0
 10
1200.219312502483
 20
1341.067612003792
 30
0.0
 10
1202.310786786749
 20
1341.457432514368
 30
0.0
 10
1204.449448599975
 20
1341.692112020146
 30
0.0
 10
1205.89468431068
 20
1341.740530828642
 30
0.0
 10
1206.619235334114
 20
1341.73727101882
 30
0.0
 10
1206.619255331419
 20
1341.73727092885
 30
0.0
  0
ARC
  5
17E
330
1F
100
AcDbEntity
  8
0
  6
Continuous
 62
     8
370
    18
100
AcDbCircle
 10
1187.2632662298
 20
1295.2072033237
 30
0.0
 40
3.384144151533069
100
AcDbArc
 50
92.2129439008
 51
129.1354920666
  0
SPLINE
  5
17F
330
1F
100
AcDbEntity
  8
0
  6
Continuous
 62
     8
370
    18
100
AcDbSpline
210
0.0
220
0.0
230
1.0
 70
     8
 71
     3
 72
    13
 73
     9
 74
     0
 42
0.000000001
 43
0.00000001
 40
0.0
 40
0.0
 40
0.0
 40
0.0
 40
0.000003488132369
 40
0.2457799679353303
 40
0.4975795644761281
 40
0.7457645563596907
 40
0.9999965118676328
 40
1.0
 40
1.0
 40
1.0
 40
1.0
 10
1206.619255331419
 20
1341.73727092885
 30
0.0
 10
1206.619275328725
 20
1341.73727101882
 30
0.0
 10
1208.028320773928
 20
1341.743610422474
 30
0.0
 10
1210.885556300208
 20
1341.545012124586
 30
0.0
 10
1215.062520825343
 20
1340.612942955405
 30
0.0
 10
1219.082531181922
 20
1339.049103046877
 30
0.0
 10
1221.563995130236
 20
1337.611657214552
 30
0.0
 10
1222.75138284664
 20
1336.793030268053
 30
0.0
 10
1222.751399137702
 20
1336.79301903642
 30
0.0
  0
SPLINE
  5
180
330
1F
100
AcDbEntity
  8
0
  6
Continuous
 62
     8
370
    18
100
AcDbSpline
210
0.0
220
0.0
230
1.0
 70
     8
 71
     3
 72
    19
 73
    15
 74
     0
 42
0.000000001
 43
0.00000001
 40
0.0
 40
0.0
 40
0.0
 40
0.0
 40
0.0000013213841023
 40
0.0176852170218708
 40
0.1143733902378734
 40
0.2137145610419426
 40
0.3053523452007506
 40
0.3995000333270461
 40
0.4922123793434037
 40
0.5879403428335861
 40
0.6917200092822474
 40
0.7998090016712734
 40
0.8985189583178735
 40
1.0
 40
1.0
 40
1.0
 40
1.0
 10
1222.751399137702
 20
1336.79301903642
 30
0.0
 10
1222.751415648892
 20
1336.793008117886
 30
0.0
 10
1222.972399070457
 20
1336.646876009578
 30
0.0
 10
1224.387399463699
 20
1335.680632727827
 30
0.0
 10
1226.859085135167
 20
1333.61897880487
 30
0.0
 10
1229.693987608928
 20
1330.330050423346
 30
0.0
 10
1231.947427306967
 20
1326.647716882602
 30
0.0
 10
1233.551303993454
 20
1322.733688576038
 30
0.0
 10
1234.524155906509
 20
1318.547622375778
 30
0.0
 10
1234.793845199047
 20
1314.122081341837
 30
0.0
 10
1234.255367175825
 20
1309.522836658632
 30
0.0
 10
1232.867550389291
 20
1305.144681199803
 30
0.0
 10
1230.819302573081
 20
1301.159075052153
 30
0.0
 10
1229.022172081194
 20
1298.951300926508
 30
0.0
 10
1228.111168710024
 20
1297.832133631576
 30
0.0
  0
ARC
  5
181
330
1F
100
AcDbEntity
  8
0
  6
Continuous
 62
     8
370
    18
100
AcDbCircle
 10
1225.975244433
 20
1295.2072033237
 30
0.0
 40
3.38414415153534
100
AcDbArc
 50
50.8645079334
 51
87.7870560992
  0
SPLINE
  5
182
330
1F
100
AcDbEntity
  8
0
  6
Continuous
 62
     8
370
    18
100
AcDbSpline
210
0.0
220
0.0
230
1.0
 70
     8
 71
     3
 72
    14
 73
    10
 74
     0
 42
0.000000001
 43
0.00000001
 40
0.0
 40
0.0
 40
0.0
 40
0.0
 40
0.070646935810895
 40
0.2691496022583709
 40
0.4748299235320576
 40
0.6841240356853444
 40
0.8123563766451368
 40
0.9412272031615675
 40
1.0
 40
1.0
 40
1.0
 40
1.0
 10
1172.969862514957
 20
1299.884735600887
 30
0.0
 10
1172.968386161338
 20
1300.697134470965
 30
0.0
 10
1172.962761572177
 20
1303.792199108189
 30
0.0
 10
1173.041588870745
 20
1309.515548383159
 30
0.0
 10
1173.167303892505
 20
1317.104742475922
 30
0.0
 10
1173.228449807101
 20
1323.886086891762
 30
0.0
 10
1173.206210115226
 20
1329.675057797703
 30
0.0
 10
1173.160474705903
 20
1333.568426416354
 30
0.0
 10
1173.125079177749
 20
1335.848306538326
 30
0.0
 10
1173.113992767521
 20
1336.562399182824
 30
0.0
  0
ARC
  5
183
330
1F
100
AcDbEntity
  8
0
  6
Continuous
 62
     8
370
    18
100
AcDbCircle
 10
1172.9087828532
 20
1293.5576377458
 30
0.0
 40
6.32739266938461
100
AcDbArc
 50
89.4469031132
 51
106.8009889676
  0
SPLINE
  5
184
330
1F
100
AcDbEntity
  8
0
  6
Continuous
 62
     8
370
    18
100
AcDbSpline
210
0.0
220
0.0
230
1.0
 70
     8
 71
     3
 72
    14
 73
    10
 74
     0
 42
0.000000001
 43
0.00000001
 40
0.0
 40
0.0
 40
0.0
 40
0.0
 40
0.0588507131428024
 40
0.1865507860318865
 40
0.3150706499745841
 40
0.5205160403891208
 40
0.729605030994965
 40
0.9289213534635682
 40
1.0
 40
1.0
 40
1.0
 40
1.0
 10
1171.078565222278
 20
1336.714798421024
 30
0.0
 10
1171.078237692762
 20
1335.992930263451
 30
0.0
 10
1171.077199457448
 20
1333.704681489303
 30
0.0
 10
1171.074028734263
 20
1329.778559303013
 30
0.0
 10
1171.072558044003
 20
1323.975086770608
 30
0.0
 10
1171.080328295292
 20
1317.105701652221
 30
0.0
 10
1171.081465184859
 20
1309.427379676724
 30
0.0
 10
1171.079926000403
 20
1303.594676741562
 30
0.0
 10
1171.079874233974
 20
1300.443334867293
 30
0.0
 10
1171.079860626148
 20
1299.614942549119
 30
0.0
  0
ARC
  5
185
330
1F
100
AcDbEntity
  8
0
  6
Continuous
 62
     8
370
    18
100
AcDbCircle
 10
1172.8524814116
 20
1346.7383555121
 30
0.0
 40
10.17931605776446
100
AcDbArc
 50
259.9640104619
 51
271.4721171424
  0
ARC
  5
186
330
1F
100
AcDbEntity
  8
0
  6
Continuous
 62
     8
370
    18
100
AcDbCircle
 10
1169.8913314953
 20
1303.6967773334
 30
0.0
 40
4.251349985717614
100
AcDbArc
 50
269.1903220348
 51
286.2342508995
  0
SPLINE
  5
187
330
1F
100
AcDbEntity
  8
0
  6
Continuous
 62
     8
370
    18
100
AcDbSpline
210
0.0
220
0.0
230
1.0
 70
     8
 71
     3
 72
    14
 73
    10
 74
     0
 42
0.000000001
 43
0.00000001
 40
0.0
 40
0.0
 40
0.0
 40
0.0
 40
0.2078011624980595
 40
0.4196948388477489
 40
0.5443918098789573
 40
0.6699512654772862
 40
0.7982264655367505
 40
0.9274422558336513
 40
1.0
 40
1.0
 40
1.0
 40
1.0
 10
1169.726928829219
 20
1336.863412048067
 30
0.0
 10
1169.696744772044
 20
1334.276016854799
 30
0.0
 10
1169.635782201576
 20
1329.050269339144
 30
0.0
 10
1169.647451960385
 20
1322.087125929057
 30
0.0
 10
1169.703427381665
 20
1316.210931336177
 30
0.0
 10
1169.758025904992
 20
1311.435478669267
 30
0.0
 10
1169.808540148327
 20
1306.682589507058
 30
0.0
 10
1169.835995938006
 20
1302.675431657918
 30
0.0
 10
1169.832509182393
 20
1300.300041807697
 30
0.0
 10
1169.8312553454
 20
1299.445851839194
 30
0.0
  0
ARC
  5
188
330
1F
100
AcDbEntity
  8
0
  6
Continuous
 62
     8
370
    18
100
AcDbCircle
 10
1169.7272316658
 20
1330.6453136947
 30
0.0
 40
6.218098360725696
100
AcDbArc
 50
77.4481726938
 51
90.0027904447
  0
SPLINE
  5
189
330
1F
100
AcDbEntity
  8
0
  6
Continuous
 62
     8
370
    18
100
AcDbSpline
210
0.0
220
0.0
230
1.0
 70
     8
 71
     3
 72
    14
 73
    10
 74
     0
 42
0.000000001
 43
0.00000001
 40
0.0
 40
0.0
 40
0.0
 40
0.0
 40
0.0588507131428024
 40
0.1865507860318864
 40
0.3150706499745841
 40
0.5205160403891208
 40
0.729605030994965
 40
0.9289213534635682
 40
1.0
 40
1.0
 40
1.0
 40
1.0
 10
1242.159945440561
 20
1336.714798421024
 30
0.0
 10
1242.160272970077
 20
1335.992930263451
 30
0.0
 10
1242.161311205391
 20
1333.704681489303
 30
0.0
 10
1242.164481928575
 20
1329.778559303013
 30
0.0
 10
1242.165952618836
 20
1323.975086770608
 30
0.0
 10
1242.158182367547
 20
1317.105701652221
 30
0.0
 10
1242.15704547798
 20
1309.427379676724
 30
0.0
 10
1242.158584662436
 20
1303.594676741562
 30
0.0
 10
1242.158636428865
 20
1300.443334867293
 30
0.0
 10
1242.158650036691
 20
1299.614942549119
 30
0.0
  0
ARC
  5
18A
330
1F
100
AcDbEntity
  8
0
  6
Continuous
 62
     8
370
    18
100
AcDbCircle
 10
1240.3297278096
 20
1293.5576377458
 30
0.0
 40
6.327392669384651
100
AcDbArc
 50
73.1990110324
 51
90.5530968868
  0
SPLINE
  5
18B
330
1F
100
AcDbEntity
  8
0
  6
Continuous
 62
     8
370
    18
100
AcDbSpline
210
0.0
220
0.0
230
1.0
 70
     8
 71
     3
 72
    14
 73
    10
 74
     0
 42
0.000000001
 43
0.00000001
 40
0.0
 40
0.0
 40
0.0
 40
0.0
 40
0.0706469358108949
 40
0.2691496022583709
 40
0.4748299235320583
 40
0.684124035685345
 40
0.8123563766451376
 40
0.9412272031615684
 40
1.0
 40
1.0
 40
1.0
 40
1.0
 10
1240.268648147881
 20
1299.884735600887
 30
0.0
 10
1240.270124501501
 20
1300.697134470965
 30
0.0
 10
1240.275749090662
 20
1303.792199108189
 30
0.0
 10
1240.196921792094
 20
1309.515548383159
 30
0.0
 10
1240.071206770334
 20
1317.104742475922
 30
0.0
 10
1240.010060855738
 20
1323.886086891762
 30
0.0
 10
1240.032300547613
 20
1329.675057797703
 30
0.0
 10
1240.078035956936
 20
1333.568426416354
 30
0.0
 10
1240.11343148509
 20
1335.848306538326
 30
0.0
 10
1240.124517895318
 20
1336.562399182824
 30
0.0
  0
ARC
  5
18C
330
1F
100
AcDbEntity
  8
0
  6
Continuous
 62
     8
370
    18
100
AcDbCircle
 10
1240.3860292513
 20
1346.7383555121
 30
0.0
 40
10.17931605778728
100
AcDbArc
 50
268.5278828577
 51
280.035989538
  0
SPLINE
  5
18D
330
1F
100
AcDbEntity
  8
0
  6
Continuous
 62
     8
370
    18
100
AcDbSpline
210
0.0
220
0.0
230
1.0
 70
     8
 71
     3
 72
    14
 73
    10
 74
     0
 42
0.000000001
 43
0.00000001
 40
0.0
 40
0.0
 40
0.0
 40
0.0
 40
0.2078011624980596
 40
0.4196948388477489
 40
0.5443918098789572
 40
0.6699512654772863
 40
0.7982264655367506
 40
0.9274422558336513
 40
1.0
 40
1.0
 40
1.0
 40
1.0
 10
1243.51158183362
 20
1336.863412048067
 30
0.0
 10
1243.541765890795
 20
1334.276016854799
 30
0.0
 10
1243.602728461263
 20
1329.050269339144
 30
0.0
 10
1243.591058702454
 20
1322.087125929057
 30
0.0
 10
1243.535083281173
 20
1316.210931336177
 30
0.0
 10
1243.480484757846
 20
1311.435478669267
 30
0.0
 10
1243.429970514512
 20
1306.682589507058
 30
0.0
 10
1243.402514724833
 20
1302.675431657918
 30
0.0
 10
1243.406001480446
 20
1300.300041807697
 30
0.0
 10
1243.407255317439
 20
1299.445851839194
 30
0.0
  0
ARC
  5
18E
330
1F
100
AcDbEntity
  8
0
  6
Continuous
 62
     8
370
    18
100
AcDbCircle
 10
1243.3471791676
 20
1303.6967773334
 30
0.0
 40
4.251349985716868
100
AcDbArc
 50
253.7657491005
 51
270.8096779652
  0
ARC
  5
18F
330
1F
100
AcDbEntity
  8
0
  6
Continuous
 62
     8
370
    18
100
AcDbCircle
 10
1243.511278997
 20
1330.6453136947
 30
0.0
 40
6.218098360724329
100
AcDbArc
 50
89.9972095553
 51
102.5518273062
  0
SPLINE
  5
190
330
1F
100
AcDbEntity
  8
0
  6
Continuous
 62
     8
370
    18
100
AcDbSpline
210
0.0
220
0.0
230
1.0
 70
     8
 71
     3
 72
    14
 73
    10
 74
     0
 42
0.000000001
 43
0.00000001
 40
0.0
 40
0.0
 40
0.0
 40
0.0
 40
0.127247386060472
 40
0.2554745767697365
 40
0.3810919869018176
 40
0.5075916090131543
 40
0.7089607368256275
 40
0.9137762176246976
 40
1.0
 40
1.0
 40
1.0
 40
1.0
 10
1162.145654519507
 20
1299.646923465903
 30
0.0
 10
1162.144209481528
 20
1301.136832829833
 30
0.0
 10
1162.14130827878
 20
1304.128123857176
 30
0.0
 10
1162.145009913277
 20
1308.766886468468
 30
0.0
 10
1162.150663714992
 20
1313.478462461947
 30
0.0
 10
1162.159212399923
 20
1319.170092787935
 30
0.0
 10
1162.167721886703
 20
1325.902159915231
 30
0.0
 10
1162.161092110661
 20
1332.084962841431
 30
0.0
 10
1162.15615091046
 20
1335.654239754653
 30
0.0
 10
1162.154687022165
 20
1336.711679745553
 30
0.0
  0
ARC
  5
191
330
1F
100
AcDbEntity
  8
0
  6
Continuous
 62
     8
370
    18
100
AcDbCircle
 10
1160.2345508205
 20
1293.8757203022
 30
0.0
 40
6.079399913261628
100
AcDbArc
 50
71.6779814803
 51
90.2649234322
  0
SPLINE
  5
192
330
1F
100
AcDbEntity
  8
0
  6
Continuous
 62
     8
370
    18
100
AcDbSpline
210
0.0
220
0.0
230
1.0
 70
     8
 71
     3
 72
    15
 73
    11
 74
     0
 42
0.000000001
 43
0.00000001
 40
0.0
 40
0.0
 40
0.0
 40
0.0
 40
0.1214527241786898
 40
0.2436356162157049
 40
0.3679634748124462
 40
0.4929996451849698
 40
0.6185865433805133
 40
0.7450337263104053
 40
0.8719902588119076
 40
1.0
 40
1.0
 40
1.0
 40
1.0
 10
1160.105163946227
 20
1336.518541353017
 30
0.0
 10
1160.087952284544
 20
1335.045154598076
 30
0.0
 10
1160.053425485508
 20
1332.089523158834
 30
0.0
 10
1160.021546736832
 20
1327.544569164599
 30
0.0
 10
1160.02414847938
 20
1322.930837956809
 30
0.0
 10
1160.056718281244
 20
1318.266729977611
 30
0.0
 10
1160.105499059462
 20
1313.597710328289
 30
0.0
 10
1160.158111899232
 20
1308.962685779058
 30
0.0
 10
1160.201716854031
 20
1304.37717932875
 30
0.0
 10
1160.204862004376
 20
1301.43315030393
 30
0.0
 10
1160.206441075505
 20
1299.955055228593
 30
0.0
  0
ARC
  5
193
330
1F
100
AcDbEntity
  8
0
  6
Continuous
 62
     8
370
    18
100
AcDbCircle
 10
1160.2464230749
 20
1345.9905565788
 30
0.0
 40
9.473068488031283
100
AcDbArc
 50
269.1455934394
 51
281.6212347178
  0
SPLINE
  5
194
330
1F
100
AcDbEntity
  8
0
  6
Continuous
 62
     8
370
    18
100
AcDbSpline
210
0.0
220
0.0
230
1.0
 70
     8
 71
     3
 72
    15
 73
    11
 74
     0
 42
0.000000001
 43
0.00000001
 40
0.0
 40
0.0
 40
0.0
 40
0.0
 40
0.1214527241786896
 40
0.2436356162157048
 40
0.3679634748124462
 40
0.4929996451849699
 40
0.6185865433805134
 40
0.7450337263104054
 40
0.8719902588119078
 40
1.0
 40
1.0
 40
1.0
 40
1.0
 10
1253.133346716612
 20
1336.518541353017
 30
0.0
 10
1253.150558378294
 20
1335.045154598076
 30
0.0
 10
1253.18508517733
 20
1332.089523158834
 30
0.0
 10
1253.216963926007
 20
1327.544569164599
 30
0.0
 10
1253.214362183458
 20
1322.930837956809
 30
0.0
 10
1253.181792381595
 20
1318.266729977611
 30
0.0
 10
1253.133011603377
 20
1313.597710328289
 30
0.0
 10
1253.080398763606
 20
1308.962685779058
 30
0.0
 10
1253.036793808808
 20
1304.37717932875
 30
0.0
 10
1253.033648658463
 20
1301.43315030393
 30
0.0
 10
1253.032069587334
 20
1299.955055228593
 30
0.0
  0
ARC
  5
195
330
1F
100
AcDbEntity
  8
0
  6
Continuous
 62
     8
370
    18
100
AcDbCircle
 10
1253.0039598423
 20
1293.8757203022
 30
0.0
 40
6.079399913258182
100
AcDbArc
 50
89.7350765678
 51
108.3220185197
  0
SPLINE
  5
196
330
1F
100
AcDbEntity
  8
0
  6
Continuous
 62
     8
370
    18
100
AcDbSpline
210
0.0
220
0.0
230
1.0
 70
     8
 71
     3
 72
    14
 73
    10
 74
     0
 42
0.000000001
 43
0.00000001
 40
0.0
 40
0.0
 40
0.0
 40
0.0
 40
0.127734315530242
 40
0.2554736424753123
 40
0.381529514103723
 40
0.5075900262814133
 40
0.7106819552125377
 40
0.9137761853290127
 40
1.0
 40
1.0
 40
1.0
 40
1.0
 10
1251.092856143332
 20
1299.646923465903
 30
0.0
 10
1251.094328513848
 20
1301.142676489731
 30
0.0
 10
1251.097273312646
 20
1304.134241220434
 30
0.0
 10
1251.093476961241
 20
1308.778176541193
 30
0.0
 10
1251.087815502882
 20
1313.484076628228
 30
0.0
 10
1251.078939683987
 20
1319.197191362134
 30
0.0
 10
1251.073063445104
 20
1325.924228893316
 30
0.0
 10
1251.077240598231
 20
1332.106061547962
 30
0.0
 10
1251.08231218458
 20
1335.654237119884
 30
0.0
 10
1251.083823640673
 20
1336.711679745553
 30
0.0
  0
ARC
  5
197
330
1F
100
AcDbEntity
  8
0
  6
Continuous
 62
     8
370
    18
100
AcDbCircle
 10
1252.9920875879
 20
1345.9905565788
 30
0.0
 40
9.473068488033379
100
AcDbArc
 50
258.3787652822
 51
270.8544065606
  0
SPLINE
  5
198
330
1F
100
AcDbEntity
  8
0
  6
Continuous
 62
     8
370
    18
100
AcDbSpline
210
0.0
220
0.0
230
1.0
 70
     8
 71
     3
 72
    14
 73
    10
 74
     0
 42
0.000000001
 43
0.00000001
 40
0.0
 40
0.0
 40
0.0
 40
0.0
 40
0.1296969008660533
 40
0.2603671951156627
 40
0.3853421446376518
 40
0.5111847557259619
 40
0.6397642884787733
 40
0.7692911603858882
 40
1.0
 40
1.0
 40
1.0
 40
1.0
 10
1249.750257810858
 20
1299.445851839194
 30
0.0
 10
1249.75136431139
 20
1300.979902823142
 30
0.0
 10
1249.753585616894
 20
1304.059518058262
 30
0.0
 10
1249.728222809977
 20
1308.795381449631
 30
0.0
 10
1249.697448682635
 20
1313.566720521055
 30
0.0
 10
1249.667130830994
 20
1318.375867208513
 30
0.0
 10
1249.645074458686
 20
1323.267247463412
 30
0.0
 10
1249.643809605421
 20
1329.496273875429
 30
0.0
 10
1249.673593703326
 20
1333.987230355858
 30
0.0
 10
1249.692668588039
 20
1336.863412048067
 30
0.0
  0
ARC
  5
199
330
1F
100
AcDbEntity
  8
0
  6
Continuous
 62
     8
370
    18
100
AcDbCircle
 10
1249.7315452039
 20
1330.7665946914
 30
0.0
 40
6.096941304581494
100
AcDbArc
 50
77.1854453734
 51
90.3653440293
  0
ARC
  5
19A
330
1F
100
AcDbEntity
  8
0
  6
Continuous
 62
     8
370
    18
100
AcDbCircle
 10
1249.821175459
 20
1303.5552636848
 30
0.0
 40
4.110023726142421
100
AcDbArc
 50
269.0113235705
 51
288.0236522042
  0
ARC
  5
19B
330
1F
100
AcDbEntity
  8
0
  6
Continuous
 62
     8
370
    18
100
AcDbCircle
 10
1163.506965459
 20
1330.7665946914
 30
0.0
 40
6.096941304580811
100
AcDbArc
 50
89.6346559707
 51
102.8145546266
  0
SPLINE
  5
19C
330
1F
100
AcDbEntity
  8
0
  6
Continuous
 62
     8
370
    18
100
AcDbSpline
210
0.0
220
0.0
230
1.0
 70
     8
 71
     3
 72
    14
 73
    10
 74
     0
 42
0.000000001
 43
0.00000001
 40
0.0
 40
0.0
 40
0.0
 40
0.0
 40
0.1296969008660533
 40
0.2603671951156627
 40
0.3853421446376518
 40
0.5111847557259619
 40
0.6397642884787733
 40
0.7692911603858882
 40
1.0
 40
1.0
 40
1.0
 40
1.0
 10
1163.488252851981
 20
1299.445851839194
 30
0.0
 10
1163.487146351449
 20
1300.979902823142
 30
0.0
 10
1163.484925045944
 20
1304.059518058262
 30
0.0
 10
1163.510287852862
 20
1308.795381449631
 30
0.0
 10
1163.541061980203
 20
1313.566720521055
 30
0.0
 10
1163.571379831845
 20
1318.375867208513
 30
0.0
 10
1163.593436204153
 20
1323.267247463412
 30
0.0
 10
1163.594701057418
 20
1329.496273875429
 30
0.0
 10
1163.564916959512
 20
1333.987230355858
 30
0.0
 10
1163.5458420748
 20
1336.863412048067
 30
0.0
  0
ARC
  5
19D
330
1F
100
AcDbEntity
  8
0
  6
Continuous
 62
     8
370
    18
100
AcDbCircle
 10
1163.4173352039
 20
1303.5552636848
 30
0.0
 40
4.11002372613882
100
AcDbArc
 50
251.9763477958
 51
270.9886764295
  0
LINE
  5
19E
330
1F
100
AcDbEntity
  8
0
  6
Continuous
 62
     8
370
    18
100
AcDbLine
 10
1169.8312553454
 20
1299.4458518392
 30
0.0
 11
1163.488252852
 21
1299.4458518392
 31
0.0
  0
LINE
  5
19F
330
1F
100
AcDbEntity
  8
0
  6
Continuous
 62
     8
370
    18
100
AcDbLine
 10
1169.7269288292
 20
1336.8634120481
 30
0.0
 11
1163.5458420748
 21
1336.8634120481
 31
0.0
  0
LINE
  5
1A0
330
1F
100
AcDbEntity
  8
0
  6
Continuous
 62
     8
370
    18
100
AcDbLine
 10
1243.4072553174
 20
1299.4458518392
 30
0.0
 11
1249.7502578109
 21
1299.4458518392
 31
0.0
  0
LINE
  5
1A1
330
1F
100
AcDbEntity
  8
0
  6
Continuous
 62
     8
370
    18
100
AcDbLine
 10
1243.5115818336
 20
1336.8634120481
 30
0.0
 11
1249.692668588
 21
1336.8634120481
 31
0.0
  0
SPLINE
  5
1A2
330
1F
100
AcDbEntity
  8
0
  6
Continuous
 62
     8
370
    18
100
AcDbSpline
210
0.0
220
0.0
230
1.0
 70
     8
 71
     3
 72
    14
 73
    10
 74
     0
 42
0.000000001
 43
0.00000001
 40
0.0
 40
0.0
 40
0.0
 40
0.0
 40
0.0834813408532671
 40
0.2549666805167995
 40
0.426378637771139
 40
0.5910988460081824
 40
0.7558798437661322
 40
0.877936579529704
 40
1.0
 40
1.0
 40
1.0
 40
1.0
 10
1252.960872363549
 20
1297.951821183153
 30
0.0
 10
1253.861959417141
 20
1297.967481956164
 30
0.0
 10
1256.614037576916
 20
1298.015312708138
 30
0.0
 10
1261.216602289476
 20
1298.100525812668
 30
0.0
 10
1266.516754420982
 20
1298.156075420344
 30
0.0
 10
1271.409525747956
 20
1298.220545359878
 30
0.0
 10
1275.435848601213
 20
1298.242808052275
 30
0.0
 10
1278.740816469677
 20
1298.239090641252
 30
0.0
 10
1280.45385070055
 20
1298.222712322666
 30
0.0
 10
1281.310391269871
 20
1298.214522939131
 30
0.0
  0
LINE
  5
1A3
330
1F
100
AcDbEntity
  8
0
  6
Continuous
 62
     8
370
    18
100
AcDbLine
 10
1253.0320695873
 20
1299.9550552286
 30
0.0
 11
1252.9608723635
 21
1297.9518211832
 31
0.0
  0
SPLINE
  5
1A4
330
1F
100
AcDbEntity
  8
0
  6
Continuous
 62
     8
370
    18
100
AcDbSpline
210
0.0
220
0.0
230
1.0
 70
     8
 71
     3
 72
    10
 73
     6
 74
     0
 42
0.000000001
 43
0.00000001
 40
0.0
 40
0.0
 40
0.0
 40
0.0
 40
0.0305940752880631
 40
0.8849546452569933
 40
1.0
 40
1.0
 40
1.0
 40
1.0
 10
1253.050091196865
 20
1347.297491768095
 30
0.0
 10
1253.05030333386
 20
1347.189053525919
 30
0.0
 10
1253.056439542197
 20
1344.052402875958
 30
0.0
 10
1253.096885110441
 20
1340.454616412524
 30
0.0
 10
1253.129478642042
 20
1336.936104742073
 30
0.0
 10
1253.133346716612
 20
1336.518541353017
 30
0.0
  0
SPLINE
  5
1A5
330
1F
100
AcDbEntity
  8
0
  6
Continuous
 62
     8
370
    18
100
AcDbSpline
210
0.0
220
0.0
230
1.0
 70
     8
 71
     3
 72
    12
 73
     8
 74
     0
 42
0.000000001
 43
0.00000001
 40
0.0
 40
0.0
 40
0.0
 40
0.0
 40
0.000011396415791
 40
0.016561542624936
 40
0.2254762501766431
 40
0.6569695733823713
 40
0.9999999999999999
 40
0.9999999999999999
 40
0.9999999999999999
 40
0.9999999999999999
 10
1251.842288023782
 20
1351.911649224093
 30
0.0
 10
1251.842300805264
 20
1351.911635415438
 30
0.0
 10
1251.860875159116
 20
1351.891568349248
 30
0.0
 10
1252.109485326785
 20
1351.614869370049
 30
0.0
 10
1252.661445251424
 20
1350.678633675979
 30
0.0
 10
1252.993638569023
 20
1349.103652628731
 30
0.0
 10
1253.032763205596
 20
1347.851888273987
 30
0.0
 10
1253.050091196865
 20
1347.297491768095
 30
0.0
  0
SPLINE
  5
1A6
330
1F
100
AcDbEntity
  8
0
  6
Continuous
 62
     8
370
    18
100
AcDbSpline
210
0.0
220
0.0
230
1.0
 70
     8
 71
     3
 72
    11
 73
     7
 74
     0
 42
0.000000001
 43
0.00000001
 40
0.0
 40
0.0
 40
0.0
 40
0.0
 40
0.298604439554944
 40
0.5785107697797155
 40
0.9999675635115337
 40
1.0
 40
1.0
 40
1.0
 40
1.0
 10
1250.121627356959
 20
1352.453176097673
 30
0.0
 10
1250.306513282996
 20
1352.447340018578
 30
0.0
 10
1250.664707888383
 20
1352.436033305875
 30
0.0
 10
1251.258015310678
 20
1352.262599357564
 30
0.0
 10
1251.633386989595
 20
1352.056894453037
 30
0.0
 10
1251.842271948651
 20
1351.911660400849
 30
0.0
 10
1251.842288023782
 20
1351.911649224093
 30
0.0
  0
LINE
  5
1A7
330
1F
100
AcDbEntity
  8
0
  6
Continuous
 62
     8
370
    18
100
AcDbLine
 10
1243.0152364937
 20
1352.3302551775
 30
0.0
 11
1250.121627357
 21
1352.4531760977
 31
0.0
  0
SPLINE
  5
1A8
330
1F
100
AcDbEntity
  8
0
  6
Continuous
 62
     8
370
    18
100
AcDbSpline
210
0.0
220
0.0
230
1.0
 70
     8
 71
     3
 72
    11
 73
     7
 74
     0
 42
0.000000001
 43
0.00000001
 40
0.0
 40
0.0
 40
0.0
 40
0.0
 40
0.0000403578891936
 40
0.1670896913901049
 40
0.6133765181115355
 40
1.0
 40
1.0
 40
1.0
 40
1.0
 10
1241.609264880403
 20
1351.9401631762
 30
0.0
 10
1241.609281953478
 20
1351.940172793322
 30
0.0
 10
1241.679967880282
 20
1351.979989588507
 30
0.0
 10
1241.944545256416
 20
1352.116721830474
 30
0.0
 10
1242.410277051995
 20
1352.287911780597
 30
0.0
 10
1242.823448838775
 20
1352.316831234963
 30
0.0
 10
1243.015236493667
 20
1352.330255177524
 30
0.0
  0
SPLINE
  5
1A9
330
1F
100
AcDbEntity
  8
0
  6
Continuous
 62
     8
370
    18
100
AcDbSpline
210
0.0
220
0.0
230
1.0
 70
     8
 71
     3
 72
    11
 73
     7
 74
     0
 42
0.000000001
 43
0.00000001
 40
0.0
 40
0.0
 40
0.0
 40
0.0
 40
0.5574252101166703
 40
0.8582360298869187
 40
0.9999887157359582
 40
1.0
 40
1.0
 40
1.0
 40
1.0
 10
1240.242053359509
 20
1347.357757847916
 30
0.0
 10
1240.283413198528
 20
1348.271150828874
 30
0.0
 10
1240.347092600522
 20
1349.677450277619
 30
0.0
 10
1240.959163704871
 20
1351.215742084797
 30
0.0
 10
1241.433016401766
 20
1351.782573724857
 30
0.0
 10
1241.609250852325
 20
1351.940150633243
 30
0.0
 10
1241.609264880403
 20
1351.9401631762
 30
0.0
  0
SPLINE
  5
1AA
330
1F
100
AcDbEntity
  8
0
  6
Continuous
 62
     8
370
    18
100
AcDbSpline
210
0.0
220
0.0
230
1.0
 70
     8
 71
     3
 72
     9
 73
     5
 74
     0
 42
0.000000001
 43
0.00000001
 40
0.0
 40
0.0
 40
0.0
 40
0.0
 40
0.8892351459143037
 40
1.0
 40
1.0
 40
1.0
 40
1.0
 10
1240.124517895318
 20
1336.562399182824
 30
0.0
 10
1240.173580401937
 20
1339.789387539175
 30
0.0
 10
1240.228754229516
 20
1343.418335822628
 30
0.0
 10
1240.240727177656
 20
1346.964920872378
 30
0.0
 10
1240.242053359509
 20
1347.357757847916
 30
0.0
  0
LINE
  5
1AB
330
1F
100
AcDbEntity
  8
0
  6
Continuous
 62
     8
370
    18
100
AcDbLine
 10
1240.3510677396
 20
1297.8273295707
 30
0.0
 11
1240.2686481479
 21
1299.8847356009
 31
0.0
  0
SPLINE
  5
1AC
330
1F
100
AcDbEntity
  8
0
  6
Continuous
 62
     8
370
    18
100
AcDbSpline
210
0.0
220
0.0
230
1.0
 70
     8
 71
     3
 72
     9
 73
     5
 74
     0
 42
0.000000001
 43
0.00000001
 40
0.0
 40
0.0
 40
0.0
 40
0.0
 40
0.0843934950201051
 40
1.0
 40
1.0
 40
1.0
 40
1.0
 10
1228.111168710024
 20
1297.832133631576
 30
0.0
 10
1228.455479103345
 20
1297.830329096596
 30
0.0
 10
1232.535300578196
 20
1297.808946702371
 30
0.0
 10
1236.615348929008
 20
1297.818543072135
 30
0.0
 10
1240.351067739643
 20
1297.827329570715
 30
0.0
  0
SPLINE
  5
1AD
330
1F
100
AcDbEntity
  8
0
  6
Continuous
 62
     8
370
    18
100
AcDbSpline
210
0.0
220
0.0
230
1.0
 70
     8
 71
     3
 72
    12
 73
     8
 74
     0
 42
0.000000001
 43
0.00000001
 40
0.0
 40
0.0
 40
0.0
 40
0.0
 40
0.3429907427795665
 40
0.693111183153885
 40
0.8460382371952909
 40
0.9999906400284372
 40
1.0
 40
1.0
 40
1.0
 40
1.0
 10
1293.02809799873
 20
1341.231563520313
 30
0.0
 10
1293.068742416218
 20
1341.621092237343
 30
0.0
 10
1293.15087612066
 20
1342.408246746952
 30
0.0
 10
1293.234121703028
 20
1343.083089081817
 30
0.0
 10
1293.284208687499
 20
1343.446556500088
 30
0.0
 10
1293.302644169283
 20
1343.562989717273
 30
0.0
 10
1293.310499051726
 20
1343.60724491275
 30
0.0
 10
1293.310499529257
 20
1343.607247603206
 30
0.0
  0
SPLINE
  5
1AE
330
1F
100
AcDbEntity
  8
0
  6
Continuous
 62
     8
370
    18
100
AcDbSpline
210
0.0
220
0.0
230
1.0
 70
     8
 71
     3
 72
    20
 73
    16
 74
     0
 42
0.000000001
 43
0.00000001
 40
0.0
 40
0.0
 40
0.0
 40
0.0
 40
0.0777495206401191
 40
0.1580444463721884
 40
0.2279673988375377
 40
0.299460461877094
 40
0.3760581917562253
 40
0.4543933132980216
 40
0.5398335171527776
 40
0.6277318368777259
 40
0.7140713710304736
 40
0.8026163874373408
 40
0.8879068463690994
 40
0.9758355728947903
 40
1.0
 40
1.0
 40
1.0
 40
1.0
 10
1281.310391269871
 20
1298.214522939131
 30
0.0
 10
1281.305760692665
 20
1299.379367876754
 30
0.0
 10
1281.296347939959
 20
1301.747193064106
 30
0.0
 10
1281.778213720005
 20
1305.566286076538
 30
0.0
 10
1282.54742186414
 20
1309.406518287103
 30
0.0
 10
1283.536745902434
 20
1313.255233504412
 30
0.0
 10
1284.709431792507
 20
1317.253592431631
 30
0.0
 10
1286.005805625615
 20
1321.434106899338
 30
0.0
 10
1287.293711132985
 20
1325.657752602873
 30
0.0
 10
1288.506664568247
 20
1329.733536826267
 30
0.0
 10
1289.674698847602
 20
1333.425215541666
 30
0.0
 10
1290.798322977163
 20
1336.595523087429
 30
0.0
 10
1291.909975578627
 20
1339.155248155643
 30
0.0
 10
1292.638465250765
 20
1340.569621707226
 30
0.0
 10
1292.958999075315
 20
1341.114172292583
 30
0.0
 10
1293.02809799873
 20
1341.231563520313
 30
0.0
  0
LINE
  5
1AF
330
1F
100
AcDbEntity
  8
0
  6
Continuous
 62
     8
370
    18
100
AcDbLine
 10
1172.8874429232
 20
1297.8273295707
 30
0.0
 11
1172.969862515
 21
1299.8847356009
 31
0.0
  0
SPLINE
  5
1B0
330
1F
100
AcDbEntity
  8
0
  6
Continuous
 62
     8
370
    18
100
AcDbSpline
210
0.0
220
0.0
230
1.0
 70
     8
 71
     3
 72
     9
 73
     5
 74
     0
 42
0.000000001
 43
0.00000001
 40
0.0
 40
0.0
 40
0.0
 40
0.0
 40
0.8892351459143023
 40
1.0
 40
1.0
 40
1.0
 40
1.0
 10
1173.113992767521
 20
1336.562399182824
 30
0.0
 10
1173.064930260903
 20
1339.789387539175
 30
0.0
 10
1173.009756433323
 20
1343.418335822628
 30
0.0
 10
1172.997783485183
 20
1346.964920872378
 30
0.0
 10
1172.99645730333
 20
1347.357757847916
 30
0.0
  0
SPLINE
  5
1B1
330
1F
100
AcDbEntity
  8
0
  6
Continuous
 62
     8
370
    18
100
AcDbSpline
210
0.0
220
0.0
230
1.0
 70
     8
 71
     3
 72
    11
 73
     7
 74
     0
 42
0.000000001
 43
0.00000001
 40
0.0
 40
0.0
 40
0.0
 40
0.0
 40
0.557425210116718
 40
0.8582360298869939
 40
0.9999887157360463
 40
1.0
 40
1.0
 40
1.0
 40
1.0
 10
1172.99645730333
 20
1347.357757847916
 30
0.0
 10
1172.955097463977
 20
1348.271150828549
 30
0.0
 10
1172.89141806147
 20
1349.677450276794
 30
0.0
 10
1172.279346959287
 20
1351.215742086081
 30
0.0
 10
1171.80549425975
 20
1351.782573723569
 30
0.0
 10
1171.629259810514
 20
1351.940150633243
 30
0.0
 10
1171.629245782436
 20
1351.9401631762
 30
0.0
  0
SPLINE
  5
1B2
330
1F
100
AcDbEntity
  8
0
  6
Continuous
 62
     8
370
    18
100
AcDbSpline
210
0.0
220
0.0
230
1.0
 70
     8
 71
     3
 72
    11
 73
     7
 74
     0
 42
0.000000001
 43
0.00000001
 40
0.0
 40
0.0
 40
0.0
 40
0.0
 40
0.0000403578895606
 40
0.1670896913904106
 40
0.6133765181116775
 40
1.0
 40
1.0
 40
1.0
 40
1.0
 10
1171.629245782436
 20
1351.9401631762
 30
0.0
 10
1171.629228709361
 20
1351.940172793322
 30
0.0
 10
1171.55854278231
 20
1351.979989588126
 30
0.0
 10
1171.293965406741
 20
1352.116721830964
 30
0.0
 10
1170.828233610753
 20
1352.287911780456
 30
0.0
 10
1170.415061824034
 20
1352.316831234918
 30
0.0
 10
1170.223274169172
 20
1352.330255177524
 30
0.0
  0
LINE
  5
1B3
330
1F
100
AcDbEntity
  8
0
  6
Continuous
 62
     8
370
    18
100
AcDbLine
 10
1170.2232741692
 20
1352.3302551775
 30
0.0
 11
1163.1168833059
 21
1352.4531760977
 31
0.0
  0
SPLINE
  5
1B4
330
1F
100
AcDbEntity
  8
0
  6
Continuous
 62
     8
370
    18
100
AcDbSpline
210
0.0
220
0.0
230
1.0
 70
     8
 71
     3
 72
    11
 73
     7
 74
     0
 42
0.000000001
 43
0.00000001
 40
0.0
 40
0.0
 40
0.0
 40
0.0
 40
0.2986044395549194
 40
0.578510769779668
 40
0.9999675635114516
 40
0.9999999999999999
 40
0.9999999999999999
 40
0.9999999999999999
 40
0.9999999999999999
 10
1163.11688330588
 20
1352.453176097673
 30
0.0
 10
1162.931997379848
 20
1352.447340018572
 30
0.0
 10
1162.573802774471
 20
1352.436033305857
 30
0.0
 10
1161.980495352092
 20
1352.262599357642
 30
0.0
 10
1161.605123673473
 20
1352.056894452775
 30
0.0
 10
1161.396238714188
 20
1351.911660400849
 30
0.0
 10
1161.396222639057
 20
1351.911649224093
 30
0.0
  0
SPLINE
  5
1B5
330
1F
100
AcDbEntity
  8
0
  6
Continuous
 62
     8
370
    18
100
AcDbSpline
210
0.0
220
0.0
230
1.0
 70
     8
 71
     3
 72
    12
 73
     8
 74
     0
 42
0.000000001
 43
0.00000001
 40
0.0
 40
0.0
 40
0.0
 40
0.0
 40
0.0000113964157658
 40
0.0165615426249112
 40
0.2254762501766233
 40
0.656969573382362
 40
1.0
 40
1.0
 40
1.0
 40
1.0
 10
1161.396222639057
 20
1351.911649224093
 30
0.0
 10
1161.396209857575
 20
1351.911635415438
 30
0.0
 10
1161.377635503761
 20
1351.891568349215
 30
0.0
 10
1161.12902533582
 20
1351.614869370255
 30
0.0
 10
1160.577065411634
 20
1350.678633675787
 30
0.0
 10
1160.244872093762
 20
1349.103652628778
 30
0.0
 10
1160.205747457226
 20
1347.851888274002
 30
0.0
 10
1160.188419465974
 20
1347.297491768095
 30
0.0
  0
SPLINE
  5
1B6
330
1F
100
AcDbEntity
  8
0
  6
Continuous
 62
     8
370
    18
100
AcDbSpline
210
0.0
220
0.0
230
1.0
 70
     8
 71
     3
 72
    10
 73
     6
 74
     0
 42
0.000000001
 43
0.00000001
 40
0.0
 40
0.0
 40
0.0
 40
0.0
 40
0.0305940752880625
 40
0.8849546452569941
 40
1.0
 40
1.0
 40
1.0
 40
1.0
 10
1160.188419465974
 20
1347.297491768095
 30
0.0
 10
1160.188207328978
 20
1347.189053525919
 30
0.0
 10
1160.182071120641
 20
1344.052402875958
 30
0.0
 10
1160.141625552398
 20
1340.454616412524
 30
0.0
 10
1160.109032020797
 20
1336.936104742073
 30
0.0
 10
1160.105163946227
 20
1336.518541353017
 30
0.0
  0
LINE
  5
1B7
330
1F
100
AcDbEntity
  8
0
  6
Continuous
 62
     8
370
    18
100
AcDbLine
 10
1160.2064410755
 20
1299.9550552286
 30
0.0
 11
1160.2776382993
 21
1297.9518211832
 31
0.0
  0
SPLINE
  5
1B8
330
1F
100
AcDbEntity
  8
0
  6
Continuous
 62
     8
370
    18
100
AcDbSpline
210
0.0
220
0.0
230
1.0
 70
     8
 71
     3
 72
    18
 73
    14
 74
     0
 42
0.000000001
 43
0.00000001
 40
0.0
 40
0.0
 40
0.0
 40
0.0
 40
0.0497884573626106
 40
0.1520626953526052
 40
0.2542931679105414
 40
0.3525326664708922
 40
0.4508084200367182
 40
0.5543273934134056
 40
0.657856527535361
 40
0.7740307271289423
 40
0.8901694733964503
 40
0.9999988953086805
 40
1.0
 40
1.0
 40
1.0
 40
1.0
 10
1160.27763829929
 20
1297.951821183153
 30
0.0
 10
1159.376548024186
 20
1297.967482079347
 30
0.0
 10
1156.624460025349
 20
1298.015313207546
 30
0.0
 10
1152.022029617229
 20
1298.100521176576
 30
0.0
 10
1146.72131960301
 20
1298.15609211643
 30
0.0
 10
1141.830542051668
 20
1298.220485818476
 30
0.0
 10
1137.337369685871
 20
1298.245575471092
 30
0.0
 10
1133.3057303378
 20
1298.234424664263
 30
0.0
 10
1129.695533049745
 20
1298.187528000411
 30
0.0
 10
1126.783437204053
 20
1298.108646663654
 30
0.0
 10
1124.803621470619
 20
1297.9833753434
 30
0.0
 10
1124.211915201349
 20
1297.859015752703
 30
0.0
 10
1124.099497447141
 20
1297.791586822858
 30
0.0
 10
1124.099496316427
 20
1297.791586144648
 30
0.0
  0
SPLINE
  5
1B9
330
1F
100
AcDbEntity
  8
0
  6
Continuous
 62
     8
370
    18
100
AcDbSpline
210
0.0
220
0.0
230
1.0
 70
     8
 71
     3
 72
     9
 73
     5
 74
     0
 42
0.000000001
 43
0.00000001
 40
0.0
 40
0.0
 40
0.0
 40
0.0
 40
0.08439349502011
 40
1.0
 40
1.0
 40
1.0
 40
1.0
 10
1185.127341952814
 20
1297.832133631576
 30
0.0
 10
1184.783031559494
 20
1297.830329096596
 30
0.0
 10
1180.703210084642
 20
1297.808946702372
 30
0.0
 10
1176.623161733831
 20
1297.818543072135
 30
0.0
 10
1172.887442923197
 20
1297.827329570715
 30
0.0
  0
SPLINE
  5
1BA
330
1F
100
AcDbEntity
  8
0
  6
Continuous
 62
     8
370
    18
100
AcDbSpline
210
0.0
220
0.0
230
1.0
 70
     8
 71
     3
 72
     9
 73
     5
 74
     0
 42
0.000000001
 43
0.00000001
 40
0.0
 40
0.0
 40
0.0
 40
0.0
 40
0.3531288107769718
 40
1.0
 40
1.0
 40
1.0
 40
1.0
 10
1171.080241116219
 20
1347.574185584746
 30
0.0
 10
1171.080364555044
 20
1346.309192774944
 30
0.0
 10
1171.080714112546
 20
1342.726950909664
 30
0.0
 10
1171.079409280522
 20
1339.076299584908
 30
0.0
 10
1171.078565222278
 20
1336.714798421024
 30
0.0
  0
LINE
  5
1BB
330
1F
100
AcDbEntity
  8
0
  6
Continuous
 62
     8
370
    18
100
AcDbLine
 10
1169.8132619813
 20
1347.7231110828
 30
0.0
 11
1169.7269288292
 21
1336.8634120481
 31
0.0
  0
ARC
  5
1BC
330
1F
100
AcDbEntity
  8
0
  6
Continuous
 62
     8
370
    18
100
AcDbCircle
 10
1169.8605486041
 20
1342.6615446502
 30
0.0
 40
5.061787310428623
100
AcDbArc
 50
76.056743273
 51
90.5352582305
  0
LINE
  5
1BD
330
1F
100
AcDbEntity
  8
0
  6
Continuous
 62
     8
370
    18
100
AcDbLine
 10
1243.4252486815
 20
1347.7231110828
 30
0.0
 11
1243.5115818336
 21
1336.8634120481
 31
0.0
  0
SPLINE
  5
1BE
330
1F
100
AcDbEntity
  8
0
  6
Continuous
 62
     8
370
    18
100
AcDbSpline
210
0.0
220
0.0
230
1.0
 70
     8
 71
     3
 72
     9
 73
     5
 74
     0
 42
0.000000001
 43
0.00000001
 40
0.0
 40
0.0
 40
0.0
 40
0.0
 40
0.3531288107769718
 40
1.0
 40
1.0
 40
1.0
 40
1.0
 10
1242.15826954662
 20
1347.574185584746
 30
0.0
 10
1242.158146107795
 20
1346.309192774944
 30
0.0
 10
1242.157796550293
 20
1342.726950909664
 30
0.0
 10
1242.159101382317
 20
1339.076299584908
 30
0.0
 10
1242.159945440561
 20
1336.714798421024
 30
0.0
  0
ARC
  5
1BF
330
1F
100
AcDbEntity
  8
0
  6
Continuous
 62
     8
370
    18
100
AcDbCircle
 10
1243.3779620588
 20
1342.6615446502
 30
0.0
 40
5.061787310428623
100
AcDbArc
 50
89.4647417695
 51
103.943256727
  0
SPLINE
  5
1C0
330
1F
100
AcDbEntity
  8
0
  6
Continuous
 62
     8
370
    18
100
AcDbSpline
210
0.0
220
0.0
230
1.0
 70
     8
 71
     3
 72
    10
 73
     6
 74
     0
 42
0.000000001
 43
0.00000001
 40
0.0
 40
0.0
 40
0.0
 40
0.0
 40
0.0049102993503903
 40
0.1151643441716862
 40
1.0
 40
1.0
 40
1.0
 40
1.0
 10
1162.154687022165
 20
1336.711679745553
 30
0.0
 10
1162.15466492431
 20
1336.729615307639
 30
0.0
 10
1162.154146649392
 20
1337.150269344704
 30
0.0
 10
1162.148842825939
 20
1340.799058969878
 30
0.0
 10
1162.146428922353
 20
1344.373001260103
 30
0.0
 10
1162.144282474691
 20
1347.550957547058
 30
0.0
  0
ARC
  5
1C1
330
1F
100
AcDbEntity
  8
0
  6
Continuous
 62
     8
370
    18
100
AcDbCircle
 10
1163.4325227642
 20
1342.8286044986
 30
0.0
 40
4.894913825390658
100
AcDbArc
 50
89.260915705
 51
105.2587981171
  0
SPLINE
  5
1C2
330
1F
100
AcDbEntity
  8
0
  6
Continuous
 62
     8
370
    18
100
AcDbSpline
210
0.0
220
0.0
230
1.0
 70
     8
 71
     3
 72
     9
 73
     5
 74
     0
 42
0.000000001
 43
0.00000001
 40
0.0
 40
0.0
 40
0.0
 40
0.0
 40
0.8536363424240643
 40
1.0
 40
1.0
 40
1.0
 40
1.0
 10
1163.5458420748
 20
1336.863412048067
 30
0.0
 10
1163.525194322285
 20
1339.974492930367
 30
0.0
 10
1163.501006326194
 20
1343.618996716915
 30
0.0
 10
1163.496344982168
 20
1347.199112275121
 30
0.0
 10
1163.495662730807
 20
1347.723111082764
 30
0.0
  0
SPLINE
  5
1C3
330
1F
100
AcDbEntity
  8
0
  6
Continuous
 62
     8
370
    18
100
AcDbSpline
210
0.0
220
0.0
230
1.0
 70
     8
 71
     3
 72
     9
 73
     5
 74
     0
 42
0.000000001
 43
0.00000001
 40
0.0
 40
0.0
 40
0.0
 40
0.0
 40
0.8536363424240643
 40
1.0
 40
1.0
 40
1.0
 40
1.0
 10
1249.692668588039
 20
1336.863412048067
 30
0.0
 10
1249.713316340553
 20
1339.974492930367
 30
0.0
 10
1249.737504336645
 20
1343.618996716915
 30
0.0
 10
1249.74216568067
 20
1347.199112275121
 30
0.0
 10
1249.742847932031
 20
1347.723111082764
 30
0.0
  0
ARC
  5
1C4
330
1F
100
AcDbEntity
  8
0
  6
Continuous
 62
     8
370
    18
100
AcDbCircle
 10
1249.8059878986
 20
1342.8286044986
 30
0.0
 40
4.894913825389827
100
AcDbArc
 50
74.7412018829
 51
90.739084295
  0
SPLINE
  5
1C5
330
1F
100
AcDbEntity
  8
0
  6
Continuous
 62
     8
370
    18
100
AcDbSpline
210
0.0
220
0.0
230
1.0
 70
     8
 71
     3
 72
    10
 73
     6
 74
     0
 42
0.000000001
 43
0.00000001
 40
0.0
 40
0.0
 40
0.0
 40
0.0
 40
0.0049102993503903
 40
0.1151643441716862
 40
1.0
 40
1.0
 40
1.0
 40
1.0
 10
1251.083823640673
 20
1336.711679745553
 30
0.0
 10
1251.083845738528
 20
1336.729615307639
 30
0.0
 10
1251.084364013447
 20
1337.150269344704
 30
0.0
 10
1251.0896678369
 20
1340.799058969878
 30
0.0
 10
1251.092081740485
 20
1344.373001260103
 30
0.0
 10
1251.094228188148
 20
1347.550957547058
 30
0.0
  0
LINE
  5
1C6
330
1F
100
AcDbEntity
  8
0
  6
Continuous
 62
     8
370
    18
100
AcDbLine
 10
1243.4252486815
 20
1347.7231110828
 30
0.0
 11
1249.742847932
 21
1347.7231110828
 31
0.0
  0
LINE
  5
1C7
330
1F
100
AcDbEntity
  8
0
  6
Continuous
 62
     8
370
    18
100
AcDbLine
 10
1169.8132619813
 20
1347.7231110828
 30
0.0
 11
1163.4956627308
 21
1347.7231110828
 31
0.0
  0
ARC
  5
1C8
330
1F
100
AcDbEntity
  8
0
  6
Continuous
 62
     8
370
    18
100
AcDbCircle
 10
1240.3482225746
 20
1355.0089007936
 30
0.0
 40
7.651879525842841
100
AcDbArc
 50
269.2050001421
 51
283.6829680609
  0
ARC
  5
1C9
330
1F
100
AcDbEntity
  8
0
  6
Continuous
 62
     8
370
    18
100
AcDbCircle
 10
1172.8902880882
 20
1355.0089007936
 30
0.0
 40
7.651879525843294
100
AcDbArc
 50
256.3170319391
 51
270.7949998579
  0
ARC
  5
1CA
330
1F
100
AcDbEntity
  8
0
  6
Continuous
 62
     8
370
    18
100
AcDbCircle
 10
1253.0012085543
 20
1354.5932093997
 30
0.0
 40
7.295881391051847
100
AcDbArc
 50
254.8481769985
 51
270.3838864582
  0
ARC
  5
1CB
330
1F
100
AcDbEntity
  8
0
  6
Continuous
 62
     8
370
    18
100
AcDbCircle
 10
1160.2373021086
 20
1354.5932093997
 30
0.0
 40
7.295881391054803
100
AcDbArc
 50
269.6161135418
 51
285.1518230015
  0
LINE
  5
1CC
330
1F
100
AcDbEntity
  8
0
  6
Continuous
 62
     8
370
    18
100
AcDbLine
 10
1160.2776382993
 20
1297.9518211832
 30
0.0
 11
1160.2914252505
 21
1297.7947093236
 31
0.0
  0
SPLINE
  5
1CD
330
1F
100
AcDbEntity
  8
0
  6
Continuous
 62
     8
370
    18
100
AcDbSpline
210
0.0
220
0.0
230
1.0
 70
     8
 71
     3
 72
    14
 73
    10
 74
     0
 42
0.000000001
 43
0.00000001
 40
0.0
 40
0.0
 40
0.0
 40
0.0
 40
0.213507205401362
 40
0.6517504153255599
 40
0.8731400298126226
 40
0.9340362681777995
 40
0.960743100577067
 40
0.9801118651181868
 40
1.0
 40
1.0
 40
1.0
 40
1.0
 10
1160.291425250509
 20
1297.794709323638
 30
0.0
 10
1160.347672501681
 20
1297.20084045511
 30
0.0
 10
1160.519372418052
 20
1295.388001019621
 30
0.0
 10
1160.87685839102
 20
1293.333977057539
 30
0.0
 10
1161.328582275477
 20
1292.002520664909
 30
0.0
 10
1161.827621357285
 20
1291.551950094448
 30
0.0
 10
1162.097823690312
 20
1291.443070785602
 30
0.0
 10
1162.297891920367
 20
1291.403624847136
 30
0.0
 10
1162.4237449188
 20
1291.403005122799
 30
0.0
 10
1162.487503938104
 20
1291.402691161141
 30
0.0
  0
LINE
  5
1CE
330
1F
100
AcDbEntity
  8
0
  6
Continuous
 62
     8
370
    18
100
AcDbLine
 10
1162.4875039381
 20
1291.4026911611
 30
0.0
 11
1170.7808535282
 21
1291.6212092026
 31
0.0
  0
SPLINE
  5
1CF
330
1F
100
AcDbEntity
  8
0
  6
Continuous
 62
     8
370
    18
100
AcDbSpline
210
0.0
220
0.0
230
1.0
 70
     8
 71
     3
 72
    16
 73
    12
 74
     0
 42
0.000000001
 43
0.00000001
 40
0.0
 40
0.0
 40
0.0
 40
0.0
 40
0.014516518949473
 40
0.0410735504097972
 40
0.0660449149745843
 40
0.1244471088434287
 40
0.1776973916031262
 40
0.2535931192178178
 40
0.363355642201726
 40
0.5223716192680065
 40
1.0
 40
1.0
 40
1.0
 40
1.0
 10
1170.780853528195
 20
1291.621209202593
 30
0.0
 10
1170.823515821842
 20
1291.623276352296
 30
0.0
 10
1170.944226019292
 20
1291.629125218532
 30
0.0
 10
1171.123387298989
 20
1291.674380598998
 30
0.0
 10
1171.362706465701
 20
1291.788438454118
 30
0.0
 10
1171.570281205712
 20
1291.976813566028
 30
0.0
 10
1171.775575010402
 20
1292.264196386262
 30
0.0
 10
1171.972641071708
 20
1292.66374097955
 30
0.0
 10
1172.187620315571
 20
1293.292736066789
 30
0.0
 10
1172.54606546643
 20
1294.784406056395
 30
0.0
 10
1172.72686203965
 20
1296.379388002576
 30
0.0
 10
1172.862500679106
 20
1297.575988011543
 30
0.0
  0
LINE
  5
1D0
330
1F
100
AcDbEntity
  8
0
  6
Continuous
 62
     8
370
    18
100
AcDbLine
 10
1172.8625006791
 20
1297.5759880115
 30
0.0
 11
1172.8874429232
 21
1297.8273295707
 31
0.0
  0
SPLINE
  5
1D1
330
1F
100
AcDbEntity
  8
0
  6
Continuous
 62
     8
370
    18
100
AcDbSpline
210
0.0
220
0.0
230
1.0
 70
     8
 71
     3
 72
     9
 73
     5
 74
     0
 42
0.000000001
 43
0.00000001
 40
0.0
 40
0.0
 40
0.0
 40
0.0
 40
0.0094533958096251
 40
1.0
 40
1.0
 40
1.0
 40
1.0
 10
1206.619255331419
 20
1289.505579619435
 30
0.0
 10
1206.610047239741
 20
1289.505579642412
 30
0.0
 10
1205.63599602433
 20
1289.505582073012
 30
0.0
 10
1204.664137435851
 20
1289.630904974235
 30
0.0
 10
1203.701466211279
 20
1289.755043148467
 30
0.0
  0
SPLINE
  5
1D2
330
1F
100
AcDbEntity
  8
0
  6
Continuous
 62
     8
370
    18
100
AcDbSpline
210
0.0
220
0.0
230
1.0
 70
     8
 71
     3
 72
    12
 73
     8
 74
     0
 42
0.000000001
 43
0.00000001
 40
0.0
 40
0.0
 40
0.0
 40
0.0
 40
0.0986927005379106
 40
0.362671564653566
 40
0.6320534788938005
 40
0.8140997464528021
 40
1.0
 40
1.0
 40
1.0
 40
1.0
 10
1202.705899660481
 20
1289.840971226335
 30
0.0
 10
1202.09156468656
 20
1289.881951295115
 30
0.0
 10
1199.834033734432
 20
1290.032543036784
 30
0.0
 10
1195.952960299266
 20
1291.140698319133
 30
0.0
 10
1191.675702189359
 20
1292.956731663789
 30
0.0
 10
1188.021982389434
 20
1295.216368488252
 30
0.0
 10
1186.098936292119
 20
1296.954144581864
 30
0.0
 10
1185.127341952814
 20
1297.832133631576
 30
0.0
  0
LINE
  5
1D3
330
1F
100
AcDbEntity
  8
0
  6
Continuous
 62
     8
370
    18
100
AcDbLine
 10
1170.7663642246
 20
1291.7646681763
 30
0.0
 11
1162.4539064078
 21
1291.5461501348
 31
0.0
  0
SPLINE
  5
1D4
330
1F
100
AcDbEntity
  8
0
  6
Continuous
 62
     8
370
    18
100
AcDbSpline
210
0.0
220
0.0
230
1.0
 70
     8
 71
     3
 72
    10
 73
     6
 74
     0
 42
0.000000001
 43
0.00000001
 40
0.0
 40
0.0
 40
0.0
 40
0.0
 40
0.445489637819774
 40
0.7187778752024849
 40
1.0
 40
1.0
 40
1.0
 40
1.0
 10
1162.453906407772
 20
1291.546150134839
 30
0.0
 10
1162.678967242585
 20
1292.157810819317
 30
0.0
 10
1163.042092969662
 20
1293.144698346681
 30
0.0
 10
1163.277157506056
 20
1295.221410215628
 30
0.0
 10
1163.375963107172
 20
1296.584116737557
 30
0.0
 10
1163.426072758826
 20
1297.275218743416
 30
0.0
  0
LINE
  5
1D5
330
1F
100
AcDbEntity
  8
0
  6
Continuous
 62
     8
370
    18
100
AcDbLine
 10
1163.4260727588
 20
1297.2752187434
 30
0.0
 11
1163.488252852
 21
1299.4458518392
 31
0.0
  0
LINE
  5
1D6
330
1F
100
AcDbEntity
  8
0
  6
Continuous
 62
     8
370
    18
100
AcDbLine
 10
1169.8312553454
 20
1299.4458518392
 30
0.0
 11
1169.8985817207
 21
1297.147938309
 31
0.0
  0
SPLINE
  5
1D7
330
1F
100
AcDbEntity
  8
0
  6
Continuous
 62
     8
370
    18
100
AcDbSpline
210
0.0
220
0.0
230
1.0
 70
     8
 71
     3
 72
    10
 73
     6
 74
     0
 42
0.000000001
 43
0.00000001
 40
0.0
 40
0.0
 40
0.0
 40
0.0
 40
0.5085358280598349
 40
0.7966056673011381
 40
1.0
 40
1.0
 40
1.0
 40
1.0
 10
1169.898581720701
 20
1297.147938308952
 30
0.0
 10
1169.987624285372
 20
1296.023116917466
 30
0.0
 10
1170.127106712635
 20
1294.261118950523
 30
0.0
 10
1170.429029724139
 20
1292.629348635433
 30
0.0
 10
1170.667621926461
 20
1292.01777165536
 30
0.0
 10
1170.766364224576
 20
1291.764668176291
 30
0.0
  0
LINE
  5
1D8
330
1F
100
AcDbEntity
  8
0
  6
Continuous
 62
     8
370
    18
100
AcDbLine
 10
1243.4072553174
 20
1299.4458518392
 30
0.0
 11
1243.3399289421
 21
1297.147938309
 31
0.0
  0
LINE
  5
1D9
330
1F
100
AcDbEntity
  8
0
  6
Continuous
 62
     8
370
    18
100
AcDbLine
 10
1249.812437904
 20
1297.2752187434
 30
0.0
 11
1249.7502578109
 21
1299.4458518392
 31
0.0
  0
SPLINE
  5
1DA
330
1F
100
AcDbEntity
  8
0
  6
Continuous
 62
     8
370
    18
100
AcDbSpline
210
0.0
220
0.0
230
1.0
 70
     8
 71
     3
 72
    10
 73
     6
 74
     0
 42
0.000000001
 43
0.00000001
 40
0.0
 40
0.0
 40
0.0
 40
0.0
 40
0.445489637819774
 40
0.718777875202486
 40
1.0
 40
1.0
 40
1.0
 40
1.0
 10
1250.784604255067
 20
1291.546150134839
 30
0.0
 10
1250.559543420253
 20
1292.157810819317
 30
0.0
 10
1250.196417693177
 20
1293.144698346681
 30
0.0
 10
1249.961353156782
 20
1295.221410215628
 30
0.0
 10
1249.862547555667
 20
1296.584116737557
 30
0.0
 10
1249.812437904013
 20
1297.275218743416
 30
0.0
  0
LINE
  5
1DB
330
1F
100
AcDbEntity
  8
0
  6
Continuous
 62
     8
370
    18
100
AcDbLine
 10
1242.4721464383
 20
1291.7646681763
 30
0.0
 11
1250.7846042551
 21
1291.5461501348
 31
0.0
  0
SPLINE
  5
1DC
330
1F
100
AcDbEntity
  8
0
  6
Continuous
 62
     8
370
    18
100
AcDbSpline
210
0.0
220
0.0
230
1.0
 70
     8
 71
     3
 72
    10
 73
     6
 74
     0
 42
0.000000001
 43
0.00000001
 40
0.0
 40
0.0
 40
0.0
 40
0.0
 40
0.5085358280598354
 40
0.7966056673011384
 40
1.0
 40
1.0
 40
1.0
 40
1.0
 10
1243.339928942138
 20
1297.147938308952
 30
0.0
 10
1243.250886377466
 20
1296.023116917466
 30
0.0
 10
1243.111403950203
 20
1294.261118950522
 30
0.0
 10
1242.8094809387
 20
1292.629348635433
 30
0.0
 10
1242.570888736378
 20
1292.01777165536
 30
0.0
 10
1242.472146438263
 20
1291.764668176291
 30
0.0
  0
LINE
  5
1DD
330
1F
100
AcDbEntity
  8
0
  6
Continuous
 62
     8
370
    18
100
AcDbLine
 10
1171.0798606261
 20
1299.6149425491
 30
0.0
 11
1171.0780043201
 21
1297.6815733565
 31
0.0
  0
LINE
  5
1DE
330
1F
100
AcDbEntity
  8
0
  6
Continuous
 62
     8
370
    18
100
AcDbLine
 10
1171.0780043201
 20
1297.6815733565
 30
0.0
 11
1171.0778095975
 21
1297.4222624751
 31
0.0
  0
ARC
  5
1DF
330
1F
100
AcDbEntity
  8
0
  6
Continuous
 62
     8
370
    18
100
AcDbCircle
 10
1169.7506198436
 20
1300.4556922321
 30
0.0
 40
3.311061571933976
100
AcDbArc
 50
272.5612375305
 51
293.6303960838
  0
LINE
  5
1E0
330
1F
100
AcDbEntity
  8
0
  6
Continuous
 62
     8
370
    18
100
AcDbLine
 10
1162.1445100873
 20
1297.5934345293
 30
0.0
 11
1162.1449625392
 21
1297.7569717061
 31
0.0
  0
LINE
  5
1E1
330
1F
100
AcDbEntity
  8
0
  6
Continuous
 62
     8
370
    18
100
AcDbLine
 10
1162.1449625392
 20
1297.7569717061
 30
0.0
 11
1162.1456545195
 21
1299.6469234659
 31
0.0
  0
ARC
  5
1E2
330
1F
100
AcDbEntity
  8
0
  6
Continuous
 62
     8
370
    18
100
AcDbCircle
 10
1163.5576167037
 20
1300.5447419391
 30
0.0
 40
3.27216835391156
100
AcDbArc
 50
244.4145746888
 51
267.6960401779
  0
LINE
  5
1E3
330
1F
100
AcDbEntity
  8
0
  6
Continuous
 62
     8
370
    18
100
AcDbLine
 10
1251.0935481236
 20
1297.7569717061
 30
0.0
 11
1251.0928561433
 21
1299.6469234659
 31
0.0
  0
LINE
  5
1E4
330
1F
100
AcDbEntity
  8
0
  6
Continuous
 62
     8
370
    18
100
AcDbLine
 10
1251.0940005756
 20
1297.5934345293
 30
0.0
 11
1251.0935481236
 21
1297.7569717061
 31
0.0
  0
ARC
  5
1E5
330
1F
100
AcDbEntity
  8
0
  6
Continuous
 62
     8
370
    18
100
AcDbCircle
 10
1249.6808939591
 20
1300.5447419391
 30
0.0
 40
3.272168353911105
100
AcDbArc
 50
272.3039598221
 51
295.5854253112
  0
ARC
  5
1E6
330
1F
100
AcDbEntity
  8
0
  6
Continuous
 62
     8
370
    18
100
AcDbCircle
 10
1243.4878908192
 20
1300.4556922321
 30
0.0
 40
3.311061571933676
100
AcDbArc
 50
246.3696039162
 51
267.4387624695
  0
LINE
  5
1E7
330
1F
100
AcDbEntity
  8
0
  6
Continuous
 62
     8
370
    18
100
AcDbLine
 10
1242.1605063427
 20
1297.6815733565
 30
0.0
 11
1242.1607010653
 21
1297.4222624751
 31
0.0
  0
LINE
  5
1E8
330
1F
100
AcDbEntity
  8
0
  6
Continuous
 62
     8
370
    18
100
AcDbLine
 10
1242.1586500367
 20
1299.6149425491
 30
0.0
 11
1242.1605063427
 21
1297.6815733565
 31
0.0
  0
LINE
  5
1E9
330
1F
100
AcDbEntity
  8
0
  6
Continuous
 62
     8
370
    18
100
AcDbLine
 10
1240.3760099838
 20
1297.5759880115
 30
0.0
 11
1240.3510677396
 21
1297.8273295707
 31
0.0
  0
SPLINE
  5
1EA
330
1F
100
AcDbEntity
  8
0
  6
Continuous
 62
     8
370
    18
100
AcDbSpline
210
0.0
220
0.0
230
1.0
 70
     8
 71
     3
 72
    16
 73
    12
 74
     0
 42
0.000000001
 43
0.00000001
 40
0.0
 40
0.0
 40
0.0
 40
0.0
 40
0.0145165189495135
 40
0.0410735504098392
 40
0.0660449149746278
 40
0.1244471088434755
 40
0.1776973916031762
 40
0.2535931192178722
 40
0.3633556422018393
 40
0.5223716192680712
 40
1.0
 40
1.0
 40
1.0
 40
1.0
 10
1242.457657134644
 20
1291.621209202593
 30
0.0
 10
1242.414994840997
 20
1291.623276352296
 30
0.0
 10
1242.294284643547
 20
1291.629125218532
 30
0.0
 10
1242.11512336385
 20
1291.674380598998
 30
0.0
 10
1241.875804197138
 20
1291.788438454118
 30
0.0
 10
1241.668229457126
 20
1291.976813566028
 30
0.0
 10
1241.462935652437
 20
1292.264196386262
 30
0.0
 10
1241.265869591131
 20
1292.66374097955
 30
0.0
 10
1241.050890347268
 20
1293.29273606679
 30
0.0
 10
1240.692445196406
 20
1294.784406056395
 30
0.0
 10
1240.511648623204
 20
1296.379388002576
 30
0.0
 10
1240.376009983761
 20
1297.575988011546
 30
0.0
  0
LINE
  5
1EB
330
1F
100
AcDbEntity
  8
0
  6
Continuous
 62
     8
370
    18
100
AcDbLine
 10
1250.7510067247
 20
1291.4026911611
 30
0.0
 11
1242.4576571346
 21
1291.6212092026
 31
0.0
  0
SPLINE
  5
1EC
330
1F
100
AcDbEntity
  8
0
  6
Continuous
 62
     8
370
    18
100
AcDbSpline
210
0.0
220
0.0
230
1.0
 70
     8
 71
     3
 72
    14
 73
    10
 74
     0
 42
0.000000001
 43
0.00000001
 40
0.0
 40
0.0
 40
0.0
 40
0.0
 40
0.2135072054014709
 40
0.6517504153256226
 40
0.8731400298126397
 40
0.9340362681778084
 40
0.9607431005770722
 40
0.9801118651181895
 40
1.0
 40
1.0
 40
1.0
 40
1.0
 10
1252.94708541231
 20
1297.794709323641
 30
0.0
 10
1252.890838161146
 20
1297.200840455111
 30
0.0
 10
1252.719138244799
 20
1295.38800101962
 30
0.0
 10
1252.361652271816
 20
1293.333977057539
 30
0.0
 10
1251.909928387362
 20
1292.002520664909
 30
0.0
 10
1251.410889305554
 20
1291.551950094449
 30
0.0
 10
1251.140686972527
 20
1291.443070785602
 30
0.0
 10
1250.940618742472
 20
1291.403624847136
 30
0.0
 10
1250.814765744039
 20
1291.403005122799
 30
0.0
 10
1250.751006724735
 20
1291.402691161141
 30
0.0
  0
LINE
  5
1ED
330
1F
100
AcDbEntity
  8
0
  6
Continuous
 62
     8
370
    18
100
AcDbLine
 10
1252.9608723635
 20
1297.9518211832
 30
0.0
 11
1252.9470854123
 21
1297.7947093236
 31
0.0
  0
SPLINE
  5
1EE
330
1F
100
AcDbEntity
  8
0
  6
Continuous
 62
     8
370
    18
100
AcDbSpline
210
0.0
220
0.0
230
1.0
 70
     8
 71
     3
 72
    15
 73
    11
 74
     0
 42
0.000000001
 43
0.00000001
 40
0.0
 40
0.0
 40
0.0
 40
0.0
 40
0.0014239395057858
 40
0.1351061085576249
 40
0.2892216052154422
 40
0.4462432513906064
 40
0.5840152296265027
 40
0.7248088485654302
 40
0.8605044118101268
 40
1.0
 40
1.0
 40
1.0
 40
1.0
 10
1275.66603773849
 20
1289.505579619435
 30
0.0
 10
1275.671537806405
 20
1289.505582538898
 30
0.0
 10
1276.193394788211
 20
1289.505859543153
 30
0.0
 10
1277.243424982739
 20
1289.592213981744
 30
0.0
 10
1278.637668716359
 20
1290.058026621414
 30
0.0
 10
1279.78876530998
 20
1290.948565940615
 30
0.0
 10
1280.645297094521
 20
1292.232327015734
 30
0.0
 10
1281.188642704789
 20
1293.848347404512
 30
0.0
 10
1281.463931678188
 20
1295.828896120282
 30
0.0
 10
1281.362040400461
 20
1297.412027019926
 30
0.0
 10
1281.310391269871
 20
1298.214522939131
 30
0.0
  0
SPLINE
  5
1EF
330
1F
100
AcDbEntity
  8
0
  6
Continuous
 62
     8
370
    18
100
AcDbSpline
210
0.0
220
0.0
230
1.0
 70
     8
 71
     3
 72
    12
 73
     8
 74
     0
 42
0.000000001
 43
0.00000001
 40
0.0
 40
0.0
 40
0.0
 40
0.0
 40
0.1729070209294314
 40
0.3500592529376595
 40
0.6008939024630684
 40
0.8574899875492358
 40
1.0
 40
1.0
 40
1.0
 40
1.0
 10
1228.111168710024
 20
1297.832133631576
 30
0.0
 10
1227.161943337598
 20
1296.972669859226
 30
0.0
 10
1225.240187222926
 20
1295.232640770419
 30
0.0
 10
1221.620247904904
 20
1292.989329022288
 30
0.0
 10
1217.321649563262
 20
1291.142192708862
 30
0.0
 10
1213.12452601142
 20
1289.973935890606
 30
0.0
 10
1210.512283097385
 20
1289.815339778744
 30
0.0
 10
1209.579521677549
 20
1289.758709388941
 30
0.0
  0
SPLINE
  5
1F0
330
1F
100
AcDbEntity
  8
0
  6
Continuous
 62
     8
370
    18
100
AcDbSpline
210
0.0
220
0.0
230
1.0
 70
     8
 71
     3
 72
     9
 73
     5
 74
     0
 42
0.000000001
 43
0.00000001
 40
0.0
 40
0.0
 40
0.0
 40
0.0
 40
0.9809099457843522
 40
1.0
 40
1.0
 40
1.0
 40
1.0
 10
1208.064165577513
 20
1289.627917894534
 30
0.0
 10
1207.592085098137
 20
1289.567238255167
 30
0.0
 10
1207.11081718827
 20
1289.505377694341
 30
0.0
 10
1206.628463489677
 20
1289.505575836883
 30
0.0
 10
1206.619255331419
 20
1289.505579619435
 30
0.0
  0
ARC
  5
1F1
330
1F
100
AcDbEntity
  8
0
  6
Continuous
 62
     8
370
    18
100
AcDbCircle
 10
1172.4301521282
 20
1292.2000096421
 30
0.0
 40
5.645869680589064
100
AcDbArc
 50
85.3542029002
 51
103.8566348579
  0
ARC
  5
1F2
330
1F
100
AcDbEntity
  8
0
  6
Continuous
 62
     8
370
    18
100
AcDbCircle
 10
1240.8083585346
 20
1292.2000096421
 30
0.0
 40
5.645869680594912
100
AcDbArc
 50
76.1433651421
 51
94.6457970998
  0
ARC
  5
1F3
330
1F
100
AcDbEntity
  8
0
  6
Continuous
 62
     8
370
    18
100
AcDbCircle
 10
1252.5927927748
 20
1292.4341818971
 30
0.0
 40
5.529902881121452
100
AcDbArc
 50
86.1834753414
 51
105.7306807766
  0
ARC
  5
1F4
330
1F
100
AcDbEntity
  8
0
  6
Continuous
 62
     8
370
    18
100
AcDbCircle
 10
1160.645717888
 20
1292.4341818971
 30
0.0
 40
5.529902881123983
100
AcDbArc
 50
74.2693192234
 51
93.8165246586
  0
SPLINE
  5
1F5
330
1F
100
AcDbEntity
  8
0
  6
Continuous
 62
     8
370
    18
100
AcDbSpline
210
0.0
220
0.0
230
1.0
 70
     8
 71
     3
 72
    15
 73
    11
 74
     0
 42
0.000000001
 43
0.00000001
 40
0.0
 40
0.0
 40
0.0
 40
0.0
 40
0.0247383799946505
 40
0.0492201071029638
 40
0.0751567027976505
 40
0.1186953964311376
 40
0.2418825692051164
 40
0.481636850639822
 40
0.8380569172747785
 40
1.0
 40
1.0
 40
1.0
 40
1.0
 10
1243.037027769357
 20
1351.56925068456
 30
0.0
 10
1242.996955447787
 20
1351.570150325671
 30
0.0
 10
1242.917226542337
 20
1351.5719402744
 30
0.0
 10
1242.802714612727
 20
1351.531559247412
 30
0.0
 10
1242.683504717152
 20
1351.452695691546
 30
0.0
 10
1242.494681245216
 20
1351.242759015725
 30
0.0
 10
1242.270874361829
 20
1350.707034686908
 30
0.0
 10
1242.175835942719
 20
1349.703240507551
 30
0.0
 10
1242.159731990141
 20
1348.601295328274
 30
0.0
 10
1242.158617673098
 20
1347.818683298157
 30
0.0
 10
1242.15826954662
 20
1347.574185584746
 30
0.0
  0
SPLINE
  5
1F6
330
1F
100
AcDbEntity
  8
0
  6
Continuous
 62
     8
370
    18
100
AcDbSpline
210
0.0
220
0.0
230
1.0
 70
     8
 71
     3
 72
     9
 73
     5
 74
     0
 42
0.000000001
 43
0.00000001
 40
0.0
 40
0.0
 40
0.0
 40
0.0
 40
0.3204572925053761
 40
1.0
 40
1.0
 40
1.0
 40
1.0
 10
1243.037027769357
 20
1351.56925068456
 30
0.0
 10
1243.112215935066
 20
1351.214250325473
 30
0.0
 10
1243.346843660718
 20
1350.106457282876
 30
0.0
 10
1243.393526022781
 20
1348.687412569409
 30
0.0
 10
1243.42524868149
 20
1347.723111082764
 30
0.0
  0
SPLINE
  5
1F7
330
1F
100
AcDbEntity
  8
0
  6
Continuous
 62
     8
370
    18
100
AcDbSpline
210
0.0
220
0.0
230
1.0
 70
     8
 71
     3
 72
    15
 73
    11
 74
     0
 42
0.000000001
 43
0.00000001
 40
0.0
 40
0.0
 40
0.0
 40
0.0
 40
0.0247383799946505
 40
0.0492201071029638
 40
0.0751567027976505
 40
0.1186953964311376
 40
0.2418825692051164
 40
0.481636850639822
 40
0.8380569172747785
 40
1.0
 40
1.0
 40
1.0
 40
1.0
 10
1170.201482893481
 20
1351.56925068456
 30
0.0
 10
1170.241555215052
 20
1351.570150325671
 30
0.0
 10
1170.321284120502
 20
1351.5719402744
 30
0.0
 10
1170.435796050112
 20
1351.531559247412
 30
0.0
 10
1170.555005945686
 20
1351.452695691546
 30
0.0
 10
1170.743829417623
 20
1351.242759015725
 30
0.0
 10
1170.96763630101
 20
1350.707034686908
 30
0.0
 10
1171.06267472012
 20
1349.703240507551
 30
0.0
 10
1171.078778672698
 20
1348.601295328274
 30
0.0
 10
1171.079892989741
 20
1347.818683298157
 30
0.0
 10
1171.080241116219
 20
1347.574185584746
 30
0.0
  0
SPLINE
  5
1F8
330
1F
100
AcDbEntity
  8
0
  6
Continuous
 62
     8
370
    18
100
AcDbSpline
210
0.0
220
0.0
230
1.0
 70
     8
 71
     3
 72
     9
 73
     5
 74
     0
 42
0.000000001
 43
0.00000001
 40
0.0
 40
0.0
 40
0.0
 40
0.0
 40
0.3204572925053761
 40
1.0
 40
1.0
 40
1.0
 40
1.0
 10
1170.201482893481
 20
1351.56925068456
 30
0.0
 10
1170.126294727772
 20
1351.214250325473
 30
0.0
 10
1169.891667002121
 20
1350.106457282876
 30
0.0
 10
1169.844984640058
 20
1348.687412569409
 30
0.0
 10
1169.813261981349
 20
1347.723111082764
 30
0.0
  0
SPLINE
  5
1F9
330
1F
100
AcDbEntity
  8
0
  6
Continuous
 62
     8
370
    18
100
AcDbSpline
210
0.0
220
0.0
230
1.0
 70
     8
 71
     3
 72
     9
 73
     5
 74
     0
 42
0.000000001
 43
0.00000001
 40
0.0
 40
0.0
 40
0.0
 40
0.0
 40
0.6310361367052129
 40
1.0
 40
1.0
 40
1.0
 40
1.0
 10
1249.742847932031
 20
1347.723111082764
 30
0.0
 10
1249.772753667382
 20
1348.659592460848
 30
0.0
 10
1249.820145145637
 20
1350.143630099285
 30
0.0
 10
1250.074525829678
 20
1351.287802056244
 30
0.0
 10
1250.16838310961
 20
1351.709960161757
 30
0.0
  0
SPLINE
  5
1FA
330
1F
100
AcDbEntity
  8
0
  6
Continuous
 62
     8
370
    18
100
AcDbSpline
210
0.0
220
0.0
230
1.0
 70
     8
 71
     3
 72
    15
 73
    11
 74
     0
 42
0.000000001
 43
0.00000001
 40
0.0
 40
0.0
 40
0.0
 40
0.0
 40
0.3092031051605894
 40
0.6638382552574896
 40
0.8039861739636712
 40
0.9077221477257728
 40
0.9361281220494162
 40
0.9546919441403818
 40
0.9789089794125909
 40
1.0
 40
1.0
 40
1.0
 40
1.0
 10
1251.094228188148
 20
1347.550957547058
 30
0.0
 10
1251.093488137879
 20
1348.038677056787
 30
0.0
 10
1251.091899299763
 20
1349.085778017254
 30
0.0
 10
1251.081708630808
 20
1350.286963919944
 30
0.0
 10
1250.88470283329
 20
1351.143041600488
 30
0.0
 10
1250.679849312862
 20
1351.505171269476
 30
0.0
 10
1250.493760677142
 20
1351.65451396693
 30
0.0
 10
1250.387396995082
 20
1351.703873310355
 30
0.0
 10
1250.278726758603
 20
1351.72467503158
 30
0.0
 10
1250.203432696097
 20
1351.714634196985
 30
0.0
 10
1250.16838310961
 20
1351.709960161757
 30
0.0
  0
SPLINE
  5
1FB
330
1F
100
AcDbEntity
  8
0
  6
Continuous
 62
     8
370
    18
100
AcDbSpline
210
0.0
220
0.0
230
1.0
 70
     8
 71
     3
 72
    15
 73
    11
 74
     0
 42
0.000000001
 43
0.00000001
 40
0.0
 40
0.0
 40
0.0
 40
0.0
 40
0.3092031051605894
 40
0.6638382552574896
 40
0.8039861739636712
 40
0.9077221477257728
 40
0.9361281220494162
 40
0.9546919441403818
 40
0.9789089794125909
 40
1.0
 40
1.0
 40
1.0
 40
1.0
 10
1162.144282474691
 20
1347.550957547058
 30
0.0
 10
1162.14502252496
 20
1348.038677056787
 30
0.0
 10
1162.146611363076
 20
1349.085778017254
 30
0.0
 10
1162.156802032031
 20
1350.286963919944
 30
0.0
 10
1162.353807829548
 20
1351.143041600488
 30
0.0
 10
1162.558661349977
 20
1351.505171269476
 30
0.0
 10
1162.744749985697
 20
1351.65451396693
 30
0.0
 10
1162.851113667756
 20
1351.703873310355
 30
0.0
 10
1162.959783904236
 20
1351.72467503158
 30
0.0
 10
1163.035077966742
 20
1351.714634196985
 30
0.0
 10
1163.070127553229
 20
1351.709960161757
 30
0.0
  0
SPLINE
  5
1FC
330
1F
100
AcDbEntity
  8
0
  6
Continuous
 62
     8
370
    18
100
AcDbSpline
210
0.0
220
0.0
230
1.0
 70
     8
 71
     3
 72
     9
 73
     5
 74
     0
 42
0.000000001
 43
0.00000001
 40
0.0
 40
0.0
 40
0.0
 40
0.0
 40
0.6310361367052129
 40
1.0
 40
1.0
 40
1.0
 40
1.0
 10
1163.495662730807
 20
1347.723111082764
 30
0.0
 10
1163.465756995457
 20
1348.659592460848
 30
0.0
 10
1163.418365517202
 20
1350.143630099285
 30
0.0
 10
1163.16398483316
 20
1351.287802056244
 30
0.0
 10
1163.070127553229
 20
1351.709960161757
 30
0.0
  0
LINE
  5
1FD
330
1F
100
AcDbEntity
  8
0
  6
Continuous
 62
     8
370
    18
100
AcDbLine
 10
1250.1683831096
 20
1351.7099601618
 30
0.0
 11
1243.0370277694
 21
1351.5692506846
 31
0.0
  0
LINE
  5
1FE
330
1F
100
AcDbEntity
  8
0
  6
Continuous
 62
     8
370
    18
100
AcDbLine
 10
1163.0701275532
 20
1351.7099601618
 30
0.0
 11
1170.2014828935
 21
1351.5692506846
 31
0.0
  0
ARC
  5
1FF
330
1F
100
AcDbEntity
  8
0
  6
Continuous
 62
     8
370
    18
100
AcDbCircle
 10
1076.4458032489
 20
1354.6347479756
 30
0.0
 40
93.80578201404705
100
AcDbArc
 50
358.1272867192
 51
358.5922936385
  0
ARC
  5
200
330
1F
100
AcDbEntity
  8
0
  6
Continuous
 62
     8
370
    18
100
AcDbCircle
 10
1336.792707414
 20
1354.6347479756
 30
0.0
 40
93.80578201404865
100
AcDbArc
 50
181.4077063615
 51
181.8727132808
  0
ARC
  5
201
330
1F
100
AcDbEntity
  8
0
  6
Continuous
 62
     8
370
    18
100
AcDbCircle
 10
1122.497644438
 20
1354.635455827
 30
0.0
 40
40.67781841527345
100
AcDbArc
 50
355.8758017505
 51
356.9247251143
  0
ARC
  5
202
330
1F
100
AcDbEntity
  8
0
  6
Continuous
 62
     8
370
    18
100
AcDbCircle
 10
1290.7408662304
 20
1354.6354558274
 30
0.0
 40
40.67781842078037
100
AcDbArc
 50
183.0752748858
 51
184.1241982495
  0
SPLINE
  5
203
330
1F
100
AcDbEntity
  8
0
  6
Continuous
 62
     8
370
    18
100
AcDbSpline
210
0.0
220
0.0
230
1.0
 70
     8
 71
     3
 72
    19
 73
    15
 74
     0
 42
0.000000001
 43
0.00000001
 40
0.0
 40
0.0
 40
0.0
 40
0.0
 40
0.5108655809785148
 40
0.6773161886274566
 40
0.7897294814090564
 40
0.8649135704138772
 40
0.9149987759643946
 40
0.9638937301973749
 40
0.9805048002912535
 40
0.9864047265890653
 40
0.992357364345202
 40
0.9937773259466397
 40
0.9978992913798034
 40
1.0
 40
1.0
 40
1.0
 40
1.0
 10
1242.160701065344
 20
1297.422262475138
 30
0.0
 10
1242.159751427325
 20
1296.243165053344
 30
0.0
 10
1242.158492377533
 20
1294.679893223169
 30
0.0
 10
1242.156725534292
 20
1293.257992112573
 30
0.0
 10
1242.163815609888
 20
1292.676073801793
 30
0.0
 10
1242.180915951844
 20
1292.314770450262
 30
0.0
 10
1242.214103658264
 20
1292.064780482723
 30
0.0
 10
1242.255777822104
 20
1291.906592533358
 30
0.0
 10
1242.324012757849
 20
1291.815760192547
 30
0.0
 10
1242.369300804466
 20
1291.784455350783
 30
0.0
 10
1242.398207723714
 20
1291.77265204875
 30
0.0
 10
1242.427418120213
 20
1291.766160079458
 30
0.0
 10
1242.448916589469
 20
1291.763845101092
 30
0.0
 10
1242.466283540266
 20
1291.764460443301
 30
0.0
 10
1242.472146438263
 20
1291.764668176291
 30
0.0
  0
SPLINE
  5
204
330
1F
100
AcDbEntity
  8
0
  6
Continuous
 62
     8
370
    18
100
AcDbSpline
210
0.0
220
0.0
230
1.0
 70
     8
 71
     3
 72
    19
 73
    15
 74
     0
 42
0.000000001
 43
0.00000001
 40
0.0
 40
0.0
 40
0.0
 40
0.0
 40
0.5108655809785148
 40
0.6773161886274565
 40
0.7897294814090563
 40
0.8649135704138771
 40
0.9149987759643945
 40
0.9638937301973748
 40
0.9805048002912534
 40
0.9864047265890652
 40
0.9923573643452023
 40
0.9937773259466397
 40
0.9978992913798035
 40
1.0
 40
1.0
 40
1.0
 40
1.0
 10
1171.077809597494
 20
1297.422262475138
 30
0.0
 10
1171.078759235513
 20
1296.243165053344
 30
0.0
 10
1171.080018285306
 20
1294.679893223169
 30
0.0
 10
1171.081785128547
 20
1293.257992112573
 30
0.0
 10
1171.074695052951
 20
1292.676073801793
 30
0.0
 10
1171.057594710995
 20
1292.314770450262
 30
0.0
 10
1171.024407004575
 20
1292.064780482723
 30
0.0
 10
1170.982732840735
 20
1291.906592533358
 30
0.0
 10
1170.91449790499
 20
1291.815760192547
 30
0.0
 10
1170.869209858373
 20
1291.784455350783
 30
0.0
 10
1170.840302939125
 20
1291.77265204875
 30
0.0
 10
1170.811092542626
 20
1291.766160079459
 30
0.0
 10
1170.78959407337
 20
1291.763845101092
 30
0.0
 10
1170.772227122573
 20
1291.764460443301
 30
0.0
 10
1170.766364224576
 20
1291.764668176291
 30
0.0
  0
ARC
  5
205
330
1F
100
AcDbEntity
  8
0
  6
Continuous
 62
     8
370
    18
100
AcDbCircle
 10
1172.4346770366
 20
1292.1062145504
 30
0.0
 40
5.486479270478212
100
AcDbArc
 50
85.5276603397
 51
104.3184561189
  0
ARC
  5
206
330
1F
100
AcDbEntity
  8
0
  6
Continuous
 62
     8
370
    18
100
AcDbCircle
 10
1163.5854564888
 20
1290.9669379401
 30
0.0
 40
7.225081967627935
100
AcDbArc
 50
5.1955682005
 51
6.339022105
  0
ARC
  5
207
330
1F
100
AcDbEntity
  8
0
  6
Continuous
 62
     8
370
    18
100
AcDbCircle
 10
1240.8038336263
 20
1292.1062145504
 30
0.0
 40
5.486479270455567
100
AcDbArc
 50
75.6815438811
 51
94.4723396601
  0
ARC
  5
208
330
1F
100
AcDbEntity
  8
0
  6
Continuous
 62
     8
370
    18
100
AcDbCircle
 10
1249.6530541804
 20
1290.9669379394
 30
0.0
 40
7.225081974106091
100
AcDbArc
 50
173.6609778956
 51
174.8044317991
  0
SPLINE
  5
209
330
1F
100
AcDbEntity
  8
0
  6
Continuous
 62
     8
370
    18
100
AcDbSpline
210
0.0
220
0.0
230
1.0
 70
     8
 71
     3
 72
    17
 73
    13
 74
     0
 42
0.000000001
 43
0.00000001
 40
0.0
 40
0.0
 40
0.0
 40
0.0
 40
0.0045109817899505
 40
0.0089278415503377
 40
0.0130797684277631
 40
0.01777779217689
 40
0.0339670776357904
 40
0.0840600072516066
 40
0.3047425979556606
 40
0.769282225314906
 40
0.8273200843747947
 40
1.0
 40
1.0
 40
1.0
 40
1.0
 10
1250.784604255067
 20
1291.546150134839
 30
0.0
 10
1250.797573746088
 20
1291.544386346028
 30
0.0
 10
1250.823242118565
 20
1291.540895570013
 30
0.0
 10
1250.864118128658
 20
1291.54261010581
 30
0.0
 10
1250.90147881876
 20
1291.55093101166
 30
0.0
 10
1250.95740884168
 20
1291.575601063096
 30
0.0
 10
1251.041914972561
 20
1291.668813254908
 30
0.0
 10
1251.1361899637
 20
1292.072757196234
 30
0.0
 10
1251.103389858602
 20
1293.263870565485
 30
0.0
 10
1251.102732541893
 20
1294.860983092058
 30
0.0
 10
1251.096806846341
 20
1296.547632928997
 30
0.0
 10
1251.095201838274
 20
1297.145764806751
 30
0.0
 10
1251.094000575572
 20
1297.593434529312
 30
0.0
  0
ARC
  5
20A
330
1F
100
AcDbEntity
  8
0
  6
Continuous
 62
     8
370
    18
100
AcDbCircle
 10
1253.549498984
 20
1290.8229589155
 30
0.0
 40
2.857909795982557
100
AcDbArc
 50
165.3419899915
 51
168.2962236796
  0
ARC
  5
20B
330
1F
100
AcDbEntity
  8
0
  6
Continuous
 62
     8
370
    18
100
AcDbCircle
 10
1252.5985989802
 20
1292.3720603624
 30
0.0
 40
5.433835160331572
100
AcDbArc
 50
86.3229443242
 51
106.074938564
  0
SPLINE
  5
20C
330
1F
100
AcDbEntity
  8
0
  6
Continuous
 62
     8
370
    18
100
AcDbSpline
210
0.0
220
0.0
230
1.0
 70
     8
 71
     3
 72
    17
 73
    13
 74
     0
 42
0.000000001
 43
0.00000001
 40
0.0
 40
0.0
 40
0.0
 40
0.0
 40
0.0045109817899505
 40
0.0089278415503377
 40
0.0130797684277631
 40
0.01777779217689
 40
0.0339670776357904
 40
0.0840600072516066
 40
0.3047425979556606
 40
0.769282225314906
 40
0.8273200843747947
 40
1.0
 40
1.0
 40
1.0
 40
1.0
 10
1162.453906407772
 20
1291.546150134839
 30
0.0
 10
1162.440936916751
 20
1291.544386346028
 30
0.0
 10
1162.415268544274
 20
1291.540895570013
 30
0.0
 10
1162.37439253418
 20
1291.54261010581
 30
0.0
 10
1162.337031844079
 20
1291.55093101166
 30
0.0
 10
1162.281101821159
 20
1291.575601063096
 30
0.0
 10
1162.196595690278
 20
1291.668813254908
 30
0.0
 10
1162.102320699139
 20
1292.072757196234
 30
0.0
 10
1162.135120804236
 20
1293.263870565485
 30
0.0
 10
1162.135778120946
 20
1294.860983092058
 30
0.0
 10
1162.141703816498
 20
1296.547632928997
 30
0.0
 10
1162.143308824564
 20
1297.145764806751
 30
0.0
 10
1162.144510087267
 20
1297.593434529312
 30
0.0
  0
ARC
  5
20D
330
1F
100
AcDbEntity
  8
0
  6
Continuous
 62
     8
370
    18
100
AcDbCircle
 10
1159.6890116796
 20
1290.8229589157
 30
0.0
 40
2.857909795166456
100
AcDbArc
 50
11.70377632
 51
14.6580100089
  0
ARC
  5
20E
330
1F
100
AcDbEntity
  8
0
  6
Continuous
 62
     8
370
    18
100
AcDbCircle
 10
1160.6399116826
 20
1292.3720603624
 30
0.0
 40
5.433835160388241
100
AcDbArc
 50
73.9250614362
 51
93.677055676
  0
SPLINE
  5
20F
330
1F
100
AcDbEntity
  8
0
  6
Continuous
 62
     8
370
    18
100
AcDbSpline
210
0.0
220
0.0
230
1.0
 70
     8
 71
     3
 72
    20
 73
    16
 74
     0
 42
0.000000001
 43
0.00000001
 40
0.0
 40
0.0
 40
0.0
 40
0.0
 40
0.0177553498927665
 40
0.0895541770723949
 40
0.1635124813712812
 40
0.2505819007214778
 40
0.3150328805895259
 40
0.3805147797652316
 40
0.4675444081230345
 40
0.5694410813320726
 40
0.6754503316775967
 40
0.7871440412594523
 40
0.8785532165774713
 40
0.9388623767392659
 40
0.9999999999999999
 40
0.9999999999999999
 40
0.9999999999999999
 40
0.9999999999999999
 10
1282.757802466655
 20
1298.767635659785
 30
0.0
 10
1282.747098536455
 20
1299.016744018928
 30
0.0
 10
1282.693110208074
 20
1300.273193159024
 30
0.0
 10
1282.757892516755
 20
1302.756340116315
 30
0.0
 10
1283.200901458757
 20
1306.552221589851
 30
0.0
 10
1283.955764273257
 20
1310.405364690024
 30
0.0
 10
1284.866055861233
 20
1314.159179763305
 30
0.0
 10
1285.863022226306
 20
1317.910330942089
 30
0.0
 10
1287.066919830816
 20
1322.247067883535
 30
0.0
 10
1288.342865128712
 20
1327.064538533383
 30
0.0
 10
1289.614041785107
 20
1331.803448888242
 30
0.0
 10
1290.805737791538
 20
1335.719916797801
 30
0.0
 10
1291.811333226889
 20
1338.400127590623
 30
0.0
 10
1292.541313268996
 20
1340.151810494941
 30
0.0
 10
1292.865100172375
 20
1340.870012745639
 30
0.0
 10
1293.02809799873
 20
1341.231563520313
 30
0.0
  0
ARC
  5
210
330
1F
100
AcDbEntity
  8
0
  6
Continuous
 62
     8
370
    18
100
AcDbCircle
 10
1283.3875826661
 20
1294.9492144582
 30
0.0
 40
3.870008213483207
100
AcDbArc
 50
99.3655973717
 51
122.4620469832
  0
ARC
  5
211
330
1F
100
AcDbEntity
  8
0
  6
Continuous
 62
     8
370
    18
100
AcDbCircle
 10
1285.7780061271
 20
1338.156298697
 30
0.0
 40
7.875346714974759
100
AcDbArc
 50
22.4525517096
 51
22.9851555307
  0
SPLINE
  5
212
330
1F
100
AcDbEntity
  8
0
  6
Continuous
 62
     8
370
    18
100
AcDbSpline
210
0.0
220
0.0
230
1.0
 70
     8
 71
     3
 72
    19
 73
    15
 74
     0
 42
0.000000001
 43
0.00000001
 40
0.0
 40
0.0
 40
0.0
 40
0.0
 40
0.0812843755281375
 40
0.1625926981205919
 40
0.2503967158277944
 40
0.3382767484838726
 40
0.4242704765567137
 40
0.510246220949112
 40
0.5965701789596967
 40
0.6829065819723052
 40
0.7657398742054035
 40
0.8485711078275142
 40
0.9243009273350651
 40
1.0
 40
1.0
 40
1.0
 40
1.0
 10
1282.823859767363
 20
1298.777154444991
 30
0.0
 10
1282.814989279573
 20
1299.955112865042
 30
0.0
 10
1282.797245690671
 20
1302.311376741655
 30
0.0
 10
1283.276821720556
 20
1306.406795446199
 30
0.0
 10
1284.132574549024
 20
1310.784599407834
 30
0.0
 10
1285.256318620955
 20
1315.321961567965
 30
0.0
 10
1286.472335238289
 20
1319.793613609361
 30
0.0
 10
1287.655757109732
 20
1324.118585051189
 30
0.0
 10
1288.728547523378
 20
1328.212940568285
 30
0.0
 10
1289.729248234216
 20
1331.910179206107
 30
0.0
 10
1290.702173912912
 20
1335.119273747848
 30
0.0
 10
1291.612895862495
 20
1337.72413764522
 30
0.0
 10
1292.450425805204
 20
1339.797055428847
 30
0.0
 10
1292.854416650434
 20
1340.708438171221
 30
0.0
 10
1293.056371058938
 20
1341.164037016664
 30
0.0
  0
ARC
  5
213
330
1F
100
AcDbEntity
  8
0
  6
Continuous
 62
     8
370
    18
100
AcDbCircle
 10
1279.7195458489
 20
1320.086124707
 30
0.0
 40
21.53390300273019
100
AcDbArc
 50
278.1110275317
 51
278.2886032807
  0
SPLINE
  5
214
330
1F
100
AcDbEntity
  8
0
  6
Continuous
 62
     8
370
    18
100
AcDbSpline
210
0.0
220
0.0
230
1.0
 70
     8
 71
     3
 72
    30
 73
    26
 74
     0
 42
0.000000001
 43
0.00000001
 40
0.0
 40
0.0
 40
0.0
 40
0.0
 40
0.0367442153817575
 40
0.0737232841850677
 40
0.1110413367406518
 40
0.148808577200663
 40
0.1888707208560453
 40
0.2291780738353261
 40
0.2702466874566161
 40
0.3115759369700019
 40
0.3541334999732086
 40
0.3969808370193868
 40
0.4407360718523627
 40
0.4848040276228703
 40
0.5276706400319179
 40
0.570826668246634
 40
0.6148725539342165
 40
0.6592220198760967
 40
0.7025795290829526
 40
0.7462563583192048
 40
0.7910386023489433
 40
0.8362596963443323
 40
0.9039599048262003
 40
0.972871186077464
 40
1.0
 40
1.0
 40
1.0
 40
1.0
 10
1295.93575300055
 20
1338.839913331953
 30
0.0
 10
1295.821232791679
 20
1338.682632108589
 30
0.0
 10
1295.591460409393
 20
1338.367064387069
 30
0.0
 10
1295.172588824806
 20
1337.722864176866
 30
0.0
 10
1294.709859575323
 20
1336.953922712995
 30
0.0
 10
1294.198582021144
 20
1336.033150173564
 30
0.0
 10
1293.650460789142
 20
1334.958987155785
 30
0.0
 10
1293.074057416047
 20
1333.722874127347
 30
0.0
 10
1292.493830087174
 20
1332.34496967828
 30
0.0
 10
1291.904405828064
 20
1330.818357121895
 30
0.0
 10
1291.301261729618
 20
1329.154813883195
 30
0.0
 10
1290.676225895086
 20
1327.3537870678
 30
0.0
 10
1290.029493307749
 20
1325.438327204393
 30
0.0
 10
1289.364384749314
 20
1323.444225721043
 30
0.0
 10
1288.673539878655
 20
1321.401289096595
 30
0.0
 10
1287.956472673884
 20
1319.31663670736
 30
0.0
 10
1287.222166412876
 20
1317.175299015388
 30
0.0
 10
1286.495341468548
 20
1315.007508919756
 30
0.0
 10
1285.799902138062
 20
1312.832451856107
 30
0.0
 10
1285.153356361237
 20
1310.646908632497
 30
0.0
 10
1284.574365209966
 20
1308.439695376881
 30
0.0
 10
1284.01103826458
 20
1305.866980283527
 30
0.0
 10
1283.575338540361
 20
1302.983171351459
 30
0.0
 10
1283.444974648354
 20
1300.53674807699
 30
0.0
 10
1283.496114927258
 20
1299.219108994392
 30
0.0
 10
1283.510560717923
 20
1298.846910430614
 30
0.0
  0
ARC
  5
215
330
1F
100
AcDbEntity
  8
0
  6
Continuous
 62
     8
370
    18
100
AcDbCircle
 10
1283.6459413321
 20
1294.0992455528
 30
0.0
 40
4.749594688271316
100
AcDbArc
 50
91.6333580123
 51
99.9672112785
  0
ARC
  5
216
330
1F
100
AcDbEntity
  8
0
  6
Continuous
 62
     8
370
    18
100
AcDbCircle
 10
1296.0486683481
 20
1341.9255159157
 30
0.0
 40
3.08766791941465
100
AcDbArc
 50
194.2775571615
 51
267.9042384386
  0
SPLINE
  5
217
330
1F
100
AcDbEntity
  8
0
  6
Continuous
 62
     8
370
    18
100
AcDbSpline
210
0.0
220
0.0
230
1.0
 70
     8
 71
     3
 72
     9
 73
     5
 74
     0
 42
0.000000001
 43
0.00000001
 40
0.0
 40
0.0
 40
0.0
 40
0.0
 40
0.4955319650024687
 40
1.0
 40
1.0
 40
1.0
 40
1.0
 10
1296.517089757946
 20
1339.505579619435
 30
0.0
 10
1296.470834649369
 20
1339.477492100608
 30
0.0
 10
1296.377490300582
 20
1339.420810552673
 30
0.0
 10
1296.083873361068
 20
1339.034695854849
 30
0.0
 10
1295.93575300055
 20
1338.839913331953
 30
0.0
  0
SPLINE
  5
218
330
1F
100
AcDbEntity
  8
0
  6
Continuous
 62
     8
370
    18
100
AcDbSpline
210
0.0
220
0.0
230
1.0
 70
     8
 71
     3
 72
    10
 73
     6
 74
     0
 42
0.000000001
 43
0.00000001
 40
0.0
 40
0.0
 40
0.0
 40
0.0
 40
0.4337470054426097
 40
0.8726448366891218
 40
1.0
 40
1.0
 40
1.0
 40
1.0
 10
1279.847957119869
 20
1290.276150839791
 30
0.0
 10
1279.81499816876
 20
1290.082068256023
 30
0.0
 10
1279.74868887291
 20
1289.691598321956
 30
0.0
 10
1279.672243200751
 20
1289.520600933997
 30
0.0
 10
1279.628984569283
 20
1289.508337721322
 30
0.0
 10
1279.619255331419
 20
1289.505579619435
 30
0.0
  0
SPLINE
  5
219
330
1F
100
AcDbEntity
  8
0
  6
Continuous
 62
     8
370
    18
100
AcDbSpline
210
0.0
220
0.0
230
1.0
 70
     8
 71
     3
 72
    13
 73
     9
 74
     0
 42
0.000000001
 43
0.00000001
 40
0.0
 40
0.0
 40
0.0
 40
0.0
 40
0.1663795665670601
 40
0.3327993424822734
 40
0.5326933616013211
 40
0.7327069656730665
 40
0.9440944502581979
 40
1.0
 40
1.0
 40
1.0
 40
1.0
 10
1283.510560717923
 20
1298.846910430614
 30
0.0
 10
1283.520555310342
 20
1298.144184894347
 30
0.0
 10
1283.540546910597
 20
1296.738563992449
 30
0.0
 10
1283.207780072646
 20
1294.783236000328
 30
0.0
 10
1282.541275123584
 20
1293.022382458038
 30
0.0
 10
1281.561143674895
 20
1291.526835513672
 30
0.0
 10
1280.377417638841
 20
1290.718778191911
 30
0.0
 10
1279.939541003087
 20
1290.35271468218
 30
0.0
 10
1279.847957119869
 20
1290.276150839791
 30
0.0
  0
SPLINE
  5
21A
330
1F
100
AcDbEntity
  8
0
  6
Continuous
 62
     8
370
    18
100
AcDbSpline
210
0.0
220
0.0
230
1.0
 70
     8
 71
     3
 72
    12
 73
     8
 74
     0
 42
0.000000001
 43
0.00000001
 40
0.0
 40
0.0
 40
0.0
 40
0.0
 40
0.2584254149750848
 40
0.5253727836647545
 40
0.63256373354721
 40
0.814100555412947
 40
1.0
 40
1.0
 40
1.0
 40
1.0
 10
1279.619255331421
 20
1290.274983968088
 30
0.0
 10
1280.125560978377
 20
1290.657209545149
 30
0.0
 10
1281.15486843698
 20
1291.434265143292
 30
0.0
 10
1282.000979486749
 20
1293.049341348311
 30
0.0
 10
1282.51219856659
 20
1294.775630816219
 30
0.0
 10
1282.79441535739
 20
1296.457653203799
 30
0.0
 10
1282.770102984978
 20
1297.991570701377
 30
0.0
 10
1282.757802466655
 20
1298.767635659785
 30
0.0
  0
SPLINE
  5
21B
330
1F
100
AcDbEntity
  8
0
  6
Continuous
 62
     8
370
    18
100
AcDbSpline
210
0.0
220
0.0
230
1.0
 70
     8
 71
     3
 72
    11
 73
     7
 74
     0
 42
0.000000001
 43
0.00000001
 40
0.0
 40
0.0
 40
0.0
 40
0.0
 40
0.2821978531715171
 40
0.5662711511816111
 40
0.995686545031333
 40
1.0
 40
1.0
 40
1.0
 40
1.0
 10
1279.619255331421
 20
1290.274983968088
 30
0.0
 10
1279.292130665807
 20
1290.137108229228
 30
0.0
 10
1278.635707312848
 20
1289.860440449914
 30
0.0
 10
1277.342836063666
 20
1289.581013437592
 30
0.0
 10
1276.322540083362
 20
1289.505859326465
 30
0.0
 10
1275.672502395618
 20
1289.505582373744
 30
0.0
 10
1275.66603773849
 20
1289.505579619435
 30
0.0
  0
SPLINE
  5
21C
330
1F
100
AcDbEntity
  8
0
  6
Continuous
 62
     8
370
    18
100
AcDbSpline
210
0.0
220
0.0
230
1.0
 70
     8
 71
     3
 72
    14
 73
    10
 74
     0
 42
0.000000001
 43
0.00000001
 40
0.0
 40
0.0
 40
0.0
 40
0.0
 40
0.0665232667018164
 40
0.1346138509585659
 40
0.270526373188616
 40
0.467909457036936
 40
0.669725241607236
 40
0.8332896955030697
 40
1.0
 40
1.0
 40
1.0
 40
1.0
 10
1279.807597980731
 20
1290.276212002608
 30
0.0
 10
1279.894735928962
 20
1290.367868740439
 30
0.0
 10
1280.071064833984
 20
1290.55334168934
 30
0.0
 10
1280.605704957484
 20
1290.978659390393
 30
0.0
 10
1281.275524716843
 20
1291.735932989853
 30
0.0
 10
1282.034084506339
 20
1293.034198423145
 30
0.0
 10
1282.56775465517
 20
1294.771947197521
 30
0.0
 10
1282.849524212168
 20
1296.699512653807
 30
0.0
 10
1282.83246873316
 20
1298.080223447447
 30
0.0
 10
1282.823859767363
 20
1298.777154444991
 30
0.0
  0
ARC
  5
21D
330
1F
100
AcDbEntity
  8
0
  6
Continuous
 62
     8
370
    18
100
AcDbCircle
 10
1279.6192555349
 20
1304.7185457615
 30
0.0
 40
14.44356179341685
100
AcDbArc
 50
269.9999991926
 51
270.747151793
  0
ARC
  5
21E
330
1F
100
AcDbEntity
  8
0
  6
Continuous
 62
     8
370
    18
100
AcDbCircle
 10
1279.8230919734
 20
1287.1843380564
 30
0.0
 40
3.091912767744754
100
AcDbArc
 50
89.5392226717
 51
90.2871180955
  0
SPLINE
  5
21F
330
1F
100
AcDbEntity
  8
0
  6
Continuous
 62
     8
370
    18
100
AcDbSpline
210
0.0
220
0.0
230
1.0
 70
     8
 71
     3
 72
    10
 73
     6
 74
     0
 42
0.000000001
 43
0.00000001
 40
0.0
 40
0.0
 40
0.0
 40
0.0
 40
0.0149525925089902
 40
0.5037698573839661
 40
1.0
 40
1.0
 40
1.0
 40
1.0
 10
1279.619255331419
 20
1289.505579619435
 30
0.0
 10
1279.620195909775
 20
1289.505620282575
 30
0.0
 10
1279.651885064952
 20
1289.506990270025
 30
0.0
 10
1279.714885119672
 20
1289.624592607105
 30
0.0
 10
1279.776539036874
 20
1290.057918553458
 30
0.0
 10
1279.807597980731
 20
1290.276212002608
 30
0.0
  0
LINE
  5
220
330
1F
100
AcDbEntity
  8
0
  6
Continuous
 62
     8
370
    18
100
AcDbLine
 10
1279.6192553314
 20
1289.5055796194
 30
0.0
 11
1279.6192553314
 21
1290.2749839681
 31
0.0
  0
SPLINE
  5
221
330
1F
100
AcDbEntity
  8
0
  6
Continuous
 62
     8
370
    18
100
AcDbSpline
210
0.0
220
0.0
230
1.0
 70
     8
 71
     3
 72
     9
 73
     5
 74
     0
 42
0.000000001
 43
0.00000001
 40
0.0
 40
0.0
 40
0.0
 40
0.0
 40
0.4953932977280405
 40
1.0
 40
1.0
 40
1.0
 40
1.0
 10
1293.056371058939
 20
1341.164037016664
 30
0.0
 10
1293.175646011036
 20
1341.423510115369
 30
0.0
 10
1293.41641421005
 20
1341.947282035365
 30
0.0
 10
1293.49360641386
 20
1342.106458568507
 30
0.0
 10
1293.532558117266
 20
1342.186780113975
 30
0.0
  0
LINE
  5
222
330
1F
100
AcDbEntity
  8
0
  6
Continuous
 62
     8
370
    18
100
AcDbLine
 10
1569.1192553314
 20
1369.952018119
 30
0.0
 11
1569.1192553314
 21
1370.952018119
 31
0.0
  0
LINE
  5
223
330
1F
100
AcDbEntity
  8
0
  6
Continuous
 62
     8
370
    18
100
AcDbLine
 10
844.1192553314
 20
1370.952018119
 30
0.0
 11
844.1192553314
 21
1369.952018119
 31
0.0
  0
LINE
  5
224
330
1F
100
AcDbEntity
  8
0
  6
Continuous
 62
     8
370
    18
100
AcDbLine
 10
1546.6192553314
 20
1364.2261586406
 30
0.0
 11
1548.6192553314
 21
1364.2261586406
 31
0.0
  0
LINE
  5
225
330
1F
100
AcDbEntity
  8
0
  6
Continuous
 62
     8
370
    18
100
AcDbLine
 10
1548.6192553314
 20
1362.4135430665
 30
0.0
 11
1546.6192553314
 21
1362.4135430665
 31
0.0
  0
LINE
  5
226
330
1F
100
AcDbEntity
  8
0
  6
Continuous
 62
     8
370
    18
100
AcDbLine
 10
1546.6192553314
 20
1355.1552437819
 30
0.0
 11
1548.6192553314
 21
1355.1552437819
 31
0.0
  0
LINE
  5
227
330
1F
100
AcDbEntity
  8
0
  6
Continuous
 62
     8
370
    18
100
AcDbLine
 10
1548.6192553314
 20
1353.3426282079
 30
0.0
 11
1546.6192553314
 21
1353.3426282079
 31
0.0
  0
LINE
  5
228
330
1F
100
AcDbEntity
  8
0
  6
Continuous
 62
     8
370
    18
100
AcDbLine
 10
1546.6192553314
 20
1319.052018119
 30
0.0
 11
1548.6192553314
 21
1319.052018119
 31
0.0
  0
LINE
  5
229
330
1F
100
AcDbEntity
  8
0
  6
Continuous
 62
     8
370
    18
100
AcDbLine
 10
864.6192553314
 20
1364.2261586406
 30
0.0
 11
866.6192553314
 21
1364.2261586406
 31
0.0
  0
LINE
  5
22A
330
1F
100
AcDbEntity
  8
0
  6
Continuous
 62
     8
370
    18
100
AcDbLine
 10
866.6192553314
 20
1362.4135430665
 30
0.0
 11
864.6192553314
 21
1362.4135430665
 31
0.0
  0
LINE
  5
22B
330
1F
100
AcDbEntity
  8
0
  6
Continuous
 62
     8
370
    18
100
AcDbLine
 10
864.6192553314
 20
1355.1552437819
 30
0.0
 11
866.6192553314
 21
1355.1552437819
 31
0.0
  0
LINE
  5
22C
330
1F
100
AcDbEntity
  8
0
  6
Continuous
 62
     8
370
    18
100
AcDbLine
 10
866.6192553314
 20
1353.3426282079
 30
0.0
 11
864.6192553314
 21
1353.3426282079
 31
0.0
  0
LINE
  5
22D
330
1F
100
AcDbEntity
  8
0
  6
Continuous
 62
     8
370
    18
100
AcDbLine
 10
864.6192553314
 20
1319.052018119
 30
0.0
 11
866.6192553314
 21
1319.052018119
 31
0.0
  0
POINT
  5
22E
330
1F
100
AcDbEntity
  8
0
  6
Continuous
 62
     7
370
     0
100
AcDbPoint
 10
1117.6493698271
 20
1327.0612269747
 30
0.0
  0
LINE
  5
22F
330
1F
100
AcDbEntity
  8
0
  6
Continuous
 62
     7
370
    35
100
AcDbLine
 10
866.6192553314
 20
1012.1326454854
 30
0.0
 11
866.6192553314
 21
1014.9610726101
 31
0.0
  0
LINE
  5
230
330
1F
100
AcDbEntity
  8
0
  6
Continuous
 62
     7
370
    35
100
AcDbLine
 10
1546.6192553314
 20
1015.0468590477
 30
0.0
 11
866.6192553314
 21
1015.0468590477
 31
0.0
  0
LINE
  5
231
330
1F
100
AcDbEntity
  8
0
  6
Continuous
 62
     7
370
    35
100
AcDbLine
 10
1546.6192553314
 20
1014.9610726101
 30
0.0
 11
1546.6192553314
 21
1012.1326454854
 31
0.0
  0
LINE
  5
232
330
1F
100
AcDbEntity
  8
0
  6
Continuous
 62
     7
370
    35
100
AcDbLine
 10
1546.6192553314
 20
1012.0468590477
 30
0.0
 11
866.6192553314
 21
1012.0468590477
 31
0.0
  0
LINE
  5
233
330
1F
100
AcDbEntity
  8
0
  6
Continuous
 62
     7
370
    35
100
AcDbLine
 10
866.6192553314
 20
948.0468590477
 30
0.0
 11
1546.6192553314
 21
948.0468590477
 31
0.0
  0
LINE
  5
234
330
1F
100
AcDbEntity
  8
0
  6
Continuous
 62
     7
370
    35
100
AcDbLine
 10
866.6192553314
 20
945.0468590477
 30
0.0
 11
1546.6192553314
 21
945.0468590477
 31
0.0
  0
LINE
  5
235
330
1F
100
AcDbEntity
  8
0
  6
Continuous
 62
     7
370
    35
100
AcDbLine
 10
866.6192553314
 20
945.1326454854
 30
0.0
 11
866.6192553314
 21
947.9610726101
 31
0.0
  0
LINE
  5
236
330
1F
100
AcDbEntity
  8
0
  6
Continuous
 62
     7
370
    35
100
AcDbLine
 10
1546.6192553314
 20
947.9610726101
 30
0.0
 11
1546.6192553314
 21
945.1326454854
 31
0.0
  0
LINE
  5
237
330
1F
100
AcDbEntity
  8
0
  6
Continuous
 62
     7
370
    35
100
AcDbLine
 10
1546.6192553314
 20
1016.0468590477
 30
0.0
 11
1546.6192553314
 21
1015.0468590477
 31
0.0
  0
LINE
  5
238
330
1F
100
AcDbEntity
  8
0
  6
Continuous
 62
     7
370
    35
100
AcDbLine
 10
866.6192553314
 20
1015.0468590477
 30
0.0
 11
866.6192553314
 21
1016.0468590477
 31
0.0
  0
LINE
  5
239
330
1F
100
AcDbEntity
  8
0
  6
Continuous
 62
     7
370
    35
100
AcDbLine
 10
1546.6192553314
 20
944.0468590477
 30
0.0
 11
1546.6192553314
 21
945.0468590477
 31
0.0
  0
LINE
  5
23A
330
1F
100
AcDbEntity
  8
0
  6
Continuous
 62
     7
370
    35
100
AcDbLine
 10
866.6192553314
 20
945.0468590477
 30
0.0
 11
866.6192553314
 21
944.0468590477
 31
0.0
  0
LINE
  5
23B
330
1F
100
AcDbEntity
  8
0
  6
Continuous
 62
     7
370
    35
100
AcDbLine
 10
866.6192553314
 20
1045.5468590477
 30
0.0
 11
1546.6192553314
 21
1045.5468590477
 31
0.0
  0
LINE
  5
23C
330
1F
100
AcDbEntity
  8
0
  6
Continuous
 62
     7
370
    35
100
AcDbLine
 10
1546.6192553314
 20
1045.5468590477
 30
0.0
 11
1546.6192553314
 21
1016.0468590477
 31
0.0
  0
LINE
  5
23D
330
1F
100
AcDbEntity
  8
0
  6
Continuous
 62
     7
370
    35
100
AcDbLine
 10
866.6192553314
 20
1016.0468590477
 30
0.0
 11
866.6192553314
 21
1045.5468590477
 31
0.0
  0
LINE
  5
23E
330
1F
100
AcDbEntity
  8
0
  6
Continuous
 62
     7
370
    35
100
AcDbLine
 10
1546.6192553314
 20
914.5468590477
 30
0.0
 11
866.6192553314
 21
914.5468590477
 31
0.0
  0
LINE
  5
23F
330
1F
100
AcDbEntity
  8
0
  6
Continuous
 62
     7
370
    35
100
AcDbLine
 10
866.6192553314
 20
914.5468590477
 30
0.0
 11
866.6192553314
 21
944.0468590477
 31
0.0
  0
LINE
  5
240
330
1F
100
AcDbEntity
  8
0
  6
Continuous
 62
     7
370
    35
100
AcDbLine
 10
1546.6192553314
 20
944.0468590477
 30
0.0
 11
1546.6192553314
 21
914.5468590477
 31
0.0
  0
SPLINE
  5
241
330
1F
100
AcDbEntity
  8
0
  6
Continuous
 62
     7
370
    35
100
AcDbSpline
210
0.0
220
0.0
230
1.0
 70
     8
 71
     3
 72
     8
 73
     4
 74
     0
 42
0.000000001
 43
0.00000001
 40
0.0
 40
0.0
 40
0.0
 40
0.0
 40
1.0
 40
1.0
 40
1.0
 40
1.0
 10
1259.619255331419
 20
1009.302643246347
 30
0.0
 10
1261.876377588432
 20
1009.302643246347
 30
0.0
 10
1264.133206306219
 20
1009.234652040303
 30
0.0
 10
1266.386518303307
 20
1009.103753421959
 30
0.0
  0
LINE
  5
242
330
1F
100
AcDbEntity
  8
0
  6
Continuous
 62
     7
370
    35
100
AcDbLine
 10
1153.6192553314
 20
1009.3026432463
 30
0.0
 11
1259.6192553314
 21
1009.3026432463
 31
0.0
  0
SPLINE
  5
243
330
1F
100
AcDbEntity
  8
0
  6
Continuous
 62
     7
370
    35
100
AcDbSpline
210
0.0
220
0.0
230
1.0
 70
     8
 71
     3
 72
     8
 73
     4
 74
     0
 42
0.000000001
 43
0.00000001
 40
0.0
 40
0.0
 40
0.0
 40
0.0
 40
1.0
 40
1.0
 40
1.0
 40
1.0
 10
1146.851992359532
 20
1009.103753421959
 30
0.0
 10
1149.105304049925
 20
1009.234652022274
 30
0.0
 10
1151.362128180188
 20
1009.302643246347
 30
0.0
 10
1153.619255331419
 20
1009.302643246347
 30
0.0
  0
SPLINE
  5
244
330
1F
100
AcDbEntity
  8
0
  6
Continuous
 62
     7
370
    35
100
AcDbSpline
210
0.0
220
0.0
230
1.0
 70
     8
 71
     3
 72
    22
 73
    18
 74
     0
 42
0.000000001
 43
0.00000001
 40
3.369126305560274
 40
3.369126305560274
 40
3.369126305560274
 40
3.369126305560274
 40
3.535853022596993
 40
3.535853022596993
 40
3.702579739633712
 40
3.702579739633712
 40
3.869306456670431
 40
3.869306456670431
 40
4.036033173707151
 40
4.036033173707151
 40
4.20275989074387
 40
4.20275989074387
 40
4.369486607780589
 40
4.369486607780589
 40
4.536213324817307
 40
4.536213324817307
 40
4.702940041854027
 40
4.702940041854027
 40
4.702940041854027
 40
4.702940041854027
 10
1123.620594558045
 20
980.1604462095222
 30
0.0
 10
1123.636348321627
 20
981.8276487934227
 30
0.0
 10
1123.791405539946
 20
983.493493938309
 30
0.0
 10
1124.375835089507
 20
986.7764135795944
 30
0.0
 10
1124.805199811058
 20
988.3934360106114
 30
0.0
 10
1125.926343312743
 20
991.533843073106
 30
0.0
 10
1126.61810767319
 20
993.0571873139596
 30
0.0
 10
1128.244871933295
 20
995.9679874293198
 30
0.0
 10
1129.179850910181
 20
997.3554058663126
 30
0.0
 10
1131.267120119559
 20
999.9558724623525
 30
0.0
 10
1132.419383506453
 20
1001.168887175268
 30
0.0
 10
1134.90927045821
 20
1003.386900303499
 30
0.0
 10
1136.246861999172
 20
1004.391870191642
 30
0.0
 10
1139.070313501479
 20
1006.165916663315
 30
0.0
 10
1140.556137148752
 20
1006.93497042979
 30
0.0
 10
1143.634849109098
 20
1008.215849789745
 30
0.0
 10
1145.227688323161
 20
1008.727656708986
 30
0.0
 10
1146.851992359532
 20
1009.103753421959
 30
0.0
  0
SPLINE
  5
245
330
1F
100
AcDbEntity
  8
0
  6
Continuous
 62
     7
370
    35
100
AcDbSpline
210
0.0
220
0.0
230
1.0
 70
     8
 71
     3
 72
     8
 73
     4
 74
     0
 42
0.000000001
 43
0.00000001
 40
0.0
 40
0.0
 40
0.0
 40
0.0
 40
0.0000569949035218
 40
0.0000569949035218
 40
0.0000569949035218
 40
0.0000569949035218
 10
1123.619588670682
 20
980.1035518353106
 30
0.0
 10
1123.619811892943
 20
980.1225182716363
 30
0.0
 10
1123.620147401176
 20
980.141483718433
 30
0.0
 10
1123.620594558045
 20
980.1604462095222
 30
0.0
  0
SPLINE
  5
246
330
1F
100
AcDbEntity
  8
0
  6
Continuous
 62
     7
370
    35
100
AcDbSpline
210
0.0
220
0.0
230
1.0
 70
     8
 71
     3
 72
     8
 73
     4
 74
     0
 42
0.000000001
 43
0.00000001
 40
0.0
 40
0.0
 40
0.0
 40
0.0
 40
0.0000569949035218
 40
0.0000569949035218
 40
0.0000569949035218
 40
0.0000569949035218
 10
1289.617916104793
 20
980.1604462095222
 30
0.0
 10
1289.618363261662
 20
980.141483718433
 30
0.0
 10
1289.618698769896
 20
980.1225182716363
 30
0.0
 10
1289.618921992156
 20
980.1035518353106
 30
0.0
  0
SPLINE
  5
247
330
1F
100
AcDbEntity
  8
0
  6
Continuous
 62
     7
370
    35
100
AcDbSpline
210
0.0
220
0.0
230
1.0
 70
     8
 71
     3
 72
    22
 73
    18
 74
     0
 42
0.000000001
 43
0.00000001
 40
1.580245265325559
 40
1.580245265325559
 40
1.580245265325559
 40
1.580245265325559
 40
1.746971982362278
 40
1.746971982362278
 40
1.913698699398998
 40
1.913698699398998
 40
2.080425416435717
 40
2.080425416435717
 40
2.247152133472436
 40
2.247152133472436
 40
2.413878850509155
 40
2.413878850509155
 40
2.580605567545874
 40
2.580605567545874
 40
2.747332284582593
 40
2.747332284582593
 40
2.914059001619312
 40
2.914059001619312
 40
2.914059001619312
 40
2.914059001619312
 10
1266.386518303307
 20
1009.103753421959
 30
0.0
 10
1268.010822339678
 20
1008.727656708986
 30
0.0
 10
1269.603661553741
 20
1008.215849789745
 30
0.0
 10
1272.682373514087
 20
1006.93497042979
 30
0.0
 10
1274.16819716136
 20
1006.165916663315
 30
0.0
 10
1276.991648663667
 20
1004.391870191642
 30
0.0
 10
1278.329240204628
 20
1003.386900303499
 30
0.0
 10
1280.819127156386
 20
1001.168887175268
 30
0.0
 10
1281.97139054328
 20
999.9558724623525
 30
0.0
 10
1284.058659752658
 20
997.3554058663124
 30
0.0
 10
1284.993638729544
 20
995.9679874293198
 30
0.0
 10
1286.620402989649
 20
993.0571873139596
 30
0.0
 10
1287.312167350096
 20
991.5338430731061
 30
0.0
 10
1288.43331085178
 20
988.3934360106114
 30
0.0
 10
1288.862675573332
 20
986.7764135795944
 30
0.0
 10
1289.447105122893
 20
983.493493938309
 30
0.0
 10
1289.602162341212
 20
981.8276487934226
 30
0.0
 10
1289.617916104793
 20
980.1604462095222
 30
0.0
  0
SPLINE
  5
248
330
1F
100
AcDbEntity
  8
0
  6
Continuous
 62
     7
370
    35
100
AcDbSpline
210
0.0
220
0.0
230
1.0
 70
     8
 71
     3
 72
    14
 73
    10
 74
     0
 42
0.000000001
 43
0.00000001
 40
0.0
 40
0.0
 40
0.0
 40
0.0
 40
0.25
 40
0.25
 40
0.5
 40
0.5
 40
0.75
 40
0.75
 40
1.0
 40
1.0
 40
1.0
 40
1.0
 10
1266.386518303307
 20
1009.103551835311
 30
0.0
 10
1269.635107372284
 20
1008.351362809559
 30
0.0
 10
1272.756471410207
 20
1007.052738312504
 30
0.0
 10
1278.403374414821
 20
1003.504645369157
 30
0.0
 10
1280.927755938591
 20
1001.255904173724
 30
0.0
 10
1285.102294357347
 20
996.0549709816443
 30
0.0
 10
1286.751595599253
 20
993.1038450177051
 30
0.0
 10
1288.993882602623
 20
986.8230308927158
 30
0.0
 10
1289.586408763626
 20
983.4946301070357
 30
0.0
 10
1289.617916104793
 20
980.160244622874
 30
0.0
  0
LINE
  5
249
330
1F
100
AcDbEntity
  8
0
  6
Continuous
 62
     7
370
    35
100
AcDbLine
 10
1266.3865183033
 20
1009.103753422
 30
0.0
 11
1266.3865183033
 21
1009.1035518353
 31
0.0
  0
SPLINE
  5
24A
330
1F
100
AcDbEntity
  8
0
  6
Continuous
 62
     7
370
    35
100
AcDbSpline
210
0.0
220
0.0
230
1.0
 70
     8
 71
     3
 72
    14
 73
    10
 74
     0
 42
0.000000001
 43
0.00000001
 40
0.0
 40
0.0
 40
0.0
 40
0.0
 40
0.2499999999999999
 40
0.2499999999999999
 40
0.4999999999999999
 40
0.4999999999999999
 40
0.7499999999999999
 40
0.7499999999999999
 40
1.0
 40
1.0
 40
1.0
 40
1.0
 10
1289.617916104793
 20
979.9334734726204
 30
0.0
 10
1289.586408763626
 20
976.5990879884586
 30
0.0
 10
1288.993882602623
 20
973.2706872027785
 30
0.0
 10
1286.751595599253
 20
966.9898730777892
 30
0.0
 10
1285.102294357347
 20
964.0387471138503
 30
0.0
 10
1280.927755938591
 20
958.8378139217701
 30
0.0
 10
1278.403374414821
 20
956.5890727263378
 30
0.0
 10
1272.756471410207
 20
953.0409797829908
 30
0.0
 10
1269.635107372284
 20
951.7423552859351
 30
0.0
 10
1266.386518303307
 20
950.9901662601839
 30
0.0
  0
ARC
  5
24B
330
1F
100
AcDbEntity
  8
0
  6
Continuous
 62
     7
370
    35
100
AcDbCircle
 10
1259.6192553314
 20
980.0468590477
 30
0.0
 40
27.00000000000001
100
AcDbArc
 50
283.0367179551
 51
359.4586157013
  0
LINE
  5
24C
330
1F
100
AcDbEntity
  8
0
  6
Continuous
 62
     7
370
    35
100
AcDbLine
 10
1266.3865183033
 20
950.9899646735
 30
0.0
 11
1266.3865183033
 21
950.9901662602
 31
0.0
  0
SPLINE
  5
24D
330
1F
100
AcDbEntity
  8
0
  6
Continuous
 62
     7
370
    35
100
AcDbSpline
210
0.0
220
0.0
230
1.0
 70
     8
 71
     3
 72
    22
 73
    18
 74
     0
 42
0.000000001
 43
0.00000001
 40
3.369126305560276
 40
3.369126305560276
 40
3.369126305560276
 40
3.369126305560276
 40
3.535853022596996
 40
3.535853022596996
 40
3.702579739633714
 40
3.702579739633714
 40
3.869306456670433
 40
3.869306456670433
 40
4.036033173707152
 40
4.036033173707152
 40
4.20275989074387
 40
4.20275989074387
 40
4.369486607780589
 40
4.369486607780589
 40
4.536213324817308
 40
4.536213324817308
 40
4.702940041854027
 40
4.702940041854027
 40
4.702940041854027
 40
4.702940041854027
 10
1289.617916104793
 20
979.9332718859721
 30
0.0
 10
1289.602162341212
 20
978.2660693020717
 30
0.0
 10
1289.447105122893
 20
976.6002241571853
 30
0.0
 10
1288.862675573332
 20
973.3173045158999
 30
0.0
 10
1288.43331085178
 20
971.7002820848827
 30
0.0
 10
1287.312167350096
 20
968.5598750223882
 30
0.0
 10
1286.620402989649
 20
967.0365307815347
 30
0.0
 10
1284.993638729544
 20
964.1257306661746
 30
0.0
 10
1284.058659752658
 20
962.7383122291819
 30
0.0
 10
1281.97139054328
 20
960.1378456331418
 30
0.0
 10
1280.819127156386
 20
958.9248309202266
 30
0.0
 10
1278.329240204629
 20
956.7068177919956
 30
0.0
 10
1276.991648663667
 20
955.7018479038527
 30
0.0
 10
1274.16819716136
 20
953.9278014321792
 30
0.0
 10
1272.682373514087
 20
953.1587476657047
 30
0.0
 10
1269.603661553741
 20
951.8778683057488
 30
0.0
 10
1268.010822339678
 20
951.3660613865084
 30
0.0
 10
1266.386518303307
 20
950.9899646735355
 30
0.0
  0
SPLINE
  5
24E
330
1F
100
AcDbEntity
  8
0
  6
Continuous
 62
     7
370
    35
100
AcDbSpline
210
0.0
220
0.0
230
1.0
 70
     8
 71
     3
 72
    14
 73
    10
 74
     0
 42
0.000000001
 43
0.00000001
 40
0.0
 40
0.0
 40
0.0
 40
0.0
 40
0.25
 40
0.25
 40
0.5
 40
0.5
 40
0.75
 40
0.75
 40
1.0
 40
1.0
 40
1.0
 40
1.0
 10
1146.851992359531
 20
950.9901662601839
 30
0.0
 10
1143.603403290555
 20
951.7423552859351
 30
0.0
 10
1140.482039252632
 20
953.0409797829908
 30
0.0
 10
1134.835136248018
 20
956.5890727263378
 30
0.0
 10
1132.310754724248
 20
958.8378139217701
 30
0.0
 10
1128.136216305492
 20
964.0387471138503
 30
0.0
 10
1126.486915063586
 20
966.9898730777892
 30
0.0
 10
1124.244628060216
 20
973.2706872027785
 30
0.0
 10
1123.652101899213
 20
976.5990879884586
 30
0.0
 10
1123.620594558045
 20
979.9334734726204
 30
0.0
  0
ARC
  5
24F
330
1F
100
AcDbEntity
  8
0
  6
Continuous
 62
     7
370
    35
100
AcDbCircle
 10
1153.6192553314
 20
980.0468590477
 30
0.0
 40
27.00000000000017
100
AcDbArc
 50
180.5413842987
 51
256.9632820449
  0
LINE
  5
250
330
1F
100
AcDbEntity
  8
0
  6
Continuous
 62
     7
370
    35
100
AcDbLine
 10
1146.8519923595
 20
950.9899646735
 30
0.0
 11
1146.8519923595
 21
950.9901662602
 31
0.0
  0
SPLINE
  5
251
330
1F
100
AcDbEntity
  8
0
  6
Continuous
 62
     7
370
    35
100
AcDbSpline
210
0.0
220
0.0
230
1.0
 70
     8
 71
     3
 72
    22
 73
    18
 74
     0
 42
0.000000001
 43
0.00000001
 40
1.580245265325559
 40
1.580245265325559
 40
1.580245265325559
 40
1.580245265325559
 40
1.746971982362278
 40
1.746971982362278
 40
1.913698699398996
 40
1.913698699398996
 40
2.080425416435715
 40
2.080425416435715
 40
2.247152133472434
 40
2.247152133472434
 40
2.413878850509152
 40
2.413878850509152
 40
2.580605567545871
 40
2.580605567545871
 40
2.74733228458259
 40
2.74733228458259
 40
2.914059001619308
 40
2.914059001619308
 40
2.914059001619308
 40
2.914059001619308
 10
1146.851992359531
 20
950.9899646735355
 30
0.0
 10
1145.22768832316
 20
951.3660613865084
 30
0.0
 10
1143.634849109098
 20
951.877868305749
 30
0.0
 10
1140.556137148752
 20
953.1587476657048
 30
0.0
 10
1139.070313501479
 20
953.9278014321792
 30
0.0
 10
1136.246861999172
 20
955.7018479038527
 30
0.0
 10
1134.90927045821
 20
956.7068177919956
 30
0.0
 10
1132.419383506453
 20
958.9248309202266
 30
0.0
 10
1131.267120119559
 20
960.1378456331419
 30
0.0
 10
1129.179850910181
 20
962.7383122291819
 30
0.0
 10
1128.244871933295
 20
964.1257306661746
 30
0.0
 10
1126.61810767319
 20
967.0365307815348
 30
0.0
 10
1125.926343312743
 20
968.5598750223883
 30
0.0
 10
1124.805199811058
 20
971.7002820848829
 30
0.0
 10
1124.375835089507
 20
973.3173045159001
 30
0.0
 10
1123.791405539946
 20
976.6002241571854
 30
0.0
 10
1123.636348321627
 20
978.2660693020717
 30
0.0
 10
1123.620594558045
 20
979.9332718859721
 30
0.0
  0
ARC
  5
252
330
1F
100
AcDbEntity
  8
0
  6
Continuous
 62
     7
370
    35
100
AcDbCircle
 10
1259.6192553314
 20
980.0468590477
 30
0.0
 40
26.99999999999985
100
AcDbArc
 50
0.5413842987
 51
76.9632820449
  0
LINE
  5
253
330
1F
100
AcDbEntity
  8
0
  6
Continuous
 62
     7
370
    35
100
AcDbLine
 10
1146.8519923595
 20
1009.103753422
 30
0.0
 11
1146.8519923595
 21
1009.1035518353
 31
0.0
  0
SPLINE
  5
254
330
1F
100
AcDbEntity
  8
0
  6
Continuous
 62
     7
370
    35
100
AcDbSpline
210
0.0
220
0.0
230
1.0
 70
     8
 71
     3
 72
    14
 73
    10
 74
     0
 42
0.000000001
 43
0.00000001
 40
0.0
 40
0.0
 40
0.0
 40
0.0
 40
0.25
 40
0.25
 40
0.5
 40
0.5
 40
0.75
 40
0.75
 40
1.0
 40
1.0
 40
1.0
 40
1.0
 10
1123.620594558045
 20
980.160244622874
 30
0.0
 10
1123.652101899213
 20
983.4946301070357
 30
0.0
 10
1124.244628060216
 20
986.8230308927158
 30
0.0
 10
1126.486915063586
 20
993.1038450177051
 30
0.0
 10
1128.136216305492
 20
996.0549709816443
 30
0.0
 10
1132.310754724248
 20
1001.255904173724
 30
0.0
 10
1134.835136248018
 20
1003.504645369157
 30
0.0
 10
1140.482039252632
 20
1007.052738312504
 30
0.0
 10
1143.603403290555
 20
1008.351362809559
 30
0.0
 10
1146.851992359532
 20
1009.103551835311
 30
0.0
  0
ARC
  5
255
330
1F
100
AcDbEntity
  8
0
  6
Continuous
 62
     7
370
    35
100
AcDbCircle
 10
1153.6192553314
 20
980.0468590477
 30
0.0
 40
27.00000000000017
100
AcDbArc
 50
103.0367179551
 51
179.4586157013
  0
SPLINE
  5
256
330
1F
100
AcDbEntity
  8
0
  6
Continuous
 62
     7
370
    35
100
AcDbSpline
210
0.0
220
0.0
230
1.0
 70
     8
 71
     3
 72
     8
 73
     4
 74
     0
 42
0.000000001
 43
0.00000001
 40
0.0
 40
0.0
 40
0.0
 40
0.0
 40
0.0000569949035229
 40
0.0000569949035229
 40
0.0000569949035229
 40
0.0000569949035229
 10
1123.620594558045
 20
979.9332718859721
 30
0.0
 10
1123.620147401176
 20
979.9522343770617
 30
0.0
 10
1123.619811892943
 20
979.9711998238589
 30
0.0
 10
1123.619588670682
 20
979.9901662601848
 30
0.0
  0
SPLINE
  5
257
330
1F
100
AcDbEntity
  8
0
  6
Continuous
 62
     7
370
    35
100
AcDbSpline
210
0.0
220
0.0
230
1.0
 70
     8
 71
     3
 72
     8
 73
     4
 74
     0
 42
0.000000001
 43
0.00000001
 40
0.0
 40
0.0
 40
0.0
 40
0.0
 40
1.0
 40
1.0
 40
1.0
 40
1.0
 10
1153.619255331419
 20
950.7910748491473
 30
0.0
 10
1151.362133074407
 20
950.7910748491473
 30
0.0
 10
1149.10530435662
 20
950.8590660551911
 30
0.0
 10
1146.851992359531
 20
950.9899646735355
 30
0.0
  0
LINE
  5
258
330
1F
100
AcDbEntity
  8
0
  6
Continuous
 62
     7
370
    35
100
AcDbLine
 10
1259.6192553314
 20
950.7910748491
 30
0.0
 11
1153.6192553314
 21
950.7910748491
 31
0.0
  0
SPLINE
  5
259
330
1F
100
AcDbEntity
  8
0
  6
Continuous
 62
     7
370
    35
100
AcDbSpline
210
0.0
220
0.0
230
1.0
 70
     8
 71
     3
 72
     8
 73
     4
 74
     0
 42
0.000000001
 43
0.00000001
 40
0.0
 40
0.0
 40
0.0
 40
0.0
 40
1.0
 40
1.0
 40
1.0
 40
1.0
 10
1266.386518303307
 20
950.9899646735356
 30
0.0
 10
1264.133206612914
 20
950.8590660732201
 30
0.0
 10
1261.87638248265
 20
950.7910748491473
 30
0.0
 10
1259.619255331419
 20
950.7910748491473
 30
0.0
  0
SPLINE
  5
25A
330
1F
100
AcDbEntity
  8
0
  6
Continuous
 62
     7
370
    35
100
AcDbSpline
210
0.0
220
0.0
230
1.0
 70
     8
 71
     3
 72
     8
 73
     4
 74
     0
 42
0.000000001
 43
0.00000001
 40
0.0
 40
0.0
 40
0.0
 40
0.0
 40
0.0000569949035229
 40
0.0000569949035229
 40
0.0000569949035229
 40
0.0000569949035229
 10
1289.618921992156
 20
979.9901662601848
 30
0.0
 10
1289.618698769896
 20
979.9711998238589
 30
0.0
 10
1289.618363261663
 20
979.9522343770617
 30
0.0
 10
1289.617916104793
 20
979.9332718859721
 30
0.0
  0
SPLINE
  5
25B
330
1F
100
AcDbEntity
  8
0
  6
Continuous
 62
     7
370
    35
100
AcDbSpline
210
0.0
220
0.0
230
1.0
 70
     8
 71
     3
 72
    10
 73
     6
 74
     0
 42
0.000000001
 43
0.00000001
 40
0.0
 40
0.0
 40
0.0
 40
0.0
 40
0.5
 40
0.5
 40
1.0
 40
1.0
 40
1.0
 40
1.0
 10
1153.619255331419
 20
950.7968590477473
 30
0.0
 10
1152.476295183462
 20
950.7968590477473
 30
0.0
 10
1151.341101705719
 20
950.8131330665756
 30
0.0
 10
1149.085575373348
 20
950.8775674585846
 30
0.0
 10
1147.965239427292
 20
950.9257250358908
 30
0.0
 10
1146.851992359531
 20
950.9901662601837
 30
0.0
  0
SPLINE
  5
25C
330
1F
100
AcDbEntity
  8
0
  6
Continuous
 62
     7
370
    35
100
AcDbSpline
210
0.0
220
0.0
230
1.0
 70
     8
 71
     3
 72
    10
 73
     6
 74
     0
 42
0.000000001
 43
0.00000001
 40
0.0
 40
0.0
 40
0.0
 40
0.0
 40
0.5
 40
0.5
 40
1.0
 40
1.0
 40
1.0
 40
1.0
 10
1153.619255331419
 20
953.0468590477471
 30
0.0
 10
1152.590515598331
 20
953.0468590477471
 30
0.0
 10
1151.568836122032
 20
953.1054525847562
 30
0.0
 10
1149.538910539387
 20
953.3374152587719
 30
0.0
 10
1148.530661022621
 20
953.5107719730593
 30
0.0
 10
1147.52871865672
 20
953.7427650125187
 30
0.0
  0
SPLINE
  5
25D
330
1F
100
AcDbEntity
  8
0
  6
Continuous
 62
     7
370
    35
100
AcDbSpline
210
0.0
220
0.0
230
1.0
 70
     8
 71
     3
 72
    10
 73
     6
 74
     0
 42
0.000000001
 43
0.00000001
 40
0.0
 40
0.0
 40
0.0
 40
0.0
 40
0.5
 40
0.5
 40
1.0
 40
1.0
 40
1.0
 40
1.0
 10
1266.386518303307
 20
950.9901662601837
 30
0.0
 10
1265.273271235547
 20
950.9257250358908
 30
0.0
 10
1264.152935289491
 20
950.8775674585846
 30
0.0
 10
1261.89740895712
 20
950.8131330665756
 30
0.0
 10
1260.762215479377
 20
950.7968590477473
 30
0.0
 10
1259.619255331419
 20
950.7968590477473
 30
0.0
  0
SPLINE
  5
25E
330
1F
100
AcDbEntity
  8
0
  6
Continuous
 62
     7
370
    35
100
AcDbSpline
210
0.0
220
0.0
230
1.0
 70
     8
 71
     3
 72
    10
 73
     6
 74
     0
 42
0.000000001
 43
0.00000001
 40
0.0
 40
0.0
 40
0.0
 40
0.0
 40
0.5
 40
0.5
 40
1.0
 40
1.0
 40
1.0
 40
1.0
 10
1265.709792006119
 20
953.7427650125187
 30
0.0
 10
1264.707849640216
 20
953.510771973059
 30
0.0
 10
1263.69960012345
 20
953.3374152587716
 30
0.0
 10
1261.669674540803
 20
953.105452584756
 30
0.0
 10
1260.647995064509
 20
953.0468590477471
 30
0.0
 10
1259.619255331419
 20
953.0468590477471
 30
0.0
  0
SPLINE
  5
25F
330
1F
100
AcDbEntity
  8
0
  6
Continuous
 62
     7
370
    35
100
AcDbSpline
210
0.0
220
0.0
230
1.0
 70
     8
 71
     3
 72
    10
 73
     6
 74
     0
 42
0.000000001
 43
0.00000001
 40
0.0
 40
0.0
 40
0.0
 40
0.0
 40
0.5
 40
0.5
 40
1.0
 40
1.0
 40
1.0
 40
1.0
 10
1146.851992359532
 20
1009.103551835311
 30
0.0
 10
1147.965239427292
 20
1009.167993059604
 30
0.0
 10
1149.085575373348
 20
1009.21615063691
 30
0.0
 10
1151.341101705719
 20
1009.280585028919
 30
0.0
 10
1152.476295183462
 20
1009.296859047747
 30
0.0
 10
1153.619255331419
 20
1009.296859047747
 30
0.0
  0
SPLINE
  5
260
330
1F
100
AcDbEntity
  8
0
  6
Continuous
 62
     7
370
    35
100
AcDbSpline
210
0.0
220
0.0
230
1.0
 70
     8
 71
     3
 72
    10
 73
     6
 74
     0
 42
0.000000001
 43
0.00000001
 40
0.0
 40
0.0
 40
0.0
 40
0.0
 40
0.5
 40
0.5
 40
1.0
 40
1.0
 40
1.0
 40
1.0
 10
1147.52871865672
 20
1006.350953082976
 30
0.0
 10
1148.530661022622
 20
1006.582946122435
 30
0.0
 10
1149.538910539389
 20
1006.756302836723
 30
0.0
 10
1151.568836122036
 20
1006.988265510738
 30
0.0
 10
1152.59051559833
 20
1007.046859047747
 30
0.0
 10
1153.619255331419
 20
1007.046859047747
 30
0.0
  0
SPLINE
  5
261
330
1F
100
AcDbEntity
  8
0
  6
Continuous
 62
     7
370
    35
100
AcDbSpline
210
0.0
220
0.0
230
1.0
 70
     8
 71
     3
 72
    10
 73
     6
 74
     0
 42
0.000000001
 43
0.00000001
 40
0.0
 40
0.0
 40
0.0
 40
0.0
 40
0.5
 40
0.5
 40
1.0
 40
1.0
 40
1.0
 40
1.0
 10
1259.619255331419
 20
1009.296859047747
 30
0.0
 10
1260.762215479377
 20
1009.296859047747
 30
0.0
 10
1261.89740895712
 20
1009.280585028919
 30
0.0
 10
1264.152935289491
 20
1009.21615063691
 30
0.0
 10
1265.273271235547
 20
1009.167993059604
 30
0.0
 10
1266.386518303307
 20
1009.103551835311
 30
0.0
  0
SPLINE
  5
262
330
1F
100
AcDbEntity
  8
0
  6
Continuous
 62
     7
370
    35
100
AcDbSpline
210
0.0
220
0.0
230
1.0
 70
     8
 71
     3
 72
    10
 73
     6
 74
     0
 42
0.000000001
 43
0.00000001
 40
0.0
 40
0.0
 40
0.0
 40
0.0
 40
0.5
 40
0.5
 40
1.0
 40
1.0
 40
1.0
 40
1.0
 10
1259.619255331419
 20
1007.046859047747
 30
0.0
 10
1260.647995064508
 20
1007.046859047747
 30
0.0
 10
1261.669674540806
 20
1006.988265510738
 30
0.0
 10
1263.699600123452
 20
1006.756302836722
 30
0.0
 10
1264.707849640217
 20
1006.582946122435
 30
0.0
 10
1265.709792006118
 20
1006.350953082976
 30
0.0
  0
LINE
  5
263
330
1F
100
AcDbEntity
  8
0
  6
Continuous
 62
     7
370
    35
100
AcDbLine
 10
1153.6192553314
 20
950.7968590477
 30
0.0
 11
1259.6192553314
 21
950.7968590477
 31
0.0
  0
LINE
  5
264
330
1F
100
AcDbEntity
  8
0
  6
Continuous
 62
     7
370
    35
100
AcDbLine
 10
1259.6192553314
 20
953.0468590477
 30
0.0
 11
1153.6192553314
 21
953.0468590477
 31
0.0
  0
LINE
  5
265
330
1F
100
AcDbEntity
  8
0
  6
Continuous
 62
     7
370
    35
100
AcDbLine
 10
1259.6192553314
 20
1009.2968590477
 30
0.0
 11
1153.6192553314
 21
1009.2968590477
 31
0.0
  0
LINE
  5
266
330
1F
100
AcDbEntity
  8
0
  6
Continuous
 62
     7
370
    35
100
AcDbLine
 10
1153.6192553314
 20
1007.0468590477
 30
0.0
 11
1259.6192553314
 21
1007.0468590477
 31
0.0
  0
SPLINE
  5
267
330
1F
100
AcDbEntity
  8
0
  6
Continuous
 62
     7
370
    35
100
AcDbSpline
210
0.0
220
0.0
230
1.0
 70
     8
 71
     3
 72
     8
 73
     4
 74
     0
 42
0.000000001
 43
0.00000001
 40
0.0
 40
0.0
 40
0.0
 40
0.0
 40
1.0
 40
1.0
 40
1.0
 40
1.0
 10
1289.617916104793
 20
980.160244622874
 30
0.0
 10
1289.619701780153
 20
980.0846542394561
 30
0.0
 10
1289.619701780153
 20
980.0090638560382
 30
0.0
 10
1289.617916104793
 20
979.9334734726204
 30
0.0
  0
SPLINE
  5
268
330
1F
100
AcDbEntity
  8
0
  6
Continuous
 62
     7
370
    35
100
AcDbSpline
210
0.0
220
0.0
230
1.0
 70
     8
 71
     3
 72
     8
 73
     4
 74
     0
 42
0.000000001
 43
0.00000001
 40
0.0
 40
0.0
 40
0.0
 40
0.0
 40
1.0
 40
1.0
 40
1.0
 40
1.0
 10
1286.618050027456
 20
980.3019765917824
 30
0.0
 10
1286.61965713528
 20
980.1318982290923
 30
0.0
 10
1286.61965713528
 20
979.9618198664022
 30
0.0
 10
1286.618050027456
 20
979.791741503712
 30
0.0
  0
SPLINE
  5
269
330
1F
100
AcDbEntity
  8
0
  6
Continuous
 62
     7
370
    35
100
AcDbSpline
210
0.0
220
0.0
230
1.0
 70
     8
 71
     3
 72
     8
 73
     4
 74
     0
 42
0.000000001
 43
0.00000001
 40
0.0
 40
0.0
 40
0.0
 40
0.0
 40
0.0001133855751267
 40
0.0001133855751267
 40
0.0001133855751267
 40
0.0001133855751267
 10
1289.618921992156
 20
979.9901662601839
 30
0.0
 10
1289.619366070185
 20
980.0278980600148
 30
0.0
 10
1289.619366070185
 20
980.0658200354891
 30
0.0
 10
1289.618921992156
 20
980.10355183532
 30
0.0
  0
SPLINE
  5
26A
330
1F
100
AcDbEntity
  8
0
  6
Continuous
 62
     7
370
    35
100
AcDbSpline
210
0.0
220
0.0
230
1.0
 70
     8
 71
     3
 72
     8
 73
     4
 74
     0
 42
0.000000001
 43
0.00000001
 40
0.0
 40
0.0
 40
0.0
 40
0.0
 40
1.0
 40
1.0
 40
1.0
 40
1.0
 10
1126.620460635383
 20
979.791741503712
 30
0.0
 10
1126.618853527559
 20
979.9618198664022
 30
0.0
 10
1126.618853527559
 20
980.1318982290923
 30
0.0
 10
1126.620460635383
 20
980.3019765917824
 30
0.0
  0
SPLINE
  5
26B
330
1F
100
AcDbEntity
  8
0
  6
Continuous
 62
     7
370
    35
100
AcDbSpline
210
0.0
220
0.0
230
1.0
 70
     8
 71
     3
 72
     8
 73
     4
 74
     0
 42
0.000000001
 43
0.00000001
 40
0.0
 40
0.0
 40
0.0
 40
0.0
 40
1.0
 40
1.0
 40
1.0
 40
1.0
 10
1123.620594558046
 20
979.9334734726204
 30
0.0
 10
1123.618808882686
 20
980.0090638560382
 30
0.0
 10
1123.618808882686
 20
980.0846542394561
 30
0.0
 10
1123.620594558046
 20
980.160244622874
 30
0.0
  0
SPLINE
  5
26C
330
1F
100
AcDbEntity
  8
0
  6
Continuous
 62
     7
370
    35
100
AcDbSpline
210
0.0
220
0.0
230
1.0
 70
     8
 71
     3
 72
     8
 73
     4
 74
     0
 42
0.000000001
 43
0.00000001
 40
0.0
 40
0.0
 40
0.0
 40
0.0
 40
0.0001133855751265
 40
0.0001133855751265
 40
0.0001133855751265
 40
0.0001133855751265
 10
1123.619588670682
 20
980.1035518353106
 30
0.0
 10
1123.619144592654
 20
980.0658200354828
 30
0.0
 10
1123.619144592654
 20
980.0278980600118
 30
0.0
 10
1123.619588670682
 20
979.990166260184
 30
0.0
  0
LINE
  5
26D
330
1F
100
AcDbEntity
  8
0
  6
Continuous
 62
     7
370
    35
100
AcDbLine
 10
1249.6192553314
 20
984.9800335504
 30
0.0
 11
1250.0388564159
 21
987.8463825556
 31
0.0
  0
SPLINE
  5
26E
330
1F
100
AcDbEntity
  8
0
  6
Continuous
 62
     7
370
    35
100
AcDbSpline
210
0.0
220
0.0
230
1.0
 70
     8
 71
     3
 72
    11
 73
     7
 74
     0
 42
0.000000001
 43
0.00000001
 40
0.0
 40
0.0
 40
0.0
 40
0.0
 40
0.260621671710935
 40
0.4632004480822299
 40
0.6713667795608215
 40
0.9999999999999999
 40
0.9999999999999999
 40
0.9999999999999999
 40
0.9999999999999999
 10
1250.038856415922
 20
987.8463825556291
 30
0.0
 10
1250.405737786583
 20
988.8481007354395
 30
0.0
 10
1251.057792599092
 20
990.6284450433177
 30
0.0
 10
1252.595157460915
 20
992.8834446653805
 30
0.0
 10
1254.609923245411
 20
995.0980788457329
 30
0.0
 10
1256.455251331249
 20
996.2185409437046
 30
0.0
 10
1257.584976774292
 20
996.9044973054806
 30
0.0
  0
SPLINE
  5
26F
330
1F
100
AcDbEntity
  8
0
  6
Continuous
 62
     7
370
    35
100
AcDbSpline
210
0.0
220
0.0
230
1.0
 70
     8
 71
     3
 72
    16
 73
    12
 74
     0
 42
0.000000001
 43
0.00000001
 40
0.0
 40
0.0
 40
0.0
 40
0.0
 40
0.6093642604521664
 40
0.7233750503883752
 40
0.8172213162021824
 40
0.8496365726798861
 40
0.8823612341657231
 40
0.9067814804504435
 40
0.9311421346358173
 40
0.9706402276081946
 40
0.9999999999999999
 40
0.9999999999999999
 40
0.9999999999999999
 40
0.9999999999999999
 10
1257.584976774292
 20
996.9044973054806
 30
0.0
 10
1258.161811043881
 20
997.2021523814304
 30
0.0
 10
1258.84656980955
 20
997.5554981050602
 30
0.0
 10
1259.513812780734
 20
998.0812364287178
 30
0.0
 10
1259.684066178712
 20
998.2663894387721
 30
0.0
 10
1259.752339639389
 20
998.4150457389438
 30
0.0
 10
1259.763978780383
 20
998.5086464043256
 30
0.0
 10
1259.739453332169
 20
998.5926090893337
 30
0.0
 10
1259.683190624526
 20
998.6707480765069
 30
0.0
 10
1259.600118461861
 20
998.7329452723421
 30
0.0
 10
1259.531697593416
 20
998.7648352015716
 30
0.0
 10
1259.502524148759
 20
998.7784325017319
 30
0.0
  0
SPLINE
  5
270
330
1F
100
AcDbEntity
  8
0
  6
Continuous
 62
     7
370
    35
100
AcDbSpline
210
0.0
220
0.0
230
1.0
 70
     8
 71
     3
 72
    13
 73
     9
 74
     0
 42
0.000000001
 43
0.00000001
 40
0.0
 40
0.0
 40
0.0
 40
0.0
 40
0.1585077763893688
 40
0.316838082363376
 40
0.479171669521783
 40
0.6493085002788166
 40
0.8235953482372508
 40
1.0
 40
1.0
 40
1.0
 40
1.0
 10
1272.146867568579
 20
984.3680117082226
 30
0.0
 10
1271.85429241482
 20
985.3783371600293
 30
0.0
 10
1271.269469683873
 20
987.3978568707026
 30
0.0
 10
1269.773443132186
 20
990.2184596222642
 30
0.0
 10
1267.846764462481
 20
992.8485104302487
 30
0.0
 10
1265.447690064702
 20
995.211443026497
 30
0.0
 10
1262.655363791968
 20
997.2673353715733
 30
0.0
 10
1260.557693263082
 20
998.2727096610797
 30
0.0
 10
1259.502524148759
 20
998.7784325017319
 30
0.0
  0
SPLINE
  5
271
330
1F
100
AcDbEntity
  8
0
  6
Continuous
 62
     7
370
    35
100
AcDbSpline
210
0.0
220
0.0
230
1.0
 70
     8
 71
     3
 72
     9
 73
     5
 74
     0
 42
0.000000001
 43
0.00000001
 40
0.0
 40
0.0
 40
0.0
 40
0.0
 40
0.4230848072461933
 40
1.0
 40
1.0
 40
1.0
 40
1.0
 10
1272.146867568579
 20
984.3680117082226
 30
0.0
 10
1272.372987974837
 20
983.1532960840676
 30
0.0
 10
1272.907444429867
 20
980.2822035670345
 30
0.0
 10
1272.425124984419
 20
977.3927031039153
 30
0.0
 10
1272.146867568579
 20
975.7257063872729
 30
0.0
  0
SPLINE
  5
272
330
1F
100
AcDbEntity
  8
0
  6
Continuous
 62
     7
370
    35
100
AcDbSpline
210
0.0
220
0.0
230
1.0
 70
     8
 71
     3
 72
    13
 73
     9
 74
     0
 42
0.000000001
 43
0.00000001
 40
0.0
 40
0.0
 40
0.0
 40
0.0
 40
0.158507776389374
 40
0.3168380823633749
 40
0.4791716695217824
 40
0.6493085002788167
 40
0.8235953482372501
 40
1.0
 40
1.0
 40
1.0
 40
1.0
 10
1272.146867568579
 20
975.7257063872729
 30
0.0
 10
1271.85429241482
 20
974.7153809354662
 30
0.0
 10
1271.269469683873
 20
972.6958612247928
 30
0.0
 10
1269.773443132186
 20
969.8752584732314
 30
0.0
 10
1267.846764462481
 20
967.2452076652469
 30
0.0
 10
1265.447690064702
 20
964.8822750689985
 30
0.0
 10
1262.655363791968
 20
962.8263827239224
 30
0.0
 10
1260.557693263082
 20
961.8210084344158
 30
0.0
 10
1259.502524148759
 20
961.3152855937636
 30
0.0
  0
SPLINE
  5
273
330
1F
100
AcDbEntity
  8
0
  6
Continuous
 62
     7
370
    35
100
AcDbSpline
210
0.0
220
0.0
230
1.0
 70
     8
 71
     3
 72
    16
 73
    12
 74
     0
 42
0.000000001
 43
0.00000001
 40
0.0
 40
0.0
 40
0.0
 40
0.0
 40
0.6093642604521449
 40
0.72337505038836
 40
0.8172213162021722
 40
0.8496365726798777
 40
0.8823612341657165
 40
0.9067814804504384
 40
0.9311421346358134
 40
0.9706402276081929
 40
0.9999999999999999
 40
0.9999999999999999
 40
0.9999999999999999
 40
0.9999999999999999
 10
1257.584976774292
 20
963.1892207900146
 30
0.0
 10
1258.161811043881
 20
962.8915657140649
 30
0.0
 10
1258.84656980955
 20
962.5382199904354
 30
0.0
 10
1259.513812780734
 20
962.0124816667778
 30
0.0
 10
1259.684066178712
 20
961.8273286567235
 30
0.0
 10
1259.752339639389
 20
961.6786723565517
 30
0.0
 10
1259.763978780383
 20
961.58507169117
 30
0.0
 10
1259.739453332169
 20
961.501109006162
 30
0.0
 10
1259.683190624526
 20
961.4229700189887
 30
0.0
 10
1259.600118461861
 20
961.3607728231535
 30
0.0
 10
1259.531697593416
 20
961.3288828939242
 30
0.0
 10
1259.502524148759
 20
961.3152855937636
 30
0.0
  0
SPLINE
  5
274
330
1F
100
AcDbEntity
  8
0
  6
Continuous
 62
     7
370
    35
100
AcDbSpline
210
0.0
220
0.0
230
1.0
 70
     8
 71
     3
 72
    11
 73
     7
 74
     0
 42
0.000000001
 43
0.00000001
 40
0.0
 40
0.0
 40
0.0
 40
0.0
 40
0.2606216717109254
 40
0.4632004480822215
 40
0.6713667795608044
 40
1.0
 40
1.0
 40
1.0
 40
1.0
 10
1250.038856415922
 20
972.2473355398662
 30
0.0
 10
1250.405737786583
 20
971.2456173600559
 30
0.0
 10
1251.057792599092
 20
969.4652730521777
 30
0.0
 10
1252.595157460915
 20
967.210273430115
 30
0.0
 10
1254.609923245411
 20
964.9956392497629
 30
0.0
 10
1256.455251331249
 20
963.8751771517909
 30
0.0
 10
1257.584976774292
 20
963.1892207900146
 30
0.0
  0
LINE
  5
275
330
1F
100
AcDbEntity
  8
0
  6
Continuous
 62
     7
370
    35
100
AcDbLine
 10
1249.6192553314
 20
975.1136845451
 30
0.0
 11
1250.0388564159
 21
972.2473355399
 31
0.0
  0
LINE
  5
276
330
1F
100
AcDbEntity
  8
0
  6
Continuous
 62
     7
370
    35
100
AcDbLine
 10
1249.6192553314
 20
984.9800335504
 30
0.0
 11
1249.6192553314
 21
975.1136845451
 31
0.0
  0
LINE
  5
277
330
1F
100
AcDbEntity
  8
0
  6
Continuous
 62
     7
370
    35
100
AcDbLine
 10
1163.6192553314
 20
975.1136845451
 30
0.0
 11
1163.1996542469
 21
972.2473355399
 31
0.0
  0
SPLINE
  5
278
330
1F
100
AcDbEntity
  8
0
  6
Continuous
 62
     7
370
    35
100
AcDbSpline
210
0.0
220
0.0
230
1.0
 70
     8
 71
     3
 72
    11
 73
     7
 74
     0
 42
0.000000001
 43
0.00000001
 40
0.0
 40
0.0
 40
0.0
 40
0.0
 40
0.2606216717109249
 40
0.4632004480822203
 40
0.6713667795608136
 40
1.0
 40
1.0
 40
1.0
 40
1.0
 10
1163.199654246918
 20
972.2473355398657
 30
0.0
 10
1162.832772876256
 20
971.2456173600555
 30
0.0
 10
1162.180718063747
 20
969.4652730521773
 30
0.0
 10
1160.643353201924
 20
967.2102734301145
 30
0.0
 10
1158.628587417428
 20
964.9956392497623
 30
0.0
 10
1156.783259331591
 20
963.8751771517904
 30
0.0
 10
1155.653533888547
 20
963.1892207900141
 30
0.0
  0
SPLINE
  5
279
330
1F
100
AcDbEntity
  8
0
  6
Continuous
 62
     7
370
    35
100
AcDbSpline
210
0.0
220
0.0
230
1.0
 70
     8
 71
     3
 72
    16
 73
    12
 74
     0
 42
0.000000001
 43
0.00000001
 40
0.0
 40
0.0
 40
0.0
 40
0.0
 40
0.6093642604521672
 40
0.7233750503883759
 40
0.8172213162021829
 40
0.8496365726798865
 40
0.8823612341657234
 40
0.9067814804504438
 40
0.9311421346358175
 40
0.9706402276081948
 40
1.0
 40
1.0
 40
1.0
 40
1.0
 10
1155.653533888547
 20
963.1892207900141
 30
0.0
 10
1155.076699618958
 20
962.8915657140643
 30
0.0
 10
1154.391940853289
 20
962.5382199904348
 30
0.0
 10
1153.724697882106
 20
962.012481666777
 30
0.0
 10
1153.554444484128
 20
961.8273286567228
 30
0.0
 10
1153.486171023451
 20
961.6786723565509
 30
0.0
 10
1153.474531882457
 20
961.5850716911692
 30
0.0
 10
1153.49905733067
 20
961.5011090061612
 30
0.0
 10
1153.555320038314
 20
961.422970018988
 30
0.0
 10
1153.638392200977
 20
961.3607728231527
 30
0.0
 10
1153.706813069423
 20
961.3288828939233
 30
0.0
 10
1153.73598651408
 20
961.3152855937628
 30
0.0
  0
SPLINE
  5
27A
330
1F
100
AcDbEntity
  8
0
  6
Continuous
 62
     7
370
    35
100
AcDbSpline
210
0.0
220
0.0
230
1.0
 70
     8
 71
     3
 72
    13
 73
     9
 74
     0
 42
0.000000001
 43
0.00000001
 40
0.0
 40
0.0
 40
0.0
 40
0.0
 40
0.1585077763893664
 40
0.3168380823633643
 40
0.4791716695217869
 40
0.6493085002788177
 40
0.8235953482372534
 40
1.0
 40
1.0
 40
1.0
 40
1.0
 10
1141.09164309426
 20
975.7257063872722
 30
0.0
 10
1141.384218248019
 20
974.7153809354655
 30
0.0
 10
1141.969040978965
 20
972.6958612247922
 30
0.0
 10
1143.465067530653
 20
969.8752584732306
 30
0.0
 10
1145.391746200359
 20
967.2452076652465
 30
0.0
 10
1147.790820598137
 20
964.882275068998
 30
0.0
 10
1150.583146870872
 20
962.8263827239216
 30
0.0
 10
1152.680817399758
 20
961.8210084344151
 30
0.0
 10
1153.73598651408
 20
961.3152855937628
 30
0.0
  0
SPLINE
  5
27B
330
1F
100
AcDbEntity
  8
0
  6
Continuous
 62
     7
370
    35
100
AcDbSpline
210
0.0
220
0.0
230
1.0
 70
     8
 71
     3
 72
     9
 73
     5
 74
     0
 42
0.000000001
 43
0.00000001
 40
0.0
 40
0.0
 40
0.0
 40
0.0
 40
0.4230848072461851
 40
1.0
 40
1.0
 40
1.0
 40
1.0
 10
1141.09164309426
 20
984.3680117082221
 30
0.0
 10
1140.865522688002
 20
983.153296084067
 30
0.0
 10
1140.331066232972
 20
980.2822035670338
 30
0.0
 10
1140.81338567842
 20
977.3927031039148
 30
0.0
 10
1141.09164309426
 20
975.7257063872722
 30
0.0
  0
SPLINE
  5
27C
330
1F
100
AcDbEntity
  8
0
  6
Continuous
 62
     7
370
    35
100
AcDbSpline
210
0.0
220
0.0
230
1.0
 70
     8
 71
     3
 72
    13
 73
     9
 74
     0
 42
0.000000001
 43
0.00000001
 40
0.0
 40
0.0
 40
0.0
 40
0.0
 40
0.1585077763893707
 40
0.3168380823633751
 40
0.4791716695217975
 40
0.6493085002788284
 40
0.8235953482372538
 40
1.0
 40
1.0
 40
1.0
 40
1.0
 10
1141.09164309426
 20
984.3680117082221
 30
0.0
 10
1141.384218248019
 20
985.3783371600288
 30
0.0
 10
1141.969040978965
 20
987.3978568707021
 30
0.0
 10
1143.465067530652
 20
990.2184596222638
 30
0.0
 10
1145.391746200359
 20
992.8485104302479
 30
0.0
 10
1147.790820598137
 20
995.2114430264966
 30
0.0
 10
1150.583146870872
 20
997.2673353715725
 30
0.0
 10
1152.680817399758
 20
998.272709661079
 30
0.0
 10
1153.73598651408
 20
998.7784325017312
 30
0.0
  0
SPLINE
  5
27D
330
1F
100
AcDbEntity
  8
0
  6
Continuous
 62
     7
370
    35
100
AcDbSpline
210
0.0
220
0.0
230
1.0
 70
     8
 71
     3
 72
    16
 73
    12
 74
     0
 42
0.000000001
 43
0.00000001
 40
0.0
 40
0.0
 40
0.0
 40
0.0
 40
0.609364260452144
 40
0.7233750503883595
 40
0.8172213162021719
 40
0.8496365726798775
 40
0.8823612341657163
 40
0.9067814804504382
 40
0.9311421346358133
 40
0.9706402276081929
 40
0.9999999999999999
 40
0.9999999999999999
 40
0.9999999999999999
 40
0.9999999999999999
 10
1155.653533888547
 20
996.9044973054803
 30
0.0
 10
1155.076699618958
 20
997.2021523814299
 30
0.0
 10
1154.391940853289
 20
997.5554981050594
 30
0.0
 10
1153.724697882106
 20
998.081236428717
 30
0.0
 10
1153.554444484128
 20
998.2663894387714
 30
0.0
 10
1153.486171023451
 20
998.4150457389431
 30
0.0
 10
1153.474531882457
 20
998.5086464043248
 30
0.0
 10
1153.49905733067
 20
998.592609089333
 30
0.0
 10
1153.555320038314
 20
998.6707480765061
 30
0.0
 10
1153.638392200978
 20
998.7329452723413
 30
0.0
 10
1153.706813069423
 20
998.7648352015707
 30
0.0
 10
1153.73598651408
 20
998.7784325017312
 30
0.0
  0
SPLINE
  5
27E
330
1F
100
AcDbEntity
  8
0
  6
Continuous
 62
     7
370
    35
100
AcDbSpline
210
0.0
220
0.0
230
1.0
 70
     8
 71
     3
 72
    11
 73
     7
 74
     0
 42
0.000000001
 43
0.00000001
 40
0.0
 40
0.0
 40
0.0
 40
0.0
 40
0.2606216717109358
 40
0.4632004480822308
 40
0.6713667795608114
 40
1.0
 40
1.0
 40
1.0
 40
1.0
 10
1163.199654246918
 20
987.8463825556287
 30
0.0
 10
1162.832772876256
 20
988.8481007354391
 30
0.0
 10
1162.180718063747
 20
990.6284450433174
 30
0.0
 10
1160.643353201924
 20
992.8834446653801
 30
0.0
 10
1158.628587417428
 20
995.0980788457322
 30
0.0
 10
1156.783259331591
 20
996.218540943704
 30
0.0
 10
1155.653533888548
 20
996.9044973054803
 30
0.0
  0
LINE
  5
27F
330
1F
100
AcDbEntity
  8
0
  6
Continuous
 62
     7
370
    35
100
AcDbLine
 10
1163.6192553314
 20
984.9800335504
 30
0.0
 11
1163.1996542469
 21
987.8463825556
 31
0.0
  0
LINE
  5
280
330
1F
100
AcDbEntity
  8
0
  6
Continuous
 62
     7
370
    35
100
AcDbLine
 10
1163.6192553314
 20
984.9800335504
 30
0.0
 11
1163.6192553314
 21
975.1136845451
 31
0.0
  0
SPLINE
  5
281
330
1F
100
AcDbEntity
  8
0
  6
Continuous
 62
     7
370
    35
100
AcDbSpline
210
0.0
220
0.0
230
1.0
 70
     8
 71
     3
 72
    17
 73
    13
 74
     0
 42
0.000000001
 43
0.00000001
 40
0.0
 40
0.0
 40
0.0
 40
0.0
 40
0.0364925733413335
 40
0.1833587448077208
 40
0.2877156143828499
 40
0.3934837304905567
 40
0.4992474923956488
 40
0.6063189697897134
 40
0.7133499989193062
 40
0.8177518468878913
 40
0.9088657685707867
 40
1.0
 40
1.0
 40
1.0
 40
1.0
 10
1259.61925533142
 20
1001.788131515283
 30
0.0
 10
1260.03406096742
 20
1001.78032685234
 30
0.0
 10
1262.118272460116
 20
1001.741111936267
 30
0.0
 10
1265.37385078021
 20
1001.152928197493
 30
0.0
 10
1269.174498668001
 20
999.687997746736
 30
0.0
 10
1272.271928465894
 20
997.8369548725473
 30
0.0
 10
1275.060543167963
 20
995.5002183818004
 30
0.0
 10
1277.414162318106
 20
992.7049351978256
 30
0.0
 10
1279.268592723762
 20
989.5751389510391
 30
0.0
 10
1280.512016959825
 20
986.3536909821245
 30
0.0
 10
1281.223864740964
 20
983.1568148371254
 30
0.0
 10
1281.313090280511
 20
981.0835879910529
 30
0.0
 10
1281.357708021935
 20
980.0468590477477
 30
0.0
  0
SPLINE
  5
282
330
1F
100
AcDbEntity
  8
0
  6
Continuous
 62
     7
370
    35
100
AcDbSpline
210
0.0
220
0.0
230
1.0
 70
     8
 71
     3
 72
    17
 73
    13
 74
     0
 42
0.000000001
 43
0.00000001
 40
0.0
 40
0.0
 40
0.0
 40
0.0
 40
0.0364925733413334
 40
0.1833587448077203
 40
0.2877156143828387
 40
0.3934837304905536
 40
0.4992474923956542
 40
0.6063189697897186
 40
0.7133499989193111
 40
0.8177518468878916
 40
0.9088657685707869
 40
1.0
 40
1.0
 40
1.0
 40
1.0
 10
1153.619255331419
 20
958.3055865802118
 30
0.0
 10
1153.204449695419
 20
958.3133912431548
 30
0.0
 10
1151.120238202722
 20
958.3526061592277
 30
0.0
 10
1147.864659882629
 20
958.9407898980014
 30
0.0
 10
1144.064011994838
 20
960.405720348759
 30
0.0
 10
1140.966582196945
 20
962.2567632229477
 30
0.0
 10
1138.177967494875
 20
964.5934997136945
 30
0.0
 10
1135.824348344732
 20
967.3887828976693
 30
0.0
 10
1133.969917939077
 20
970.5185791444561
 30
0.0
 10
1132.726493703014
 20
973.7400271133705
 30
0.0
 10
1132.014645921875
 20
976.9369032583697
 30
0.0
 10
1131.925420382328
 20
979.0101301044419
 30
0.0
 10
1131.880802640904
 20
980.046859047747
 30
0.0
  0
SPLINE
  5
283
330
1F
100
AcDbEntity
  8
0
  6
Continuous
 62
     7
370
    35
100
AcDbSpline
210
0.0
220
0.0
230
1.0
 70
     8
 71
     3
 72
    17
 73
    13
 74
     0
 42
0.000000001
 43
0.00000001
 40
0.0
 40
0.0
 40
0.0
 40
0.0
 40
0.0364925733413331
 40
0.1833587448077185
 40
0.2877156143828463
 40
0.3934837304905598
 40
0.4992474923956574
 40
0.6063189697897207
 40
0.7133499989193121
 40
0.8177518468878932
 40
0.9088657685707877
 40
1.0
 40
1.0
 40
1.0
 40
1.0
 10
1153.61925533142
 20
1001.788131515282
 30
0.0
 10
1153.20444969542
 20
1001.780326852339
 30
0.0
 10
1151.120238202723
 20
1001.741111936267
 30
0.0
 10
1147.864659882629
 20
1001.152928197493
 30
0.0
 10
1144.064011994838
 20
999.6879977467352
 30
0.0
 10
1140.966582196945
 20
997.8369548725465
 30
0.0
 10
1138.177967494875
 20
995.5002183817998
 30
0.0
 10
1135.824348344732
 20
992.704935197825
 30
0.0
 10
1133.969917939077
 20
989.5751389510382
 30
0.0
 10
1132.726493703014
 20
986.3536909821238
 30
0.0
 10
1132.014645921875
 20
983.1568148371246
 30
0.0
 10
1131.925420382328
 20
981.0835879910522
 30
0.0
 10
1131.880802640904
 20
980.046859047747
 30
0.0
  0
SPLINE
  5
284
330
1F
100
AcDbEntity
  8
0
  6
Continuous
 62
     7
370
    35
100
AcDbSpline
210
0.0
220
0.0
230
1.0
 70
     8
 71
     3
 72
    17
 73
    13
 74
     0
 42
0.000000001
 43
0.00000001
 40
0.0
 40
0.0
 40
0.0
 40
0.0
 40
0.0364925733413333
 40
0.1833587448077195
 40
0.2877156143828584
 40
0.3934837304905659
 40
0.4992474923956585
 40
0.6063189697897224
 40
0.7133499989193145
 40
0.817751846887892
 40
0.9088657685707872
 40
1.0
 40
1.0
 40
1.0
 40
1.0
 10
1259.619255331419
 20
958.3055865802125
 30
0.0
 10
1260.034060967419
 20
958.3133912431555
 30
0.0
 10
1262.118272460116
 20
958.3526061592283
 30
0.0
 10
1265.37385078021
 20
958.9407898980025
 30
0.0
 10
1269.174498668001
 20
960.4057203487596
 30
0.0
 10
1272.271928465894
 20
962.2567632229485
 30
0.0
 10
1275.060543167963
 20
964.5934997136955
 30
0.0
 10
1277.414162318106
 20
967.3887828976701
 30
0.0
 10
1279.268592723761
 20
970.5185791444568
 30
0.0
 10
1280.512016959825
 20
973.7400271133712
 30
0.0
 10
1281.223864740964
 20
976.9369032583702
 30
0.0
 10
1281.313090280511
 20
979.0101301044426
 30
0.0
 10
1281.357708021935
 20
980.0468590477477
 30
0.0
  0
LINE
  5
285
330
1F
100
AcDbEntity
  8
0
  6
Continuous
 62
     7
370
    35
100
AcDbLine
 10
1249.7754265216
 20
986.0468590477
 30
0.0
 11
1163.4630841412
 21
986.0468590477
 31
0.0
  0
LINE
  5
286
330
1F
100
AcDbEntity
  8
0
  6
Continuous
 62
     7
370
    35
100
AcDbLine
 10
1249.7754265216
 20
974.0468590477
 30
0.0
 11
1163.4630841412
 21
974.0468590477
 31
0.0
  0
LINE
  5
287
330
1F
100
AcDbEntity
  8
0
  6
Continuous
 62
     7
370
    35
100
AcDbLine
 10
1153.6192553314
 20
958.3055865802
 30
0.0
 11
1259.6192553314
 21
958.3055865802
 31
0.0
  0
LINE
  5
288
330
1F
100
AcDbEntity
  8
0
  6
Continuous
 62
     7
370
    35
100
AcDbLine
 10
1153.6192553314
 20
1001.7881315153
 30
0.0
 11
1259.6192553314
 21
1001.7881315153
 31
0.0
  0
ARC
  5
289
330
1F
100
AcDbEntity
  8
0
  6
Continuous
 62
     7
370
    35
100
AcDbCircle
 10
1259.6192553314
 20
980.0468590477
 30
0.0
 40
21.74999999999989
100
AcDbArc
 50
270.0
 51
90.0
  0
LINE
  5
28A
330
1F
100
AcDbEntity
  8
0
  6
Continuous
 62
     7
370
    35
100
AcDbLine
 10
1153.6192553314
 20
1001.7968590477
 30
0.0
 11
1259.6192553314
 21
1001.7968590477
 31
0.0
  0
ARC
  5
28B
330
1F
100
AcDbEntity
  8
0
  6
Continuous
 62
     7
370
    35
100
AcDbCircle
 10
1153.6192553314
 20
980.0468590477
 30
0.0
 40
21.74999999999989
100
AcDbArc
 50
90.0
 51
270.0
  0
LINE
  5
28C
330
1F
100
AcDbEntity
  8
0
  6
Continuous
 62
     7
370
    35
100
AcDbLine
 10
1153.6192553314
 20
958.2968590477
 30
0.0
 11
1259.6192553314
 21
958.2968590477
 31
0.0
  0
LINE
  5
28D
330
1F
100
AcDbEntity
  8
0
  6
Continuous
 62
     7
370
    35
100
AcDbLine
 10
1546.6192553314
 20
1045.5468590478
 30
0.0
 11
1569.1192553314
 21
1045.5468590478
 31
0.0
  0
ARC
  5
28E
330
1F
100
AcDbEntity
  8
0
  6
Continuous
 62
     7
370
    35
100
AcDbCircle
 10
1569.1192553314
 20
1035.5468590478
 30
0.0
 40
10.00000000000045
100
AcDbArc
 50
0.0
 51
90.0
  0
LINE
  5
28F
330
1F
100
AcDbEntity
  8
0
  6
Continuous
 62
     7
370
    35
100
AcDbLine
 10
1579.1192553314
 20
1035.5468590478
 30
0.0
 11
1579.1192553314
 21
924.5468590477
 31
0.0
  0
ARC
  5
290
330
1F
100
AcDbEntity
  8
0
  6
Continuous
 62
     7
370
    35
100
AcDbCircle
 10
1569.1192553314
 20
924.5468590477
 30
0.0
 40
10.0
100
AcDbArc
 50
270.0
 51
0.0
  0
LINE
  5
291
330
1F
100
AcDbEntity
  8
0
  6
Continuous
 62
     7
370
    35
100
AcDbLine
 10
1569.1192553314
 20
914.5468590477
 30
0.0
 11
1546.6192553314
 21
914.5468590477
 31
0.0
  0
LINE
  5
292
330
1F
100
AcDbEntity
  8
0
  6
Continuous
 62
     7
370
    35
100
AcDbLine
 10
866.6192553314
 20
914.5468590477
 30
0.0
 11
844.1192553314
 21
914.5468590477
 31
0.0
  0
ARC
  5
293
330
1F
100
AcDbEntity
  8
0
  6
Continuous
 62
     7
370
    35
100
AcDbCircle
 10
844.1192553314
 20
924.5468590477
 30
0.0
 40
10.00000000000057
100
AcDbArc
 50
180.0
 51
270.0
  0
LINE
  5
294
330
1F
100
AcDbEntity
  8
0
  6
Continuous
 62
     7
370
    35
100
AcDbLine
 10
834.1192553314
 20
924.5468590477
 30
0.0
 11
834.1192553314
 21
1035.5468590478
 31
0.0
  0
LINE
  5
295
330
1F
100
AcDbEntity
  8
0
  6
Continuous
 62
     7
370
    35
100
AcDbLine
 10
844.1192553314
 20
1045.5468590478
 30
0.0
 11
866.6192553314
 21
1045.5468590478
 31
0.0
  0
ARC
  5
296
330
1F
100
AcDbEntity
  8
0
  6
Continuous
 62
     7
370
    35
100
AcDbCircle
 10
844.1192553314
 20
1035.5468590478
 30
0.0
 40
10.0
100
AcDbArc
 50
90.0
 51
180.0
  0
LINE
  5
297
330
1F
100
AcDbEntity
  8
0
  6
Continuous
 62
     7
370
    35
100
AcDbLine
 10
1546.6192553314
 20
1015.0468590477
 30
0.0
 11
1548.6192553314
 21
1015.0468590477
 31
0.0
  0
LINE
  5
298
330
1F
100
AcDbEntity
  8
0
  6
Continuous
 62
     7
370
    35
100
AcDbLine
 10
1548.6192553314
 20
1015.0468590477
 30
0.0
 11
1548.6192553314
 21
945.0468590477
 31
0.0
  0
LINE
  5
299
330
1F
100
AcDbEntity
  8
0
  6
Continuous
 62
     7
370
    35
100
AcDbLine
 10
1548.6192553314
 20
945.0468590477
 30
0.0
 11
1546.6192553314
 21
945.0468590477
 31
0.0
  0
LINE
  5
29A
330
1F
100
AcDbEntity
  8
0
  6
Continuous
 62
     7
370
    35
100
AcDbLine
 10
1546.6192553314
 20
945.0468590477
 30
0.0
 11
1546.6192553314
 21
945.1326454854
 31
0.0
  0
LINE
  5
29B
330
1F
100
AcDbEntity
  8
0
  6
Continuous
 62
     7
370
    35
100
AcDbLine
 10
1546.6192553314
 20
947.9610726101
 30
0.0
 11
1546.6192553314
 21
1012.1326454854
 31
0.0
  0
LINE
  5
29C
330
1F
100
AcDbEntity
  8
0
  6
Continuous
 62
     7
370
    35
100
AcDbLine
 10
1546.6192553314
 20
1014.9610726101
 30
0.0
 11
1546.6192553314
 21
1015.0468590477
 31
0.0
  0
LINE
  5
29D
330
1F
100
AcDbEntity
  8
0
  6
Continuous
 62
     7
370
    35
100
AcDbLine
 10
866.6192553314
 20
945.0468590477
 30
0.0
 11
864.6192553314
 21
945.0468590477
 31
0.0
  0
LINE
  5
29E
330
1F
100
AcDbEntity
  8
0
  6
Continuous
 62
     7
370
    35
100
AcDbLine
 10
864.6192553314
 20
945.0468590477
 30
0.0
 11
864.6192553314
 21
1015.0468590477
 31
0.0
  0
LINE
  5
29F
330
1F
100
AcDbEntity
  8
0
  6
Continuous
 62
     7
370
    35
100
AcDbLine
 10
864.6192553314
 20
1015.0468590477
 30
0.0
 11
866.6192553314
 21
1015.0468590477
 31
0.0
  0
LINE
  5
2A0
330
1F
100
AcDbEntity
  8
0
  6
Continuous
 62
     7
370
    35
100
AcDbLine
 10
866.6192553314
 20
1015.0468590477
 30
0.0
 11
866.6192553314
 21
1014.9610726101
 31
0.0
  0
LINE
  5
2A1
330
1F
100
AcDbEntity
  8
0
  6
Continuous
 62
     7
370
    35
100
AcDbLine
 10
866.6192553314
 20
1012.1326454854
 30
0.0
 11
866.6192553314
 21
947.9610726101
 31
0.0
  0
LINE
  5
2A2
330
1F
100
AcDbEntity
  8
0
  6
Continuous
 62
     7
370
    35
100
AcDbLine
 10
866.6192553314
 20
945.1326454854
 30
0.0
 11
866.6192553314
 21
945.0468590477
 31
0.0
  0
LINE
  5
2A3
330
1F
100
AcDbEntity
  8
0
  6
Continuous
 62
     8
370
    18
100
AcDbLine
 10
1546.6192553314
 20
1016.0468590477
 30
0.0
 11
866.6192553314
 21
1016.0468590477
 31
0.0
  0
LINE
  5
2A4
330
1F
100
AcDbEntity
  8
0
  6
Continuous
 62
     8
370
    18
100
AcDbLine
 10
866.6192553314
 20
944.0468590477
 30
0.0
 11
1546.6192553314
 21
944.0468590477
 31
0.0
  0
LINE
  5
2A5
330
1F
100
AcDbEntity
  8
0
  6
Continuous
 62
     8
370
    18
100
AcDbLine
 10
866.6192553314
 20
1011.1035518353
 30
0.0
 11
1546.6192553314
 21
1011.1035518353
 31
0.0
  0
LINE
  5
2A6
330
1F
100
AcDbEntity
  8
0
  6
Continuous
 62
     8
370
    18
100
AcDbLine
 10
866.6192553314
 20
948.9901662602
 30
0.0
 11
1546.6192553314
 21
948.9901662602
 31
0.0
  0
LINE
  5
2A7
330
1F
100
AcDbEntity
  8
0
  6
Continuous
 62
     8
370
    18
100
AcDbLine
 10
866.6192553314
 20
980.1035518353
 30
0.0
 11
1123.6195886707
 21
980.1035518353
 31
0.0
  0
LINE
  5
2A8
330
1F
100
AcDbEntity
  8
0
  6
Continuous
 62
     8
370
    18
100
AcDbLine
 10
1289.6189219922
 20
980.1035518353
 30
0.0
 11
1546.6192553314
 21
980.1035518353
 31
0.0
  0
LINE
  5
2A9
330
1F
100
AcDbEntity
  8
0
  6
Continuous
 62
     8
370
    18
100
AcDbLine
 10
1289.6179161048
 20
980.1604462095
 30
0.0
 11
1289.6179161048
 21
980.1602446229
 31
0.0
  0
ARC
  5
2AA
330
1F
100
AcDbEntity
  8
0
  6
Continuous
 62
     8
370
    18
100
AcDbCircle
 10
1213.3695447311
 20
939.4154312937
 30
0.0
 40
54.26577168251193
100
AcDbArc
 50
12.3156445559
 51
15.3088218734
  0
ARC
  5
2AB
330
1F
100
AcDbEntity
  8
0
  6
Continuous
 62
     8
370
    18
100
AcDbCircle
 10
1288.7449074024
 20
966.5932719672
 30
0.0
 40
13.36873667926915
100
AcDbArc
 50
86.2557918319
 51
99.1541892989
  0
LINE
  5
2AC
330
1F
100
AcDbEntity
  8
0
  6
Continuous
 62
     8
370
    18
100
AcDbLine
 10
1289.6179161048
 20
979.933271886
 30
0.0
 11
1289.6179161048
 21
979.9334734726
 31
0.0
  0
ARC
  5
2AD
330
1F
100
AcDbEntity
  8
0
  6
Continuous
 62
     8
370
    18
100
AcDbCircle
 10
1124.4936032604
 20
966.5932719672
 30
0.0
 40
13.3687366792604
100
AcDbArc
 50
80.8458107011
 51
93.7442081681
  0
ARC
  5
2AE
330
1F
100
AcDbEntity
  8
0
  6
Continuous
 62
     8
370
    18
100
AcDbCircle
 10
1199.8689659316
 20
939.4154312937
 30
0.0
 40
54.26577168235371
100
AcDbArc
 50
164.6911781266
 51
167.6843554441
  0
LINE
  5
2AF
330
1F
100
AcDbEntity
  8
0
  6
Continuous
 62
     8
370
    18
100
AcDbLine
 10
1123.620594558
 20
979.933271886
 30
0.0
 11
1123.620594558
 21
979.9334734726
 31
0.0
  0
ARC
  5
2B0
330
1F
100
AcDbEntity
  8
0
  6
Continuous
 62
     8
370
    18
100
AcDbCircle
 10
1288.7449074024
 20
993.5004461283
 30
0.0
 40
13.3687366792491
100
AcDbArc
 50
260.8458107011
 51
273.7442081681
  0
ARC
  5
2B1
330
1F
100
AcDbEntity
  8
0
  6
Continuous
 62
     8
370
    18
100
AcDbCircle
 10
1213.3695447313
 20
1020.6782868018
 30
0.0
 40
54.26577168236105
100
AcDbArc
 50
344.6911781266
 51
347.6843554441
  0
LINE
  5
2B2
330
1F
100
AcDbEntity
  8
0
  6
Continuous
 62
     8
370
    18
100
AcDbLine
 10
1123.620594558
 20
980.1604462095
 30
0.0
 11
1123.620594558
 21
980.1602446229
 31
0.0
  0
ARC
  5
2B3
330
1F
100
AcDbEntity
  8
0
  6
Continuous
 62
     8
370
    18
100
AcDbCircle
 10
1199.8689659316
 20
1020.6782868018
 30
0.0
 40
54.26577168236127
100
AcDbArc
 50
192.3156445559
 51
195.3088218734
  0
ARC
  5
2B4
330
1F
100
AcDbEntity
  8
0
  6
Continuous
 62
     8
370
    18
100
AcDbCircle
 10
1124.4936032604
 20
993.5004461283
 30
0.0
 40
13.36873667923848
100
AcDbArc
 50
266.2557918319
 51
279.1541892989
  0
LINE
  5
2B5
330
1F
100
AcDbEntity
  8
0
  6
Continuous
 62
     8
370
    18
100
AcDbLine
 10
866.6192553314
 20
979.9901662602
 30
0.0
 11
1123.6195886707
 21
979.9901662602
 31
0.0
  0
LINE
  5
2B6
330
1F
100
AcDbEntity
  8
0
  6
Continuous
 62
     8
370
    18
100
AcDbLine
 10
1289.6189219922
 20
979.9901662602
 30
0.0
 11
1546.6192553314
 21
979.9901662602
 31
0.0
  0
LINE
  5
2B7
330
1F
100
AcDbEntity
  8
0
  6
Continuous
 62
     8
370
    18
100
AcDbLine
 10
1153.6192553314
 20
953.0468590477
 30
0.0
 11
1153.6192553314
 21
950.7968590477
 31
0.0
  0
LINE
  5
2B8
330
1F
100
AcDbEntity
  8
0
  6
Continuous
 62
     8
370
    18
100
AcDbLine
 10
1259.6192553314
 20
953.0468590477
 30
0.0
 11
1259.6192553314
 21
950.7968590477
 31
0.0
  0
LINE
  5
2B9
330
1F
100
AcDbEntity
  8
0
  6
Continuous
 62
     8
370
    18
100
AcDbLine
 10
1153.6192553314
 20
1009.2968590477
 30
0.0
 11
1153.6192553314
 21
1007.0468590477
 31
0.0
  0
LINE
  5
2BA
330
1F
100
AcDbEntity
  8
0
  6
Continuous
 62
     8
370
    18
100
AcDbLine
 10
1153.6192553314
 20
1009.3026432463
 30
0.0
 11
1153.6192553314
 21
1009.2968590477
 31
0.0
  0
LINE
  5
2BB
330
1F
100
AcDbEntity
  8
0
  6
Continuous
 62
     8
370
    18
100
AcDbLine
 10
1259.6192553314
 20
1009.2968590477
 30
0.0
 11
1259.6192553314
 21
1007.0468590477
 31
0.0
  0
LINE
  5
2BC
330
1F
100
AcDbEntity
  8
0
  6
Continuous
 62
     8
370
    18
100
AcDbLine
 10
1259.6192553314
 20
1009.3026432463
 30
0.0
 11
1259.6192553314
 21
1009.2968590477
 31
0.0
  0
LINE
  5
2BD
330
1F
100
AcDbEntity
  8
0
  6
Continuous
 62
     8
370
    18
100
AcDbLine
 10
1153.6192553314
 20
950.7910748491
 30
0.0
 11
1153.6192553314
 21
950.7968590477
 31
0.0
  0
LINE
  5
2BE
330
1F
100
AcDbEntity
  8
0
  6
Continuous
 62
     8
370
    18
100
AcDbLine
 10
1259.6192553314
 20
950.7910748491
 30
0.0
 11
1259.6192553314
 21
950.7968590477
 31
0.0
  0
SPLINE
  5
2BF
330
1F
100
AcDbEntity
  8
0
  6
Continuous
 62
     8
370
    18
100
AcDbSpline
210
0.0
220
0.0
230
1.0
 70
     8
 71
     3
 72
     9
 73
     5
 74
     0
 42
0.000000001
 43
0.00000001
 40
0.0
 40
0.0
 40
0.0
 40
0.0
 40
0.1546895589938865
 40
1.0
 40
1.0
 40
1.0
 40
1.0
 10
1259.502524148759
 20
961.3152855937636
 30
0.0
 10
1259.259471692181
 20
961.3879601287658
 30
0.0
 10
1257.688244402125
 20
961.8577690510675
 30
0.0
 10
1256.264126493299
 20
962.674047080117
 30
0.0
 10
1255.060304755744
 20
963.3640554208364
 30
0.0
  0
ARC
  5
2C0
330
1F
100
AcDbEntity
  8
0
  6
Continuous
 62
     8
370
    18
100
AcDbCircle
 10
1253.6038880789
 20
964.810385406
 30
0.0
 40
2.052564240815887
100
AcDbArc
 50
315.1990950652
 51
348.3527908007
  0
SPLINE
  5
2C1
330
1F
100
AcDbEntity
  8
0
  6
Continuous
 62
     8
370
    18
100
AcDbSpline
210
0.0
220
0.0
230
1.0
 70
     8
 71
     3
 72
     9
 73
     5
 74
     0
 42
0.000000001
 43
0.00000001
 40
0.0
 40
0.0
 40
0.0
 40
0.0
 40
0.1546895589938865
 40
1.0
 40
1.0
 40
1.0
 40
1.0
 10
1153.73598651408
 20
998.7784325017312
 30
0.0
 10
1153.979038970658
 20
998.7057579667289
 30
0.0
 10
1155.550266260714
 20
998.2359490444273
 30
0.0
 10
1156.97438416954
 20
997.4196710153778
 30
0.0
 10
1158.178205907095
 20
996.7296626746585
 30
0.0
  0
ARC
  5
2C2
330
1F
100
AcDbEntity
  8
0
  6
Continuous
 62
     8
370
    18
100
AcDbCircle
 10
1159.634622584
 20
995.2833326895
 30
0.0
 40
2.05256424081771
100
AcDbArc
 50
135.1990950652
 51
168.3527908007
  0
ARC
  5
2C3
330
1F
100
AcDbEntity
  8
0
  6
Continuous
 62
     8
370
    18
100
AcDbCircle
 10
1253.6038880789
 20
995.2833326895
 30
0.0
 40
2.052564240814659
100
AcDbArc
 50
11.6472091993
 51
44.8009049348
  0
SPLINE
  5
2C4
330
1F
100
AcDbEntity
  8
0
  6
Continuous
 62
     8
370
    18
100
AcDbSpline
210
0.0
220
0.0
230
1.0
 70
     8
 71
     3
 72
     9
 73
     5
 74
     0
 42
0.000000001
 43
0.00000001
 40
0.0
 40
0.0
 40
0.0
 40
0.0
 40
0.1546895589938811
 40
1.0
 40
1.0
 40
1.0
 40
1.0
 10
1259.502524148759
 20
998.7784325017319
 30
0.0
 10
1259.259471692181
 20
998.7057579667298
 30
0.0
 10
1257.688244402125
 20
998.2359490444281
 30
0.0
 10
1256.264126493299
 20
997.4196710153783
 30
0.0
 10
1255.060304755744
 20
996.7296626746588
 30
0.0
  0
ARC
  5
2C5
330
1F
100
AcDbEntity
  8
0
  6
Continuous
 62
     8
370
    18
100
AcDbCircle
 10
1159.634622584
 20
964.810385406
 30
0.0
 40
2.052564240818811
100
AcDbArc
 50
191.6472091993
 51
224.8009049348
  0
SPLINE
  5
2C6
330
1F
100
AcDbEntity
  8
0
  6
Continuous
 62
     8
370
    18
100
AcDbSpline
210
0.0
220
0.0
230
1.0
 70
     8
 71
     3
 72
     9
 73
     5
 74
     0
 42
0.000000001
 43
0.00000001
 40
0.0
 40
0.0
 40
0.0
 40
0.0
 40
0.1546895589938813
 40
1.0
 40
1.0
 40
1.0
 40
1.0
 10
1153.73598651408
 20
961.3152855937628
 30
0.0
 10
1153.979038970658
 20
961.3879601287651
 30
0.0
 10
1155.550266260714
 20
961.8577690510668
 30
0.0
 10
1156.97438416954
 20
962.6740470801165
 30
0.0
 10
1158.178205907095
 20
963.364055420836
 30
0.0
  0
ARC
  5
2C7
330
1F
100
AcDbEntity
  8
0
  6
Continuous
 62
     8
370
    18
100
AcDbCircle
 10
1252.6192553314
 20
980.0468590477
 30
0.0
 40
19.99999999999955
100
AcDbArc
 50
270.0
 51
347.5224163016
  0
LINE
  5
2C8
330
1F
100
AcDbEntity
  8
0
  6
Continuous
 62
     8
370
    18
100
AcDbLine
 10
1252.6192553314
 20
967.3342082608
 30
0.0
 11
1252.6192553314
 21
960.0468590477
 31
0.0
  0
LINE
  5
2C9
330
1F
100
AcDbEntity
  8
0
  6
Continuous
 62
     8
370
    18
100
AcDbLine
 10
1252.6192553314
 20
992.7595098347
 30
0.0
 11
1252.6192553314
 21
1000.0468590477
 31
0.0
  0
ARC
  5
2CA
330
1F
100
AcDbEntity
  8
0
  6
Continuous
 62
     8
370
    18
100
AcDbCircle
 10
1252.6192553314
 20
980.0468590477
 30
0.0
 40
19.99999999999966
100
AcDbArc
 50
12.4775836984
 51
90.0
  0
SPLINE
  5
2CB
330
1F
100
AcDbEntity
  8
0
  6
Continuous
 62
     8
370
    18
100
AcDbSpline
210
0.0
220
0.0
230
1.0
 70
     8
 71
     3
 72
    14
 73
    10
 74
     0
 42
0.000000001
 43
0.00000001
 40
0.0
 40
0.0
 40
0.0
 40
0.0
 40
0.1114289230413367
 40
0.4958785649679722
 40
0.7046555305618262
 40
0.8301760374257593
 40
0.9121018798659185
 40
0.9942797082137385
 40
1.0
 40
1.0
 40
1.0
 40
1.0
 10
1255.060304755744
 20
996.7296626746588
 30
0.0
 10
1254.940913710109
 20
996.6473303094097
 30
0.0
 10
1254.409602280688
 20
996.2809366118323
 30
0.0
 10
1253.735310757333
 20
995.6481654611138
 30
0.0
 10
1253.277446969571
 20
994.8571809464133
 30
0.0
 10
1253.192989219237
 20
994.3469862125507
 30
0.0
 10
1253.27545351209
 20
994.0026576068865
 30
0.0
 10
1253.395160455712
 20
993.8249578861538
 30
0.0
 10
1253.475871728918
 20
993.7495753167309
 30
0.0
 10
1253.481124310344
 20
993.7446695202016
 30
0.0
  0
SPLINE
  5
2CC
330
1F
100
AcDbEntity
  8
0
  6
Continuous
 62
     8
370
    18
100
AcDbSpline
210
0.0
220
0.0
230
1.0
 70
     8
 71
     3
 72
    14
 73
    10
 74
     0
 42
0.000000001
 43
0.00000001
 40
0.0
 40
0.0
 40
0.0
 40
0.0
 40
0.1114289230413327
 40
0.4958785649680145
 40
0.7046555305618257
 40
0.8301760374257494
 40
0.9121018798659056
 40
0.9942797082137602
 40
1.0
 40
1.0
 40
1.0
 40
1.0
 10
1255.060304755744
 20
963.3640554208364
 30
0.0
 10
1254.940913710109
 20
963.4463877860857
 30
0.0
 10
1254.409602280688
 20
963.8127814836629
 30
0.0
 10
1253.735310757333
 20
964.4455526343818
 30
0.0
 10
1253.277446969571
 20
965.236537149082
 30
0.0
 10
1253.192989219237
 20
965.7467318829448
 30
0.0
 10
1253.27545351209
 20
966.0910604886088
 30
0.0
 10
1253.395160455712
 20
966.2687602093418
 30
0.0
 10
1253.475871728918
 20
966.3441427787648
 30
0.0
 10
1253.481124310344
 20
966.3490485752942
 30
0.0
  0
SPLINE
  5
2CD
330
1F
100
AcDbEntity
  8
0
  6
Continuous
 62
     8
370
    18
100
AcDbSpline
210
0.0
220
0.0
230
1.0
 70
     8
 71
     3
 72
    14
 73
    10
 74
     0
 42
0.000000001
 43
0.00000001
 40
0.0
 40
0.0
 40
0.0
 40
0.0
 40
0.1114289230413339
 40
0.4958785649679865
 40
0.7046555305618409
 40
0.830176037425766
 40
0.9121018798659226
 40
0.9942797082137592
 40
1.0
 40
1.0
 40
1.0
 40
1.0
 10
1158.178205907095
 20
963.364055420836
 30
0.0
 10
1158.297596952731
 20
963.4463877860852
 30
0.0
 10
1158.828908382152
 20
963.8127814836625
 30
0.0
 10
1159.503199905507
 20
964.4455526343812
 30
0.0
 10
1159.961063693268
 20
965.2365371490816
 30
0.0
 10
1160.045521443602
 20
965.7467318829443
 30
0.0
 10
1159.96305715075
 20
966.0910604886085
 30
0.0
 10
1159.843350207127
 20
966.2687602093413
 30
0.0
 10
1159.762638933921
 20
966.3441427787642
 30
0.0
 10
1159.757386352495
 20
966.3490485752936
 30
0.0
  0
SPLINE
  5
2CE
330
1F
100
AcDbEntity
  8
0
  6
Continuous
 62
     8
370
    18
100
AcDbSpline
210
0.0
220
0.0
230
1.0
 70
     8
 71
     3
 72
    14
 73
    10
 74
     0
 42
0.000000001
 43
0.00000001
 40
0.0
 40
0.0
 40
0.0
 40
0.0
 40
0.1114289230413357
 40
0.4958785649679992
 40
0.7046555305618101
 40
0.8301760374257419
 40
0.9121018798659006
 40
0.9942797082137385
 40
0.9999999999999999
 40
0.9999999999999999
 40
0.9999999999999999
 40
0.9999999999999999
 10
1158.178205907095
 20
996.7296626746585
 30
0.0
 10
1158.297596952731
 20
996.6473303094092
 30
0.0
 10
1158.828908382152
 20
996.280936611832
 30
0.0
 10
1159.503199905506
 20
995.6481654611132
 30
0.0
 10
1159.961063693268
 20
994.857180946413
 30
0.0
 10
1160.045521443602
 20
994.3469862125504
 30
0.0
 10
1159.96305715075
 20
994.0026576068861
 30
0.0
 10
1159.843350207127
 20
993.8249578861532
 30
0.0
 10
1159.762638933921
 20
993.7495753167304
 30
0.0
 10
1159.757386352495
 20
993.744669520201
 30
0.0
  0
ARC
  5
2CF
330
1F
100
AcDbEntity
  8
0
  6
Continuous
 62
     8
370
    18
100
AcDbCircle
 10
1160.6192553314
 20
980.0468590477
 30
0.0
 40
20.00000000000039
100
AcDbArc
 50
90.0
 51
167.5224163016
  0
LINE
  5
2D0
330
1F
100
AcDbEntity
  8
0
  6
Continuous
 62
     8
370
    18
100
AcDbLine
 10
1160.6192553314
 20
992.7595098347
 30
0.0
 11
1160.6192553314
 21
1000.0468590477
 31
0.0
  0
LINE
  5
2D1
330
1F
100
AcDbEntity
  8
0
  6
Continuous
 62
     8
370
    18
100
AcDbLine
 10
1160.6192553314
 20
967.3342082608
 30
0.0
 11
1160.6192553314
 21
960.0468590477
 31
0.0
  0
ARC
  5
2D2
330
1F
100
AcDbEntity
  8
0
  6
Continuous
 62
     8
370
    18
100
AcDbCircle
 10
1160.6192553314
 20
980.0468590477
 30
0.0
 40
20.00000000000044
100
AcDbArc
 50
192.4775836984
 51
270.0
  0
SPLINE
  5
2D3
330
1F
100
AcDbEntity
  8
0
  6
Continuous
 62
     8
370
    18
100
AcDbSpline
210
0.0
220
0.0
230
1.0
 70
     8
 71
     3
 72
    18
 73
    14
 74
     0
 42
0.000000001
 43
0.00000001
 40
0.0
 40
0.0
 40
0.0
 40
0.0
 40
0.0000017576874324
 40
0.0364929107765222
 40
0.1834197338049795
 40
0.2877695105078301
 40
0.3921441025453803
 40
0.4993591877198455
 40
0.6063886859551783
 40
0.7134284383809861
 40
0.8178270444226949
 40
0.907973493207005
 40
1.0
 40
1.0
 40
1.0
 40
1.0
 10
1259.61925533142
 20
1001.792571439737
 30
0.0
 10
1259.619275317914
 20
1001.792571439529
 30
0.0
 10
1260.034232683241
 20
1001.792567117987
 30
0.0
 10
1262.119441506916
 20
1001.730182715602
 30
0.0
 10
1265.376390454511
 20
1001.161017407185
 30
0.0
 10
1269.163710806531
 20
999.6960770763296
 30
0.0
 10
1272.262947847108
 20
997.8477815533149
 30
0.0
 10
1275.055945751315
 20
995.5134894926182
 30
0.0
 10
1277.419514802436
 20
992.7045967103795
 30
0.0
 10
1279.274751698323
 20
989.5744445057522
 30
0.0
 10
1280.510682610304
 20
986.3616542855875
 30
0.0
 10
1281.235066013422
 20
983.167731244813
 30
0.0
 10
1281.31949686722
 20
981.0942825691529
 30
0.0
 10
1281.362147964997
 20
980.0468590477477
 30
0.0
  0
LINE
  5
2D4
330
1F
100
AcDbEntity
  8
0
  6
Continuous
 62
     8
370
    18
100
AcDbLine
 10
1259.6192553314
 20
1001.7925714397
 30
0.0
 11
1259.6192557285
 21
1001.7968590477
 31
0.0
  0
LINE
  5
2D5
330
1F
100
AcDbEntity
  8
0
  6
Continuous
 62
     8
370
    18
100
AcDbLine
 10
1281.362147965
 20
980.0468590477
 30
0.0
 11
1281.3577080219
 21
980.0468590477
 31
0.0
  0
LINE
  5
2D6
330
1F
100
AcDbEntity
  8
0
  6
Continuous
 62
     8
370
    18
100
AcDbLine
 10
1259.6192553314
 20
1001.7881315153
 30
0.0
 11
1259.6192553314
 21
1001.7925714397
 31
0.0
  0
SPLINE
  5
2D7
330
1F
100
AcDbEntity
  8
0
  6
Continuous
 62
     8
370
    18
100
AcDbSpline
210
0.0
220
0.0
230
1.0
 70
     8
 71
     3
 72
    18
 73
    14
 74
     0
 42
0.000000001
 43
0.00000001
 40
0.0
 40
0.0
 40
0.0
 40
0.0
 40
0.0000017576874324
 40
0.036492910776522
 40
0.1834197338049787
 40
0.2877695105078349
 40
0.3921441025453849
 40
0.4993591877198522
 40
0.6063886859551844
 40
0.7134284383809918
 40
0.817827044422696
 40
0.9079734932070058
 40
1.0
 40
1.0
 40
1.0
 40
1.0
 10
1153.619255331419
 20
958.3011466557579
 30
0.0
 10
1153.619235344925
 20
958.301146655966
 30
0.0
 10
1153.204277979646
 20
958.3011509775071
 30
0.0
 10
1151.119069155828
 20
958.3635353798935
 30
0.0
 10
1147.862120208354
 20
958.9327006883092
 30
0.0
 10
1144.074799856302
 20
960.3976410191651
 30
0.0
 10
1140.975562815733
 20
962.2459365421801
 30
0.0
 10
1138.182564911523
 20
964.5802286028768
 30
0.0
 10
1135.818995860403
 20
967.3891213851155
 30
0.0
 10
1133.963758964516
 20
970.519273589743
 30
0.0
 10
1132.727828052535
 20
973.7320638099075
 30
0.0
 10
1132.003444649416
 20
976.9259868506819
 30
0.0
 10
1131.919013795618
 20
978.9994355263419
 30
0.0
 10
1131.876362697842
 20
980.046859047747
 30
0.0
  0
LINE
  5
2D8
330
1F
100
AcDbEntity
  8
0
  6
Continuous
 62
     8
370
    18
100
AcDbLine
 10
1153.6192553314
 20
958.3011466558
 30
0.0
 11
1153.6192549344
 21
958.2968590477
 31
0.0
  0
LINE
  5
2D9
330
1F
100
AcDbEntity
  8
0
  6
Continuous
 62
     8
370
    18
100
AcDbLine
 10
1131.8763626978
 20
980.0468590477
 30
0.0
 11
1131.8808026409
 21
980.0468590477
 31
0.0
  0
LINE
  5
2DA
330
1F
100
AcDbEntity
  8
0
  6
Continuous
 62
     8
370
    18
100
AcDbLine
 10
1153.6192553314
 20
958.3055865802
 30
0.0
 11
1153.6192553314
 21
958.3011466558
 31
0.0
  0
SPLINE
  5
2DB
330
1F
100
AcDbEntity
  8
0
  6
Continuous
 62
     8
370
    18
100
AcDbSpline
210
0.0
220
0.0
230
1.0
 70
     8
 71
     3
 72
    18
 73
    14
 74
     0
 42
0.000000001
 43
0.00000001
 40
0.0
 40
0.0
 40
0.0
 40
0.0
 40
0.0000017576874324
 40
0.0364929107765215
 40
0.1834197338049762
 40
0.2877695105078378
 40
0.3921441025453864
 40
0.4993591877198565
 40
0.6063886859551874
 40
0.7134284383809933
 40
0.8178270444226976
 40
0.9079734932070072
 40
1.0
 40
1.0
 40
1.0
 40
1.0
 10
1153.61925533142
 20
1001.792571439736
 30
0.0
 10
1153.619235344926
 20
1001.792571439528
 30
0.0
 10
1153.204277979694
 20
1001.792567117987
 30
0.0
 10
1151.119069155735
 20
1001.7301827156
 30
0.0
 10
1147.86212020838
 20
1001.161017407185
 30
0.0
 10
1144.074799856296
 20
999.6960770763294
 30
0.0
 10
1140.975562815734
 20
997.8477815533145
 30
0.0
 10
1138.182564911523
 20
995.5134894926174
 30
0.0
 10
1135.818995860403
 20
992.7045967103788
 30
0.0
 10
1133.963758964516
 20
989.5744445057513
 30
0.0
 10
1132.727828052535
 20
986.3616542855868
 30
0.0
 10
1132.003444649416
 20
983.1677312448122
 30
0.0
 10
1131.919013795618
 20
981.0942825691523
 30
0.0
 10
1131.876362697842
 20
980.046859047747
 30
0.0
  0
LINE
  5
2DC
330
1F
100
AcDbEntity
  8
0
  6
Continuous
 62
     8
370
    18
100
AcDbLine
 10
1153.6192553314
 20
1001.7925714397
 30
0.0
 11
1153.6192549344
 21
1001.7968590477
 31
0.0
  0
LINE
  5
2DD
330
1F
100
AcDbEntity
  8
0
  6
Continuous
 62
     8
370
    18
100
AcDbLine
 10
1153.6192553314
 20
1001.7881315153
 30
0.0
 11
1153.6192553314
 21
1001.7925714397
 31
0.0
  0
SPLINE
  5
2DE
330
1F
100
AcDbEntity
  8
0
  6
Continuous
 62
     8
370
    18
100
AcDbSpline
210
0.0
220
0.0
230
1.0
 70
     8
 71
     3
 72
    18
 73
    14
 74
     0
 42
0.000000001
 43
0.00000001
 40
0.0
 40
0.0
 40
0.0
 40
0.0
 40
0.0000017576874324
 40
0.0364929107765218
 40
0.1834197338049777
 40
0.2877695105078336
 40
0.3921441025453829
 40
0.499359187719857
 40
0.6063886859551887
 40
0.7134284383809956
 40
0.8178270444226965
 40
0.9079734932070073
 40
1.0
 40
1.0
 40
1.0
 40
1.0
 10
1259.619255331419
 20
958.3011466557587
 30
0.0
 10
1259.619275317913
 20
958.3011466559668
 30
0.0
 10
1260.034232683241
 20
958.3011509775071
 30
0.0
 10
1262.119441506915
 20
958.3635353798957
 30
0.0
 10
1265.376390454511
 20
958.9327006883098
 30
0.0
 10
1269.163710806531
 20
960.3976410191656
 30
0.0
 10
1272.262947847108
 20
962.2459365421804
 30
0.0
 10
1275.055945751315
 20
964.5802286028776
 30
0.0
 10
1277.419514802436
 20
967.3891213851161
 30
0.0
 10
1279.274751698323
 20
970.5192735897436
 30
0.0
 10
1280.510682610304
 20
973.7320638099081
 30
0.0
 10
1281.235066013422
 20
976.9259868506825
 30
0.0
 10
1281.31949686722
 20
978.9994355263426
 30
0.0
 10
1281.362147964997
 20
980.0468590477477
 30
0.0
  0
LINE
  5
2DF
330
1F
100
AcDbEntity
  8
0
  6
Continuous
 62
     8
370
    18
100
AcDbLine
 10
1259.6192553314
 20
958.3011466558
 30
0.0
 11
1259.6192557285
 21
958.2968590477
 31
0.0
  0
LINE
  5
2E0
330
1F
100
AcDbEntity
  8
0
  6
Continuous
 62
     8
370
    18
100
AcDbLine
 10
1259.6192553314
 20
958.3055865802
 30
0.0
 11
1259.6192553314
 21
958.3011466558
 31
0.0
  0
LINE
  5
2E1
330
1F
100
AcDbEntity
  8
0
  6
Continuous
 62
     8
370
    18
100
AcDbLine
 10
1160.6192553314
 20
1000.0468590477
 30
0.0
 11
1252.6192553314
 21
1000.0468590477
 31
0.0
  0
LINE
  5
2E2
330
1F
100
AcDbEntity
  8
0
  6
Continuous
 62
     8
370
    18
100
AcDbLine
 10
1160.6192553314
 20
960.0468590477
 30
0.0
 11
1252.6192553314
 21
960.0468590477
 31
0.0
  0
LINE
  5
2E3
330
1F
100
AcDbEntity
  8
0
  6
Continuous
 62
     8
370
    18
100
AcDbLine
 10
1153.6192553314
 20
1001.7925714397
 30
0.0
 11
1259.6192553314
 21
1001.7925714397
 31
0.0
  0
LINE
  5
2E4
330
1F
100
AcDbEntity
  8
0
  6
Continuous
 62
     8
370
    18
100
AcDbLine
 10
1153.6192553314
 20
958.3011466558
 30
0.0
 11
1259.6192553314
 21
958.3011466558
 31
0.0
  0
LINE
  5
2E5
330
1F
100
AcDbEntity
  8
0
  6
Continuous
 62
     8
370
    18
100
AcDbLine
 10
1259.6192553314
 20
958.2968590477
 30
0.0
 11
1259.6192553314
 21
953.7968590477
 31
0.0
  0
LINE
  5
2E6
330
1F
100
AcDbEntity
  8
0
  6
Continuous
 62
     8
370
    18
100
AcDbLine
 10
1259.6192553314
 20
1001.7968590477
 30
0.0
 11
1259.6192553314
 21
1006.2968590477
 31
0.0
  0
ARC
  5
2E7
330
1F
100
AcDbEntity
  8
0
  6
Continuous
 62
     8
370
    18
100
AcDbCircle
 10
1259.6192553314
 20
980.0468590477
 30
0.0
 40
26.24999999999977
100
AcDbArc
 50
270.0
 51
90.0
  0
LINE
  5
2E8
330
1F
100
AcDbEntity
  8
0
  6
Continuous
 62
     8
370
    18
100
AcDbLine
 10
1259.6192553314
 20
953.7968590477
 30
0.0
 11
1259.6192553314
 21
953.0468590477
 31
0.0
  0
LINE
  5
2E9
330
1F
100
AcDbEntity
  8
0
  6
Continuous
 62
     8
370
    18
100
AcDbLine
 10
1259.6192553314
 20
1006.2968590477
 30
0.0
 11
1259.6192553314
 21
1007.0468590477
 31
0.0
  0
LINE
  5
2EA
330
1F
100
AcDbEntity
  8
0
  6
Continuous
 62
     8
370
    18
100
AcDbLine
 10
1153.6192553314
 20
1001.7968590477
 30
0.0
 11
1153.6192553314
 21
1006.2968590477
 31
0.0
  0
LINE
  5
2EB
330
1F
100
AcDbEntity
  8
0
  6
Continuous
 62
     8
370
    18
100
AcDbLine
 10
1153.6192553314
 20
1006.2968590477
 30
0.0
 11
1259.6192553314
 21
1006.2968590477
 31
0.0
  0
LINE
  5
2EC
330
1F
100
AcDbEntity
  8
0
  6
Continuous
 62
     8
370
    18
100
AcDbLine
 10
1153.6192553314
 20
1006.2968590477
 30
0.0
 11
1153.6192553314
 21
1007.0468590477
 31
0.0
  0
LINE
  5
2ED
330
1F
100
AcDbEntity
  8
0
  6
Continuous
 62
     8
370
    18
100
AcDbLine
 10
1153.6192553314
 20
958.2968590477
 30
0.0
 11
1153.6192553314
 21
953.7968590477
 31
0.0
  0
ARC
  5
2EE
330
1F
100
AcDbEntity
  8
0
  6
Continuous
 62
     8
370
    18
100
AcDbCircle
 10
1153.6192553314
 20
980.0468590477
 30
0.0
 40
26.24999999999977
100
AcDbArc
 50
90.0
 51
270.0
  0
LINE
  5
2EF
330
1F
100
AcDbEntity
  8
0
  6
Continuous
 62
     8
370
    18
100
AcDbLine
 10
1153.6192553314
 20
953.7968590477
 30
0.0
 11
1153.6192553314
 21
953.0468590477
 31
0.0
  0
LINE
  5
2F0
330
1F
100
AcDbEntity
  8
0
  6
Continuous
 62
     8
370
    18
100
AcDbLine
 10
1153.6192553314
 20
953.7968590477
 30
0.0
 11
1259.6192553314
 21
953.7968590477
 31
0.0
  0
CIRCLE
  5
2F1
330
1F
100
AcDbEntity
  8
0
  6
Continuous
 62
     8
370
    18
100
AcDbCircle
 10
1206.6192553314
 20
980.0468590477
 30
0.0
 40
3.548336454629748
  0
CIRCLE
  5
2F2
330
1F
100
AcDbEntity
  8
0
  6
Continuous
 62
     8
370
    18
100
AcDbCircle
 10
1206.6192553314
 20
980.0468590477
 30
0.0
 40
5.614709433546636
  0
ARC
  5
2F3
330
1F
100
AcDbEntity
  8
0
  6
Continuous
 62
     8
370
    18
100
AcDbCircle
 10
1206.6192553314
 20
980.0468590477
 30
0.0
 40
7.463480267439868
100
AcDbArc
 50
126.4944476701
 51
233.50555233
  0
ARC
  5
2F4
330
1F
100
AcDbEntity
  8
0
  6
Continuous
 62
     8
370
    18
100
AcDbCircle
 10
1206.6192553314
 20
980.0468590477
 30
0.0
 40
7.463480267439774
100
AcDbArc
 50
306.49444767
 51
53.5055523299
  0
ARC
  5
2F5
330
1F
100
AcDbEntity
  8
0
  6
Continuous
 62
     8
370
    18
100
AcDbCircle
 10
1206.6192553314
 20
980.0468590477
 30
0.0
 40
8.28496890136703
100
AcDbArc
 50
133.5974061618
 51
226.4025938382
  0
ARC
  5
2F6
330
1F
100
AcDbEntity
  8
0
  6
Continuous
 62
     8
370
    18
100
AcDbCircle
 10
1206.6192553314
 20
980.0468590477
 30
0.0
 40
8.284968901367128
100
AcDbArc
 50
313.5974061618
 51
46.4025938382
  0
SPLINE
  5
2F7
330
1F
100
AcDbEntity
  8
0
  6
Continuous
 62
     7
370
    35
100
AcDbSpline
210
0.0
220
0.0
230
1.0
 70
     8
 71
     3
 72
    21
 73
    17
 74
     0
 42
0.000000001
 43
0.00000001
 40
0.0
 40
0.0
 40
0.0
 40
0.0
 40
0.019429744642027
 40
0.1063134160537722
 40
0.1971827435431057
 40
0.2431269965577136
 40
0.2877601062884875
 40
0.3091647742105888
 40
0.3297204036240428
 40
0.3691429066007996
 40
0.4450527365626797
 40
0.5209828835673738
 40
0.6006991125029405
 40
0.7803290563712796
 40
0.993710105306142
 40
0.9999999999999999
 40
0.9999999999999999
 40
0.9999999999999999
 40
0.9999999999999999
 10
1921.515273745371
 20
1352.196537865118
 30
0.0
 10
1921.478260249568
 20
1352.285659652865
 30
0.0
 10
1921.275734109806
 20
1352.773305881613
 30
0.0
 10
1920.643848551996
 20
1353.547739046551
 30
0.0
 10
1919.781989080077
 20
1354.256496372476
 30
0.0
 10
1919.00384059221
 20
1354.701712332229
 30
0.0
 10
1918.47210916841
 20
1354.916563569558
 30
0.0
 10
1918.210247023126
 20
1355.262716591733
 30
0.0
 10
1918.084888146338
 20
1355.63749750876
 30
0.0
 10
1918.133511598478
 20
1356.265179268178
 30
0.0
 10
1918.107160619067
 20
1357.062183158263
 30
0.0
 10
1918.115595076168
 20
1357.845252739898
 30
0.0
 10
1918.112544137919
 20
1358.687189614765
 30
0.0
 10
1918.114309980611
 20
1359.273086094787
 30
0.0
 10
1918.113759472063
 20
1359.467661754476
 30
0.0
 10
1918.113761874321
 20
1359.409138930483
 30
0.0
 10
1918.113761943106
 20
1359.407463231394
 30
0.0
  0
ARC
  5
2F8
330
1F
100
AcDbEntity
  8
0
  6
Continuous
 62
     7
370
    35
100
AcDbCircle
 10
1909.5503298411
 20
1304.5055344416
 30
0.0
 40
14.99995482259481
100
AcDbArc
 50
270.017911725
 51
305.1236860193
  0
ARC
  5
2F9
330
1F
100
AcDbEntity
  8
0
  6
Continuous
 62
     7
370
    35
100
AcDbCircle
 10
1869.6771860192
 20
1304.5055350514
 30
0.0
 40
14.9999554324622
100
AcDbArc
 50
235.2278938985
 51
269.9820874844
  0
SPLINE
  5
2FA
330
1F
100
AcDbEntity
  8
0
  6
Continuous
 62
     7
370
    35
100
AcDbSpline
210
0.0
220
0.0
230
1.0
 70
     8
 71
     3
 72
    14
 73
    10
 74
     0
 42
0.000000001
 43
0.00000001
 40
0.0
 40
0.0
 40
0.0
 40
0.0
 40
0.0318510699550155
 40
0.144518358494347
 40
0.239781059827454
 40
0.3260834741500535
 40
0.5119178316752829
 40
0.8180500483661862
 40
1.0
 40
1.0
 40
1.0
 40
1.0
 10
1857.729043335469
 20
1352.229381100125
 30
0.0
 10
1857.729886878876
 20
1352.231029660685
 30
0.0
 10
1857.733714301585
 20
1352.238509700329
 30
0.0
 10
1857.724651225908
 20
1352.221326960218
 30
0.0
 10
1857.703586481917
 20
1352.184132647224
 30
0.0
 10
1857.651067334527
 20
1352.095694437244
 30
0.0
 10
1857.53792645081
 20
1351.926493904883
 30
0.0
 10
1857.395522180599
 20
1351.735788794599
 30
0.0
 10
1857.266805080345
 20
1351.62023193031
 30
0.0
 10
1857.218821212698
 20
1351.577154007712
 30
0.0
  0
SPLINE
  5
2FB
330
1F
100
AcDbEntity
  8
0
  6
Continuous
 62
     7
370
    35
100
AcDbSpline
210
0.0
220
0.0
230
1.0
 70
     8
 71
     3
 72
    14
 73
    10
 74
     0
 42
0.000000001
 43
0.00000001
 40
0.0
 40
0.0
 40
0.0
 40
0.0
 40
0.1910307361886369
 40
0.5100956345257888
 40
0.6698730214462597
 40
0.7584351360556457
 40
0.829286357792234
 40
0.9200950248649777
 40
1.0
 40
1.0
 40
1.0
 40
1.0
 10
1921.971837792054
 20
1351.609920650405
 30
0.0
 10
1921.92537340416
 20
1351.654702155662
 30
0.0
 10
1921.801302891224
 20
1351.774278988136
 30
0.0
 10
1921.667743844038
 20
1351.956869768082
 30
0.0
 10
1921.565629564058
 20
1352.113601425758
 30
0.0
 10
1921.524520842161
 20
1352.183242544075
 30
0.0
 10
1921.505935088429
 20
1352.215962201722
 30
0.0
 10
1921.496716680727
 20
1352.232843731354
 30
0.0
 10
1921.497391718392
 20
1352.231592407631
 30
0.0
 10
1921.497707679478
 20
1352.231006707568
 30
0.0
  0
SPLINE
  5
2FC
330
1F
100
AcDbEntity
  8
0
  6
Continuous
 62
     7
370
    35
100
AcDbSpline
210
0.0
220
0.0
230
1.0
 70
     8
 71
     3
 72
    13
 73
     9
 74
     0
 42
0.000000001
 43
0.00000001
 40
0.0
 40
0.0
 40
0.0
 40
0.0
 40
0.2312645557615235
 40
0.5779681681881481
 40
0.7146434890119494
 40
0.8157376952364518
 40
0.9213272860002936
 40
1.0
 40
1.0
 40
1.0
 40
1.0
 10
1861.766355718885
 20
1291.755397317805
 30
0.0
 10
1861.787360496588
 20
1291.746293198085
 30
0.0
 10
1861.839854891384
 20
1291.723540505264
 30
0.0
 10
1861.902601010497
 20
1291.689374325397
 30
0.0
 10
1861.944784521136
 20
1291.666178975233
 30
0.0
 10
1861.96015336588
 20
1291.657465739848
 30
0.0
 10
1861.966774115362
 20
1291.653665212719
 30
0.0
 10
1861.966363900021
 20
1291.653901627312
 30
0.0
 10
1861.966188754301
 20
1291.65400256699
 30
0.0
  0
LINE
  5
2FD
330
1F
100
AcDbEntity
  8
0
  6
Continuous
 62
     7
370
    35
100
AcDbLine
 10
1861.7775654866
 20
1291.7681126602
 30
0.0
 11
1861.6512776455
 21
1291.8468142292
 31
0.0
  0
SPLINE
  5
2FE
330
1F
100
AcDbEntity
  8
0
  6
Continuous
 62
     7
370
    35
100
AcDbSpline
210
0.0
220
0.0
230
1.0
 70
     8
 71
     3
 72
    12
 73
     8
 74
     0
 42
0.000000001
 43
0.00000001
 40
0.0
 40
0.0
 40
0.0
 40
0.0
 40
0.1423628141135648
 40
0.2495218665499636
 40
0.3688819399428923
 40
0.608528538804433
 40
1.0
 40
1.0
 40
1.0
 40
1.0
 10
1917.261160148495
 20
1291.653902528801
 30
0.0
 10
1917.261605111958
 20
1291.654161799009
 30
0.0
 10
1917.262385007429
 20
1291.65461622657
 30
0.0
 10
1917.277835696769
 20
1291.663438433124
 30
0.0
 10
1917.310643397779
 20
1291.681543042091
 30
0.0
 10
1917.378098282899
 20
1291.718988058671
 30
0.0
 10
1917.439740511969
 20
1291.74339611735
 30
0.0
 10
1917.477976105296
 20
1291.758536007967
 30
0.0
  0
LINE
  5
2FF
330
1F
100
AcDbEntity
  8
0
  6
Continuous
 62
     7
370
    35
100
AcDbLine
 10
1909.1124573753
 20
1289.5055796194
 30
0.0
 11
1921.1137578266
 21
1289.5055796194
 31
0.0
  0
ARC
  5
300
330
1F
100
AcDbEntity
  8
0
  6
Continuous
 62
     7
370
    35
100
AcDbCircle
 10
1921.1137578266
 20
1302.5055796194
 30
0.0
 40
13.0
100
AcDbArc
 50
270.0
 51
0.0
  0
SPLINE
  5
301
330
1F
100
AcDbEntity
  8
0
  6
Continuous
 62
     7
370
    35
100
AcDbSpline
210
0.0
220
0.0
230
1.0
 70
     8
 71
     3
 72
    10
 73
     6
 74
     0
 42
0.000000001
 43
0.00000001
 40
0.0
 40
0.0
 40
0.0
 40
0.0
 40
0.2439500987930606
 40
0.612027143651974
 40
1.0
 40
1.0
 40
1.0
 40
1.0
 10
1918.113777467209
 20
1356.090547556978
 30
0.0
 10
1918.113776045531
 20
1356.569376247065
 30
0.0
 10
1918.113772478797
 20
1357.770671745375
 30
0.0
 10
1918.113766204983
 20
1359.137624023575
 30
0.0
 10
1918.113764752578
 20
1359.678186038935
 30
0.0
 10
1918.113764007265
 20
1359.955579619435
 30
0.0
  0
LINE
  5
302
330
1F
100
AcDbEntity
  8
0
  6
Continuous
 62
     7
370
    35
100
AcDbLine
 10
1924.6137578266
 20
1382.952018119
 30
0.0
 11
1854.6137578266
 21
1382.952018119
 31
0.0
  0
LWPOLYLINE
  5
303
330
1F
100
AcDbEntity
  8
0
  6
Continuous
 62
     7
370
    35
100
AcDbPolyline
 90
        3
 70
   128
 43
0.0
 10
1856.6137578266
 20
1368.7139366083
 10
1856.6494700596
 20
1368.3376739757
 10
1856.7387578266
 20
1368.0179660629
  0
ARC
  5
304
330
1F
100
AcDbEntity
  8
0
  6
Continuous
 62
     7
370
    35
100
AcDbCircle
 10
1925.6137578266
 20
1371.952018119
 30
0.0
 40
0.9999999999997726
100
AcDbArc
 50
180.0
 51
270.0
  0
LWPOLYLINE
  5
305
330
1F
100
AcDbEntity
  8
0
  6
Continuous
 62
     7
370
    35
100
AcDbPolyline
 90
        3
 70
   128
 43
0.0
 10
1922.6137578266
 20
1368.7139366083
 10
1922.5780455935
 20
1368.3376739757
 10
1922.4887578266
 20
1368.0179660629
  0
ARC
  5
306
330
1F
100
AcDbEntity
  8
0
  6
Continuous
 62
     7
370
    35
100
AcDbCircle
 10
1853.6137578266
 20
1371.952018119
 30
0.0
 40
1.000000000000227
100
AcDbArc
 50
270.0
 51
0.0
  0
LINE
  5
307
330
1F
100
AcDbEntity
  8
0
  6
Continuous
 62
     7
370
    35
100
AcDbLine
 10
1856.6137578266
 20
1369.952018119
 30
0.0
 11
1856.6137578266
 21
1368.7139366083
 31
0.0
  0
LINE
  5
308
330
1F
100
AcDbEntity
  8
0
  6
Continuous
 62
     7
370
    35
100
AcDbLine
 10
1922.6137578266
 20
1368.7139366083
 30
0.0
 11
1922.6137578266
 21
1369.952018119
 31
0.0
  0
LINE
  5
309
330
1F
100
AcDbEntity
  8
0
  6
Continuous
 62
     7
370
    35
100
AcDbLine
 10
1917.6137578266
 20
1360.6787682855
 30
0.0
 11
1917.6137578266
 21
1359.9555796195
 31
0.0
  0
LINE
  5
30A
330
1F
100
AcDbEntity
  8
0
  6
Continuous
 62
     7
370
    35
100
AcDbLine
 10
1861.6137578266
 20
1360.6787682855
 30
0.0
 11
1861.6137578266
 21
1359.9555796195
 31
0.0
  0
LINE
  5
30B
330
1F
100
AcDbEntity
  8
0
  6
Continuous
 62
     7
370
    35
100
AcDbLine
 10
1861.6137578266
 20
1359.9555796195
 30
0.0
 11
1863.1646409255
 21
1359.9555796195
 31
0.0
  0
LINE
  5
30C
330
1F
100
AcDbEntity
  8
0
  6
Continuous
 62
     7
370
    35
100
AcDbLine
 10
1916.0628747276
 20
1359.9555796195
 30
0.0
 11
1917.6125037025
 21
1359.9555796195
 31
0.0
  0
SPLINE
  5
30D
330
1F
100
AcDbEntity
  8
0
  6
Continuous
 62
     7
370
    35
100
AcDbSpline
210
0.0
220
0.0
230
1.0
 70
     8
 71
     3
 72
    12
 73
     8
 74
     0
 42
0.000000001
 43
0.00000001
 40
0.0
 40
0.0
 40
0.0
 40
0.0
 40
0.0000113964157658
 40
0.0165615426249112
 40
0.2254762501766224
 40
0.656969573382361
 40
0.9999999999999999
 40
0.9999999999999999
 40
0.9999999999999999
 40
0.9999999999999999
 10
1921.506385077968
 20
1351.911649224093
 30
0.0
 10
1921.506390269275
 20
1351.911635415438
 30
0.0
 10
1921.513934399512
 20
1351.891568349216
 30
0.0
 10
1921.617991365563
 20
1351.614869370249
 30
0.0
 10
1921.970329158862
 20
1350.678633675792
 30
0.0
 10
1922.550187981366
 20
1349.103652628777
 30
0.0
 10
1922.984970042876
 20
1347.851888274001
 30
0.0
 10
1923.177531569981
 20
1347.297491768095
 30
0.0
  0
SPLINE
  5
30E
330
1F
100
AcDbEntity
  8
0
  6
Continuous
 62
     7
370
    35
100
AcDbSpline
210
0.0
220
0.0
230
1.0
 70
     8
 71
     3
 72
    15
 73
    11
 74
     0
 42
0.000000001
 43
0.00000001
 40
0.0
 40
0.0
 40
0.0
 40
0.0
 40
0.1214527241786899
 40
0.243635616215705
 40
0.3679634748124463
 40
0.4929996451849699
 40
0.6185865433805134
 40
0.7450337263104053
 40
0.8719902588119077
 40
1.0
 40
1.0
 40
1.0
 40
1.0
 10
1926.352111875175
 20
1336.518541353017
 30
0.0
 10
1926.683558073433
 20
1335.045154598076
 30
0.0
 10
1927.348443108339
 20
1332.089523158834
 30
0.0
 10
1927.913148087389
 20
1327.544569164599
 30
0.0
 10
1928.174762767315
 20
1322.930837956809
 30
0.0
 10
1928.080796328645
 20
1318.266729977611
 30
0.0
 10
1927.617646746329
 20
1313.597710328289
 30
0.0
 10
1926.756172261006
 20
1308.962685779058
 30
0.0
 10
1925.515978639286
 20
1304.37717932875
 30
0.0
 10
1924.33708874697
 20
1301.43315030393
 30
0.0
 10
1923.745208935493
 20
1299.955055228593
 30
0.0
  0
SPLINE
  5
30F
330
1F
100
AcDbEntity
  8
0
  6
Continuous
 62
     7
370
    35
100
AcDbSpline
210
0.0
220
0.0
230
1.0
 70
    24
 71
     3
 72
    10
 73
     6
 74
     0
 42
0.000000001
 43
0.00000001
 40
0.0
 40
0.0
 40
0.0
 40
0.0
 40
0.1884291686422634
 40
0.5522845095522015
 40
1.0
 40
1.0
 40
1.0
 40
1.0
 10
1889.613757826572
 20
1329.276818443783
 30
0.0
 10
1889.613757826572
 20
1328.749034392884
 30
0.0
 10
1889.613757826572
 20
1327.202103215506
 30
0.0
 10
1889.613757826572
 20
1324.390302697582
 30
0.0
 10
1889.613757826572
 20
1322.117768571514
 30
0.0
 10
1889.613757826572
 20
1320.864090283065
 30
0.0
  0
SPLINE
  5
310
330
1F
100
AcDbEntity
  8
0
  6
Continuous
 62
     7
370
    35
100
AcDbSpline
210
0.0
220
0.0
230
1.0
 70
    24
 71
     3
 72
    10
 73
     6
 74
     0
 42
0.000000001
 43
0.00000001
 40
0.0
 40
0.0
 40
0.0
 40
0.0
 40
0.3005544716335556
 40
0.6481927251021716
 40
1.0
 40
1.0
 40
1.0
 40
1.0
 10
1889.613757826572
 20
1317.052018118986
 30
0.0
 10
1889.613757826572
 20
1315.048296810156
 30
0.0
 10
1889.613757826572
 20
1310.726958423616
 30
0.0
 10
1889.613757826572
 20
1304.240137544619
 30
0.0
 10
1889.613757826572
 20
1299.949627757491
 30
0.0
 10
1889.613757826572
 20
1297.791586144648
 30
0.0
  0
SPLINE
  5
311
330
1F
100
AcDbEntity
  8
0
  6
Continuous
 62
     7
370
    35
100
AcDbSpline
210
0.0
220
0.0
230
1.0
 70
    24
 71
     3
 72
    13
 73
     9
 74
     0
 42
0.000000001
 43
0.00000001
 40
0.0
 40
0.0
 40
0.0
 40
0.0
 40
0.3696468379657267
 40
0.7491630569135298
 40
0.8272821734124612
 40
0.9051799163353818
 40
0.9820955461923455
 40
1.0
 40
1.0
 40
1.0
 40
1.0
 10
1918.113757826572
 20
1359.955579619435
 30
0.0
 10
1918.125633292493
 20
1359.955579619435
 30
0.0
 10
1918.149701293184
 20
1359.955579619435
 30
0.0
 10
1918.01470915409
 20
1359.955579619435
 30
0.0
 10
1918.17959139236
 20
1359.955579619435
 30
0.0
 10
1917.863248870131
 20
1359.955579619434
 30
0.0
 10
1917.072504623585
 20
1359.955579619434
 30
0.0
 10
1916.223237965473
 20
1359.955579619435
 30
0.0
 10
1916.062874727402
 20
1359.955579619435
 30
0.0
  0
SPLINE
  5
312
330
1F
100
AcDbEntity
  8
0
  6
Continuous
 62
     7
370
    35
100
AcDbSpline
210
0.0
220
0.0
230
1.0
 70
     8
 71
     3
 72
    12
 73
     8
 74
     0
 42
0.000000001
 43
0.00000001
 40
0.0
 40
0.0
 40
0.0
 40
0.0
 40
0.000011396415745
 40
0.0165615426248908
 40
0.2254762501766532
 40
0.6569695733824069
 40
1.0
 40
1.0
 40
1.0
 40
1.0
 10
1857.721130575176
 20
1351.911649224092
 30
0.0
 10
1857.72112538387
 20
1351.911635415437
 30
0.0
 10
1857.713581253624
 20
1351.891568349185
 30
0.0
 10
1857.609524287634
 20
1351.614869370434
 30
0.0
 10
1857.257186494232
 20
1350.678633675618
 30
0.0
 10
1856.67732767179
 20
1349.103652628819
 30
0.0
 10
1856.242545610272
 20
1347.851888274014
 30
0.0
 10
1856.049984083164
 20
1347.297491768095
 30
0.0
  0
SPLINE
  5
313
330
1F
100
AcDbEntity
  8
0
  6
Continuous
 62
     7
370
    35
100
AcDbSpline
210
0.0
220
0.0
230
1.0
 70
     8
 71
     3
 72
     9
 73
     5
 74
     0
 42
0.000000001
 43
0.00000001
 40
0.0
 40
0.0
 40
0.0
 40
0.0
 40
0.1562903953750601
 40
1.0
 40
1.0
 40
1.0
 40
1.0
 10
1857.730426361927
 20
1352.231249922461
 30
0.0
 10
1857.736221715792
 20
1352.24324296062
 30
0.0
 10
1857.773302394043
 20
1352.31997856635
 30
0.0
 10
1857.779203011178
 20
1352.325552443683
 30
0.0
 10
1857.784181418529
 20
1352.330255177524
 30
0.0
  0
SPLINE
  5
314
330
1F
100
AcDbEntity
  8
0
  6
Continuous
 62
     7
370
    35
100
AcDbSpline
210
0.0
220
0.0
230
1.0
 70
     8
 71
     3
 72
    11
 73
     7
 74
     0
 42
0.000000001
 43
0.00000001
 40
0.0
 40
0.0
 40
0.0
 40
0.0
 40
0.0402999249154324
 40
0.2187640754520134
 40
0.4992077406743786
 40
0.9999999999999999
 40
0.9999999999999999
 40
0.9999999999999999
 40
0.9999999999999999
 10
1861.093106721285
 20
1355.848534727553
 30
0.0
 10
1861.100682547583
 20
1355.903248975908
 30
0.0
 10
1861.141807156115
 20
1356.200259751496
 30
0.0
 10
1861.096029122747
 20
1356.886763922125
 30
0.0
 10
1861.123860960471
 20
1358.199278759396
 30
0.0
 10
1861.117704363251
 20
1359.269524595982
 30
0.0
 10
1861.113757826572
 20
1359.955579619435
 30
0.0
  0
SPLINE
  5
315
330
1F
100
AcDbEntity
  8
0
  6
Continuous
 62
     7
370
    35
100
AcDbSpline
210
0.0
220
0.0
230
1.0
 70
    24
 71
     3
 72
    13
 73
     9
 74
     0
 42
0.000000001
 43
0.00000001
 40
0.0
 40
0.0
 40
0.0
 40
0.0
 40
0.3696468379656958
 40
0.7491630569134671
 40
0.8272821734123921
 40
0.905179916335306
 40
0.9820955461922634
 40
1.0
 40
1.0
 40
1.0
 40
1.0
 10
1861.113757826572
 20
1359.955579619435
 30
0.0
 10
1861.101882360651
 20
1359.955579619435
 30
0.0
 10
1861.07781435996
 20
1359.955579619435
 30
0.0
 10
1861.212806499053
 20
1359.955579619435
 30
0.0
 10
1861.047924260784
 20
1359.955579619435
 30
0.0
 10
1861.364266783012
 20
1359.955579619434
 30
0.0
 10
1862.155011029559
 20
1359.955579619434
 30
0.0
 10
1863.004277687672
 20
1359.955579619434
 30
0.0
 10
1863.164640925743
 20
1359.955579619434
 30
0.0
  0
SPLINE
  5
316
330
1F
100
AcDbEntity
  8
0
  6
Continuous
 62
     7
370
    35
100
AcDbSpline
210
0.0
220
0.0
230
1.0
 70
     8
 71
     3
 72
    15
 73
    11
 74
     0
 42
0.000000001
 43
0.00000001
 40
0.0
 40
0.0
 40
0.0
 40
0.0
 40
0.1214527241786851
 40
0.2436356162157
 40
0.367963474812442
 40
0.4929996451849657
 40
0.6185865433805108
 40
0.7450337263103984
 40
0.871990258811901
 40
1.0
 40
1.0
 40
1.0
 40
1.0
 10
1852.875403777969
 20
1336.518541353016
 30
0.0
 10
1852.543957579711
 20
1335.045154598076
 30
0.0
 10
1851.879072544806
 20
1332.089523158834
 30
0.0
 10
1851.314367565756
 20
1327.544569164599
 30
0.0
 10
1851.052752885829
 20
1322.930837956808
 30
0.0
 10
1851.146719324498
 20
1318.266729977611
 30
0.0
 10
1851.609868906816
 20
1313.597710328289
 30
0.0
 10
1852.471343392138
 20
1308.962685779058
 30
0.0
 10
1853.711537013858
 20
1304.377179328749
 30
0.0
 10
1854.890426906174
 20
1301.43315030393
 30
0.0
 10
1855.482306717652
 20
1299.955055228593
 30
0.0
  0
SPLINE
  5
317
330
1F
100
AcDbEntity
  8
0
  6
Continuous
 62
     7
370
    35
100
AcDbSpline
210
0.0
220
0.0
230
1.0
 70
    24
 71
     3
 72
    14
 73
    10
 74
     0
 42
0.000000001
 43
0.00000001
 40
0.0
 40
0.0
 40
0.0
 40
0.0
 40
0.149783861674635
 40
0.3039198677007078
 40
0.4537011775423317
 40
0.6078081864720632
 40
0.757933700022959
 40
0.9123691506710971
 40
1.0
 40
1.0
 40
1.0
 40
1.0
 10
1889.613757826572
 20
1297.791586144648
 30
0.0
 10
1889.613757826572
 20
1297.066471631807
 30
0.0
 10
1889.613757826572
 20
1295.595173560396
 30
0.0
 10
1889.613757826572
 20
1293.700734763645
 30
0.0
 10
1889.613757826572
 20
1292.084255634701
 30
0.0
 10
1889.613757826572
 20
1290.834183978006
 30
0.0
 10
1889.613757826572
 20
1289.966286367723
 30
0.0
 10
1889.613757826572
 20
1289.558164953912
 30
0.0
 10
1889.613757826572
 20
1289.519556378203
 30
0.0
 10
1889.613757826572
 20
1289.505579619435
 30
0.0
  0
LINE
  5
318
330
1F
100
AcDbEntity
  8
0
  6
Continuous
 62
     7
370
    35
100
AcDbLine
 10
1916.6891704534
 20
1291.4026911611
 30
0.0
 11
1917.2046080936
 21
1291.6212092026
 31
0.0
  0
SPLINE
  5
319
330
1F
100
AcDbEntity
  8
0
  6
Continuous
 62
     7
370
    35
100
AcDbSpline
210
0.0
220
0.0
230
1.0
 70
     8
 71
     3
 72
    10
 73
     6
 74
     0
 42
0.000000001
 43
0.00000001
 40
0.0
 40
0.0
 40
0.0
 40
0.0
 40
0.3651912706225753
 40
0.9388408861888975
 40
0.9999999999999999
 40
0.9999999999999999
 40
0.9999999999999999
 40
0.9999999999999999
 10
1917.584664691503
 20
1291.853766634064
 30
0.0
 10
1917.654169018751
 20
1291.897652705664
 30
0.0
 10
1917.832852107411
 20
1292.010475879893
 30
0.0
 10
1918.048241457619
 20
1292.153049953631
 30
0.0
 10
1918.182071942476
 20
1292.251460587698
 30
0.0
 10
1918.194965517306
 20
1292.260941722551
 30
0.0
  0
SPLINE
  5
31A
330
1F
100
AcDbEntity
  8
0
  6
Continuous
 62
     7
370
    35
100
AcDbSpline
210
0.0
220
0.0
230
1.0
 70
    24
 71
     3
 72
    18
 73
    14
 74
     0
 42
0.000000001
 43
0.00000001
 40
0.0
 40
0.0
 40
0.0
 40
0.0
 40
0.0528900501225401
 40
0.1308503043354562
 40
0.2088349706568612
 40
0.2788361590001504
 40
0.3488290097785958
 40
0.4127449371310176
 40
0.4766197031471579
 40
0.540564108872833
 40
0.6045882679846488
 40
0.859606355973711
 40
1.0
 40
1.0
 40
1.0
 40
1.0
 10
1889.613757826572
 20
1289.505579619435
 30
0.0
 10
1890.500911772512
 20
1289.505579619435
 30
0.0
 10
1892.695736007879
 20
1289.505579619435
 30
0.0
 10
1896.056448541125
 20
1289.505579619435
 30
0.0
 10
1899.42994820858
 20
1289.505579619435
 30
0.0
 10
1902.349651932229
 20
1289.505579619435
 30
0.0
 10
1904.734859022377
 20
1289.505579619435
 30
0.0
 10
1906.654890086006
 20
1289.505579619435
 30
0.0
 10
1908.097688435472
 20
1289.505579619435
 30
0.0
 10
1909.014593982895
 20
1289.505579619435
 30
0.0
 10
1909.556767996427
 20
1289.505579619435
 30
0.0
 10
1909.527037079109
 20
1289.505579619435
 30
0.0
 10
1909.523558817361
 20
1289.505579619435
 30
0.0
 10
1909.522323836701
 20
1289.505579619435
 30
0.0
  0
LINE
  5
31B
330
1F
100
AcDbEntity
  8
0
  6
Continuous
 62
     7
370
    35
100
AcDbLine
 10
1862.5383451998
 20
1291.4026911611
 30
0.0
 11
1862.0229075595
 21
1291.6212092026
 31
0.0
  0
SPLINE
  5
31C
330
1F
100
AcDbEntity
  8
0
  6
Continuous
 62
     7
370
    35
100
AcDbSpline
210
0.0
220
0.0
230
1.0
 70
    24
 71
     3
 72
    18
 73
    14
 74
     0
 42
0.000000001
 43
0.00000001
 40
0.0
 40
0.0
 40
0.0
 40
0.0
 40
0.0528858667102824
 40
0.1296739535442632
 40
0.2088264841310586
 40
0.2780198271463592
 40
0.3488116530586097
 40
0.4119722453845613
 40
0.4765946606109359
 40
0.5395794985731217
 40
0.6046207084835594
 40
0.8595628981181055
 40
1.0
 40
1.0
 40
1.0
 40
1.0
 10
1889.613757826572
 20
1289.505579619435
 30
0.0
 10
1888.726663117855
 20
1289.505579619435
 30
0.0
 10
1886.551543653941
 20
1289.505579619435
 30
0.0
 10
1883.187947975531
 20
1289.505579619435
 30
0.0
 10
1879.825980382501
 20
1289.505579619434
 30
0.0
 10
1876.88687815092
 20
1289.505579619435
 30
0.0
 10
1874.510532510744
 20
1289.505579619435
 30
0.0
 10
1872.575638579075
 20
1289.505579619435
 30
0.0
 10
1871.149579132639
 20
1289.505579619435
 30
0.0
 10
1870.18422750677
 20
1289.505579619435
 30
0.0
 10
1869.707627682891
 20
1289.505579619435
 30
0.0
 10
1869.698478405342
 20
1289.505579619435
 30
0.0
 10
1869.704521651861
 20
1289.505579619435
 30
0.0
 10
1869.706668188225
 20
1289.505579619435
 30
0.0
  0
SPLINE
  5
31D
330
1F
100
AcDbEntity
  8
0
  6
Continuous
 62
     7
370
    35
100
AcDbSpline
210
0.0
220
0.0
230
1.0
 70
     8
 71
     3
 72
     9
 73
     5
 74
     0
 42
0.000000001
 43
0.00000001
 40
0.0
 40
0.0
 40
0.0
 40
0.0
 40
0.4409399519117777
 40
0.9999999999999999
 40
0.9999999999999999
 40
0.9999999999999999
 40
0.9999999999999999
 10
1861.652042168424
 20
1291.847922695662
 30
0.0
 10
1861.579575345265
 20
1291.8932479207
 30
0.0
 10
1861.415229105272
 20
1291.996040205322
 30
0.0
 10
1861.231006901844
 20
1292.123050338286
 30
0.0
 10
1861.128015627937
 20
1292.194056629328
 30
0.0
  0
SPLINE
  5
31E
330
1F
100
AcDbEntity
  8
0
  6
Continuous
 62
     7
370
    35
100
AcDbSpline
210
0.0
220
0.0
230
1.0
 70
     8
 71
     3
 72
    14
 73
    10
 74
     0
 42
0.000000001
 43
0.00000001
 40
0.0
 40
0.0
 40
0.0
 40
0.0
 40
0.1296969008660534
 40
0.2603671951156627
 40
0.3853421446376518
 40
0.511184755725962
 40
0.6397642884787734
 40
0.7692911603858883
 40
1.0
 40
1.0
 40
1.0
 40
1.0
 10
1924.933872716018
 20
1299.445851839195
 30
0.0
 10
1925.54818943868
 20
1300.979902823142
 30
0.0
 10
1926.781433416941
 20
1304.059518058262
 30
0.0
 10
1928.100307424613
 20
1308.795381449631
 30
0.0
 10
1929.032082715709
 20
1313.566720521055
 30
0.0
 10
1929.556736913467
 20
1318.375867208513
 30
0.0
 10
1929.668047891619
 20
1323.267247463412
 30
0.0
 10
1929.323378313076
 20
1329.496273875429
 30
0.0
 10
1928.343922850508
 20
1333.987230355858
 30
0.0
 10
1927.716641806471
 20
1336.863412048068
 30
0.0
  0
SPLINE
  5
31F
330
1F
100
AcDbEntity
  8
0
  6
Continuous
 62
     7
370
    35
100
AcDbSpline
210
0.0
220
0.0
230
1.0
 70
     8
 71
     3
 72
    14
 73
    10
 74
     0
 42
0.000000001
 43
0.00000001
 40
0.0
 40
0.0
 40
0.0
 40
0.0
 40
0.1296969008660467
 40
0.2603671951156621
 40
0.3853421446376476
 40
0.5111847557259603
 40
0.6397642884787722
 40
0.7692911603858875
 40
1.0
 40
1.0
 40
1.0
 40
1.0
 10
1854.293642937126
 20
1299.445851839194
 30
0.0
 10
1853.679326214464
 20
1300.979902823142
 30
0.0
 10
1852.446082236205
 20
1304.059518058262
 30
0.0
 10
1851.12720822853
 20
1308.79538144963
 30
0.0
 10
1850.195432937436
 20
1313.566720521055
 30
0.0
 10
1849.670778739677
 20
1318.375867208513
 30
0.0
 10
1849.559467761525
 20
1323.267247463411
 30
0.0
 10
1849.904137340068
 20
1329.496273875428
 30
0.0
 10
1850.883592802636
 20
1333.987230355858
 30
0.0
 10
1851.510873846673
 20
1336.863412048067
 30
0.0
  0
SPLINE
  5
320
330
1F
100
AcDbEntity
  8
0
  6
Continuous
 62
     7
370
    35
100
AcDbSpline
210
0.0
220
0.0
230
1.0
 70
     8
 71
     3
 72
    10
 73
     6
 74
     0
 42
0.000000001
 43
0.00000001
 40
0.0
 40
0.0
 40
0.0
 40
0.0
 40
0.3422812336048897
 40
0.6664353245310205
 40
1.0
 40
1.0
 40
1.0
 40
1.0
 10
1918.194965517306
 20
1292.260941722551
 30
0.0
 10
1918.959866141364
 20
1292.663855700529
 30
0.0
 10
1920.449158412106
 20
1293.448345416321
 30
0.0
 10
1922.310125371647
 20
1295.227025341142
 30
0.0
 10
1923.286973276748
 20
1296.586006214815
 30
0.0
 10
1923.782385557947
 20
1297.275218743416
 30
0.0
  0
SPLINE
  5
321
330
1F
100
AcDbEntity
  8
0
  6
Continuous
 62
     7
370
    35
100
AcDbSpline
210
0.0
220
0.0
230
1.0
 70
     8
 71
     3
 72
    10
 73
     6
 74
     0
 42
0.000000001
 43
0.00000001
 40
0.0
 40
0.0
 40
0.0
 40
0.0
 40
0.3422812336048847
 40
0.6664353245310173
 40
0.9999999999999999
 40
0.9999999999999999
 40
0.9999999999999999
 40
0.9999999999999999
 10
1861.032550135838
 20
1292.260941722551
 30
0.0
 10
1860.267649511781
 20
1292.663855700529
 30
0.0
 10
1858.778357241039
 20
1293.448345416321
 30
0.0
 10
1856.917390281497
 20
1295.227025341142
 30
0.0
 10
1855.940542376396
 20
1296.586006214815
 30
0.0
 10
1855.445130095197
 20
1297.275218743416
 30
0.0
  0
SPLINE
  5
322
330
1F
100
AcDbEntity
  8
0
  6
Continuous
 62
     7
370
    35
100
AcDbSpline
210
0.0
220
0.0
230
1.0
 70
     8
 71
     3
 72
     9
 73
     5
 74
     0
 42
0.000000001
 43
0.00000001
 40
0.0
 40
0.0
 40
0.0
 40
0.0
 40
0.8536363424240465
 40
0.9999999999999999
 40
0.9999999999999999
 40
0.9999999999999999
 40
0.9999999999999999
 10
1851.510873846673
 20
1336.863412048067
 30
0.0
 10
1852.382862770228
 20
1339.974492930367
 30
0.0
 10
1853.404362067081
 20
1343.618996716916
 30
0.0
 10
1854.628477523503
 20
1347.199112275121
 30
0.0
 10
1854.807643539
 20
1347.723111082764
 30
0.0
  0
SPLINE
  5
323
330
1F
100
AcDbEntity
  8
0
  6
Continuous
 62
     7
370
    35
100
AcDbSpline
210
0.0
220
0.0
230
1.0
 70
     8
 71
     3
 72
     9
 73
     5
 74
     0
 42
0.000000001
 43
0.00000001
 40
0.0
 40
0.0
 40
0.0
 40
0.0
 40
0.8536363424240645
 40
1.0
 40
1.0
 40
1.0
 40
1.0
 10
1927.716641806471
 20
1336.863412048068
 30
0.0
 10
1926.844652882916
 20
1339.974492930367
 30
0.0
 10
1925.823153586062
 20
1343.618996716915
 30
0.0
 10
1924.599038129642
 20
1347.199112275121
 30
0.0
 10
1924.419872114145
 20
1347.723111082764
 30
0.0
  0
SPLINE
  5
324
330
1F
100
AcDbEntity
  8
0
  6
Continuous
 62
     7
370
    35
100
AcDbSpline
210
0.0
220
0.0
230
1.0
 70
     8
 71
     3
 72
     9
 73
     5
 74
     0
 42
0.000000001
 43
0.00000001
 40
0.0
 40
0.0
 40
0.0
 40
0.0
 40
0.6310361367051194
 40
1.0
 40
1.0
 40
1.0
 40
1.0
 10
1854.807643539
 20
1347.723111082764
 30
0.0
 10
1855.215425135572
 20
1348.659592460848
 30
0.0
 10
1855.861634715108
 20
1350.143630099285
 30
0.0
 10
1856.964499689017
 20
1351.287802056243
 30
0.0
 10
1857.371417010483
 20
1351.709960161757
 30
0.0
  0
SPLINE
  5
325
330
1F
100
AcDbEntity
  8
0
  6
Continuous
 62
     7
370
    35
100
AcDbSpline
210
0.0
220
0.0
230
1.0
 70
     8
 71
     3
 72
     9
 73
     5
 74
     0
 42
0.000000001
 43
0.00000001
 40
0.0
 40
0.0
 40
0.0
 40
0.0
 40
0.6310361367052146
 40
1.0
 40
1.0
 40
1.0
 40
1.0
 10
1924.419872114145
 20
1347.723111082764
 30
0.0
 10
1924.012090517572
 20
1348.659592460848
 30
0.0
 10
1923.365880938036
 20
1350.143630099285
 30
0.0
 10
1922.263015964127
 20
1351.287802056244
 30
0.0
 10
1921.856098642661
 20
1351.709960161757
 30
0.0
  0
LINE
  5
326
330
1F
100
AcDbEntity
  8
0
  6
Continuous
 62
     7
370
    35
100
AcDbLine
 10
1923.7823855579
 20
1297.2752187434
 30
0.0
 11
1924.933872716
 21
1299.4458518392
 31
0.0
  0
LINE
  5
327
330
1F
100
AcDbEntity
  8
0
  6
Continuous
 62
     7
370
    35
100
AcDbLine
 10
1855.4451300952
 20
1297.2752187434
 30
0.0
 11
1854.2936429371
 21
1299.4458518392
 31
0.0
  0
LINE
  5
328
330
1F
100
AcDbEntity
  8
0
  6
Continuous
 62
     7
370
    35
100
AcDbLine
 10
1861.7516651777
 20
1291.7646681763
 30
0.0
 11
1862.2446325204
 21
1291.5461501348
 31
0.0
  0
LINE
  5
329
330
1F
100
AcDbEntity
  8
0
  6
Continuous
 62
     7
370
    35
100
AcDbLine
 10
1917.4758504755
 20
1291.7646681763
 30
0.0
 11
1916.9828831327
 21
1291.5461501348
 31
0.0
  0
LINE
  5
32A
330
1F
100
AcDbEntity
  8
0
  6
Continuous
 62
     7
370
    35
100
AcDbLine
 10
1857.3714170105
 20
1351.7099601618
 30
0.0
 11
1857.2263478405
 21
1351.5692506846
 31
0.0
  0
LINE
  5
32B
330
1F
100
AcDbEntity
  8
0
  6
Continuous
 62
     7
370
    35
100
AcDbLine
 10
1921.8560986427
 20
1351.7099601618
 30
0.0
 11
1922.0011678127
 21
1351.5692506846
 31
0.0
  0
SPLINE
  5
32C
330
1F
100
AcDbEntity
  8
0
  6
Continuous
 62
     7
370
    35
100
AcDbSpline
210
0.0
220
0.0
230
1.0
 70
     8
 71
     3
 72
    21
 73
    17
 74
     0
 42
0.000000001
 43
0.00000001
 40
0.0
 40
0.0
 40
0.0
 40
0.0
 40
0.0385875042306153
 40
0.1137555859598115
 40
0.1905584151146636
 40
0.267926112271839
 40
0.3425758673549471
 40
0.4177439138171303
 40
0.494546585997915
 40
0.5719140750339693
 40
0.646565932914419
 40
0.7217360672759642
 40
0.7985407486308923
 40
0.8759102056376938
 40
0.9905374157361703
 40
1.0
 40
1.0
 40
1.0
 40
1.0
 10
1926.891651892126
 20
1339.635553220218
 30
0.0
 10
1927.058744540208
 20
1339.554791776058
 30
0.0
 10
1927.55133203637
 20
1339.316707826692
 30
0.0
 10
1928.33033513807
 20
1338.830579723519
 30
0.0
 10
1929.224089163922
 20
1338.183650499227
 30
0.0
 10
1930.055048500199
 20
1337.460256510587
 30
0.0
 10
1930.817180387545
 20
1336.676237891804
 30
0.0
 10
1931.509703008486
 20
1335.833438686928
 30
0.0
 10
1932.136280355719
 20
1334.924564996476
 30
0.0
 10
1932.681677611297
 20
1333.967591351913
 30
0.0
 10
1933.14117023304
 20
1332.975301260641
 30
0.0
 10
1933.515737246518
 20
1331.950825251642
 30
0.0
 10
1933.806238380728
 20
1330.885683463656
 30
0.0
 10
1934.03840249222
 20
1329.613104324217
 30
0.0
 10
1934.111565107614
 20
1328.643942172093
 30
0.0
 10
1934.113602465896
 20
1328.047369020554
 30
0.0
 10
1934.113757826573
 20
1328.00187677242
 30
0.0
  0
SPLINE
  5
32D
330
1F
100
AcDbEntity
  8
0
  6
Continuous
 62
     7
370
    35
100
AcDbSpline
210
0.0
220
0.0
230
1.0
 70
    24
 71
     3
 72
    20
 73
    16
 74
     0
 42
0.000000001
 43
0.00000001
 40
0.0
 40
0.0
 40
0.0
 40
0.0
 40
0.0031848875244883
 40
0.0996872166702682
 40
0.1961928561586083
 40
0.2929138960264281
 40
0.3894614585497527
 40
0.4531459406897254
 40
0.5167654851003685
 40
0.6214864979190139
 40
0.726880812540412
 40
0.8182687157727467
 40
0.8939620144270485
 40
0.9698304221395907
 40
1.0
 40
1.0
 40
1.0
 40
1.0
 10
1934.113757826573
 20
1328.00187677242
 30
0.0
 10
1934.113757826573
 20
1328.002279419297
 30
0.0
 10
1934.113757826573
 20
1328.014882296513
 30
0.0
 10
1934.113757826572
 20
1327.854144686273
 30
0.0
 10
1934.113757826572
 20
1327.118620505416
 30
0.0
 10
1934.113757826572
 20
1325.908976383327
 30
0.0
 10
1934.113757826573
 20
1324.415970355528
 30
0.0
 10
1934.113757826572
 20
1322.788106545195
 30
0.0
 10
1934.113757826572
 20
1320.84585367051
 30
0.0
 10
1934.113757826573
 20
1318.178384368158
 30
0.0
 10
1934.113757826572
 20
1314.953785755941
 30
0.0
 10
1934.113757826573
 20
1312.232954839556
 30
0.0
 10
1934.113757826573
 20
1310.082156201394
 30
0.0
 10
1934.113757826573
 20
1308.639636681635
 30
0.0
 10
1934.113757826573
 20
1307.870343610788
 30
0.0
 10
1934.113757826573
 20
1307.651466883991
 30
0.0
  0
SPLINE
  5
32E
330
1F
100
AcDbEntity
  8
0
  6
Continuous
 62
     7
370
    35
100
AcDbSpline
210
0.0
220
0.0
230
1.0
 70
    24
 71
     3
 72
    10
 73
     6
 74
     0
 42
0.000000001
 43
0.00000001
 40
0.0
 40
0.0
 40
0.0
 40
0.0
 40
0.2479681796226356
 40
0.4972688069878626
 40
1.0
 40
1.0
 40
1.0
 40
1.0
 10
1934.113757826573
 20
1307.651466883991
 30
0.0
 10
1934.113757826572
 20
1307.344972314029
 30
0.0
 10
1934.113757826572
 20
1306.730336236991
 30
0.0
 10
1934.113757826573
 20
1305.624266018888
 30
0.0
 10
1934.113757826573
 20
1304.866814950608
 30
0.0
 10
1934.113757826573
 20
1304.360461005354
 30
0.0
  0
LINE
  5
32F
330
1F
100
AcDbEntity
  8
0
  6
Continuous
 62
     7
370
    35
100
AcDbLine
 10
1934.1137578266
 20
1304.3604610054
 30
0.0
 11
1934.1137578266
 21
1302.5055796194
 31
0.0
  0
LINE
  5
330
330
1F
100
AcDbEntity
  8
0
  6
Continuous
 62
     7
370
    35
100
AcDbLine
 10
1824.1137578266
 20
1369.952018119
 30
0.0
 11
1824.1137578266
 21
1370.952018119
 31
0.0
  0
LINE
  5
331
330
1F
100
AcDbEntity
  8
0
  6
Continuous
 62
     7
370
    35
100
AcDbLine
 10
1824.1137578266
 20
1370.952018119
 30
0.0
 11
1834.1137578266
 21
1370.952018119
 31
0.0
  0
LINE
  5
332
330
1F
100
AcDbEntity
  8
0
  6
Continuous
 62
     7
370
    35
100
AcDbLine
 10
1834.1137578266
 20
1369.952018119
 30
0.0
 11
1824.1137578266
 21
1369.952018119
 31
0.0
  0
LINE
  5
333
330
1F
100
AcDbEntity
  8
0
  6
Continuous
 62
     7
370
    35
100
AcDbLine
 10
1955.1137578266
 20
1370.952018119
 30
0.0
 11
1955.1137578266
 21
1369.952018119
 31
0.0
  0
LINE
  5
334
330
1F
100
AcDbEntity
  8
0
  6
Continuous
 62
     7
370
    35
100
AcDbLine
 10
1945.1137578266
 20
1370.952018119
 30
0.0
 11
1955.1137578266
 21
1370.952018119
 31
0.0
  0
LINE
  5
335
330
1F
100
AcDbEntity
  8
0
  6
Continuous
 62
     7
370
    35
100
AcDbLine
 10
1955.1137578266
 20
1369.952018119
 30
0.0
 11
1945.1137578266
 21
1369.952018119
 31
0.0
  0
LINE
  5
336
330
1F
100
AcDbEntity
  8
0
  6
Continuous
 62
     7
370
    35
100
AcDbLine
 10
1945.1137578266
 20
1370.952018119
 30
0.0
 11
1834.1137578266
 21
1370.952018119
 31
0.0
  0
LINE
  5
337
330
1F
100
AcDbEntity
  8
0
  6
Continuous
 62
     7
370
    35
100
AcDbLine
 10
1945.1137578266
 20
1369.952018119
 30
0.0
 11
1834.1137578266
 21
1369.952018119
 31
0.0
  0
LINE
  5
338
330
1F
100
AcDbEntity
  8
0
  6
Continuous
 62
     7
370
    35
100
AcDbLine
 10
1924.6137578266
 20
1382.952018119
 30
0.0
 11
1924.6137578266
 21
1381.952018119
 31
0.0
  0
LINE
  5
339
330
1F
100
AcDbEntity
  8
0
  6
Continuous
 62
     7
370
    35
100
AcDbLine
 10
1854.6137578266
 20
1381.952018119
 30
0.0
 11
1854.6137578266
 21
1382.952018119
 31
0.0
  0
LINE
  5
33A
330
1F
100
AcDbEntity
  8
0
  6
Continuous
 62
     7
370
    35
100
AcDbLine
 10
1905.7685213031
 20
1355.1552437819
 30
0.0
 11
1921.3339943501
 21
1362.4135430665
 31
0.0
  0
LINE
  5
33B
330
1F
100
AcDbEntity
  8
0
  6
Continuous
 62
     7
370
    35
100
AcDbLine
 10
1904.6137578266
 20
1319.052018119
 30
0.0
 11
1904.6137578266
 21
1353.3426282079
 31
0.0
  0
ARC
  5
33C
330
1F
100
AcDbEntity
  8
0
  6
Continuous
 62
     7
370
    35
100
AcDbCircle
 10
1902.6137578266
 20
1319.052018119
 30
0.0
 40
2.0
100
AcDbArc
 50
270.0
 51
0.0
  0
ARC
  5
33D
330
1F
100
AcDbEntity
  8
0
  6
Continuous
 62
     7
370
    35
100
AcDbCircle
 10
1876.6137578266
 20
1319.052018119
 30
0.0
 40
2.0
100
AcDbArc
 50
180.0
 51
270.0
  0
ARC
  5
33E
330
1F
100
AcDbEntity
  8
0
  6
Continuous
 62
     7
370
    35
100
AcDbCircle
 10
1872.6137578266
 20
1353.3426282079
 30
0.0
 40
2.000000000000137
100
AcDbArc
 50
0.0
 51
65.0
  0
ARC
  5
33F
330
1F
100
AcDbEntity
  8
0
  6
Continuous
 62
     7
370
    35
100
AcDbCircle
 10
1858.7387578266
 20
1364.2261586406
 30
0.0
 40
2.000000000000425
100
AcDbArc
 50
180.0
 51
245.0
  0
LINE
  5
340
330
1F
100
AcDbEntity
  8
0
  6
Continuous
 62
     7
370
    35
100
AcDbLine
 10
1856.7387578266
 20
1369.952018119
 30
0.0
 11
1856.7387578266
 21
1364.2261586406
 31
0.0
  0
LINE
  5
341
330
1F
100
AcDbEntity
  8
0
  6
Continuous
 62
     7
370
    35
100
AcDbLine
 10
1854.6137578266
 20
1381.952018119
 30
0.0
 11
1854.6137578266
 21
1370.952018119
 31
0.0
  0
LINE
  5
342
330
1F
100
AcDbEntity
  8
0
  6
Continuous
 62
     7
370
    35
100
AcDbLine
 10
1888.6137578266
 20
1337.052018119
 30
0.0
 11
1888.6137578266
 21
1347.052018119
 31
0.0
  0
ARC
  5
343
330
1F
100
AcDbEntity
  8
0
  6
Continuous
 62
     7
370
    35
100
AcDbCircle
 10
1906.6137578266
 20
1353.3426282079
 30
0.0
 40
2.0
100
AcDbArc
 50
115.0
 51
180.0
  0
ARC
  5
344
330
1F
100
AcDbEntity
  8
0
  6
Continuous
 62
     7
370
    35
100
AcDbCircle
 10
1882.1137578266
 20
1347.052018119
 30
0.0
 40
6.5
100
AcDbArc
 50
0.0
 51
180.0
  0
CIRCLE
  5
345
330
1F
100
AcDbEntity
  8
0
  6
Continuous
 62
     7
370
    35
100
AcDbCircle
 10
1889.6137578266
 20
1325.052018119
 30
0.0
 40
4.25
  0
LINE
  5
346
330
1F
100
AcDbEntity
  8
0
  6
Continuous
 62
     7
370
    35
100
AcDbLine
 10
1874.6137578266
 20
1353.3426282079
 30
0.0
 11
1874.6137578266
 21
1319.052018119
 31
0.0
  0
LINE
  5
347
330
1F
100
AcDbEntity
  8
0
  6
Continuous
 62
     7
370
    35
100
AcDbLine
 10
1857.8935213031
 20
1362.4135430665
 30
0.0
 11
1873.4589943501
 21
1355.1552437819
 31
0.0
  0
LINE
  5
348
330
1F
100
AcDbEntity
  8
0
  6
Continuous
 62
     7
370
    35
100
AcDbLine
 10
1903.6137578266
 20
1347.052018119
 30
0.0
 11
1903.6137578266
 21
1337.052018119
 31
0.0
  0
ARC
  5
349
330
1F
100
AcDbEntity
  8
0
  6
Continuous
 62
     7
370
    35
100
AcDbCircle
 10
1897.1137578266
 20
1347.052018119
 30
0.0
 40
6.5
100
AcDbArc
 50
0.0
 51
180.0
  0
LINE
  5
34A
330
1F
100
AcDbEntity
  8
0
  6
Continuous
 62
     7
370
    35
100
AcDbLine
 10
1875.6137578266
 20
1347.052018119
 30
0.0
 11
1875.6137578266
 21
1337.052018119
 31
0.0
  0
LINE
  5
34B
330
1F
100
AcDbEntity
  8
0
  6
Continuous
 62
     7
370
    35
100
AcDbLine
 10
1924.6137578266
 20
1370.952018119
 30
0.0
 11
1924.6137578266
 21
1381.952018119
 31
0.0
  0
LINE
  5
34C
330
1F
100
AcDbEntity
  8
0
  6
Continuous
 62
     7
370
    35
100
AcDbLine
 10
1922.4887578266
 20
1364.2261586406
 30
0.0
 11
1922.4887578266
 21
1369.952018119
 31
0.0
  0
LINE
  5
34D
330
1F
100
AcDbEntity
  8
0
  6
Continuous
 62
     7
370
    35
100
AcDbLine
 10
1890.6137578266
 20
1337.052018119
 30
0.0
 11
1890.6137578266
 21
1347.052018119
 31
0.0
  0
ARC
  5
34E
330
1F
100
AcDbEntity
  8
0
  6
Continuous
 62
     7
370
    35
100
AcDbCircle
 10
1897.1137578266
 20
1337.052018119
 30
0.0
 40
6.5
100
AcDbArc
 50
180.0
 51
0.0
  0
ARC
  5
34F
330
1F
100
AcDbEntity
  8
0
  6
Continuous
 62
     7
370
    35
100
AcDbCircle
 10
1920.4887578266
 20
1364.2261586406
 30
0.0
 40
1.999999999999545
100
AcDbArc
 50
295.0
 51
0.0
  0
LINE
  5
350
330
1F
100
AcDbEntity
  8
0
  6
Continuous
 62
     7
370
    35
100
AcDbLine
 10
1876.6137578266
 20
1317.052018119
 30
0.0
 11
1902.6137578266
 21
1317.052018119
 31
0.0
  0
ARC
  5
351
330
1F
100
AcDbEntity
  8
0
  6
Continuous
 62
     7
370
    35
100
AcDbCircle
 10
1882.1137578266
 20
1337.052018119
 30
0.0
 40
6.5
100
AcDbArc
 50
180.0
 51
0.0
  0
LINE
  5
352
330
1F
100
AcDbEntity
  8
0
  6
Continuous
 62
     8
370
    18
100
AcDbLine
 10
1856.6137578266
 20
1368.7139366083
 30
0.0
 11
1856.7387578266
 21
1368.7139366083
 31
0.0
  0
LINE
  5
353
330
1F
100
AcDbEntity
  8
0
  6
Continuous
 62
     8
370
    18
100
AcDbLine
 10
1922.4887578266
 20
1368.7139366083
 30
0.0
 11
1922.6137578266
 21
1368.7139366083
 31
0.0
  0
SPLINE
  5
354
330
1F
100
AcDbEntity
  8
0
  6
Continuous
 62
     8
370
    18
100
AcDbSpline
210
0.0
220
0.0
230
1.0
 70
     8
 71
     3
 72
     9
 73
     5
 74
     0
 42
0.000000001
 43
0.00000001
 40
0.0
 40
0.0
 40
0.0
 40
0.0
 40
0.4639726887334676
 40
1.0
 40
1.0
 40
1.0
 40
1.0
 10
1921.558145553718
 20
1352.105494107439
 30
0.0
 10
1921.528730334111
 20
1352.166863745856
 30
0.0
 10
1921.465331732596
 20
1352.299133683088
 30
0.0
 10
1921.451010699487
 20
1352.319394712438
 30
0.0
 10
1921.443334234615
 20
1352.330255177524
 30
0.0
  0
LINE
  5
355
330
1F
100
AcDbEntity
  8
0
  6
Continuous
 62
     8
370
    18
100
AcDbLine
 10
1921.4433342346
 20
1352.3302551775
 30
0.0
 11
1921.2867669884
 21
1352.4531760977
 31
0.0
  0
SPLINE
  5
356
330
1F
100
AcDbEntity
  8
0
  6
Continuous
 62
     8
370
    18
100
AcDbSpline
210
0.0
220
0.0
230
1.0
 70
     8
 71
     3
 72
    11
 73
     7
 74
     0
 42
0.000000001
 43
0.00000001
 40
0.0
 40
0.0
 40
0.0
 40
0.0
 40
0.2986044395549191
 40
0.5785107697796672
 40
0.9999675635114517
 40
1.0
 40
1.0
 40
1.0
 40
1.0
 10
1921.286766988363
 20
1352.453176097673
 30
0.0
 10
1921.286700406308
 20
1352.447340018572
 30
0.0
 10
1921.286571411455
 20
1352.436033305858
 30
0.0
 10
1921.366252619802
 20
1352.262599357639
 30
0.0
 10
1921.453326354979
 20
1352.056894452787
 30
0.0
 10
1921.50638099505
 20
1351.91166040085
 30
0.0
 10
1921.506385077968
 20
1351.911649224093
 30
0.0
  0
SPLINE
  5
357
330
1F
100
AcDbEntity
  8
0
  6
Continuous
 62
     8
370
    18
100
AcDbSpline
210
0.0
220
0.0
230
1.0
 70
     8
 71
     3
 72
    10
 73
     6
 74
     0
 42
0.000000001
 43
0.00000001
 40
0.0
 40
0.0
 40
0.0
 40
0.0
 40
0.0305940752880621
 40
0.8849546452569942
 40
0.9999999999999999
 40
0.9999999999999999
 40
0.9999999999999999
 40
0.9999999999999999
 10
1923.177531569981
 20
1347.297491768095
 30
0.0
 10
1923.214623803465
 20
1347.189053525919
 30
0.0
 10
1924.287542138643
 20
1344.052402875958
 30
0.0
 10
1925.347941888437
 20
1340.454616412524
 30
0.0
 10
1926.245583260626
 20
1336.936104742074
 30
0.0
 10
1926.352111875175
 20
1336.518541353017
 30
0.0
  0
LINE
  5
358
330
1F
100
AcDbEntity
  8
0
  6
Continuous
 62
     8
370
    18
100
AcDbLine
 10
1923.7452089355
 20
1299.9550552286
 30
0.0
 11
1922.8278554133
 21
1297.9518211832
 31
0.0
  0
SPLINE
  5
359
330
1F
100
AcDbEntity
  8
0
  6
Continuous
 62
     8
370
    18
100
AcDbSpline
210
0.0
220
0.0
230
1.0
 70
     8
 71
     3
 72
    18
 73
    14
 74
     0
 42
0.000000001
 43
0.00000001
 40
0.0
 40
0.0
 40
0.0
 40
0.0
 40
0.0497884573626106
 40
0.1520626953526052
 40
0.2542931679105415
 40
0.3525326664708923
 40
0.4508084200367183
 40
0.5543273934134058
 40
0.6578565275353612
 40
0.7740307271289424
 40
0.8901694733964504
 40
0.9999988953086805
 40
1.0
 40
1.0
 40
1.0
 40
1.0
 10
1922.827855413277
 20
1297.951821183153
 30
0.0
 10
1922.818660755687
 20
1297.967482079347
 30
0.0
 10
1922.790578656137
 20
1298.015313207546
 30
0.0
 10
1922.356785566773
 20
1298.100521176576
 30
0.0
 10
1920.840841998055
 20
1298.15609211643
 30
0.0
 10
1918.480870962568
 20
1298.220485818477
 30
0.0
 10
1915.391402634337
 20
1298.245575471089
 30
0.0
 10
1911.57687320809
 20
1298.234424664274
 30
0.0
 10
1906.943394580698
 20
1298.187528000367
 30
0.0
 10
1901.570628566926
 20
1298.108646663841
 30
0.0
 10
1895.669269955036
 20
1297.983375342721
 30
0.0
 10
1891.597890282223
 20
1297.859015754083
 30
0.0
 10
1889.613777783062
 20
1297.791586822858
 30
0.0
 10
1889.613757826572
 20
1297.791586144648
 30
0.0
  0
SPLINE
  5
35A
330
1F
100
AcDbEntity
  8
0
  6
Continuous
 62
     8
370
    18
100
AcDbSpline
210
0.0
220
0.0
230
1.0
 70
     8
 71
     3
 72
    10
 73
     6
 74
     0
 42
0.000000001
 43
0.00000001
 40
0.0
 40
0.0
 40
0.0
 40
0.0
 40
0.0305940752880844
 40
0.8849546452569768
 40
1.0
 40
1.0
 40
1.0
 40
1.0
 10
1856.049984083164
 20
1347.297491768095
 30
0.0
 10
1856.012891849679
 20
1347.189053525919
 30
0.0
 10
1854.939973514494
 20
1344.05240287596
 30
0.0
 10
1853.87957376471
 20
1340.454616412523
 30
0.0
 10
1852.981932392519
 20
1336.936104742073
 30
0.0
 10
1852.875403777969
 20
1336.518541353016
 30
0.0
  0
SPLINE
  5
35B
330
1F
100
AcDbEntity
  8
0
  6
Continuous
 62
     8
370
    18
100
AcDbSpline
210
0.0
220
0.0
230
1.0
 70
     8
 71
     3
 72
    11
 73
     7
 74
     0
 42
0.000000001
 43
0.00000001
 40
0.0
 40
0.0
 40
0.0
 40
0.0
 40
0.298604439554736
 40
0.5785107697795621
 40
0.9999675635113832
 40
1.0
 40
1.0
 40
1.0
 40
1.0
 10
1857.940748664781
 20
1352.453176097673
 30
0.0
 10
1857.940815246834
 20
1352.447340018567
 30
0.0
 10
1857.940944241686
 20
1352.436033305843
 30
0.0
 10
1857.861263033354
 20
1352.262599357706
 30
0.0
 10
1857.774189298124
 20
1352.056894452561
 30
0.0
 10
1857.721134658095
 20
1351.911660400849
 30
0.0
 10
1857.721130575176
 20
1351.911649224092
 30
0.0
  0
LINE
  5
35C
330
1F
100
AcDbEntity
  8
0
  6
Continuous
 62
     8
370
    18
100
AcDbLine
 10
1857.7841814185
 20
1352.3302551775
 30
0.0
 11
1857.9407486648
 21
1352.4531760977
 31
0.0
  0
SPLINE
  5
35D
330
1F
100
AcDbEntity
  8
0
  6
Continuous
 62
     8
370
    18
100
AcDbSpline
210
0.0
220
0.0
230
1.0
 70
     8
 71
     3
 72
    18
 73
    14
 74
     0
 42
0.000000001
 43
0.00000001
 40
0.0
 40
0.0
 40
0.0
 40
0.0
 40
0.0497884573626104
 40
0.1520626953526046
 40
0.2542931679105392
 40
0.3525326664708902
 40
0.4508084200367165
 40
0.5543273934134043
 40
0.65785652753536
 40
0.774030727128942
 40
0.8901694733964504
 40
0.9999988953086805
 40
1.0
 40
1.0
 40
1.0
 40
1.0
 10
1856.399660239867
 20
1297.951821183153
 30
0.0
 10
1856.408854897458
 20
1297.967482079347
 30
0.0
 10
1856.436936997008
 20
1298.015313207545
 30
0.0
 10
1856.870730086372
 20
1298.100521176576
 30
0.0
 10
1858.386673655089
 20
1298.15609211643
 30
0.0
 10
1860.746644690576
 20
1298.220485818476
 30
0.0
 10
1863.836113018807
 20
1298.245575471088
 30
0.0
 10
1867.650642445054
 20
1298.234424664274
 30
0.0
 10
1872.284121072446
 20
1298.187528000367
 30
0.0
 10
1877.656887086218
 20
1298.108646663841
 30
0.0
 10
1883.558245698108
 20
1297.98337534272
 30
0.0
 10
1887.629625370922
 20
1297.859015754083
 30
0.0
 10
1889.613737870082
 20
1297.791586822858
 30
0.0
 10
1889.613757826572
 20
1297.791586144648
 30
0.0
  0
LINE
  5
35E
330
1F
100
AcDbEntity
  8
0
  6
Continuous
 62
     8
370
    18
100
AcDbLine
 10
1855.4823067177
 20
1299.9550552286
 30
0.0
 11
1856.3996602399
 21
1297.9518211832
 31
0.0
  0
LINE
  5
35F
330
1F
100
AcDbEntity
  8
0
  6
Continuous
 62
     8
370
    18
100
AcDbLine
 10
1922.8278554133
 20
1297.9518211832
 30
0.0
 11
1922.7507343306
 21
1297.7947093236
 31
0.0
  0
SPLINE
  5
360
330
1F
100
AcDbEntity
  8
0
  6
Continuous
 62
     8
370
    18
100
AcDbSpline
210
0.0
220
0.0
230
1.0
 70
     8
 71
     3
 72
    14
 73
    10
 74
     0
 42
0.000000001
 43
0.00000001
 40
0.0
 40
0.0
 40
0.0
 40
0.0
 40
0.2135072054013618
 40
0.6517504153255602
 40
0.8731400298126226
 40
0.9340362681777995
 40
0.9607431005770669
 40
0.9801118651181868
 40
1.0
 40
1.0
 40
1.0
 40
1.0
 10
1922.750734330554
 20
1297.794709323638
 30
0.0
 10
1922.423849198605
 20
1297.20084045511
 30
0.0
 10
1921.426002216762
 20
1295.388001019621
 30
0.0
 10
1919.524676005104
 20
1293.333977057539
 30
0.0
 10
1917.682539925833
 20
1292.002520664909
 30
0.0
 10
1916.937527309686
 20
1291.551950094449
 30
0.0
 10
1916.752382493767
 20
1291.443070785602
 30
0.0
 10
1916.686493072019
 20
1291.403624847136
 30
0.0
 10
1916.688270155967
 20
1291.403005122799
 30
0.0
 10
1916.689170453387
 20
1291.402691161141
 30
0.0
  0
SPLINE
  5
361
330
1F
100
AcDbEntity
  8
0
  6
Continuous
 62
     8
370
    18
100
AcDbSpline
210
0.0
220
0.0
230
1.0
 70
     8
 71
     3
 72
     9
 73
     5
 74
     0
 42
0.000000001
 43
0.00000001
 40
0.0
 40
0.0
 40
0.0
 40
0.0
 40
0.5224329713472005
 40
1.0
 40
1.0
 40
1.0
 40
1.0
 10
1917.204608093648
 20
1291.621209202593
 30
0.0
 10
1917.207383266345
 20
1291.62260292047
 30
0.0
 10
1917.2126952831
 20
1291.625270665335
 30
0.0
 10
1917.24699806696
 20
1291.645544210401
 30
0.0
 10
1917.263379945522
 20
1291.655226187079
 30
0.0
  0
SPLINE
  5
362
330
1F
100
AcDbEntity
  8
0
  6
Continuous
 62
     8
370
    18
100
AcDbSpline
210
0.0
220
0.0
230
1.0
 70
     8
 71
     3
 72
     9
 73
     5
 74
     0
 42
0.000000001
 43
0.00000001
 40
0.0
 40
0.0
 40
0.0
 40
0.0
 40
0.3615544521490409
 40
1.0
 40
1.0
 40
1.0
 40
1.0
 10
1917.361692268825
 20
1291.714065173688
 30
0.0
 10
1917.383889528656
 20
1291.727364450537
 30
0.0
 10
1917.445283489367
 20
1291.764148057458
 30
0.0
 10
1917.530352658934
 20
1291.818845375122
 30
0.0
 10
1917.584664691503
 20
1291.853766634064
 30
0.0
  0
SPLINE
  5
363
330
1F
100
AcDbEntity
  8
0
  6
Continuous
 62
     8
370
    18
100
AcDbSpline
210
0.0
220
0.0
230
1.0
 70
     8
 71
     3
 72
    14
 73
    10
 74
     0
 42
0.000000001
 43
0.00000001
 40
0.0
 40
0.0
 40
0.0
 40
0.0
 40
0.2135072054014815
 40
0.6517504153255894
 40
0.8731400298126337
 40
0.9340362681778054
 40
0.9607431005770704
 40
0.9801118651181885
 40
1.0
 40
1.0
 40
1.0
 40
1.0
 10
1856.47678132259
 20
1297.794709323641
 30
0.0
 10
1856.803666454539
 20
1297.200840455111
 30
0.0
 10
1857.801513436383
 20
1295.38800101962
 30
0.0
 10
1859.70283964804
 20
1293.333977057539
 30
0.0
 10
1861.544975727311
 20
1292.002520664909
 30
0.0
 10
1862.289988343458
 20
1291.551950094448
 30
0.0
 10
1862.475133159377
 20
1291.443070785602
 30
0.0
 10
1862.541022581125
 20
1291.403624847136
 30
0.0
 10
1862.539245497177
 20
1291.403005122799
 30
0.0
 10
1862.538345199757
 20
1291.402691161141
 30
0.0
  0
LINE
  5
364
330
1F
100
AcDbEntity
  8
0
  6
Continuous
 62
     8
370
    18
100
AcDbLine
 10
1856.3996602399
 20
1297.9518211832
 30
0.0
 11
1856.4767813226
 21
1297.7947093236
 31
0.0
  0
SPLINE
  5
365
330
1F
100
AcDbEntity
  8
0
  6
Continuous
 62
     8
370
    18
100
AcDbSpline
210
0.0
220
0.0
230
1.0
 70
     8
 71
     3
 72
     9
 73
     5
 74
     0
 42
0.000000001
 43
0.00000001
 40
0.0
 40
0.0
 40
0.0
 40
0.0
 40
0.4374209942641842
 40
1.0
 40
1.0
 40
1.0
 40
1.0
 10
1862.022907559497
 20
1291.621209202593
 30
0.0
 10
1862.019703197242
 20
1291.622863562955
 30
0.0
 10
1862.012377617773
 20
1291.626645641054
 30
0.0
 10
1861.97042696818
 20
1291.651455174699
 30
0.0
 10
1861.946826413442
 20
1291.66541249747
 30
0.0
  0
LINE
  5
366
330
1F
100
AcDbEntity
  8
0
  6
Continuous
 62
     8
370
    18
100
AcDbLine
 10
1861.7775654866
 20
1291.7681126602
 30
0.0
 11
1861.6520421684
 21
1291.8479226957
 31
0.0
  0
LWPOLYLINE
  5
367
330
1F
100
AcDbEntity
  8
0
  6
Continuous
 62
     8
370
    18
100
AcDbPolyline
 90
        9
 70
   128
 43
0.0
 10
1855.4823067177
 20
1299.9550552286
 10
1855.4653713552
 20
1299.9476885207
 10
1855.4268379613
 20
1299.9309800643
 10
1855.3670107557
 20
1299.9050617719
 10
1855.2863620722
 20
1299.8701382676
 10
1855.1855286293
 20
1299.8264852713
 10
1855.0653065035
 20
1299.7744474218
 10
1854.9266448443
 20
1299.7144355561
 10
1854.7706383807
 20
1299.6469234659
  0
SPLINE
  5
368
330
1F
100
AcDbEntity
  8
0
  6
Continuous
 62
     8
370
    18
100
AcDbSpline
210
0.0
220
0.0
230
1.0
 70
     8
 71
     3
 72
    14
 73
    10
 74
     0
 42
0.000000001
 43
0.00000001
 40
0.0
 40
0.0
 40
0.0
 40
0.0
 40
0.1277343155302457
 40
0.2554736424753188
 40
0.3815295141037277
 40
0.507590026281417
 40
0.7106819552125418
 40
0.9137761853290173
 40
1.0
 40
1.0
 40
1.0
 40
1.0
 10
1854.770638380716
 20
1299.646923465903
 30
0.0
 10
1854.171396845867
 20
1301.142676489731
 30
0.0
 10
1852.972890266057
 20
1304.134241220434
 30
0.0
 10
1851.685489782928
 20
1308.778176541192
 30
0.0
 10
1850.776148965462
 20
1313.484076628227
 30
0.0
 10
1850.164927619098
 20
1319.197191362133
 30
0.0
 10
1850.177690269105
 20
1325.924228893315
 30
0.0
 10
1850.95278823676
 20
1332.106061547962
 30
0.0
 10
1851.800579272748
 20
1335.654237119884
 30
0.0
 10
1852.053241623001
 20
1336.711679745553
 30
0.0
  0
ARC
  5
369
330
1F
100
AcDbEntity
  8
0
  6
Continuous
 62
     8
370
    18
100
AcDbCircle
 10
1857.4088635565
 20
1357.6633046039
 30
0.0
 40
21.62529237948377
100
AcDbArc
 50
255.6611818031
 51
257.8989240717
  0
SPLINE
  5
36A
330
1F
100
AcDbEntity
  8
0
  6
Continuous
 62
     8
370
    18
100
AcDbSpline
210
0.0
220
0.0
230
1.0
 70
     8
 71
     3
 72
    14
 73
    10
 74
     0
 42
0.000000001
 43
0.00000001
 40
0.0
 40
0.0
 40
0.0
 40
0.0
 40
0.127247386060472
 40
0.2554745767697364
 40
0.3810919869018176
 40
0.5075916090131541
 40
0.7089607368256274
 40
0.9137762176246975
 40
1.0
 40
1.0
 40
1.0
 40
1.0
 10
1924.456877272429
 20
1299.646923465903
 30
0.0
 10
1925.054193126697
 20
1301.136832829833
 30
0.0
 10
1926.25342416626
 20
1304.128123857176
 30
0.0
 10
1927.539055050814
 20
1308.766886468468
 30
0.0
 10
1928.451134946954
 20
1313.478462461947
 30
0.0
 10
1929.060122613068
 20
1319.170092787935
 30
0.0
 10
1929.050674558666
 20
1325.902159915231
 30
0.0
 10
1928.27979154515
 20
1332.084962841431
 30
0.0
 10
1927.426940976324
 20
1335.654239754653
 30
0.0
 10
1927.174274030143
 20
1336.711679745553
 30
0.0
  0
LWPOLYLINE
  5
36B
330
1F
100
AcDbEntity
  8
0
  6
Continuous
 62
     8
370
    18
100
AcDbPolyline
 90
        9
 70
   128
 43
0.0
 10
1923.7452089355
 20
1299.9550552286
 10
1923.762144298
 20
1299.9476885207
 10
1923.8006776919
 20
1299.9309800643
 10
1923.8605048974
 20
1299.9050617719
 10
1923.9411535809
 20
1299.8701382676
 10
1924.0419870239
 20
1299.8264852713
 10
1924.1622091496
 20
1299.7744474218
 10
1924.3008708088
 20
1299.7144355561
 10
1924.4568772724
 20
1299.6469234659
  0
ARC
  5
36C
330
1F
100
AcDbEntity
  8
0
  6
Continuous
 62
     8
370
    18
100
AcDbCircle
 10
1921.8186520963
 20
1357.6633046055
 30
0.0
 40
21.62529238120312
100
AcDbArc
 50
282.1010759284
 51
284.3388181968
  0
SPLINE
  5
36D
330
1F
100
AcDbEntity
  8
0
  6
Continuous
 62
     8
370
    18
100
AcDbSpline
210
0.0
220
0.0
230
1.0
 70
     8
 71
     3
 72
    17
 73
    13
 74
     0
 42
0.000000001
 43
0.00000001
 40
0.0
 40
0.0
 40
0.0
 40
0.0
 40
0.0045109817899505
 40
0.0089278415503377
 40
0.0130797684277631
 40
0.01777779217689
 40
0.0339670776357903
 40
0.0840600072516065
 40
0.3047425979556602
 40
0.7692822253149062
 40
0.8273200843747949
 40
0.9999999999999999
 40
0.9999999999999999
 40
0.9999999999999999
 40
0.9999999999999999
 10
1916.982883132712
 20
1291.546150134839
 30
0.0
 10
1916.978563844773
 20
1291.544386346028
 30
0.0
 10
1916.970015391217
 20
1291.540895570014
 30
0.0
 10
1916.971207849965
 20
1291.54261010581
 30
0.0
 10
1916.98605694626
 20
1291.55093101166
 30
0.0
 10
1917.032995557832
 20
1291.575601063096
 30
0.0
 10
1917.215340083707
 20
1291.668813254908
 30
0.0
 10
1917.983347139968
 20
1292.072757196235
 30
0.0
 10
1919.880262923115
 20
1293.263870565485
 30
0.0
 10
1921.524238036442
 20
1294.860983092058
 30
0.0
 10
1922.792895891748
 20
1296.547632928997
 30
0.0
 10
1923.158491159205
 20
1297.145764806751
 30
0.0
 10
1923.432119664957
 20
1297.593434529312
 30
0.0
  0
ARC
  5
36E
330
1F
100
AcDbEntity
  8
0
  6
Continuous
 62
     8
370
    18
100
AcDbCircle
 10
1918.1369578117
 20
1288.8109418481
 30
0.0
 40
2.968712302738578
100
AcDbArc
 50
112.8764869257
 51
119.1883353828
  0
ARC
  5
36F
330
1F
100
AcDbEntity
  8
0
  6
Continuous
 62
     8
370
    18
100
AcDbCircle
 10
1922.6195484372
 20
1296.0965985227
 30
0.0
 40
1.703170581835851
100
AcDbArc
 50
61.5042694372
 51
85.582444766
  0
ARC
  5
370
330
1F
100
AcDbEntity
  8
0
  6
Continuous
 62
     8
370
    18
100
AcDbCircle
 10
1861.0905578415
 20
1288.8109418481
 30
0.0
 40
2.968712302772283
100
AcDbArc
 50
60.8116646172
 51
67.1235130743
  0
SPLINE
  5
371
330
1F
100
AcDbEntity
  8
0
  6
Continuous
 62
     8
370
    18
100
AcDbSpline
210
0.0
220
0.0
230
1.0
 70
     8
 71
     3
 72
    17
 73
    13
 74
     0
 42
0.000000001
 43
0.00000001
 40
0.0
 40
0.0
 40
0.0
 40
0.0
 40
0.0045109817899509
 40
0.0089278415503383
 40
0.0130797684277642
 40
0.0177777921768911
 40
0.0339670776357925
 40
0.0840600072516117
 40
0.3047425979556773
 40
0.7692822253148913
 40
0.8273200843747823
 40
1.0
 40
1.0
 40
1.0
 40
1.0
 10
1862.244632520433
 20
1291.546150134839
 30
0.0
 10
1862.248951808371
 20
1291.544386346028
 30
0.0
 10
1862.257500261928
 20
1291.540895570013
 30
0.0
 10
1862.256307803179
 20
1291.54261010581
 30
0.0
 10
1862.241458706885
 20
1291.55093101166
 30
0.0
 10
1862.194520095312
 20
1291.575601063096
 30
0.0
 10
1862.012175569437
 20
1291.668813254907
 30
0.0
 10
1861.244168513176
 20
1292.072757196234
 30
0.0
 10
1859.347252730029
 20
1293.263870565484
 30
0.0
 10
1857.703277616703
 20
1294.860983092058
 30
0.0
 10
1856.434619761397
 20
1296.547632928997
 30
0.0
 10
1856.06902449394
 20
1297.145764806751
 30
0.0
 10
1855.795395988188
 20
1297.593434529312
 30
0.0
  0
ARC
  5
372
330
1F
100
AcDbEntity
  8
0
  6
Continuous
 62
     8
370
    18
100
AcDbCircle
 10
1856.607967216
 20
1296.0965985227
 30
0.0
 40
1.703170581850834
100
AcDbArc
 50
94.4175552343
 51
118.4957305629
  0
SPLINE
  5
373
330
1F
100
AcDbEntity
  8
0
  6
Continuous
 62
     8
370
    18
100
AcDbSpline
210
0.0
220
0.0
230
1.0
 70
     8
 71
     3
 72
    10
 73
     6
 74
     0
 42
0.000000001
 43
0.00000001
 40
0.0
 40
0.0
 40
0.0
 40
0.0
 40
0.0049102993503902
 40
0.1151643441717013
 40
0.9999999999999999
 40
0.9999999999999999
 40
0.9999999999999999
 40
0.9999999999999999
 10
1852.053241623001
 20
1336.711679745553
 30
0.0
 10
1852.057871703028
 20
1336.729615307639
 30
0.0
 10
1852.166463886872
 20
1337.150269344704
 30
0.0
 10
1853.125209483385
 20
1340.799058969877
 30
0.0
 10
1854.278644706412
 20
1344.373001260102
 30
0.0
 10
1855.304281502127
 20
1347.550957547058
 30
0.0
  0
ARC
  5
374
330
1F
100
AcDbEntity
  8
0
  6
Continuous
 62
     8
370
    18
100
AcDbCircle
 10
1889.6505958694
 20
1447.3749920024
 30
0.0
 40
105.5675478807526
100
AcDbArc
 50
251.0132691525
 51
251.4407337295
  0
ARC
  5
375
330
1F
100
AcDbEntity
  8
0
  6
Continuous
 62
     8
370
    18
100
AcDbCircle
 10
1889.576919783
 20
1447.3749920048
 30
0.0
 40
105.5675478833046
100
AcDbArc
 50
288.5592662705
 51
288.9867308475
  0
SPLINE
  5
376
330
1F
100
AcDbEntity
  8
0
  6
Continuous
 62
     8
370
    18
100
AcDbSpline
210
0.0
220
0.0
230
1.0
 70
     8
 71
     3
 72
    10
 73
     6
 74
     0
 42
0.000000001
 43
0.00000001
 40
0.0
 40
0.0
 40
0.0
 40
0.0
 40
0.0049102993503903
 40
0.1151643441716859
 40
1.0
 40
1.0
 40
1.0
 40
1.0
 10
1927.174274030143
 20
1336.711679745553
 30
0.0
 10
1927.169643950116
 20
1336.729615307639
 30
0.0
 10
1927.061051766272
 20
1337.150269344704
 30
0.0
 10
1926.102306169762
 20
1340.799058969878
 30
0.0
 10
1924.948870946733
 20
1344.373001260103
 30
0.0
 10
1923.923234151017
 20
1347.550957547058
 30
0.0
  0
ARC
  5
377
330
1F
100
AcDbEntity
  8
0
  6
Continuous
 62
     8
370
    18
100
AcDbCircle
 10
1923.9179219207
 20
1353.8790679673
 30
0.0
 40
2.992681724118813
100
AcDbArc
 50
208.4544255778
 51
226.4525487524
  0
SPLINE
  5
378
330
1F
100
AcDbEntity
  8
0
  6
Continuous
 62
     8
370
    18
100
AcDbSpline
210
0.0
220
0.0
230
1.0
 70
     8
 71
     3
 72
    15
 73
    11
 74
     0
 42
0.000000001
 43
0.00000001
 40
0.0
 40
0.0
 40
0.0
 40
0.0
 40
0.3092031051605904
 40
0.6638382552574907
 40
0.803986173963671
 40
0.9077221477257728
 40
0.9361281220494162
 40
0.9546919441403818
 40
0.9789089794125909
 40
1.0
 40
1.0
 40
1.0
 40
1.0
 10
1923.923234151017
 20
1347.550957547058
 30
0.0
 10
1923.739274682302
 20
1348.038677056787
 30
0.0
 10
1923.344326084723
 20
1349.085778017254
 30
0.0
 10
1922.694788421446
 20
1350.286963919944
 30
0.0
 10
1922.194307583882
 20
1351.143041600488
 30
0.0
 10
1921.971611083284
 20
1351.505171269476
 30
0.0
 10
1921.876442759024
 20
1351.65451396693
 30
0.0
 10
1921.847169212173
 20
1351.703873310355
 30
0.0
 10
1921.838534738456
 20
1351.72467503158
 30
0.0
 10
1921.850519639383
 20
1351.714634196985
 30
0.0
 10
1921.856098642661
 20
1351.709960161757
 30
0.0
  0
SPLINE
  5
379
330
1F
100
AcDbEntity
  8
0
  6
Continuous
 62
     8
370
    18
100
AcDbSpline
210
0.0
220
0.0
230
1.0
 70
     8
 71
     3
 72
    15
 73
    11
 74
     0
 42
0.000000001
 43
0.00000001
 40
0.0
 40
0.0
 40
0.0
 40
0.0
 40
0.3092031051605266
 40
0.6638382552574191
 40
0.8039861739636748
 40
0.9077221477257744
 40
0.9361281220494174
 40
0.9546919441403827
 40
0.9789089794125914
 40
1.0
 40
1.0
 40
1.0
 40
1.0
 10
1855.304281502127
 20
1347.550957547058
 30
0.0
 10
1855.488240970843
 20
1348.038677056787
 30
0.0
 10
1855.883189568421
 20
1349.085778017253
 30
0.0
 10
1856.532727231697
 20
1350.286963919944
 30
0.0
 10
1857.033208069262
 20
1351.143041600488
 30
0.0
 10
1857.255904569861
 20
1351.505171269476
 30
0.0
 10
1857.351072894121
 20
1351.65451396693
 30
0.0
 10
1857.380346440972
 20
1351.703873310355
 30
0.0
 10
1857.388980914688
 20
1351.72467503158
 30
0.0
 10
1857.376996013762
 20
1351.714634196984
 30
0.0
 10
1857.371417010483
 20
1351.709960161757
 30
0.0
  0
ARC
  5
37A
330
1F
100
AcDbEntity
  8
0
  6
Continuous
 62
     8
370
    18
100
AcDbCircle
 10
1855.3095937324
 20
1353.8790679672
 30
0.0
 40
2.99268172407386
100
AcDbArc
 50
313.5474512475
 51
331.5455744223
  0
LINE
  5
37B
330
1F
100
AcDbEntity
  8
0
  6
Continuous
 62
     8
370
    18
100
AcDbLine
 10
1923.5247862345
 20
1297.7569717061
 30
0.0
 11
1924.4568772724
 21
1299.6469234659
 31
0.0
  0
ARC
  5
37C
330
1F
100
AcDbEntity
  8
0
  6
Continuous
 62
     8
370
    18
100
AcDbCircle
 10
1922.7273511697
 20
1296.2485374274
 30
0.0
 40
1.706246364302864
100
AcDbArc
 50
62.1367925983
 51
86.623111242
  0
ARC
  5
37D
330
1F
100
AcDbEntity
  8
0
  6
Continuous
 62
     8
370
    18
100
AcDbCircle
 10
1856.5001644834
 20
1296.2485374274
 30
0.0
 40
1.706246364304779
100
AcDbArc
 50
93.376888758
 51
117.8632074016
  0
LINE
  5
37E
330
1F
100
AcDbEntity
  8
0
  6
Continuous
 62
     8
370
    18
100
AcDbLine
 10
1855.7027294187
 20
1297.7569717061
 30
0.0
 11
1854.7706383807
 21
1299.6469234659
 31
0.0
  0
ARC
  5
37F
330
1F
100
AcDbEntity
  8
0
  6
Continuous
 62
     8
370
    18
100
AcDbCircle
 10
1923.9456868842
 20
1349.2974927043
 30
0.0
 40
12.99332377763133
100
AcDbArc
 50
284.387612193
 51
286.8712772964
  0
ARC
  5
380
330
1F
100
AcDbEntity
  8
0
  6
Continuous
 62
     8
370
    18
100
AcDbCircle
 10
1935.3585250465
 20
1324.8422191555
 30
0.0
 40
27.45266560966153
100
AcDbArc
 50
246.6025480368
 51
247.6829243031
  0
ARC
  5
381
330
1F
100
AcDbEntity
  8
0
  6
Continuous
 62
     8
370
    18
100
AcDbCircle
 10
1855.2818287688
 20
1349.2974927036
 30
0.0
 40
12.99332377694271
100
AcDbArc
 50
253.1287227036
 51
255.6123878071
  0
ARC
  5
382
330
1F
100
AcDbEntity
  8
0
  6
Continuous
 62
     8
370
    18
100
AcDbCircle
 10
1843.8689906096
 20
1324.8422191486
 30
0.0
 40
27.45266560216022
100
AcDbArc
 50
292.3170756967
 51
293.3974519633
  0
LINE
  5
383
330
1F
100
AcDbEntity
  8
0
  6
Continuous
 62
     8
370
    18
100
AcDbLine
 10
1855.7953959882
 20
1297.5934345293
 30
0.0
 11
1855.7027294187
 21
1297.7569717061
 31
0.0
  0
LINE
  5
384
330
1F
100
AcDbEntity
  8
0
  6
Continuous
 62
     8
370
    18
100
AcDbLine
 10
1923.432119665
 20
1297.5934345293
 30
0.0
 11
1923.5247862345
 21
1297.7569717061
 31
0.0
  0
ARC
  5
385
330
1F
100
AcDbEntity
  8
0
  6
Continuous
 62
     8
370
    18
100
AcDbCircle
 10
1922.8981619082
 20
1296.6538176252
 30
0.0
 40
1.080736236281499
100
AcDbArc
 50
35.0981925254
 51
60.3916535263
  0
ARC
  5
386
330
1F
100
AcDbEntity
  8
0
  6
Continuous
 62
     8
370
    18
100
AcDbCircle
 10
1856.3293537449
 20
1296.6538176252
 30
0.0
 40
1.080736236304181
100
AcDbArc
 50
119.6083464739
 51
144.9018074743
  0
ARC
  5
387
330
1F
100
AcDbEntity
  8
0
  6
Continuous
 62
     8
370
    18
100
AcDbCircle
 10
1897.0973198668
 20
1468.9202481272
 30
0.0
 40
128.3634011378442
100
AcDbArc
 50
250.7644365914
 51
250.9990545453
  0
ARC
  5
388
330
1F
100
AcDbEntity
  8
0
  6
Continuous
 62
     8
370
    18
100
AcDbCircle
 10
1882.1301957579
 20
1468.9202482092
 30
0.0
 40
128.3634012246845
100
AcDbArc
 50
289.0009454548
 51
289.2355634085
  0
ARC
  5
389
330
1F
100
AcDbEntity
  8
0
  6
Continuous
 62
     8
370
    18
100
AcDbCircle
 10
1860.4896454113
 20
1289.0503750881
 30
0.0
 40
2.993339415979607
100
AcDbArc
 50
59.1878754258
 51
65.0637682689
  0
ARC
  5
38A
330
1F
100
AcDbEntity
  8
0
  6
Continuous
 62
     8
370
    18
100
AcDbCircle
 10
1918.7378702419
 20
1289.050375088
 30
0.0
 40
2.993339416108741
100
AcDbArc
 50
114.9362317312
 51
120.8121245741
  0
ARC
  5
38B
330
1F
100
AcDbEntity
  8
0
  6
Continuous
 62
     8
370
    18
100
AcDbCircle
 10
1855.1170777825
 20
1353.7003481328
 30
0.0
 40
2.998432342247912
100
AcDbArc
 50
314.7050712486
 51
332.8104033969
  0
ARC
  5
38C
330
1F
100
AcDbEntity
  8
0
  6
Continuous
 62
     8
370
    18
100
AcDbCircle
 10
1924.1104378706
 20
1353.7003481328
 30
0.0
 40
2.998432342274431
100
AcDbArc
 50
207.1895966032
 51
225.2949287514
  0
SPLINE
  5
38D
330
1F
100
AcDbEntity
  8
0
  6
Continuous
 62
     8
370
    18
100
AcDbSpline
210
0.0
220
0.0
230
1.0
 70
     8
 71
     3
 72
    14
 73
    10
 74
     0
 42
0.000000001
 43
0.00000001
 40
0.0
 40
0.0
 40
0.0
 40
0.0
 40
0.1092374782648822
 40
0.2581253635230561
 40
0.4079301969031762
 40
0.5608445870782678
 40
0.7149451852848253
 40
0.9256729043329616
 40
1.0
 40
1.0
 40
1.0
 40
1.0
 10
1924.780481714975
 20
1298.588823643377
 30
0.0
 10
1924.950384836413
 20
1298.973414858493
 30
0.0
 10
1925.35186156108
 20
1299.882194050271
 30
0.0
 10
1925.962185721938
 20
1301.421538924492
 30
0.0
 10
1926.599421852412
 20
1303.220975189682
 30
0.0
 10
1927.194107517918
 20
1305.139762753115
 30
0.0
 10
1927.789554256235
 20
1307.418311608229
 30
0.0
 10
1928.240663962757
 20
1309.425322471124
 30
0.0
 10
1928.44022899786
 20
1310.782269219495
 30
0.0
 10
1928.492264917584
 20
1311.136088574843
 30
0.0
  0
LWPOLYLINE
  5
38E
330
1F
100
AcDbEntity
  8
0
  6
Continuous
 62
     8
370
    18
100
AcDbPolyline
 90
        3
 70
   128
 43
0.0
 10
1924.780481715
 20
1298.5888236434
 10
1924.4607850443
 20
1298.5982384522
 10
1924.4416566472
 20
1298.5977879372
  0
LWPOLYLINE
  5
38F
330
1F
100
AcDbEntity
  8
0
  6
Continuous
 62
     8
370
    18
100
AcDbPolyline
 90
        9
 70
   128
 43
0.0
 10
1924.780481715
 20
1298.5888236434
 10
1926.7278166128
 20
1299.131534061
 10
1928.5306491318
 20
1299.8935422465
 10
1930.142575485
 20
1300.8552345835
 10
1931.5221056914
 20
1301.9918577098
 10
1932.6337315021
 20
1303.2741556536
 10
1933.4488403606
 20
1304.6691228639
 10
1933.9464518723
 20
1306.1408537531
 10
1934.1137578266
 20
1307.651466884
  0
SPLINE
  5
390
330
1F
100
AcDbEntity
  8
0
  6
Continuous
 62
     8
370
    18
100
AcDbSpline
210
0.0
220
0.0
230
1.0
 70
     8
 71
     3
 72
     9
 73
     5
 74
     0
 42
0.000000001
 43
0.00000001
 40
0.0
 40
0.0
 40
0.0
 40
0.0
 40
0.5770474436019661
 40
1.0
 40
1.0
 40
1.0
 40
1.0
 10
1921.113757826572
 20
1293.361577853234
 30
0.0
 10
1921.905047347349
 20
1294.216374017893
 30
0.0
 10
1923.276320246224
 20
1295.69770137518
 30
0.0
 10
1924.333390955987
 20
1297.729478369569
 30
0.0
 10
1924.780481714975
 20
1298.588823643377
 30
0.0
  0
SPLINE
  5
391
330
1F
100
AcDbEntity
  8
0
  6
Continuous
 62
     8
370
    18
100
AcDbSpline
210
0.0
220
0.0
230
1.0
 70
     8
 71
     3
 72
    10
 73
     6
 74
     0
 42
0.000000001
 43
0.00000001
 40
0.0
 40
0.0
 40
0.0
 40
0.0
 40
0.3947082167601239
 40
0.7987089853917002
 40
1.0
 40
1.0
 40
1.0
 40
1.0
 10
1921.113757826572
 20
1293.361577853234
 30
0.0
 10
1919.970387286098
 20
1292.631511139404
 30
0.0
 10
1917.656728016968
 20
1291.154189868877
 30
0.0
 10
1914.486859456362
 20
1290.033732806609
 30
0.0
 10
1912.518019429532
 20
1289.868810027881
 30
0.0
 10
1911.863277670969
 20
1289.813964622109
 30
0.0
  0
LWPOLYLINE
  5
392
330
1F
100
AcDbEntity
  8
0
  6
Continuous
 62
     8
370
    18
100
AcDbPolyline
 90
       10
 70
   128
 43
0.0
 10
1934.1137578266
 20
1304.3604610054
 10
1933.9162586157
 20
1302.4505249896
 10
1933.3297618968
 20
1300.5986214132
 10
1932.3720880758
 20
1298.8610194293
 10
1931.0723355871
 20
1297.2905151948
 10
1929.4699967525
 20
1295.9348276862
 10
1927.6137578266
 20
1294.8351487824
 10
1925.5600196898
 20
1294.0248916704
 10
1923.3711841362
 20
1293.5286756027
 10
1921.1137578266
 20
1293.3615778532
  0
LINE
  5
393
330
1F
100
AcDbEntity
  8
0
  6
Continuous
 62
     8
370
    18
100
AcDbLine
 10
1921.1137578266
 20
1289.5055796194
 30
0.0
 11
1921.1137578266
 21
1293.3615778532
 31
0.0
  0
SPLINE
  5
394
330
1F
100
AcDbEntity
  8
0
  6
Continuous
 62
     8
370
    18
100
AcDbSpline
210
0.0
220
0.0
230
1.0
 70
     8
 71
     3
 72
    17
 73
    13
 74
     0
 42
0.000000001
 43
0.00000001
 40
0.0
 40
0.0
 40
0.0
 40
0.0
 40
0.2229912195096686
 40
0.5008176009795289
 40
0.6858965399871031
 40
0.866577165189906
 40
0.9279597470315037
 40
0.9497616361806115
 40
0.9717583090123122
 40
0.9770054670051183
 40
0.9922372900676586
 40
1.0
 40
1.0
 40
1.0
 40
1.0
 10
1859.914799274578
 20
1292.920103940352
 30
0.0
 10
1860.050542563691
 20
1292.819690481931
 30
0.0
 10
1860.355409403525
 20
1292.594171165687
 30
0.0
 10
1860.793940913448
 20
1292.315286624234
 30
0.0
 10
1861.210183542363
 20
1292.064665664423
 30
0.0
 10
1861.490769936153
 20
1291.906602278191
 30
0.0
 10
1861.65788209195
 20
1291.815759752363
 30
0.0
 10
1861.715868314614
 20
1291.784455420599
 30
0.0
 10
1861.737684245516
 20
1291.772652045124
 30
0.0
 10
1861.749507345772
 20
1291.766160080884
 30
0.0
 10
1861.753564495041
 20
1291.763845100864
 30
0.0
 10
1861.752144539568
 20
1291.764460443244
 30
0.0
 10
1861.751665177693
 20
1291.764668176291
 30
0.0
  0
LINE
  5
395
330
1F
100
AcDbEntity
  8
0
  6
Continuous
 62
     8
370
    18
100
AcDbLine
 10
1834.1137578266
 20
1370.952018119
 30
0.0
 11
1834.1137578266
 21
1369.952018119
 31
0.0
  0
LINE
  5
396
330
1F
100
AcDbEntity
  8
0
  6
Continuous
 62
     8
370
    18
100
AcDbLine
 10
1945.1137578266
 20
1369.952018119
 30
0.0
 11
1945.1137578266
 21
1370.952018119
 31
0.0
  0
LINE
  5
397
330
1F
100
AcDbEntity
  8
0
  6
Continuous
 62
     8
370
    18
100
AcDbLine
 10
1924.6137578266
 20
1381.952018119
 30
0.0
 11
1854.6137578266
 21
1381.952018119
 31
0.0
  0
ENDSEC
  0
SECTION
  2
OBJECTS
  0
DICTIONARY
  5
C
330
0
100
AcDbDictionary
281
     1
  3
ACAD_GROUP
350
D
  3
ACAD_LAYOUT
350
1A
  3
ACAD_MLINESTYLE
350
17
  3
ACAD_PLOTSETTINGS
350
19
  3
ACAD_PLOTSTYLENAME
350
E
  3
ACAD_SCALELIST
350
47
  0
DICTIONARY
  5
D
102
{ACAD_REACTORS
330
C
102
}
330
C
100
AcDbDictionary
281
     1
  0
DICTIONARY
  5
1A
102
{ACAD_REACTORS
330
C
102
}
330
C
100
AcDbDictionary
281
     1
  3
Layout1
350
1E
  3
Layout2
350
26
  3
Model
350
22
  0
DICTIONARY
  5
17
102
{ACAD_REACTORS
330
C
102
}
330
C
100
AcDbDictionary
281
     1
  3
Standard
350
18
  0
DICTIONARY
  5
19
102
{ACAD_REACTORS
330
C
102
}
330
C
100
AcDbDictionary
281
     1
  0
ACDBDICTIONARYWDFLT
  5
E
102
{ACAD_REACTORS
330
C
102
}
330
C
100
AcDbDictionary
281
     1
  3
Normal
350
F
100
AcDbDictionaryWithDefault
340
F
  0
DICTIONARY
  5
47
102
{ACAD_REACTORS
330
C
102
}
330
C
100
AcDbDictionary
281
     1
  3
A0
350
48
  3
A1
350
49
  3
A2
350
4A
  3
A3
350
4B
  3
A4
350
4C
  3
A5
350
4D
  3
A6
350
4E
  3
A7
350
4F
  3
A8
350
50
  3
A9
350
51
  3
B0
350
52
  3
B1
350
53
  3
B2
350
54
  3
B3
350
55
  3
B4
350
56
  3
B5
350
57
  3
B6
350
58
  3
B7
350
59
  3
B8
350
5A
  3
B9
350
5B
  3
C0
350
5C
  3
C1
350
5D
  3
C2
350
5E
  3
C3
350
5F
  3
C4
350
60
  3
C5
350
61
  3
C6
350
62
  3
C7
350
63
  3
C8
350
64
  3
C9
350
65
  3
D0
350
66
  3
D1
350
67
  3
D2
350
68
  0
LAYOUT
  5
1E
102
{ACAD_REACTORS
330
1A
102
}
330
1A
100
AcDbPlotSettings
  1

  2
none_device
  4

  6

 40
0.0
 41
0.0
 42
0.0
 43
0.0
 44
0.0
 45
0.0
 46
0.0
 47
0.0
 48
0.0
 49
0.0
140
0.0
141
0.0
142
1.0
143
1.0
 70
   688
 72
     1
 73
     0
 74
     5
  7

 75
    16
147
1.0
148
0.0
149
0.0
100
AcDbLayout
  1
Layout1
 70
     1
 71
     1
 10
0.0
 20
0.0
 11
420.0
 21
297.0
 12
0.0
 22
0.0
 32
0.0
 14
1.0000000000E+20
 24
1.0000000000E+20
 34
1.0000000000E+20
 15
-1.0000000000E+20
 25
-1.0000000000E+20
 35
-1.0000000000E+20
146
0.0
 13
0.0
 23
0.0
 33
0.0
 16
1.0
 26
0.0
 36
0.0
 17
0.0
 27
1.0
 37
0.0
 76
     0
330
1B
  0
LAYOUT
  5
26
102
{ACAD_REACTORS
330
1A
102
}
330
1A
100
AcDbPlotSettings
  1

  2
none_device
  4

  6

 40
0.0
 41
0.0
 42
0.0
 43
0.0
 44
0.0
 45
0.0
 46
0.0
 47
0.0
 48
0.0
 49
0.0
140
0.0
141
0.0
142
1.0
143
1.0
 70
   688
 72
     1
 73
     0
 74
     5
  7

 75
    16
147
1.0
148
0.0
149
0.0
100
AcDbLayout
  1
Layout2
 70
     1
 71
     2
 10
0.0
 20
0.0
 11
0.0
 21
0.0
 12
0.0
 22
0.0
 32
0.0
 14
0.0
 24
0.0
 34
0.0
 15
0.0
 25
0.0
 35
0.0
146
0.0
 13
0.0
 23
0.0
 33
0.0
 16
1.0
 26
0.0
 36
0.0
 17
0.0
 27
1.0
 37
0.0
 76
     0
330
23
  0
LAYOUT
  5
22
102
{ACAD_REACTORS
330
1A
102
}
330
1A
100
AcDbPlotSettings
  1

  2
none_device
  4
Letter_(8.50_x_11.00_Inches)
  6

 40
6.35
 41
6.35
 42
6.35000508
 43
6.35000508
 44
215.9
 45
279.4
 46
0.0
 47
0.0
 48
0.0
 49
0.0
140
0.0
141
0.0
142
1.0
143
1.0
 70
  1712
 72
     1
 73
     0
 74
     0
  7

 75
     0
147
1.0
148
0.0
149
0.0
100
AcDbLayout
  1
Model
 70
     1
 71
     0
 10
0.0
 20
0.0
 11
2970.0
 21
2100.0
 12
0.0
 22
0.0
 32
0.0
 14
0.0
 24
0.0
 34
0.0
 15
2970.0
 25
2100.0
 35
0.0
146
0.0
 13
0.0
 23
0.0
 33
0.0
 16
1.0
 26
0.0
 36
0.0
 17
0.0
 27
1.0
 37
0.0
 76
     0
330
1F
331
29
  0
MLINESTYLE
  5
18
102
{ACAD_REACTORS
330
17
102
}
330
17
100
AcDbMlineStyle
  2
Standard
 70
     0
  3

 62
   256
 51
90.0
 52
90.0
 71
     2
 49
0.5
 62
   256
  6
BYLAYER
 49
-0.5
 62
   256
  6
BYLAYER
  0
ACDBPLACEHOLDER
  5
F
102
{ACAD_REACTORS
330
E
102
}
330
E
  0
SCALE
  5
48
102
{ACAD_REACTORS
330
47
102
}
330
47
100
AcDbScale
 70
     0
300
1:1
140
1.0
141
1.0
290
     1
  0
SCALE
  5
49
102
{ACAD_REACTORS
330
47
102
}
330
47
100
AcDbScale
 70
     0
300
1:2
140
1.0
141
2.0
290
     0
  0
SCALE
  5
4A
102
{ACAD_REACTORS
330
47
102
}
330
47
100
AcDbScale
 70
     0
300
1:4
140
1.0
141
4.0
290
     0
  0
SCALE
  5
4B
102
{ACAD_REACTORS
330
47
102
}
330
47
100
AcDbScale
 70
     0
300
1:5
140
1.0
141
5.0
290
     0
  0
SCALE
  5
4C
102
{ACAD_REACTORS
330
47
102
}
330
47
100
AcDbScale
 70
     0
300
1:8
140
1.0
141
8.0
290
     0
  0
SCALE
  5
4D
102
{ACAD_REACTORS
330
47
102
}
330
47
100
AcDbScale
 70
     0
300
1:10
140
1.0
141
10.0
290
     0
  0
SCALE
  5
4E
102
{ACAD_REACTORS
330
47
102
}
330
47
100
AcDbScale
 70
     0
300
1:16
140
1.0
141
16.0
290
     0
  0
SCALE
  5
4F
102
{ACAD_REACTORS
330
47
102
}
330
47
100
AcDbScale
 70
     0
300
1:20
140
1.0
141
20.0
290
     0
  0
SCALE
  5
50
102
{ACAD_REACTORS
330
47
102
}
330
47
100
AcDbScale
 70
     0
300
1:30
140
1.0
141
30.0
290
     0
  0
SCALE
  5
51
102
{ACAD_REACTORS
330
47
102
}
330
47
100
AcDbScale
 70
     0
300
1:40
140
1.0
141
40.0
290
     0
  0
SCALE
  5
52
102
{ACAD_REACTORS
330
47
102
}
330
47
100
AcDbScale
 70
     0
300
1:50
140
1.0
141
50.0
290
     0
  0
SCALE
  5
53
102
{ACAD_REACTORS
330
47
102
}
330
47
100
AcDbScale
 70
     0
300
1:100
140
1.0
141
100.0
290
     0
  0
SCALE
  5
54
102
{ACAD_REACTORS
330
47
102
}
330
47
100
AcDbScale
 70
     0
300
2:1
140
2.0
141
1.0
290
     0
  0
SCALE
  5
55
102
{ACAD_REACTORS
330
47
102
}
330
47
100
AcDbScale
 70
     0
300
4:1
140
4.0
141
1.0
290
     0
  0
SCALE
  5
56
102
{ACAD_REACTORS
330
47
102
}
330
47
100
AcDbScale
 70
     0
300
8:1
140
8.0
141
1.0
290
     0
  0
SCALE
  5
57
102
{ACAD_REACTORS
330
47
102
}
330
47
100
AcDbScale
 70
     0
300
10:1
140
10.0
141
1.0
290
     0
  0
SCALE
  5
58
102
{ACAD_REACTORS
330
47
102
}
330
47
100
AcDbScale
 70
     0
300
100:1
140
100.0
141
1.0
290
     0
  0
SCALE
  5
59
102
{ACAD_REACTORS
330
47
102
}
330
47
100
AcDbScale
 70
     0
300
1/128" = 1'-0"
140
0.0078125
141
12.0
290
     0
  0
SCALE
  5
5A
102
{ACAD_REACTORS
330
47
102
}
330
47
100
AcDbScale
 70
     0
300
1/64" = 1'-0"
140
0.015625
141
12.0
290
     0
  0
SCALE
  5
5B
102
{ACAD_REACTORS
330
47
102
}
330
47
100
AcDbScale
 70
     0
300
1/32" = 1'-0"
140
0.03125
141
12.0
290
     0
  0
SCALE
  5
5C
102
{ACAD_REACTORS
330
47
102
}
330
47
100
AcDbScale
 70
     0
300
1/16" = 1'-0"
140
0.0625
141
12.0
290
     0
  0
SCALE
  5
5D
102
{ACAD_REACTORS
330
47
102
}
330
47
100
AcDbScale
 70
     0
300
3/32" = 1'-0"
140
0.09375
141
12.0
290
     0
  0
SCALE
  5
5E
102
{ACAD_REACTORS
330
47
102
}
330
47
100
AcDbScale
 70
     0
300
1/8" = 1'-0"
140
0.125
141
12.0
290
     0
  0
SCALE
  5
5F
102
{ACAD_REACTORS
330
47
102
}
330
47
100
AcDbScale
 70
     0
300
3/16" = 1'-0"
140
0.1875
141
12.0
290
     0
  0
SCALE
  5
60
102
{ACAD_REACTORS
330
47
102
}
330
47
100
AcDbScale
 70
     0
300
1/4" = 1'-0"
140
0.25
141
12.0
290
     0
  0
SCALE
  5
61
102
{ACAD_REACTORS
330
47
102
}
330
47
100
AcDbScale
 70
     0
300
3/8" = 1'-0"
140
0.375
141
12.0
290
     0
  0
SCALE
  5
62
102
{ACAD_REACTORS
330
47
102
}
330
47
100
AcDbScale
 70
     0
300
1/2" = 1'-0"
140
0.5
141
12.0
290
     0
  0
SCALE
  5
63
102
{ACAD_REACTORS
330
47
102
}
330
47
100
AcDbScale
 70
     0
300
3/4" = 1'-0"
140
0.75
141
12.0
290
     0
  0
SCALE
  5
64
102
{ACAD_REACTORS
330
47
102
}
330
47
100
AcDbScale
 70
     0
300
1" = 1'-0"
140
1.0
141
12.0
290
     0
  0
SCALE
  5
65
102
{ACAD_REACTORS
330
47
102
}
330
47
100
AcDbScale
 70
     0
300
1-1/2" = 1'-0"
140
1.5
141
12.0
290
     0
  0
SCALE
  5
66
102
{ACAD_REACTORS
330
47
102
}
330
47
100
AcDbScale
 70
     0
300
3" = 1'-0"
140
3.0
141
12.0
290
     0
  0
SCALE
  5
67
102
{ACAD_REACTORS
330
47
102
}
330
47
100
AcDbScale
 70
     0
300
6" = 1'-0"
140
6.0
141
12.0
290
     0
  0
SCALE
  5
68
102
{ACAD_REACTORS
330
47
102
}
330
47
100
AcDbScale
 70
     0
300
1'-0" = 1'-0"
140
12.0
141
12.0
290
     0
  0
ENDSEC
  0
EOF
