  0
SECTION
  2
HEADER
  9
$ACADVER
  1
AC1015
  9
$ACADMAINTVER
 70
     6
  9
$DWGCODEPAGE
  3
ANSI_1252
  9
$INSBASE
 10
0.0
 20
0.0
 30
0.0
  9
$EXTMIN
 10
0.0
 20
0.0
 30
0.0
  9
$EXTMAX
 10
2100.0
 20
1485.0
 30
0.0
  9
$LIMMIN
 10
0.0
 20
0.0
  9
$LIMMAX
 10
2100.0
 20
1485.0
  9
$ORTHOMODE
 70
     0
  9
$REGENMODE
 70
     1
  9
$FILLMODE
 70
     1
  9
$QTEXTMODE
 70
     0
  9
$MIRRTEXT
 70
     1
  9
$LTSCALE
 40
5.0
  9
$ATTMODE
 70
     1
  9
$TEXTSIZE
 40
12.5
  9
$TRACEWID
 40
1.0
  9
$TEXTSTYLE
  7
Standard
  9
$CLAYER
  8
0
  9
$CELTYPE
  6
ByLayer
  9
$CECOLOR
 62
   256
  9
$CELTSCALE
 40
1.0
  9
$DISPSILH
 70
     0
  9
$DIMSCALE
 40
1.0
  9
$DIMASZ
 40
12.5
  9
$DIMEXO
 40
0.0
  9
$DIMDLI
 40
3.75
  9
$DIMRND
 40
0.0
  9
$DIMDLE
 40
0.0
  9
$DIMEXE
 40
5.0
  9
$DIMTP
 40
0.0
  9
$DIMTM
 40
0.0
  9
$DIMTXT
 40
12.5
  9
$DIMCEN
 40
2.5
  9
$DIMTSZ
 40
0.0
  9
$DIMTOL
 70
     0
  9
$DIMLIM
 70
     0
  9
$DIMTIH
 70
     1
  9
$DIMTOH
 70
     1
  9
$DIMSE1
 70
     0
  9
$DIMSE2
 70
     0
  9
$DIMTAD
 70
     1
  9
$DIMZIN
 70
     0
  9
$DIMBLK
  1

  9
$DIMASO
 70
     1
  9
$DIMSHO
 70
     1
  9
$DIMPOST
  1

  9
$DIMAPOST
  1

  9
$DIMALT
 70
     0
  9
$DIMALTD
 70
     3
  9
$DIMALTF
 40
0.0393700787
  9
$DIMLFAC
 40
1.0
  9
$DIMTOFL
 70
     1
  9
$DIMTVP
 40
0.0
  9
$DIMTIX
 70
     0
  9
$DIMSOXD
 70
     0
  9
$DIMSAH
 70
     0
  9
$DIMBLK1
  1

  9
$DIMBLK2
  1

  9
$DIMSTYLE
  2
ISO-25
  9
$DIMCLRD
 70
     0
  9
$DIMCLRE
 70
     0
  9
$DIMCLRT
 70
     0
  9
$DIMTFAC
 40
1.0
  9
$DIMGAP
 40
7.62
  9
$DIMJUST
 70
     0
  9
$DIMSD1
 70
     0
  9
$DIMSD2
 70
     0
  9
$DIMTOLJ
 70
     0
  9
$DIMTZIN
 70
     0
  9
$DIMALTZ
 70
     0
  9
$DIMALTTZ
 70
     0
  9
$DIMUPT
 70
     0
  9
$DIMDEC
 70
     2
  9
$DIMTDEC
 70
     2
  9
$DIMALTU
 70
     2
  9
$DIMALTTD
 70
     3
  9
$DIMTXSTY
  7
Standard
  9
$DIMAUNIT
 70
     0
  9
$DIMADEC
 70
     2
  9
$DIMALTRND
 40
0.0
  9
$DIMAZIN
 70
     0
  9
$DIMDSEP
 70
    44
  9
$DIMATFIT
 70
     3
  9
$DIMFRAC
 70
     0
  9
$DIMLDRBLK
  1

  9
$DIMLUNIT
 70
     2
  9
$DIMLWD
 70
    -2
  9
$DIMLWE
 70
    -2
  9
$DIMTMOVE
 70
     0
  9
$LUNITS
 70
     2
  9
$LUPREC
 70
     1
  9
$SKETCHINC
 40
1.0
  9
$FILLETRAD
 40
10.0
  9
$AUNITS
 70
     0
  9
$AUPREC
 70
     2
  9
$MENU
  1
.
  9
$ELEVATION
 40
0.0
  9
$PELEVATION
 40
0.0
  9
$THICKNESS
 40
0.0
  9
$LIMCHECK
 70
     0
  9
$CHAMFERA
 40
0.0
  9
$CHAMFERB
 40
0.0
  9
$CHAMFERC
 40
0.0
  9
$CHAMFERD
 40
0.0
  9
$SKPOLY
 70
     0
  9
$TDCREATE
 40
2458907.633950451
  9
$TDUCREATE
 40
2458907.404783785
  9
$TDUPDATE
 40
2458907.633954317
  9
$TDUUPDATE
 40
2458907.40478765
  9
$TDINDWG
 40
0.0000000116
  9
$TDUSRTIMER
 40
0.0000000116
  9
$USRTIMER
 70
     1
  9
$ANGBASE
 50
0.0
  9
$ANGDIR
 70
     0
  9
$PDMODE
 70
     0
  9
$PDSIZE
 40
-1.0
  9
$PLINEWID
 40
0.0
  9
$SPLFRAME
 70
     0
  9
$SPLINETYPE
 70
     6
  9
$SPLINESEGS
 70
     8
  9
$HANDSEED
  5
3B5
  9
$SURFTAB1
 70
     6
  9
$SURFTAB2
 70
     6
  9
$SURFTYPE
 70
     6
  9
$SURFU
 70
     6
  9
$SURFV
 70
     6
  9
$UCSBASE
  2

  9
$UCSNAME
  2

  9
$UCSORG
 10
0.0
 20
0.0
 30
0.0
  9
$UCSXDIR
 10
1.0
 20
0.0
 30
0.0
  9
$UCSYDIR
 10
0.0
 20
1.0
 30
0.0
  9
$UCSORTHOREF
  2

  9
$UCSORTHOVIEW
 70
     0
  9
$UCSORGTOP
 10
0.0
 20
0.0
 30
0.0
  9
$UCSORGBOTTOM
 10
0.0
 20
0.0
 30
0.0
  9
$UCSORGLEFT
 10
0.0
 20
0.0
 30
0.0
  9
$UCSORGRIGHT
 10
0.0
 20
0.0
 30
0.0
  9
$UCSORGFRONT
 10
0.0
 20
0.0
 30
0.0
  9
$UCSORGBACK
 10
0.0
 20
0.0
 30
0.0
  9
$PUCSBASE
  2

  9
$PUCSNAME
  2

  9
$PUCSORG
 10
0.0
 20
0.0
 30
0.0
  9
$PUCSXDIR
 10
1.0
 20
0.0
 30
0.0
  9
$PUCSYDIR
 10
0.0
 20
1.0
 30
0.0
  9
$PUCSORTHOREF
  2

  9
$PUCSORTHOVIEW
 70
     0
  9
$PUCSORGTOP
 10
0.0
 20
0.0
 30
0.0
  9
$PUCSORGBOTTOM
 10
0.0
 20
0.0
 30
0.0
  9
$PUCSORGLEFT
 10
0.0
 20
0.0
 30
0.0
  9
$PUCSORGRIGHT
 10
0.0
 20
0.0
 30
0.0
  9
$PUCSORGFRONT
 10
0.0
 20
0.0
 30
0.0
  9
$PUCSORGBACK
 10
0.0
 20
0.0
 30
0.0
  9
$USERI1
 70
     0
  9
$USERI2
 70
     0
  9
$USERI3
 70
     0
  9
$USERI4
 70
     0
  9
$USERI5
 70
     0
  9
$USERR1
 40
0.0
  9
$USERR2
 40
0.0
  9
$USERR3
 40
0.0
  9
$USERR4
 40
0.0
  9
$USERR5
 40
0.0
  9
$WORLDVIEW
 70
     1
  9
$SHADEDGE
 70
     3
  9
$SHADEDIF
 70
    70
  9
$TILEMODE
 70
     1
  9
$MAXACTVP
 70
    64
  9
$PINSBASE
 10
0.0
 20
0.0
 30
0.0
  9
$PLIMCHECK
 70
     0
  9
$PEXTMIN
 10
1.0000000000E+20
 20
1.0000000000E+20
 30
1.0000000000E+20
  9
$PEXTMAX
 10
-1.0000000000E+20
 20
-1.0000000000E+20
 30
-1.0000000000E+20
  9
$PLIMMIN
 10
0.0
 20
0.0
  9
$PLIMMAX
 10
420.0
 20
297.0
  9
$UNITMODE
 70
     0
  9
$VISRETAIN
 70
     1
  9
$PLINEGEN
 70
     0
  9
$PSLTSCALE
 70
     1
  9
$TREEDEPTH
 70
  3020
  9
$CMLSTYLE
  2
Standard
  9
$CMLJUST
 70
     0
  9
$CMLSCALE
 40
20.0
  9
$PROXYGRAPHICS
 70
     1
  9
$MEASUREMENT
 70
     1
  9
$CELWEIGHT
370
    -1
  9
$ENDCAPS
280
     0
  9
$JOINSTYLE
280
     0
  9
$LWDISPLAY
290
     1
  9
$INSUNITS
 70
     4
  9
$HYPERLINKBASE
  1

  9
$STYLESHEET
  1

  9
$XEDIT
290
     1
  9
$CEPSNTYPE
380
     0
  9
$PSTYLEMODE
290
     1
  9
$FINGERPRINTGUID
  2
{056f8937-d05f-42d5-858a-4bb0514e7972}
  9
$VERSIONGUID
  2
{FAEB1C32-E019-11D5-929B-00C0DF256EC4}
  9
$EXTNAMES
290
     1
  9
$PSVPSCALE
 40
0.0
  9
$OLESTARTUP
290
     0
  0
ENDSEC
  0
SECTION
  2
CLASSES
  0
CLASS
  1
ACDBDICTIONARYWDFLT
  2
AcDbDictionaryWithDefault
  3
ObjectDBX Classes
 90
        0
280
     0
281
     0
  0
CLASS
  1
VISUALSTYLE
  2
AcDbVisualStyle
  3
ObjectDBX Classes
 90
     4095
280
     0
281
     0
  0
CLASS
  1
MATERIAL
  2
AcDbMaterial
  3
ObjectDBX Classes
 90
     1153
280
     0
281
     0
  0
CLASS
  1
SCALE
  2
AcDbScale
  3
ObjectDBX Classes
 90
     1153
280
     0
281
     0
  0
CLASS
  1
TABLESTYLE
  2
AcDbTableStyle
  3
ObjectDBX Classes
 90
     4095
280
     0
281
     0
  0
CLASS
  1
MLEADERSTYLE
  2
AcDbMLeaderStyle
  3
ACDB_MLEADERSTYLE_CLASS
 90
     4095
280
     0
281
     0
  0
CLASS
  1
SUN
  2
AcDbSun
  3
SCENEOE
 90
     1153
280
     0
281
     0
  0
CLASS
  1
ACDBPLACEHOLDER
  2
AcDbPlaceHolder
  3
ObjectDBX Classes
 90
        0
280
     0
281
     0
  0
CLASS
  1
LAYOUT
  2
AcDbLayout
  3
ObjectDBX Classes
 90
        0
280
     0
281
     0
  0
ENDSEC
  0
SECTION
  2
TABLES
  0
TABLE
  2
VPORT
  5
8
330
0
100
AcDbSymbolTable
 70
     1
  0
VPORT
  5
29
330
8
100
AcDbSymbolTableRecord
100
AcDbViewportTableRecord
  2
*Active
 70
     0
 10
0.0
 20
0.0
 11
1.0
 21
1.0
 12
1050.0
 22
742.5
 13
0.0
 23
0.0
 14
10.0
 24
10.0
 15
10.0
 25
10.0
 16
0.0
 26
0.0
 36
1.0
 17
0.0
 27
0.0
 37
0.0
 40
1485.0
 41
1.4141414141
 42
50.0
 43
0.0
 44
0.0
 50
0.0
 51
0.0
 71
     0
 72
  2000
 73
     1
 74
     3
 75
     0
 76
     0
 77
     0
 78
     0
281
     0
 65
     1
110
0.0
120
0.0
130
0.0
111
1.0
121
0.0
131
0.0
112
0.0
122
1.0
132
0.0
 79
     0
146
0.0
  0
ENDTAB
  0
TABLE
  2
LTYPE
  5
5
330
0
100
AcDbSymbolTable
 70
     6
  0
LTYPE
  5
14
330
5
100
AcDbSymbolTableRecord
100
AcDbLinetypeTableRecord
  2
ByBlock
 70
     0
  3

 72
    65
 73
     0
 40
0.0
  0
LTYPE
  5
15
330
5
100
AcDbSymbolTableRecord
100
AcDbLinetypeTableRecord
  2
ByLayer
 70
     0
  3

 72
    65
 73
     0
 40
0.0
  0
LTYPE
  5
16
330
5
100
AcDbSymbolTableRecord
100
AcDbLinetypeTableRecord
  2
Continuous
 70
     0
  3
Solid line
 72
    65
 73
     0
 40
0.0
  0
LTYPE
  5
6E
330
5
100
AcDbSymbolTableRecord
100
AcDbLinetypeTableRecord
  2
HIDDEN
 70
     0
  3
Hidden __ __ __ __ __ __ __ __ __ __ __ __ __ __
 72
    65
 73
     2
 40
1.905
 49
1.27
 74
     0
 49
-0.635
 74
     0
  0
LTYPE
  5
6F
330
5
100
AcDbSymbolTableRecord
100
AcDbLinetypeTableRecord
  2
PHANTOM
 70
     0
  3
Phantom ______  __  __  ______  __  __  ______
 72
    65
 73
     6
 40
12.7
 49
6.35
 74
     0
 49
-1.27
 74
     0
 49
1.27
 74
     0
 49
-1.27
 74
     0
 49
1.27
 74
     0
 49
-1.27
 74
     0
  0
LTYPE
  5
70
330
5
100
AcDbSymbolTableRecord
100
AcDbLinetypeTableRecord
  2
CENTER
 70
     0
  3
Center ____ _ ____ _ ____ _ ____ _ ____ _ ____
 72
    65
 73
     4
 40
10.16
 49
6.35
 74
     0
 49
-1.27
 74
     0
 49
1.27
 74
     0
 49
-1.27
 74
     0
  0
LTYPE
  5
71
330
5
100
AcDbSymbolTableRecord
100
AcDbLinetypeTableRecord
  2
CENTERX2
 70
     0
  3
Center (2x) ________  __  ________  __  _____
 72
    65
 73
     4
 40
20.32
 49
12.7
 74
     0
 49
-2.54
 74
     0
 49
2.54
 74
     0
 49
-2.54
 74
     0
  0
LTYPE
  5
72
330
5
100
AcDbSymbolTableRecord
100
AcDbLinetypeTableRecord
  2
DOT2
 70
     0
  3
Dot (.5x) ........................................
 72
    65
 73
     2
 40
0.635
 49
0.0
 74
     0
 49
-0.635
 74
     0
  0
ENDTAB
  0
TABLE
  2
LAYER
  5
2
330
0
100
AcDbSymbolTable
 70
    10
  0
LAYER
  5
10
330
2
100
AcDbSymbolTableRecord
100
AcDbLayerTableRecord
  2
0
 70
     0
 62
     7
  6
Continuous
370
    -3
390
F
  0
LAYER
  5
73
330
2
100
AcDbSymbolTableRecord
100
AcDbLayerTableRecord
  2
DIMENSION
 70
     0
 62
     7
  6
Continuous
370
    -3
390
F
  0
LAYER
  5
74
330
2
100
AcDbSymbolTableRecord
100
AcDbLayerTableRecord
  2
NOTES
 70
     0
 62
     7
  6
Continuous
370
    -3
390
F
  0
LAYER
  5
75
330
2
100
AcDbSymbolTableRecord
100
AcDbLayerTableRecord
  2
TABLES
 70
     0
 62
     7
  6
Continuous
370
    -3
390
F
  0
LAYER
  5
76
330
2
100
AcDbSymbolTableRecord
100
AcDbLayerTableRecord
  2
INVISIBLE
 70
     0
 62
    -7
  6
Continuous
290
     0
370
    -3
390
F
  0
LAYER
  5
77
330
2
100
AcDbSymbolTableRecord
100
AcDbLayerTableRecord
  2
WEP
 70
     0
 62
  -150
  6
Continuous
290
     0
370
    -3
390
F
  0
LAYER
  5
78
330
2
100
AcDbSymbolTableRecord
100
AcDbLayerTableRecord
  2
EMP
 70
     0
 62
     1
  6
Continuous
370
    -3
390
F
  0
LAYER
  5
79
330
2
100
AcDbSymbolTableRecord
100
AcDbLayerTableRecord
  2
MARKETING_DRW
 70
     0
 62
    -7
  6
Continuous
290
     0
370
    -3
390
F
  0
LAYER
  5
7A
330
2
100
AcDbSymbolTableRecord
100
AcDbLayerTableRecord
  2
SINGLE_ARTICLE_DRW
 70
     0
 62
     7
  6
Continuous
370
    -3
390
F
  0
LAYER
  5
7B
330
2
100
AcDbSymbolTableRecord
100
AcDbLayerTableRecord
  2
TABLE_DRW
 70
     0
 62
    -7
  6
Continuous
290
     0
370
    -3
390
F
  0
ENDTAB
  0
TABLE
  2
STYLE
  5
3
330
0
100
AcDbSymbolTable
 70
     2
  0
STYLE
  5
11
330
3
100
AcDbSymbolTableRecord
100
AcDbTextStyleTableRecord
  2
Standard
 70
     0
 40
0.0
 41
1.0
 50
0.0
 71
     0
 42
12.5
  3
txt
  4

  0
STYLE
  5
B5
330
3
100
AcDbSymbolTableRecord
100
AcDbTextStyleTableRecord
  2
SLDTEXTSTYLE0
 70
     0
 40
0.0
 41
0.605
 50
0.0
 71
     0
 42
12.5
  3
TXT
  4

  0
ENDTAB
  0
TABLE
  2
VIEW
  5
6
330
0
100
AcDbSymbolTable
 70
     0
  0
ENDTAB
  0
TABLE
  2
UCS
  5
7
330
0
100
AcDbSymbolTable
 70
     0
  0
ENDTAB
  0
TABLE
  2
APPID
  5
9
330
0
100
AcDbSymbolTable
 70
     1
  0
APPID
  5
12
330
9
100
AcDbSymbolTableRecord
100
AcDbRegAppTableRecord
  2
ACAD
 70
     0
  0
ENDTAB
  0
TABLE
  2
DIMSTYLE
  5
A
330
0
100
AcDbSymbolTable
 70
     1
100
AcDbDimStyleTable
  0
DIMSTYLE
105
27
330
A
100
AcDbSymbolTableRecord
100
AcDbDimStyleTableRecord
  2
ISO-25
 70
     0
 41
2.5
 42
0.625
 43
3.75
 44
1.25
 73
     0
 74
     0
 77
     1
 78
     8
140
2.5
141
2.5
143
0.0393700787
147
0.625
171
     3
172
     1
178
     0
271
     2
272
     2
274
     3
278
    44
283
     0
284
     8
340
11
  0
ENDTAB
  0
TABLE
  2
BLOCK_RECORD
  5
1
330
0
100
AcDbSymbolTable
 70
     3
  0
BLOCK_RECORD
  5
1F
330
1
100
AcDbSymbolTableRecord
100
AcDbBlockTableRecord
  2
*Model_Space
340
22
  0
BLOCK_RECORD
  5
1B
330
1
100
AcDbSymbolTableRecord
100
AcDbBlockTableRecord
  2
*Paper_Space
340
1E
  0
BLOCK_RECORD
  5
23
330
1
100
AcDbSymbolTableRecord
100
AcDbBlockTableRecord
  2
*Paper_Space0
340
26
  0
BLOCK_RECORD
  5
BF
330
1
100
AcDbSymbolTableRecord
100
AcDbBlockTableRecord
  2
SW_NOTE_0
340
0
102
{BLKREFS
331
C5
102
}
  0
BLOCK_RECORD
  5
E8
330
1
100
AcDbSymbolTableRecord
100
AcDbBlockTableRecord
  2
SW_NOTE_0_1
340
0
102
{BLKREFS
331
EE
102
}
  0
ENDTAB
  0
ENDSEC
  0
SECTION
  2
BLOCKS
  0
BLOCK
  5
20
330
1F
100
AcDbEntity
  8
0
100
AcDbBlockBegin
  2
*Model_Space
 70
     0
 10
0.0
 20
0.0
 30
0.0
  3
*Model_Space
  1

  0
ENDBLK
  5
21
330
1F
100
AcDbEntity
  8
0
100
AcDbBlockEnd
  0
BLOCK
  5
1C
330
1B
100
AcDbEntity
 67
     1
  8
0
100
AcDbBlockBegin
  2
*Paper_Space
 70
     0
 10
0.0
 20
0.0
 30
0.0
  3
*Paper_Space
  1

  0
ENDBLK
  5
1D
330
1B
100
AcDbEntity
 67
     1
  8
0
100
AcDbBlockEnd
  0
BLOCK
  5
24
330
23
100
AcDbEntity
  8
0
100
AcDbBlockBegin
  2
*Paper_Space0
 70
     0
 10
0.0
 20
0.0
 30
0.0
  3
*Paper_Space0
  1

  0
ENDBLK
  5
25
330
23
100
AcDbEntity
  8
0
100
AcDbBlockEnd
  0
BLOCK
  5
C0
330
BF
100
AcDbEntity
  8
0
100
AcDbBlockBegin
  2
SW_NOTE_0
 70
     0
 10
0.0
 20
0.0
 30
0.0
  3
SW_NOTE_0
  1

  0
MTEXT
  5
C2
330
BF
100
AcDbEntity
  8
TABLE_DRW
 62
     0
100
AcDbMText
 10
0.0
 20
11.6016096579
 30
0.0
 40
9.0
 41
0.0
 71
     1
 72
     1
  1
The reproduction, distribution and utilization of this document as well as the communication of its contents to
  7
SLDTEXTSTYLE0
 73
     1
 44
1.0
  0
MTEXT
  5
C3
330
BF
100
AcDbEntity
  8
TABLE_DRW
 62
     0
100
AcDbMText
 10
0.0
 20
0.0016098055
 30
0.0
 40
9.0
 41
0.0
 71
     1
 72
     1
  1
others without express authorization is prohibited. Offenders will be held liable for the payment of damages.
  7
SLDTEXTSTYLE0
 73
     1
 44
1.0
  0
MTEXT
  5
C4
330
BF
100
AcDbEntity
  8
TABLE_DRW
 62
     0
100
AcDbMText
 10
0.0
 20
-11.598390047
 30
0.0
 40
9.0
 41
0.0
 71
     1
 72
     1
  1
All rights reserved in the event of the grant of a patent, utility model or design. Observe copyright by ISO 16016
  7
SLDTEXTSTYLE0
 73
     1
 44
1.0
  0
ENDBLK
  5
C1
330
BF
100
AcDbEntity
  8
0
100
AcDbBlockEnd
  0
BLOCK
  5
E9
330
E8
100
AcDbEntity
  8
0
100
AcDbBlockBegin
  2
SW_NOTE_0_1
 70
     0
 10
0.0
 20
0.0
 30
0.0
  3
SW_NOTE_0_1
  1

  0
MTEXT
  5
EB
330
E8
100
AcDbEntity
  8
MARKETING_DRW
 62
     0
100
AcDbMText
 10
0.0
 20
11.6016096579
 30
0.0
 40
9.0
 41
0.0
 71
     1
 72
     1
  1
The reproduction, distribution and utilization of this document as well as the communication of its contents to
  7
SLDTEXTSTYLE0
 73
     1
 44
1.0
  0
MTEXT
  5
EC
330
E8
100
AcDbEntity
  8
MARKETING_DRW
 62
     0
100
AcDbMText
 10
0.0
 20
-0.0233903849
 30
0.0
 40
9.0
 41
0.0
 71
     1
 72
     1
  1
others without express authorization is prohibited. Offenders will be held liable for the payment of damages.
  7
SLDTEXTSTYLE0
 73
     1
 44
1.0
  0
MTEXT
  5
ED
330
E8
100
AcDbEntity
  8
MARKETING_DRW
 62
     0
100
AcDbMText
 10
0.0
 20
-11.6483904277
 30
0.0
 40
9.0
 41
0.0
 71
     1
 72
     1
  1
All rights reserved in the event of the grant of a patent, utility model or design. Observe copyright by ISO 16016
  7
SLDTEXTSTYLE0
 73
     1
 44
1.0
  0
ENDBLK
  5
EA
330
E8
100
AcDbEntity
  8
0
100
AcDbBlockEnd
  0
ENDSEC
  0
SECTION
  2
ENTITIES
  0
LINE
  5
7C
330
1F
100
AcDbEntity
  8
TABLE_DRW
  6
CENTERX2
 62
     7
100
AcDbLine
 10
1955.0
 20
200.0
 30
0.0
 11
1980.0
 21
200.0
 31
0.0
  0
LINE
  5
7D
330
1F
100
AcDbEntity
  8
TABLE_DRW
  6
CENTERX2
 62
     7
100
AcDbLine
 10
1967.5
 20
212.5
 30
0.0
 11
1967.5
 21
187.5
 31
0.0
  0
LINE
  5
7E
330
1F
100
AcDbEntity
  8
TABLE_DRW
  6
CENTERX2
 62
     7
100
AcDbLine
 10
1915.0
 20
200.0
 30
0.0
 11
1950.0
 21
200.0
 31
0.0
  0
LINE
  5
7F
330
1F
100
AcDbEntity
  8
TABLE_DRW
 62
     7
100
AcDbLine
 10
1920.0
 20
194.95
 30
0.0
 11
1945.0
 21
190.0
 31
0.0
  0
LINE
  5
80
330
1F
100
AcDbEntity
  8
TABLE_DRW
 62
     7
100
AcDbLine
 10
1920.0
 20
205.05
 30
0.0
 11
1920.0
 21
194.95
 31
0.0
  0
LINE
  5
81
330
1F
100
AcDbEntity
  8
TABLE_DRW
 62
     7
100
AcDbLine
 10
1945.0
 20
210.0
 30
0.0
 11
1920.0
 21
205.05
 31
0.0
  0
LINE
  5
82
330
1F
100
AcDbEntity
  8
TABLE_DRW
 62
     7
100
AcDbLine
 10
1945.0
 20
190.0
 30
0.0
 11
1945.0
 21
210.0
 31
0.0
  0
LINE
  5
83
330
1F
100
AcDbEntity
  8
TABLE_DRW
 62
     7
100
AcDbLine
 10
2050.0
 20
50.0
 30
0.0
 11
2050.0
 21
340.0
 31
0.0
  0
LINE
  5
84
330
1F
100
AcDbEntity
  8
TABLE_DRW
 62
     7
100
AcDbLine
 10
1150.0
 20
340.0
 30
0.0
 11
1150.0
 21
50.0
 31
0.0
  0
LINE
  5
85
330
1F
100
AcDbEntity
  8
TABLE_DRW
 62
     7
100
AcDbLine
 10
1700.0
 20
95.0
 30
0.0
 11
1700.0
 21
50.0
 31
0.0
  0
LINE
  5
86
330
1F
100
AcDbEntity
  8
TABLE_DRW
 62
     7
100
AcDbLine
 10
1850.0
 20
50.0
 30
0.0
 11
1850.0
 21
95.0
 31
0.0
  0
LINE
  5
87
330
1F
100
AcDbEntity
  8
TABLE_DRW
 62
     7
100
AcDbLine
 10
2000.0
 20
95.0
 30
0.0
 11
2000.0
 21
50.0
 31
0.0
  0
LINE
  5
88
330
1F
100
AcDbEntity
  8
TABLE_DRW
 62
     7
100
AcDbLine
 10
1900.0
 20
320.0
 30
0.0
 11
1900.0
 21
185.0
 31
0.0
  0
LINE
  5
89
330
1F
100
AcDbEntity
  8
TABLE_DRW
 62
     7
100
AcDbLine
 10
2050.0
 20
320.0
 30
0.0
 11
1150.0
 21
320.0
 31
0.0
  0
LINE
  5
8A
330
1F
100
AcDbEntity
  8
TABLE_DRW
 62
     7
100
AcDbLine
 10
1800.0
 20
95.0
 30
0.0
 11
1800.0
 21
50.0
 31
0.0
  0
LINE
  5
8B
330
1F
100
AcDbEntity
  8
TABLE_DRW
 62
     7
100
AcDbLine
 10
2050.0
 20
275.0
 30
0.0
 11
1400.0
 21
275.0
 31
0.0
  0
LINE
  5
8C
330
1F
100
AcDbEntity
  8
TABLE_DRW
 62
     7
100
AcDbLine
 10
1650.0
 20
230.0
 30
0.0
 11
1650.0
 21
185.0
 31
0.0
  0
LINE
  5
8D
330
1F
100
AcDbEntity
  8
TABLE_DRW
 62
     7
100
AcDbLine
 10
2050.0
 20
230.0
 30
0.0
 11
1400.0
 21
230.0
 31
0.0
  0
LINE
  5
8E
330
1F
100
AcDbEntity
  8
TABLE_DRW
 62
     7
100
AcDbLine
 10
1400.0
 20
320.0
 30
0.0
 11
1400.0
 21
185.0
 31
0.0
  0
LINE
  5
8F
330
1F
100
AcDbEntity
  8
TABLE_DRW
 62
     7
100
AcDbLine
 10
2000.0
 20
230.0
 30
0.0
 11
2000.0
 21
185.0
 31
0.0
  0
LINE
  5
90
330
1F
100
AcDbEntity
  8
TABLE_DRW
 62
     7
100
AcDbLine
 10
2050.0
 20
95.0
 30
0.0
 11
1150.0
 21
95.0
 31
0.0
  0
LINE
  5
91
330
1F
100
AcDbEntity
  8
TABLE_DRW
 62
     7
100
AcDbLine
 10
1650.0
 20
275.0
 30
0.0
 11
1650.0
 21
320.0
 31
0.0
  0
LINE
  5
92
330
1F
100
AcDbEntity
  8
TABLE_DRW
 62
     7
100
AcDbLine
 10
1150.0
 20
340.0
 30
0.0
 11
2050.0
 21
340.0
 31
0.0
  0
LINE
  5
93
330
1F
100
AcDbEntity
  8
TABLE_DRW
 62
     7
100
AcDbLine
 10
1150.0
 20
185.0
 30
0.0
 11
2050.0
 21
185.0
 31
0.0
  0
LINE
  5
94
330
1F
100
AcDbEntity
  8
TABLE_DRW
 62
     7
100
AcDbLine
 10
1150.0
 20
50.0
 30
0.0
 11
2050.0
 21
50.0
 31
0.0
  0
LINE
  5
95
330
1F
100
AcDbEntity
  8
TABLE_DRW
 62
     7
100
AcDbLine
 10
1400.0
 20
275.0
 30
0.0
 11
1150.0
 21
275.0
 31
0.0
  0
LINE
  5
96
330
1F
100
AcDbEntity
  8
MARKETING_DRW
  6
CENTERX2
100
AcDbLine
 10
1955.0
 20
200.0
 30
0.0
 11
1980.0
 21
200.0
 31
0.0
  0
LINE
  5
97
330
1F
100
AcDbEntity
  8
MARKETING_DRW
  6
CENTERX2
100
AcDbLine
 10
1967.5
 20
212.5
 30
0.0
 11
1967.5
 21
187.5
 31
0.0
  0
LINE
  5
98
330
1F
100
AcDbEntity
  8
MARKETING_DRW
  6
CENTERX2
100
AcDbLine
 10
1915.0
 20
200.0
 30
0.0
 11
1950.0
 21
200.0
 31
0.0
  0
LINE
  5
99
330
1F
100
AcDbEntity
  8
MARKETING_DRW
100
AcDbLine
 10
1920.0
 20
194.95
 30
0.0
 11
1945.0
 21
190.0
 31
0.0
  0
LINE
  5
9A
330
1F
100
AcDbEntity
  8
MARKETING_DRW
100
AcDbLine
 10
1920.0
 20
205.05
 30
0.0
 11
1920.0
 21
194.95
 31
0.0
  0
LINE
  5
9B
330
1F
100
AcDbEntity
  8
MARKETING_DRW
100
AcDbLine
 10
1945.0
 20
210.0
 30
0.0
 11
1920.0
 21
205.05
 31
0.0
  0
LINE
  5
9C
330
1F
100
AcDbEntity
  8
MARKETING_DRW
100
AcDbLine
 10
1945.0
 20
190.0
 30
0.0
 11
1945.0
 21
210.0
 31
0.0
  0
LINE
  5
9D
330
1F
100
AcDbEntity
  8
MARKETING_DRW
100
AcDbLine
 10
2050.0
 20
50.0
 30
0.0
 11
2050.0
 21
230.0
 31
0.0
  0
LINE
  5
9E
330
1F
100
AcDbEntity
  8
MARKETING_DRW
100
AcDbLine
 10
1150.0
 20
50.0
 30
0.0
 11
2050.0
 21
50.0
 31
0.0
  0
LINE
  5
9F
330
1F
100
AcDbEntity
  8
MARKETING_DRW
100
AcDbLine
 10
1150.0
 20
275.0
 30
0.0
 11
1150.0
 21
50.0
 31
0.0
  0
LINE
  5
A0
330
1F
100
AcDbEntity
  8
MARKETING_DRW
100
AcDbLine
 10
1150.0
 20
275.0
 30
0.0
 11
1650.0
 21
275.0
 31
0.0
  0
LINE
  5
A1
330
1F
100
AcDbEntity
  8
MARKETING_DRW
 62
     7
100
AcDbLine
 10
1850.0
 20
50.0
 30
0.0
 11
1850.0
 21
95.0
 31
0.0
  0
LINE
  5
A2
330
1F
100
AcDbEntity
  8
MARKETING_DRW
100
AcDbLine
 10
2000.0
 20
95.0
 30
0.0
 11
2000.0
 21
50.0
 31
0.0
  0
LINE
  5
A3
330
1F
100
AcDbEntity
  8
MARKETING_DRW
100
AcDbLine
 10
1650.0
 20
275.0
 30
0.0
 11
1650.0
 21
230.0
 31
0.0
  0
LINE
  5
A4
330
1F
100
AcDbEntity
  8
MARKETING_DRW
100
AcDbLine
 10
2050.0
 20
230.0
 30
0.0
 11
1400.0
 21
230.0
 31
0.0
  0
LINE
  5
A5
330
1F
100
AcDbEntity
  8
MARKETING_DRW
100
AcDbLine
 10
1400.0
 20
275.0
 30
0.0
 11
1400.0
 21
185.0
 31
0.0
  0
LINE
  5
A6
330
1F
100
AcDbEntity
  8
MARKETING_DRW
100
AcDbLine
 10
2000.0
 20
230.0
 30
0.0
 11
2000.0
 21
185.0
 31
0.0
  0
LINE
  5
A7
330
1F
100
AcDbEntity
  8
MARKETING_DRW
100
AcDbLine
 10
2050.0
 20
95.0
 30
0.0
 11
1150.0
 21
95.0
 31
0.0
  0
LINE
  5
A8
330
1F
100
AcDbEntity
  8
MARKETING_DRW
100
AcDbLine
 10
1150.0
 20
185.0
 30
0.0
 11
2050.0
 21
185.0
 31
0.0
  0
LINE
  5
A9
330
1F
100
AcDbEntity
  8
MARKETING_DRW
100
AcDbLine
 10
1150.0
 20
50.0
 30
0.0
 11
2050.0
 21
50.0
 31
0.0
  0
LINE
  5
AA
330
1F
100
AcDbEntity
  8
MARKETING_DRW
100
AcDbLine
 10
1900.0
 20
230.0
 30
0.0
 11
1900.0
 21
185.0
 31
0.0
  0
LINE
  5
AB
330
1F
100
AcDbEntity
  8
MARKETING_DRW
100
AcDbLine
 10
1650.0
 20
275.0
 30
0.0
 11
1900.0
 21
275.0
 31
0.0
  0
LINE
  5
AC
330
1F
100
AcDbEntity
  8
MARKETING_DRW
100
AcDbLine
 10
1900.0
 20
275.0
 30
0.0
 11
1900.0
 21
230.0
 31
0.0
  0
LINE
  5
AD
330
1F
100
AcDbEntity
  8
MARKETING_DRW
100
AcDbLine
 10
1900.0
 20
275.0
 30
0.0
 11
2050.0
 21
275.0
 31
0.0
  0
LINE
  5
AE
330
1F
100
AcDbEntity
  8
MARKETING_DRW
100
AcDbLine
 10
2050.0
 20
275.0
 30
0.0
 11
2050.0
 21
230.0
 31
0.0
  0
LINE
  5
AF
330
1F
100
AcDbEntity
  8
MARKETING_DRW
100
AcDbLine
 10
1825.0
 20
275.0
 30
0.0
 11
1825.0
 21
230.0
 31
0.0
  0
LINE
  5
B0
330
1F
100
AcDbEntity
  8
MARKETING_DRW
100
AcDbLine
 10
1650.0
 20
230.0
 30
0.0
 11
1650.0
 21
185.0
 31
0.0
  0
CIRCLE
  5
B1
330
1F
100
AcDbEntity
  8
TABLE_DRW
 62
     7
100
AcDbCircle
 10
1967.5
 20
200.0
 30
0.0
 40
5.000000000000224
  0
CIRCLE
  5
B2
330
1F
100
AcDbEntity
  8
TABLE_DRW
 62
     7
100
AcDbCircle
 10
1967.5
 20
200.0
 30
0.0
 40
10.00000000000024
  0
CIRCLE
  5
B3
330
1F
100
AcDbEntity
  8
MARKETING_DRW
100
AcDbCircle
 10
1967.5
 20
200.0
 30
0.0
 40
5.000000000000224
  0
CIRCLE
  5
B4
330
1F
100
AcDbEntity
  8
MARKETING_DRW
100
AcDbCircle
 10
1967.5
 20
200.0
 30
0.0
 40
10.00000000000024
  0
MTEXT
  5
B6
330
1F
100
AcDbEntity
  8
TABLE_DRW
100
AcDbMText
 10
1905.0
 20
294.9675136777
 30
0.0
 40
12.5
 41
0.0
 71
     1
 72
     1
  1
see table
  7
SLDTEXTSTYLE0
 73
     1
 44
1.0
  0
MTEXT
  5
B7
330
1F
100
AcDbEntity
  8
TABLE_DRW
100
AcDbMText
 10
1155.0
 20
334.9766099061
 30
0.0
 40
9.0
 41
0.0
 71
     1
 72
     1
  1
modification:
  7
SLDTEXTSTYLE0
 73
     1
 44
1.0
  0
MTEXT
  5
B8
330
1F
100
AcDbEntity
  8
TABLE_DRW
100
AcDbMText
 10
1405.0
 20
249.9675136777
 30
0.0
 40
12.5
 41
0.0
 71
     1
 72
     1
  1
see table
  7
SLDTEXTSTYLE0
 73
     1
 44
1.0
  0
MTEXT
  5
B9
330
1F
100
AcDbEntity
  8
TABLE_DRW
100
AcDbMText
 10
1155.0
 20
159.9675136777
 30
0.0
 40
12.5
 41
0.0
 71
     1
 72
     1
  1
ACO ShowerDrain
  7
SLDTEXTSTYLE0
 73
     1
 44
1.0
  0
MTEXT
  5
BA
330
1F
100
AcDbEntity
  8
TABLE_DRW
100
AcDbMText
 10
1824.7395830229
 20
69.9675136777
 30
0.0
 40
12.5
 41
0.0
 71
     2
 72
     1
  1
001
  7
SLDTEXTSTYLE0
 73
     1
 44
1.0
  0
MTEXT
  5
BB
330
1F
100
AcDbEntity
  8
TABLE_DRW
100
AcDbMText
 10
1749.0407964215
 20
69.9675136777
 30
0.0
 40
12.5
 41
0.0
 71
     2
 72
     1
  1
1093327-O
  7
SLDTEXTSTYLE0
 73
     1
 44
1.0
  0
MTEXT
  5
BC
330
1F
100
AcDbEntity
  8
TABLE_DRW
100
AcDbMText
 10
1155.0
 20
295.0022357116
 30
0.0
 40
12.5
 41
0.0
 71
     1
 72
     1
  1
Bohms, Michael
  7
SLDTEXTSTYLE0
 73
     1
 44
1.0
  0
MTEXT
  5
BD
330
1F
100
AcDbEntity
  8
TABLE_DRW
100
AcDbMText
 10
1155.0
 20
137.4675136777
 30
0.0
 40
12.5
 41
0.0
 71
     1
 72
     1
  1
ASM Shower Channel C with WA and gap, with side outlet, with FAT GV50 L1080, International
  7
SLDTEXTSTYLE0
 73
     1
 44
1.0
  0
MTEXT
  5
BE
330
1F
100
AcDbEntity
  8
TABLE_DRW
100
AcDbMText
 10
1155.0
 20
114.9675136777
 30
0.0
 40
12.5
 41
0.0
 71
     1
 72
     1
  1
ZB Duschrinne C mit Spalt, mit Wandaufkantung, mit Seite Auslass, mit FAT GV50 L1080, International
  7
SLDTEXTSTYLE0
 73
     1
 44
1.0
  0
INSERT
  5
C5
330
1F
100
AcDbEntity
  8
TABLE_DRW
100
AcDbBlockReference
  2
SW_NOTE_0
 10
1155.0
 20
78.4000001475
 30
0.0
  0
MTEXT
  5
C6
330
1F
100
AcDbEntity
  8
TABLE_DRW
100
AcDbMText
 10
1405.0
 20
224.9766099061
 30
0.0
 40
9.0
 41
0.0
 71
     1
 72
     1
  1
created by:
  7
SLDTEXTSTYLE0
 73
     1
 44
1.0
  0
MTEXT
  5
C7
330
1F
100
AcDbEntity
  8
TABLE_DRW
100
AcDbMText
 10
1655.0
 20
314.9766099061
 30
0.0
 40
9.0
 41
0.0
 71
     1
 72
     1
  1
surface:
  7
SLDTEXTSTYLE0
 73
     1
 44
1.0
  0
MTEXT
  5
C8
330
1F
100
AcDbEntity
  8
TABLE_DRW
100
AcDbMText
 10
2024.8750000875
 20
224.9766099061
 30
0.0
 40
9.0
 41
0.0
 71
     2
 72
     1
  1
scale:
  7
SLDTEXTSTYLE0
 73
     1
 44
1.0
  0
MTEXT
  5
C9
330
1F
100
AcDbEntity
  8
TABLE_DRW
100
AcDbMText
 10
1905.0
 20
314.9766099061
 30
0.0
 40
9.0
 41
0.0
 71
     1
 72
     1
  1
weight:
  7
SLDTEXTSTYLE0
 73
     1
 44
1.0
  0
MTEXT
  5
CA
330
1F
100
AcDbEntity
  8
TABLE_DRW
100
AcDbMText
 10
1749.034373872
 20
89.9766099061
 30
0.0
 40
9.0
 41
0.0
 71
     2
 72
     1
  1
drawing-no.:
  7
SLDTEXTSTYLE0
 73
     1
 44
1.0
  0
MTEXT
  5
CB
330
1F
100
AcDbEntity
  8
TABLE_DRW
100
AcDbMText
 10
1905.0
 20
269.9766099061
 30
0.0
 40
9.0
 41
0.0
 71
     1
 72
     1
  1
documenttype:
  7
SLDTEXTSTYLE0
 73
     1
 44
1.0
  0
MTEXT
  5
CC
330
1F
100
AcDbEntity
  8
TABLE_DRW
100
AcDbMText
 10
1824.8125000894
 20
89.9766099061
 30
0.0
 40
9.0
 41
0.0
 71
     2
 72
     1
  1
index:
  7
SLDTEXTSTYLE0
 73
     1
 44
1.0
  0
MTEXT
  5
CD
330
1F
100
AcDbEntity
  8
TABLE_DRW
100
AcDbMText
 10
1655.0
 20
224.9766099061
 30
0.0
 40
9.0
 41
0.0
 71
     1
 72
     1
  1
reviewed by:
  7
SLDTEXTSTYLE0
 73
     1
 44
1.0
  0
MTEXT
  5
CE
330
1F
100
AcDbEntity
  8
TABLE_DRW
100
AcDbMText
 10
1855.0
 20
89.9766099061
 30
0.0
 40
9.0
 41
0.0
 71
     1
 72
     1
  1
release date:
  7
SLDTEXTSTYLE0
 73
     1
 44
1.0
  0
MTEXT
  5
CF
330
1F
100
AcDbEntity
  8
TABLE_DRW
100
AcDbMText
 10
2024.7500000913
 20
89.9766099061
 30
0.0
 40
9.0
 41
0.0
 71
     2
 72
     1
  1
sheet:
  7
SLDTEXTSTYLE0
 73
     1
 44
1.0
  0
MTEXT
  5
D0
330
1F
100
AcDbEntity
  8
TABLE_DRW
100
AcDbMText
 10
1905.0
 20
224.9766099061
 30
0.0
 40
9.0
 41
0.0
 71
     1
 72
     1
  1
projection:ISO-E
  7
SLDTEXTSTYLE0
 73
     1
 44
1.0
  0
MTEXT
  5
D1
330
1F
100
AcDbEntity
  8
TABLE_DRW
100
AcDbMText
 10
1405.0
 20
269.9766099061
 30
0.0
 40
9.0
 41
0.0
 71
     1
 72
     1
  1
material:
  7
SLDTEXTSTYLE0
 73
     1
 44
1.0
  0
MTEXT
  5
D2
330
1F
100
AcDbEntity
  8
TABLE_DRW
100
AcDbMText
 10
1905.0
 20
249.9675136777
 30
0.0
 40
12.5
 41
0.0
 71
     1
 72
     1
  1
production drw.
  7
SLDTEXTSTYLE0
 73
     1
 44
1.0
  0
MTEXT
  5
D3
330
1F
100
AcDbEntity
  8
TABLE_DRW
100
AcDbMText
 10
1405.0
 20
314.9766099061
 30
0.0
 40
9.0
 41
0.0
 71
     1
 72
     1
  1
general tolerance:
  7
SLDTEXTSTYLE0
 73
     1
 44
1.0
  0
MTEXT
  5
D4
330
1F
100
AcDbEntity
  8
TABLE_DRW
100
AcDbMText
 10
2024.7829862405
 20
204.9675136777
 30
0.0
 40
12.5
 41
0.0
 71
     2
 72
     1
  1
1:5
  7
SLDTEXTSTYLE0
 73
     1
 44
1.0
  0
MTEXT
  5
D5
330
1F
100
AcDbEntity
  8
TABLE_DRW
100
AcDbMText
 10
2024.7829862405
 20
69.9675136777
 30
0.0
 40
12.5
 41
0.0
 71
     2
 72
     1
  1
1/1
  7
SLDTEXTSTYLE0
 73
     1
 44
1.0
  0
MTEXT
  5
D6
330
1F
100
AcDbEntity
  8
TABLE_DRW
100
AcDbMText
 10
1155.0
 20
314.9766099061
 30
0.0
 40
9.0
 41
0.0
 71
     1
 72
     1
  1
technical reference:
  7
SLDTEXTSTYLE0
 73
     1
 44
1.0
  0
MTEXT
  5
D7
330
1F
100
AcDbEntity
  8
TABLE_DRW
100
AcDbMText
 10
1155.0
 20
179.9766099061
 30
0.0
 40
9.0
 41
0.0
 71
     1
 72
     1
  1
title:
  7
SLDTEXTSTYLE0
 73
     1
 44
1.0
  0
MTEXT
  5
D8
330
1F
100
AcDbEntity
  8
MARKETING_DRW
100
AcDbMText
 10
1155.0
 20
114.9675136777
 30
0.0
 40
12.5
 41
0.0
 71
     1
 72
     1
  1
ZB Duschrinne C mit Spalt, mit Wandaufkantung, mit Seite Auslass, mit FAT GV50 L1080, International
  7
SLDTEXTSTYLE0
 73
     1
 44
1.0
  0
MTEXT
  5
D9
330
1F
100
AcDbEntity
  8
MARKETING_DRW
100
AcDbMText
 10
1155.0
 20
137.4675136777
 30
0.0
 40
12.5
 41
0.0
 71
     1
 72
     1
  1
ASM Shower Channel C with WA and gap, with side outlet, with FAT GV50 L1080, International
  7
SLDTEXTSTYLE0
 73
     1
 44
1.0
  0
MTEXT
  5
DA
330
1F
100
AcDbEntity
  8
MARKETING_DRW
100
AcDbMText
 10
1736.5407964215
 20
249.9675136777
 30
0.0
 40
12.5
 41
0.0
 71
     2
 72
     1
  1
1093327-O
  7
SLDTEXTSTYLE0
 73
     1
 44
1.0
  0
MTEXT
  5
DB
330
1F
100
AcDbEntity
  8
MARKETING_DRW
100
AcDbMText
 10
1862.2395830229
 20
252.0971433073
 30
0.0
 40
12.5
 41
0.0
 71
     2
 72
     1
  1
001
  7
SLDTEXTSTYLE0
 73
     1
 44
1.0
  0
MTEXT
  5
DC
330
1F
100
AcDbEntity
  8
MARKETING_DRW
100
AcDbMText
 10
1155.0
 20
159.9675136777
 30
0.0
 40
12.5
 41
0.0
 71
     1
 72
     1
  1
ACO ShowerDrain
  7
SLDTEXTSTYLE0
 73
     1
 44
1.0
  0
MTEXT
  5
DD
330
1F
100
AcDbEntity
  8
MARKETING_DRW
100
AcDbMText
 10
1905.0
 20
269.9766099061
 30
0.0
 40
9.0
 41
0.0
 71
     1
 72
     1
  1
documenttype:
  7
SLDTEXTSTYLE0
 73
     1
 44
1.0
  0
MTEXT
  5
DE
330
1F
100
AcDbEntity
  8
MARKETING_DRW
100
AcDbMText
 10
1655.0
 20
224.9766099061
 30
0.0
 40
9.0
 41
0.0
 71
     1
 72
     1
  1
reviewed by:
  7
SLDTEXTSTYLE0
 73
     1
 44
1.0
  0
MTEXT
  5
DF
330
1F
100
AcDbEntity
  8
MARKETING_DRW
100
AcDbMText
 10
1736.534373872
 20
270.0578764559
 30
0.0
 40
9.0
 41
0.0
 71
     2
 72
     1
  1
drawing-no.:
  7
SLDTEXTSTYLE0
 73
     1
 44
1.0
  0
MTEXT
  5
E0
330
1F
100
AcDbEntity
  8
MARKETING_DRW
100
AcDbMText
 10
1905.0
 20
224.9766099061
 30
0.0
 40
9.0
 41
0.0
 71
     1
 72
     1
  1
projection:ISO-E
  7
SLDTEXTSTYLE0
 73
     1
 44
1.0
  0
MTEXT
  5
E1
330
1F
100
AcDbEntity
  8
MARKETING_DRW
100
AcDbMText
 10
2024.7500000913
 20
89.9766099061
 30
0.0
 40
9.0
 41
0.0
 71
     2
 72
     1
  1
sheet:
  7
SLDTEXTSTYLE0
 73
     1
 44
1.0
  0
MTEXT
  5
E2
330
1F
100
AcDbEntity
  8
MARKETING_DRW
100
AcDbMText
 10
2024.7829862405
 20
69.9675136777
 30
0.0
 40
12.5
 41
0.0
 71
     2
 72
     1
  1
1/1
  7
SLDTEXTSTYLE0
 73
     1
 44
1.0
  0
MTEXT
  5
E3
330
1F
100
AcDbEntity
  8
MARKETING_DRW
100
AcDbMText
 10
1855.0
 20
89.9766099061
 30
0.0
 40
9.0
 41
0.0
 71
     1
 72
     1
  1
release date:
  7
SLDTEXTSTYLE0
 73
     1
 44
1.0
  0
MTEXT
  5
E4
330
1F
100
AcDbEntity
  8
MARKETING_DRW
100
AcDbMText
 10
1862.3125000894
 20
269.9766099061
 30
0.0
 40
9.0
 41
0.0
 71
     2
 72
     1
  1
index:
  7
SLDTEXTSTYLE0
 73
     1
 44
1.0
  0
MTEXT
  5
E5
330
1F
100
AcDbEntity
  8
MARKETING_DRW
100
AcDbMText
 10
1155.0
 20
179.9766099061
 30
0.0
 40
9.0
 41
0.0
 71
     1
 72
     1
  1
title:
  7
SLDTEXTSTYLE0
 73
     1
 44
1.0
  0
MTEXT
  5
E6
330
1F
100
AcDbEntity
  8
MARKETING_DRW
100
AcDbMText
 10
2024.8750000875
 20
224.9766099061
 30
0.0
 40
9.0
 41
0.0
 71
     2
 72
     1
  1
scale:
  7
SLDTEXTSTYLE0
 73
     1
 44
1.0
  0
MTEXT
  5
E7
330
1F
100
AcDbEntity
  8
MARKETING_DRW
100
AcDbMText
 10
2024.7829862405
 20
204.9675136777
 30
0.0
 40
12.5
 41
0.0
 71
     2
 72
     1
  1
1:5
  7
SLDTEXTSTYLE0
 73
     1
 44
1.0
  0
INSERT
  5
EE
330
1F
100
AcDbEntity
  8
MARKETING_DRW
100
AcDbBlockReference
  2
SW_NOTE_0_1
 10
1155.0
 20
78.3750002482
 30
0.0
  0
MTEXT
  5
EF
330
1F
100
AcDbEntity
  8
MARKETING_DRW
100
AcDbMText
 10
1905.0
 20
249.9675136777
 30
0.0
 40
12.5
 41
0.0
 71
     1
 72
     1
  1
marketing drw.
  7
SLDTEXTSTYLE0
 73
     1
 44
1.0
  0
MTEXT
  5
F0
330
1F
100
AcDbEntity
  8
MARKETING_DRW
100
AcDbMText
 10
1405.0
 20
224.9766099061
 30
0.0
 40
9.0
 41
0.0
 71
     1
 72
     1
  1
created by:
  7
SLDTEXTSTYLE0
 73
     1
 44
1.0
  0
LINE
  5
F1
330
1F
100
AcDbEntity
  8
0
  6
Continuous
 62
     7
370
    35
100
AcDbLine
 10
942.1107245225
 20
840.4850816169
 30
0.0
 11
985.2991228681
 21
840.4850816169
 31
0.0
  0
LINE
  5
F2
330
1F
100
AcDbEntity
  8
0
  6
Continuous
 62
     7
370
    35
100
AcDbLine
 10
985.2991228681
 20
890.5850816169
 30
0.0
 11
942.1107245225
 21
890.5850816169
 31
0.0
  0
ARC
  5
F3
330
1F
100
AcDbEntity
  8
0
  6
Continuous
 62
     7
370
    35
100
AcDbCircle
 10
985.2991228681
 20
887.5850816169
 30
0.0
 40
3.000000000000114
100
AcDbArc
 50
78.1402208791
 51
90.0
  0
ARC
  5
F4
330
1F
100
AcDbEntity
  8
0
  6
Continuous
 62
     7
370
    35
100
AcDbCircle
 10
985.2991228681
 20
843.4850816169
 30
0.0
 40
3.0
100
AcDbArc
 50
270.0
 51
281.8597791209
  0
LINE
  5
F5
330
1F
100
AcDbEntity
  8
0
  6
Continuous
 62
     7
370
    35
100
AcDbLine
 10
985.915674571
 20
840.5491211271
 30
0.0
 11
990.6107245225
 21
841.5350816169
 31
0.0
  0
LINE
  5
F6
330
1F
100
AcDbEntity
  8
0
  6
Continuous
 62
     7
370
    35
100
AcDbLine
 10
990.6107245225
 20
889.5350816169
 30
0.0
 11
985.915674571
 21
890.5210421067
 31
0.0
  0
LINE
  5
F7
330
1F
100
AcDbEntity
  8
0
  6
Continuous
 62
     7
370
    35
100
AcDbLine
 10
942.11072455
 20
890.5350816169
 30
0.0
 11
940.508558949
 21
890.5350816169
 31
0.0
  0
LINE
  5
F8
330
1F
100
AcDbEntity
  8
0
  6
Continuous
 62
     7
370
    35
100
AcDbLine
 10
923.6107245224
 20
840.5350816169
 30
0.0
 11
942.11072455
 21
840.5350816169
 31
0.0
  0
LINE
  5
F9
330
1F
100
AcDbEntity
  8
0
  6
Continuous
 62
     7
370
    35
100
AcDbLine
 10
919.6575069295
 20
840.5350816169
 30
0.0
 11
923.6107245225
 21
840.5350816169
 31
0.0
  0
LINE
  5
FA
330
1F
100
AcDbEntity
  8
0
  6
Continuous
 62
     7
370
    35
100
AcDbLine
 10
1390.6107245225
 20
933.9846816169
 30
0.0
 11
310.6107245225
 21
933.9846816169
 31
0.0
  0
LINE
  5
FB
330
1F
100
AcDbEntity
  8
0
  6
Continuous
 62
     7
370
    35
100
AcDbLine
 10
769.6107245225
 20
913.893125855
 30
0.0
 11
769.6107245225
 21
910.9850816169
 31
0.0
  0
LINE
  5
FC
330
1F
100
AcDbEntity
  8
0
  6
Continuous
 62
     7
370
    35
100
AcDbLine
 10
931.6107245225
 20
910.9850816169
 30
0.0
 11
931.6107245225
 21
913.893125855
 31
0.0
  0
ARC
  5
FD
330
1F
100
AcDbEntity
  8
0
  6
Continuous
 62
     7
370
    35
100
AcDbCircle
 10
767.6107245225
 20
913.8866925372
 30
0.0
 40
2.00000000000007
100
AcDbArc
 50
0.1603835477
 51
88.7916387136
  0
ARC
  5
FE
330
1F
100
AcDbEntity
  8
0
  6
Continuous
 62
     7
370
    35
100
AcDbCircle
 10
933.6107245225
 20
913.8866925372
 30
0.0
 40
1.999999999999986
100
AcDbArc
 50
91.1928878275
 51
179.8251412338
  0
LINE
  5
FF
330
1F
100
AcDbEntity
  8
0
  6
Continuous
 62
     7
370
    35
100
AcDbLine
 10
310.6107245225
 20
915.8862925372
 30
0.0
 11
767.6515453343
 21
915.8862925372
 31
0.0
  0
LINE
  5
100
330
1F
100
AcDbEntity
  8
0
  6
Continuous
 62
     7
370
    35
100
AcDbLine
 10
933.5699037104
 20
915.8862925372
 30
0.0
 11
1390.6107245225
 21
915.8862925372
 31
0.0
  0
LINE
  5
101
330
1F
100
AcDbEntity
  8
0
  6
Continuous
 62
     7
370
    35
100
AcDbLine
 10
769.8107245225
 20
914.0350816169
 30
0.0
 11
797.6107245225
 21
914.0350816169
 31
0.0
  0
LINE
  5
102
330
1F
100
AcDbEntity
  8
0
  6
Continuous
 62
     7
370
    35
100
AcDbLine
 10
931.4107245225
 20
914.0350816169
 30
0.0
 11
903.6107245225
 21
914.0350816169
 31
0.0
  0
LINE
  5
103
330
1F
100
AcDbEntity
  8
0
  6
Continuous
 62
     7
370
    35
100
AcDbLine
 10
942.1107245225
 20
865.5350816169
 30
0.0
 11
942.1107245225
 21
890.5850816169
 31
0.0
  0
LINE
  5
104
330
1F
100
AcDbEntity
  8
0
  6
Continuous
 62
     7
370
    35
100
AcDbLine
 10
942.1107245225
 20
840.4850816169
 30
0.0
 11
942.1107245225
 21
865.5350816169
 31
0.0
  0
LINE
  5
105
330
1F
100
AcDbEntity
  8
0
  6
Continuous
 62
     7
370
    35
100
AcDbLine
 10
990.6107245225
 20
865.5350816169
 30
0.0
 11
990.6107245225
 21
889.5350816169
 31
0.0
  0
LINE
  5
106
330
1F
100
AcDbEntity
  8
0
  6
Continuous
 62
     7
370
    35
100
AcDbLine
 10
990.6107245225
 20
841.5350816169
 30
0.0
 11
990.6107245225
 21
865.5350816169
 31
0.0
  0
ARC
  5
107
330
1F
100
AcDbEntity
  8
0
  6
Continuous
 62
     7
370
    35
100
AcDbCircle
 10
850.6107245225
 20
865.5850816169
 30
0.0
 40
25.0500000000002
100
AcDbArc
 50
237.7865374201
 51
302.2134625799
  0
SPLINE
  5
108
330
1F
100
AcDbEntity
  8
0
  6
Continuous
 62
     7
370
    35
100
AcDbSpline
210
0.0
220
0.0
230
1.0
 70
    24
 71
     3
 72
    10
 73
     6
 74
     0
 42
0.000000001
 43
0.00000001
 40
0.0
 40
0.0
 40
0.0
 40
0.0
 40
0.2125176675661969
 40
0.6062581077227517
 40
1.0
 40
1.0
 40
1.0
 40
1.0
 10
850.6107245224566
 20
890.8970881438581
 30
0.0
 10
850.6107245224556
 20
890.9803716525716
 30
0.0
 10
850.6107245224531
 20
891.2179580282144
 30
0.0
 10
850.6107245224567
 20
891.8294225926247
 30
0.0
 10
850.6107245224555
 20
892.4543224309726
 30
0.0
 10
850.6107245224549
 20
892.7667729263055
 30
0.0
  0
SPLINE
  5
109
330
1F
100
AcDbEntity
  8
0
  6
Continuous
 62
     7
370
    35
100
AcDbSpline
210
0.0
220
0.0
230
1.0
 70
     8
 71
     3
 72
    25
 73
    21
 74
     0
 42
0.000000001
 43
0.00000001
 40
0.0
 40
0.0
 40
0.0
 40
0.0
 40
0.040377285082533
 40
0.058143290517114
 40
0.0718747463632705
 40
0.0830985540815629
 40
0.0953185813390226
 40
0.1147179721021839
 40
0.1492959713349582
 40
0.2292797835274567
 40
0.3102091618275152
 40
0.3726852819819025
 40
0.4313870265629184
 40
0.4804590282852373
 40
0.5235520429457743
 40
0.5708166295125249
 40
0.6751808706738797
 40
0.7818081507417539
 40
0.8902538127997788
 40
1.0
 40
1.0
 40
1.0
 40
1.0
 10
769.1107245224543
 20
910.9850816168903
 30
0.0
 10
769.1173955279843
 20
910.1060289413173
 30
0.0
 10
769.1270017759471
 20
908.8401930885296
 30
0.0
 10
769.0875770579704
 20
907.3231355548304
 30
0.0
 10
769.1722615558747
 20
906.320834295323
 30
0.0
 10
768.4928104465422
 20
905.7738323272627
 30
0.0
 10
767.6850532203413
 20
905.3544443360511
 30
0.0
 10
766.6126683731518
 20
904.3554583259779
 30
0.0
 10
765.2853794539527
 20
901.7277804205827
 30
0.0
 10
764.6111609901915
 20
897.5241291362184
 30
0.0
 10
763.5121598148864
 20
892.8285927110572
 30
0.0
 10
762.7736350672844
 20
888.5193181350878
 30
0.0
 10
762.2118549727803
 20
884.8824538391314
 30
0.0
 10
761.8293138304672
 20
881.6422515701968
 30
0.0
 10
761.6371804282471
 20
878.6330136554316
 30
0.0
 10
761.5665967110734
 20
874.4230916493738
 30
0.0
 10
761.9227351354198
 20
868.8378598916461
 30
0.0
 10
763.1474584178583
 20
862.0308435039278
 30
0.0
 10
765.1230863869556
 20
855.2679109591974
 30
0.0
 10
767.0977491637154
 20
850.9785512756031
 30
0.0
 10
768.0909655074621
 20
848.8210881421033
 30
0.0
  0
SPLINE
  5
10A
330
1F
100
AcDbEntity
  8
0
  6
Continuous
 62
     7
370
    35
100
AcDbSpline
210
0.0
220
0.0
230
1.0
 70
    24
 71
     3
 72
    19
 73
    15
 74
     0
 42
0.000000001
 43
0.00000001
 40
0.0
 40
0.0
 40
0.0
 40
0.0
 40
0.2409130132110061
 40
0.4882582803106293
 40
0.5391715029117238
 40
0.5899404478678737
 40
0.6400693120936283
 40
0.6899887491764622
 40
0.7400419496428617
 40
0.7904190820051389
 40
0.8413201884464392
 40
0.892967678485189
 40
0.9456873805534205
 40
0.9999999999999999
 40
0.9999999999999999
 40
0.9999999999999999
 40
0.9999999999999999
 10
850.6107245224549
 20
910.9850816168899
 30
0.0
 10
842.7646814241733
 20
910.98508161689
 30
0.0
 10
826.8631099011159
 20
910.98508161689
 30
0.0
 10
809.2976853158151
 20
910.9850816168897
 30
0.0
 10
797.9357985128124
 20
910.98508161689
 30
0.0
 10
792.9800259185679
 20
910.9850816168895
 30
0.0
 10
788.1956651551577
 20
910.9850816168897
 30
0.0
 10
783.7120872110272
 20
910.9850816168903
 30
0.0
 10
779.6338369204497
 20
910.9850816168905
 30
0.0
 10
776.0605849789546
 20
910.9850816168905
 30
0.0
 10
773.0941792341348
 20
910.9850816168902
 30
0.0
 10
770.8641530147701
 20
910.9850816168902
 30
0.0
 10
769.3908429177477
 20
910.9850816168902
 30
0.0
 10
769.2050191666674
 20
910.9850816168903
 30
0.0
 10
769.1107245224543
 20
910.9850816168903
 30
0.0
  0
SPLINE
  5
10B
330
1F
100
AcDbEntity
  8
0
  6
Continuous
 62
     7
370
    35
100
AcDbSpline
210
0.0
220
0.0
230
1.0
 70
    24
 71
     3
 72
    18
 73
    14
 74
     0
 42
0.000000001
 43
0.00000001
 40
0.0
 40
0.0
 40
0.0
 40
0.0
 40
0.1056000872447466
 40
0.3249463313005452
 40
0.5456095245813443
 40
0.6686132746948409
 40
0.7011918426142495
 40
0.7339487647370307
 40
0.7672437697818044
 40
0.8035947759165848
 40
0.8401179485066306
 40
0.8975115054529705
 40
1.0
 40
1.0
 40
1.0
 40
1.0
 10
850.6107245224549
 20
892.7667729263052
 30
0.0
 10
850.6107245224549
 20
893.4429815354353
 30
0.0
 10
850.6107245224549
 20
895.5237705997604
 30
0.0
 10
850.6107245224549
 20
898.9557606432871
 30
0.0
 10
850.6107245224549
 20
902.6019250792485
 30
0.0
 10
850.6107245224549
 20
904.7460868256721
 30
0.0
 10
850.6107245224549
 20
905.5281955554563
 30
0.0
 10
850.6107245224549
 20
905.809814556729
 30
0.0
 10
850.6107245224549
 20
906.294024159434
 30
0.0
 10
850.6107245224549
 20
907.0541740864869
 30
0.0
 10
850.6107245224549
 20
907.9104829431135
 30
0.0
 10
850.6107245224549
 20
909.2320763269133
 30
0.0
 10
850.6107245224549
 20
910.3003139254927
 30
0.0
 10
850.6107245224549
 20
910.9850816168899
 30
0.0
  0
SPLINE
  5
10C
330
1F
100
AcDbEntity
  8
0
  6
Continuous
 62
     7
370
    35
100
AcDbSpline
210
0.0
220
0.0
230
1.0
 70
    24
 71
     3
 72
    19
 73
    15
 74
     0
 42
0.000000001
 43
0.00000001
 40
0.0
 40
0.0
 40
0.0
 40
0.0
 40
0.2409130132110046
 40
0.4882582803106248
 40
0.5391715029117193
 40
0.589940447867869
 40
0.6400693120936232
 40
0.6899887491764569
 40
0.7400419496428566
 40
0.790419082005135
 40
0.8413201884464377
 40
0.8929676784851889
 40
0.9456873805534205
 40
1.0
 40
1.0
 40
1.0
 40
1.0
 10
850.6107245224549
 20
910.9850816168899
 30
0.0
 10
858.4567676207366
 20
910.9850816168899
 30
0.0
 10
874.3583391437938
 20
910.98508161689
 30
0.0
 10
891.9237637290944
 20
910.9850816168893
 30
0.0
 10
903.2856505320972
 20
910.9850816168896
 30
0.0
 10
908.2414231263416
 20
910.9850816168887
 30
0.0
 10
913.0257838897517
 20
910.9850816168889
 30
0.0
 10
917.5093618338823
 20
910.9850816168895
 30
0.0
 10
921.5876121244598
 20
910.9850816168895
 30
0.0
 10
925.160864065955
 20
910.9850816168895
 30
0.0
 10
928.1272698107753
 20
910.9850816168895
 30
0.0
 10
930.3572960301402
 20
910.9850816168894
 30
0.0
 10
931.8306061271625
 20
910.9850816168895
 30
0.0
 10
932.0164298782428
 20
910.9850816168895
 30
0.0
 10
932.110724522456
 20
910.9850816168895
 30
0.0
  0
SPLINE
  5
10D
330
1F
100
AcDbEntity
  8
0
  6
Continuous
 62
     7
370
    35
100
AcDbSpline
210
0.0
220
0.0
230
1.0
 70
     8
 71
     3
 72
    16
 73
    12
 74
     0
 42
0.000000001
 43
0.00000001
 40
0.0
 40
0.0
 40
0.0
 40
0.0
 40
0.1465768179208915
 40
0.2110706177997911
 40
0.2609182759381899
 40
0.3016627196753183
 40
0.3460236197864517
 40
0.4164469026261938
 40
0.5419712682998735
 40
0.7688489389603034
 40
0.9999999999999999
 40
0.9999999999999999
 40
0.9999999999999999
 40
0.9999999999999999
 10
932.110724522456
 20
910.9850816168895
 30
0.0
 10
932.1040546769268
 20
910.1060292882826
 30
0.0
 10
932.094450099365
 20
908.8401939351263
 30
0.0
 10
932.1338679618982
 20
907.323134350905
 30
0.0
 10
932.0491981895219
 20
906.3208374959294
 30
0.0
 10
932.728605211324
 20
905.7738223409107
 30
0.0
 10
933.5365684084575
 20
905.3544959573707
 30
0.0
 10
934.6073362135268
 20
904.3550262761382
 30
0.0
 10
935.7764634709769
 20
902.0748575375927
 30
0.0
 10
936.3792764716407
 20
898.631632730794
 30
0.0
 10
936.9924975278178
 20
895.9766343215822
 30
0.0
 10
937.3019687202931
 20
894.6367496006607
 30
0.0
  0
SPLINE
  5
10E
330
1F
100
AcDbEntity
  8
0
  6
Continuous
 62
     7
370
    35
100
AcDbSpline
210
0.0
220
0.0
230
1.0
 70
     8
 71
     3
 72
    14
 73
    10
 74
     0
 42
0.000000001
 43
0.00000001
 40
0.0
 40
0.0
 40
0.0
 40
0.0
 40
0.1497838616746357
 40
0.3039198677007078
 40
0.4537011775423317
 40
0.6078081864720632
 40
0.757933700022959
 40
0.9123691506710973
 40
1.0
 40
1.0
 40
1.0
 40
1.0
 10
768.0909655074621
 20
848.8210881421033
 30
0.0
 10
768.4998122205737
 20
848.0959736292623
 30
0.0
 10
769.3293851636768
 20
846.6246755578508
 30
0.0
 10
771.0129204086126
 20
844.7302367611007
 30
0.0
 10
772.9830275807402
 20
843.1137576321562
 30
0.0
 10
775.1843416226283
 20
841.863685975461
 30
0.0
 10
777.5849013868741
 20
840.9957883651781
 30
0.0
 10
779.7354135670265
 20
840.5876669513676
 30
0.0
 10
781.0779339407543
 20
840.5490583756588
 30
0.0
 10
781.5639421153837
 20
840.5350816168902
 30
0.0
  0
SPLINE
  5
10F
330
1F
100
AcDbEntity
  8
0
  6
Continuous
 62
     7
370
    35
100
AcDbSpline
210
0.0
220
0.0
230
1.0
 70
    24
 71
     3
 72
    19
 73
    15
 74
     0
 42
0.000000001
 43
0.00000001
 40
0.0
 40
0.0
 40
0.0
 40
0.0
 40
0.0339082014123465
 40
0.0838890956615412
 40
0.1338856406936267
 40
0.1787639190833888
 40
0.223636852198806
 40
0.264613824863825
 40
0.305564408692422
 40
0.3465596390526774
 40
0.3876059998972928
 40
0.5510999779005322
 40
0.714601507120344
 40
1.0
 40
1.0
 40
1.0
 40
1.0
 10
781.5639421153837
 20
840.5350816168902
 30
0.0
 10
781.7043719688133
 20
840.5350816168902
 30
0.0
 10
782.0517962767218
 20
840.5350816168902
 30
0.0
 10
783.2496724435191
 20
840.5350816168902
 30
0.0
 10
785.0998672639884
 20
840.5350816168902
 30
0.0
 10
787.3922196844678
 20
840.5350816168902
 30
0.0
 10
789.9151112157176
 20
840.5350816168902
 30
0.0
 10
792.6807289190664
 20
840.5350816168902
 30
0.0
 10
795.609519926373
 20
840.5350816168902
 30
0.0
 10
798.755962507125
 20
840.5350816168902
 30
0.0
 10
805.2468190581136
 20
840.5350816168902
 30
0.0
 10
814.9844281721271
 20
840.5350816168901
 30
0.0
 10
831.1872343895493
 20
840.5350816168897
 30
0.0
 10
843.0614312891008
 20
840.5350816168898
 30
0.0
 10
850.6107245224554
 20
840.5350816168898
 30
0.0
  0
SPLINE
  5
110
330
1F
100
AcDbEntity
  8
0
  6
Continuous
 62
     7
370
    35
100
AcDbSpline
210
0.0
220
0.0
230
1.0
 70
    24
 71
     3
 72
    19
 73
    15
 74
     0
 42
0.000000001
 43
0.00000001
 40
0.0
 40
0.0
 40
0.0
 40
0.0
 40
0.0339064855174939
 40
0.0831372973791094
 40
0.1338840147717986
 40
0.1782456415880441
 40
0.2236320967859883
 40
0.2641259724126847
 40
0.3055570601923709
 40
0.3459382551888651
 40
0.3876378429813768
 40
0.5510878192859416
 40
0.7146159494612719
 40
1.0
 40
1.0
 40
1.0
 40
1.0
 10
919.6575069295275
 20
840.5350816168894
 30
0.0
 10
919.5169209967272
 20
840.5350816168894
 30
0.0
 10
919.1722101154857
 20
840.5350816168894
 30
0.0
 10
917.9839389113779
 20
840.5350816168894
 30
0.0
 10
916.1392246328343
 20
840.5350816168894
 30
0.0
 10
913.8399518485505
 20
840.5350816168894
 30
0.0
 10
911.3260906377267
 20
840.5350816168894
 30
0.0
 10
908.5533832087594
 20
840.5350816168894
 30
0.0
 10
905.6363426591527
 20
840.5350816168894
 30
0.0
 10
902.4889334419601
 20
840.5350816168894
 30
0.0
 10
895.9868857614141
 20
840.5350816168894
 30
0.0
 10
886.2402002294708
 20
840.5350816168901
 30
0.0
 10
870.0340526793693
 20
840.5350816168897
 30
0.0
 10
858.1595962562866
 20
840.5350816168898
 30
0.0
 10
850.6107245224554
 20
840.5350816168898
 30
0.0
  0
SPLINE
  5
111
330
1F
100
AcDbEntity
  8
0
  6
Continuous
 62
     7
370
    35
100
AcDbSpline
210
0.0
220
0.0
230
1.0
 70
     8
 71
     3
 72
    10
 73
     6
 74
     0
 42
0.000000001
 43
0.00000001
 40
0.0
 40
0.0
 40
0.0
 40
0.0
 40
0.0149525925089902
 40
0.5037698573839634
 40
1.0
 40
1.0
 40
1.0
 40
1.0
 10
923.6107245224565
 20
840.5350816168894
 30
0.0
 10
923.6116651008125
 20
840.5351222800292
 30
0.0
 10
923.6433542559888
 20
840.5364922674798
 30
0.0
 10
923.7063543107091
 20
840.6540946045592
 30
0.0
 10
923.7680082279111
 20
841.0874205509119
 30
0.0
 10
923.7990671717683
 20
841.3057140000624
 30
0.0
  0
LINE
  5
112
330
1F
100
AcDbEntity
  8
0
  6
Continuous
 62
     7
370
    35
100
AcDbLine
 10
937.3019687203
 20
894.6367496007
 30
0.0
 11
937.5240273083
 21
893.2162821114
 31
0.0
  0
SPLINE
  5
113
330
1F
100
AcDbEntity
  8
0
  6
Continuous
 62
     7
370
    35
100
AcDbSpline
210
0.0
220
0.0
230
1.0
 70
     8
 71
     3
 72
    13
 73
     9
 74
     0
 42
0.000000001
 43
0.00000001
 40
0.0
 40
0.0
 40
0.0
 40
0.0
 40
0.0095081972613442
 40
0.0791116948017535
 40
0.3094644223199435
 40
0.5396843471459984
 40
0.7698410895023555
 40
1.0
 40
1.0
 40
1.0
 40
1.0
 10
940.5085589489828
 20
890.5350816168897
 30
0.0
 10
940.4946927191687
 20
890.5351437808215
 30
0.0
 10
940.3793205922605
 20
890.5356610075747
 30
0.0
 10
939.9285422521266
 20
890.5651961522748
 30
0.0
 10
939.169068186091
 20
890.7853078393362
 30
0.0
 10
938.3400760529614
 20
891.3833485983876
 30
0.0
 10
937.7304199956609
 20
892.2209295234876
 30
0.0
 10
937.5928250867847
 20
892.8844968736222
 30
0.0
 10
937.5240273083026
 20
893.2162821114299
 30
0.0
  0
ARC
  5
114
330
1F
100
AcDbEntity
  8
0
  6
Continuous
 62
     7
370
    35
100
AcDbCircle
 10
1391.6107245225
 20
932.9846816169
 30
0.0
 40
1.000000000000227
100
AcDbArc
 50
90.0
 51
180.0
  0
ARC
  5
115
330
1F
100
AcDbEntity
  8
0
  6
Continuous
 62
     7
370
    35
100
AcDbCircle
 10
1391.6107245225
 20
932.9846816169
 30
0.0
 40
1.0
100
AcDbArc
 50
0.0
 51
90.0
  0
LINE
  5
116
330
1F
100
AcDbEntity
  8
0
  6
Continuous
 62
     7
370
    35
100
AcDbLine
 10
1390.6107245225
 20
932.9846816169
 30
0.0
 11
1390.6107245225
 21
922.9846816169
 31
0.0
  0
LINE
  5
117
330
1F
100
AcDbEntity
  8
0
  6
Continuous
 62
     7
370
    35
100
AcDbLine
 10
1392.6107245225
 20
932.9846816169
 30
0.0
 11
1392.6107245225
 21
921.9846816169
 31
0.0
  0
LINE
  5
118
330
1F
100
AcDbEntity
  8
0
  6
Continuous
 62
     7
370
    35
100
AcDbLine
 10
1390.6107245225
 20
918.8866658985
 30
0.0
 11
1390.6107245225
 21
915.2588221385
 31
0.0
  0
LINE
  5
119
330
1F
100
AcDbEntity
  8
0
  6
Continuous
 62
     7
370
    35
100
AcDbLine
 10
1392.6107245225
 20
920.9846816169
 30
0.0
 11
1392.6107245225
 21
915.2588221385
 31
0.0
  0
LINE
  5
11A
330
1F
100
AcDbEntity
  8
0
  6
Continuous
 62
     7
370
    35
100
AcDbLine
 10
1390.6107245225
 20
913.4462065644
 30
0.0
 11
1390.6107245225
 21
915.2588221385
 31
0.0
  0
LINE
  5
11B
330
1F
100
AcDbEntity
  8
0
  6
Continuous
 62
     7
370
    35
100
AcDbLine
 10
1392.6107245225
 20
915.2588221385
 30
0.0
 11
1392.6107245225
 21
913.4462065644
 31
0.0
  0
LINE
  5
11C
330
1F
100
AcDbEntity
  8
0
  6
Continuous
 62
     7
370
    35
100
AcDbLine
 10
1390.6107245225
 20
913.4462065644
 30
0.0
 11
1390.6107245225
 21
906.1879072798
 31
0.0
  0
LINE
  5
11D
330
1F
100
AcDbEntity
  8
0
  6
Continuous
 62
     7
370
    35
100
AcDbLine
 10
1392.6107245225
 20
913.4462065644
 30
0.0
 11
1392.6107245225
 21
906.1879072798
 31
0.0
  0
LINE
  5
11E
330
1F
100
AcDbEntity
  8
0
  6
Continuous
 62
     7
370
    35
100
AcDbLine
 10
1390.6107245225
 20
904.3752917058
 30
0.0
 11
1390.6107245225
 21
906.1879072798
 31
0.0
  0
LINE
  5
11F
330
1F
100
AcDbEntity
  8
0
  6
Continuous
 62
     7
370
    35
100
AcDbLine
 10
1392.6107245225
 20
906.1879072798
 30
0.0
 11
1392.6107245225
 21
904.3752917058
 31
0.0
  0
LINE
  5
120
330
1F
100
AcDbEntity
  8
0
  6
Continuous
 62
     7
370
    35
100
AcDbLine
 10
1390.6107245225
 20
904.3752917058
 30
0.0
 11
1390.6107245225
 21
870.0846816169
 31
0.0
  0
LINE
  5
121
330
1F
100
AcDbEntity
  8
0
  6
Continuous
 62
     7
370
    35
100
AcDbLine
 10
1392.6107245225
 20
904.3752917058
 30
0.0
 11
1392.6107245225
 21
870.0846816169
 31
0.0
  0
LINE
  5
122
330
1F
100
AcDbEntity
  8
0
  6
Continuous
 62
     7
370
    35
100
AcDbLine
 10
1392.6107245225
 20
868.0846816169
 30
0.0
 11
1390.6107245225
 21
868.0846816169
 31
0.0
  0
LINE
  5
123
330
1F
100
AcDbEntity
  8
0
  6
Continuous
 62
     7
370
    35
100
AcDbLine
 10
1390.6107245225
 20
868.0846816169
 30
0.0
 11
1390.6107245225
 21
870.0846816169
 31
0.0
  0
LINE
  5
124
330
1F
100
AcDbEntity
  8
0
  6
Continuous
 62
     7
370
    35
100
AcDbLine
 10
1392.6107245225
 20
870.0846816169
 30
0.0
 11
1392.6107245225
 21
868.0846816169
 31
0.0
  0
LINE
  5
125
330
1F
100
AcDbEntity
  8
0
  6
Continuous
 62
     7
370
    35
100
AcDbLine
 10
308.6107245225
 20
932.9846816169
 30
0.0
 11
308.6107245225
 21
921.9846816169
 31
0.0
  0
ARC
  5
126
330
1F
100
AcDbEntity
  8
0
  6
Continuous
 62
     7
370
    35
100
AcDbCircle
 10
309.6107245225
 20
932.9846816169
 30
0.0
 40
1.0
100
AcDbArc
 50
90.0
 51
180.0
  0
ARC
  5
127
330
1F
100
AcDbEntity
  8
0
  6
Continuous
 62
     7
370
    35
100
AcDbCircle
 10
309.6107245225
 20
932.9846816169
 30
0.0
 40
1.000000000000057
100
AcDbArc
 50
0.0
 51
90.0
  0
LINE
  5
128
330
1F
100
AcDbEntity
  8
0
  6
Continuous
 62
     7
370
    35
100
AcDbLine
 10
310.6107245225
 20
932.9846816169
 30
0.0
 11
310.6107245225
 21
922.9846816169
 31
0.0
  0
LINE
  5
129
330
1F
100
AcDbEntity
  8
0
  6
Continuous
 62
     7
370
    35
100
AcDbLine
 10
308.6107245225
 20
920.9846816169
 30
0.0
 11
308.6107245225
 21
915.2588221385
 31
0.0
  0
LINE
  5
12A
330
1F
100
AcDbEntity
  8
0
  6
Continuous
 62
     7
370
    35
100
AcDbLine
 10
310.6107245225
 20
918.8866658985
 30
0.0
 11
310.6107245225
 21
915.2588221385
 31
0.0
  0
LINE
  5
12B
330
1F
100
AcDbEntity
  8
0
  6
Continuous
 62
     7
370
    35
100
AcDbLine
 10
308.6107245225
 20
913.4462065644
 30
0.0
 11
308.6107245225
 21
915.2588221385
 31
0.0
  0
LINE
  5
12C
330
1F
100
AcDbEntity
  8
0
  6
Continuous
 62
     7
370
    35
100
AcDbLine
 10
310.6107245225
 20
915.2588221385
 30
0.0
 11
310.6107245225
 21
913.4462065644
 31
0.0
  0
LINE
  5
12D
330
1F
100
AcDbEntity
  8
0
  6
Continuous
 62
     7
370
    35
100
AcDbLine
 10
308.6107245225
 20
913.4462065644
 30
0.0
 11
308.6107245225
 21
906.1879072798
 31
0.0
  0
LINE
  5
12E
330
1F
100
AcDbEntity
  8
0
  6
Continuous
 62
     7
370
    35
100
AcDbLine
 10
310.6107245225
 20
913.4462065644
 30
0.0
 11
310.6107245225
 21
906.1879072798
 31
0.0
  0
LINE
  5
12F
330
1F
100
AcDbEntity
  8
0
  6
Continuous
 62
     7
370
    35
100
AcDbLine
 10
308.6107245225
 20
904.3752917058
 30
0.0
 11
308.6107245225
 21
906.1879072798
 31
0.0
  0
LINE
  5
130
330
1F
100
AcDbEntity
  8
0
  6
Continuous
 62
     7
370
    35
100
AcDbLine
 10
310.6107245225
 20
906.1879072798
 30
0.0
 11
310.6107245225
 21
904.3752917058
 31
0.0
  0
LINE
  5
131
330
1F
100
AcDbEntity
  8
0
  6
Continuous
 62
     7
370
    35
100
AcDbLine
 10
308.6107245225
 20
904.3752917058
 30
0.0
 11
308.6107245225
 21
870.0846816169
 31
0.0
  0
LINE
  5
132
330
1F
100
AcDbEntity
  8
0
  6
Continuous
 62
     7
370
    35
100
AcDbLine
 10
310.6107245225
 20
904.3752917058
 30
0.0
 11
310.6107245225
 21
870.0846816169
 31
0.0
  0
LINE
  5
133
330
1F
100
AcDbEntity
  8
0
  6
Continuous
 62
     7
370
    35
100
AcDbLine
 10
310.6107245225
 20
868.0846816169
 30
0.0
 11
308.6107245225
 21
868.0846816169
 31
0.0
  0
LINE
  5
134
330
1F
100
AcDbEntity
  8
0
  6
Continuous
 62
     7
370
    35
100
AcDbLine
 10
308.6107245225
 20
868.0846816169
 30
0.0
 11
308.6107245225
 21
870.0846816169
 31
0.0
  0
LINE
  5
135
330
1F
100
AcDbEntity
  8
0
  6
Continuous
 62
     7
370
    35
100
AcDbLine
 10
310.6107245225
 20
870.0846816169
 30
0.0
 11
310.6107245225
 21
868.0846816169
 31
0.0
  0
LINE
  5
136
330
1F
100
AcDbEntity
  8
0
  6
Continuous
 62
     7
370
    35
100
AcDbLine
 10
288.1107245225
 20
920.9846816169
 30
0.0
 11
278.1107245225
 21
920.9846816169
 31
0.0
  0
LINE
  5
137
330
1F
100
AcDbEntity
  8
0
  6
Continuous
 62
     7
370
    35
100
AcDbLine
 10
278.1107245225
 20
920.9846816169
 30
0.0
 11
278.1107245225
 21
921.9846816169
 31
0.0
  0
LINE
  5
138
330
1F
100
AcDbEntity
  8
0
  6
Continuous
 62
     7
370
    35
100
AcDbLine
 10
278.1107245225
 20
921.9846816169
 30
0.0
 11
288.1107245225
 21
921.9846816169
 31
0.0
  0
LINE
  5
139
330
1F
100
AcDbEntity
  8
0
  6
Continuous
 62
     7
370
    35
100
AcDbLine
 10
310.6107245225
 20
920.9846816169
 30
0.0
 11
288.1107245225
 21
920.9846816169
 31
0.0
  0
LINE
  5
13A
330
1F
100
AcDbEntity
  8
0
  6
Continuous
 62
     7
370
    35
100
AcDbLine
 10
310.6107245225
 20
921.9846816169
 30
0.0
 11
288.1107245225
 21
921.9846816169
 31
0.0
  0
LINE
  5
13B
330
1F
100
AcDbEntity
  8
0
  6
Continuous
 62
     7
370
    35
100
AcDbLine
 10
278.1107245225
 20
922.9846816169
 30
0.0
 11
278.1107245225
 21
921.9846816169
 31
0.0
  0
LINE
  5
13C
330
1F
100
AcDbEntity
  8
0
  6
Continuous
 62
     7
370
    35
100
AcDbLine
 10
278.1107245225
 20
954.4846816169
 30
0.0
 11
278.1107245225
 21
922.9846816169
 31
0.0
  0
ARC
  5
13D
330
1F
100
AcDbEntity
  8
0
  6
Continuous
 62
     7
370
    35
100
AcDbCircle
 10
288.1107245225
 20
954.4846816169
 30
0.0
 40
10.0
100
AcDbArc
 50
90.0
 51
180.0
  0
LINE
  5
13E
330
1F
100
AcDbEntity
  8
0
  6
Continuous
 62
     7
370
    35
100
AcDbLine
 10
310.6107245225
 20
964.4846816169
 30
0.0
 11
288.1107245225
 21
964.4846816169
 31
0.0
  0
LINE
  5
13F
330
1F
100
AcDbEntity
  8
0
  6
Continuous
 62
     7
370
    35
100
AcDbLine
 10
1413.1107245225
 20
921.9846816169
 30
0.0
 11
1423.1107245225
 21
921.9846816169
 31
0.0
  0
LINE
  5
140
330
1F
100
AcDbEntity
  8
0
  6
Continuous
 62
     7
370
    35
100
AcDbLine
 10
1423.1107245225
 20
921.9846816169
 30
0.0
 11
1423.1107245225
 21
920.9846816169
 31
0.0
  0
LINE
  5
141
330
1F
100
AcDbEntity
  8
0
  6
Continuous
 62
     7
370
    35
100
AcDbLine
 10
1423.1107245225
 20
920.9846816169
 30
0.0
 11
1413.1107245225
 21
920.9846816169
 31
0.0
  0
LINE
  5
142
330
1F
100
AcDbEntity
  8
0
  6
Continuous
 62
     7
370
    35
100
AcDbLine
 10
1390.6107245225
 20
921.9846816169
 30
0.0
 11
1413.1107245225
 21
921.9846816169
 31
0.0
  0
LINE
  5
143
330
1F
100
AcDbEntity
  8
0
  6
Continuous
 62
     7
370
    35
100
AcDbLine
 10
1390.6107245225
 20
920.9846816169
 30
0.0
 11
1413.1107245225
 21
920.9846816169
 31
0.0
  0
LINE
  5
144
330
1F
100
AcDbEntity
  8
0
  6
Continuous
 62
     7
370
    35
100
AcDbLine
 10
1423.1107245225
 20
921.9846816169
 30
0.0
 11
1423.1107245225
 21
922.9846816169
 31
0.0
  0
LINE
  5
145
330
1F
100
AcDbEntity
  8
0
  6
Continuous
 62
     7
370
    35
100
AcDbLine
 10
1390.6107245225
 20
964.4846816169
 30
0.0
 11
1413.1107245225
 21
964.4846816169
 31
0.0
  0
ARC
  5
146
330
1F
100
AcDbEntity
  8
0
  6
Continuous
 62
     7
370
    35
100
AcDbCircle
 10
1413.1107245225
 20
954.4846816169
 30
0.0
 40
10.0
100
AcDbArc
 50
0.0
 51
90.0
  0
LINE
  5
147
330
1F
100
AcDbEntity
  8
0
  6
Continuous
 62
     7
370
    35
100
AcDbLine
 10
1423.1107245225
 20
954.4846816169
 30
0.0
 11
1423.1107245225
 21
922.9846816169
 31
0.0
  0
LINE
  5
148
330
1F
100
AcDbEntity
  8
0
  6
Continuous
 62
     7
370
    35
100
AcDbLine
 10
1390.6107245225
 20
921.9846816169
 30
0.0
 11
310.6107245225
 21
921.9846816169
 31
0.0
  0
LINE
  5
149
330
1F
100
AcDbEntity
  8
0
  6
Continuous
 62
     7
370
    35
100
AcDbLine
 10
310.6107245225
 20
920.9846816169
 30
0.0
 11
310.6107245225
 21
921.9846816169
 31
0.0
  0
LINE
  5
14A
330
1F
100
AcDbEntity
  8
0
  6
Continuous
 62
     7
370
    35
100
AcDbLine
 10
1390.6107245225
 20
920.9846816169
 30
0.0
 11
310.6107245225
 21
920.9846816169
 31
0.0
  0
LINE
  5
14B
330
1F
100
AcDbEntity
  8
0
  6
Continuous
 62
     7
370
    35
100
AcDbLine
 10
1390.6107245225
 20
920.9846816169
 30
0.0
 11
1390.6107245225
 21
921.9846816169
 31
0.0
  0
LINE
  5
14C
330
1F
100
AcDbEntity
  8
0
  6
Continuous
 62
     7
370
    35
100
AcDbLine
 10
310.6107245225
 20
922.9846816169
 30
0.0
 11
310.6107245225
 21
921.9846816169
 31
0.0
  0
LINE
  5
14D
330
1F
100
AcDbEntity
  8
0
  6
Continuous
 62
     7
370
    35
100
AcDbLine
 10
1390.6107245225
 20
921.9846816169
 30
0.0
 11
1390.6107245225
 21
922.9846816169
 31
0.0
  0
LINE
  5
14E
330
1F
100
AcDbEntity
  8
0
  6
Continuous
 62
     7
370
    35
100
AcDbLine
 10
1390.6107245225
 20
933.9846816169
 30
0.0
 11
1390.6107245225
 21
932.9846816169
 31
0.0
  0
LINE
  5
14F
330
1F
100
AcDbEntity
  8
0
  6
Continuous
 62
     7
370
    35
100
AcDbLine
 10
310.6107245225
 20
932.9846816169
 30
0.0
 11
310.6107245225
 21
933.9846816169
 31
0.0
  0
LINE
  5
150
330
1F
100
AcDbEntity
  8
0
  6
Continuous
 62
     7
370
    35
100
AcDbLine
 10
1390.6107245225
 20
932.4846816169
 30
0.0
 11
1390.6107245225
 21
922.9846816169
 31
0.0
  0
LINE
  5
151
330
1F
100
AcDbEntity
  8
0
  6
Continuous
 62
     7
370
    35
100
AcDbLine
 10
310.6107245225
 20
922.9846816169
 30
0.0
 11
310.6107245225
 21
932.4846816169
 31
0.0
  0
LINE
  5
152
330
1F
100
AcDbEntity
  8
0
  6
Continuous
 62
     7
370
    35
100
AcDbLine
 10
310.6107245225
 20
918.8866658985
 30
0.0
 11
310.6107245225
 21
919.6466001062
 31
0.0
  0
LINE
  5
153
330
1F
100
AcDbEntity
  8
0
  6
Continuous
 62
     7
370
    35
100
AcDbLine
 10
1390.6107245225
 20
918.8866658985
 30
0.0
 11
1390.6107245225
 21
919.6466001062
 31
0.0
  0
LINE
  5
154
330
1F
100
AcDbEntity
  8
0
  6
Continuous
 62
     7
370
    35
100
AcDbLine
 10
1390.6107245225
 20
919.6466001062
 30
0.0
 11
1390.6107245225
 21
920.9846816169
 31
0.0
  0
LINE
  5
155
330
1F
100
AcDbEntity
  8
0
  6
Continuous
 62
     7
370
    35
100
AcDbLine
 10
310.6107245225
 20
919.6466001062
 30
0.0
 11
310.6107245225
 21
920.9846816169
 31
0.0
  0
SPLINE
  5
156
330
1F
100
AcDbEntity
  8
0
  6
Continuous
 62
     7
370
    35
100
AcDbSpline
210
0.0
220
0.0
230
1.0
 70
     8
 71
     3
 72
    14
 73
    10
 74
     0
 42
0.000000001
 43
0.00000001
 40
0.0
 40
0.0
 40
0.0
 40
0.0
 40
0.25
 40
0.25
 40
0.5
 40
0.5
 40
0.75
 40
0.75
 40
1.0
 40
1.0
 40
1.0
 40
1.0
 10
933.5699006311411
 20
915.8895091961086
 30
0.0
 10
933.5446765355915
 20
916.0787565222579
 30
0.0
 10
932.9585000552081
 20
916.267676136266
 30
0.0
 10
930.7271087171616
 20
916.624413185393
 30
0.0
 10
929.082851134275
 20
916.7920685235907
 30
0.0
 10
924.9143225496141
 20
917.0877254115665
 30
0.0
 10
922.3918216722309
 20
917.2155945938612
 30
0.0
 10
916.7438593029441
 20
917.4174206584349
 30
0.0
 10
913.6208681473724
 20
917.491286577801
 30
0.0
 10
910.3689584038314
 20
917.534042626204
 30
0.0
  0
SPLINE
  5
157
330
1F
100
AcDbEntity
  8
0
  6
Continuous
 62
     7
370
    35
100
AcDbSpline
210
0.0
220
0.0
230
1.0
 70
     8
 71
     3
 72
    16
 73
    12
 74
     0
 42
0.000000001
 43
0.00000001
 40
0.0
 40
0.0
 40
0.0
 40
0.0
 40
0.0625000000000004
 40
0.0625000000000004
 40
0.1250000000000008
 40
0.1250000000000008
 40
0.2500000000000016
 40
0.2500000000000016
 40
0.5
 40
0.5
 40
1.0
 40
1.0
 40
1.0
 40
1.0
 10
910.3689584037752
 20
917.5340426261894
 30
0.0
 10
910.2304932348145
 20
917.5358631636375
 30
0.0
 10
910.0900733997549
 20
917.5365378820645
 30
0.0
 10
909.809236171098
 20
917.5378887500958
 30
0.0
 10
909.6685997114894
 20
917.5384364839044
 30
0.0
 10
909.2465605193398
 20
917.5400035891747
 30
0.0
 10
908.9650109054486
 20
917.5409095484476
 30
0.0
 10
908.1203434532249
 20
917.5434254842812
 30
0.0
 10
907.5570254944432
 20
917.5448015546108
 30
0.0
 10
905.8665230984943
 20
917.5481289609118
 30
0.0
 10
904.7386370309326
 20
917.5492539362532
 30
0.0
 10
903.6107245224555
 20
917.5492539362532
 30
0.0
  0
LINE
  5
158
330
1F
100
AcDbEntity
  8
0
  6
Continuous
 62
     7
370
    35
100
AcDbLine
 10
903.6107245225
 20
917.5492539363
 30
0.0
 11
797.6107245225
 21
917.5492539363
 31
0.0
  0
SPLINE
  5
159
330
1F
100
AcDbEntity
  8
0
  6
Continuous
 62
     7
370
    35
100
AcDbSpline
210
0.0
220
0.0
230
1.0
 70
     8
 71
     3
 72
    16
 73
    12
 74
     0
 42
0.000000001
 43
0.00000001
 40
0.0
 40
0.0
 40
0.0
 40
0.0
 40
0.5000000000000031
 40
0.5000000000000031
 40
0.7500000000000031
 40
0.7500000000000031
 40
0.8750000000000016
 40
0.8750000000000016
 40
0.9375000000000007
 40
0.9375000000000007
 40
1.0
 40
1.0
 40
1.0
 40
1.0
 10
797.6107245224555
 20
917.5492539362532
 30
0.0
 10
796.4827745007907
 20
917.5492539362532
 30
0.0
 10
795.3552327706383
 20
917.5481294584007
 30
0.0
 10
793.6645159956925
 20
917.5448017897721
 30
0.0
 10
793.1010288387845
 20
917.5434253126222
 30
0.0
 10
792.2562477367019
 20
917.5409089528214
 30
0.0
 10
791.974708402439
 20
917.5400029979992
 30
0.0
 10
791.5526348127233
 20
917.538435648488
 30
0.0
 10
791.4119558259011
 20
917.53788770206
 30
0.0
 10
791.1311173099314
 20
917.5365364506862
 30
0.0
 10
790.9907000348161
 20
917.535859800709
 30
0.0
 10
790.8524906411358
 20
917.5340426261894
 30
0.0
  0
SPLINE
  5
15A
330
1F
100
AcDbEntity
  8
0
  6
Continuous
 62
     7
370
    35
100
AcDbSpline
210
0.0
220
0.0
230
1.0
 70
     8
 71
     3
 72
    14
 73
    10
 74
     0
 42
0.000000001
 43
0.00000001
 40
0.0
 40
0.0
 40
0.0
 40
0.0
 40
0.25
 40
0.25
 40
0.5
 40
0.5
 40
0.75
 40
0.75
 40
1.0
 40
1.0
 40
1.0
 40
1.0
 10
790.8524906410487
 20
917.5340426262106
 30
0.0
 10
787.6005809064876
 20
917.4912865779257
 30
0.0
 10
784.477613444568
 20
917.4174216037302
 30
0.0
 10
778.8295814006455
 20
917.2155928527735
 30
0.0
 10
776.307117131404
 20
917.0877248808268
 30
0.0
 10
772.1385907863682
 20
916.792067884891
 30
0.0
 10
770.4943206082745
 20
916.6244102797027
 30
0.0
 10
768.2629599536369
 20
916.2676776422126
 30
0.0
 10
767.6767725094038
 20
916.0787565218502
 30
0.0
 10
767.651548413909
 20
915.8895091961081
 30
0.0
  0
LINE
  5
15B
330
1F
100
AcDbEntity
  8
0
  6
Continuous
 62
     7
370
    35
100
AcDbLine
 10
769.6107245225
 20
910.9850816169
 30
0.0
 11
797.6107245225
 21
910.9850816169
 31
0.0
  0
LINE
  5
15C
330
1F
100
AcDbEntity
  8
0
  6
Continuous
 62
     7
370
    35
100
AcDbLine
 10
903.6107245225
 20
910.9850816169
 30
0.0
 11
924.7648808718
 21
910.9850816169
 31
0.0
  0
LINE
  5
15D
330
1F
100
AcDbEntity
  8
0
  6
Continuous
 62
     7
370
    35
100
AcDbLine
 10
925.3999307893
 20
910.9850816169
 30
0.0
 11
931.6107245225
 21
910.9850816169
 31
0.0
  0
LINE
  5
15E
330
1F
100
AcDbEntity
  8
0
  6
Continuous
 62
     7
370
    35
100
AcDbLine
 10
797.6107245225
 20
910.9850816169
 30
0.0
 11
903.6107245225
 21
910.9850816169
 31
0.0
  0
LINE
  5
15F
330
1F
100
AcDbEntity
  8
0
  6
Continuous
 62
     7
370
    35
100
AcDbLine
 10
1390.6107245225
 20
933.9846816169
 30
0.0
 11
310.6107245225
 21
933.9846816169
 31
0.0
  0
LINE
  5
160
330
1F
100
AcDbEntity
  8
0
  6
Continuous
 62
     7
370
    35
100
AcDbLine
 10
1390.6107245225
 20
933.9846816169
 30
0.0
 11
1390.6107245225
 21
934.9846816169
 31
0.0
  0
LINE
  5
161
330
1F
100
AcDbEntity
  8
0
  6
Continuous
 62
     7
370
    35
100
AcDbLine
 10
310.6107245225
 20
934.9846816169
 30
0.0
 11
310.6107245225
 21
933.9846816169
 31
0.0
  0
LINE
  5
162
330
1F
100
AcDbEntity
  8
0
  6
Continuous
 62
     7
370
    35
100
AcDbLine
 10
310.6107245225
 20
964.4846816169
 30
0.0
 11
1390.6107245225
 21
964.4846816169
 31
0.0
  0
LINE
  5
163
330
1F
100
AcDbEntity
  8
0
  6
Continuous
 62
     7
370
    35
100
AcDbLine
 10
310.6107245225
 20
934.9846816169
 30
0.0
 11
310.6107245225
 21
964.4846816169
 31
0.0
  0
LINE
  5
164
330
1F
100
AcDbEntity
  8
0
  6
Continuous
 62
     7
370
    35
100
AcDbLine
 10
1390.6107245225
 20
964.4846816169
 30
0.0
 11
1390.6107245225
 21
934.9846816169
 31
0.0
  0
LINE
  5
165
330
1F
100
AcDbEntity
  8
0
  6
Continuous
 62
     8
370
    18
100
AcDbLine
 10
769.6706969412
 20
913.6922800886
 30
0.0
 11
797.6107245225
 21
913.6922800886
 31
0.0
  0
LINE
  5
166
330
1F
100
AcDbEntity
  8
0
  6
Continuous
 62
     8
370
    18
100
AcDbLine
 10
931.5507521037
 20
913.6922800886
 30
0.0
 11
903.6107245225
 21
913.6922800886
 31
0.0
  0
LINE
  5
167
330
1F
100
AcDbEntity
  8
0
  6
Continuous
 62
     8
370
    18
100
AcDbLine
 10
985.2991228681
 20
840.4850816169
 30
0.0
 11
985.2991228681
 21
890.5850816169
 31
0.0
  0
LINE
  5
168
330
1F
100
AcDbEntity
  8
0
  6
Continuous
 62
     8
370
    18
100
AcDbLine
 10
985.915674571
 20
890.5210421067
 30
0.0
 11
985.915674571
 21
840.5491211271
 31
0.0
  0
SPLINE
  5
169
330
1F
100
AcDbEntity
  8
0
  6
Continuous
 62
     8
370
    18
100
AcDbSpline
210
0.0
220
0.0
230
1.0
 70
     8
 71
     3
 72
    33
 73
    29
 74
     0
 42
0.000000001
 43
0.00000001
 40
0.0
 40
0.0
 40
0.0
 40
0.0
 40
0.0272519121761633
 40
0.0643955705395719
 40
0.1017679836315396
 40
0.1399161503387527
 40
0.1783602451249459
 40
0.2309313350457349
 40
0.2840751350454466
 40
0.3463079719325302
 40
0.3778605917353976
 40
0.4098349893637276
 40
0.46644932903881
 40
0.523770887493764
 40
0.5552660258970205
 40
0.5869395080180236
 40
0.6191572696364607
 40
0.6515559584292152
 40
0.6730472716079227
 40
0.7163558120329114
 40
0.7603800963832655
 40
0.8051322093176811
 40
0.8276949767825305
 40
0.8487242154456172
 40
0.891091575844497
 40
0.9341506962041376
 40
0.9779263650739449
 40
0.9999999999999999
 40
0.9999999999999999
 40
0.9999999999999999
 40
0.9999999999999999
 10
831.1240615835827
 20
849.6183256408316
 30
0.0
 10
830.8025908097463
 20
850.0029148578764
 30
0.0
 10
830.04296360417
 20
850.9116893282646
 30
0.0
 10
828.9598440984261
 20
852.4510796348774
 30
0.0
 10
827.8873226876473
 20
854.2503312468244
 30
0.0
 10
826.9528273174427
 20
856.1698234990522
 30
0.0
 10
826.077896733126
 20
858.4453851270201
 30
0.0
 10
825.3645704966216
 20
861.1015849019041
 30
0.0
 10
824.9196342999452
 20
864.3039339762282
 30
0.0
 10
824.9189803996601
 20
867.1582980601559
 30
0.0
 10
825.1935900502884
 20
869.5840974087695
 30
0.0
 10
825.6320168971166
 20
871.8773252328751
 30
0.0
 10
826.4590794517733
 20
874.5969662615294
 30
0.0
 10
827.6399818522314
 20
877.1679667738058
 30
0.0
 10
828.8293974917715
 20
879.1764992153995
 30
0.0
 10
829.8842826210845
 20
880.6912677947223
 30
0.0
 10
831.0578536490602
 20
882.1352815297234
 30
0.0
 10
832.1991116356184
 20
883.3438461462874
 30
0.0
 10
833.566750880518
 20
884.6243830619521
 30
0.0
 10
835.2002427100181
 20
885.942455406734
 30
0.0
 10
837.3305175054431
 20
887.338044090039
 30
0.0
 10
839.236326382226
 20
888.3353805938381
 30
0.0
 10
840.8030085816943
 20
889.0114261486211
 30
0.0
 10
842.3586159078304
 20
889.5951590667061
 30
0.0
 10
844.3362743255959
 20
890.182911545836
 30
0.0
 10
846.7968064659772
 20
890.6623830582743
 30
0.0
 10
848.9037168391826
 20
890.8744804099773
 30
0.0
 10
850.1821689604559
 20
890.891412322833
 30
0.0
 10
850.6107245224541
 20
890.8970881438581
 30
0.0
  0
SPLINE
  5
16A
330
1F
100
AcDbEntity
  8
0
  6
Continuous
 62
     8
370
    18
100
AcDbSpline
210
0.0
220
0.0
230
1.0
 70
    24
 71
     3
 72
    21
 73
    17
 74
     0
 42
0.000000001
 43
0.00000001
 40
0.0
 40
0.0
 40
0.0
 40
0.0
 40
0.0720514219264893
 40
0.1446031256583218
 40
0.2187326761061067
 40
0.2934074331762774
 40
0.3654588516753535
 40
0.4380105213676778
 40
0.5121399203052079
 40
0.5868144764983347
 40
0.6588679246026073
 40
0.7314216095207137
 40
0.8055529476989912
 40
0.8802294033636554
 40
0.9908667802310032
 40
1.0
 40
1.0
 40
1.0
 40
1.0
 10
850.6107245224538
 20
890.8970881438581
 30
0.0
 10
850.6107245224497
 20
890.7425353018878
 30
0.0
 10
850.6107245224412
 20
890.4323564958246
 30
0.0
 10
850.6107245224565
 20
889.8616918430965
 30
0.0
 10
850.6107245224562
 20
889.212713073948
 30
0.0
 10
850.6107245224616
 20
888.4898719737255
 30
0.0
 10
850.610724522445
 20
887.705709736954
 30
0.0
 10
850.6107245224593
 20
886.8629489823147
 30
0.0
 10
850.6107245224524
 20
885.954064729326
 30
0.0
 10
850.6107245224487
 20
884.9970939341412
 30
0.0
 10
850.6107245224557
 20
884.0048031027053
 30
0.0
 10
850.6107245224516
 20
882.9803272918293
 30
0.0
 10
850.6107245224589
 20
881.9151854495676
 30
0.0
 10
850.6107245224397
 20
880.6426063266707
 30
0.0
 10
850.6107245224945
 20
879.6734441694599
 30
0.0
 10
850.610724522446
 20
879.0768710180029
 30
0.0
 10
850.6107245224423
 20
879.0313787698755
 30
0.0
  0
SPLINE
  5
16B
330
1F
100
AcDbEntity
  8
0
  6
Continuous
 62
     8
370
    18
100
AcDbSpline
210
0.0
220
0.0
230
1.0
 70
     8
 71
     3
 72
    20
 73
    16
 74
     0
 42
0.000000001
 43
0.00000001
 40
0.0
 40
0.0
 40
0.0
 40
0.0
 40
0.0031848875244884
 40
0.099687216670268
 40
0.196192856158608
 40
0.2929138960264291
 40
0.3894614585497546
 40
0.4531459406897282
 40
0.5167654851003715
 40
0.621486497919016
 40
0.7268808125404134
 40
0.8182687157727472
 40
0.8939620144270489
 40
0.9698304221395908
 40
0.9999999999999999
 40
0.9999999999999999
 40
0.9999999999999999
 40
0.9999999999999999
 10
850.6107245224573
 20
879.0313787698756
 30
0.0
 10
850.577560526872
 20
879.0317814167521
 30
0.0
 10
849.5395249955891
 20
879.0443842939684
 30
0.0
 10
847.490988331048
 20
878.8836466837282
 30
0.0
 10
844.5513081987523
 20
878.1481225028707
 30
0.0
 10
841.7716919916135
 20
876.938478380782
 30
0.0
 10
839.5289852682517
 20
875.4454723529834
 30
0.0
 10
837.8471780657114
 20
873.8176085426495
 30
0.0
 10
836.395631434712
 20
871.8753556679645
 30
0.0
 10
835.2415920674486
 20
869.207886365613
 30
0.0
 10
835.1417903030881
 20
865.9832877533966
 30
0.0
 10
836.0878102376336
 20
863.2624568370114
 30
0.0
 10
837.4396744760647
 20
861.1116581988489
 30
0.0
 10
838.6751634136747
 20
859.6691386790895
 30
0.0
 10
839.4674126088648
 20
858.8998456082433
 30
0.0
 10
839.6928207364333
 20
858.6809688814459
 30
0.0
  0
LINE
  5
16C
330
1F
100
AcDbEntity
  8
0
  6
Continuous
 62
     8
370
    18
100
AcDbLine
 10
831.1240615836
 20
849.6183256408
 30
0.0
 11
839.6928207364
 21
858.6809688814
 31
0.0
  0
SPLINE
  5
16D
330
1F
100
AcDbEntity
  8
0
  6
Continuous
 62
     8
370
    18
100
AcDbSpline
210
0.0
220
0.0
230
1.0
 70
     8
 71
     3
 72
    33
 73
    29
 74
     0
 42
0.000000001
 43
0.00000001
 40
0.0
 40
0.0
 40
0.0
 40
0.0
 40
0.0420694805196966
 40
0.084388443038163
 40
0.1054254118363573
 40
0.1478084180885789
 40
0.1908708294596765
 40
0.2346249844283178
 40
0.2566774230954372
 40
0.2919631051304076
 40
0.3274716165362365
 40
0.3636903997735286
 40
0.4001608597630006
 40
0.4308871503519147
 40
0.4617758629698888
 40
0.4929198210567772
 40
0.5244145950467557
 40
0.576225211846653
 40
0.628592924526834
 40
0.6833701247922531
 40
0.7388451995033103
 40
0.7691720205739117
 40
0.8150603675630261
 40
0.861532490687495
 40
0.895662391143731
 40
0.9301881902968951
 40
0.9649049432978528
 40
1.0
 40
1.0
 40
1.0
 40
1.0
 10
850.6107245224575
 20
890.8970881438581
 30
0.0
 10
851.4277540869368
 20
890.8763304072286
 30
0.0
 10
853.0666583950202
 20
890.8346918356668
 30
0.0
 10
855.094595229608
 20
890.5378743770303
 30
0.0
 10
857.0984201140078
 20
890.1121451568874
 30
0.0
 10
859.0814770742627
 20
889.5393733506228
 30
0.0
 10
861.4065652828886
 20
888.6221280911068
 30
0.0
 10
863.2798429252052
 20
887.6653896773078
 30
0.0
 10
864.9460510599368
 20
886.6556177533934
 30
0.0
 10
866.4139318905325
 20
885.6328230449578
 30
0.0
 10
868.0063687386953
 20
884.3212530891999
 30
0.0
 10
869.5045596067187
 20
882.8672062560395
 30
0.0
 10
870.8176692673965
 20
881.3612497169353
 30
0.0
 10
871.9494381387461
 20
879.8390280129316
 30
0.0
 10
872.9152895918061
 20
878.3245326112369
 30
0.0
 10
873.7767257864749
 20
876.7287091250877
 30
0.0
 10
874.6854056617806
 20
874.7018354075635
 30
0.0
 10
875.5234646230008
 20
872.1970702475743
 30
0.0
 10
876.1322203494403
 20
869.162281713384
 30
0.0
 10
876.3505942683369
 20
866.0083113372242
 30
0.0
 10
876.1784786189276
 20
863.2934795404223
 30
0.0
 10
875.7637824549026
 20
860.8023691601766
 30
0.0
 10
875.1742687701177
 20
858.5371159543722
 30
0.0
 10
874.3289729592026
 20
856.3008819836888
 30
0.0
 10
873.3876882849431
 20
854.3608978217318
 30
0.0
 10
872.4174076616148
 20
852.7005129252871
 30
0.0
 10
871.3289839201693
 20
851.1047419076369
 30
0.0
 10
870.5094000305548
 20
850.1155844471809
 30
0.0
 10
870.0973874613276
 20
849.6183256408316
 30
0.0
  0
LINE
  5
16E
330
1F
100
AcDbEntity
  8
0
  6
Continuous
 62
     8
370
    18
100
AcDbLine
 10
870.0973874613
 20
849.6183256408
 30
0.0
 11
861.5286283085
 21
858.6809688814
 31
0.0
  0
SPLINE
  5
16F
330
1F
100
AcDbEntity
  8
0
  6
Continuous
 62
     8
370
    18
100
AcDbSpline
210
0.0
220
0.0
230
1.0
 70
     8
 71
     3
 72
    19
 73
    15
 74
     0
 42
0.000000001
 43
0.00000001
 40
0.0
 40
0.0
 40
0.0
 40
0.0
 40
0.0723119353046655
 40
0.144520636180646
 40
0.2538055534572529
 40
0.3457400466261745
 40
0.4376020288244571
 40
0.557618731195365
 40
0.6329165099067158
 40
0.7083141187347107
 40
0.8053610917388587
 40
0.9023999691423432
 40
0.9968144251432691
 40
1.0
 40
1.0
 40
1.0
 40
1.0
 10
861.5286283084765
 20
858.6809688814459
 30
0.0
 10
862.0612494029954
 20
859.2145421421186
 30
0.0
 10
863.1257312080917
 20
860.2809269201848
 30
0.0
 10
864.6885431324952
 20
862.4218294761508
 30
0.0
 10
865.889856049777
 20
865.058767323316
 30
0.0
 10
866.1095835141434
 20
868.1672098312239
 30
0.0
 10
865.2300249873554
 20
871.2596047793983
 30
0.0
 10
863.5100037950932
 20
873.7775969892041
 30
0.0
 10
861.3933116519454
 20
875.6563004629684
 30
0.0
 10
859.2068093753398
 20
877.0426248769442
 30
0.0
 10
856.6197792786339
 20
878.1632721949671
 30
0.0
 10
853.692098362647
 20
878.8925211378706
 30
0.0
 10
851.6599689275612
 20
879.0440951835428
 30
0.0
 10
850.6438884506965
 20
879.0317807031414
 30
0.0
 10
850.6107245224573
 20
879.0313787698756
 30
0.0
  0
SPLINE
  5
170
330
1F
100
AcDbEntity
  8
0
  6
Continuous
 62
     8
370
    18
100
AcDbSpline
210
0.0
220
0.0
230
1.0
 70
     8
 71
     3
 72
     9
 73
     5
 74
     0
 42
0.000000001
 43
0.00000001
 40
0.0
 40
0.0
 40
0.0
 40
0.0
 40
0.577047443601945
 40
1.0
 40
1.0
 40
1.0
 40
1.0
 10
837.2571935611604
 20
844.3910798506885
 30
0.0
 10
835.9971431679824
 20
845.2458760153482
 30
0.0
 10
833.8135265396636
 20
846.7272033726344
 30
0.0
 10
831.9234670686094
 20
848.7589803670239
 30
0.0
 10
831.1240615835827
 20
849.6183256408316
 30
0.0
  0
SPLINE
  5
171
330
1F
100
AcDbEntity
  8
0
  6
Continuous
 62
     8
370
    18
100
AcDbSpline
210
0.0
220
0.0
230
1.0
 70
     8
 71
     3
 72
    10
 73
     6
 74
     0
 42
0.000000001
 43
0.00000001
 40
0.0
 40
0.0
 40
0.0
 40
0.0
 40
0.2479681796226287
 40
0.4972688069878488
 40
1.0
 40
1.0
 40
1.0
 40
1.0
 10
839.6928207364333
 20
858.6809688814459
 30
0.0
 10
840.0375208842103
 20
858.3744743114836
 30
0.0
 10
840.7287734131211
 20
857.7598382344459
 30
0.0
 10
842.2257802719375
 20
856.6537680163427
 30
0.0
 10
843.401322787047
 20
855.8963169480629
 30
0.0
 10
844.1871697087383
 20
855.3899630028092
 30
0.0
  0
LINE
  5
172
330
1F
100
AcDbEntity
  8
0
  6
Continuous
 62
     8
370
    18
100
AcDbLine
 10
844.1871697087
 20
855.3899630028
 30
0.0
 11
837.2571935612
 21
844.3910798507
 31
0.0
  0
SPLINE
  5
173
330
1F
100
AcDbEntity
  8
0
  6
Continuous
 62
     8
370
    18
100
AcDbSpline
210
0.0
220
0.0
230
1.0
 70
     8
 71
     3
 72
    10
 73
     6
 74
     0
 42
0.000000001
 43
0.00000001
 40
0.0
 40
0.0
 40
0.0
 40
0.0
 40
0.3514670345888358
 40
0.7035972473579536
 40
1.0
 40
1.0
 40
1.0
 40
1.0
 10
857.0342793361717
 20
855.3899630028092
 30
0.0
 10
857.5841669413655
 20
855.7427980146792
 30
0.0
 10
858.6849797269042
 20
856.4491337978167
 30
0.0
 10
860.2079538629314
 20
857.5207691018376
 30
0.0
 10
861.1143656940734
 20
858.3170431648914
 30
0.0
 10
861.5286283084765
 20
858.6809688814459
 30
0.0
  0
SPLINE
  5
174
330
1F
100
AcDbEntity
  8
0
  6
Continuous
 62
     8
370
    18
100
AcDbSpline
210
0.0
220
0.0
230
1.0
 70
     8
 71
     3
 72
     9
 73
     5
 74
     0
 42
0.000000001
 43
0.00000001
 40
0.0
 40
0.0
 40
0.0
 40
0.0
 40
0.3490261811818388
 40
1.0
 40
1.0
 40
1.0
 40
1.0
 10
870.0973874613276
 20
849.6183256408316
 30
0.0
 10
869.441801503309
 20
848.9041828139068
 30
0.0
 10
867.5634726174969
 20
846.8580817893173
 30
0.0
 10
865.3834155549789
 20
845.363811007728
 30
0.0
 10
863.96425548375
 20
844.3910798506885
 30
0.0
  0
LINE
  5
175
330
1F
100
AcDbEntity
  8
0
  6
Continuous
 62
     8
370
    18
100
AcDbLine
 10
857.0342793362
 20
855.3899630028
 30
0.0
 11
863.9642554837
 21
844.3910798507
 31
0.0
  0
ARC
  5
176
330
1F
100
AcDbEntity
  8
0
  6
Continuous
 62
     8
370
    18
100
AcDbCircle
 10
850.6107245225
 20
865.5850816169
 30
0.0
 40
12.05000000000005
100
AcDbArc
 50
237.7865374201
 51
302.2134625799
  0
SPLINE
  5
177
330
1F
100
AcDbEntity
  8
0
  6
Continuous
 62
     8
370
    18
100
AcDbSpline
210
0.0
220
0.0
230
1.0
 70
     8
 71
     3
 72
    18
 73
    14
 74
     0
 42
0.000000001
 43
0.00000001
 40
0.0
 40
0.0
 40
0.0
 40
0.0
 40
0.098797079938327
 40
0.200203152115981
 40
0.3040525078882565
 40
0.412084587779242
 40
0.5047740734780907
 40
0.6005377868034519
 40
0.6921670882566405
 40
0.7863356247216254
 40
0.891432032700824
 40
0.9999986785287139
 40
1.0
 40
1.0
 40
1.0
 40
1.0
 10
829.1188111438499
 20
848.8616356290308
 30
0.0
 10
828.2309697526706
 20
849.9499146293791
 30
0.0
 10
826.4318412237291
 20
852.1552114497647
 30
0.0
 10
824.4027472330436
 20
856.081868874653
 30
0.0
 10
822.9886342802777
 20
860.4883214471346
 30
0.0
 10
822.4376843939889
 20
865.0422036293922
 30
0.0
 10
822.6990341230124
 20
869.5300329768687
 30
0.0
 10
823.6525808965789
 20
873.6832710125001
 30
0.0
 10
825.2649305399466
 20
877.642253119651
 30
0.0
 10
827.5564307688416
 20
881.4051467561533
 30
0.0
 10
830.607862461664
 20
884.910738603801
 30
0.0
 10
833.122056237331
 20
886.925477356771
 30
0.0
 10
834.4785642049819
 20
887.8225101153415
 30
0.0
 10
834.4785807161718
 20
887.8225210338754
 30
0.0
  0
SPLINE
  5
178
330
1F
100
AcDbEntity
  8
0
  6
Continuous
 62
     8
370
    18
100
AcDbSpline
210
0.0
220
0.0
230
1.0
 70
     8
 71
     3
 72
    13
 73
     9
 74
     0
 42
0.000000001
 43
0.00000001
 40
0.0
 40
0.0
 40
0.0
 40
0.0
 40
0.0000034881331163
 40
0.2481902506141588
 40
0.5024205295387574
 40
0.7482140500399478
 40
0.9999965118668843
 40
1.0
 40
1.0
 40
1.0
 40
1.0
 10
834.4785807161718
 20
887.8225210338754
 30
0.0
 10
834.4785970072345
 20
887.8225322655082
 30
0.0
 10
835.6377508517963
 20
888.6216937856102
 30
0.0
 10
838.1157032954271
 20
890.0633494160646
 30
0.0
 10
842.101796053449
 20
891.6224319476255
 30
0.0
 10
846.3095838046964
 20
892.5694006389399
 30
0.0
 10
849.1672273665002
 20
892.7732673307269
 30
0.0
 10
850.6107045251497
 20
892.7667730162746
 30
0.0
 10
850.6107245224549
 20
892.7667729263052
 30
0.0
  0
ARC
  5
179
330
1F
100
AcDbEntity
  8
0
  6
Continuous
 62
     8
370
    18
100
AcDbCircle
 10
831.2547354208
 20
846.2367053211
 30
0.0
 40
3.38414415152873
100
AcDbArc
 50
92.2129439007
 51
129.1354920666
  0
SPLINE
  5
17A
330
1F
100
AcDbEntity
  8
0
  6
Continuous
 62
     8
370
    18
100
AcDbSpline
210
0.0
220
0.0
230
1.0
 70
     8
 71
     3
 72
    13
 73
     9
 74
     0
 42
0.000000001
 43
0.00000001
 40
0.0
 40
0.0
 40
0.0
 40
0.0
 40
0.000003488132369
 40
0.2457799679353319
 40
0.4975795644761238
 40
0.7457645563596895
 40
0.9999965118676328
 40
1.0
 40
1.0
 40
1.0
 40
1.0
 10
850.6107245224549
 20
892.7667729263052
 30
0.0
 10
850.6107445197601
 20
892.7667730162746
 30
0.0
 10
852.0197899649642
 20
892.7731124198376
 30
0.0
 10
854.8770254912475
 20
892.5745141220804
 30
0.0
 10
859.0539900163631
 20
891.642444952863
 30
0.0
 10
863.074000373015
 20
890.078605044282
 30
0.0
 10
865.5554643211453
 20
888.6411592121252
 30
0.0
 10
866.7428520376753
 20
887.822532265508
 30
0.0
 10
866.742868328738
 20
887.8225210338753
 30
0.0
  0
SPLINE
  5
17B
330
1F
100
AcDbEntity
  8
0
  6
Continuous
 62
     8
370
    18
100
AcDbSpline
210
0.0
220
0.0
230
1.0
 70
     8
 71
     3
 72
    19
 73
    15
 74
     0
 42
0.000000001
 43
0.00000001
 40
0.0
 40
0.0
 40
0.0
 40
0.0
 40
0.0000013213841023
 40
0.0176852170218708
 40
0.1143733902378692
 40
0.2137145610419426
 40
0.3053523452007526
 40
0.3995000333270476
 40
0.4922123793434059
 40
0.5879403428335883
 40
0.6917200092822494
 40
0.7998090016712731
 40
0.8985189583178731
 40
1.0
 40
1.0
 40
1.0
 40
1.0
 10
866.742868328738
 20
887.8225210338753
 30
0.0
 10
866.742884839928
 20
887.8225101153413
 30
0.0
 10
866.9638682614926
 20
887.6763780070257
 30
0.0
 10
868.3788686547337
 20
886.7101347253026
 30
0.0
 10
870.8505543262033
 20
884.648480802317
 30
0.0
 10
873.685456799963
 20
881.3595524208034
 30
0.0
 10
875.9388964980031
 20
877.6772188800561
 30
0.0
 10
877.5427731844902
 20
873.7631905734928
 30
0.0
 10
878.5156250975454
 20
869.5771243732328
 30
0.0
 10
878.7853143900833
 20
865.1515833392917
 30
0.0
 10
878.2468363668605
 20
860.5523386560868
 30
0.0
 10
876.8590195803266
 20
856.1741831972574
 30
0.0
 10
874.8107717641172
 20
852.1885770496074
 30
0.0
 10
873.0136412722304
 20
849.9808029239628
 30
0.0
 10
872.1026379010603
 20
848.861635629031
 30
0.0
  0
ARC
  5
17C
330
1F
100
AcDbEntity
  8
0
  6
Continuous
 62
     8
370
    18
100
AcDbCircle
 10
869.9667136241
 20
846.2367053211
 30
0.0
 40
3.384144151530676
100
AcDbArc
 50
50.8645079334
 51
87.7870560992
  0
SPLINE
  5
17D
330
1F
100
AcDbEntity
  8
0
  6
Continuous
 62
     8
370
    18
100
AcDbSpline
210
0.0
220
0.0
230
1.0
 70
     8
 71
     3
 72
    14
 73
    10
 74
     0
 42
0.000000001
 43
0.00000001
 40
0.0
 40
0.0
 40
0.0
 40
0.0
 40
0.0588507131428016
 40
0.1865507860318823
 40
0.3150706499745792
 40
0.5205160403891135
 40
0.7296050309949547
 40
0.9289213534635692
 40
1.0
 40
1.0
 40
1.0
 40
1.0
 10
815.0700344133131
 20
887.7443004184794
 30
0.0
 10
815.0697068837973
 20
887.0224322609059
 30
0.0
 10
815.0686686484831
 20
884.7341834867584
 30
0.0
 10
815.0654979252984
 20
880.8080613004686
 30
0.0
 10
815.0640272350378
 20
875.0045887680633
 30
0.0
 10
815.071797486327
 20
868.1352036496756
 30
0.0
 10
815.0729343758946
 20
860.4568816741787
 30
0.0
 10
815.0713951914385
 20
854.6241787390171
 30
0.0
 10
815.0713434250092
 20
851.4728368647479
 30
0.0
 10
815.071329817183
 20
850.6444445465742
 30
0.0
  0
ARC
  5
17E
330
1F
100
AcDbEntity
  8
0
  6
Continuous
 62
     8
370
    18
100
AcDbCircle
 10
813.8828006863
 20
854.7262793309
 30
0.0
 40
4.251349985719592
100
AcDbArc
 50
269.1903220348
 51
286.2342508995
  0
SPLINE
  5
17F
330
1F
100
AcDbEntity
  8
0
  6
Continuous
 62
     8
370
    18
100
AcDbSpline
210
0.0
220
0.0
230
1.0
 70
     8
 71
     3
 72
    14
 73
    10
 74
     0
 42
0.000000001
 43
0.00000001
 40
0.0
 40
0.0
 40
0.0
 40
0.0
 40
0.2078014900616842
 40
0.4196955004261591
 40
0.5448234159852123
 40
0.6699515866734482
 40
0.7986972210351349
 40
0.9274421414585601
 40
1.0
 40
1.0
 40
1.0
 40
1.0
 10
813.7183980202543
 20
887.8929140455227
 30
0.0
 10
813.6882162383048
 20
885.3055202202175
 30
0.0
 10
813.6272582630983
 20
880.0797754674315
 30
0.0
 10
813.6389070766395
 20
873.1111043602431
 30
0.0
 10
813.695013294404
 20
867.2350071762717
 30
0.0
 10
813.7495816079845
 20
862.4536397009163
 30
0.0
 10
813.8001709473501
 20
857.7064689787716
 30
0.0
 10
813.8274451987583
 20
853.6993601431246
 30
0.0
 10
813.8239752497623
 20
851.3295364444604
 30
0.0
 10
813.8227245364352
 20
850.4753538366492
 30
0.0
  0
ARC
  5
180
330
1F
100
AcDbEntity
  8
0
  6
Continuous
 62
     8
370
    18
100
AcDbCircle
 10
813.7187008569
 20
881.6748156922
 30
0.0
 40
6.218098360711379
100
AcDbArc
 50
77.4481726937
 51
90.0027904448
  0
SPLINE
  5
181
330
1F
100
AcDbEntity
  8
0
  6
Continuous
 62
     8
370
    18
100
AcDbSpline
210
0.0
220
0.0
230
1.0
 70
     8
 71
     3
 72
    14
 73
    10
 74
     0
 42
0.000000001
 43
0.00000001
 40
0.0
 40
0.0
 40
0.0
 40
0.0
 40
0.0706469358108946
 40
0.2691496022583789
 40
0.4748299235320645
 40
0.6841240356853493
 40
0.8123563766451405
 40
0.9412272031615686
 40
1.0
 40
1.0
 40
1.0
 40
1.0
 10
816.9613317059927
 20
850.9142375983416
 30
0.0
 10
816.9598553523736
 20
851.7266364684193
 30
0.0
 10
816.9542307632123
 20
854.8217011056439
 30
0.0
 10
817.0330580617804
 20
860.5450503806139
 30
0.0
 10
817.1587730835399
 20
868.1342444733768
 30
0.0
 10
817.2199189981358
 20
874.9155888892175
 30
0.0
 10
817.1976793062613
 20
880.7045597951578
 30
0.0
 10
817.1519438969378
 20
884.5979284138092
 30
0.0
 10
817.1165483687844
 20
886.877808535781
 30
0.0
 10
817.1054619585566
 20
887.5919011802789
 30
0.0
  0
ARC
  5
182
330
1F
100
AcDbEntity
  8
0
  6
Continuous
 62
     8
370
    18
100
AcDbCircle
 10
816.9002520442
 20
844.5871397433
 30
0.0
 40
6.327392669384835
100
AcDbArc
 50
89.4469031132
 51
106.8009889676
  0
ARC
  5
183
330
1F
100
AcDbEntity
  8
0
  6
Continuous
 62
     8
370
    18
100
AcDbCircle
 10
816.8439506026
 20
897.7678575095
 30
0.0
 40
10.17931605777847
100
AcDbArc
 50
259.964010462
 51
271.4721171423
  0
SPLINE
  5
184
330
1F
100
AcDbEntity
  8
0
  6
Continuous
 62
     8
370
    18
100
AcDbSpline
210
0.0
220
0.0
230
1.0
 70
     8
 71
     3
 72
    14
 73
    10
 74
     0
 42
0.000000001
 43
0.00000001
 40
0.0
 40
0.0
 40
0.0
 40
0.0
 40
0.2078011624980602
 40
0.4196948388477503
 40
0.5443918098789595
 40
0.6699512654772892
 40
0.7982264655367505
 40
0.9274422558336544
 40
1.0
 40
1.0
 40
1.0
 40
1.0
 10
887.5030510246556
 20
887.8929140455225
 30
0.0
 10
887.5332350818312
 20
885.3055188522535
 30
0.0
 10
887.5941976522988
 20
880.0797713365986
 30
0.0
 10
887.5825278934896
 20
873.1166279265119
 30
0.0
 10
887.5265524722093
 20
867.2404333336322
 30
0.0
 10
887.4719539488822
 20
862.4649806667222
 30
0.0
 10
887.4214397055481
 20
857.7120915045125
 30
0.0
 10
887.3939839158695
 20
853.7049336553731
 30
0.0
 10
887.3974706714822
 20
851.3295438051514
 30
0.0
 10
887.3987245084752
 20
850.4753538366492
 30
0.0
  0
ARC
  5
185
330
1F
100
AcDbEntity
  8
0
  6
Continuous
 62
     8
370
    18
100
AcDbCircle
 10
887.3386483586
 20
854.7262793309
 30
0.0
 40
4.251349985719024
100
AcDbArc
 50
253.7657491005
 51
270.8096779652
  0
SPLINE
  5
186
330
1F
100
AcDbEntity
  8
0
  6
Continuous
 62
     8
370
    18
100
AcDbSpline
210
0.0
220
0.0
230
1.0
 70
     8
 71
     3
 72
    14
 73
    10
 74
     0
 42
0.000000001
 43
0.00000001
 40
0.0
 40
0.0
 40
0.0
 40
0.0
 40
0.0588507131428023
 40
0.1865507860318845
 40
0.3150706499745831
 40
0.5205160403891195
 40
0.7296050309949637
 40
0.9289213534635679
 40
1.0
 40
1.0
 40
1.0
 40
1.0
 10
886.1514146315968
 20
887.744300418479
 30
0.0
 10
886.1517421611127
 20
887.0224322609055
 30
0.0
 10
886.1527803964269
 20
884.734183486758
 30
0.0
 10
886.155951119611
 20
880.808061300468
 30
0.0
 10
886.157421809872
 20
875.004588768063
 30
0.0
 10
886.1496515585824
 20
868.1352036496752
 30
0.0
 10
886.1485146690162
 20
860.4568816741784
 30
0.0
 10
886.150053853472
 20
854.624178739017
 30
0.0
 10
886.1501056199013
 20
851.4728368647479
 30
0.0
 10
886.1501192277274
 20
850.6444445465742
 30
0.0
  0
ARC
  5
187
330
1F
100
AcDbEntity
  8
0
  6
Continuous
 62
     8
370
    18
100
AcDbCircle
 10
887.502748188
 20
881.6748156921
 30
0.0
 40
6.218098360754684
100
AcDbArc
 50
89.9972095553
 51
102.5518273062
  0
ARC
  5
188
330
1F
100
AcDbEntity
  8
0
  6
Continuous
 62
     8
370
    18
100
AcDbCircle
 10
884.3211970007
 20
844.5871397433
 30
0.0
 40
6.327392669384726
100
AcDbArc
 50
73.1990110324
 51
90.5530968868
  0
SPLINE
  5
189
330
1F
100
AcDbEntity
  8
0
  6
Continuous
 62
     8
370
    18
100
AcDbSpline
210
0.0
220
0.0
230
1.0
 70
     8
 71
     3
 72
    14
 73
    10
 74
     0
 42
0.000000001
 43
0.00000001
 40
0.0
 40
0.0
 40
0.0
 40
0.0
 40
0.0706469358108947
 40
0.2691496022583695
 40
0.4748299235320585
 40
0.6841240356853454
 40
0.8123563766451383
 40
0.9412272031615684
 40
1.0
 40
1.0
 40
1.0
 40
1.0
 10
884.2601173389177
 20
850.9142375983416
 30
0.0
 10
884.2615936925368
 20
851.7266364684193
 30
0.0
 10
884.2672182816981
 20
854.8217011056437
 30
0.0
 10
884.1883909831303
 20
860.5450503806136
 30
0.0
 10
884.06267596137
 20
868.1342444733765
 30
0.0
 10
884.0015300467742
 20
874.9155888892171
 30
0.0
 10
884.0237697386489
 20
880.7045597951574
 30
0.0
 10
884.0695051479719
 20
884.5979284138087
 30
0.0
 10
884.1049006761259
 20
886.8778085357807
 30
0.0
 10
884.1159870863539
 20
887.5919011802783
 30
0.0
  0
ARC
  5
18A
330
1F
100
AcDbEntity
  8
0
  6
Continuous
 62
     8
370
    18
100
AcDbCircle
 10
884.3774984423
 20
897.7678575095
 30
0.0
 40
10.17931605778955
100
AcDbArc
 50
268.5278828577
 51
280.035989538
  0
SPLINE
  5
18B
330
1F
100
AcDbEntity
  8
0
  6
Continuous
 62
     8
370
    18
100
AcDbSpline
210
0.0
220
0.0
230
1.0
 70
     8
 71
     3
 72
    14
 73
    10
 74
     0
 42
0.000000001
 43
0.00000001
 40
0.0
 40
0.0
 40
0.0
 40
0.0
 40
0.1272473860604718
 40
0.2554745767697396
 40
0.3810919869018191
 40
0.5075916090131556
 40
0.7089607368256291
 40
0.9137762176246998
 40
1.0
 40
1.0
 40
1.0
 40
1.0
 10
806.1371237105427
 20
850.676425463358
 30
0.0
 10
806.1356786725636
 20
852.1663348272887
 30
0.0
 10
806.1327774698154
 20
855.1576258546311
 30
0.0
 10
806.1364791043129
 20
859.7963884659231
 30
0.0
 10
806.1421329060269
 20
864.5079644594022
 30
0.0
 10
806.1506815909574
 20
870.1995947853902
 30
0.0
 10
806.1591910777377
 20
876.931661912686
 30
0.0
 10
806.152561301696
 20
883.1144648388855
 30
0.0
 10
806.1476201014957
 20
886.6837417521077
 30
0.0
 10
806.1461562132007
 20
887.7411817430085
 30
0.0
  0
ARC
  5
18C
330
1F
100
AcDbEntity
  8
0
  6
Continuous
 62
     8
370
    18
100
AcDbCircle
 10
807.49843465
 20
881.7960966889
 30
0.0
 40
6.096941304605006
100
AcDbArc
 50
89.6346559708
 51
102.8145546266
  0
SPLINE
  5
18D
330
1F
100
AcDbEntity
  8
0
  6
Continuous
 62
     8
370
    18
100
AcDbSpline
210
0.0
220
0.0
230
1.0
 70
     8
 71
     3
 72
    14
 73
    10
 74
     0
 42
0.000000001
 43
0.00000001
 40
0.0
 40
0.0
 40
0.0
 40
0.0
 40
0.1296971135924894
 40
0.260367622165083
 40
0.3857762422390048
 40
0.5111848510835849
 40
0.6402379667715732
 40
0.7692907819815495
 40
1.0
 40
1.0
 40
1.0
 40
1.0
 10
807.4797220430162
 20
850.4753538366497
 30
0.0
 10
807.4786151825984
 20
852.0094078982132
 30
0.0
 10
807.4763931546207
 20
855.0890293116622
 30
0.0
 10
807.50178986813
 20
859.8301740186185
 30
0.0
 10
807.5325538702352
 20
864.6018124822813
 30
0.0
 10
807.5630585747466
 20
869.4168698347212
 30
0.0
 10
807.5843379785738
 20
874.3028174993439
 30
0.0
 10
807.5864161757845
 20
880.5317049883819
 30
0.0
 10
807.5564975604283
 20
885.0167388182666
 30
0.0
 10
807.5373112658349
 20
887.8929140455227
 30
0.0
  0
ARC
  5
18E
330
1F
100
AcDbEntity
  8
0
  6
Continuous
 62
     8
370
    18
100
AcDbCircle
 10
807.4088043949
 20
854.5847656822
 30
0.0
 40
4.11002372615013
100
AcDbArc
 50
251.9763477959
 51
270.9886764295
  0
ARC
  5
18F
330
1F
100
AcDbEntity
  8
0
  6
Continuous
 62
     8
370
    18
100
AcDbCircle
 10
804.2260200115
 20
844.9052222996
 30
0.0
 40
6.079399913263138
100
AcDbArc
 50
71.6779814803
 51
90.2649234322
  0
SPLINE
  5
190
330
1F
100
AcDbEntity
  8
0
  6
Continuous
 62
     8
370
    18
100
AcDbSpline
210
0.0
220
0.0
230
1.0
 70
     8
 71
     3
 72
    15
 73
    11
 74
     0
 42
0.000000001
 43
0.00000001
 40
0.0
 40
0.0
 40
0.0
 40
0.0
 40
0.1214527241786875
 40
0.2436356162157024
 40
0.3679634748124442
 40
0.492999645184968
 40
0.6185865433805121
 40
0.7450337263104021
 40
0.8719902588119044
 40
1.0
 40
1.0
 40
1.0
 40
1.0
 10
804.0966331372622
 20
887.5480433504721
 30
0.0
 10
804.0794214755796
 20
886.0746565955312
 30
0.0
 10
804.0448946765435
 20
883.1190251562897
 30
0.0
 10
804.0130159278671
 20
878.5740711620546
 30
0.0
 10
804.0156176704154
 20
873.9603399542638
 30
0.0
 10
804.0481874722791
 20
869.2962319750665
 30
0.0
 10
804.096968250497
 20
864.6272123257445
 30
0.0
 10
804.1495810902679
 20
859.9921877765131
 30
0.0
 10
804.193186045066
 20
855.406681326205
 30
0.0
 10
804.1963311954112
 20
852.4626523013849
 30
0.0
 10
804.1979102665404
 20
850.9845572260485
 30
0.0
  0
ARC
  5
191
330
1F
100
AcDbEntity
  8
0
  6
Continuous
 62
     8
370
    18
100
AcDbCircle
 10
804.237892266
 20
897.0200585762
 30
0.0
 40
9.47306848800008
100
AcDbArc
 50
269.1455934393
 51
281.6212347178
  0
SPLINE
  5
192
330
1F
100
AcDbEntity
  8
0
  6
Continuous
 62
     8
370
    18
100
AcDbSpline
210
0.0
220
0.0
230
1.0
 70
     8
 71
     3
 72
    14
 73
    10
 74
     0
 42
0.000000001
 43
0.00000001
 40
0.0
 40
0.0
 40
0.0
 40
0.0
 40
0.1296969008660503
 40
0.2603671951156624
 40
0.3853421446376502
 40
0.5111847557259613
 40
0.6397642884787728
 40
0.7692911603858881
 40
1.0
 40
1.0
 40
1.0
 40
1.0
 10
893.7417270018942
 20
850.4753538366492
 30
0.0
 10
893.7428335024258
 20
852.009404820597
 30
0.0
 10
893.7450548079305
 20
855.0890200557168
 30
0.0
 10
893.719692001013
 20
859.8248834470853
 30
0.0
 10
893.6889178736711
 20
864.59622251851
 30
0.0
 10
893.65860002203
 20
869.4053692059676
 30
0.0
 10
893.6365436497215
 20
874.2967494608664
 30
0.0
 10
893.6352787964566
 20
880.5257758728836
 30
0.0
 10
893.6650628943622
 20
885.016732353313
 30
0.0
 10
893.6841377790753
 20
887.8929140455225
 30
0.0
  0
ARC
  5
193
330
1F
100
AcDbEntity
  8
0
  6
Continuous
 62
     8
370
    18
100
AcDbCircle
 10
893.7230143949
 20
881.7960966888
 30
0.0
 40
6.096941304638626
100
AcDbArc
 50
77.1854453734
 51
90.3653440292
  0
SPLINE
  5
194
330
1F
100
AcDbEntity
  8
0
  6
Continuous
 62
     8
370
    18
100
AcDbSpline
210
0.0
220
0.0
230
1.0
 70
     8
 71
     3
 72
    14
 73
    10
 74
     0
 42
0.000000001
 43
0.00000001
 40
0.0
 40
0.0
 40
0.0
 40
0.0
 40
0.1272473860604719
 40
0.2554745767697394
 40
0.3810919869018192
 40
0.5075916090131556
 40
0.708960736825629
 40
0.9137762176247
 40
1.0
 40
1.0
 40
1.0
 40
1.0
 10
895.0843253343678
 20
850.6764254633575
 30
0.0
 10
895.0857703723468
 20
852.1663348272881
 30
0.0
 10
895.088671575095
 20
855.1576258546307
 30
0.0
 10
895.0849699405977
 20
859.7963884659226
 30
0.0
 10
895.0793161388824
 20
864.5079644594017
 30
0.0
 10
895.070767453952
 20
870.19959478539
 30
0.0
 10
895.0622579671717
 20
876.9316619126856
 30
0.0
 10
895.0688877432142
 20
883.1144648388852
 30
0.0
 10
895.0738289434144
 20
886.6837417521073
 30
0.0
 10
895.0752928317094
 20
887.741181743008
 30
0.0
  0
ARC
  5
195
330
1F
100
AcDbEntity
  8
0
  6
Continuous
 62
     8
370
    18
100
AcDbCircle
 10
893.81264465
 20
854.5847656822
 30
0.0
 40
4.110023726151153
100
AcDbArc
 50
269.0113235705
 51
288.0236522041
  0
SPLINE
  5
196
330
1F
100
AcDbEntity
  8
0
  6
Continuous
 62
     8
370
    18
100
AcDbSpline
210
0.0
220
0.0
230
1.0
 70
     8
 71
     3
 72
    15
 73
    11
 74
     0
 42
0.000000001
 43
0.00000001
 40
0.0
 40
0.0
 40
0.0
 40
0.0
 40
0.1214527241786878
 40
0.2436356162157032
 40
0.3679634748124447
 40
0.4929996451849682
 40
0.6185865433805127
 40
0.7450337263104021
 40
0.8719902588119043
 40
1.0
 40
1.0
 40
1.0
 40
1.0
 10
897.1248159076478
 20
887.5480433504716
 30
0.0
 10
897.1420275693304
 20
886.0746565955308
 30
0.0
 10
897.1765543683664
 20
883.1190251562891
 30
0.0
 10
897.208433117043
 20
878.5740711620542
 30
0.0
 10
897.2058313744947
 20
873.9603399542634
 30
0.0
 10
897.173261572631
 20
869.296231975066
 30
0.0
 10
897.1244807944129
 20
864.6272123257439
 30
0.0
 10
897.0718679546427
 20
859.9921877765128
 30
0.0
 10
897.0282629998444
 20
855.4066813262045
 30
0.0
 10
897.0251178494992
 20
852.4626523013845
 30
0.0
 10
897.0235387783703
 20
850.9845572260481
 30
0.0
  0
ARC
  5
197
330
1F
100
AcDbEntity
  8
0
  6
Continuous
 62
     8
370
    18
100
AcDbCircle
 10
896.9954290334
 20
844.9052222996
 30
0.0
 40
6.079399913262058
100
AcDbArc
 50
89.7350765678
 51
108.3220185197
  0
ARC
  5
198
330
1F
100
AcDbEntity
  8
0
  6
Continuous
 62
     8
370
    18
100
AcDbCircle
 10
896.983556779
 20
897.0200585763
 30
0.0
 40
9.473068488030371
100
AcDbArc
 50
258.3787652822
 51
270.8544065606
  0
LINE
  5
199
330
1F
100
AcDbEntity
  8
0
  6
Continuous
 62
     8
370
    18
100
AcDbLine
 10
813.8227245364
 20
850.4753538366
 30
0.0
 11
807.479722043
 21
850.4753538366
 31
0.0
  0
LINE
  5
19A
330
1F
100
AcDbEntity
  8
0
  6
Continuous
 62
     8
370
    18
100
AcDbLine
 10
813.7183980203
 20
887.8929140455
 30
0.0
 11
807.5373112658
 21
887.8929140455
 31
0.0
  0
LINE
  5
19B
330
1F
100
AcDbEntity
  8
0
  6
Continuous
 62
     8
370
    18
100
AcDbLine
 10
887.3987245085
 20
850.4753538366
 30
0.0
 11
893.7417270019
 21
850.4753538366
 31
0.0
  0
LINE
  5
19C
330
1F
100
AcDbEntity
  8
0
  6
Continuous
 62
     8
370
    18
100
AcDbLine
 10
887.5030510247
 20
887.8929140455
 30
0.0
 11
893.6841377791
 21
887.8929140455
 31
0.0
  0
LINE
  5
19D
330
1F
100
AcDbEntity
  8
0
  6
Continuous
 62
     8
370
    18
100
AcDbLine
 10
816.8789121142
 20
848.8568315682
 30
0.0
 11
816.961331706
 21
850.9142375983
 31
0.0
  0
SPLINE
  5
19E
330
1F
100
AcDbEntity
  8
0
  6
Continuous
 62
     8
370
    18
100
AcDbSpline
210
0.0
220
0.0
230
1.0
 70
     8
 71
     3
 72
     9
 73
     5
 74
     0
 42
0.000000001
 43
0.00000001
 40
0.0
 40
0.0
 40
0.0
 40
0.0
 40
0.8892351459142924
 40
1.0
 40
1.0
 40
1.0
 40
1.0
 10
817.1054619585566
 20
887.5919011802789
 30
0.0
 10
817.0563994519379
 20
890.8188895366303
 30
0.0
 10
817.0012256243577
 20
894.447837820083
 30
0.0
 10
816.9892526762184
 20
897.9944228698331
 30
0.0
 10
816.9879264943647
 20
898.3872598453711
 30
0.0
  0
SPLINE
  5
19F
330
1F
100
AcDbEntity
  8
0
  6
Continuous
 62
     8
370
    18
100
AcDbSpline
210
0.0
220
0.0
230
1.0
 70
     8
 71
     3
 72
    11
 73
     7
 74
     0
 42
0.000000001
 43
0.00000001
 40
0.0
 40
0.0
 40
0.0
 40
0.0
 40
0.5574252101166927
 40
0.8582360298869939
 40
0.9999887157360463
 40
1.0
 40
1.0
 40
1.0
 40
1.0
 10
816.9879264943647
 20
898.3872598453711
 30
0.0
 10
816.9465666550125
 20
899.3006528260013
 30
0.0
 10
816.8828872525055
 20
900.7069522742421
 30
0.0
 10
816.270816150321
 20
902.2452440835475
 30
0.0
 10
815.7969634507863
 20
902.8120757210129
 30
0.0
 10
815.6207290015495
 20
902.9696526306984
 30
0.0
 10
815.6207149734713
 20
902.9696651736559
 30
0.0
  0
SPLINE
  5
1A0
330
1F
100
AcDbEntity
  8
0
  6
Continuous
 62
     8
370
    18
100
AcDbSpline
210
0.0
220
0.0
230
1.0
 70
     8
 71
     3
 72
    11
 73
     7
 74
     0
 42
0.000000001
 43
0.00000001
 40
0.0
 40
0.0
 40
0.0
 40
0.0
 40
0.0000403578895606
 40
0.1670896913903669
 40
0.6133765181116572
 40
0.9999999999999999
 40
0.9999999999999999
 40
0.9999999999999999
 40
0.9999999999999999
 10
815.6207149734713
 20
902.9696651736559
 30
0.0
 10
815.6206979003963
 20
902.969674790777
 30
0.0
 10
815.5500119733382
 20
903.0094915855796
 30
0.0
 10
815.2854345977845
 20
903.1462238284207
 30
0.0
 10
814.8197028017852
 20
903.3174137779107
 30
0.0
 10
814.4065310150686
 20
903.3463332323731
 30
0.0
 10
814.2147433602067
 20
903.3597571749789
 30
0.0
  0
LINE
  5
1A1
330
1F
100
AcDbEntity
  8
0
  6
Continuous
 62
     8
370
    18
100
AcDbLine
 10
814.2147433602
 20
903.359757175
 30
0.0
 11
807.1083524969
 21
903.4826780951
 31
0.0
  0
SPLINE
  5
1A2
330
1F
100
AcDbEntity
  8
0
  6
Continuous
 62
     8
370
    18
100
AcDbSpline
210
0.0
220
0.0
230
1.0
 70
     8
 71
     3
 72
    11
 73
     7
 74
     0
 42
0.000000001
 43
0.00000001
 40
0.0
 40
0.0
 40
0.0
 40
0.0
 40
0.2986044395549949
 40
0.5785107697798141
 40
0.9999675635114516
 40
1.0
 40
1.0
 40
1.0
 40
1.0
 10
807.1083524969146
 20
903.4826780951278
 30
0.0
 10
806.9234665708858
 20
903.4768420160276
 30
0.0
 10
806.5652719655149
 20
903.4655353033148
 30
0.0
 10
805.9719645430895
 20
903.2921013550845
 30
0.0
 10
805.596592864634
 20
903.0863964502724
 30
0.0
 10
805.387707905223
 20
902.9411623983046
 30
0.0
 10
805.3876918300919
 20
902.9411512215478
 30
0.0
  0
SPLINE
  5
1A3
330
1F
100
AcDbEntity
  8
0
  6
Continuous
 62
     8
370
    18
100
AcDbSpline
210
0.0
220
0.0
230
1.0
 70
     8
 71
     3
 72
    12
 73
     8
 74
     0
 42
0.000000001
 43
0.00000001
 40
0.0
 40
0.0
 40
0.0
 40
0.0
 40
0.0000113964157658
 40
0.0165615426249112
 40
0.2254762501766455
 40
0.6569695733823875
 40
1.0
 40
1.0
 40
1.0
 40
1.0
 10
805.3876918300919
 20
902.9411512215478
 30
0.0
 10
805.3876790486099
 20
902.9411374128928
 30
0.0
 10
805.3691046947966
 20
902.9210703466706
 30
0.0
 10
805.1204945268497
 20
902.6443713677054
 30
0.0
 10
804.5685346026742
 20
901.7081356732461
 30
0.0
 10
804.2363412847955
 20
900.1331546262321
 30
0.0
 10
804.1972166482612
 20
898.8813902714566
 30
0.0
 10
804.1798886570091
 20
898.3269937655504
 30
0.0
  0
SPLINE
  5
1A4
330
1F
100
AcDbEntity
  8
0
  6
Continuous
 62
     8
370
    18
100
AcDbSpline
210
0.0
220
0.0
230
1.0
 70
     8
 71
     3
 72
    10
 73
     6
 74
     0
 42
0.000000001
 43
0.00000001
 40
0.0
 40
0.0
 40
0.0
 40
0.0
 40
0.0305940752880726
 40
0.8849546452569855
 40
1.0
 40
1.0
 40
1.0
 40
1.0
 10
804.1798886570091
 20
898.3269937655504
 30
0.0
 10
804.1796765200132
 20
898.2185555233743
 30
0.0
 10
804.1735403116768
 20
895.0819048734147
 30
0.0
 10
804.133094743433
 20
891.4841184099788
 30
0.0
 10
804.1005012118321
 20
887.9656067395287
 30
0.0
 10
804.0966331372621
 20
887.5480433504721
 30
0.0
  0
LINE
  5
1A5
330
1F
100
AcDbEntity
  8
0
  6
Continuous
 62
     8
370
    18
100
AcDbLine
 10
804.1979102665
 20
850.984557226
 30
0.0
 11
804.2691074903
 21
848.9813231806
 31
0.0
  0
SPLINE
  5
1A6
330
1F
100
AcDbEntity
  8
0
  6
Continuous
 62
     8
370
    18
100
AcDbSpline
210
0.0
220
0.0
230
1.0
 70
     8
 71
     3
 72
    18
 73
    14
 74
     0
 42
0.000000001
 43
0.00000001
 40
0.0
 40
0.0
 40
0.0
 40
0.0
 40
0.0497884573626186
 40
0.1520626953526127
 40
0.2542931679105471
 40
0.3525326664708984
 40
0.4508084200367248
 40
0.5543273934134115
 40
0.6578565275353662
 40
0.774030727128945
 40
0.8901694733964511
 40
0.9999988953086805
 40
1.0
 40
1.0
 40
1.0
 40
1.0
 10
804.2691074903254
 20
848.9813231806085
 30
0.0
 10
803.3680172152215
 20
848.9969840768025
 30
0.0
 10
800.6159292163837
 20
849.0448152050008
 30
0.0
 10
796.0134988082643
 20
849.1300231740311
 30
0.0
 10
790.7127887940452
 20
849.1855941138853
 30
0.0
 10
785.8220112427035
 20
849.2499878159315
 30
0.0
 10
781.3288388769049
 20
849.2750774685474
 30
0.0
 10
777.2971995288402
 20
849.2639266617168
 30
0.0
 10
773.6870022407581
 20
849.2170299978709
 30
0.0
 10
770.7749063951813
 20
849.1381486610896
 30
0.0
 10
768.7950906613139
 20
849.012877340928
 30
0.0
 10
768.2033843930757
 20
848.8885177500109
 30
0.0
 10
768.090966638176
 20
848.8210888203132
 30
0.0
 10
768.0909655074621
 20
848.8210881421033
 30
0.0
  0
SPLINE
  5
1A7
330
1F
100
AcDbEntity
  8
0
  6
Continuous
 62
     8
370
    18
100
AcDbSpline
210
0.0
220
0.0
230
1.0
 70
     8
 71
     3
 72
     9
 73
     5
 74
     0
 42
0.000000001
 43
0.00000001
 40
0.0
 40
0.0
 40
0.0
 40
0.0
 40
0.0843934950201087
 40
1.0
 40
1.0
 40
1.0
 40
1.0
 10
829.1188111438499
 20
848.8616356290308
 30
0.0
 10
828.7745007505291
 20
848.8598310940504
 30
0.0
 10
824.694679275678
 20
848.8384486998267
 30
0.0
 10
820.614630924867
 20
848.8480450695903
 30
0.0
 10
816.878912114232
 20
848.8568315681699
 30
0.0
  0
SPLINE
  5
1A8
330
1F
100
AcDbEntity
  8
0
  6
Continuous
 62
     8
370
    18
100
AcDbSpline
210
0.0
220
0.0
230
1.0
 70
     8
 71
     3
 72
    14
 73
    10
 74
     0
 42
0.000000001
 43
0.00000001
 40
0.0
 40
0.0
 40
0.0
 40
0.0
 40
0.0834734048384921
 40
0.2523701720924911
 40
0.4264211392157405
 40
0.5891168996027658
 40
0.7559016487235004
 40
0.8772249525218097
 40
1.0
 40
1.0
 40
1.0
 40
1.0
 10
896.952341554585
 20
848.9813231806079
 30
0.0
 10
897.8533205408456
 20
848.9975557311083
 30
0.0
 10
900.577304572098
 20
849.0466325786525
 30
0.0
 10
905.1852179431697
 20
849.1082375885691
 30
0.0
 10
910.4592071194144
 20
849.1903299476619
 30
0.0
 10
915.3841424399643
 20
849.2486878012851
 30
0.0
 10
919.4039738397508
 20
849.272496181872
 30
0.0
 10
922.7272555730509
 20
849.2686270755115
 30
0.0
 10
924.4402628677944
 20
849.2522581003553
 30
0.0
 10
925.3018604609073
 20
849.2440249365856
 30
0.0
  0
LINE
  5
1A9
330
1F
100
AcDbEntity
  8
0
  6
Continuous
 62
     8
370
    18
100
AcDbLine
 10
897.0235387784
 20
850.984557226
 30
0.0
 11
896.9523415546
 21
848.9813231806
 31
0.0
  0
SPLINE
  5
1AA
330
1F
100
AcDbEntity
  8
0
  6
Continuous
 62
     8
370
    18
100
AcDbSpline
210
0.0
220
0.0
230
1.0
 70
     8
 71
     3
 72
    10
 73
     6
 74
     0
 42
0.000000001
 43
0.00000001
 40
0.0
 40
0.0
 40
0.0
 40
0.0
 40
0.0305940752880737
 40
0.884954645256985
 40
1.0
 40
1.0
 40
1.0
 40
1.0
 10
897.0415603879009
 20
898.32699376555
 30
0.0
 10
897.0417725248968
 20
898.2185555233739
 30
0.0
 10
897.0479087332334
 20
895.0819048734141
 30
0.0
 10
897.0883543014771
 20
891.4841184099784
 30
0.0
 10
897.1209478330778
 20
887.9656067395283
 30
0.0
 10
897.1248159076478
 20
887.5480433504716
 30
0.0
  0
SPLINE
  5
1AB
330
1F
100
AcDbEntity
  8
0
  6
Continuous
 62
     8
370
    18
100
AcDbSpline
210
0.0
220
0.0
230
1.0
 70
     8
 71
     3
 72
    12
 73
     8
 74
     0
 42
0.000000001
 43
0.00000001
 40
0.0
 40
0.0
 40
0.0
 40
0.0
 40
0.000011396415791
 40
0.016561542624936
 40
0.2254762501766656
 40
0.6569695733823978
 40
1.0
 40
1.0
 40
1.0
 40
1.0
 10
895.8337572148179
 20
902.9411512215474
 30
0.0
 10
895.8337699962999
 20
902.9411374128924
 30
0.0
 10
895.8523443501516
 20
902.9210703467024
 30
0.0
 10
896.1009545178213
 20
902.6443713675039
 30
0.0
 10
896.6529144424603
 20
901.7081356734346
 30
0.0
 10
896.9851077600596
 20
900.1331546261854
 30
0.0
 10
897.0242323966318
 20
898.881390271442
 30
0.0
 10
897.0415603879009
 20
898.32699376555
 30
0.0
  0
SPLINE
  5
1AC
330
1F
100
AcDbEntity
  8
0
  6
Continuous
 62
     8
370
    18
100
AcDbSpline
210
0.0
220
0.0
230
1.0
 70
     8
 71
     3
 72
    11
 73
     7
 74
     0
 42
0.000000001
 43
0.00000001
 40
0.0
 40
0.0
 40
0.0
 40
0.0
 40
0.2986044395549573
 40
0.5785107697797414
 40
0.9999675635115336
 40
0.9999999999999999
 40
0.9999999999999999
 40
0.9999999999999999
 40
0.9999999999999999
 10
894.113096547995
 20
903.4826780951273
 30
0.0
 10
894.2979824740307
 20
903.4768420160323
 30
0.0
 10
894.6561770794152
 20
903.4655353033298
 30
0.0
 10
895.2494845017279
 20
903.2921013550149
 30
0.0
 10
895.6248561805835
 20
903.0863964505021
 30
0.0
 10
895.8337411396869
 20
902.9411623983044
 30
0.0
 10
895.8337572148179
 20
902.9411512215474
 30
0.0
  0
LINE
  5
1AD
330
1F
100
AcDbEntity
  8
0
  6
Continuous
 62
     8
370
    18
100
AcDbLine
 10
887.0067056847
 20
903.359757175
 30
0.0
 11
894.113096548
 21
903.4826780951
 31
0.0
  0
SPLINE
  5
1AE
330
1F
100
AcDbEntity
  8
0
  6
Continuous
 62
     8
370
    18
100
AcDbSpline
210
0.0
220
0.0
230
1.0
 70
     8
 71
     3
 72
    11
 73
     7
 74
     0
 42
0.000000001
 43
0.00000001
 40
0.0
 40
0.0
 40
0.0
 40
0.0
 40
0.0000403578891936
 40
0.1670896913899535
 40
0.6133765181114633
 40
1.0
 40
1.0
 40
1.0
 40
1.0
 10
885.6007340714392
 20
902.9696651736555
 30
0.0
 10
885.6007511445141
 20
902.9696747907766
 30
0.0
 10
885.6714370713273
 20
903.0094915859584
 30
0.0
 10
885.9360144474391
 20
903.146223827934
 30
0.0
 10
886.401746243034
 20
903.3174137780504
 30
0.0
 10
886.8149180298124
 20
903.3463332324175
 30
0.0
 10
887.0067056847028
 20
903.3597571749789
 30
0.0
  0
SPLINE
  5
1AF
330
1F
100
AcDbEntity
  8
0
  6
Continuous
 62
     8
370
    18
100
AcDbSpline
210
0.0
220
0.0
230
1.0
 70
     8
 71
     3
 72
    11
 73
     7
 74
     0
 42
0.000000001
 43
0.00000001
 40
0.0
 40
0.0
 40
0.0
 40
0.0
 40
0.5574252101166455
 40
0.8582360298869189
 40
0.9999887157359582
 40
1.0
 40
1.0
 40
1.0
 40
1.0
 10
884.2335225505453
 20
898.3872598453707
 30
0.0
 10
884.2748823895643
 20
899.3006528263302
 30
0.0
 10
884.3385617915578
 20
900.7069522750779
 30
0.0
 10
884.9506328959067
 20
902.2452440822456
 30
0.0
 10
885.4244855928021
 20
902.8120757223184
 30
0.0
 10
885.6007200433609
 20
902.969652630698
 30
0.0
 10
885.6007340714392
 20
902.9696651736555
 30
0.0
  0
SPLINE
  5
1B0
330
1F
100
AcDbEntity
  8
0
  6
Continuous
 62
     8
370
    18
100
AcDbSpline
210
0.0
220
0.0
230
1.0
 70
     8
 71
     3
 72
     9
 73
     5
 74
     0
 42
0.000000001
 43
0.00000001
 40
0.0
 40
0.0
 40
0.0
 40
0.0
 40
0.8892351459142943
 40
1.0
 40
1.0
 40
1.0
 40
1.0
 10
884.1159870863539
 20
887.5919011802783
 30
0.0
 10
884.1650495929724
 20
890.81888953663
 30
0.0
 10
884.2202234205522
 20
894.4478378200828
 30
0.0
 10
884.2321963686917
 20
897.9944228698326
 30
0.0
 10
884.2335225505453
 20
898.3872598453707
 30
0.0
  0
LINE
  5
1B1
330
1F
100
AcDbEntity
  8
0
  6
Continuous
 62
     8
370
    18
100
AcDbLine
 10
884.3425369307
 20
848.8568315682
 30
0.0
 11
884.2601173389
 21
850.9142375983
 31
0.0
  0
SPLINE
  5
1B2
330
1F
100
AcDbEntity
  8
0
  6
Continuous
 62
     8
370
    18
100
AcDbSpline
210
0.0
220
0.0
230
1.0
 70
     8
 71
     3
 72
     9
 73
     5
 74
     0
 42
0.000000001
 43
0.00000001
 40
0.0
 40
0.0
 40
0.0
 40
0.0
 40
0.0843934950201033
 40
1.0
 40
1.0
 40
1.0
 40
1.0
 10
872.1026379010603
 20
848.861635629031
 30
0.0
 10
872.4469482943812
 20
848.8598310940505
 30
0.0
 10
876.5267697692326
 20
848.8384486998262
 30
0.0
 10
880.6068181200441
 20
848.84804506959
 30
0.0
 10
884.3425369306794
 20
848.8568315681699
 30
0.0
  0
SPLINE
  5
1B3
330
1F
100
AcDbEntity
  8
0
  6
Continuous
 62
     8
370
    18
100
AcDbSpline
210
0.0
220
0.0
230
1.0
 70
     8
 71
     3
 72
    12
 73
     8
 74
     0
 42
0.000000001
 43
0.00000001
 40
0.0
 40
0.0
 40
0.0
 40
0.0
 40
0.3429907427795722
 40
0.6931111831538832
 40
0.8460382371952908
 40
0.9999906400284373
 40
1.0
 40
1.0
 40
1.0
 40
1.0
 10
937.0195671897665
 20
892.2610655177681
 30
0.0
 10
937.0602116072546
 20
892.6505942347977
 30
0.0
 10
937.1423453116969
 20
893.4377487444058
 30
0.0
 10
937.2255908940648
 20
894.1125910792734
 30
0.0
 10
937.2756778785352
 20
894.4760584975403
 30
0.0
 10
937.2941133603206
 20
894.592491714735
 30
0.0
 10
937.3019682427623
 20
894.6367469102045
 30
0.0
 10
937.3019687202931
 20
894.6367496006607
 30
0.0
  0
SPLINE
  5
1B4
330
1F
100
AcDbEntity
  8
0
  6
Continuous
 62
     8
370
    18
100
AcDbSpline
210
0.0
220
0.0
230
1.0
 70
     8
 71
     3
 72
    20
 73
    16
 74
     0
 42
0.000000001
 43
0.00000001
 40
0.0
 40
0.0
 40
0.0
 40
0.0
 40
0.0777495206401192
 40
0.1580444463721855
 40
0.2279673988375348
 40
0.2994604618770916
 40
0.3760581917562235
 40
0.4543933132980234
 40
0.5398335171527762
 40
0.6277318368777234
 40
0.7140713710304714
 40
0.8026163874373401
 40
0.887906846369099
 40
0.9758355728947907
 40
0.9999999999999999
 40
0.9999999999999999
 40
0.9999999999999999
 40
0.9999999999999999
 10
925.3018604609073
 20
849.2440249365856
 30
0.0
 10
925.2972298837019
 20
850.4088698742094
 30
0.0
 10
925.2878171309956
 20
852.7766950615612
 30
0.0
 10
925.7696829110415
 20
856.5957880739928
 30
0.0
 10
926.5388910551762
 20
860.4360202845576
 30
0.0
 10
927.5282150934712
 20
864.284735501867
 30
0.0
 10
928.700900983544
 20
868.2830944290861
 30
0.0
 10
929.9972748166513
 20
872.4636088967924
 30
0.0
 10
931.2851803240219
 20
876.6872546003275
 30
0.0
 10
932.4981337592837
 20
880.7630388237218
 30
0.0
 10
933.666168038638
 20
884.4547175391202
 30
0.0
 10
934.7897921681996
 20
887.6250250848832
 30
0.0
 10
935.9014447696634
 20
890.1847501530982
 30
0.0
 10
936.6299344418011
 20
891.5991237046804
 30
0.0
 10
936.9504682663514
 20
892.1436742900372
 30
0.0
 10
937.0195671897665
 20
892.2610655177681
 30
0.0
  0
SPLINE
  5
1B5
330
1F
100
AcDbEntity
  8
0
  6
Continuous
 62
     8
370
    18
100
AcDbSpline
210
0.0
220
0.0
230
1.0
 70
     8
 71
     3
 72
     9
 73
     5
 74
     0
 42
0.000000001
 43
0.00000001
 40
0.0
 40
0.0
 40
0.0
 40
0.0
 40
0.3531288107769711
 40
1.0
 40
1.0
 40
1.0
 40
1.0
 10
815.0717103072535
 20
898.6036875822016
 30
0.0
 10
815.0718337460787
 20
897.3386947723998
 30
0.0
 10
815.0721833035809
 20
893.7564529071193
 30
0.0
 10
815.0708784715566
 20
890.105801582363
 30
0.0
 10
815.0700344133131
 20
887.7443004184794
 30
0.0
  0
LINE
  5
1B6
330
1F
100
AcDbEntity
  8
0
  6
Continuous
 62
     8
370
    18
100
AcDbLine
 10
813.8047311724
 20
898.7526130802
 30
0.0
 11
813.7183980203
 21
887.8929140455
 31
0.0
  0
ARC
  5
1B7
330
1F
100
AcDbEntity
  8
0
  6
Continuous
 62
     8
370
    18
100
AcDbCircle
 10
813.8520177951
 20
893.6910466477
 30
0.0
 40
5.061787310416584
100
AcDbArc
 50
76.056743273
 51
90.5352582305
  0
LINE
  5
1B8
330
1F
100
AcDbEntity
  8
0
  6
Continuous
 62
     8
370
    18
100
AcDbLine
 10
887.4167178725
 20
898.7526130802
 30
0.0
 11
887.5030510247
 21
887.8929140455
 31
0.0
  0
SPLINE
  5
1B9
330
1F
100
AcDbEntity
  8
0
  6
Continuous
 62
     8
370
    18
100
AcDbSpline
210
0.0
220
0.0
230
1.0
 70
     8
 71
     3
 72
     9
 73
     5
 74
     0
 42
0.000000001
 43
0.00000001
 40
0.0
 40
0.0
 40
0.0
 40
0.0
 40
0.3531288107769711
 40
1.0
 40
1.0
 40
1.0
 40
1.0
 10
886.1497387376564
 20
898.6036875822012
 30
0.0
 10
886.1496152988313
 20
897.3386947723992
 30
0.0
 10
886.149265741329
 20
893.7564529071188
 30
0.0
 10
886.1505705733534
 20
890.1058015823627
 30
0.0
 10
886.1514146315968
 20
887.744300418479
 30
0.0
  0
ARC
  5
1BA
330
1F
100
AcDbEntity
  8
0
  6
Continuous
 62
     8
370
    18
100
AcDbCircle
 10
887.3694312498
 20
893.6910466476
 30
0.0
 40
5.061787310431809
100
AcDbArc
 50
89.4647417695
 51
103.943256727
  0
SPLINE
  5
1BB
330
1F
100
AcDbEntity
  8
0
  6
Continuous
 62
     8
370
    18
100
AcDbSpline
210
0.0
220
0.0
230
1.0
 70
     8
 71
     3
 72
    10
 73
     6
 74
     0
 42
0.000000001
 43
0.00000001
 40
0.0
 40
0.0
 40
0.0
 40
0.0
 40
0.0049102993503908
 40
0.1151643441716948
 40
1.0
 40
1.0
 40
1.0
 40
1.0
 10
806.1461562132007
 20
887.7411817430085
 30
0.0
 10
806.1461341153456
 20
887.759117305094
 30
0.0
 10
806.1456158404268
 20
888.1797713421593
 30
0.0
 10
806.1403120169736
 20
891.8285609673325
 30
0.0
 10
806.1378981133885
 20
895.402503257558
 30
0.0
 10
806.1357516657259
 20
898.5804595445138
 30
0.0
  0
ARC
  5
1BC
330
1F
100
AcDbEntity
  8
0
  6
Continuous
 62
     8
370
    18
100
AcDbCircle
 10
807.4239919552
 20
893.8581064961
 30
0.0
 40
4.894913825374321
100
AcDbArc
 50
89.2609157049
 51
105.2587981171
  0
SPLINE
  5
1BD
330
1F
100
AcDbEntity
  8
0
  6
Continuous
 62
     8
370
    18
100
AcDbSpline
210
0.0
220
0.0
230
1.0
 70
     8
 71
     3
 72
     9
 73
     5
 74
     0
 42
0.000000001
 43
0.00000001
 40
0.0
 40
0.0
 40
0.0
 40
0.0
 40
0.8536363424240554
 40
1.0
 40
1.0
 40
1.0
 40
1.0
 10
807.5373112658349
 20
887.8929140455227
 30
0.0
 10
807.5166635133206
 20
891.0039949278225
 30
0.0
 10
807.492475517229
 20
894.6484987143709
 30
0.0
 10
807.4878141732033
 20
898.2286142725764
 30
0.0
 10
807.4871319218427
 20
898.7526130802197
 30
0.0
  0
SPLINE
  5
1BE
330
1F
100
AcDbEntity
  8
0
  6
Continuous
 62
     8
370
    18
100
AcDbSpline
210
0.0
220
0.0
230
1.0
 70
     8
 71
     3
 72
     9
 73
     5
 74
     0
 42
0.000000001
 43
0.00000001
 40
0.0
 40
0.0
 40
0.0
 40
0.0
 40
0.8536363424240554
 40
1.0
 40
1.0
 40
1.0
 40
1.0
 10
893.6841377790753
 20
887.8929140455225
 30
0.0
 10
893.7047855315894
 20
891.0039949278222
 30
0.0
 10
893.728973527681
 20
894.6484987143705
 30
0.0
 10
893.7336348717066
 20
898.2286142725758
 30
0.0
 10
893.7343171230673
 20
898.7526130802194
 30
0.0
  0
ARC
  5
1BF
330
1F
100
AcDbEntity
  8
0
  6
Continuous
 62
     8
370
    18
100
AcDbCircle
 10
893.7974570897
 20
893.858106496
 30
0.0
 40
4.894913825381601
100
AcDbArc
 50
74.7412018829
 51
90.739084295
  0
SPLINE
  5
1C0
330
1F
100
AcDbEntity
  8
0
  6
Continuous
 62
     8
370
    18
100
AcDbSpline
210
0.0
220
0.0
230
1.0
 70
     8
 71
     3
 72
    10
 73
     6
 74
     0
 42
0.000000001
 43
0.00000001
 40
0.0
 40
0.0
 40
0.0
 40
0.0
 40
0.0049102993503908
 40
0.1151643441716948
 40
1.0
 40
1.0
 40
1.0
 40
1.0
 10
895.0752928317094
 20
887.741181743008
 30
0.0
 10
895.0753149295645
 20
887.7591173050936
 30
0.0
 10
895.075833204483
 20
888.1797713421588
 30
0.0
 10
895.0811370279364
 20
891.828560967332
 30
0.0
 10
895.0835509315217
 20
895.4025032575576
 30
0.0
 10
895.085697379184
 20
898.5804595445134
 30
0.0
  0
LINE
  5
1C1
330
1F
100
AcDbEntity
  8
0
  6
Continuous
 62
     8
370
    18
100
AcDbLine
 10
813.8047311724
 20
898.7526130802
 30
0.0
 11
807.4871319218
 21
898.7526130802
 31
0.0
  0
LINE
  5
1C2
330
1F
100
AcDbEntity
  8
0
  6
Continuous
 62
     8
370
    18
100
AcDbLine
 10
887.4167178725
 20
898.7526130802
 30
0.0
 11
893.7343171231
 21
898.7526130802
 31
0.0
  0
ARC
  5
1C3
330
1F
100
AcDbEntity
  8
0
  6
Continuous
 62
     8
370
    18
100
AcDbCircle
 10
816.8817572792
 20
906.0384027911
 30
0.0
 40
7.651879525882339
100
AcDbArc
 50
256.3170319392
 51
270.7949998579
  0
ARC
  5
1C4
330
1F
100
AcDbEntity
  8
0
  6
Continuous
 62
     8
370
    18
100
AcDbCircle
 10
884.3396917657
 20
906.0384027911
 30
0.0
 40
7.651879525869866
100
AcDbArc
 50
269.2050001421
 51
283.6829680608
  0
ARC
  5
1C5
330
1F
100
AcDbEntity
  8
0
  6
Continuous
 62
     8
370
    18
100
AcDbCircle
 10
804.2287712996
 20
905.6227113971
 30
0.0
 40
7.29588139105639
100
AcDbArc
 50
269.6161135418
 51
285.1518230015
  0
ARC
  5
1C6
330
1F
100
AcDbEntity
  8
0
  6
Continuous
 62
     8
370
    18
100
AcDbCircle
 10
896.9926777453
 20
905.6227113971
 30
0.0
 40
7.295881391047784
100
AcDbArc
 50
254.8481769985
 51
270.3838864582
  0
LINE
  5
1C7
330
1F
100
AcDbEntity
  8
0
  6
Continuous
 62
     8
370
    18
100
AcDbLine
 10
804.2691074903
 20
848.9813231806
 30
0.0
 11
804.2828944415
 21
848.8242113211
 31
0.0
  0
SPLINE
  5
1C8
330
1F
100
AcDbEntity
  8
0
  6
Continuous
 62
     8
370
    18
100
AcDbSpline
210
0.0
220
0.0
230
1.0
 70
     8
 71
     3
 72
    14
 73
    10
 74
     0
 42
0.000000001
 43
0.00000001
 40
0.0
 40
0.0
 40
0.0
 40
0.0
 40
0.213507205401368
 40
0.6517504153255504
 40
0.8731400298126194
 40
0.9340362681777978
 40
0.960743100577066
 40
0.9801118651181863
 40
1.0
 40
1.0
 40
1.0
 40
1.0
 10
804.2828944415443
 20
848.8242113210935
 30
0.0
 10
804.3391416927159
 20
848.2303424525647
 30
0.0
 10
804.510841609087
 20
846.417503017076
 30
0.0
 10
804.8683275820557
 20
844.363479054994
 30
0.0
 10
805.3200514665126
 20
843.0320226623647
 30
0.0
 10
805.8190905483202
 20
842.5814520919038
 30
0.0
 10
806.089292881347
 20
842.4725727830572
 30
0.0
 10
806.289361111402
 20
842.4331268445916
 30
0.0
 10
806.4152141098352
 20
842.4325071202537
 30
0.0
 10
806.4789731291391
 20
842.4321931585961
 30
0.0
  0
LINE
  5
1C9
330
1F
100
AcDbEntity
  8
0
  6
Continuous
 62
     8
370
    18
100
AcDbLine
 10
806.4789731291
 20
842.4321931586
 30
0.0
 11
814.7723227192
 21
842.6507112
 31
0.0
  0
SPLINE
  5
1CA
330
1F
100
AcDbEntity
  8
0
  6
Continuous
 62
     8
370
    18
100
AcDbSpline
210
0.0
220
0.0
230
1.0
 70
     8
 71
     3
 72
    16
 73
    12
 74
     0
 42
0.000000001
 43
0.00000001
 40
0.0
 40
0.0
 40
0.0
 40
0.0
 40
0.0145165189494737
 40
0.0410735504097992
 40
0.0660449149745875
 40
0.1244471088434499
 40
0.1776973916031337
 40
0.2535931192178187
 40
0.3633556422017859
 40
0.5223716192680163
 40
1.0
 40
1.0
 40
1.0
 40
1.0
 10
814.7723227192306
 20
842.6507112000482
 30
0.0
 10
814.8149850128771
 20
842.6527783497514
 30
0.0
 10
814.9356952103274
 20
842.6586272159864
 30
0.0
 10
815.1148564900247
 20
842.703882596453
 30
0.0
 10
815.3541756567363
 20
842.8179404515733
 30
0.0
 10
815.5617503967478
 20
843.0063155634829
 30
0.0
 10
815.7670442014377
 20
843.2936983837167
 30
0.0
 10
815.9641102627432
 20
843.6932429770047
 30
0.0
 10
816.1790895066059
 20
844.3222380642447
 30
0.0
 10
816.5375346574655
 20
845.8139080538496
 30
0.0
 10
816.7183312306855
 20
847.4088900000302
 30
0.0
 10
816.8539698701413
 20
848.6054900089983
 30
0.0
  0
LINE
  5
1CB
330
1F
100
AcDbEntity
  8
0
  6
Continuous
 62
     8
370
    18
100
AcDbLine
 10
816.8539698701
 20
848.605490009
 30
0.0
 11
816.8789121142
 21
848.8568315682
 31
0.0
  0
SPLINE
  5
1CC
330
1F
100
AcDbEntity
  8
0
  6
Continuous
 62
     8
370
    18
100
AcDbSpline
210
0.0
220
0.0
230
1.0
 70
     8
 71
     3
 72
     9
 73
     5
 74
     0
 42
0.000000001
 43
0.00000001
 40
0.0
 40
0.0
 40
0.0
 40
0.0
 40
0.0094533958096485
 40
1.0
 40
1.0
 40
1.0
 40
1.0
 10
850.6107245224554
 20
840.5350816168898
 30
0.0
 10
850.6015164307771
 20
840.5350816398673
 30
0.0
 10
849.6274652153687
 20
840.5350840704681
 30
0.0
 10
848.6556066268917
 20
840.6604069716896
 30
0.0
 10
847.6929354023223
 20
840.7845451459217
 30
0.0
  0
SPLINE
  5
1CD
330
1F
100
AcDbEntity
  8
0
  6
Continuous
 62
     8
370
    18
100
AcDbSpline
210
0.0
220
0.0
230
1.0
 70
     8
 71
     3
 72
    12
 73
     8
 74
     0
 42
0.000000001
 43
0.00000001
 40
0.0
 40
0.0
 40
0.0
 40
0.0
 40
0.0986927005378057
 40
0.3626715646534934
 40
0.6320534788937631
 40
0.8140997464527878
 40
1.0
 40
1.0
 40
1.0
 40
1.0
 10
846.6973688515146
 20
840.8704732237903
 30
0.0
 10
846.0830338775942
 20
840.9114532925702
 30
0.0
 10
843.8255029254673
 20
841.0620450342393
 30
0.0
 10
839.9444294903018
 20
842.1702003165882
 30
0.0
 10
835.6671713803948
 20
843.9862336612439
 30
0.0
 10
832.0134515804695
 20
846.2458704857065
 30
0.0
 10
830.0904054831549
 20
847.983646579319
 30
0.0
 10
829.1188111438499
 20
848.8616356290308
 30
0.0
  0
LINE
  5
1CE
330
1F
100
AcDbEntity
  8
0
  6
Continuous
 62
     8
370
    18
100
AcDbLine
 10
806.1359792783
 20
848.6229365268
 30
0.0
 11
806.1364317302
 21
848.7864737035
 31
0.0
  0
LINE
  5
1CF
330
1F
100
AcDbEntity
  8
0
  6
Continuous
 62
     8
370
    18
100
AcDbLine
 10
806.1364317302
 20
848.7864737035
 30
0.0
 11
806.1371237105
 21
850.6764254634
 31
0.0
  0
LINE
  5
1D0
330
1F
100
AcDbEntity
  8
0
  6
Continuous
 62
     8
370
    18
100
AcDbLine
 10
807.4175419499
 20
848.3047207409
 30
0.0
 11
807.479722043
 21
850.4753538366
 31
0.0
  0
ARC
  5
1D1
330
1F
100
AcDbEntity
  8
0
  6
Continuous
 62
     8
370
    18
100
AcDbCircle
 10
807.5490858948
 20
851.5742439365
 30
0.0
 40
3.272168353913782
100
AcDbArc
 50
244.4145746888
 51
267.6960401779
  0
LINE
  5
1D2
330
1F
100
AcDbEntity
  8
0
  6
Continuous
 62
     8
370
    18
100
AcDbLine
 10
814.7578334156
 20
842.7941701737
 30
0.0
 11
806.4453755988
 21
842.5756521323
 31
0.0
  0
SPLINE
  5
1D3
330
1F
100
AcDbEntity
  8
0
  6
Continuous
 62
     8
370
    18
100
AcDbSpline
210
0.0
220
0.0
230
1.0
 70
     8
 71
     3
 72
    10
 73
     6
 74
     0
 42
0.000000001
 43
0.00000001
 40
0.0
 40
0.0
 40
0.0
 40
0.0
 40
0.4454896378197732
 40
0.7187778752024843
 40
1.0
 40
1.0
 40
1.0
 40
1.0
 10
806.4453755988075
 20
842.575652132294
 30
0.0
 10
806.6704364336207
 20
843.1873128167724
 30
0.0
 10
807.0335621606971
 20
844.1742003441369
 30
0.0
 10
807.2686266970917
 20
846.2509122130836
 30
0.0
 10
807.3674322982072
 20
847.6136187350127
 30
0.0
 10
807.4175419498614
 20
848.3047207408714
 30
0.0
  0
LINE
  5
1D4
330
1F
100
AcDbEntity
  8
0
  6
Continuous
 62
     8
370
    18
100
AcDbLine
 10
813.8227245364
 20
850.4753538366
 30
0.0
 11
813.8900509117
 21
848.1774403064
 31
0.0
  0
SPLINE
  5
1D5
330
1F
100
AcDbEntity
  8
0
  6
Continuous
 62
     8
370
    18
100
AcDbSpline
210
0.0
220
0.0
230
1.0
 70
     8
 71
     3
 72
    10
 73
     6
 74
     0
 42
0.000000001
 43
0.00000001
 40
0.0
 40
0.0
 40
0.0
 40
0.0
 40
0.5085358280598793
 40
0.7966056673011321
 40
1.0
 40
1.0
 40
1.0
 40
1.0
 10
813.8900509117366
 20
848.1774403064072
 30
0.0
 10
813.9790934764077
 20
847.052618914921
 30
0.0
 10
814.1185759036706
 20
845.2906209479778
 30
0.0
 10
814.420498915174
 20
843.658850632888
 30
0.0
 10
814.6590911174962
 20
843.047273652815
 30
0.0
 10
814.7578334156111
 20
842.7941701737457
 30
0.0
  0
LINE
  5
1D6
330
1F
100
AcDbEntity
  8
0
  6
Continuous
 62
     8
370
    18
100
AcDbLine
 10
815.0713298172
 20
850.6444445466
 30
0.0
 11
815.0694735112
 21
848.711075354
 31
0.0
  0
LINE
  5
1D7
330
1F
100
AcDbEntity
  8
0
  6
Continuous
 62
     8
370
    18
100
AcDbLine
 10
815.0694735112
 20
848.711075354
 30
0.0
 11
815.0692787885
 21
848.4517644726
 31
0.0
  0
ARC
  5
1D8
330
1F
100
AcDbEntity
  8
0
  6
Continuous
 62
     8
370
    18
100
AcDbCircle
 10
813.7420890347
 20
851.4851942296
 30
0.0
 40
3.311061571937581
100
AcDbArc
 50
272.5612375306
 51
293.6303960838
  0
LINE
  5
1D9
330
1F
100
AcDbEntity
  8
0
  6
Continuous
 62
     8
370
    18
100
AcDbLine
 10
887.3987245085
 20
850.4753538366
 30
0.0
 11
887.3313981332
 21
848.1774403064
 31
0.0
  0
ARC
  5
1DA
330
1F
100
AcDbEntity
  8
0
  6
Continuous
 62
     8
370
    18
100
AcDbCircle
 10
887.4793600102
 20
851.4851942296
 30
0.0
 40
3.311061571938272
100
AcDbArc
 50
246.3696039162
 51
267.4387624694
  0
LINE
  5
1DB
330
1F
100
AcDbEntity
  8
0
  6
Continuous
 62
     8
370
    18
100
AcDbLine
 10
886.1519755338
 20
848.711075354
 30
0.0
 11
886.1521702564
 21
848.4517644726
 31
0.0
  0
LINE
  5
1DC
330
1F
100
AcDbEntity
  8
0
  6
Continuous
 62
     8
370
    18
100
AcDbLine
 10
886.1501192277
 20
850.6444445466
 30
0.0
 11
886.1519755338
 21
848.711075354
 31
0.0
  0
LINE
  5
1DD
330
1F
100
AcDbEntity
  8
0
  6
Continuous
 62
     8
370
    18
100
AcDbLine
 10
893.803907095
 20
848.3047207409
 30
0.0
 11
893.7417270019
 21
850.4753538366
 31
0.0
  0
SPLINE
  5
1DE
330
1F
100
AcDbEntity
  8
0
  6
Continuous
 62
     8
370
    18
100
AcDbSpline
210
0.0
220
0.0
230
1.0
 70
     8
 71
     3
 72
    10
 73
     6
 74
     0
 42
0.000000001
 43
0.00000001
 40
0.0
 40
0.0
 40
0.0
 40
0.0
 40
0.4454896378197865
 40
0.7187778752024911
 40
1.0
 40
1.0
 40
1.0
 40
1.0
 10
894.7760734461029
 20
842.5756521322933
 30
0.0
 10
894.5510126112897
 20
843.1873128167719
 30
0.0
 10
894.1878868842133
 20
844.1742003441364
 30
0.0
 10
893.9528223478187
 20
846.2509122130832
 30
0.0
 10
893.8540167467033
 20
847.6136187350121
 30
0.0
 10
893.803907095049
 20
848.3047207408711
 30
0.0
  0
LINE
  5
1DF
330
1F
100
AcDbEntity
  8
0
  6
Continuous
 62
     8
370
    18
100
AcDbLine
 10
886.4636156293
 20
842.7941701737
 30
0.0
 11
894.7760734461
 21
842.5756521323
 31
0.0
  0
SPLINE
  5
1E0
330
1F
100
AcDbEntity
  8
0
  6
Continuous
 62
     8
370
    18
100
AcDbSpline
210
0.0
220
0.0
230
1.0
 70
     8
 71
     3
 72
    10
 73
     6
 74
     0
 42
0.000000001
 43
0.00000001
 40
0.0
 40
0.0
 40
0.0
 40
0.0
 40
0.5085358280598579
 40
0.7966056673011407
 40
1.0
 40
1.0
 40
1.0
 40
1.0
 10
887.3313981331739
 20
848.1774403064072
 30
0.0
 10
887.2423555685028
 20
847.052618914921
 30
0.0
 10
887.1028731412398
 20
845.2906209479775
 30
0.0
 10
886.8009501297364
 20
843.6588506328881
 30
0.0
 10
886.5623579274142
 20
843.047273652815
 30
0.0
 10
886.4636156292993
 20
842.7941701737457
 30
0.0
  0
LINE
  5
1E1
330
1F
100
AcDbEntity
  8
0
  6
Continuous
 62
     8
370
    18
100
AcDbLine
 10
895.0850173147
 20
848.7864737035
 30
0.0
 11
895.0843253344
 21
850.6764254634
 31
0.0
  0
LINE
  5
1E2
330
1F
100
AcDbEntity
  8
0
  6
Continuous
 62
     8
370
    18
100
AcDbLine
 10
895.0854697666
 20
848.6229365268
 30
0.0
 11
895.0850173147
 21
848.7864737035
 31
0.0
  0
ARC
  5
1E3
330
1F
100
AcDbEntity
  8
0
  6
Continuous
 62
     8
370
    18
100
AcDbCircle
 10
893.6723631502
 20
851.5742439365
 30
0.0
 40
3.272168353910474
100
AcDbArc
 50
272.3039598221
 51
295.5854253112
  0
LINE
  5
1E4
330
1F
100
AcDbEntity
  8
0
  6
Continuous
 62
     8
370
    18
100
AcDbLine
 10
884.3674791748
 20
848.605490009
 30
0.0
 11
884.3425369307
 21
848.8568315682
 31
0.0
  0
SPLINE
  5
1E5
330
1F
100
AcDbEntity
  8
0
  6
Continuous
 62
     8
370
    18
100
AcDbSpline
210
0.0
220
0.0
230
1.0
 70
     8
 71
     3
 72
    16
 73
    12
 74
     0
 42
0.000000001
 43
0.00000001
 40
0.0
 40
0.0
 40
0.0
 40
0.0
 40
0.0145165189495136
 40
0.0410735504098396
 40
0.0660449149746283
 40
0.1244471088434918
 40
0.1776973916031767
 40
0.2535931192178827
 40
0.363355642201851
 40
0.5223716192680844
 40
1.0
 40
1.0
 40
1.0
 40
1.0
 10
886.4491263256801
 20
842.6507112000482
 30
0.0
 10
886.4064640320337
 20
842.6527783497514
 30
0.0
 10
886.2857538345833
 20
842.6586272159864
 30
0.0
 10
886.1065925548857
 20
842.703882596453
 30
0.0
 10
885.8672733881742
 20
842.8179404515733
 30
0.0
 10
885.6596986481626
 20
843.0063155634829
 30
0.0
 10
885.4544048434727
 20
843.2936983837167
 30
0.0
 10
885.2573387821672
 20
843.6932429770047
 30
0.0
 10
885.0423595383047
 20
844.3222380642447
 30
0.0
 10
884.6839143874425
 20
845.8139080538493
 30
0.0
 10
884.50311781424
 20
847.4088900000312
 30
0.0
 10
884.3674791747972
 20
848.6054900090005
 30
0.0
  0
LINE
  5
1E6
330
1F
100
AcDbEntity
  8
0
  6
Continuous
 62
     8
370
    18
100
AcDbLine
 10
894.7424759158
 20
842.4321931586
 30
0.0
 11
886.4491263257
 21
842.6507112
 31
0.0
  0
SPLINE
  5
1E7
330
1F
100
AcDbEntity
  8
0
  6
Continuous
 62
     8
370
    18
100
AcDbSpline
210
0.0
220
0.0
230
1.0
 70
     8
 71
     3
 72
    14
 73
    10
 74
     0
 42
0.000000001
 43
0.00000001
 40
0.0
 40
0.0
 40
0.0
 40
0.0
 40
0.2135072054014723
 40
0.6517504153255823
 40
0.8731400298126399
 40
0.934036268177809
 40
0.9607431005770724
 40
0.9801118651181896
 40
1.0
 40
1.0
 40
1.0
 40
1.0
 10
896.9385546033465
 20
848.8242113210956
 30
0.0
 10
896.8823073521827
 20
848.2303424525659
 30
0.0
 10
896.7106074358354
 20
846.4175030170751
 30
0.0
 10
896.3531214628525
 20
844.363479054994
 30
0.0
 10
895.901397578398
 20
843.0320226623637
 30
0.0
 10
895.4023584965903
 20
842.581452091903
 30
0.0
 10
895.1321561635636
 20
842.4725727830565
 30
0.0
 10
894.9320879335085
 20
842.4331268445908
 30
0.0
 10
894.8062349350752
 20
842.4325071202529
 30
0.0
 10
894.7424759157713
 20
842.4321931585952
 30
0.0
  0
LINE
  5
1E8
330
1F
100
AcDbEntity
  8
0
  6
Continuous
 62
     8
370
    18
100
AcDbLine
 10
896.9523415546
 20
848.9813231806
 30
0.0
 11
896.9385546033
 21
848.8242113211
 31
0.0
  0
SPLINE
  5
1E9
330
1F
100
AcDbEntity
  8
0
  6
Continuous
 62
     8
370
    18
100
AcDbSpline
210
0.0
220
0.0
230
1.0
 70
     8
 71
     3
 72
    15
 73
    11
 74
     0
 42
0.000000001
 43
0.00000001
 40
0.0
 40
0.0
 40
0.0
 40
0.0
 40
0.0014239395057858
 40
0.1351061085576231
 40
0.2892216052154407
 40
0.4462432513905993
 40
0.5840152296264978
 40
0.7248088485654204
 40
0.860504411810106
 40
1.0
 40
1.0
 40
1.0
 40
1.0
 10
919.6575069295275
 20
840.5350816168894
 30
0.0
 10
919.6630069974423
 20
840.5350845363525
 30
0.0
 10
920.1848639792488
 20
840.5353615406074
 30
0.0
 10
921.2348941737761
 20
840.6217159791988
 30
0.0
 10
922.6291379073962
 20
841.087528618868
 30
0.0
 10
923.7802345010167
 20
841.9780679380704
 30
0.0
 10
924.6367662855585
 20
843.2618290131879
 30
0.0
 10
925.1801118958265
 20
844.8778494019662
 30
0.0
 10
925.4554008692245
 20
846.8583981177363
 30
0.0
 10
925.353509591498
 20
848.4415290173808
 30
0.0
 10
925.3018604609073
 20
849.2440249365856
 30
0.0
  0
SPLINE
  5
1EA
330
1F
100
AcDbEntity
  8
0
  6
Continuous
 62
     8
370
    18
100
AcDbSpline
210
0.0
220
0.0
230
1.0
 70
     8
 71
     3
 72
    12
 73
     8
 74
     0
 42
0.000000001
 43
0.00000001
 40
0.0
 40
0.0
 40
0.0
 40
0.0
 40
0.172907020929453
 40
0.3500592529377061
 40
0.6008939024631565
 40
0.8574899875493652
 40
1.0
 40
1.0
 40
1.0
 40
1.0
 10
872.1026379010603
 20
848.861635629031
 30
0.0
 10
871.1534125286342
 20
848.0021718566804
 30
0.0
 10
869.2316564139616
 20
846.2621427678744
 30
0.0
 10
865.6117170959401
 20
844.0188310197428
 30
0.0
 10
861.3131187542981
 20
842.1716947063171
 30
0.0
 10
857.1159952024569
 20
841.0034378880612
 30
0.0
 10
854.5037522884228
 20
840.8448417761989
 30
0.0
 10
853.5709908685883
 20
840.7882113863964
 30
0.0
  0
SPLINE
  5
1EB
330
1F
100
AcDbEntity
  8
0
  6
Continuous
 62
     8
370
    18
100
AcDbSpline
210
0.0
220
0.0
230
1.0
 70
     8
 71
     3
 72
     9
 73
     5
 74
     0
 42
0.000000001
 43
0.00000001
 40
0.0
 40
0.0
 40
0.0
 40
0.0
 40
0.9809099457843092
 40
1.0
 40
1.0
 40
1.0
 40
1.0
 10
852.0556347685459
 20
840.6574198919882
 30
0.0
 10
851.5835542891713
 20
840.596740252622
 30
0.0
 10
851.1022863793052
 20
840.5348796917958
 30
0.0
 10
850.6199326807126
 20
840.535077834338
 30
0.0
 10
850.6107245224554
 20
840.5350816168898
 30
0.0
  0
ARC
  5
1EC
330
1F
100
AcDbEntity
  8
0
  6
Continuous
 62
     8
370
    18
100
AcDbCircle
 10
816.4216213192
 20
843.2295116395
 30
0.0
 40
5.645869680606446
100
AcDbArc
 50
85.3542029002
 51
103.8566348578
  0
ARC
  5
1ED
330
1F
100
AcDbEntity
  8
0
  6
Continuous
 62
     8
370
    18
100
AcDbCircle
 10
884.7998277257
 20
843.2295116395
 30
0.0
 40
5.645869680600635
100
AcDbArc
 50
76.1433651422
 51
94.6457970998
  0
ARC
  5
1EE
330
1F
100
AcDbEntity
  8
0
  6
Continuous
 62
     8
370
    18
100
AcDbCircle
 10
804.6371870791
 20
843.4636838946
 30
0.0
 40
5.529902881127534
100
AcDbArc
 50
74.2693192234
 51
93.8165246585
  0
ARC
  5
1EF
330
1F
100
AcDbEntity
  8
0
  6
Continuous
 62
     8
370
    18
100
AcDbCircle
 10
896.5842619658
 20
843.4636838945
 30
0.0
 40
5.529902881131076
100
AcDbArc
 50
86.1834753415
 51
105.7306807766
  0
SPLINE
  5
1F0
330
1F
100
AcDbEntity
  8
0
  6
Continuous
 62
     8
370
    18
100
AcDbSpline
210
0.0
220
0.0
230
1.0
 70
     8
 71
     3
 72
    15
 73
    11
 74
     0
 42
0.000000001
 43
0.00000001
 40
0.0
 40
0.0
 40
0.0
 40
0.0
 40
0.0247383799946503
 40
0.0492201071029635
 40
0.0751567027976501
 40
0.118695396431137
 40
0.2418825692051537
 40
0.4816368506398208
 40
0.8380569172748068
 40
1.0
 40
1.0
 40
1.0
 40
1.0
 10
814.1929520845166
 20
902.5987526820155
 30
0.0
 10
814.2330244060872
 20
902.5996523231264
 30
0.0
 10
814.3127533115369
 20
902.6014422718556
 30
0.0
 10
814.4272652411473
 20
902.5610612448675
 30
0.0
 10
814.5464751367215
 20
902.4821976890014
 30
0.0
 10
814.735298608658
 20
902.2722610131804
 30
0.0
 10
814.9591054920452
 20
901.7365366843632
 30
0.0
 10
815.0541439111554
 20
900.7327425050063
 30
0.0
 10
815.0702478637332
 20
899.6307973257291
 30
0.0
 10
815.0713621807764
 20
898.8481852956123
 30
0.0
 10
815.0717103072535
 20
898.6036875822016
 30
0.0
  0
SPLINE
  5
1F1
330
1F
100
AcDbEntity
  8
0
  6
Continuous
 62
     8
370
    18
100
AcDbSpline
210
0.0
220
0.0
230
1.0
 70
     8
 71
     3
 72
     9
 73
     5
 74
     0
 42
0.000000001
 43
0.00000001
 40
0.0
 40
0.0
 40
0.0
 40
0.0
 40
0.3204572925054245
 40
1.0
 40
1.0
 40
1.0
 40
1.0
 10
814.1929520845166
 20
902.5987526820155
 30
0.0
 10
814.1177639188076
 20
902.2437523229285
 30
0.0
 10
813.8831361931559
 20
901.1359592803312
 30
0.0
 10
813.8364538310929
 20
899.7169145668647
 30
0.0
 10
813.8047311723842
 20
898.7526130802197
 30
0.0
  0
SPLINE
  5
1F2
330
1F
100
AcDbEntity
  8
0
  6
Continuous
 62
     8
370
    18
100
AcDbSpline
210
0.0
220
0.0
230
1.0
 70
     8
 71
     3
 72
    15
 73
    11
 74
     0
 42
0.000000001
 43
0.00000001
 40
0.0
 40
0.0
 40
0.0
 40
0.0
 40
0.0247383799946503
 40
0.0492201071029635
 40
0.0751567027976501
 40
0.118695396431137
 40
0.2418825692051537
 40
0.4816368506398208
 40
0.8380569172748068
 40
1.0
 40
1.0
 40
1.0
 40
1.0
 10
887.0284969603933
 20
902.598752682015
 30
0.0
 10
886.9884246388228
 20
902.599652323126
 30
0.0
 10
886.9086957333732
 20
902.6014422718553
 30
0.0
 10
886.7941838037627
 20
902.5610612448669
 30
0.0
 10
886.6749739081885
 20
902.482197689001
 30
0.0
 10
886.486150436252
 20
902.2722610131799
 30
0.0
 10
886.2623435528648
 20
901.7365366843627
 30
0.0
 10
886.1673051337546
 20
900.7327425050058
 30
0.0
 10
886.1512011811767
 20
899.6307973257286
 30
0.0
 10
886.1500868641336
 20
898.8481852956119
 30
0.0
 10
886.1497387376564
 20
898.6036875822012
 30
0.0
  0
SPLINE
  5
1F3
330
1F
100
AcDbEntity
  8
0
  6
Continuous
 62
     8
370
    18
100
AcDbSpline
210
0.0
220
0.0
230
1.0
 70
     8
 71
     3
 72
     9
 73
     5
 74
     0
 42
0.000000001
 43
0.00000001
 40
0.0
 40
0.0
 40
0.0
 40
0.0
 40
0.3204572925054245
 40
1.0
 40
1.0
 40
1.0
 40
1.0
 10
887.0284969603933
 20
902.598752682015
 30
0.0
 10
887.1036851261024
 20
902.243752322928
 30
0.0
 10
887.3383128517542
 20
901.1359592803309
 30
0.0
 10
887.3849952138171
 20
899.7169145668643
 30
0.0
 10
887.4167178725257
 20
898.7526130802194
 30
0.0
  0
SPLINE
  5
1F4
330
1F
100
AcDbEntity
  8
0
  6
Continuous
 62
     8
370
    18
100
AcDbSpline
210
0.0
220
0.0
230
1.0
 70
     8
 71
     3
 72
    15
 73
    11
 74
     0
 42
0.000000001
 43
0.00000001
 40
0.0
 40
0.0
 40
0.0
 40
0.0
 40
0.3092031051605585
 40
0.663838255257455
 40
0.803986173963673
 40
0.9077221477257735
 40
0.9361281220494168
 40
0.9546919441403823
 40
0.978908979412591
 40
1.0
 40
1.0
 40
1.0
 40
1.0
 10
806.1357516657259
 20
898.5804595445138
 30
0.0
 10
806.1364917159947
 20
899.0681790542419
 30
0.0
 10
806.1380805541112
 20
900.1152800147091
 30
0.0
 10
806.1482712230663
 20
901.3164659173991
 30
0.0
 10
806.3452770205837
 20
902.1725435979437
 30
0.0
 10
806.5501305410124
 20
902.5346732669318
 30
0.0
 10
806.7362191767324
 20
902.6840159643855
 30
0.0
 10
806.8425828587916
 20
902.7333753078104
 30
0.0
 10
806.9512530952713
 20
902.7541770290356
 30
0.0
 10
807.026547157777
 20
902.7441361944398
 30
0.0
 10
807.0615967442642
 20
902.7394621592123
 30
0.0
  0
SPLINE
  5
1F5
330
1F
100
AcDbEntity
  8
0
  6
Continuous
 62
     8
370
    18
100
AcDbSpline
210
0.0
220
0.0
230
1.0
 70
     8
 71
     3
 72
     9
 73
     5
 74
     0
 42
0.000000001
 43
0.00000001
 40
0.0
 40
0.0
 40
0.0
 40
0.0
 40
0.6310361367051674
 40
1.0
 40
1.0
 40
1.0
 40
1.0
 10
807.4871319218427
 20
898.7526130802197
 30
0.0
 10
807.4572261864918
 20
899.6890944583038
 30
0.0
 10
807.4098347082369
 20
901.1731320967402
 30
0.0
 10
807.1554540241957
 20
902.3173040536991
 30
0.0
 10
807.0615967442642
 20
902.7394621592123
 30
0.0
  0
SPLINE
  5
1F6
330
1F
100
AcDbEntity
  8
0
  6
Continuous
 62
     8
370
    18
100
AcDbSpline
210
0.0
220
0.0
230
1.0
 70
     8
 71
     3
 72
     9
 73
     5
 74
     0
 42
0.000000001
 43
0.00000001
 40
0.0
 40
0.0
 40
0.0
 40
0.0
 40
0.6310361367051674
 40
1.0
 40
1.0
 40
1.0
 40
1.0
 10
893.7343171230673
 20
898.7526130802194
 30
0.0
 10
893.7642228584182
 20
899.6890944583033
 30
0.0
 10
893.8116143366731
 20
901.1731320967397
 30
0.0
 10
894.0659950207142
 20
902.3173040536988
 30
0.0
 10
894.1598523006459
 20
902.7394621592119
 30
0.0
  0
SPLINE
  5
1F7
330
1F
100
AcDbEntity
  8
0
  6
Continuous
 62
     8
370
    18
100
AcDbSpline
210
0.0
220
0.0
230
1.0
 70
     8
 71
     3
 72
    15
 73
    11
 74
     0
 42
0.000000001
 43
0.00000001
 40
0.0
 40
0.0
 40
0.0
 40
0.0
 40
0.3092031051605585
 40
0.663838255257455
 40
0.803986173963673
 40
0.9077221477257735
 40
0.9361281220494168
 40
0.9546919441403823
 40
0.978908979412591
 40
1.0
 40
1.0
 40
1.0
 40
1.0
 10
895.085697379184
 20
898.5804595445134
 30
0.0
 10
895.0849573289154
 20
899.0681790542416
 30
0.0
 10
895.0833684907989
 20
900.1152800147087
 30
0.0
 10
895.0731778218436
 20
901.3164659173988
 30
0.0
 10
894.8761720243264
 20
902.1725435979431
 30
0.0
 10
894.6713185038975
 20
902.5346732669313
 30
0.0
 10
894.4852298681775
 20
902.6840159643849
 30
0.0
 10
894.3788661861182
 20
902.73337530781
 30
0.0
 10
894.2701959496387
 20
902.7541770290352
 30
0.0
 10
894.194901887133
 20
902.7441361944394
 30
0.0
 10
894.1598523006459
 20
902.7394621592119
 30
0.0
  0
LINE
  5
1F8
330
1F
100
AcDbEntity
  8
0
  6
Continuous
 62
     8
370
    18
100
AcDbLine
 10
807.0615967443
 20
902.7394621592
 30
0.0
 11
814.1929520845
 21
902.598752682
 31
0.0
  0
LINE
  5
1F9
330
1F
100
AcDbEntity
  8
0
  6
Continuous
 62
     8
370
    18
100
AcDbLine
 10
894.1598523006
 20
902.7394621592
 30
0.0
 11
887.0284969604
 21
902.598752682
 31
0.0
  0
ARC
  5
1FA
330
1F
100
AcDbEntity
  8
0
  6
Continuous
 62
     8
370
    18
100
AcDbCircle
 10
720.4372724582
 20
905.6642499725
 30
0.0
 40
93.80578199576438
100
AcDbArc
 50
358.1272867192
 51
358.5922936386
  0
ARC
  5
1FB
330
1F
100
AcDbEntity
  8
0
  6
Continuous
 62
     8
370
    18
100
AcDbCircle
 10
980.7841766301
 20
905.6642499738
 30
0.0
 40
93.80578203912837
100
AcDbArc
 50
181.4077063616
 51
181.8727132807
  0
ARC
  5
1FC
330
1F
100
AcDbEntity
  8
0
  6
Continuous
 62
     8
370
    18
100
AcDbCircle
 10
766.489113631
 20
905.6649578243
 30
0.0
 40
40.6778184132569
100
AcDbArc
 50
355.8758017505
 51
356.9247251143
  0
ARC
  5
1FD
330
1F
100
AcDbEntity
  8
0
  6
Continuous
 62
     8
370
    18
100
AcDbCircle
 10
934.7323354171
 20
905.6649578245
 30
0.0
 40
40.67781841650859
100
AcDbArc
 50
183.0752748857
 51
184.1241982495
  0
SPLINE
  5
1FE
330
1F
100
AcDbEntity
  8
0
  6
Continuous
 62
     8
370
    18
100
AcDbSpline
210
0.0
220
0.0
230
1.0
 70
     8
 71
     3
 72
    19
 73
    15
 74
     0
 42
0.000000001
 43
0.00000001
 40
0.0
 40
0.0
 40
0.0
 40
0.0
 40
0.510865580978491
 40
0.6773161886274521
 40
0.7897294814090535
 40
0.8649135704138753
 40
0.9149987759643744
 40
0.9638937301973745
 40
0.9805048002912534
 40
0.9864047265890652
 40
0.992357364345202
 40
0.9937773259466395
 40
0.9978992913798035
 40
1.0
 40
1.0
 40
1.0
 40
1.0
 10
815.0692787885297
 20
848.4517644725929
 30
0.0
 10
815.0702284265489
 20
847.2726670507991
 30
0.0
 10
815.0714874763414
 20
845.7093952206236
 30
0.0
 10
815.0732543195825
 20
844.2874941100283
 30
0.0
 10
815.066164243986
 20
843.7055757992482
 30
0.0
 10
815.0490639020303
 20
843.3442724477175
 30
0.0
 10
815.0158761956104
 20
843.094282480178
 30
0.0
 10
814.9742020317703
 20
842.9360945308123
 30
0.0
 10
814.9059670960254
 20
842.8452621900014
 30
0.0
 10
814.8606790494083
 20
842.8139573482375
 30
0.0
 10
814.8317721301605
 20
842.8021540462047
 30
0.0
 10
814.802561733661
 20
842.7956620769133
 30
0.0
 10
814.7810632644054
 20
842.7933470985473
 30
0.0
 10
814.7636963136084
 20
842.7939624407562
 30
0.0
 10
814.7578334156111
 20
842.7941701737457
 30
0.0
  0
ARC
  5
1FF
330
1F
100
AcDbEntity
  8
0
  6
Continuous
 62
     8
370
    18
100
AcDbCircle
 10
816.4261462276
 20
843.1357165478
 30
0.0
 40
5.486479270494956
100
AcDbArc
 50
85.5276603397
 51
104.3184561189
  0
ARC
  5
200
330
1F
100
AcDbEntity
  8
0
  6
Continuous
 62
     8
370
    18
100
AcDbCircle
 10
807.5769256786
 20
841.9964399374
 30
0.0
 40
7.225081968880811
100
AcDbArc
 50
5.1955682006
 51
6.3390221049
  0
ARC
  5
201
330
1F
100
AcDbEntity
  8
0
  6
Continuous
 62
     8
370
    18
100
AcDbCircle
 10
884.7953028173
 20
843.1357165479
 30
0.0
 40
5.486479270457226
100
AcDbArc
 50
75.6815438811
 51
94.47233966
  0
SPLINE
  5
202
330
1F
100
AcDbEntity
  8
0
  6
Continuous
 62
     8
370
    18
100
AcDbSpline
210
0.0
220
0.0
230
1.0
 70
     8
 71
     3
 72
    19
 73
    15
 74
     0
 42
0.000000001
 43
0.00000001
 40
0.0
 40
0.0
 40
0.0
 40
0.0
 40
0.510865580978507
 40
0.6773161886274626
 40
0.7897294814090604
 40
0.8649135704138797
 40
0.9149987759643771
 40
0.9638937301973757
 40
0.9805048002912541
 40
0.9864047265890656
 40
0.9923573643452023
 40
0.9937773259466396
 40
0.9978992913798035
 40
1.0
 40
1.0
 40
1.0
 40
1.0
 10
886.1521702563807
 20
848.4517644725929
 30
0.0
 10
886.1512206183615
 20
847.2726670507992
 30
0.0
 10
886.149961568569
 20
845.7093952206237
 30
0.0
 10
886.1481947253279
 20
844.2874941100281
 30
0.0
 10
886.1552848009244
 20
843.7055757992482
 30
0.0
 10
886.1723851428801
 20
843.3442724477175
 30
0.0
 10
886.2055728493001
 20
843.094282480178
 30
0.0
 10
886.2472470131403
 20
842.9360945308123
 30
0.0
 10
886.315481948885
 20
842.8452621900014
 30
0.0
 10
886.3607699955023
 20
842.8139573482375
 30
0.0
 10
886.3896769147499
 20
842.8021540462047
 30
0.0
 10
886.4188873112494
 20
842.7956620769133
 30
0.0
 10
886.440385780505
 20
842.7933470985473
 30
0.0
 10
886.457752731302
 20
842.7939624407562
 30
0.0
 10
886.4636156292993
 20
842.7941701737457
 30
0.0
  0
ARC
  5
203
330
1F
100
AcDbEntity
  8
0
  6
Continuous
 62
     8
370
    18
100
AcDbCircle
 10
893.6445233706
 20
841.996439937
 30
0.0
 40
7.225081973238833
100
AcDbArc
 50
173.6609778956
 51
174.8044317992
  0
SPLINE
  5
204
330
1F
100
AcDbEntity
  8
0
  6
Continuous
 62
     8
370
    18
100
AcDbSpline
210
0.0
220
0.0
230
1.0
 70
     8
 71
     3
 72
    17
 73
    13
 74
     0
 42
0.000000001
 43
0.00000001
 40
0.0
 40
0.0
 40
0.0
 40
0.0
 40
0.0045109817899508
 40
0.0089278415503381
 40
0.0130797684277637
 40
0.0177777921768911
 40
0.0339670776357914
 40
0.084060007251609
 40
0.3047425979556686
 40
0.7692822253148978
 40
0.8273200843747881
 40
1.0
 40
1.0
 40
1.0
 40
1.0
 10
806.4453755988075
 20
842.575652132294
 30
0.0
 10
806.4324061077865
 20
842.573888343483
 30
0.0
 10
806.406737735309
 20
842.5703975674688
 30
0.0
 10
806.3658617252156
 20
842.5721121032652
 30
0.0
 10
806.328501035114
 20
842.5804330091153
 30
0.0
 10
806.2725710121941
 20
842.6051030605516
 30
0.0
 10
806.1880648813138
 20
842.698315252363
 30
0.0
 10
806.0937898901747
 20
843.1022591936899
 30
0.0
 10
806.1265899952716
 20
844.2933725629399
 30
0.0
 10
806.1272473119816
 20
845.8904850895129
 30
0.0
 10
806.1331730075337
 20
847.5771349264519
 30
0.0
 10
806.1347780155999
 20
848.1752668042059
 30
0.0
 10
806.135979278302
 20
848.6229365267674
 30
0.0
  0
ARC
  5
205
330
1F
100
AcDbEntity
  8
0
  6
Continuous
 62
     8
370
    18
100
AcDbCircle
 10
803.68048087
 20
841.852460913
 30
0.0
 40
2.857909795811041
100
AcDbArc
 50
11.7037763203
 51
14.6580100086
  0
ARC
  5
206
330
1F
100
AcDbEntity
  8
0
  6
Continuous
 62
     8
370
    18
100
AcDbCircle
 10
804.6313808736
 20
843.4015623598
 30
0.0
 40
5.43383516038778
100
AcDbArc
 50
73.9250614362
 51
93.677055676
  0
ARC
  5
207
330
1F
100
AcDbEntity
  8
0
  6
Continuous
 62
     8
370
    18
100
AcDbCircle
 10
897.540968175
 20
841.852460913
 30
0.0
 40
2.857909795894253
100
AcDbArc
 50
165.3419899914
 51
168.2962236797
  0
SPLINE
  5
208
330
1F
100
AcDbEntity
  8
0
  6
Continuous
 62
     8
370
    18
100
AcDbSpline
210
0.0
220
0.0
230
1.0
 70
     8
 71
     3
 72
    17
 73
    13
 74
     0
 42
0.000000001
 43
0.00000001
 40
0.0
 40
0.0
 40
0.0
 40
0.0
 40
0.0045109817899507
 40
0.0089278415503379
 40
0.0130797684277634
 40
0.0177777921768903
 40
0.0339670776357901
 40
0.0840600072516072
 40
0.3047425979556868
 40
0.7692822253149045
 40
0.8273200843747923
 40
1.0
 40
1.0
 40
1.0
 40
1.0
 10
894.7760734461029
 20
842.5756521322933
 30
0.0
 10
894.789042937124
 20
842.5738883434822
 30
0.0
 10
894.8147113096014
 20
842.5703975674679
 30
0.0
 10
894.8555873196948
 20
842.5721121032643
 30
0.0
 10
894.8929480097964
 20
842.5804330091144
 30
0.0
 10
894.9488780327164
 20
842.6051030605508
 30
0.0
 10
895.0333841635966
 20
842.6983152523624
 30
0.0
 10
895.1276591547359
 20
843.1022591936891
 30
0.0
 10
895.0948590496388
 20
844.2933725629397
 30
0.0
 10
895.0942017329288
 20
845.8904850895126
 30
0.0
 10
895.0882760373767
 20
847.5771349264514
 30
0.0
 10
895.0866710293105
 20
848.1752668042054
 30
0.0
 10
895.0854697666084
 20
848.6229365267669
 30
0.0
  0
ARC
  5
209
330
1F
100
AcDbEntity
  8
0
  6
Continuous
 62
     8
370
    18
100
AcDbCircle
 10
896.5900681713
 20
843.4015623599
 30
0.0
 40
5.433835160320495
100
AcDbArc
 50
86.3229443242
 51
106.074938564
  0
SPLINE
  5
20A
330
1F
100
AcDbEntity
  8
0
  6
Continuous
 62
     8
370
    18
100
AcDbSpline
210
0.0
220
0.0
230
1.0
 70
     8
 71
     3
 72
    20
 73
    16
 74
     0
 42
0.000000001
 43
0.00000001
 40
0.0
 40
0.0
 40
0.0
 40
0.0
 40
0.0177553498927668
 40
0.0895541770723952
 40
0.1635124813712794
 40
0.2505819007214759
 40
0.3150328805895242
 40
0.38051477976523
 40
0.4675444081230334
 40
0.5694410813320723
 40
0.6754503316775944
 40
0.7871440412594496
 40
0.8785532165774708
 40
0.9388623767392656
 40
1.0
 40
1.0
 40
1.0
 40
1.0
 10
926.7492716576922
 20
849.7971376572398
 30
0.0
 10
926.7385677274918
 20
850.0462460163825
 30
0.0
 10
926.6845793991105
 20
851.3026951564792
 30
0.0
 10
926.7493617077911
 20
853.7858421137693
 30
0.0
 10
927.1923706497938
 20
857.5817235873053
 30
0.0
 10
927.9472334642934
 20
861.4348666874787
 30
0.0
 10
928.8575250522694
 20
865.18868176076
 30
0.0
 10
929.8544914173425
 20
868.9398329395434
 30
0.0
 10
931.0583890218533
 20
873.27656988099
 30
0.0
 10
932.3343343197483
 20
878.0940405308379
 30
0.0
 10
933.6055109761433
 20
882.832950885697
 30
0.0
 10
934.7972069825737
 20
886.7494187952558
 30
0.0
 10
935.8028024179256
 20
889.4296295880781
 30
0.0
 10
936.5327824600322
 20
891.1813124923956
 30
0.0
 10
936.8565693634121
 20
891.8995147430935
 30
0.0
 10
937.0195671897665
 20
892.2610655177681
 30
0.0
  0
ARC
  5
20B
330
1F
100
AcDbEntity
  8
0
  6
Continuous
 62
     8
370
    18
100
AcDbCircle
 10
927.3790518572
 20
845.9787164556
 30
0.0
 40
3.870008213483577
100
AcDbArc
 50
99.3655973717
 51
122.4620469832
  0
ARC
  5
20C
330
1F
100
AcDbEntity
  8
0
  6
Continuous
 62
     8
370
    18
100
AcDbCircle
 10
929.7694752897
 20
889.1858006825
 30
0.0
 40
7.875346745763703
100
AcDbArc
 50
22.4525517107
 51
22.9851555298
  0
SPLINE
  5
20D
330
1F
100
AcDbEntity
  8
0
  6
Continuous
 62
     8
370
    18
100
AcDbSpline
210
0.0
220
0.0
230
1.0
 70
     8
 71
     3
 72
    19
 73
    15
 74
     0
 42
0.000000001
 43
0.00000001
 40
0.0
 40
0.0
 40
0.0
 40
0.0
 40
0.0812843755281372
 40
0.1625926981205915
 40
0.2503967158277944
 40
0.3382767484838731
 40
0.4242704765567148
 40
0.5102462209491138
 40
0.5965701789596974
 40
0.6829065819723051
 40
0.7657398742054037
 40
0.8485711078275139
 40
0.9243009273350649
 40
1.0
 40
1.0
 40
1.0
 40
1.0
 10
926.8153289583997
 20
849.8066564424454
 30
0.0
 10
926.8064584706093
 20
850.9846148624966
 30
0.0
 10
926.788714881708
 20
853.3408787391096
 30
0.0
 10
927.2682909115923
 20
857.4362974436532
 30
0.0
 10
928.1240437400611
 20
861.8141014052885
 30
0.0
 10
929.2477878119919
 20
866.3514635654199
 30
0.0
 10
930.4638044293253
 20
870.8231156068163
 30
0.0
 10
931.6472263007693
 20
875.1480870486441
 30
0.0
 10
932.7200167144141
 20
879.24244256574
 30
0.0
 10
933.7207174252519
 20
882.9396812035623
 30
0.0
 10
934.6936431039485
 20
886.148775745303
 30
0.0
 10
935.6043650535319
 20
888.7536396426744
 30
0.0
 10
936.4418949962404
 20
890.8265574263017
 30
0.0
 10
936.8458858414712
 20
891.7379401686752
 30
0.0
 10
937.047840249975
 20
892.1935390141183
 30
0.0
  0
ARC
  5
20E
330
1F
100
AcDbEntity
  8
0
  6
Continuous
 62
     8
370
    18
100
AcDbCircle
 10
923.71101503
 20
871.1156267738
 30
0.0
 40
21.53390307276123
100
AcDbArc
 50
278.1110275319
 51
278.2886032803
  0
SPLINE
  5
20F
330
1F
100
AcDbEntity
  8
0
  6
Continuous
 62
     8
370
    18
100
AcDbSpline
210
0.0
220
0.0
230
1.0
 70
     8
 71
     3
 72
    20
 73
    16
 74
     0
 42
0.000000001
 43
0.00000001
 40
0.0
 40
0.0
 40
0.0
 40
0.0
 40
0.0734892725957271
 40
0.1488054069163633
 40
0.2291724603079952
 40
0.3115652575978904
 40
0.3969600311379814
 40
0.4847691432648288
 40
0.5707826311793045
 40
0.6591664434836089
 40
0.746183312361861
 40
0.8361404262887473
 40
0.903526455737445
 40
0.972851405441462
 40
1.0
 40
1.0
 40
1.0
 40
1.0
 10
939.9272221915862
 20
889.8694153294083
 30
0.0
 10
939.6854795205257
 20
889.5285090637979
 30
0.0
 10
939.1959847239982
 20
888.8382219813071
 30
0.0
 10
938.1863410887764
 20
887.0961692372368
 30
0.0
 10
937.0590050510332
 20
884.8052178800401
 30
0.0
 10
935.8895662070961
 20
881.8822554393961
 30
0.0
 10
934.6667337819923
 20
878.4088353334369
 30
0.0
 10
933.3740608051362
 20
874.5116042844081
 30
0.0
 10
931.9464315256879
 20
870.3379179663115
 30
0.0
 10
930.474057755703
 20
866.0499531393165
 30
0.0
 10
929.0985737082652
 20
861.6429724368365
 30
0.0
 10
928.1106738614186
 20
857.6099845601784
 30
0.0
 10
927.5674864726221
 20
854.0186299034731
 30
0.0
 10
927.4362462624197
 20
851.5712138623702
 30
0.0
 10
927.4875831960527
 20
850.2486069025849
 30
0.0
 10
927.5020299089597
 20
849.8764124280689
 30
0.0
  0
ARC
  5
210
330
1F
100
AcDbEntity
  8
0
  6
Continuous
 62
     8
370
    18
100
AcDbCircle
 10
927.6374105231
 20
845.1287475503
 30
0.0
 40
4.749594688235673
100
AcDbArc
 50
91.6333580123
 51
99.9672112785
  0
ARC
  5
211
330
1F
100
AcDbEntity
  8
0
  6
Continuous
 62
     8
370
    18
100
AcDbCircle
 10
940.0401375392
 20
892.9550179132
 30
0.0
 40
3.087667919414043
100
AcDbArc
 50
194.2775571615
 51
267.9042384386
  0
SPLINE
  5
212
330
1F
100
AcDbEntity
  8
0
  6
Continuous
 62
     8
370
    18
100
AcDbSpline
210
0.0
220
0.0
230
1.0
 70
     8
 71
     3
 72
     9
 73
     5
 74
     0
 42
0.000000001
 43
0.00000001
 40
0.0
 40
0.0
 40
0.0
 40
0.0
 40
0.4955319650024673
 40
1.0
 40
1.0
 40
1.0
 40
1.0
 10
940.5085589489828
 20
890.5350816168897
 30
0.0
 10
940.4623038404061
 20
890.5069940980624
 30
0.0
 10
940.3689594916185
 20
890.4503125501283
 30
0.0
 10
940.0753425521046
 20
890.0641978523036
 30
0.0
 10
939.9272221915862
 20
889.8694153294083
 30
0.0
  0
SPLINE
  5
213
330
1F
100
AcDbEntity
  8
0
  6
Continuous
 62
     8
370
    18
100
AcDbSpline
210
0.0
220
0.0
230
1.0
 70
     8
 71
     3
 72
     9
 73
     5
 74
     0
 42
0.000000001
 43
0.00000001
 40
0.0
 40
0.0
 40
0.0
 40
0.0
 40
0.872480994293027
 40
1.0
 40
1.0
 40
1.0
 40
1.0
 10
923.8394263109062
 20
841.3056528372459
 30
0.0
 10
923.7729510192271
 20
840.955241570344
 30
0.0
 10
923.6967599135021
 20
840.5536153238194
 30
0.0
 10
923.6204548662166
 20
840.5371777233566
 30
0.0
 10
923.6107245224565
 20
840.5350816168894
 30
0.0
  0
SPLINE
  5
214
330
1F
100
AcDbEntity
  8
0
  6
Continuous
 62
     8
370
    18
100
AcDbSpline
210
0.0
220
0.0
230
1.0
 70
     8
 71
     3
 72
    13
 73
     9
 74
     0
 42
0.000000001
 43
0.00000001
 40
0.0
 40
0.0
 40
0.0
 40
0.0
 40
0.1645623234208172
 40
0.332800939901234
 40
0.5301300948724845
 40
0.7327153280276602
 40
0.9440961992823405
 40
1.0
 40
1.0
 40
1.0
 40
1.0
 10
927.5020299089597
 20
849.8764124280689
 30
0.0
 10
927.512581583014
 20
849.1807162971099
 30
0.0
 10
927.5339206536457
 20
847.7737823072637
 30
0.0
 10
927.2021925887217
 20
845.8288197170061
 30
0.0
 10
926.538578551155
 20
844.0562736346369
 30
0.0
 10
925.5583102484293
 20
842.5616366495761
 30
0.0
 10
924.3689320930886
 20
841.7482344615223
 30
0.0
 10
923.9310180235672
 20
841.3822087698228
 30
0.0
 10
923.8394263109062
 20
841.3056528372459
 30
0.0
  0
SPLINE
  5
215
330
1F
100
AcDbEntity
  8
0
  6
Continuous
 62
     8
370
    18
100
AcDbSpline
210
0.0
220
0.0
230
1.0
 70
     8
 71
     3
 72
    12
 73
     8
 74
     0
 42
0.000000001
 43
0.00000001
 40
0.0
 40
0.0
 40
0.0
 40
0.0
 40
0.2584254149750787
 40
0.5253727836647208
 40
0.6325637335471997
 40
0.8141005554129499
 40
1.0
 40
1.0
 40
1.0
 40
1.0
 10
923.610724522458
 20
841.3044859655422
 30
0.0
 10
924.1170301694142
 20
841.6867115426039
 30
0.0
 10
925.1463376280177
 20
842.4637671407468
 30
0.0
 10
925.992448677786
 20
844.0788433457645
 30
0.0
 10
926.5036677576268
 20
845.8051328136739
 30
0.0
 10
926.7858845484262
 20
847.4871552012536
 30
0.0
 10
926.7615721760149
 20
849.0210726988321
 30
0.0
 10
926.7492716576922
 20
849.7971376572398
 30
0.0
  0
SPLINE
  5
216
330
1F
100
AcDbEntity
  8
0
  6
Continuous
 62
     8
370
    18
100
AcDbSpline
210
0.0
220
0.0
230
1.0
 70
     8
 71
     3
 72
    10
 73
     6
 74
     0
 42
0.000000001
 43
0.00000001
 40
0.0
 40
0.0
 40
0.0
 40
0.0
 40
0.5660710179693641
 40
0.9956845546965855
 40
1.0
 40
1.0
 40
1.0
 40
1.0
 10
923.610724522458
 20
841.3044859655422
 30
0.0
 10
922.9365587164201
 20
841.0545660995942
 30
0.0
 10
921.7507419918962
 20
840.6149722279122
 30
0.0
 10
920.3139859599532
 20
840.5353978776328
 30
0.0
 10
919.6639713570751
 20
840.5350847311469
 30
0.0
 10
919.6575069295275
 20
840.5350816168894
 30
0.0
  0
SPLINE
  5
217
330
1F
100
AcDbEntity
  8
0
  6
Continuous
 62
     8
370
    18
100
AcDbSpline
210
0.0
220
0.0
230
1.0
 70
     8
 71
     3
 72
    14
 73
    10
 74
     0
 42
0.000000001
 43
0.00000001
 40
0.0
 40
0.0
 40
0.0
 40
0.0
 40
0.0665232667018133
 40
0.1346138509585639
 40
0.2705263731886038
 40
0.4679094570369254
 40
0.669725241607246
 40
0.8332896955030689
 40
1.0
 40
1.0
 40
1.0
 40
1.0
 10
923.7990671717683
 20
841.3057140000624
 30
0.0
 10
923.8862051199992
 20
841.3973707378933
 30
0.0
 10
924.0625340250206
 20
841.5828436867946
 30
0.0
 10
924.5971741485212
 20
842.0081613878476
 30
0.0
 10
925.2669939078795
 20
842.7654349873079
 30
0.0
 10
926.0255536973767
 20
844.0637004205989
 30
0.0
 10
926.5592238462066
 20
845.8014491949758
 30
0.0
 10
926.8409934032047
 20
847.7290146512619
 30
0.0
 10
926.823937924197
 20
849.1097254449023
 30
0.0
 10
926.8153289583997
 20
849.8066564424454
 30
0.0
  0
ARC
  5
218
330
1F
100
AcDbEntity
  8
0
  6
Continuous
 62
     8
370
    18
100
AcDbCircle
 10
923.6107247259
 20
855.7480477655
 30
0.0
 40
14.44356179996965
100
AcDbArc
 50
269.9999991928
 51
270.7471517928
  0
ARC
  5
219
330
1F
100
AcDbEntity
  8
0
  6
Continuous
 62
     8
370
    18
100
AcDbCircle
 10
923.8145611645
 20
838.2138400589
 30
0.0
 40
3.09191276269004
100
AcDbArc
 50
89.5392226713
 51
90.2871180963
  0
LINE
  5
21A
330
1F
100
AcDbEntity
  8
0
  6
Continuous
 62
     8
370
    18
100
AcDbLine
 10
923.6107245225
 20
840.5350816169
 30
0.0
 11
923.6107245225
 21
841.3044859655
 31
0.0
  0
SPLINE
  5
21B
330
1F
100
AcDbEntity
  8
0
  6
Continuous
 62
     8
370
    18
100
AcDbSpline
210
0.0
220
0.0
230
1.0
 70
     8
 71
     3
 72
     9
 73
     5
 74
     0
 42
0.000000001
 43
0.00000001
 40
0.0
 40
0.0
 40
0.0
 40
0.0
 40
0.4953932977280092
 40
0.9999999999999999
 40
0.9999999999999999
 40
0.9999999999999999
 40
0.9999999999999999
 10
937.047840249975
 20
892.1935390141183
 30
0.0
 10
937.1671152020728
 20
892.4530121128231
 30
0.0
 10
937.4078834010868
 20
892.9767840328205
 30
0.0
 10
937.4850756048969
 20
893.1359605659621
 30
0.0
 10
937.5240273083026
 20
893.2162821114299
 30
0.0
  0
LINE
  5
21C
330
1F
100
AcDbEntity
  8
0
  6
Continuous
 62
     8
370
    18
100
AcDbLine
 10
1390.6107245225
 20
915.2588221385
 30
0.0
 11
1392.6107245225
 21
915.2588221385
 31
0.0
  0
LINE
  5
21D
330
1F
100
AcDbEntity
  8
0
  6
Continuous
 62
     8
370
    18
100
AcDbLine
 10
1392.6107245225
 20
913.4462065644
 30
0.0
 11
1390.6107245225
 21
913.4462065644
 31
0.0
  0
LINE
  5
21E
330
1F
100
AcDbEntity
  8
0
  6
Continuous
 62
     8
370
    18
100
AcDbLine
 10
1390.6107245225
 20
906.1879072798
 30
0.0
 11
1392.6107245225
 21
906.1879072798
 31
0.0
  0
LINE
  5
21F
330
1F
100
AcDbEntity
  8
0
  6
Continuous
 62
     8
370
    18
100
AcDbLine
 10
1392.6107245225
 20
904.3752917058
 30
0.0
 11
1390.6107245225
 21
904.3752917058
 31
0.0
  0
LINE
  5
220
330
1F
100
AcDbEntity
  8
0
  6
Continuous
 62
     8
370
    18
100
AcDbLine
 10
1390.6107245225
 20
870.0846816169
 30
0.0
 11
1392.6107245225
 21
870.0846816169
 31
0.0
  0
LINE
  5
221
330
1F
100
AcDbEntity
  8
0
  6
Continuous
 62
     8
370
    18
100
AcDbLine
 10
308.6107245225
 20
915.2588221385
 30
0.0
 11
310.6107245225
 21
915.2588221385
 31
0.0
  0
LINE
  5
222
330
1F
100
AcDbEntity
  8
0
  6
Continuous
 62
     8
370
    18
100
AcDbLine
 10
310.6107245225
 20
913.4462065644
 30
0.0
 11
308.6107245225
 21
913.4462065644
 31
0.0
  0
LINE
  5
223
330
1F
100
AcDbEntity
  8
0
  6
Continuous
 62
     8
370
    18
100
AcDbLine
 10
308.6107245225
 20
906.1879072798
 30
0.0
 11
310.6107245225
 21
906.1879072798
 31
0.0
  0
LINE
  5
224
330
1F
100
AcDbEntity
  8
0
  6
Continuous
 62
     8
370
    18
100
AcDbLine
 10
310.6107245225
 20
904.3752917058
 30
0.0
 11
308.6107245225
 21
904.3752917058
 31
0.0
  0
LINE
  5
225
330
1F
100
AcDbEntity
  8
0
  6
Continuous
 62
     8
370
    18
100
AcDbLine
 10
308.6107245225
 20
870.0846816169
 30
0.0
 11
310.6107245225
 21
870.0846816169
 31
0.0
  0
LINE
  5
226
330
1F
100
AcDbEntity
  8
0
  6
Continuous
 62
     8
370
    18
100
AcDbLine
 10
288.1107245225
 20
921.9846816169
 30
0.0
 11
288.1107245225
 21
920.9846816169
 31
0.0
  0
LINE
  5
227
330
1F
100
AcDbEntity
  8
0
  6
Continuous
 62
     8
370
    18
100
AcDbLine
 10
308.6107245225
 20
922.9846816169
 30
0.0
 11
278.1107245225
 21
922.9846816169
 31
0.0
  0
LINE
  5
228
330
1F
100
AcDbEntity
  8
0
  6
Continuous
 62
     8
370
    18
100
AcDbLine
 10
1413.1107245225
 20
920.9846816169
 30
0.0
 11
1413.1107245225
 21
921.9846816169
 31
0.0
  0
LINE
  5
229
330
1F
100
AcDbEntity
  8
0
  6
Continuous
 62
     8
370
    18
100
AcDbLine
 10
1423.1107245225
 20
922.9846816169
 30
0.0
 11
1392.6107245225
 21
922.9846816169
 31
0.0
  0
LINE
  5
22A
330
1F
100
AcDbEntity
  8
0
  6
Continuous
 62
     8
370
    18
100
AcDbLine
 10
1390.6107245225
 20
922.9846816169
 30
0.0
 11
310.6107245225
 21
922.9846816169
 31
0.0
  0
LINE
  5
22B
330
1F
100
AcDbEntity
  8
0
  6
Continuous
 62
     8
370
    18
100
AcDbLine
 10
310.6107245225
 20
932.4846816169
 30
0.0
 11
1390.6107245225
 21
932.4846816169
 31
0.0
  0
LINE
  5
22C
330
1F
100
AcDbEntity
  8
0
  6
Continuous
 62
     8
370
    18
100
AcDbLine
 10
310.6107245225
 20
917.6498167651
 30
0.0
 11
1390.6107245225
 21
917.6498167651
 31
0.0
  0
LINE
  5
22D
330
1F
100
AcDbEntity
  8
0
  6
Continuous
 62
     8
370
    18
100
AcDbLine
 10
310.6107245225
 20
919.6466001062
 30
0.0
 11
1390.6107245225
 21
919.6466001062
 31
0.0
  0
LINE
  5
22E
330
1F
100
AcDbEntity
  8
0
  6
Continuous
 62
     8
370
    18
100
AcDbLine
 10
310.6107245225
 20
915.8895091961
 30
0.0
 11
767.6515484138
 21
915.8895091961
 31
0.0
  0
LINE
  5
22F
330
1F
100
AcDbEntity
  8
0
  6
Continuous
 62
     8
370
    18
100
AcDbLine
 10
933.5699006311
 20
915.8895091961
 30
0.0
 11
1390.6107245225
 21
915.8895091961
 31
0.0
  0
SPLINE
  5
230
330
1F
100
AcDbEntity
  8
0
  6
Continuous
 62
     8
370
    18
100
AcDbSpline
210
0.0
220
0.0
230
1.0
 70
     8
 71
     3
 72
    10
 73
     6
 74
     0
 42
0.000000001
 43
0.00000001
 40
0.0
 40
0.0
 40
0.0
 40
0.0
 40
0.5
 40
0.5
 40
1.0
 40
1.0
 40
1.0
 40
1.0
 10
909.9268366295508
 20
915.5398651936623
 30
0.0
 10
908.8877929467926
 20
915.554502329606
 30
0.0
 10
907.8421806260882
 20
915.5889723067584
 30
0.0
 10
905.7370541912617
 20
915.6419959131547
 30
0.0
 10
904.6775367798003
 20
915.6604485297164
 30
0.0
 10
903.610724522456
 20
915.6604485297164
 30
0.0
  0
LINE
  5
231
330
1F
100
AcDbEntity
  8
0
  6
Continuous
 62
     8
370
    18
100
AcDbLine
 10
903.6107245225
 20
915.6604485297
 30
0.0
 11
903.6107245225
 21
917.5492539363
 31
0.0
  0
ARC
  5
232
330
1F
100
AcDbEntity
  8
0
  6
Continuous
 62
     8
370
    18
100
AcDbCircle
 10
912.8909515315
 20
915.9288014516
 30
0.0
 40
2.989523133340462
100
AcDbArc
 50
147.5233674626
 51
187.4753574051
  0
SPLINE
  5
233
330
1F
100
AcDbEntity
  8
0
  6
Continuous
 62
     8
370
    18
100
AcDbSpline
210
0.0
220
0.0
230
1.0
 70
     8
 71
     3
 72
    10
 73
     6
 74
     0
 42
0.000000001
 43
0.00000001
 40
0.0
 40
0.0
 40
0.0
 40
0.0
 40
0.5
 40
0.5
 40
1.0
 40
1.0
 40
1.0
 40
1.0
 10
797.6107245224555
 20
915.6604485296756
 30
0.0
 10
796.5439122651114
 20
915.6604485296756
 30
0.0
 10
795.4843948536495
 20
915.6419959131547
 30
0.0
 10
793.3792684188229
 20
915.5889723067584
 30
0.0
 10
792.3336560981184
 20
915.5545023296378
 30
0.0
 10
791.2946124153601
 20
915.5398651936944
 30
0.0
  0
ARC
  5
234
330
1F
100
AcDbEntity
  8
0
  6
Continuous
 62
     8
370
    18
100
AcDbCircle
 10
788.3304975124
 20
915.9288014514
 30
0.0
 40
2.989523134309749
100
AcDbArc
 50
352.5246425999
 51
32.476632528
  0
LINE
  5
235
330
1F
100
AcDbEntity
  8
0
  6
Continuous
 62
     8
370
    18
100
AcDbLine
 10
797.6107245225
 20
915.6604485297
 30
0.0
 11
797.6107245225
 21
917.5492539363
 31
0.0
  0
LINE
  5
236
330
1F
100
AcDbEntity
  8
0
  6
Continuous
 62
     8
370
    18
100
AcDbLine
 10
903.6107245225
 20
915.6604485297
 30
0.0
 11
797.6107245225
 21
915.6604485297
 31
0.0
  0
ELLIPSE
  5
237
330
1F
100
AcDbEntity
  8
0
  6
Continuous
 62
     8
370
    18
100
AcDbEllipse
 10
903.6107245225
 20
913.8802488559
 30
0.0
 11
28.0
 21
0.0
 31
0.0
210
0.0
220
0.0
230
1.0
 40
0.0608401234
 41
0.0075591103181333
 42
1.34326267482132
  0
ARC
  5
238
330
1F
100
AcDbEntity
  8
0
  6
Continuous
 62
     8
370
    18
100
AcDbCircle
 10
933.6092233685
 20
913.8905796579
 30
0.0
 40
1.999300425703758
100
AcDbArc
 50
91.1268920303
 51
179.9270312827
  0
ELLIPSE
  5
239
330
1F
100
AcDbEntity
  8
0
  6
Continuous
 62
     8
370
    18
100
AcDbEllipse
 10
797.6107245225
 20
913.8802488559
 30
0.0
 11
28.0
 21
0.0
 31
0.0
210
0.0
220
0.0
230
1.0
 40
0.0608401234
 41
1.798329978768473
 42
3.134033543271658
  0
ARC
  5
23A
330
1F
100
AcDbEntity
  8
0
  6
Continuous
 62
     8
370
    18
100
AcDbCircle
 10
767.6122256764
 20
913.8905796579
 30
0.0
 40
1.999300425704554
100
AcDbArc
 50
0.0729687173
 51
88.8731079807
  0
LINE
  5
23B
330
1F
100
AcDbEntity
  8
0
  6
Continuous
 62
     8
370
    18
100
AcDbLine
 10
797.6107245225
 20
915.6604485297
 30
0.0
 11
797.6107245225
 21
910.9850816169
 31
0.0
  0
LINE
  5
23C
330
1F
100
AcDbEntity
  8
0
  6
Continuous
 62
     8
370
    18
100
AcDbLine
 10
903.6107245225
 20
915.6604485297
 30
0.0
 11
903.6107245225
 21
910.9850816169
 31
0.0
  0
LINE
  5
23D
330
1F
100
AcDbEntity
  8
0
  6
Continuous
 62
     8
370
    18
100
AcDbLine
 10
1390.6107245225
 20
934.9846816169
 30
0.0
 11
310.6107245225
 21
934.9846816169
 31
0.0
  0
SPLINE
  5
23E
330
1F
100
AcDbEntity
  8
0
  6
Continuous
 62
     7
370
    35
100
AcDbSpline
210
0.0
220
0.0
230
1.0
 70
     8
 71
     3
 72
    21
 73
    17
 74
     0
 42
0.000000001
 43
0.00000001
 40
0.0
 40
0.0
 40
0.0
 40
0.0
 40
0.0194297446419825
 40
0.1063134160553936
 40
0.1971827435466689
 40
0.2431269965620519
 40
0.2877601062930601
 40
0.3091647742150753
 40
0.3297204036283271
 40
0.3691429066046763
 40
0.4450527365653857
 40
0.520982883568908
 40
0.6006991125036865
 40
0.7803290563723181
 40
0.9937101053101698
 40
0.9999999999999999
 40
0.9999999999999999
 40
0.9999999999999999
 40
0.9999999999999999
 10
1747.180212787298
 20
903.2260398626374
 30
0.0
 10
1747.143199291495
 20
903.3151616503831
 30
0.0
 10
1746.940673151729
 20
903.802807879132
 30
0.0
 10
1746.3087875939
 20
904.5772410440611
 30
0.0
 10
1745.446928121969
 20
905.2859983699844
 30
0.0
 10
1744.668779634089
 20
905.7312143297158
 30
0.0
 10
1744.137048210294
 20
905.9460655670679
 30
0.0
 10
1743.875186065043
 20
906.292218589267
 30
0.0
 10
1743.749827188297
 20
906.6669995063019
 30
0.0
 10
1743.798450640439
 20
907.2946812657095
 30
0.0
 10
1743.772099661027
 20
908.091685155797
 30
0.0
 10
1743.780534118129
 20
908.8747547374278
 30
0.0
 10
1743.77748317988
 20
909.7166916122928
 30
0.0
 10
1743.779249022572
 20
910.3025880923045
 30
0.0
 10
1743.778698514023
 20
910.4971637519862
 30
0.0
 10
1743.778700916282
 20
910.4386409279941
 30
0.0
 10
1743.778700985066
 20
910.4369652289063
 30
0.0
  0
ARC
  5
23F
330
1F
100
AcDbEntity
  8
0
  6
Continuous
 62
     7
370
    35
100
AcDbCircle
 10
1695.3421250612
 20
855.5350370489
 30
0.0
 40
14.9999554324595
100
AcDbArc
 50
235.2278938985
 51
269.9820874844
  0
ARC
  5
240
330
1F
100
AcDbEntity
  8
0
  6
Continuous
 62
     7
370
    35
100
AcDbCircle
 10
1735.215268883
 20
855.5350364391
 30
0.0
 40
14.99995482260055
100
AcDbArc
 50
270.017911725
 51
305.1236860193
  0
SPLINE
  5
241
330
1F
100
AcDbEntity
  8
0
  6
Continuous
 62
     7
370
    35
100
AcDbSpline
210
0.0
220
0.0
230
1.0
 70
     8
 71
     3
 72
    14
 73
    10
 74
     0
 42
0.000000001
 43
0.00000001
 40
0.0
 40
0.0
 40
0.0
 40
0.0
 40
0.1910307360766525
 40
0.5100956344371639
 40
0.6698730214106408
 40
0.7584351360341219
 40
0.8292863577709876
 40
0.9200950248317074
 40
1.0
 40
1.0
 40
1.0
 40
1.0
 10
1747.636776834008
 20
902.639422647868
 30
0.0
 10
1747.590312446139
 20
902.6842041530958
 30
0.0
 10
1747.466241933221
 20
902.803780985544
 30
0.0
 10
1747.332682886041
 20
902.9863717654764
 30
0.0
 10
1747.230568606037
 20
903.1431034231806
 30
0.0
 10
1747.189459884127
 20
903.2127445415193
 30
0.0
 10
1747.170874130391
 20
903.2454641991715
 30
0.0
 10
1747.161655722688
 20
903.2623457288066
 30
0.0
 10
1747.162330760352
 20
903.261094405086
 30
0.0
 10
1747.162646721437
 20
903.2605087050242
 30
0.0
  0
SPLINE
  5
242
330
1F
100
AcDbEntity
  8
0
  6
Continuous
 62
     7
370
    35
100
AcDbSpline
210
0.0
220
0.0
230
1.0
 70
     8
 71
     3
 72
    14
 73
    10
 74
     0
 42
0.000000001
 43
0.00000001
 40
0.0
 40
0.0
 40
0.0
 40
0.0
 40
0.0318510699540452
 40
0.1445183584955136
 40
0.2397810598246014
 40
0.3260834741464232
 40
0.5119178316780493
 40
0.8180500484736781
 40
1.0
 40
1.0
 40
1.0
 40
1.0
 10
1683.393982377429
 20
903.2588830975802
 30
0.0
 10
1683.394825920836
 20
903.2605316581399
 30
0.0
 10
1683.398653343545
 20
903.2680116977841
 30
0.0
 10
1683.389590267867
 20
903.2508289576724
 30
0.0
 10
1683.368525523877
 20
903.213634644679
 30
0.0
 10
1683.316006376488
 20
903.1251964347003
 30
0.0
 10
1683.202865492748
 20
902.9559959023064
 30
0.0
 10
1683.060461222536
 20
902.7652907920207
 30
0.0
 10
1682.931744122279
 20
902.6497339277362
 30
0.0
 10
1682.88376025466
 20
902.6066560051655
 30
0.0
  0
SPLINE
  5
243
330
1F
100
AcDbEntity
  8
0
  6
Continuous
 62
     7
370
    35
100
AcDbSpline
210
0.0
220
0.0
230
1.0
 70
     8
 71
     3
 72
    12
 73
     8
 74
     0
 42
0.000000001
 43
0.00000001
 40
0.0
 40
0.0
 40
0.0
 40
0.0
 40
0.1423628141090736
 40
0.2495218665503274
 40
0.368881939955045
 40
0.608528538907473
 40
0.9999999999999999
 40
0.9999999999999999
 40
0.9999999999999999
 40
0.9999999999999999
 10
1742.926099190455
 20
842.6834045262556
 30
0.0
 10
1742.926544153919
 20
842.6836637964639
 30
0.0
 10
1742.927324049389
 20
842.6841182240242
 30
0.0
 10
1742.942774738729
 20
842.692940430579
 30
0.0
 10
1742.975582439748
 20
842.7110450395509
 30
0.0
 10
1743.043037324869
 20
842.7484900561332
 30
0.0
 10
1743.10467955394
 20
842.7728981148063
 30
0.0
 10
1743.142915147257
 20
842.7880380054164
 30
0.0
  0
SPLINE
  5
244
330
1F
100
AcDbEntity
  8
0
  6
Continuous
 62
     7
370
    35
100
AcDbSpline
210
0.0
220
0.0
230
1.0
 70
     8
 71
     3
 72
    13
 73
     9
 74
     0
 42
0.000000001
 43
0.00000001
 40
0.0
 40
0.0
 40
0.0
 40
0.0
 40
0.2312645410561137
 40
0.5779681631996895
 40
0.7146434857576034
 40
0.8157376928211326
 40
0.9213272838854096
 40
1.0
 40
1.0
 40
1.0
 40
1.0
 10
1687.431294762482
 20
842.7848993145695
 30
0.0
 10
1687.452299538732
 20
842.7757951955001
 30
0.0
 10
1687.50479393278
 20
842.7530425030551
 30
0.0
 10
1687.567540051316
 20
842.7188763234662
 30
0.0
 10
1687.609723562783
 20
842.6956809728647
 30
0.0
 10
1687.625092407697
 20
842.6869677373846
 30
0.0
 10
1687.631713157283
 20
842.6831672101972
 30
0.0
 10
1687.631302941982
 20
842.6834036247668
 30
0.0
 10
1687.631127796276
 20
842.6835045644361
 30
0.0
  0
LINE
  5
245
330
1F
100
AcDbEntity
  8
0
  6
Continuous
 62
     7
370
    35
100
AcDbLine
 10
1687.4425045278
 20
842.7976146581
 30
0.0
 11
1687.3162166903
 21
842.8763162249
 31
0.0
  0
ARC
  5
246
330
1F
100
AcDbEntity
  8
0
  6
Continuous
 62
     7
370
    35
100
AcDbCircle
 10
1746.7786968685
 20
853.5350816169
 30
0.0
 40
13.00000000000011
100
AcDbArc
 50
270.0
 51
360.0
  0
LINE
  5
247
330
1F
100
AcDbEntity
  8
0
  6
Continuous
 62
     7
370
    35
100
AcDbLine
 10
1734.7773964173
 20
840.5350816169
 30
0.0
 11
1746.7786968685
 21
840.5350816169
 31
0.0
  0
SPLINE
  5
248
330
1F
100
AcDbEntity
  8
0
  6
Continuous
 62
     7
370
    35
100
AcDbSpline
210
0.0
220
0.0
230
1.0
 70
     8
 71
     3
 72
    12
 73
     8
 74
     0
 42
0.000000001
 43
0.00000001
 40
0.0
 40
0.0
 40
0.0
 40
0.0
 40
0.0000113964157658
 40
0.0165615426249112
 40
0.2254762501766455
 40
0.6569695733823875
 40
1.0
 40
1.0
 40
1.0
 40
1.0
 10
1747.171324119929
 20
902.9411512215478
 30
0.0
 10
1747.171329311235
 20
902.9411374128928
 30
0.0
 10
1747.178873441468
 20
902.9210703466714
 30
0.0
 10
1747.282930407545
 20
902.6443713677003
 30
0.0
 10
1747.635268200802
 20
901.7081356732509
 30
0.0
 10
1748.215127023331
 20
900.133154626231
 30
0.0
 10
1748.649909084837
 20
898.8813902714562
 30
0.0
 10
1748.842470611941
 20
898.3269937655504
 30
0.0
  0
SPLINE
  5
249
330
1F
100
AcDbEntity
  8
0
  6
Continuous
 62
     7
370
    35
100
AcDbSpline
210
0.0
220
0.0
230
1.0
 70
     8
 71
     3
 72
    15
 73
    11
 74
     0
 42
0.000000001
 43
0.00000001
 40
0.0
 40
0.0
 40
0.0
 40
0.0
 40
0.1214527241786875
 40
0.2436356162157024
 40
0.3679634748124442
 40
0.492999645184968
 40
0.6185865433805121
 40
0.7450337263104021
 40
0.8719902588119044
 40
1.0
 40
1.0
 40
1.0
 40
1.0
 10
1752.017050917135
 20
887.5480433504721
 30
0.0
 10
1752.348497115393
 20
886.0746565955312
 30
0.0
 10
1753.013382150299
 20
883.1190251562897
 30
0.0
 10
1753.578087129348
 20
878.5740711620546
 30
0.0
 10
1753.839701809276
 20
873.9603399542638
 30
0.0
 10
1753.745735370605
 20
869.2962319750665
 30
0.0
 10
1753.282585788289
 20
864.6272123257445
 30
0.0
 10
1752.421111302966
 20
859.9921877765131
 30
0.0
 10
1751.180917681246
 20
855.406681326205
 30
0.0
 10
1750.00202778893
 20
852.4626523013849
 30
0.0
 10
1749.410147977452
 20
850.9845572260485
 30
0.0
  0
SPLINE
  5
24A
330
1F
100
AcDbEntity
  8
0
  6
Continuous
 62
     7
370
    35
100
AcDbSpline
210
0.0
220
0.0
230
1.0
 70
    24
 71
     3
 72
    10
 73
     6
 74
     0
 42
0.000000001
 43
0.00000001
 40
0.0
 40
0.0
 40
0.0
 40
0.0
 40
0.1892744005187955
 40
0.5530594203474112
 40
1.0
 40
1.0
 40
1.0
 40
1.0
 10
1715.278696868533
 20
880.3137335435312
 30
0.0
 10
1715.278696868533
 20
879.7834802846983
 30
0.0
 10
1715.278696868533
 20
878.2340813212699
 30
0.0
 10
1715.278696868533
 20
875.4217401668528
 30
0.0
 10
1715.278696868533
 20
873.1511320041593
 30
0.0
 10
1715.278696868533
 20
871.8993805742706
 30
0.0
  0
SPLINE
  5
24B
330
1F
100
AcDbEntity
  8
0
  6
Continuous
 62
     7
370
    35
100
AcDbSpline
210
0.0
220
0.0
230
1.0
 70
    24
 71
     3
 72
    10
 73
     6
 74
     0
 42
0.000000001
 43
0.00000001
 40
0.0
 40
0.0
 40
0.0
 40
0.0
 40
0.3006654806480866
 40
0.6482485604421763
 40
1.0
 40
1.0
 40
1.0
 40
1.0
 10
1715.278696868533
 20
868.08468161689
 30
0.0
 10
1715.278696868533
 20
866.0798998382154
 30
0.0
 10
1715.278696868533
 20
861.7574984131321
 30
0.0
 10
1715.278696868533
 20
855.2696373114002
 30
0.0
 10
1715.278696868533
 20
850.9791290084398
 30
0.0
 10
1715.278696868533
 20
848.8210881421033
 30
0.0
  0
SPLINE
  5
24C
330
1F
100
AcDbEntity
  8
0
  6
Continuous
 62
     7
370
    35
100
AcDbSpline
210
0.0
220
0.0
230
1.0
 70
    24
 71
     3
 72
    13
 73
     9
 74
     0
 42
0.000000001
 43
0.00000001
 40
0.0
 40
0.0
 40
0.0
 40
0.0
 40
0.3691963150658392
 40
0.7482499823834033
 40
0.8262738878666137
 40
0.9040766895823272
 40
0.9808985752244052
 40
1.0
 40
1.0
 40
1.0
 40
1.0
 10
1743.778696868532
 20
910.9850816168899
 30
0.0
 10
1743.790523290486
 20
910.98508161689
 30
0.0
 10
1743.814491893794
 20
910.98508161689
 30
0.0
 10
1743.680057356791
 20
910.9850816168897
 30
0.0
 10
1743.844258680518
 20
910.98508161689
 30
0.0
 10
1743.529239980883
 20
910.9850816168895
 30
0.0
 10
1742.729204048835
 20
910.9850816168896
 30
0.0
 10
1741.867605890864
 20
910.9850816168899
 30
0.0
 10
1741.696033909772
 20
910.9850816168899
 30
0.0
  0
SPLINE
  5
24D
330
1F
100
AcDbEntity
  8
0
  6
Continuous
 62
     7
370
    35
100
AcDbSpline
210
0.0
220
0.0
230
1.0
 70
     8
 71
     3
 72
    12
 73
     8
 74
     0
 42
0.000000001
 43
0.00000001
 40
0.0
 40
0.0
 40
0.0
 40
0.0
 40
0.000011396415745
 40
0.0165615426248907
 40
0.2254762501766299
 40
0.6569695733823796
 40
1.0
 40
1.0
 40
1.0
 40
1.0
 10
1683.386069617136
 20
902.9411512215474
 30
0.0
 10
1683.38606442583
 20
902.9411374128923
 30
0.0
 10
1683.378520295587
 20
902.9210703466416
 30
0.0
 10
1683.274463329574
 20
902.6443713678826
 30
0.0
 10
1682.922125536212
 20
901.7081356730788
 30
0.0
 10
1682.342266713746
 20
900.1331546262725
 30
0.0
 10
1681.907484652231
 20
898.8813902714686
 30
0.0
 10
1681.714923125123
 20
898.32699376555
 30
0.0
  0
SPLINE
  5
24E
330
1F
100
AcDbEntity
  8
0
  6
Continuous
 62
     7
370
    35
100
AcDbSpline
210
0.0
220
0.0
230
1.0
 70
     8
 71
     3
 72
     9
 73
     5
 74
     0
 42
0.000000001
 43
0.00000001
 40
0.0
 40
0.0
 40
0.0
 40
0.0
 40
0.1562903953757517
 40
1.0
 40
1.0
 40
1.0
 40
1.0
 10
1683.395365403887
 20
903.2607519199158
 30
0.0
 10
1683.401160757752
 20
903.2727449580748
 30
0.0
 10
1683.438241436003
 20
903.349480563805
 30
0.0
 10
1683.444142053138
 20
903.3550544411381
 30
0.0
 10
1683.449120460489
 20
903.3597571749791
 30
0.0
  0
SPLINE
  5
24F
330
1F
100
AcDbEntity
  8
0
  6
Continuous
 62
     7
370
    35
100
AcDbSpline
210
0.0
220
0.0
230
1.0
 70
     8
 71
     3
 72
    11
 73
     7
 74
     0
 42
0.000000001
 43
0.00000001
 40
0.0
 40
0.0
 40
0.0
 40
0.0
 40
0.0402999249199211
 40
0.2187640754556674
 40
0.4992077406767209
 40
1.0
 40
1.0
 40
1.0
 40
1.0
 10
1686.758045763243
 20
906.8780367249893
 30
0.0
 10
1686.765621589542
 20
906.9327509733498
 30
0.0
 10
1686.806746198075
 20
907.2297617489443
 30
0.0
 10
1686.760968164707
 20
907.9162659195796
 30
0.0
 10
1686.788800002431
 20
909.2287807568507
 30
0.0
 10
1686.782643405211
 20
910.2990265934371
 30
0.0
 10
1686.778696868532
 20
910.9850816168899
 30
0.0
  0
SPLINE
  5
250
330
1F
100
AcDbEntity
  8
0
  6
Continuous
 62
     7
370
    35
100
AcDbSpline
210
0.0
220
0.0
230
1.0
 70
    24
 71
     3
 72
    13
 73
     9
 74
     0
 42
0.000000001
 43
0.00000001
 40
0.0
 40
0.0
 40
0.0
 40
0.0
 40
0.3699056295798874
 40
0.749687549745219
 40
0.827861357831309
 40
0.9058136373566283
 40
0.9827831162336835
 40
1.0
 40
1.0
 40
1.0
 40
1.0
 10
1686.778696868532
 20
910.9850816168899
 30
0.0
 10
1686.766792641199
 20
910.98508161689
 30
0.0
 10
1686.742666349771
 20
910.98508161689
 30
0.0
 10
1686.8779854898
 20
910.9850816168902
 30
0.0
 10
1686.712703935071
 20
910.9850816168905
 30
0.0
 10
1687.029822801641
 20
910.9850816168895
 30
0.0
 10
1687.815215287714
 20
910.9850816168896
 30
0.0
 10
1688.657410051993
 20
910.9850816168899
 30
0.0
 10
1688.811359827292
 20
910.9850816168899
 30
0.0
  0
SPLINE
  5
251
330
1F
100
AcDbEntity
  8
0
  6
Continuous
 62
     7
370
    35
100
AcDbSpline
210
0.0
220
0.0
230
1.0
 70
     8
 71
     3
 72
    15
 73
    11
 74
     0
 42
0.000000001
 43
0.00000001
 40
0.0
 40
0.0
 40
0.0
 40
0.0
 40
0.1214527241786881
 40
0.243635616215703
 40
0.3679634748124446
 40
0.4929996451849684
 40
0.6185865433805126
 40
0.7450337263104027
 40
0.871990258811905
 40
1.0
 40
1.0
 40
1.0
 40
1.0
 10
1678.540342819929
 20
887.5480433504716
 30
0.0
 10
1678.208896621671
 20
886.0746565955307
 30
0.0
 10
1677.544011586765
 20
883.1190251562891
 30
0.0
 10
1676.979306607716
 20
878.5740711620542
 30
0.0
 10
1676.717691927789
 20
873.9603399542634
 30
0.0
 10
1676.811658366459
 20
869.296231975066
 30
0.0
 10
1677.274807948776
 20
864.6272123257439
 30
0.0
 10
1678.136282434098
 20
859.9921877765127
 30
0.0
 10
1679.376476055818
 20
855.4066813262045
 30
0.0
 10
1680.555365948134
 20
852.4626523013845
 30
0.0
 10
1681.147245759612
 20
850.9845572260481
 30
0.0
  0
LINE
  5
252
330
1F
100
AcDbEntity
  8
0
  6
Continuous
 62
     7
370
    35
100
AcDbLine
 10
1688.2032842417
 20
842.4321931586
 30
0.0
 11
1687.6878466015
 21
842.6507112
 31
0.0
  0
SPLINE
  5
253
330
1F
100
AcDbEntity
  8
0
  6
Continuous
 62
     7
370
    35
100
AcDbSpline
210
0.0
220
0.0
230
1.0
 70
    24
 71
     3
 72
    14
 73
    10
 74
     0
 42
0.000000001
 43
0.00000001
 40
0.0
 40
0.0
 40
0.0
 40
0.0
 40
0.1497838616746357
 40
0.3039198677007078
 40
0.4537011775423317
 40
0.6078081864720632
 40
0.757933700022959
 40
0.9123691506710973
 40
1.0
 40
1.0
 40
1.0
 40
1.0
 10
1715.278696868533
 20
848.8210881421033
 30
0.0
 10
1715.278696868533
 20
848.0959736292623
 30
0.0
 10
1715.278696868533
 20
846.6246755578508
 30
0.0
 10
1715.278696868533
 20
844.7302367611007
 30
0.0
 10
1715.278696868533
 20
843.1137576321562
 30
0.0
 10
1715.278696868533
 20
841.863685975461
 30
0.0
 10
1715.278696868533
 20
840.9957883651781
 30
0.0
 10
1715.278696868533
 20
840.5876669513676
 30
0.0
 10
1715.278696868533
 20
840.5490583756588
 30
0.0
 10
1715.278696868533
 20
840.5350816168902
 30
0.0
  0
SPLINE
  5
254
330
1F
100
AcDbEntity
  8
0
  6
Continuous
 62
     7
370
    35
100
AcDbSpline
210
0.0
220
0.0
230
1.0
 70
    24
 71
     3
 72
    18
 73
    14
 74
     0
 42
0.000000001
 43
0.00000001
 40
0.0
 40
0.0
 40
0.0
 40
0.0
 40
0.0528858667102716
 40
0.1296739535442368
 40
0.208826484131016
 40
0.2780198271463029
 40
0.3488116530585394
 40
0.4119722453844792
 40
0.4765946606108403
 40
0.5395794985730131
 40
0.6046207084834375
 40
0.8595628981179398
 40
0.9999999999999999
 40
0.9999999999999999
 40
0.9999999999999999
 40
0.9999999999999999
 10
1715.278696868533
 20
840.5350816168902
 30
0.0
 10
1714.391602159815
 20
840.5350816168902
 30
0.0
 10
1712.216482695901
 20
840.5350816168902
 30
0.0
 10
1708.852887017492
 20
840.5350816168902
 30
0.0
 10
1705.490919424461
 20
840.5350816168902
 30
0.0
 10
1702.55181719288
 20
840.5350816168902
 30
0.0
 10
1700.175471552704
 20
840.5350816168902
 30
0.0
 10
1698.240577621036
 20
840.5350816168902
 30
0.0
 10
1696.814518174599
 20
840.5350816168902
 30
0.0
 10
1695.849166548731
 20
840.5350816168902
 30
0.0
 10
1695.372566724851
 20
840.5350816168904
 30
0.0
 10
1695.363417447302
 20
840.5350816168897
 30
0.0
 10
1695.369460693821
 20
840.5350816168898
 30
0.0
 10
1695.371607230185
 20
840.5350816168898
 30
0.0
  0
SPLINE
  5
255
330
1F
100
AcDbEntity
  8
0
  6
Continuous
 62
     7
370
    35
100
AcDbSpline
210
0.0
220
0.0
230
1.0
 70
     8
 71
     3
 72
     9
 73
     5
 74
     0
 42
0.000000001
 43
0.00000001
 40
0.0
 40
0.0
 40
0.0
 40
0.0
 40
0.4409399550876332
 40
0.9999999999999999
 40
0.9999999999999999
 40
0.9999999999999999
 40
0.9999999999999999
 10
1687.316981213235
 20
842.8774246913047
 30
0.0
 10
1687.244514389151
 20
842.9227499169154
 30
0.0
 10
1687.080168148246
 20
843.0255422020958
 30
0.0
 10
1686.895945943792
 20
843.1525523357551
 30
0.0
 10
1686.792954669897
 20
843.223558626783
 30
0.0
  0
LINE
  5
256
330
1F
100
AcDbEntity
  8
0
  6
Continuous
 62
     7
370
    35
100
AcDbLine
 10
1742.3541094953
 20
842.4321931586
 30
0.0
 11
1742.8695471356
 21
842.6507112
 31
0.0
  0
SPLINE
  5
257
330
1F
100
AcDbEntity
  8
0
  6
Continuous
 62
     7
370
    35
100
AcDbSpline
210
0.0
220
0.0
230
1.0
 70
     8
 71
     3
 72
    10
 73
     6
 74
     0
 42
0.000000001
 43
0.00000001
 40
0.0
 40
0.0
 40
0.0
 40
0.0
 40
0.3651912706401533
 40
0.9388408861861212
 40
0.9999999999999999
 40
0.9999999999999999
 40
0.9999999999999999
 40
0.9999999999999999
 10
1743.249603733446
 20
842.8832686315077
 30
0.0
 10
1743.319108060699
 20
842.9271547031116
 30
0.0
 10
1743.497791149365
 20
843.0399778773442
 30
0.0
 10
1743.71318049958
 20
843.1825519510868
 30
0.0
 10
1743.847010984438
 20
843.2809625851543
 30
0.0
 10
1743.859904559269
 20
843.2904437200079
 30
0.0
  0
SPLINE
  5
258
330
1F
100
AcDbEntity
  8
0
  6
Continuous
 62
     7
370
    35
100
AcDbSpline
210
0.0
220
0.0
230
1.0
 70
    24
 71
     3
 72
    18
 73
    14
 74
     0
 42
0.000000001
 43
0.00000001
 40
0.0
 40
0.0
 40
0.0
 40
0.0
 40
0.0528900501225401
 40
0.1308503043354557
 40
0.2088349706568608
 40
0.2788361590001492
 40
0.3488290097785934
 40
0.4127449371310146
 40
0.4766197031471546
 40
0.5405641088728295
 40
0.6045882679846452
 40
0.8596063559737126
 40
1.0
 40
1.0
 40
1.0
 40
1.0
 10
1715.278696868533
 20
840.5350816168902
 30
0.0
 10
1716.165850814473
 20
840.5350816168902
 30
0.0
 10
1718.360675049839
 20
840.5350816168902
 30
0.0
 10
1721.721387583086
 20
840.5350816168902
 30
0.0
 10
1725.09488725054
 20
840.5350816168902
 30
0.0
 10
1728.014590974189
 20
840.5350816168902
 30
0.0
 10
1730.399798064337
 20
840.5350816168902
 30
0.0
 10
1732.319829127966
 20
840.5350816168902
 30
0.0
 10
1733.762627477432
 20
840.5350816168902
 30
0.0
 10
1734.679533024855
 20
840.5350816168902
 30
0.0
 10
1735.221707038387
 20
840.5350816168902
 30
0.0
 10
1735.191976121069
 20
840.5350816168901
 30
0.0
 10
1735.18849785932
 20
840.5350816168899
 30
0.0
 10
1735.18726287866
 20
840.5350816168899
 30
0.0
  0
SPLINE
  5
259
330
1F
100
AcDbEntity
  8
0
  6
Continuous
 62
     7
370
    35
100
AcDbSpline
210
0.0
220
0.0
230
1.0
 70
     8
 71
     3
 72
    14
 73
    10
 74
     0
 42
0.000000001
 43
0.00000001
 40
0.0
 40
0.0
 40
0.0
 40
0.0
 40
0.1296971135924894
 40
0.260367622165083
 40
0.3857762422390049
 40
0.511184851083585
 40
0.6402379667715732
 40
0.7692907819815495
 40
1.0
 40
1.0
 40
1.0
 40
1.0
 10
1750.598811757978
 20
850.4753538366497
 30
0.0
 10
1751.213113248294
 20
852.0094078982132
 30
0.0
 10
1752.446326647541
 20
855.0890293116622
 30
0.0
 10
1753.766911792868
 20
859.8301740186184
 30
0.0
 10
1754.697218712664
 20
864.6018124822813
 30
0.0
 10
1755.222788794724
 20
869.4168698347212
 30
0.0
 10
1755.332163979518
 20
874.3028174993441
 30
0.0
 10
1754.987433159227
 20
880.5317049883819
 30
0.0
 10
1754.009020253981
 20
885.0167388182666
 30
0.0
 10
1753.381580848431
 20
887.8929140455228
 30
0.0
  0
SPLINE
  5
25A
330
1F
100
AcDbEntity
  8
0
  6
Continuous
 62
     7
370
    35
100
AcDbSpline
210
0.0
220
0.0
230
1.0
 70
     8
 71
     3
 72
    14
 73
    10
 74
     0
 42
0.000000001
 43
0.00000001
 40
0.0
 40
0.0
 40
0.0
 40
0.0
 40
0.12969690086605
 40
0.2603671951156623
 40
0.3853421446376495
 40
0.5111847557259608
 40
0.6397642884787725
 40
0.7692911603858877
 40
1.0
 40
1.0
 40
1.0
 40
1.0
 10
1679.958581979086
 20
850.4753538366492
 30
0.0
 10
1679.344265256424
 20
852.009404820597
 30
0.0
 10
1678.111021278164
 20
855.0890200557168
 30
0.0
 10
1676.79214727049
 20
859.8248834470853
 30
0.0
 10
1675.860371979395
 20
864.59622251851
 30
0.0
 10
1675.335717781637
 20
869.4053692059676
 30
0.0
 10
1675.224406803485
 20
874.2967494608664
 30
0.0
 10
1675.569076382028
 20
880.5257758728835
 30
0.0
 10
1676.548531844596
 20
885.016732353313
 30
0.0
 10
1677.175812888633
 20
887.8929140455225
 30
0.0
  0
SPLINE
  5
25B
330
1F
100
AcDbEntity
  8
0
  6
Continuous
 62
     7
370
    35
100
AcDbSpline
210
0.0
220
0.0
230
1.0
 70
     8
 71
     3
 72
    10
 73
     6
 74
     0
 42
0.000000001
 43
0.00000001
 40
0.0
 40
0.0
 40
0.0
 40
0.0
 40
0.342281233604574
 40
0.6664353245308601
 40
1.0
 40
1.0
 40
1.0
 40
1.0
 10
1743.859904559269
 20
843.290443720008
 30
0.0
 10
1744.624805183326
 20
843.6933576979853
 30
0.0
 10
1746.114097454066
 20
844.4778474137773
 30
0.0
 10
1747.975064413607
 20
846.2565273385972
 30
0.0
 10
1748.951912318707
 20
847.6155082122706
 30
0.0
 10
1749.447324599907
 20
848.3047207408714
 30
0.0
  0
SPLINE
  5
25C
330
1F
100
AcDbEntity
  8
0
  6
Continuous
 62
     7
370
    35
100
AcDbSpline
210
0.0
220
0.0
230
1.0
 70
     8
 71
     3
 72
    10
 73
     6
 74
     0
 42
0.000000001
 43
0.00000001
 40
0.0
 40
0.0
 40
0.0
 40
0.0
 40
0.3422812336046646
 40
0.6664353245309067
 40
1.0
 40
1.0
 40
1.0
 40
1.0
 10
1686.697489177796
 20
843.2904437200073
 30
0.0
 10
1685.932588553739
 20
843.6933576979847
 30
0.0
 10
1684.443296282998
 20
844.4778474137767
 30
0.0
 10
1682.582329323457
 20
846.2565273385966
 30
0.0
 10
1681.605481418356
 20
847.6155082122702
 30
0.0
 10
1681.110069137157
 20
848.3047207408708
 30
0.0
  0
SPLINE
  5
25D
330
1F
100
AcDbEntity
  8
0
  6
Continuous
 62
     7
370
    35
100
AcDbSpline
210
0.0
220
0.0
230
1.0
 70
     8
 71
     3
 72
     9
 73
     5
 74
     0
 42
0.000000001
 43
0.00000001
 40
0.0
 40
0.0
 40
0.0
 40
0.0
 40
0.8536363424240553
 40
1.0
 40
1.0
 40
1.0
 40
1.0
 10
1753.381580848431
 20
887.8929140455228
 30
0.0
 10
1752.509591924876
 20
891.0039949278225
 30
0.0
 10
1751.488092628023
 20
894.6484987143709
 30
0.0
 10
1750.263977171602
 20
898.2286142725764
 30
0.0
 10
1750.084811156105
 20
898.7526130802198
 30
0.0
  0
SPLINE
  5
25E
330
1F
100
AcDbEntity
  8
0
  6
Continuous
 62
     7
370
    35
100
AcDbSpline
210
0.0
220
0.0
230
1.0
 70
     8
 71
     3
 72
     9
 73
     5
 74
     0
 42
0.000000001
 43
0.00000001
 40
0.0
 40
0.0
 40
0.0
 40
0.0
 40
0.8536363424240557
 40
1.0
 40
1.0
 40
1.0
 40
1.0
 10
1677.175812888633
 20
887.8929140455225
 30
0.0
 10
1678.047801812188
 20
891.0039949278222
 30
0.0
 10
1679.069301109042
 20
894.6484987143705
 30
0.0
 10
1680.293416565463
 20
898.2286142725758
 30
0.0
 10
1680.47258258096
 20
898.7526130802194
 30
0.0
  0
SPLINE
  5
25F
330
1F
100
AcDbEntity
  8
0
  6
Continuous
 62
     7
370
    35
100
AcDbSpline
210
0.0
220
0.0
230
1.0
 70
     8
 71
     3
 72
     9
 73
     5
 74
     0
 42
0.000000001
 43
0.00000001
 40
0.0
 40
0.0
 40
0.0
 40
0.0
 40
0.6310361367051674
 40
1.0
 40
1.0
 40
1.0
 40
1.0
 10
1750.084811156105
 20
898.7526130802198
 30
0.0
 10
1749.677029559533
 20
899.6890944583038
 30
0.0
 10
1749.030819979996
 20
901.1731320967402
 30
0.0
 10
1747.927955006088
 20
902.3173040536991
 30
0.0
 10
1747.521037684621
 20
902.7394621592123
 30
0.0
  0
SPLINE
  5
260
330
1F
100
AcDbEntity
  8
0
  6
Continuous
 62
     7
370
    35
100
AcDbSpline
210
0.0
220
0.0
230
1.0
 70
     8
 71
     3
 72
     9
 73
     5
 74
     0
 42
0.000000001
 43
0.00000001
 40
0.0
 40
0.0
 40
0.0
 40
0.0
 40
0.6310361367051666
 40
1.0
 40
1.0
 40
1.0
 40
1.0
 10
1680.47258258096
 20
898.7526130802194
 30
0.0
 10
1680.880364177532
 20
899.6890944583033
 30
0.0
 10
1681.526573757068
 20
901.1731320967397
 30
0.0
 10
1682.629438730977
 20
902.3173040536988
 30
0.0
 10
1683.036356052443
 20
902.7394621592119
 30
0.0
  0
LINE
  5
261
330
1F
100
AcDbEntity
  8
0
  6
Continuous
 62
     7
370
    35
100
AcDbLine
 10
1749.4473245999
 20
848.3047207409
 30
0.0
 11
1750.598811758
 21
850.4753538366
 31
0.0
  0
LINE
  5
262
330
1F
100
AcDbEntity
  8
0
  6
Continuous
 62
     7
370
    35
100
AcDbLine
 10
1681.1100691372
 20
848.3047207409
 30
0.0
 11
1679.9585819791
 21
850.4753538366
 31
0.0
  0
LINE
  5
263
330
1F
100
AcDbEntity
  8
0
  6
Continuous
 62
     7
370
    35
100
AcDbLine
 10
1743.1407895174
 20
842.7941701737
 30
0.0
 11
1742.6478221747
 21
842.5756521323
 31
0.0
  0
LINE
  5
264
330
1F
100
AcDbEntity
  8
0
  6
Continuous
 62
     7
370
    35
100
AcDbLine
 10
1687.4166042197
 20
842.7941701737
 30
0.0
 11
1687.9095715624
 21
842.5756521323
 31
0.0
  0
LINE
  5
265
330
1F
100
AcDbEntity
  8
0
  6
Continuous
 62
     7
370
    35
100
AcDbLine
 10
1747.5210376846
 20
902.7394621592
 30
0.0
 11
1747.6661068546
 21
902.598752682
 31
0.0
  0
LINE
  5
266
330
1F
100
AcDbEntity
  8
0
  6
Continuous
 62
     7
370
    35
100
AcDbLine
 10
1683.0363560524
 20
902.7394621592
 30
0.0
 11
1682.8912868824
 21
902.598752682
 31
0.0
  0
SPLINE
  5
267
330
1F
100
AcDbEntity
  8
0
  6
Continuous
 62
     7
370
    35
100
AcDbSpline
210
0.0
220
0.0
230
1.0
 70
     8
 71
     3
 72
    21
 73
    17
 74
     0
 42
0.000000001
 43
0.00000001
 40
0.0
 40
0.0
 40
0.0
 40
0.0
 40
0.0385875042305252
 40
0.113755585959751
 40
0.19055841511461
 40
0.2679261122717737
 40
0.3425758673549053
 40
0.4177439138170815
 40
0.4945465859978844
 40
0.5719140750339248
 40
0.6465659329143917
 40
0.7217360672759349
 40
0.7985407486308783
 40
0.8759102056376822
 40
0.9905374157361695
 40
1.0
 40
1.0
 40
1.0
 40
1.0
 10
1752.556590934087
 20
890.6650552176716
 30
0.0
 10
1752.723683582168
 20
890.5842937735118
 30
0.0
 10
1753.21627107833
 20
890.3462098241466
 30
0.0
 10
1753.995274180029
 20
889.8600817209743
 30
0.0
 10
1754.889028205881
 20
889.2131524966821
 30
0.0
 10
1755.719987542158
 20
888.4897585080411
 30
0.0
 10
1756.482119429504
 20
887.7057398892599
 30
0.0
 10
1757.174642050445
 20
886.8629406843828
 30
0.0
 10
1757.801219397678
 20
885.9540669939307
 30
0.0
 10
1758.346616653256
 20
884.9970933493678
 30
0.0
 10
1758.806109275
 20
884.0048032580966
 30
0.0
 10
1759.180676288477
 20
882.9803272490967
 30
0.0
 10
1759.471177422688
 20
881.9151854611106
 30
0.0
 10
1759.70334153418
 20
880.6426063216721
 30
0.0
 10
1759.776504149574
 20
879.6734441695479
 30
0.0
 10
1759.778541507855
 20
879.0768710180091
 30
0.0
 10
1759.778696868532
 20
879.0313787698755
 30
0.0
  0
SPLINE
  5
268
330
1F
100
AcDbEntity
  8
0
  6
Continuous
 62
     7
370
    35
100
AcDbSpline
210
0.0
220
0.0
230
1.0
 70
    24
 71
     3
 72
    20
 73
    16
 74
     0
 42
0.000000001
 43
0.00000001
 40
0.0
 40
0.0
 40
0.0
 40
0.0
 40
0.0031848875244884
 40
0.0996872166702681
 40
0.1961928561586081
 40
0.2929138960264292
 40
0.3894614585497546
 40
0.4531459406897282
 40
0.5167654851003716
 40
0.6214864979190161
 40
0.7268808125404135
 40
0.8182687157727473
 40
0.893962014427049
 40
0.9698304221395909
 40
1.0
 40
1.0
 40
1.0
 40
1.0
 10
1759.778696868532
 20
879.0313787698756
 30
0.0
 10
1759.778696868532
 20
879.0317814167521
 30
0.0
 10
1759.778696868532
 20
879.0443842939685
 30
0.0
 10
1759.778696868532
 20
878.8836466837281
 30
0.0
 10
1759.778696868532
 20
878.1481225028709
 30
0.0
 10
1759.778696868532
 20
876.938478380782
 30
0.0
 10
1759.778696868532
 20
875.4454723529834
 30
0.0
 10
1759.778696868532
 20
873.8176085426495
 30
0.0
 10
1759.778696868532
 20
871.8753556679645
 30
0.0
 10
1759.778696868532
 20
869.207886365613
 30
0.0
 10
1759.778696868532
 20
865.9832877533966
 30
0.0
 10
1759.778696868532
 20
863.2624568370114
 30
0.0
 10
1759.778696868532
 20
861.1116581988489
 30
0.0
 10
1759.778696868532
 20
859.6691386790895
 30
0.0
 10
1759.778696868532
 20
858.8998456082433
 30
0.0
 10
1759.778696868532
 20
858.6809688814459
 30
0.0
  0
SPLINE
  5
269
330
1F
100
AcDbEntity
  8
0
  6
Continuous
 62
     7
370
    35
100
AcDbSpline
210
0.0
220
0.0
230
1.0
 70
    24
 71
     3
 72
    10
 73
     6
 74
     0
 42
0.000000001
 43
0.00000001
 40
0.0
 40
0.0
 40
0.0
 40
0.0
 40
0.2479681796226286
 40
0.4972688069878486
 40
1.0
 40
1.0
 40
1.0
 40
1.0
 10
1759.778696868532
 20
858.6809688814459
 30
0.0
 10
1759.778696868532
 20
858.3744743114836
 30
0.0
 10
1759.778696868532
 20
857.7598382344459
 30
0.0
 10
1759.778696868532
 20
856.6537680163427
 30
0.0
 10
1759.778696868532
 20
855.8963169480631
 30
0.0
 10
1759.778696868532
 20
855.3899630028092
 30
0.0
  0
LINE
  5
26A
330
1F
100
AcDbEntity
  8
0
  6
Continuous
 62
     7
370
    35
100
AcDbLine
 10
1759.7786968685
 20
855.3899630028
 30
0.0
 11
1759.7786968685
 21
853.5350816169
 31
0.0
  0
LINE
  5
26B
330
1F
100
AcDbEntity
  8
0
  6
Continuous
 62
     7
370
    35
100
AcDbLine
 10
1750.2786968685
 20
933.9846816169
 30
0.0
 11
1665.7786968685
 21
933.9846816169
 31
0.0
  0
LINE
  5
26C
330
1F
100
AcDbEntity
  8
0
  6
Continuous
 62
     7
370
    35
100
AcDbLine
 10
1750.2786968685
 20
933.9846816169
 30
0.0
 11
1750.2786968685
 21
932.9846816169
 31
0.0
  0
LINE
  5
26D
330
1F
100
AcDbEntity
  8
0
  6
Continuous
 62
     7
370
    35
100
AcDbLine
 10
1665.7786968685
 20
932.9846816169
 30
0.0
 11
1665.7786968685
 21
933.9846816169
 31
0.0
  0
LINE
  5
26E
330
1F
100
AcDbEntity
  8
0
  6
Continuous
 62
     7
370
    35
100
AcDbLine
 10
1665.7786968685
 20
922.9846816169
 30
0.0
 11
1665.7786968685
 21
932.9846816169
 31
0.0
  0
LINE
  5
26F
330
1F
100
AcDbEntity
  8
0
  6
Continuous
 62
     7
370
    35
100
AcDbLine
 10
1682.3786968685
 20
915.2588221385
 30
0.0
 11
1682.3786968685
 21
920.9846816169
 31
0.0
  0
LINE
  5
270
330
1F
100
AcDbEntity
  8
0
  6
Continuous
 62
     7
370
    35
100
AcDbLine
 10
1699.098933392
 20
906.1879072798
 30
0.0
 11
1683.5334603451
 21
913.4462065644
 31
0.0
  0
ARC
  5
271
330
1F
100
AcDbEntity
  8
0
  6
Continuous
 62
     7
370
    35
100
AcDbCircle
 10
1702.2536968685
 20
870.0846816169
 30
0.0
 40
2.000000000000114
100
AcDbArc
 50
180.0
 51
270.0
  0
ARC
  5
272
330
1F
100
AcDbEntity
  8
0
  6
Continuous
 62
     7
370
    35
100
AcDbCircle
 10
1698.2536968685
 20
904.3752917058
 30
0.0
 40
2.000000000000227
100
AcDbArc
 50
0.0
 51
65.0
  0
ARC
  5
273
330
1F
100
AcDbEntity
  8
0
  6
Continuous
 62
     7
370
    35
100
AcDbCircle
 10
1684.3786968685
 20
915.2588221385
 30
0.0
 40
2.0
100
AcDbArc
 50
180.0
 51
245.0
  0
ARC
  5
274
330
1F
100
AcDbEntity
  8
0
  6
Continuous
 62
     7
370
    35
100
AcDbCircle
 10
1666.7786968685
 20
922.9846816169
 30
0.0
 40
1.000000000000227
100
AcDbArc
 50
180.0
 51
270.0
  0
LINE
  5
275
330
1F
100
AcDbEntity
  8
0
  6
Continuous
 62
     7
370
    35
100
AcDbLine
 10
1729.2536968685
 20
898.0846816169
 30
0.0
 11
1729.2536968685
 21
888.0846816169
 31
0.0
  0
ARC
  5
276
330
1F
100
AcDbEntity
  8
0
  6
Continuous
 62
     7
370
    35
100
AcDbCircle
 10
1722.7536968685
 20
888.0846816169
 30
0.0
 40
6.500000000000227
100
AcDbArc
 50
180.0
 51
0.0
  0
LINE
  5
277
330
1F
100
AcDbEntity
  8
0
  6
Continuous
 62
     7
370
    35
100
AcDbLine
 10
1716.2536968685
 20
888.0846816169
 30
0.0
 11
1716.2536968685
 21
898.0846816169
 31
0.0
  0
LINE
  5
278
330
1F
100
AcDbEntity
  8
0
  6
Continuous
 62
     7
370
    35
100
AcDbLine
 10
1750.2786968685
 20
932.9846816169
 30
0.0
 11
1750.2786968685
 21
921.9846816169
 31
0.0
  0
LINE
  5
279
330
1F
100
AcDbEntity
  8
0
  6
Continuous
 62
     7
370
    35
100
AcDbLine
 10
1714.2536968685
 20
898.0846816169
 30
0.0
 11
1714.2536968685
 21
888.0846816169
 31
0.0
  0
LINE
  5
27A
330
1F
100
AcDbEntity
  8
0
  6
Continuous
 62
     7
370
    35
100
AcDbLine
 10
1748.1286968685
 20
920.9846816169
 30
0.0
 11
1748.1286968685
 21
915.2588221385
 31
0.0
  0
LINE
  5
27B
330
1F
100
AcDbEntity
  8
0
  6
Continuous
 62
     7
370
    35
100
AcDbLine
 10
1746.973933392
 20
913.4462065644
 30
0.0
 11
1731.4084603451
 21
906.1879072798
 31
0.0
  0
LINE
  5
27C
330
1F
100
AcDbEntity
  8
0
  6
Continuous
 62
     7
370
    35
100
AcDbLine
 10
1730.2536968685
 20
904.3752917058
 30
0.0
 11
1730.2536968685
 21
870.0846816169
 31
0.0
  0
LINE
  5
27D
330
1F
100
AcDbEntity
  8
0
  6
Continuous
 62
     7
370
    35
100
AcDbLine
 10
1728.2536968685
 20
868.0846816169
 30
0.0
 11
1702.2536968685
 21
868.0846816169
 31
0.0
  0
LINE
  5
27E
330
1F
100
AcDbEntity
  8
0
  6
Continuous
 62
     7
370
    35
100
AcDbLine
 10
1700.2536968685
 20
870.0846816169
 30
0.0
 11
1700.2536968685
 21
904.3752917058
 31
0.0
  0
ARC
  5
27F
330
1F
100
AcDbEntity
  8
0
  6
Continuous
 62
     7
370
    35
100
AcDbCircle
 10
1728.2536968685
 20
870.0846816169
 30
0.0
 40
2.000000000000114
100
AcDbArc
 50
270.0
 51
0.0
  0
ARC
  5
280
330
1F
100
AcDbEntity
  8
0
  6
Continuous
 62
     7
370
    35
100
AcDbCircle
 10
1722.7536968685
 20
898.0846816169
 30
0.0
 40
6.500000000000227
100
AcDbArc
 50
0.0
 51
180.0
  0
ARC
  5
281
330
1F
100
AcDbEntity
  8
0
  6
Continuous
 62
     7
370
    35
100
AcDbCircle
 10
1707.7536968685
 20
888.0846816169
 30
0.0
 40
6.500000000000227
100
AcDbArc
 50
180.0
 51
0.0
  0
CIRCLE
  5
282
330
1F
100
AcDbEntity
  8
0
  6
Continuous
 62
     7
370
    35
100
AcDbCircle
 10
1715.2536968685
 20
876.0846816169
 30
0.0
 40
4.250000000000227
  0
LINE
  5
283
330
1F
100
AcDbEntity
  8
0
  6
Continuous
 62
     7
370
    35
100
AcDbLine
 10
1701.2536968685
 20
888.0846816169
 30
0.0
 11
1701.2536968685
 21
898.0846816169
 31
0.0
  0
ARC
  5
284
330
1F
100
AcDbEntity
  8
0
  6
Continuous
 62
     7
370
    35
100
AcDbCircle
 10
1746.1286968685
 20
915.2588221385
 30
0.0
 40
2.000000000000227
100
AcDbArc
 50
295.0
 51
0.0
  0
ARC
  5
285
330
1F
100
AcDbEntity
  8
0
  6
Continuous
 62
     7
370
    35
100
AcDbCircle
 10
1732.2536968685
 20
904.3752917058
 30
0.0
 40
2.0
100
AcDbArc
 50
115.0
 51
180.0
  0
ARC
  5
286
330
1F
100
AcDbEntity
  8
0
  6
Continuous
 62
     7
370
    35
100
AcDbCircle
 10
1707.7536968685
 20
898.0846816169
 30
0.0
 40
6.500000000000227
100
AcDbArc
 50
0.0
 51
180.0
  0
LINE
  5
287
330
1F
100
AcDbEntity
  8
0
  6
Continuous
 62
     7
370
    35
100
AcDbLine
 10
1664.7536968685
 20
954.4846816169
 30
0.0
 11
1664.7536968685
 21
922.9846816169
 31
0.0
  0
LINE
  5
288
330
1F
100
AcDbEntity
  8
0
  6
Continuous
 62
     7
370
    35
100
AcDbLine
 10
1665.7536968685
 20
954.4846816169
 30
0.0
 11
1665.7536968685
 21
922.9846816169
 31
0.0
  0
LINE
  5
289
330
1F
100
AcDbEntity
  8
0
  6
Continuous
 62
     7
370
    35
100
AcDbLine
 10
1664.7536968685
 20
964.4846816169
 30
0.0
 11
1665.7536968685
 21
964.4846816169
 31
0.0
  0
LINE
  5
28A
330
1F
100
AcDbEntity
  8
0
  6
Continuous
 62
     7
370
    35
100
AcDbLine
 10
1665.7536968685
 20
964.4846816169
 30
0.0
 11
1665.7536968685
 21
954.4846816169
 31
0.0
  0
LINE
  5
28B
330
1F
100
AcDbEntity
  8
0
  6
Continuous
 62
     7
370
    35
100
AcDbLine
 10
1664.7536968685
 20
954.4846816169
 30
0.0
 11
1664.7536968685
 21
964.4846816169
 31
0.0
  0
ARC
  5
28C
330
1F
100
AcDbEntity
  8
0
  6
Continuous
 62
     7
370
    35
100
AcDbCircle
 10
1666.7536968685
 20
922.9846816169
 30
0.0
 40
2.0
100
AcDbArc
 50
180.0
 51
270.0
  0
ARC
  5
28D
330
1F
100
AcDbEntity
  8
0
  6
Continuous
 62
     7
370
    35
100
AcDbCircle
 10
1666.7536968685
 20
922.9846816169
 30
0.0
 40
0.9999999999998863
100
AcDbArc
 50
180.0
 51
270.0
  0
LINE
  5
28E
330
1F
100
AcDbEntity
  8
0
  6
Continuous
 62
     7
370
    35
100
AcDbLine
 10
1780.7536968685
 20
921.9846816169
 30
0.0
 11
1780.7536968685
 21
920.9846816169
 31
0.0
  0
LINE
  5
28F
330
1F
100
AcDbEntity
  8
0
  6
Continuous
 62
     7
370
    35
100
AcDbLine
 10
1780.7536968685
 20
920.9846816169
 30
0.0
 11
1770.7536968685
 21
920.9846816169
 31
0.0
  0
LINE
  5
290
330
1F
100
AcDbEntity
  8
0
  6
Continuous
 62
     7
370
    35
100
AcDbLine
 10
1770.7536968685
 20
921.9846816169
 30
0.0
 11
1780.7536968685
 21
921.9846816169
 31
0.0
  0
LINE
  5
291
330
1F
100
AcDbEntity
  8
0
  6
Continuous
 62
     7
370
    35
100
AcDbLine
 10
1770.7536968685
 20
920.9846816169
 30
0.0
 11
1666.7536968685
 21
920.9846816169
 31
0.0
  0
LINE
  5
292
330
1F
100
AcDbEntity
  8
0
  6
Continuous
 62
     7
370
    35
100
AcDbLine
 10
1770.7536968685
 20
921.9846816169
 30
0.0
 11
1666.7536968685
 21
921.9846816169
 31
0.0
  0
LINE
  5
293
330
1F
100
AcDbEntity
  8
0
  6
Continuous
 62
     7
370
    35
100
AcDbLine
 10
1682.2786968685
 20
920.9846816169
 30
0.0
 11
1682.2786968685
 21
919.6466001062
 31
0.0
  0
LWPOLYLINE
  5
294
330
1F
100
AcDbEntity
  8
0
  6
Continuous
 62
     7
370
    35
100
AcDbPolyline
 90
        3
 70
   128
 43
0.0
 10
1682.2786968685
 20
919.6466001062
 10
1682.3144091016
 20
919.2703374736
 10
1682.3786968685
 20
919.0221003063
  0
LINE
  5
295
330
1F
100
AcDbEntity
  8
0
  6
Continuous
 62
     7
370
    35
100
AcDbLine
 10
1748.2786968685
 20
919.6466001062
 30
0.0
 11
1748.2786968685
 21
920.9846816169
 31
0.0
  0
ARC
  5
296
330
1F
100
AcDbEntity
  8
0
  6
Continuous
 62
     7
370
    35
100
AcDbCircle
 10
1751.2786968685
 20
922.9846816169
 30
0.0
 40
1.000000000000227
100
AcDbArc
 50
180.0
 51
270.0
  0
ARC
  5
297
330
1F
100
AcDbEntity
  8
0
  6
Continuous
 62
     7
370
    35
100
AcDbCircle
 10
1746.2786968685
 20
919.6466001062
 30
0.0
 40
1.999999999999859
100
AcDbArc
 50
337.6683549908
 51
0.0
  0
ARC
  5
298
330
1F
100
AcDbEntity
  8
0
  6
Continuous
 62
     7
370
    35
100
AcDbCircle
 10
1666.7786968685
 20
934.9846816169
 30
0.0
 40
0.9999999999998863
100
AcDbArc
 50
180.0
 51
270.0
  0
LINE
  5
299
330
1F
100
AcDbEntity
  8
0
  6
Continuous
 62
     7
370
    35
100
AcDbLine
 10
1665.7536968685
 20
964.4846816169
 30
0.0
 11
1665.7786968685
 21
964.4846816169
 31
0.0
  0
LINE
  5
29A
330
1F
100
AcDbEntity
  8
0
  6
Continuous
 62
     7
370
    35
100
AcDbLine
 10
1665.7786968685
 20
934.9846816169
 30
0.0
 11
1665.7786968685
 21
964.4846816169
 31
0.0
  0
LINE
  5
29B
330
1F
100
AcDbEntity
  8
0
  6
Continuous
 62
     7
370
    35
100
AcDbLine
 10
1780.7786968685
 20
920.9846816169
 30
0.0
 11
1780.7786968685
 21
921.9846816169
 31
0.0
  0
LINE
  5
29C
330
1F
100
AcDbEntity
  8
0
  6
Continuous
 62
     7
370
    35
100
AcDbLine
 10
1780.7786968685
 20
920.9846816169
 30
0.0
 11
1780.7536968685
 21
920.9846816169
 31
0.0
  0
LINE
  5
29D
330
1F
100
AcDbEntity
  8
0
  6
Continuous
 62
     7
370
    35
100
AcDbLine
 10
1780.7786968685
 20
921.9846816169
 30
0.0
 11
1780.7536968685
 21
921.9846816169
 31
0.0
  0
LINE
  5
29E
330
1F
100
AcDbEntity
  8
0
  6
Continuous
 62
     7
370
    35
100
AcDbLine
 10
1743.2786968685
 20
911.7230894748
 30
0.0
 11
1743.2786968685
 21
910.9850816169
 31
0.0
  0
LINE
  5
29F
330
1F
100
AcDbEntity
  8
0
  6
Continuous
 62
     7
370
    35
100
AcDbLine
 10
1687.2786968685
 20
911.6997740919
 30
0.0
 11
1687.2786968685
 21
910.9850816169
 31
0.0
  0
LINE
  5
2A0
330
1F
100
AcDbEntity
  8
0
  6
Continuous
 62
     7
370
    35
100
AcDbLine
 10
1687.2786968685
 20
910.9850816169
 30
0.0
 11
1688.8113598273
 21
910.9850816169
 31
0.0
  0
LINE
  5
2A1
330
1F
100
AcDbEntity
  8
0
  6
Continuous
 62
     7
370
    35
100
AcDbLine
 10
1741.6960339097
 20
910.9850816169
 30
0.0
 11
1743.2774427445
 21
910.9850816169
 31
0.0
  0
SPLINE
  5
2A2
330
1F
100
AcDbEntity
  8
0
  6
Continuous
 62
     8
370
    18
100
AcDbSpline
210
0.0
220
0.0
230
1.0
 70
     8
 71
     3
 72
     9
 73
     5
 74
     0
 42
0.000000001
 43
0.00000001
 40
0.0
 40
0.0
 40
0.0
 40
0.0
 40
0.4639726887480526
 40
1.0
 40
1.0
 40
1.0
 40
1.0
 10
1747.223084595683
 20
903.1349961048849
 30
0.0
 10
1747.193669376074
 20
903.1963657433051
 30
0.0
 10
1747.130270774557
 20
903.3286356805418
 30
0.0
 10
1747.115949741447
 20
903.3488967098928
 30
0.0
 10
1747.108273276576
 20
903.3597571749789
 30
0.0
  0
LINE
  5
2A3
330
1F
100
AcDbEntity
  8
0
  6
Continuous
 62
     8
370
    18
100
AcDbLine
 10
1747.1082732766
 20
903.359757175
 30
0.0
 11
1746.9517060303
 21
903.4826780951
 31
0.0
  0
SPLINE
  5
2A4
330
1F
100
AcDbEntity
  8
0
  6
Continuous
 62
     8
370
    18
100
AcDbSpline
210
0.0
220
0.0
230
1.0
 70
     8
 71
     3
 72
    11
 73
     7
 74
     0
 42
0.000000001
 43
0.00000001
 40
0.0
 40
0.0
 40
0.0
 40
0.0
 40
0.2986044395549969
 40
0.578510769779818
 40
0.9999675635114516
 40
1.0
 40
1.0
 40
1.0
 40
1.0
 10
1746.951706030324
 20
903.4826780951278
 30
0.0
 10
1746.951639448268
 20
903.4768420160268
 30
0.0
 10
1746.951510453414
 20
903.4655353033127
 30
0.0
 10
1747.031191661771
 20
903.2921013550946
 30
0.0
 10
1747.118265396909
 20
903.0863964502388
 30
0.0
 10
1747.17132003701
 20
902.9411623983049
 30
0.0
 10
1747.171324119929
 20
902.9411512215478
 30
0.0
  0
SPLINE
  5
2A5
330
1F
100
AcDbEntity
  8
0
  6
Continuous
 62
     8
370
    18
100
AcDbSpline
210
0.0
220
0.0
230
1.0
 70
     8
 71
     3
 72
    10
 73
     6
 74
     0
 42
0.000000001
 43
0.00000001
 40
0.0
 40
0.0
 40
0.0
 40
0.0
 40
0.0305940752880726
 40
0.8849546452569855
 40
1.0
 40
1.0
 40
1.0
 40
1.0
 10
1748.842470611941
 20
898.3269937655504
 30
0.0
 10
1748.879562845425
 20
898.2185555233743
 30
0.0
 10
1749.952481180607
 20
895.0819048734147
 30
0.0
 10
1751.012880930396
 20
891.4841184099788
 30
0.0
 10
1751.910522302586
 20
887.9656067395288
 30
0.0
 10
1752.017050917135
 20
887.5480433504721
 30
0.0
  0
LINE
  5
2A6
330
1F
100
AcDbEntity
  8
0
  6
Continuous
 62
     8
370
    18
100
AcDbLine
 10
1749.4101479775
 20
850.984557226
 30
0.0
 11
1748.4927944552
 21
848.9813231806
 31
0.0
  0
SPLINE
  5
2A7
330
1F
100
AcDbEntity
  8
0
  6
Continuous
 62
     8
370
    18
100
AcDbSpline
210
0.0
220
0.0
230
1.0
 70
     8
 71
     3
 72
    18
 73
    14
 74
     0
 42
0.000000001
 43
0.00000001
 40
0.0
 40
0.0
 40
0.0
 40
0.0
 40
0.0497884573626189
 40
0.1520626953526129
 40
0.2542931679105472
 40
0.3525326664708985
 40
0.4508084200367251
 40
0.5543273934134121
 40
0.6578565275353663
 40
0.774030727128945
 40
0.8901694733964511
 40
0.9999988953086805
 40
1.0
 40
1.0
 40
1.0
 40
1.0
 10
1748.492794455237
 20
848.9813231806085
 30
0.0
 10
1748.483599797646
 20
848.9969840768025
 30
0.0
 10
1748.455517698096
 20
849.0448152050008
 30
0.0
 10
1748.021724608733
 20
849.1300231740311
 30
0.0
 10
1746.505781040016
 20
849.1855941138853
 30
0.0
 10
1744.145810004528
 20
849.2499878159315
 30
0.0
 10
1741.056341676297
 20
849.2750774685474
 30
0.0
 10
1737.24181225005
 20
849.2639266617168
 30
0.0
 10
1732.608333622659
 20
849.2170299978709
 30
0.0
 10
1727.235567608887
 20
849.1381486610896
 30
0.0
 10
1721.334208996996
 20
849.0128773409277
 30
0.0
 10
1717.262829324183
 20
848.8885177500109
 30
0.0
 10
1715.278716825023
 20
848.8210888203132
 30
0.0
 10
1715.278696868533
 20
848.8210881421033
 30
0.0
  0
SPLINE
  5
2A8
330
1F
100
AcDbEntity
  8
0
  6
Continuous
 62
     8
370
    18
100
AcDbSpline
210
0.0
220
0.0
230
1.0
 70
     8
 71
     3
 72
    10
 73
     6
 74
     0
 42
0.000000001
 43
0.00000001
 40
0.0
 40
0.0
 40
0.0
 40
0.0
 40
0.0305940752880734
 40
0.8849546452569865
 40
1.0
 40
1.0
 40
1.0
 40
1.0
 10
1681.714923125123
 20
898.32699376555
 30
0.0
 10
1681.677830891639
 20
898.2185555233739
 30
0.0
 10
1680.604912556458
 20
895.0819048734141
 30
0.0
 10
1679.544512806669
 20
891.4841184099784
 30
0.0
 10
1678.646871434478
 20
887.9656067395283
 30
0.0
 10
1678.540342819929
 20
887.5480433504716
 30
0.0
  0
SPLINE
  5
2A9
330
1F
100
AcDbEntity
  8
0
  6
Continuous
 62
     8
370
    18
100
AcDbSpline
210
0.0
220
0.0
230
1.0
 70
     8
 71
     3
 72
    11
 73
     7
 74
     0
 42
0.000000001
 43
0.00000001
 40
0.0
 40
0.0
 40
0.0
 40
0.0
 40
0.2986044395547222
 40
0.5785107697795353
 40
0.9999675635113833
 40
1.0
 40
1.0
 40
1.0
 40
1.0
 10
1683.605687706741
 20
903.4826780951281
 30
0.0
 10
1683.605754288795
 20
903.4768420160215
 30
0.0
 10
1683.605883283645
 20
903.4655353032964
 30
0.0
 10
1683.526202075321
 20
903.2921013551698
 30
0.0
 10
1683.439128340063
 20
903.0863964499895
 30
0.0
 10
1683.386073700055
 20
902.9411623983043
 30
0.0
 10
1683.386069617136
 20
902.9411512215474
 30
0.0
  0
LINE
  5
2AA
330
1F
100
AcDbEntity
  8
0
  6
Continuous
 62
     8
370
    18
100
AcDbLine
 10
1683.4491204605
 20
903.359757175
 30
0.0
 11
1683.6056877067
 21
903.4826780951
 31
0.0
  0
SPLINE
  5
2AB
330
1F
100
AcDbEntity
  8
0
  6
Continuous
 62
     8
370
    18
100
AcDbSpline
210
0.0
220
0.0
230
1.0
 70
     8
 71
     3
 72
    18
 73
    14
 74
     0
 42
0.000000001
 43
0.00000001
 40
0.0
 40
0.0
 40
0.0
 40
0.0
 40
0.0497848687598457
 40
0.15051759205024
 40
0.2543243622726972
 40
0.3513587062571525
 40
0.4508317882787343
 40
0.5531105266318752
 40
0.6578696705688377
 40
0.7722222945756146
 40
0.8901773896516059
 40
0.9999988953883033
 40
1.0
 40
1.0
 40
1.0
 40
1.0
 10
1682.064599281827
 20
848.9813231806079
 30
0.0
 10
1682.074578764459
 20
848.9975558901846
 30
0.0
 10
1682.104750335322
 20
849.0466332186738
 30
0.0
 10
1682.50236917553
 20
849.1082316705504
 30
0.0
 10
1684.040972447601
 20
849.1903517467883
 30
0.0
 10
1686.39513028035
 20
849.2486117019596
 30
0.0
 10
1689.475361108507
 20
849.2754416676585
 30
0.0
 10
1693.296087381937
 20
849.263586963605
 30
0.0
 10
1697.904806490809
 20
849.2179791703858
 30
0.0
 10
1703.287905135003
 20
849.137466722901
 30
0.0
 10
1709.191101798762
 20
849.0141984927593
 30
0.0
 10
1713.294564411551
 20
848.8885177506719
 30
0.0
 10
1715.278676912042
 20
848.8210888203132
 30
0.0
 10
1715.278696868533
 20
848.8210881421033
 30
0.0
  0
LINE
  5
2AC
330
1F
100
AcDbEntity
  8
0
  6
Continuous
 62
     8
370
    18
100
AcDbLine
 10
1681.1472457596
 20
850.984557226
 30
0.0
 11
1682.0645992818
 21
848.9813231806
 31
0.0
  0
SPLINE
  5
2AD
330
1F
100
AcDbEntity
  8
0
  6
Continuous
 62
     8
370
    18
100
AcDbSpline
210
0.0
220
0.0
230
1.0
 70
     8
 71
     3
 72
    14
 73
    10
 74
     0
 42
0.000000001
 43
0.00000001
 40
0.0
 40
0.0
 40
0.0
 40
0.0
 40
0.213507205401483
 40
0.6517504153256157
 40
0.8731400298126336
 40
0.9340362681778056
 40
0.9607431005770701
 40
0.9801118651181885
 40
1.0
 40
1.0
 40
1.0
 40
1.0
 10
1682.141720364549
 20
848.8242113210956
 30
0.0
 10
1682.468605496499
 20
848.2303424525659
 30
0.0
 10
1683.466452478343
 20
846.4175030170752
 30
0.0
 10
1685.36777869
 20
844.3634790549935
 30
0.0
 10
1687.209914769272
 20
843.0320226623647
 30
0.0
 10
1687.954927385418
 20
842.5814520919038
 30
0.0
 10
1688.140072201338
 20
842.4725727830573
 30
0.0
 10
1688.205961623085
 20
842.4331268445916
 30
0.0
 10
1688.204184539137
 20
842.4325071202537
 30
0.0
 10
1688.203284241717
 20
842.4321931585961
 30
0.0
  0
LINE
  5
2AE
330
1F
100
AcDbEntity
  8
0
  6
Continuous
 62
     8
370
    18
100
AcDbLine
 10
1682.0645992818
 20
848.9813231806
 30
0.0
 11
1682.1417203645
 21
848.8242113211
 31
0.0
  0
SPLINE
  5
2AF
330
1F
100
AcDbEntity
  8
0
  6
Continuous
 62
     8
370
    18
100
AcDbSpline
210
0.0
220
0.0
230
1.0
 70
     8
 71
     3
 72
     9
 73
     5
 74
     0
 42
0.000000001
 43
0.00000001
 40
0.0
 40
0.0
 40
0.0
 40
0.0
 40
0.4374209948359114
 40
1.0
 40
1.0
 40
1.0
 40
1.0
 10
1687.687846601457
 20
842.6507112000477
 30
0.0
 10
1687.684642239205
 20
842.6523655604082
 30
0.0
 10
1687.677316659752
 20
842.656147638498
 30
0.0
 10
1687.635366010221
 20
842.6809571721072
 30
0.0
 10
1687.611765455541
 20
842.6949144948438
 30
0.0
  0
LINE
  5
2B0
330
1F
100
AcDbEntity
  8
0
  6
Continuous
 62
     8
370
    18
100
AcDbLine
 10
1687.4425045278
 20
842.7976146581
 30
0.0
 11
1687.3169812132
 21
842.8774246913
 31
0.0
  0
LINE
  5
2B1
330
1F
100
AcDbEntity
  8
0
  6
Continuous
 62
     8
370
    18
100
AcDbLine
 10
1748.4927944552
 20
848.9813231806
 30
0.0
 11
1748.4156733725
 21
848.8242113211
 31
0.0
  0
SPLINE
  5
2B2
330
1F
100
AcDbEntity
  8
0
  6
Continuous
 62
     8
370
    18
100
AcDbSpline
210
0.0
220
0.0
230
1.0
 70
     8
 71
     3
 72
    14
 73
    10
 74
     0
 42
0.000000001
 43
0.00000001
 40
0.0
 40
0.0
 40
0.0
 40
0.0
 40
0.213507205401368
 40
0.6517504153255504
 40
0.8731400298126194
 40
0.9340362681777978
 40
0.960743100577066
 40
0.9801118651181863
 40
1.0
 40
1.0
 40
1.0
 40
1.0
 10
1748.415673372513
 20
848.8242113210935
 30
0.0
 10
1748.088788240564
 20
848.2303424525647
 30
0.0
 10
1747.090941258722
 20
846.417503017076
 30
0.0
 10
1745.189615047064
 20
844.363479054994
 30
0.0
 10
1743.347478967793
 20
843.0320226623647
 30
0.0
 10
1742.602466351646
 20
842.5814520919038
 30
0.0
 10
1742.417321535727
 20
842.4725727830572
 30
0.0
 10
1742.351432113979
 20
842.4331268445916
 30
0.0
 10
1742.353209197927
 20
842.4325071202537
 30
0.0
 10
1742.354109495347
 20
842.4321931585961
 30
0.0
  0
SPLINE
  5
2B3
330
1F
100
AcDbEntity
  8
0
  6
Continuous
 62
     8
370
    18
100
AcDbSpline
210
0.0
220
0.0
230
1.0
 70
     8
 71
     3
 72
     9
 73
     5
 74
     0
 42
0.000000001
 43
0.00000001
 40
0.0
 40
0.0
 40
0.0
 40
0.0
 40
0.5224329713468876
 40
1.0
 40
1.0
 40
1.0
 40
1.0
 10
1742.869547135608
 20
842.6507112000482
 30
0.0
 10
1742.872322308305
 20
842.6521049179247
 30
0.0
 10
1742.87763432506
 20
842.6547726627895
 30
0.0
 10
1742.91193710892
 20
842.6750462078561
 30
0.0
 10
1742.928318987482
 20
842.6847281845337
 30
0.0
  0
SPLINE
  5
2B4
330
1F
100
AcDbEntity
  8
0
  6
Continuous
 62
     8
370
    18
100
AcDbSpline
210
0.0
220
0.0
230
1.0
 70
     8
 71
     3
 72
     9
 73
     5
 74
     0
 42
0.000000001
 43
0.00000001
 40
0.0
 40
0.0
 40
0.0
 40
0.0
 40
0.3615544521733323
 40
1.0
 40
1.0
 40
1.0
 40
1.0
 10
1743.026631310786
 20
842.7435671711435
 30
0.0
 10
1743.048828570616
 20
842.7568664479918
 30
0.0
 10
1743.110222531323
 20
842.7936500549098
 30
0.0
 10
1743.195291700883
 20
842.8483473725698
 30
0.0
 10
1743.249603733446
 20
842.8832686315077
 30
0.0
  0
SPLINE
  5
2B5
330
1F
100
AcDbEntity
  8
0
  6
Continuous
 62
     8
370
    18
100
AcDbSpline
210
0.0
220
0.0
230
1.0
 70
     8
 71
     3
 72
    14
 73
    10
 74
     0
 42
0.000000001
 43
0.00000001
 40
0.0
 40
0.0
 40
0.0
 40
0.0
 40
0.1272473860604718
 40
0.2554745767697396
 40
0.3810919869018191
 40
0.5075916090131556
 40
0.7089607368256291
 40
0.9137762176246998
 40
1.0
 40
1.0
 40
1.0
 40
1.0
 10
1750.121816314388
 20
850.676425463358
 30
0.0
 10
1750.719132168656
 20
852.1663348272887
 30
0.0
 10
1751.918363208219
 20
855.1576258546311
 30
0.0
 10
1753.203994092775
 20
859.7963884659231
 30
0.0
 10
1754.116073988913
 20
864.5079644594022
 30
0.0
 10
1754.725061655028
 20
870.1995947853903
 30
0.0
 10
1754.715613600626
 20
876.931661912686
 30
0.0
 10
1753.944730587109
 20
883.1144648388855
 30
0.0
 10
1753.091880018284
 20
886.6837417521077
 30
0.0
 10
1752.839213072103
 20
887.7411817430085
 30
0.0
  0
LWPOLYLINE
  5
2B6
330
1F
100
AcDbEntity
  8
0
  6
Continuous
 62
     8
370
    18
100
AcDbPolyline
 90
        9
 70
   128
 43
0.0
 10
1749.4101479775
 20
850.984557226
 10
1749.4270833399
 20
850.9771905182
 10
1749.4656167338
 20
850.9604820617
 10
1749.5254439394
 20
850.9345637694
 10
1749.6060926229
 20
850.8996402651
 10
1749.7069260658
 20
850.8559872688
 10
1749.8271481916
 20
850.8039494193
 10
1749.9658098508
 20
850.7439375536
 10
1750.1218163144
 20
850.6764254634
  0
ARC
  5
2B7
330
1F
100
AcDbEntity
  8
0
  6
Continuous
 62
     8
370
    18
100
AcDbCircle
 10
1747.4835911385
 20
908.6928066018
 30
0.0
 40
21.62529237992084
100
AcDbArc
 50
282.1010759283
 51
284.3388181969
  0
LWPOLYLINE
  5
2B8
330
1F
100
AcDbEntity
  8
0
  6
Continuous
 62
     8
370
    18
100
AcDbPolyline
 90
        9
 70
   128
 43
0.0
 10
1681.1472457596
 20
850.984557226
 10
1681.1303103971
 20
850.9771905182
 10
1681.0917770032
 20
850.9604820617
 10
1681.0319497977
 20
850.9345637694
 10
1680.9513011142
 20
850.8996402651
 10
1680.8504676713
 20
850.8559872688
 10
1680.7302455455
 20
850.8039494193
 10
1680.5915838863
 20
850.7439375536
 10
1680.4355774227
 20
850.6764254634
  0
SPLINE
  5
2B9
330
1F
100
AcDbEntity
  8
0
  6
Continuous
 62
     8
370
    18
100
AcDbSpline
210
0.0
220
0.0
230
1.0
 70
     8
 71
     3
 72
    14
 73
    10
 74
     0
 42
0.000000001
 43
0.00000001
 40
0.0
 40
0.0
 40
0.0
 40
0.0
 40
0.1272473860604716
 40
0.2554745767697392
 40
0.3810919869018187
 40
0.5075916090131551
 40
0.7089607368256288
 40
0.9137762176246995
 40
1.0
 40
1.0
 40
1.0
 40
1.0
 10
1680.435577422676
 20
850.6764254633575
 30
0.0
 10
1679.838261568408
 20
852.1663348272881
 30
0.0
 10
1678.639030528845
 20
855.1576258546307
 30
0.0
 10
1677.353399644289
 20
859.7963884659226
 30
0.0
 10
1676.441319748151
 20
864.5079644594017
 30
0.0
 10
1675.832332082036
 20
870.19959478539
 30
0.0
 10
1675.841780136438
 20
876.9316619126856
 30
0.0
 10
1676.612663149955
 20
883.1144648388852
 30
0.0
 10
1677.46551371878
 20
886.6837417521073
 30
0.0
 10
1677.718180664961
 20
887.741181743008
 30
0.0
  0
ARC
  5
2BA
330
1F
100
AcDbEntity
  8
0
  6
Continuous
 62
     8
370
    18
100
AcDbCircle
 10
1683.0738025987
 20
908.6928066022
 30
0.0
 40
21.6252923804282
100
AcDbArc
 50
255.6611818031
 51
257.8989240716
  0
SPLINE
  5
2BB
330
1F
100
AcDbEntity
  8
0
  6
Continuous
 62
     8
370
    18
100
AcDbSpline
210
0.0
220
0.0
230
1.0
 70
     8
 71
     3
 72
    17
 73
    13
 74
     0
 42
0.000000001
 43
0.00000001
 40
0.0
 40
0.0
 40
0.0
 40
0.0
 40
0.0045109817899508
 40
0.0089278415503381
 40
0.0130797684277637
 40
0.0177777921768911
 40
0.0339670776357914
 40
0.084060007251609
 40
0.3047425979556686
 40
0.7692822253148978
 40
0.8273200843747881
 40
1.0
 40
1.0
 40
1.0
 40
1.0
 10
1742.647822174672
 20
842.5756521322942
 30
0.0
 10
1742.643502886733
 20
842.573888343483
 30
0.0
 10
1742.634954433177
 20
842.5703975674688
 30
0.0
 10
1742.636146891925
 20
842.5721121032652
 30
0.0
 10
1742.650995988219
 20
842.5804330091153
 30
0.0
 10
1742.697934599792
 20
842.6051030605518
 30
0.0
 10
1742.880279125667
 20
842.6983152523629
 30
0.0
 10
1743.648286181928
 20
843.1022591936899
 30
0.0
 10
1745.545201965075
 20
844.2933725629399
 30
0.0
 10
1747.189177078402
 20
845.8904850895129
 30
0.0
 10
1748.457834933708
 20
847.5771349264519
 30
0.0
 10
1748.823430201165
 20
848.1752668042059
 30
0.0
 10
1749.097058706917
 20
848.6229365267674
 30
0.0
  0
ARC
  5
2BC
330
1F
100
AcDbEntity
  8
0
  6
Continuous
 62
     8
370
    18
100
AcDbCircle
 10
1743.8018968537
 20
839.8404438455
 30
0.0
 40
2.968712302815868
100
AcDbArc
 50
112.8764869258
 51
119.1883353828
  0
ARC
  5
2BD
330
1F
100
AcDbEntity
  8
0
  6
Continuous
 62
     8
370
    18
100
AcDbCircle
 10
1748.2844874792
 20
847.1261005202
 30
0.0
 40
1.703170581834115
100
AcDbArc
 50
61.5042694371
 51
85.582444766
  0
ARC
  5
2BE
330
1F
100
AcDbEntity
  8
0
  6
Continuous
 62
     8
370
    18
100
AcDbCircle
 10
1686.7554968834
 20
839.8404438456
 30
0.0
 40
2.96871230270937
100
AcDbArc
 50
60.8116646172
 51
67.1235130743
  0
SPLINE
  5
2BF
330
1F
100
AcDbEntity
  8
0
  6
Continuous
 62
     8
370
    18
100
AcDbSpline
210
0.0
220
0.0
230
1.0
 70
     8
 71
     3
 72
    17
 73
    13
 74
     0
 42
0.000000001
 43
0.00000001
 40
0.0
 40
0.0
 40
0.0
 40
0.0
 40
0.0045109817899509
 40
0.0089278415503384
 40
0.0130797684277642
 40
0.0177777921768911
 40
0.0339670776357917
 40
0.0840600072516113
 40
0.3047425979556511
 40
0.7692822253148931
 40
0.8273200843747838
 40
1.0
 40
1.0
 40
1.0
 40
1.0
 10
1687.909571562393
 20
842.575652132294
 30
0.0
 10
1687.913890850331
 20
842.573888343483
 30
0.0
 10
1687.922439303888
 20
842.5703975674688
 30
0.0
 10
1687.921246845139
 20
842.5721121032652
 30
0.0
 10
1687.906397748844
 20
842.5804330091153
 30
0.0
 10
1687.859459137272
 20
842.6051030605516
 30
0.0
 10
1687.677114611397
 20
842.6983152523629
 30
0.0
 10
1686.909107555136
 20
843.10225919369
 30
0.0
 10
1685.012191771988
 20
844.2933725629391
 30
0.0
 10
1683.368216658663
 20
845.8904850895127
 30
0.0
 10
1682.099558803357
 20
847.5771349264514
 30
0.0
 10
1681.733963535899
 20
848.1752668042054
 30
0.0
 10
1681.460335030147
 20
848.6229365267669
 30
0.0
  0
ARC
  5
2C0
330
1F
100
AcDbEntity
  8
0
  6
Continuous
 62
     8
370
    18
100
AcDbCircle
 10
1682.2729062579
 20
847.1261005202
 30
0.0
 40
1.703170581856903
100
AcDbArc
 50
94.4175552344
 51
118.4957305629
  0
ARC
  5
2C1
330
1F
100
AcDbEntity
  8
0
  6
Continuous
 62
     8
370
    18
100
AcDbCircle
 10
1715.2418588215
 20
998.4044940122
 30
0.0
 40
105.5675478937474
100
AcDbArc
 50
288.5592662705
 51
288.9867308474
  0
SPLINE
  5
2C2
330
1F
100
AcDbEntity
  8
0
  6
Continuous
 62
     8
370
    18
100
AcDbSpline
210
0.0
220
0.0
230
1.0
 70
     8
 71
     3
 72
    10
 73
     6
 74
     0
 42
0.000000001
 43
0.00000001
 40
0.0
 40
0.0
 40
0.0
 40
0.0
 40
0.0049102993503908
 40
0.1151643441716948
 40
1.0
 40
1.0
 40
1.0
 40
1.0
 10
1752.839213072103
 20
887.7411817430085
 30
0.0
 10
1752.834582992076
 20
887.759117305094
 30
0.0
 10
1752.725990808232
 20
888.1797713421593
 30
0.0
 10
1751.767245211721
 20
891.8285609673324
 30
0.0
 10
1750.613809988693
 20
895.402503257558
 30
0.0
 10
1749.588173192977
 20
898.5804595445138
 30
0.0
  0
SPLINE
  5
2C3
330
1F
100
AcDbEntity
  8
0
  6
Continuous
 62
     8
370
    18
100
AcDbSpline
210
0.0
220
0.0
230
1.0
 70
     8
 71
     3
 72
    10
 73
     6
 74
     0
 42
0.000000001
 43
0.00000001
 40
0.0
 40
0.0
 40
0.0
 40
0.0
 40
0.0049102993503896
 40
0.1151643441716924
 40
1.0
 40
1.0
 40
1.0
 40
1.0
 10
1677.718180664961
 20
887.741181743008
 30
0.0
 10
1677.722810744988
 20
887.7591173050936
 30
0.0
 10
1677.831402928832
 20
888.1797713421587
 30
0.0
 10
1678.790148525344
 20
891.8285609673322
 30
0.0
 10
1679.943583748372
 20
895.4025032575577
 30
0.0
 10
1680.969220544087
 20
898.5804595445134
 30
0.0
  0
ARC
  5
2C4
330
1F
100
AcDbEntity
  8
0
  6
Continuous
 62
     8
370
    18
100
AcDbCircle
 10
1715.3155349075
 20
998.4044939886
 30
0.0
 40
105.5675478688205
100
AcDbArc
 50
251.0132691525
 51
251.4407337296
  0
ARC
  5
2C5
330
1F
100
AcDbEntity
  8
0
  6
Continuous
 62
     8
370
    18
100
AcDbCircle
 10
1749.5828609627
 20
904.9085699647
 30
0.0
 40
2.992681724129132
100
AcDbArc
 50
208.4544255779
 51
226.4525487523
  0
SPLINE
  5
2C6
330
1F
100
AcDbEntity
  8
0
  6
Continuous
 62
     8
370
    18
100
AcDbSpline
210
0.0
220
0.0
230
1.0
 70
     8
 71
     3
 72
    15
 73
    11
 74
     0
 42
0.000000001
 43
0.00000001
 40
0.0
 40
0.0
 40
0.0
 40
0.0
 40
0.3092031051605585
 40
0.663838255257455
 40
0.803986173963673
 40
0.9077221477257735
 40
0.9361281220494168
 40
0.9546919441403823
 40
0.978908979412591
 40
1.0
 40
1.0
 40
1.0
 40
1.0
 10
1749.588173192977
 20
898.5804595445138
 30
0.0
 10
1749.404213724262
 20
899.0681790542419
 30
0.0
 10
1749.009265126683
 20
900.1152800147091
 30
0.0
 10
1748.359727463407
 20
901.3164659173991
 30
0.0
 10
1747.859246625842
 20
902.1725435979437
 30
0.0
 10
1747.636550125243
 20
902.5346732669318
 30
0.0
 10
1747.541381800983
 20
902.6840159643855
 30
0.0
 10
1747.512108254133
 20
902.7333753078104
 30
0.0
 10
1747.503473780416
 20
902.7541770290356
 30
0.0
 10
1747.515458681343
 20
902.7441361944398
 30
0.0
 10
1747.521037684621
 20
902.7394621592123
 30
0.0
  0
SPLINE
  5
2C7
330
1F
100
AcDbEntity
  8
0
  6
Continuous
 62
     8
370
    18
100
AcDbSpline
210
0.0
220
0.0
230
1.0
 70
     8
 71
     3
 72
    15
 73
    11
 74
     0
 42
0.000000001
 43
0.00000001
 40
0.0
 40
0.0
 40
0.0
 40
0.0
 40
0.3092031051605585
 40
0.663838255257455
 40
0.803986173963673
 40
0.9077221477257735
 40
0.9361281220494168
 40
0.9546919441403823
 40
0.978908979412591
 40
1.0
 40
1.0
 40
1.0
 40
1.0
 10
1680.969220544087
 20
898.5804595445134
 30
0.0
 10
1681.153180012803
 20
899.0681790542416
 30
0.0
 10
1681.548128610382
 20
900.1152800147087
 30
0.0
 10
1682.197666273658
 20
901.3164659173988
 30
0.0
 10
1682.698147111222
 20
902.1725435979431
 30
0.0
 10
1682.920843611821
 20
902.5346732669313
 30
0.0
 10
1683.016011936081
 20
902.6840159643849
 30
0.0
 10
1683.045285482932
 20
902.73337530781
 30
0.0
 10
1683.053919956648
 20
902.7541770290352
 30
0.0
 10
1683.041935055722
 20
902.7441361944392
 30
0.0
 10
1683.036356052443
 20
902.7394621592119
 30
0.0
  0
ARC
  5
2C8
330
1F
100
AcDbEntity
  8
0
  6
Continuous
 62
     8
370
    18
100
AcDbCircle
 10
1680.9745327744
 20
904.9085699647
 30
0.0
 40
2.992681724099467
100
AcDbArc
 50
313.5474512476
 51
331.5455744223
  0
LINE
  5
2C9
330
1F
100
AcDbEntity
  8
0
  6
Continuous
 62
     8
370
    18
100
AcDbLine
 10
1749.1897252764
 20
848.7864737035
 30
0.0
 11
1750.1218163144
 21
850.6764254634
 31
0.0
  0
ARC
  5
2CA
330
1F
100
AcDbEntity
  8
0
  6
Continuous
 62
     8
370
    18
100
AcDbCircle
 10
1748.3922902117
 20
847.2780394248
 30
0.0
 40
1.706246364309791
100
AcDbArc
 50
62.1367925984
 51
86.6231112419
  0
ARC
  5
2CB
330
1F
100
AcDbEntity
  8
0
  6
Continuous
 62
     8
370
    18
100
AcDbCircle
 10
1682.1651035254
 20
847.2780394248
 30
0.0
 40
1.706246364316427
100
AcDbArc
 50
93.3768887581
 51
117.8632074016
  0
LINE
  5
2CC
330
1F
100
AcDbEntity
  8
0
  6
Continuous
 62
     8
370
    18
100
AcDbLine
 10
1681.3676684607
 20
848.7864737035
 30
0.0
 11
1680.4355774227
 21
850.6764254634
 31
0.0
  0
ARC
  5
2CD
330
1F
100
AcDbEntity
  8
0
  6
Continuous
 62
     8
370
    18
100
AcDbCircle
 10
1749.6106259264
 20
900.3269947009
 30
0.0
 40
12.99332377683091
100
AcDbArc
 50
284.3876121929
 51
286.8712772964
  0
ARC
  5
2CE
330
1F
100
AcDbEntity
  8
0
  6
Continuous
 62
     8
370
    18
100
AcDbCircle
 10
1761.0234640869
 20
875.8717211494
 30
0.0
 40
27.45266560577054
100
AcDbArc
 50
246.6025480367
 51
247.6829243032
  0
ARC
  5
2CF
330
1F
100
AcDbEntity
  8
0
  6
Continuous
 62
     8
370
    18
100
AcDbCircle
 10
1680.9467678104
 20
900.3269947
 30
0.0
 40
12.99332377580781
100
AcDbArc
 50
253.1287227035
 51
255.6123878072
  0
ARC
  5
2D0
330
1F
100
AcDbEntity
  8
0
  6
Continuous
 62
     8
370
    18
100
AcDbCircle
 10
1669.5339296493
 20
875.8717211513
 30
0.0
 40
27.45266560789995
100
AcDbArc
 50
292.3170756969
 51
293.3974519632
  0
LINE
  5
2D1
330
1F
100
AcDbEntity
  8
0
  6
Continuous
 62
     8
370
    18
100
AcDbLine
 10
1749.0970587069
 20
848.6229365268
 30
0.0
 11
1749.1897252764
 21
848.7864737035
 31
0.0
  0
LINE
  5
2D2
330
1F
100
AcDbEntity
  8
0
  6
Continuous
 62
     8
370
    18
100
AcDbLine
 10
1681.4603350301
 20
848.6229365268
 30
0.0
 11
1681.3676684607
 21
848.7864737035
 31
0.0
  0
ARC
  5
2D3
330
1F
100
AcDbEntity
  8
0
  6
Continuous
 62
     8
370
    18
100
AcDbCircle
 10
1748.5631009502
 20
847.6833196227
 30
0.0
 40
1.080736236289268
100
AcDbArc
 50
35.0981925255
 51
60.3916535262
  0
ARC
  5
2D4
330
1F
100
AcDbEntity
  8
0
  6
Continuous
 62
     8
370
    18
100
AcDbCircle
 10
1681.9942927869
 20
847.6833196227
 30
0.0
 40
1.080736236290454
100
AcDbArc
 50
119.6083464738
 51
144.9018074745
  0
ARC
  5
2D5
330
1F
100
AcDbEntity
  8
0
  6
Continuous
 62
     8
370
    18
100
AcDbCircle
 10
1707.7951348266
 20
1019.9497501296
 30
0.0
 40
128.3634011431062
100
AcDbArc
 50
289.0009454547
 51
289.2355634086
  0
ARC
  5
2D6
330
1F
100
AcDbEntity
  8
0
  6
Continuous
 62
     8
370
    18
100
AcDbCircle
 10
1722.7622588915
 20
1019.9497500746
 30
0.0
 40
128.3634010849233
100
AcDbArc
 50
250.7644365913
 51
250.9990545454
  0
ARC
  5
2D7
330
1F
100
AcDbEntity
  8
0
  6
Continuous
 62
     8
370
    18
100
AcDbCircle
 10
1744.4028092838
 20
840.0798770857
 30
0.0
 40
2.993339415860374
100
AcDbArc
 50
114.936231731
 51
120.8121245743
  0
ARC
  5
2D8
330
1F
100
AcDbEntity
  8
0
  6
Continuous
 62
     8
370
    18
100
AcDbCircle
 10
1686.1545844532
 20
840.0798770855
 30
0.0
 40
2.9933394160558
100
AcDbArc
 50
59.1878754259
 51
65.0637682688
  0
ARC
  5
2D9
330
1F
100
AcDbEntity
  8
0
  6
Continuous
 62
     8
370
    18
100
AcDbCircle
 10
1749.7753769126
 20
904.7298501302
 30
0.0
 40
2.998432342268299
100
AcDbArc
 50
207.1895966032
 51
225.2949287514
  0
ARC
  5
2DA
330
1F
100
AcDbEntity
  8
0
  6
Continuous
 62
     8
370
    18
100
AcDbCircle
 10
1680.7820168245
 20
904.7298501302
 30
0.0
 40
2.998432342267355
100
AcDbArc
 50
314.7050712486
 51
332.8104033968
  0
SPLINE
  5
2DB
330
1F
100
AcDbEntity
  8
0
  6
Continuous
 62
     8
370
    18
100
AcDbSpline
210
0.0
220
0.0
230
1.0
 70
     8
 71
     3
 72
    14
 73
    10
 74
     0
 42
0.000000001
 43
0.00000001
 40
0.0
 40
0.0
 40
0.0
 40
0.0
 40
0.1091415029136163
 40
0.2578985762260056
 40
0.407571792035558
 40
0.5603518326033613
 40
0.7143170390078009
 40
0.9248596140268266
 40
1.0
 40
1.0
 40
1.0
 40
1.0
 10
1750.445420756935
 20
849.6183256408316
 30
0.0
 10
1750.615323905873
 20
850.0029168399628
 30
0.0
 10
1751.016800695523
 20
850.9116959939711
 30
0.0
 10
1751.627124231072
 20
852.4510412316474
 30
0.0
 10
1752.264362903021
 20
854.2504760196252
 30
0.0
 10
1752.859038869544
 20
856.169269220515
 30
0.0
 10
1753.454526722557
 20
858.4477941780408
 30
0.0
 10
1753.906379117282
 20
860.45891724238
 30
0.0
 10
1754.106492122819
 20
861.8200893703428
 30
0.0
 10
1754.159125883062
 20
862.1781051186947
 30
0.0
  0
LWPOLYLINE
  5
2DC
330
1F
100
AcDbEntity
  8
0
  6
Continuous
 62
     8
370
    18
100
AcDbPolyline
 90
        3
 70
   128
 43
0.0
 10
1750.4454207569
 20
849.6183256408
 10
1750.1257240862
 20
849.6277404497
 10
1750.1065956892
 20
849.6272899347
  0
LWPOLYLINE
  5
2DD
330
1F
100
AcDbEntity
  8
0
  6
Continuous
 62
     8
370
    18
100
AcDbPolyline
 90
        9
 70
   128
 43
0.0
 10
1750.4454207569
 20
849.6183256408
 10
1752.3927556548
 20
850.1610360584
 10
1754.1955881738
 20
850.9230442439
 10
1755.807514527
 20
851.8847365809
 10
1757.1870447333
 20
853.0213597072
 10
1758.298670544
 20
854.303657651
 10
1759.1137794026
 20
855.6986248614
 10
1759.6113909143
 20
857.1703557505
 10
1759.7786968685
 20
858.6809688814
  0
SPLINE
  5
2DE
330
1F
100
AcDbEntity
  8
0
  6
Continuous
 62
     8
370
    18
100
AcDbSpline
210
0.0
220
0.0
230
1.0
 70
     8
 71
     3
 72
     9
 73
     5
 74
     0
 42
0.000000001
 43
0.00000001
 40
0.0
 40
0.0
 40
0.0
 40
0.0
 40
0.5770474436019449
 40
1.0
 40
1.0
 40
1.0
 40
1.0
 10
1746.778696868532
 20
844.3910798506885
 30
0.0
 10
1747.569986389308
 20
845.2458760153482
 30
0.0
 10
1748.941259288183
 20
846.7272033726344
 30
0.0
 10
1749.998329997947
 20
848.7589803670239
 30
0.0
 10
1750.445420756935
 20
849.6183256408316
 30
0.0
  0
SPLINE
  5
2DF
330
1F
100
AcDbEntity
  8
0
  6
Continuous
 62
     8
370
    18
100
AcDbSpline
210
0.0
220
0.0
230
1.0
 70
     8
 71
     3
 72
    10
 73
     6
 74
     0
 42
0.000000001
 43
0.00000001
 40
0.0
 40
0.0
 40
0.0
 40
0.0
 40
0.394708216760184
 40
0.7987089853918036
 40
1.0
 40
1.0
 40
1.0
 40
1.0
 10
1746.778696868532
 20
844.3910798506885
 30
0.0
 10
1745.635326328058
 20
843.6610131368585
 30
0.0
 10
1743.321667058928
 20
842.1836918663322
 30
0.0
 10
1740.151798498322
 20
841.0632348040639
 30
0.0
 10
1738.182958471493
 20
840.8983120253358
 30
0.0
 10
1737.52821671293
 20
840.843466619564
 30
0.0
  0
LWPOLYLINE
  5
2E0
330
1F
100
AcDbEntity
  8
0
  6
Continuous
 62
     8
370
    18
100
AcDbPolyline
 90
       10
 70
   128
 43
0.0
 10
1759.7786968685
 20
855.3899630028
 10
1759.5811976577
 20
853.4800269871
 10
1758.9947009387
 20
851.6281234107
 10
1758.0370271177
 20
849.8905214267
 10
1756.7372746291
 20
848.3200171922
 10
1755.1349357945
 20
846.9643296836
 10
1753.2786968685
 20
845.8646507798
 10
1751.2249587318
 20
845.0543936679
 10
1749.0361231782
 20
844.5581776001
 10
1746.7786968685
 20
844.3910798507
  0
LINE
  5
2E1
330
1F
100
AcDbEntity
  8
0
  6
Continuous
 62
     8
370
    18
100
AcDbLine
 10
1746.7786968685
 20
840.5350816169
 30
0.0
 11
1746.7786968685
 21
844.3910798507
 31
0.0
  0
SPLINE
  5
2E2
330
1F
100
AcDbEntity
  8
0
  6
Continuous
 62
     8
370
    18
100
AcDbSpline
210
0.0
220
0.0
230
1.0
 70
     8
 71
     3
 72
    17
 73
    13
 74
     0
 42
0.000000001
 43
0.00000001
 40
0.0
 40
0.0
 40
0.0
 40
0.0
 40
0.2229912195117365
 40
0.5008176009808579
 40
0.6858965399880131
 40
0.8665771651902608
 40
0.9279597470316954
 40
0.9497616361807452
 40
0.9717583090123874
 40
0.9770054670051794
 40
0.9922372900676792
 40
1.0
 40
1.0
 40
1.0
 40
1.0
 10
1685.579738316532
 20
843.9496059378101
 30
0.0
 10
1685.715481605647
 20
843.8491924793884
 30
0.0
 10
1686.020348445482
 20
843.6236731631433
 30
0.0
 10
1686.458879955407
 20
843.3447886216884
 30
0.0
 10
1686.875122584322
 20
843.0941676618784
 30
0.0
 10
1687.155708978112
 20
842.9361042756464
 30
0.0
 10
1687.322821133909
 20
842.8452617498176
 30
0.0
 10
1687.380807356573
 20
842.8139574180539
 30
0.0
 10
1687.402623287474
 20
842.8021540425791
 30
0.0
 10
1687.414446387731
 20
842.7956620783395
 30
0.0
 10
1687.418503537
 20
842.7933470983187
 30
0.0
 10
1687.417083581527
 20
842.7939624406987
 30
0.0
 10
1687.416604219652
 20
842.7941701737457
 30
0.0
  0
LINE
  5
2E3
330
1F
100
AcDbEntity
  8
0
  6
Continuous
 62
     8
370
    18
100
AcDbLine
 10
1750.2786968685
 20
932.9846816169
 30
0.0
 11
1665.7786968685
 21
932.9846816169
 31
0.0
  0
LINE
  5
2E4
330
1F
100
AcDbEntity
  8
0
  6
Continuous
 62
     8
370
    18
100
AcDbLine
 10
1665.7536968685
 20
922.9846816169
 30
0.0
 11
1664.7536968685
 21
922.9846816169
 31
0.0
  0
LINE
  5
2E5
330
1F
100
AcDbEntity
  8
0
  6
Continuous
 62
     8
370
    18
100
AcDbLine
 10
1665.7536968685
 20
954.4846816169
 30
0.0
 11
1664.7536968685
 21
954.4846816169
 31
0.0
  0
LINE
  5
2E6
330
1F
100
AcDbEntity
  8
0
  6
Continuous
 62
     8
370
    18
100
AcDbLine
 10
1666.7536968685
 20
921.9846816169
 30
0.0
 11
1666.7536968685
 21
920.9846816169
 31
0.0
  0
LINE
  5
2E7
330
1F
100
AcDbEntity
  8
0
  6
Continuous
 62
     8
370
    18
100
AcDbLine
 10
1770.7536968685
 20
920.9846816169
 30
0.0
 11
1770.7536968685
 21
921.9846816169
 31
0.0
  0
LINE
  5
2E8
330
1F
100
AcDbEntity
  8
0
  6
Continuous
 62
     8
370
    18
100
AcDbLine
 10
1682.2786968685
 20
919.6466001062
 30
0.0
 11
1682.3786968685
 21
919.6466001062
 31
0.0
  0
LINE
  5
2E9
330
1F
100
AcDbEntity
  8
0
  6
Continuous
 62
     8
370
    18
100
AcDbLine
 10
1748.2786968685
 20
919.6466001062
 30
0.0
 11
1748.1286968685
 21
919.6466001062
 31
0.0
  0
LINE
  5
2EA
330
1F
100
AcDbEntity
  8
0
  6
Continuous
 62
     8
370
    18
100
AcDbLine
 10
1665.7536968685
 20
934.9846816169
 30
0.0
 11
1665.7786968685
 21
934.9846816169
 31
0.0
  0
LINE
  5
2EB
330
1F
100
AcDbEntity
  8
0
  6
Continuous
 62
     7
370
    35
100
AcDbLine
 10
893.6107245225
 20
654.713547254
 30
0.0
 11
894.030325607
 21
657.5798962592
 31
0.0
  0
SPLINE
  5
2EC
330
1F
100
AcDbEntity
  8
0
  6
Continuous
 62
     7
370
    35
100
AcDbSpline
210
0.0
220
0.0
230
1.0
 70
     8
 71
     3
 72
    11
 73
     7
 74
     0
 42
0.000000001
 43
0.00000001
 40
0.0
 40
0.0
 40
0.0
 40
0.0
 40
0.2606216717109328
 40
0.4632004480822262
 40
0.6713667795608109
 40
1.0
 40
1.0
 40
1.0
 40
1.0
 10
894.030325606957
 20
657.5798962592454
 30
0.0
 10
894.3972069776185
 20
658.5816144390558
 30
0.0
 10
895.0492617901278
 20
660.3619587469341
 30
0.0
 10
896.5866266519506
 20
662.6169583689968
 30
0.0
 10
898.6013924364468
 20
664.8315925493489
 30
0.0
 10
900.4467205222844
 20
665.9520546473209
 30
0.0
 10
901.5764459653275
 20
666.6380110090971
 30
0.0
  0
SPLINE
  5
2ED
330
1F
100
AcDbEntity
  8
0
  6
Continuous
 62
     7
370
    35
100
AcDbSpline
210
0.0
220
0.0
230
1.0
 70
     8
 71
     3
 72
    16
 73
    12
 74
     0
 42
0.000000001
 43
0.00000001
 40
0.0
 40
0.0
 40
0.0
 40
0.0
 40
0.6093642604521549
 40
0.7233750503883669
 40
0.8172213162021763
 40
0.8496365726798809
 40
0.8823612341657188
 40
0.9067814804504398
 40
0.9311421346358155
 40
0.9706402276081938
 40
0.9999999999999999
 40
0.9999999999999999
 40
0.9999999999999999
 40
0.9999999999999999
 10
901.5764459653275
 20
666.6380110090972
 30
0.0
 10
902.1532802349168
 20
666.9356660850468
 30
0.0
 10
902.8380390005855
 20
667.2890118086765
 30
0.0
 10
903.5052819717693
 20
667.8147501323341
 30
0.0
 10
903.6755353697474
 20
667.9999031423885
 30
0.0
 10
903.7438088304241
 20
668.1485594425602
 30
0.0
 10
903.7554479714182
 20
668.2421601079419
 30
0.0
 10
903.7309225232048
 20
668.32612279295
 30
0.0
 10
903.6746598155615
 20
668.4042617801232
 30
0.0
 10
903.5915876528973
 20
668.4664589759584
 30
0.0
 10
903.5231667844519
 20
668.4983489051878
 30
0.0
 10
903.4939933397948
 20
668.5119462053483
 30
0.0
  0
SPLINE
  5
2EE
330
1F
100
AcDbEntity
  8
0
  6
Continuous
 62
     7
370
    35
100
AcDbSpline
210
0.0
220
0.0
230
1.0
 70
     8
 71
     3
 72
    13
 73
     9
 74
     0
 42
0.000000001
 43
0.00000001
 40
0.0
 40
0.0
 40
0.0
 40
0.0
 40
0.1585077763893688
 40
0.3168380823633748
 40
0.479171669521788
 40
0.649308500278819
 40
0.8235953482372533
 40
1.0
 40
1.0
 40
1.0
 40
1.0
 10
916.138336759615
 20
654.1015254118388
 30
0.0
 10
915.8457616058556
 20
655.1118508636454
 30
0.0
 10
915.2609388749094
 20
657.1313705743188
 30
0.0
 10
913.7649123232221
 20
659.9519733258804
 30
0.0
 10
911.8382336535163
 20
662.5820241338648
 30
0.0
 10
909.4391592557374
 20
664.9449567301133
 30
0.0
 10
906.6468329830034
 20
667.0008490751895
 30
0.0
 10
904.5491624541171
 20
668.0062233646961
 30
0.0
 10
903.4939933397948
 20
668.5119462053483
 30
0.0
  0
SPLINE
  5
2EF
330
1F
100
AcDbEntity
  8
0
  6
Continuous
 62
     7
370
    35
100
AcDbSpline
210
0.0
220
0.0
230
1.0
 70
     8
 71
     3
 72
     9
 73
     5
 74
     0
 42
0.000000001
 43
0.00000001
 40
0.0
 40
0.0
 40
0.0
 40
0.0
 40
0.4230848072461902
 40
1.0
 40
1.0
 40
1.0
 40
1.0
 10
916.138336759615
 20
645.4592200908887
 30
0.0
 10
916.3644571658728
 20
646.6739357150437
 30
0.0
 10
916.8989136209026
 20
649.5450282320771
 30
0.0
 10
916.4165941754545
 20
652.4345286951961
 30
0.0
 10
916.138336759615
 20
654.1015254118388
 30
0.0
  0
SPLINE
  5
2F0
330
1F
100
AcDbEntity
  8
0
  6
Continuous
 62
     7
370
    35
100
AcDbSpline
210
0.0
220
0.0
230
1.0
 70
     8
 71
     3
 72
    13
 73
     9
 74
     0
 42
0.000000001
 43
0.00000001
 40
0.0
 40
0.0
 40
0.0
 40
0.0
 40
0.1585077763893681
 40
0.3168380823633729
 40
0.4791716695217855
 40
0.649308500278816
 40
0.8235953482372541
 40
1.0
 40
1.0
 40
1.0
 40
1.0
 10
916.138336759615
 20
645.4592200908887
 30
0.0
 10
915.8457616058556
 20
644.4488946390821
 30
0.0
 10
915.2609388749091
 20
642.4293749284088
 30
0.0
 10
913.7649123232221
 20
639.6087721768472
 30
0.0
 10
911.8382336535163
 20
636.9787213688628
 30
0.0
 10
909.4391592557374
 20
634.6157887726143
 30
0.0
 10
906.6468329830034
 20
632.5598964275378
 30
0.0
 10
904.5491624541171
 20
631.5545221380314
 30
0.0
 10
903.4939933397948
 20
631.0487992973791
 30
0.0
  0
SPLINE
  5
2F1
330
1F
100
AcDbEntity
  8
0
  6
Continuous
 62
     7
370
    35
100
AcDbSpline
210
0.0
220
0.0
230
1.0
 70
     8
 71
     3
 72
    16
 73
    12
 74
     0
 42
0.000000001
 43
0.00000001
 40
0.0
 40
0.0
 40
0.0
 40
0.0
 40
0.6093642604521564
 40
0.723375050388367
 40
0.8172213162021764
 40
0.8496365726798809
 40
0.8823612341657188
 40
0.9067814804504398
 40
0.9311421346358155
 40
0.9706402276081939
 40
1.0
 40
1.0
 40
1.0
 40
1.0
 10
901.5764459653275
 20
632.9227344936303
 30
0.0
 10
902.1532802349167
 20
632.6250794176806
 30
0.0
 10
902.8380390005854
 20
632.271733694051
 30
0.0
 10
903.5052819717693
 20
631.7459953703933
 30
0.0
 10
903.6755353697473
 20
631.560842360339
 30
0.0
 10
903.7438088304241
 20
631.4121860601672
 30
0.0
 10
903.7554479714182
 20
631.3185853947856
 30
0.0
 10
903.7309225232048
 20
631.2346227097775
 30
0.0
 10
903.6746598155615
 20
631.1564837226043
 30
0.0
 10
903.5915876528973
 20
631.0942865267691
 30
0.0
 10
903.5231667844519
 20
631.0623965975396
 30
0.0
 10
903.4939933397948
 20
631.0487992973791
 30
0.0
  0
SPLINE
  5
2F2
330
1F
100
AcDbEntity
  8
0
  6
Continuous
 62
     7
370
    35
100
AcDbSpline
210
0.0
220
0.0
230
1.0
 70
     8
 71
     3
 72
    11
 73
     7
 74
     0
 42
0.000000001
 43
0.00000001
 40
0.0
 40
0.0
 40
0.0
 40
0.0
 40
0.2606216717109334
 40
0.4632004480822247
 40
0.6713667795608074
 40
1.0
 40
1.0
 40
1.0
 40
1.0
 10
894.030325606957
 20
641.9808492434822
 30
0.0
 10
894.3972069776185
 20
640.9791310636718
 30
0.0
 10
895.0492617901278
 20
639.1987867557935
 30
0.0
 10
896.5866266519506
 20
636.9437871337308
 30
0.0
 10
898.6013924364468
 20
634.7291529533787
 30
0.0
 10
900.4467205222844
 20
633.6086908554066
 30
0.0
 10
901.5764459653275
 20
632.9227344936303
 30
0.0
  0
LINE
  5
2F3
330
1F
100
AcDbEntity
  8
0
  6
Continuous
 62
     7
370
    35
100
AcDbLine
 10
893.6107245225
 20
644.8471982487
 30
0.0
 11
894.030325607
 21
641.9808492435
 31
0.0
  0
LINE
  5
2F4
330
1F
100
AcDbEntity
  8
0
  6
Continuous
 62
     7
370
    35
100
AcDbLine
 10
893.6107245225
 20
644.8471982487
 30
0.0
 11
893.6107245225
 21
654.713547254
 31
0.0
  0
LINE
  5
2F5
330
1F
100
AcDbEntity
  8
0
  6
Continuous
 62
     7
370
    35
100
AcDbLine
 10
807.6107245225
 20
644.8471982487
 30
0.0
 11
807.191123438
 21
641.9808492435
 31
0.0
  0
SPLINE
  5
2F6
330
1F
100
AcDbEntity
  8
0
  6
Continuous
 62
     7
370
    35
100
AcDbSpline
210
0.0
220
0.0
230
1.0
 70
     8
 71
     3
 72
    11
 73
     7
 74
     0
 42
0.000000001
 43
0.00000001
 40
0.0
 40
0.0
 40
0.0
 40
0.0
 40
0.2606216717109321
 40
0.4632004480822242
 40
0.671366779560807
 40
1.0
 40
1.0
 40
1.0
 40
1.0
 10
807.1911234379534
 20
641.9808492434822
 30
0.0
 10
806.824242067292
 20
640.9791310636718
 30
0.0
 10
806.1721872547826
 20
639.1987867557935
 30
0.0
 10
804.6348223929598
 20
636.9437871337308
 30
0.0
 10
802.6200566084636
 20
634.7291529533787
 30
0.0
 10
800.7747285226262
 20
633.6086908554066
 30
0.0
 10
799.6450030795829
 20
632.9227344936303
 30
0.0
  0
SPLINE
  5
2F7
330
1F
100
AcDbEntity
  8
0
  6
Continuous
 62
     7
370
    35
100
AcDbSpline
210
0.0
220
0.0
230
1.0
 70
     8
 71
     3
 72
    16
 73
    12
 74
     0
 42
0.000000001
 43
0.00000001
 40
0.0
 40
0.0
 40
0.0
 40
0.0
 40
0.6093642604521554
 40
0.7233750503883671
 40
0.8172213162021764
 40
0.849636572679881
 40
0.8823612341657188
 40
0.9067814804504398
 40
0.9311421346358156
 40
0.9706402276081939
 40
1.0
 40
1.0
 40
1.0
 40
1.0
 10
799.6450030795829
 20
632.9227344936303
 30
0.0
 10
799.0681688099937
 20
632.6250794176806
 30
0.0
 10
798.383410044325
 20
632.271733694051
 30
0.0
 10
797.7161670731412
 20
631.7459953703934
 30
0.0
 10
797.5459136751631
 20
631.560842360339
 30
0.0
 10
797.4776402144863
 20
631.4121860601672
 30
0.0
 10
797.4660010734923
 20
631.3185853947856
 30
0.0
 10
797.4905265217059
 20
631.2346227097776
 30
0.0
 10
797.5467892293491
 20
631.1564837226043
 30
0.0
 10
797.6298613920133
 20
631.0942865267691
 30
0.0
 10
797.6982822604587
 20
631.0623965975396
 30
0.0
 10
797.7274557051156
 20
631.0487992973791
 30
0.0
  0
SPLINE
  5
2F8
330
1F
100
AcDbEntity
  8
0
  6
Continuous
 62
     7
370
    35
100
AcDbSpline
210
0.0
220
0.0
230
1.0
 70
     8
 71
     3
 72
    13
 73
     9
 74
     0
 42
0.000000001
 43
0.00000001
 40
0.0
 40
0.0
 40
0.0
 40
0.0
 40
0.158507776389368
 40
0.3168380823633727
 40
0.4791716695217861
 40
0.6493085002788163
 40
0.8235953482372542
 40
1.0
 40
1.0
 40
1.0
 40
1.0
 10
785.0831122852954
 20
645.4592200908887
 30
0.0
 10
785.3756874390548
 20
644.4488946390821
 30
0.0
 10
785.9605101700013
 20
642.4293749284088
 30
0.0
 10
787.4565367216883
 20
639.6087721768472
 30
0.0
 10
789.3832153913941
 20
636.9787213688628
 30
0.0
 10
791.782289789173
 20
634.6157887726143
 30
0.0
 10
794.574616061907
 20
632.5598964275378
 30
0.0
 10
796.6722865907934
 20
631.5545221380314
 30
0.0
 10
797.7274557051156
 20
631.0487992973791
 30
0.0
  0
SPLINE
  5
2F9
330
1F
100
AcDbEntity
  8
0
  6
Continuous
 62
     7
370
    35
100
AcDbSpline
210
0.0
220
0.0
230
1.0
 70
     8
 71
     3
 72
     9
 73
     5
 74
     0
 42
0.000000001
 43
0.00000001
 40
0.0
 40
0.0
 40
0.0
 40
0.0
 40
0.4230848072461901
 40
1.0
 40
1.0
 40
1.0
 40
1.0
 10
785.0831122852954
 20
645.4592200908887
 30
0.0
 10
784.8569918790377
 20
646.6739357150439
 30
0.0
 10
784.3225354240078
 20
649.5450282320772
 30
0.0
 10
784.8048548694559
 20
652.4345286951963
 30
0.0
 10
785.0831122852954
 20
654.1015254118389
 30
0.0
  0
SPLINE
  5
2FA
330
1F
100
AcDbEntity
  8
0
  6
Continuous
 62
     7
370
    35
100
AcDbSpline
210
0.0
220
0.0
230
1.0
 70
     8
 71
     3
 72
    13
 73
     9
 74
     0
 42
0.000000001
 43
0.00000001
 40
0.0
 40
0.0
 40
0.0
 40
0.0
 40
0.1585077763893686
 40
0.3168380823633744
 40
0.4791716695217882
 40
0.6493085002788194
 40
0.8235953482372536
 40
1.0
 40
1.0
 40
1.0
 40
1.0
 10
785.0831122852954
 20
654.1015254118389
 30
0.0
 10
785.3756874390548
 20
655.1118508636455
 30
0.0
 10
785.9605101700013
 20
657.1313705743188
 30
0.0
 10
787.4565367216883
 20
659.9519733258804
 30
0.0
 10
789.3832153913941
 20
662.5820241338648
 30
0.0
 10
791.782289789173
 20
664.9449567301133
 30
0.0
 10
794.5746160619071
 20
667.0008490751895
 30
0.0
 10
796.6722865907934
 20
668.0062233646961
 30
0.0
 10
797.7274557051156
 20
668.5119462053483
 30
0.0
  0
SPLINE
  5
2FB
330
1F
100
AcDbEntity
  8
0
  6
Continuous
 62
     7
370
    35
100
AcDbSpline
210
0.0
220
0.0
230
1.0
 70
     8
 71
     3
 72
    16
 73
    12
 74
     0
 42
0.000000001
 43
0.00000001
 40
0.0
 40
0.0
 40
0.0
 40
0.0
 40
0.609364260452154
 40
0.723375050388367
 40
0.8172213162021763
 40
0.8496365726798809
 40
0.8823612341657187
 40
0.9067814804504397
 40
0.9311421346358155
 40
0.9706402276081938
 40
0.9999999999999999
 40
0.9999999999999999
 40
0.9999999999999999
 40
0.9999999999999999
 10
799.6450030795829
 20
666.6380110090972
 30
0.0
 10
799.0681688099937
 20
666.9356660850468
 30
0.0
 10
798.383410044325
 20
667.2890118086765
 30
0.0
 10
797.7161670731412
 20
667.8147501323341
 30
0.0
 10
797.5459136751631
 20
667.9999031423885
 30
0.0
 10
797.4776402144863
 20
668.1485594425602
 30
0.0
 10
797.4660010734923
 20
668.2421601079419
 30
0.0
 10
797.4905265217059
 20
668.32612279295
 30
0.0
 10
797.5467892293491
 20
668.4042617801232
 30
0.0
 10
797.6298613920133
 20
668.4664589759584
 30
0.0
 10
797.6982822604587
 20
668.4983489051878
 30
0.0
 10
797.7274557051156
 20
668.5119462053483
 30
0.0
  0
SPLINE
  5
2FC
330
1F
100
AcDbEntity
  8
0
  6
Continuous
 62
     7
370
    35
100
AcDbSpline
210
0.0
220
0.0
230
1.0
 70
     8
 71
     3
 72
    11
 73
     7
 74
     0
 42
0.000000001
 43
0.00000001
 40
0.0
 40
0.0
 40
0.0
 40
0.0
 40
0.2606216717109341
 40
0.4632004480822269
 40
0.6713667795608114
 40
1.0
 40
1.0
 40
1.0
 40
1.0
 10
807.1911234379534
 20
657.5798962592454
 30
0.0
 10
806.824242067292
 20
658.5816144390558
 30
0.0
 10
806.1721872547826
 20
660.3619587469341
 30
0.0
 10
804.6348223929598
 20
662.6169583689968
 30
0.0
 10
802.6200566084636
 20
664.8315925493489
 30
0.0
 10
800.7747285226262
 20
665.9520546473209
 30
0.0
 10
799.6450030795829
 20
666.6380110090972
 30
0.0
  0
LINE
  5
2FD
330
1F
100
AcDbEntity
  8
0
  6
Continuous
 62
     7
370
    35
100
AcDbLine
 10
807.6107245225
 20
654.713547254
 30
0.0
 11
807.191123438
 21
657.5798962592
 31
0.0
  0
LINE
  5
2FE
330
1F
100
AcDbEntity
  8
0
  6
Continuous
 62
     7
370
    35
100
AcDbLine
 10
807.6107245225
 20
644.8471982487
 30
0.0
 11
807.6107245225
 21
654.713547254
 31
0.0
  0
SPLINE
  5
2FF
330
1F
100
AcDbEntity
  8
0
  6
Continuous
 62
     7
370
    35
100
AcDbSpline
210
0.0
220
0.0
230
1.0
 70
     8
 71
     3
 72
    17
 73
    13
 74
     0
 42
0.000000001
 43
0.00000001
 40
0.0
 40
0.0
 40
0.0
 40
0.0
 40
0.0364925733413331
 40
0.1833587448077185
 40
0.2877156143828463
 40
0.3934837304905567
 40
0.4992474923956527
 40
0.606318969789716
 40
0.7133499989193074
 40
0.8177518468878905
 40
0.9088657685707867
 40
1.0
 40
1.0
 40
1.0
 40
1.0
 10
903.6107245224551
 20
671.5216452188994
 30
0.0
 10
904.0255301584551
 20
671.5138405559564
 30
0.0
 10
906.1097416511523
 20
671.4746256398836
 30
0.0
 10
909.3653199712459
 20
670.8864419011096
 30
0.0
 10
913.165967859037
 20
669.4215114503522
 30
0.0
 10
916.2633976569304
 20
667.5704685761634
 30
0.0
 10
919.0520123589991
 20
665.2337320854165
 30
0.0
 10
921.4056315091424
 20
662.4384489014418
 30
0.0
 10
923.2600619147977
 20
659.308652654655
 30
0.0
 10
924.5034861508606
 20
656.0872046857406
 30
0.0
 10
925.2153339319996
 20
652.8903285407413
 30
0.0
 10
925.3045594715467
 20
650.8171016946688
 30
0.0
 10
925.3491772129703
 20
649.7803727513638
 30
0.0
  0
SPLINE
  5
300
330
1F
100
AcDbEntity
  8
0
  6
Continuous
 62
     7
370
    35
100
AcDbSpline
210
0.0
220
0.0
230
1.0
 70
     8
 71
     3
 72
    17
 73
    13
 74
     0
 42
0.000000001
 43
0.00000001
 40
0.0
 40
0.0
 40
0.0
 40
0.0
 40
0.036492573341333
 40
0.1833587448077183
 40
0.287715614382846
 40
0.3934837304905567
 40
0.4992474923956531
 40
0.6063189697897162
 40
0.7133499989193076
 40
0.8177518468878906
 40
0.9088657685707867
 40
1.0
 40
1.0
 40
1.0
 40
1.0
 10
797.6107245224553
 20
671.5216452188994
 30
0.0
 10
797.1959188864554
 20
671.5138405559564
 30
0.0
 10
795.1117073937581
 20
671.4746256398836
 30
0.0
 10
791.8561290736646
 20
670.8864419011096
 30
0.0
 10
788.0554811858734
 20
669.4215114503522
 30
0.0
 10
784.9580513879802
 20
667.5704685761634
 30
0.0
 10
782.1694366859113
 20
665.2337320854165
 30
0.0
 10
779.8158175357682
 20
662.4384489014418
 30
0.0
 10
777.9613871301129
 20
659.3086526546551
 30
0.0
 10
776.7179628940498
 20
656.0872046857406
 30
0.0
 10
776.0061151129108
 20
652.8903285407413
 30
0.0
 10
775.9168895733637
 20
650.8171016946688
 30
0.0
 10
775.8722718319401
 20
649.7803727513638
 30
0.0
  0
SPLINE
  5
301
330
1F
100
AcDbEntity
  8
0
  6
Continuous
 62
     7
370
    35
100
AcDbSpline
210
0.0
220
0.0
230
1.0
 70
     8
 71
     3
 72
    17
 73
    13
 74
     0
 42
0.000000001
 43
0.00000001
 40
0.0
 40
0.0
 40
0.0
 40
0.0
 40
0.0364925733413329
 40
0.1833587448077179
 40
0.2877156143828454
 40
0.393483730490557
 40
0.4992474923956544
 40
0.6063189697897173
 40
0.7133499989193085
 40
0.817751846887891
 40
0.908865768570787
 40
1.0
 40
1.0
 40
1.0
 40
1.0
 10
797.6107245224553
 20
628.0391002838281
 30
0.0
 10
797.1959188864554
 20
628.0469049467711
 30
0.0
 10
795.1117073937583
 20
628.0861198628439
 30
0.0
 10
791.8561290736646
 20
628.6743036016179
 30
0.0
 10
788.0554811858734
 20
630.1392340523753
 30
0.0
 10
784.9580513879802
 20
631.9902769265641
 30
0.0
 10
782.1694366859113
 20
634.3270134173112
 30
0.0
 10
779.815817535768
 20
637.1222966012858
 30
0.0
 10
777.9613871301129
 20
640.2520928480725
 30
0.0
 10
776.7179628940498
 20
643.473540816987
 30
0.0
 10
776.0061151129108
 20
646.6704169619862
 30
0.0
 10
775.9168895733637
 20
648.7436438080588
 30
0.0
 10
775.8722718319401
 20
649.7803727513638
 30
0.0
  0
SPLINE
  5
302
330
1F
100
AcDbEntity
  8
0
  6
Continuous
 62
     7
370
    35
100
AcDbSpline
210
0.0
220
0.0
230
1.0
 70
     8
 71
     3
 72
    17
 73
    13
 74
     0
 42
0.000000001
 43
0.00000001
 40
0.0
 40
0.0
 40
0.0
 40
0.0
 40
0.036492573341333
 40
0.1833587448077179
 40
0.2877156143828454
 40
0.3934837304905569
 40
0.4992474923956541
 40
0.606318969789717
 40
0.7133499989193082
 40
0.8177518468878907
 40
0.9088657685707868
 40
1.0
 40
1.0
 40
1.0
 40
1.0
 10
903.6107245224551
 20
628.039100283828
 30
0.0
 10
904.025530158455
 20
628.0469049467711
 30
0.0
 10
906.1097416511523
 20
628.0861198628439
 30
0.0
 10
909.3653199712458
 20
628.6743036016178
 30
0.0
 10
913.165967859037
 20
630.1392340523753
 30
0.0
 10
916.2633976569304
 20
631.9902769265641
 30
0.0
 10
919.0520123589991
 20
634.3270134173112
 30
0.0
 10
921.4056315091424
 20
637.1222966012858
 30
0.0
 10
923.2600619147975
 20
640.2520928480725
 30
0.0
 10
924.5034861508606
 20
643.473540816987
 30
0.0
 10
925.2153339319996
 20
646.6704169619862
 30
0.0
 10
925.3045594715467
 20
648.7436438080587
 30
0.0
 10
925.3491772129703
 20
649.7803727513638
 30
0.0
  0
LINE
  5
303
330
1F
100
AcDbEntity
  8
0
  6
Continuous
 62
     7
370
    35
100
AcDbLine
 10
903.6107245225
 20
671.5216452189
 30
0.0
 11
797.6107245225
 21
671.5216452189
 31
0.0
  0
LINE
  5
304
330
1F
100
AcDbEntity
  8
0
  6
Continuous
 62
     7
370
    35
100
AcDbLine
 10
903.6107245225
 20
628.0391002838
 30
0.0
 11
797.6107245225
 21
628.0391002838
 31
0.0
  0
LINE
  5
305
330
1F
100
AcDbEntity
  8
0
  6
Continuous
 62
     7
370
    35
100
AcDbLine
 10
807.4545533323
 20
643.7803727514
 30
0.0
 11
893.7668957127
 21
643.7803727514
 31
0.0
  0
LINE
  5
306
330
1F
100
AcDbEntity
  8
0
  6
Continuous
 62
     7
370
    35
100
AcDbLine
 10
807.4545533323
 20
655.7803727514
 30
0.0
 11
893.7668957127
 21
655.7803727514
 31
0.0
  0
LINE
  5
307
330
1F
100
AcDbEntity
  8
0
  6
Continuous
 62
     7
370
    35
100
AcDbLine
 10
903.6107245225
 20
671.5303727514
 30
0.0
 11
797.6107245225
 21
671.5303727514
 31
0.0
  0
ARC
  5
308
330
1F
100
AcDbEntity
  8
0
  6
Continuous
 62
     7
370
    35
100
AcDbCircle
 10
903.6107245225
 20
649.7803727514
 30
0.0
 40
21.75000000000011
100
AcDbArc
 50
270.0
 51
90.0
  0
ARC
  5
309
330
1F
100
AcDbEntity
  8
0
  6
Continuous
 62
     7
370
    35
100
AcDbCircle
 10
797.6107245225
 20
649.7803727514
 30
0.0
 40
21.75000000000011
100
AcDbArc
 50
90.0
 51
270.0
  0
LINE
  5
30A
330
1F
100
AcDbEntity
  8
0
  6
Continuous
 62
     7
370
    35
100
AcDbLine
 10
903.6107245225
 20
628.0303727514
 30
0.0
 11
797.6107245225
 21
628.0303727514
 31
0.0
  0
LINE
  5
30B
330
1F
100
AcDbEntity
  8
0
  6
Continuous
 62
     7
370
    35
100
AcDbLine
 10
1392.6107245225
 20
614.7803727514
 30
0.0
 11
1391.6107245225
 21
614.7803727514
 31
0.0
  0
LINE
  5
30C
330
1F
100
AcDbEntity
  8
0
  6
Continuous
 62
     7
370
    35
100
AcDbLine
 10
1391.6107245225
 20
699.2803727514
 30
0.0
 11
1392.6107245225
 21
699.2803727514
 31
0.0
  0
LINE
  5
30D
330
1F
100
AcDbEntity
  8
0
  6
Continuous
 62
     7
370
    35
100
AcDbLine
 10
1392.6107245225
 20
699.2803727514
 30
0.0
 11
1392.6107245225
 21
614.7803727514
 31
0.0
  0
LINE
  5
30E
330
1F
100
AcDbEntity
  8
0
  6
Continuous
 62
     7
370
    35
100
AcDbLine
 10
1391.6107245225
 20
614.7803727514
 30
0.0
 11
1390.6107245225
 21
614.7803727514
 31
0.0
  0
LINE
  5
30F
330
1F
100
AcDbEntity
  8
0
  6
Continuous
 62
     7
370
    35
100
AcDbLine
 10
1390.6107245225
 20
614.7803727514
 30
0.0
 11
1390.6107245225
 21
614.866159189
 31
0.0
  0
LINE
  5
310
330
1F
100
AcDbEntity
  8
0
  6
Continuous
 62
     7
370
    35
100
AcDbLine
 10
1390.6107245225
 20
617.6945863137
 30
0.0
 11
1390.6107245225
 21
682.0483219438
 31
0.0
  0
LINE
  5
311
330
1F
100
AcDbEntity
  8
0
  6
Continuous
 62
     7
370
    35
100
AcDbLine
 10
1390.6107245225
 20
699.2803727514
 30
0.0
 11
1391.6107245225
 21
699.2803727514
 31
0.0
  0
LINE
  5
312
330
1F
100
AcDbEntity
  8
0
  6
Continuous
 62
     7
370
    35
100
AcDbLine
 10
309.6107245225
 20
614.7803727514
 30
0.0
 11
308.6107245225
 21
614.7803727514
 31
0.0
  0
LINE
  5
313
330
1F
100
AcDbEntity
  8
0
  6
Continuous
 62
     7
370
    35
100
AcDbLine
 10
308.6107245225
 20
614.7803727514
 30
0.0
 11
308.6107245225
 21
699.2803727514
 31
0.0
  0
LINE
  5
314
330
1F
100
AcDbEntity
  8
0
  6
Continuous
 62
     7
370
    35
100
AcDbLine
 10
308.6107245225
 20
699.2803727514
 30
0.0
 11
309.6107245225
 21
699.2803727514
 31
0.0
  0
LINE
  5
315
330
1F
100
AcDbEntity
  8
0
  6
Continuous
 62
     7
370
    35
100
AcDbLine
 10
310.6107245225
 20
614.7803727514
 30
0.0
 11
309.6107245225
 21
614.7803727514
 31
0.0
  0
LINE
  5
316
330
1F
100
AcDbEntity
  8
0
  6
Continuous
 62
     7
370
    35
100
AcDbLine
 10
310.6107245225
 20
682.0483219438
 30
0.0
 11
310.6107245225
 21
617.6945863137
 31
0.0
  0
LINE
  5
317
330
1F
100
AcDbEntity
  8
0
  6
Continuous
 62
     7
370
    35
100
AcDbLine
 10
310.6107245225
 20
614.866159189
 30
0.0
 11
310.6107245225
 21
614.7803727514
 31
0.0
  0
LINE
  5
318
330
1F
100
AcDbEntity
  8
0
  6
Continuous
 62
     7
370
    35
100
AcDbLine
 10
309.6107245225
 20
699.2803727514
 30
0.0
 11
310.6107245225
 21
699.2803727514
 31
0.0
  0
LINE
  5
319
330
1F
100
AcDbEntity
  8
0
  6
Continuous
 62
     7
370
    35
100
AcDbLine
 10
310.6107245225
 20
700.3053727514
 30
0.0
 11
310.6107245225
 21
699.3053727514
 31
0.0
  0
LINE
  5
31A
330
1F
100
AcDbEntity
  8
0
  6
Continuous
 62
     7
370
    35
100
AcDbLine
 10
310.6107245225
 20
699.3053727514
 30
0.0
 11
288.1107245225
 21
699.3053727514
 31
0.0
  0
LINE
  5
31B
330
1F
100
AcDbEntity
  8
0
  6
Continuous
 62
     7
370
    35
100
AcDbLine
 10
310.6107245225
 20
700.3053727514
 30
0.0
 11
288.1107245225
 21
700.3053727514
 31
0.0
  0
LINE
  5
31C
330
1F
100
AcDbEntity
  8
0
  6
Continuous
 62
     7
370
    35
100
AcDbLine
 10
288.1107245225
 20
699.3053727514
 30
0.0
 11
278.1107245225
 21
699.3053727514
 31
0.0
  0
LINE
  5
31D
330
1F
100
AcDbEntity
  8
0
  6
Continuous
 62
     7
370
    35
100
AcDbLine
 10
278.1107245225
 20
699.3053727514
 30
0.0
 11
278.1107245225
 21
700.3053727514
 31
0.0
  0
LINE
  5
31E
330
1F
100
AcDbEntity
  8
0
  6
Continuous
 62
     7
370
    35
100
AcDbLine
 10
278.1107245225
 20
700.3053727514
 30
0.0
 11
288.1107245225
 21
700.3053727514
 31
0.0
  0
LINE
  5
31F
330
1F
100
AcDbEntity
  8
0
  6
Continuous
 62
     7
370
    35
100
AcDbLine
 10
278.1107245225
 20
699.3053727514
 30
0.0
 11
278.1107245225
 21
698.3053727514
 31
0.0
  0
LINE
  5
320
330
1F
100
AcDbEntity
  8
0
  6
Continuous
 62
     7
370
    35
100
AcDbLine
 10
310.6107245225
 20
613.7803727514
 30
0.0
 11
310.6107245225
 21
584.3053727514
 31
0.0
  0
LINE
  5
321
330
1F
100
AcDbEntity
  8
0
  6
Continuous
 62
     7
370
    35
100
AcDbLine
 10
310.6107245225
 20
584.3053727514
 30
0.0
 11
288.1107245225
 21
584.3053727514
 31
0.0
  0
ARC
  5
322
330
1F
100
AcDbEntity
  8
0
  6
Continuous
 62
     7
370
    35
100
AcDbCircle
 10
288.1107245225
 20
594.3053727514
 30
0.0
 40
10.0
100
AcDbArc
 50
180.0
 51
270.0
  0
LINE
  5
323
330
1F
100
AcDbEntity
  8
0
  6
Continuous
 62
     7
370
    35
100
AcDbLine
 10
278.1107245225
 20
594.3053727514
 30
0.0
 11
278.1107245225
 21
698.3053727514
 31
0.0
  0
LINE
  5
324
330
1F
100
AcDbEntity
  8
0
  6
Continuous
 62
     7
370
    35
100
AcDbLine
 10
1390.6107245225
 20
700.3053727514
 30
0.0
 11
1390.6107245225
 21
699.3053727514
 31
0.0
  0
LINE
  5
325
330
1F
100
AcDbEntity
  8
0
  6
Continuous
 62
     7
370
    35
100
AcDbLine
 10
1390.6107245225
 20
700.3053727514
 30
0.0
 11
1413.1107245225
 21
700.3053727514
 31
0.0
  0
LINE
  5
326
330
1F
100
AcDbEntity
  8
0
  6
Continuous
 62
     7
370
    35
100
AcDbLine
 10
1390.6107245225
 20
699.3053727514
 30
0.0
 11
1413.1107245225
 21
699.3053727514
 31
0.0
  0
LINE
  5
327
330
1F
100
AcDbEntity
  8
0
  6
Continuous
 62
     7
370
    35
100
AcDbLine
 10
1423.1107245225
 20
700.3053727514
 30
0.0
 11
1423.1107245225
 21
699.3053727514
 31
0.0
  0
LINE
  5
328
330
1F
100
AcDbEntity
  8
0
  6
Continuous
 62
     7
370
    35
100
AcDbLine
 10
1423.1107245225
 20
699.3053727514
 30
0.0
 11
1413.1107245225
 21
699.3053727514
 31
0.0
  0
LINE
  5
329
330
1F
100
AcDbEntity
  8
0
  6
Continuous
 62
     7
370
    35
100
AcDbLine
 10
1413.1107245225
 20
700.3053727514
 30
0.0
 11
1423.1107245225
 21
700.3053727514
 31
0.0
  0
LINE
  5
32A
330
1F
100
AcDbEntity
  8
0
  6
Continuous
 62
     7
370
    35
100
AcDbLine
 10
1423.1107245225
 20
698.3053727514
 30
0.0
 11
1423.1107245225
 21
699.3053727514
 31
0.0
  0
ARC
  5
32B
330
1F
100
AcDbEntity
  8
0
  6
Continuous
 62
     7
370
    35
100
AcDbCircle
 10
1413.1107245225
 20
594.3053727514
 30
0.0
 40
10.0
100
AcDbArc
 50
270.0
 51
0.0
  0
LINE
  5
32C
330
1F
100
AcDbEntity
  8
0
  6
Continuous
 62
     7
370
    35
100
AcDbLine
 10
1390.6107245225
 20
584.3053727514
 30
0.0
 11
1413.1107245225
 21
584.3053727514
 31
0.0
  0
LINE
  5
32D
330
1F
100
AcDbEntity
  8
0
  6
Continuous
 62
     7
370
    35
100
AcDbLine
 10
1390.6107245225
 20
613.7803727514
 30
0.0
 11
1390.6107245225
 21
584.3053727514
 31
0.0
  0
LINE
  5
32E
330
1F
100
AcDbEntity
  8
0
  6
Continuous
 62
     7
370
    35
100
AcDbLine
 10
1423.1107245225
 20
594.3053727514
 30
0.0
 11
1423.1107245225
 21
698.3053727514
 31
0.0
  0
LINE
  5
32F
330
1F
100
AcDbEntity
  8
0
  6
Continuous
 62
     7
370
    35
100
AcDbLine
 10
310.6107245225
 20
699.2803727514
 30
0.0
 11
1390.6107245225
 21
699.2803727514
 31
0.0
  0
LINE
  5
330
330
1F
100
AcDbEntity
  8
0
  6
Continuous
 62
     7
370
    35
100
AcDbLine
 10
310.6107245225
 20
700.2803727514
 30
0.0
 11
310.6107245225
 21
699.2803727514
 31
0.0
  0
LINE
  5
331
330
1F
100
AcDbEntity
  8
0
  6
Continuous
 62
     7
370
    35
100
AcDbLine
 10
1390.6107245225
 20
700.2803727514
 30
0.0
 11
1390.6107245225
 21
699.2803727514
 31
0.0
  0
LINE
  5
332
330
1F
100
AcDbEntity
  8
0
  6
Continuous
 62
     7
370
    35
100
AcDbLine
 10
310.6107245225
 20
700.2803727514
 30
0.0
 11
1390.6107245225
 21
700.2803727514
 31
0.0
  0
LINE
  5
333
330
1F
100
AcDbEntity
  8
0
  6
Continuous
 62
     7
370
    35
100
AcDbLine
 10
310.6107245225
 20
699.2803727514
 30
0.0
 11
310.6107245225
 21
698.2803727514
 31
0.0
  0
LINE
  5
334
330
1F
100
AcDbEntity
  8
0
  6
Continuous
 62
     7
370
    35
100
AcDbLine
 10
1390.6107245225
 20
698.2803727514
 30
0.0
 11
1390.6107245225
 21
699.2803727514
 31
0.0
  0
LINE
  5
335
330
1F
100
AcDbEntity
  8
0
  6
Continuous
 62
     7
370
    35
100
AcDbLine
 10
310.6107245225
 20
698.2803727514
 30
0.0
 11
310.6107245225
 21
683.7803727514
 31
0.0
  0
LINE
  5
336
330
1F
100
AcDbEntity
  8
0
  6
Continuous
 62
     7
370
    35
100
AcDbLine
 10
1390.6107245225
 20
683.7803727514
 30
0.0
 11
1390.6107245225
 21
698.2803727514
 31
0.0
  0
LINE
  5
337
330
1F
100
AcDbEntity
  8
0
  6
Continuous
 62
     7
370
    35
100
AcDbLine
 10
1390.6107245225
 20
683.7803727514
 30
0.0
 11
1390.6107245225
 21
682.0483219438
 31
0.0
  0
LINE
  5
338
330
1F
100
AcDbEntity
  8
0
  6
Continuous
 62
     7
370
    35
100
AcDbLine
 10
1390.6107245225
 20
681.7803727514
 30
0.0
 11
310.6107245225
 21
681.7803727514
 31
0.0
  0
LINE
  5
339
330
1F
100
AcDbEntity
  8
0
  6
Continuous
 62
     7
370
    35
100
AcDbLine
 10
310.6107245225
 20
682.0483219438
 30
0.0
 11
310.6107245225
 21
683.7803727514
 31
0.0
  0
LINE
  5
33A
330
1F
100
AcDbEntity
  8
0
  6
Continuous
 62
     7
370
    35
100
AcDbLine
 10
1390.6107245225
 20
617.6945863137
 30
0.0
 11
1390.6107245225
 21
614.866159189
 31
0.0
  0
LINE
  5
33B
330
1F
100
AcDbEntity
  8
0
  6
Continuous
 62
     7
370
    35
100
AcDbLine
 10
310.6107245225
 20
614.7803727514
 30
0.0
 11
1390.6107245225
 21
614.7803727514
 31
0.0
  0
LINE
  5
33C
330
1F
100
AcDbEntity
  8
0
  6
Continuous
 62
     7
370
    35
100
AcDbLine
 10
310.6107245225
 20
614.866159189
 30
0.0
 11
310.6107245225
 21
617.6945863137
 31
0.0
  0
LINE
  5
33D
330
1F
100
AcDbEntity
  8
0
  6
Continuous
 62
     7
370
    35
100
AcDbLine
 10
310.6107245225
 20
617.7803727514
 30
0.0
 11
1390.6107245225
 21
617.7803727514
 31
0.0
  0
LINE
  5
33E
330
1F
100
AcDbEntity
  8
0
  6
Continuous
 62
     7
370
    35
100
AcDbLine
 10
310.6107245225
 20
614.7803727514
 30
0.0
 11
310.6107245225
 21
613.7803727514
 31
0.0
  0
LINE
  5
33F
330
1F
100
AcDbEntity
  8
0
  6
Continuous
 62
     7
370
    35
100
AcDbLine
 10
1390.6107245225
 20
613.7803727514
 30
0.0
 11
1390.6107245225
 21
614.7803727514
 31
0.0
  0
LINE
  5
340
330
1F
100
AcDbEntity
  8
0
  6
Continuous
 62
     7
370
    35
100
AcDbLine
 10
1390.6107245225
 20
584.2803727514
 30
0.0
 11
310.6107245225
 21
584.2803727514
 31
0.0
  0
LINE
  5
341
330
1F
100
AcDbEntity
  8
0
  6
Continuous
 62
     7
370
    35
100
AcDbLine
 10
310.6107245225
 20
584.2803727514
 30
0.0
 11
310.6107245225
 21
613.7803727514
 31
0.0
  0
LINE
  5
342
330
1F
100
AcDbEntity
  8
0
  6
Continuous
 62
     7
370
    35
100
AcDbLine
 10
1390.6107245225
 20
613.7803727514
 30
0.0
 11
1390.6107245225
 21
584.2803727514
 31
0.0
  0
LINE
  5
343
330
1F
100
AcDbEntity
  8
0
  6
Continuous
 62
     7
370
    35
100
AcDbLine
 10
797.6107245225
 20
679.0353524493
 30
0.0
 11
903.6107245225
 21
679.0353524493
 31
0.0
  0
SPLINE
  5
344
330
1F
100
AcDbEntity
  8
0
  6
Continuous
 62
     7
370
    35
100
AcDbSpline
210
0.0
220
0.0
230
1.0
 70
     8
 71
     3
 72
     8
 73
     4
 74
     0
 42
0.000000001
 43
0.00000001
 40
0.0
 40
0.0
 40
0.0
 40
0.0
 40
1.0
 40
1.0
 40
1.0
 40
1.0
 10
790.8434615505678
 20
678.8370881795698
 30
0.0
 10
793.096788541677
 20
678.9675759603707
 30
0.0
 10
795.353605990175
 20
679.0353524493211
 30
0.0
 10
797.6107245224555
 20
679.0353524493211
 30
0.0
  0
SPLINE
  5
345
330
1F
100
AcDbEntity
  8
0
  6
Continuous
 62
     7
370
    35
100
AcDbSpline
210
0.0
220
0.0
230
1.0
 70
     8
 71
     3
 72
     8
 73
     4
 74
     0
 42
0.000000001
 43
0.00000001
 40
0.0
 40
0.0
 40
0.0
 40
0.0
 40
1.0
 40
1.0
 40
1.0
 40
1.0
 10
903.6107245224555
 20
679.0353524493211
 30
0.0
 10
905.867838192201
 20
679.0353524493211
 30
0.0
 10
908.1246601969731
 20
678.9675759781302
 30
0.0
 10
910.3779874943432
 20
678.83708817957
 30
0.0
  0
SPLINE
  5
346
330
1F
100
AcDbEntity
  8
0
  6
Continuous
 62
     7
370
    35
100
AcDbSpline
210
0.0
220
0.0
230
1.0
 70
     8
 71
     3
 72
     8
 73
     4
 74
     0
 42
0.000000001
 43
0.00000001
 40
0.0
 40
0.0
 40
0.0
 40
0.0
 40
1.0
 40
1.0
 40
1.0
 40
1.0
 10
797.6107245224555
 20
620.5253930534066
 30
0.0
 10
795.35361085271
 20
620.5253930534066
 30
0.0
 10
793.0967888479378
 20
620.5931695245974
 30
0.0
 10
790.8434615505676
 20
620.7236573231577
 30
0.0
  0
LINE
  5
347
330
1F
100
AcDbEntity
  8
0
  6
Continuous
 62
     7
370
    35
100
AcDbLine
 10
903.6107245225
 20
620.5253930534
 30
0.0
 11
797.6107245225
 21
620.5253930534
 31
0.0
  0
SPLINE
  5
348
330
1F
100
AcDbEntity
  8
0
  6
Continuous
 62
     7
370
    35
100
AcDbSpline
210
0.0
220
0.0
230
1.0
 70
     8
 71
     3
 72
     8
 73
     4
 74
     0
 42
0.000000001
 43
0.00000001
 40
0.0
 40
0.0
 40
0.0
 40
0.0
 40
1.0
 40
1.0
 40
1.0
 40
1.0
 10
910.3779874943434
 20
620.7236573231578
 30
0.0
 10
908.1246605032339
 20
620.5931695423569
 30
0.0
 10
905.867843054736
 20
620.5253930534066
 30
0.0
 10
903.6107245224555
 20
620.5253930534066
 30
0.0
  0
SPLINE
  5
349
330
1F
100
AcDbEntity
  8
0
  6
Continuous
 62
     7
370
    35
100
AcDbSpline
210
0.0
220
0.0
230
1.0
 70
     8
 71
     3
 72
    10
 73
     6
 74
     0
 42
0.000000001
 43
0.00000001
 40
0.0
 40
0.0
 40
0.0
 40
0.0
 40
0.5
 40
0.5
 40
1.0
 40
1.0
 40
1.0
 40
1.0
 10
903.6107245224555
 20
679.0303727513639
 30
0.0
 10
904.7536846704128
 20
679.0303727513639
 30
0.0
 10
905.8888781481562
 20
679.0140987325353
 30
0.0
 10
908.1444044805272
 20
678.9496643405263
 30
0.0
 10
909.264740426583
 20
678.9015067632204
 30
0.0
 10
910.3779874943434
 20
678.8370655389273
 30
0.0
  0
SPLINE
  5
34A
330
1F
100
AcDbEntity
  8
0
  6
Continuous
 62
     7
370
    35
100
AcDbSpline
210
0.0
220
0.0
230
1.0
 70
     8
 71
     3
 72
    10
 73
     6
 74
     0
 42
0.000000001
 43
0.00000001
 40
0.0
 40
0.0
 40
0.0
 40
0.0
 40
0.5
 40
0.5
 40
1.0
 40
1.0
 40
1.0
 40
1.0
 10
790.8434615505676
 20
678.8370655389273
 30
0.0
 10
791.956708618328
 20
678.9015067632204
 30
0.0
 10
793.0770445643838
 20
678.9496643405263
 30
0.0
 10
795.3325708967548
 20
679.0140987325353
 30
0.0
 10
796.4677643744982
 20
679.0303727513639
 30
0.0
 10
797.6107245224555
 20
679.0303727513639
 30
0.0
  0
SPLINE
  5
34B
330
1F
100
AcDbEntity
  8
0
  6
Continuous
 62
     7
370
    35
100
AcDbSpline
210
0.0
220
0.0
230
1.0
 70
     8
 71
     3
 72
    10
 73
     6
 74
     0
 42
0.000000001
 43
0.00000001
 40
0.0
 40
0.0
 40
0.0
 40
0.0
 40
0.5
 40
0.5
 40
1.0
 40
1.0
 40
1.0
 40
1.0
 10
903.6107245224555
 20
676.7803727513639
 30
0.0
 10
904.6394642555443
 20
676.7803727513639
 30
0.0
 10
905.6611437318402
 20
676.7217792143548
 30
0.0
 10
907.6910693144869
 20
676.4898165403393
 30
0.0
 10
908.6993188312529
 20
676.3164598260519
 30
0.0
 10
909.7012611971544
 20
676.0844667865924
 30
0.0
  0
SPLINE
  5
34C
330
1F
100
AcDbEntity
  8
0
  6
Continuous
 62
     7
370
    35
100
AcDbSpline
210
0.0
220
0.0
230
1.0
 70
     8
 71
     3
 72
    10
 73
     6
 74
     0
 42
0.000000001
 43
0.00000001
 40
0.0
 40
0.0
 40
0.0
 40
0.0
 40
0.5
 40
0.5
 40
1.0
 40
1.0
 40
1.0
 40
1.0
 10
791.5201878477566
 20
676.0844667865923
 30
0.0
 10
792.5221302136581
 20
676.3164598260519
 30
0.0
 10
793.5303797304241
 20
676.4898165403393
 30
0.0
 10
795.5603053130708
 20
676.7217792143548
 30
0.0
 10
796.5819847893666
 20
676.7803727513639
 30
0.0
 10
797.6107245224555
 20
676.7803727513639
 30
0.0
  0
SPLINE
  5
34D
330
1F
100
AcDbEntity
  8
0
  6
Continuous
 62
     7
370
    35
100
AcDbSpline
210
0.0
220
0.0
230
1.0
 70
     8
 71
     3
 72
    10
 73
     6
 74
     0
 42
0.000000001
 43
0.00000001
 40
0.0
 40
0.0
 40
0.0
 40
0.0
 40
0.5
 40
0.5
 40
1.0
 40
1.0
 40
1.0
 40
1.0
 10
797.6107245224555
 20
620.5303727513638
 30
0.0
 10
796.4677643744982
 20
620.5303727513638
 30
0.0
 10
795.3325708967548
 20
620.5466467701922
 30
0.0
 10
793.0770445643836
 20
620.6110811622012
 30
0.0
 10
791.9567086183279
 20
620.6592387395074
 30
0.0
 10
790.8434615505674
 20
620.7236799638004
 30
0.0
  0
SPLINE
  5
34E
330
1F
100
AcDbEntity
  8
0
  6
Continuous
 62
     7
370
    35
100
AcDbSpline
210
0.0
220
0.0
230
1.0
 70
     8
 71
     3
 72
    10
 73
     6
 74
     0
 42
0.000000001
 43
0.00000001
 40
0.0
 40
0.0
 40
0.0
 40
0.0
 40
0.5
 40
0.5
 40
1.0
 40
1.0
 40
1.0
 40
1.0
 10
797.6107245224555
 20
622.7803727513638
 30
0.0
 10
796.5819847893666
 20
622.7803727513638
 30
0.0
 10
795.5603053130708
 20
622.8389662883728
 30
0.0
 10
793.530379730424
 20
623.0709289623882
 30
0.0
 10
792.522130213658
 20
623.2442856766758
 30
0.0
 10
791.5201878477563
 20
623.4762787161353
 30
0.0
  0
SPLINE
  5
34F
330
1F
100
AcDbEntity
  8
0
  6
Continuous
 62
     7
370
    35
100
AcDbSpline
210
0.0
220
0.0
230
1.0
 70
     8
 71
     3
 72
    10
 73
     6
 74
     0
 42
0.000000001
 43
0.00000001
 40
0.0
 40
0.0
 40
0.0
 40
0.0
 40
0.5
 40
0.5
 40
1.0
 40
1.0
 40
1.0
 40
1.0
 10
910.3779874943435
 20
620.7236799638004
 30
0.0
 10
909.2647404265831
 20
620.6592387395074
 30
0.0
 10
908.1444044805273
 20
620.6110811622012
 30
0.0
 10
905.8888781481562
 20
620.5466467701922
 30
0.0
 10
904.7536846704128
 20
620.5303727513638
 30
0.0
 10
903.6107245224555
 20
620.5303727513638
 30
0.0
  0
SPLINE
  5
350
330
1F
100
AcDbEntity
  8
0
  6
Continuous
 62
     7
370
    35
100
AcDbSpline
210
0.0
220
0.0
230
1.0
 70
     8
 71
     3
 72
    10
 73
     6
 74
     0
 42
0.000000001
 43
0.00000001
 40
0.0
 40
0.0
 40
0.0
 40
0.0
 40
0.5
 40
0.5
 40
1.0
 40
1.0
 40
1.0
 40
1.0
 10
909.7012611971546
 20
623.4762787161353
 30
0.0
 10
908.6993188312529
 20
623.2442856766759
 30
0.0
 10
907.691069314487
 20
623.0709289623882
 30
0.0
 10
905.6611437318402
 20
622.8389662883728
 30
0.0
 10
904.6394642555443
 20
622.7803727513638
 30
0.0
 10
903.6107245224555
 20
622.7803727513638
 30
0.0
  0
LINE
  5
351
330
1F
100
AcDbEntity
  8
0
  6
Continuous
 62
     7
370
    35
100
AcDbLine
 10
903.6107245225
 20
679.0303727514
 30
0.0
 11
797.6107245225
 21
679.0303727514
 31
0.0
  0
LINE
  5
352
330
1F
100
AcDbEntity
  8
0
  6
Continuous
 62
     7
370
    35
100
AcDbLine
 10
797.6107245225
 20
676.7803727514
 30
0.0
 11
903.6107245225
 21
676.7803727514
 31
0.0
  0
LINE
  5
353
330
1F
100
AcDbEntity
  8
0
  6
Continuous
 62
     7
370
    35
100
AcDbLine
 10
797.6107245225
 20
620.5303727514
 30
0.0
 11
903.6107245225
 21
620.5303727514
 31
0.0
  0
LINE
  5
354
330
1F
100
AcDbEntity
  8
0
  6
Continuous
 62
     7
370
    35
100
AcDbLine
 10
903.6107245225
 20
622.7803727514
 30
0.0
 11
797.6107245225
 21
622.7803727514
 31
0.0
  0
ARC
  5
355
330
1F
100
AcDbEntity
  8
0
  6
Continuous
 62
     7
370
    35
100
AcDbCircle
 10
903.6107245225
 20
649.7803727514
 30
0.0
 40
27.0000000000001
100
AcDbArc
 50
0.4331051188
 51
76.9632820449
  0
ARC
  5
356
330
1F
100
AcDbEntity
  8
0
  6
Continuous
 62
     7
370
    35
100
AcDbCircle
 10
797.6107245225
 20
649.7803727514
 30
0.0
 40
27.0000000000001
100
AcDbArc
 50
103.0367179551
 51
179.5668948812
  0
ARC
  5
357
330
1F
100
AcDbEntity
  8
0
  6
Continuous
 62
     7
370
    35
100
AcDbCircle
 10
797.6107245225
 20
649.7803727514
 30
0.0
 40
27.0000000000001
100
AcDbArc
 50
180.4331051188
 51
256.9632820449
  0
ARC
  5
358
330
1F
100
AcDbEntity
  8
0
  6
Continuous
 62
     7
370
    35
100
AcDbCircle
 10
903.6107245225
 20
649.7803727514
 30
0.0
 40
27.0000000000001
100
AcDbArc
 50
283.0367179551
 51
359.5668948812
  0
ARC
  5
359
330
1F
100
AcDbEntity
  8
0
  6
Continuous
 62
     8
370
    18
100
AcDbCircle
 10
897.5953572699
 20
665.0168463931
 30
0.0
 40
2.052564240817469
100
AcDbArc
 50
11.6472091993
 51
44.8009049348
  0
SPLINE
  5
35A
330
1F
100
AcDbEntity
  8
0
  6
Continuous
 62
     8
370
    18
100
AcDbSpline
210
0.0
220
0.0
230
1.0
 70
     8
 71
     3
 72
     9
 73
     5
 74
     0
 42
0.000000001
 43
0.00000001
 40
0.0
 40
0.0
 40
0.0
 40
0.0
 40
0.1546895589938839
 40
1.0
 40
1.0
 40
1.0
 40
1.0
 10
903.4939933397948
 20
668.5119462053483
 30
0.0
 10
903.2509408832168
 20
668.4392716703461
 30
0.0
 10
901.6797135931605
 20
667.9694627480444
 30
0.0
 10
900.2555956843345
 20
667.1531847189949
 30
0.0
 10
899.0517739467799
 20
666.4631763782754
 30
0.0
  0
SPLINE
  5
35B
330
1F
100
AcDbEntity
  8
0
  6
Continuous
 62
     8
370
    18
100
AcDbSpline
210
0.0
220
0.0
230
1.0
 70
     8
 71
     3
 72
     9
 73
     5
 74
     0
 42
0.000000001
 43
0.00000001
 40
0.0
 40
0.0
 40
0.0
 40
0.0
 40
0.1546895589938838
 40
1.0
 40
1.0
 40
1.0
 40
1.0
 10
797.7274557051156
 20
668.5119462053483
 30
0.0
 10
797.9705081616936
 20
668.4392716703461
 30
0.0
 10
799.54173545175
 20
667.9694627480444
 30
0.0
 10
800.9658533605761
 20
667.1531847189949
 30
0.0
 10
802.1696750981305
 20
666.4631763782754
 30
0.0
  0
ARC
  5
35C
330
1F
100
AcDbEntity
  8
0
  6
Continuous
 62
     8
370
    18
100
AcDbCircle
 10
803.626091775
 20
665.0168463931
 30
0.0
 40
2.052564240816221
100
AcDbArc
 50
135.1990950652
 51
168.3527908007
  0
SPLINE
  5
35D
330
1F
100
AcDbEntity
  8
0
  6
Continuous
 62
     8
370
    18
100
AcDbSpline
210
0.0
220
0.0
230
1.0
 70
     8
 71
     3
 72
     9
 73
     5
 74
     0
 42
0.000000001
 43
0.00000001
 40
0.0
 40
0.0
 40
0.0
 40
0.0
 40
0.1546895589938838
 40
0.9999999999999999
 40
0.9999999999999999
 40
0.9999999999999999
 40
0.9999999999999999
 10
903.4939933397948
 20
631.0487992973791
 30
0.0
 10
903.2509408832168
 20
631.1214738323814
 30
0.0
 10
901.6797135931605
 20
631.5912827546831
 30
0.0
 10
900.2555956843345
 20
632.4075607837326
 30
0.0
 10
899.0517739467799
 20
633.0975691244521
 30
0.0
  0
ARC
  5
35E
330
1F
100
AcDbEntity
  8
0
  6
Continuous
 62
     8
370
    18
100
AcDbCircle
 10
897.5953572699
 20
634.5438991096
 30
0.0
 40
2.052564240813929
100
AcDbArc
 50
315.1990950652
 51
348.3527908007
  0
ARC
  5
35F
330
1F
100
AcDbEntity
  8
0
  6
Continuous
 62
     8
370
    18
100
AcDbCircle
 10
803.626091775
 20
634.5438991096
 30
0.0
 40
2.052564240815619
100
AcDbArc
 50
191.6472091993
 51
224.8009049348
  0
SPLINE
  5
360
330
1F
100
AcDbEntity
  8
0
  6
Continuous
 62
     8
370
    18
100
AcDbSpline
210
0.0
220
0.0
230
1.0
 70
     8
 71
     3
 72
     9
 73
     5
 74
     0
 42
0.000000001
 43
0.00000001
 40
0.0
 40
0.0
 40
0.0
 40
0.0
 40
0.1546895589938838
 40
1.0
 40
1.0
 40
1.0
 40
1.0
 10
797.7274557051156
 20
631.0487992973791
 30
0.0
 10
797.9705081616936
 20
631.1214738323814
 30
0.0
 10
799.54173545175
 20
631.5912827546831
 30
0.0
 10
800.9658533605761
 20
632.4075607837326
 30
0.0
 10
802.1696750981305
 20
633.0975691244521
 30
0.0
  0
SPLINE
  5
361
330
1F
100
AcDbEntity
  8
0
  6
Continuous
 62
     8
370
    18
100
AcDbSpline
210
0.0
220
0.0
230
1.0
 70
     8
 71
     3
 72
    14
 73
    10
 74
     0
 42
0.000000001
 43
0.00000001
 40
0.0
 40
0.0
 40
0.0
 40
0.0
 40
0.1114289230413317
 40
0.495878564968
 40
0.7046555305618291
 40
0.8301760374257541
 40
0.9121018798659091
 40
0.9942797082137462
 40
1.0
 40
1.0
 40
1.0
 40
1.0
 10
899.05177394678
 20
666.4631763782754
 30
0.0
 10
898.9323829011441
 20
666.3808440130261
 30
0.0
 10
898.4010714717232
 20
666.0144503154489
 30
0.0
 10
897.7267799483685
 20
665.38167916473
 30
0.0
 10
897.2689161606066
 20
664.5906946500297
 30
0.0
 10
897.184458410273
 20
664.080499916167
 30
0.0
 10
897.2669227031254
 20
663.7361713105028
 30
0.0
 10
897.3866296467476
 20
663.55847158977
 30
0.0
 10
897.4673409199538
 20
663.483089020347
 30
0.0
 10
897.4725935013797
 20
663.4781832238176
 30
0.0
  0
SPLINE
  5
362
330
1F
100
AcDbEntity
  8
0
  6
Continuous
 62
     8
370
    18
100
AcDbSpline
210
0.0
220
0.0
230
1.0
 70
     8
 71
     3
 72
    14
 73
    10
 74
     0
 42
0.000000001
 43
0.00000001
 40
0.0
 40
0.0
 40
0.0
 40
0.0
 40
0.1114289230413301
 40
0.4958785649680156
 40
0.7046555305618395
 40
0.8301760374257597
 40
0.912101879865914
 40
0.994279708213752
 40
1.0
 40
1.0
 40
1.0
 40
1.0
 10
899.0517739467799
 20
633.0975691244521
 30
0.0
 10
898.932382901144
 20
633.1799014897014
 30
0.0
 10
898.4010714717231
 20
633.5462951872786
 30
0.0
 10
897.7267799483686
 20
634.1790663379976
 30
0.0
 10
897.2689161606066
 20
634.9700508526979
 30
0.0
 10
897.184458410273
 20
635.4802455865606
 30
0.0
 10
897.2669227031254
 20
635.8245741922249
 30
0.0
 10
897.3866296467477
 20
636.0022739129575
 30
0.0
 10
897.4673409199538
 20
636.0776564823806
 30
0.0
 10
897.4725935013796
 20
636.08256227891
 30
0.0
  0
ARC
  5
363
330
1F
100
AcDbEntity
  8
0
  6
Continuous
 62
     8
370
    18
100
AcDbCircle
 10
896.6107245225
 20
649.7803727514
 30
0.0
 40
20.0
100
AcDbArc
 50
270.0
 51
347.5224163016
  0
LINE
  5
364
330
1F
100
AcDbEntity
  8
0
  6
Continuous
 62
     8
370
    18
100
AcDbLine
 10
896.6107245225
 20
637.0677219645
 30
0.0
 11
896.6107245225
 21
629.7803727514
 31
0.0
  0
LINE
  5
365
330
1F
100
AcDbEntity
  8
0
  6
Continuous
 62
     8
370
    18
100
AcDbLine
 10
896.6107245225
 20
662.4930235383
 30
0.0
 11
896.6107245225
 21
669.7803727514
 31
0.0
  0
ARC
  5
366
330
1F
100
AcDbEntity
  8
0
  6
Continuous
 62
     8
370
    18
100
AcDbCircle
 10
896.6107245225
 20
649.7803727514
 30
0.0
 40
20.0
100
AcDbArc
 50
12.4775836984
 51
90.0
  0
ARC
  5
367
330
1F
100
AcDbEntity
  8
0
  6
Continuous
 62
     8
370
    18
100
AcDbCircle
 10
804.6107245225
 20
649.7803727514
 30
0.0
 40
20.00000000000013
100
AcDbArc
 50
90.0
 51
167.5224163016
  0
LINE
  5
368
330
1F
100
AcDbEntity
  8
0
  6
Continuous
 62
     8
370
    18
100
AcDbLine
 10
804.6107245225
 20
662.4930235383
 30
0.0
 11
804.6107245225
 21
669.7803727514
 31
0.0
  0
LINE
  5
369
330
1F
100
AcDbEntity
  8
0
  6
Continuous
 62
     8
370
    18
100
AcDbLine
 10
804.6107245225
 20
637.0677219645
 30
0.0
 11
804.6107245225
 21
629.7803727514
 31
0.0
  0
ARC
  5
36A
330
1F
100
AcDbEntity
  8
0
  6
Continuous
 62
     8
370
    18
100
AcDbCircle
 10
804.6107245225
 20
649.7803727514
 30
0.0
 40
20.00000000000013
100
AcDbArc
 50
192.4775836984
 51
270.0
  0
SPLINE
  5
36B
330
1F
100
AcDbEntity
  8
0
  6
Continuous
 62
     8
370
    18
100
AcDbSpline
210
0.0
220
0.0
230
1.0
 70
     8
 71
     3
 72
    14
 73
    10
 74
     0
 42
0.000000001
 43
0.00000001
 40
0.0
 40
0.0
 40
0.0
 40
0.0
 40
0.1114289230413297
 40
0.4958785649680168
 40
0.7046555305618399
 40
0.8301760374257577
 40
0.9121018798659118
 40
0.994279708213752
 40
1.0
 40
1.0
 40
1.0
 40
1.0
 10
802.1696750981305
 20
633.0975691244521
 30
0.0
 10
802.2890661437664
 20
633.1799014897014
 30
0.0
 10
802.8203775731873
 20
633.5462951872786
 30
0.0
 10
803.4946690965419
 20
634.1790663379976
 30
0.0
 10
803.9525328843039
 20
634.9700508526979
 30
0.0
 10
804.0369906346374
 20
635.4802455865606
 30
0.0
 10
803.954526341785
 20
635.8245741922249
 30
0.0
 10
803.8348193981628
 20
636.0022739129577
 30
0.0
 10
803.7541081249566
 20
636.0776564823806
 30
0.0
 10
803.7488555435308
 20
636.08256227891
 30
0.0
  0
SPLINE
  5
36C
330
1F
100
AcDbEntity
  8
0
  6
Continuous
 62
     8
370
    18
100
AcDbSpline
210
0.0
220
0.0
230
1.0
 70
     8
 71
     3
 72
    14
 73
    10
 74
     0
 42
0.000000001
 43
0.00000001
 40
0.0
 40
0.0
 40
0.0
 40
0.0
 40
0.1114289230413313
 40
0.4958785649680021
 40
0.7046555305618303
 40
0.8301760374257531
 40
0.9121018798659086
 40
0.9942797082137481
 40
1.0
 40
1.0
 40
1.0
 40
1.0
 10
802.1696750981305
 20
666.4631763782754
 30
0.0
 10
802.2890661437664
 20
666.3808440130261
 30
0.0
 10
802.8203775731873
 20
666.0144503154489
 30
0.0
 10
803.4946690965419
 20
665.38167916473
 30
0.0
 10
803.9525328843039
 20
664.5906946500297
 30
0.0
 10
804.0369906346374
 20
664.080499916167
 30
0.0
 10
803.9545263417853
 20
663.7361713105028
 30
0.0
 10
803.8348193981627
 20
663.55847158977
 30
0.0
 10
803.7541081249566
 20
663.483089020347
 30
0.0
 10
803.7488555435308
 20
663.4781832238176
 30
0.0
  0
SPLINE
  5
36D
330
1F
100
AcDbEntity
  8
0
  6
Continuous
 62
     8
370
    18
100
AcDbSpline
210
0.0
220
0.0
230
1.0
 70
     8
 71
     3
 72
    18
 73
    14
 74
     0
 42
0.000000001
 43
0.00000001
 40
0.0
 40
0.0
 40
0.0
 40
0.0
 40
0.0000017576874324
 40
0.0364929107765217
 40
0.1834197338049768
 40
0.2877695105078327
 40
0.3921441025453801
 40
0.4993591877198508
 40
0.606388685955182
 40
0.7134284383809884
 40
0.817827044422695
 40
0.9079734932070055
 40
1.0
 40
1.0
 40
1.0
 40
1.0
 10
903.6107245224551
 20
671.5260851433533
 30
0.0
 10
903.6107445089493
 20
671.5260851431451
 30
0.0
 10
904.0257018741806
 20
671.52608082158
 30
0.0
 10
906.1109106981401
 20
671.4636964192654
 30
0.0
 10
909.3678596454953
 20
670.894531110789
 30
0.0
 10
913.1551799975782
 20
669.429590779949
 30
0.0
 10
916.2544170381403
 20
667.5812952569306
 30
0.0
 10
919.0474149423518
 20
665.2470031962345
 30
0.0
 10
921.410983993472
 20
662.4381104139957
 30
0.0
 10
923.2662208893587
 20
659.3079582093682
 30
0.0
 10
924.5021518013399
 20
656.0951679892036
 30
0.0
 10
925.2265352044582
 20
652.901244948429
 30
0.0
 10
925.3109660582561
 20
650.8277962727689
 30
0.0
 10
925.3536171560326
 20
649.7803727513638
 30
0.0
  0
LINE
  5
36E
330
1F
100
AcDbEntity
  8
0
  6
Continuous
 62
     8
370
    18
100
AcDbLine
 10
903.6107245225
 20
671.5260851434
 30
0.0
 11
903.6107249195
 21
671.5303727514
 31
0.0
  0
LINE
  5
36F
330
1F
100
AcDbEntity
  8
0
  6
Continuous
 62
     8
370
    18
100
AcDbLine
 10
925.353617156
 20
649.7803727514
 30
0.0
 11
925.349177213
 21
649.7803727514
 31
0.0
  0
LINE
  5
370
330
1F
100
AcDbEntity
  8
0
  6
Continuous
 62
     8
370
    18
100
AcDbLine
 10
903.6107245225
 20
671.5216452189
 30
0.0
 11
903.6107245225
 21
671.5260851434
 31
0.0
  0
SPLINE
  5
371
330
1F
100
AcDbEntity
  8
0
  6
Continuous
 62
     8
370
    18
100
AcDbSpline
210
0.0
220
0.0
230
1.0
 70
     8
 71
     3
 72
    18
 73
    14
 74
     0
 42
0.000000001
 43
0.00000001
 40
0.0
 40
0.0
 40
0.0
 40
0.0
 40
0.0000017576874324
 40
0.0364929107765216
 40
0.1834197338049766
 40
0.2877695105078322
 40
0.3921441025453808
 40
0.4993591877198516
 40
0.6063886859551826
 40
0.7134284383809888
 40
0.8178270444226954
 40
0.9079734932070057
 40
1.0
 40
1.0
 40
1.0
 40
1.0
 10
797.6107245224553
 20
671.5260851433533
 30
0.0
 10
797.6107045359611
 20
671.5260851431452
 30
0.0
 10
797.1957471706343
 20
671.526080821604
 30
0.0
 10
795.1105383469584
 20
671.4636964192181
 30
0.0
 10
791.8535893993641
 20
670.8945311108018
 30
0.0
 10
788.066269047344
 20
669.4295907799462
 30
0.0
 10
784.9670320067669
 20
667.5812952569314
 30
0.0
 10
782.1740341025596
 20
665.2470031962343
 30
0.0
 10
779.8104650514381
 20
662.4381104139957
 30
0.0
 10
777.9552281555518
 20
659.3079582093683
 30
0.0
 10
776.7192972435705
 20
656.0951679892037
 30
0.0
 10
775.9949138404523
 20
652.901244948429
 30
0.0
 10
775.9104829866543
 20
650.8277962727689
 30
0.0
 10
775.8678318888778
 20
649.7803727513639
 30
0.0
  0
LINE
  5
372
330
1F
100
AcDbEntity
  8
0
  6
Continuous
 62
     8
370
    18
100
AcDbLine
 10
797.6107245225
 20
671.5260851434
 30
0.0
 11
797.6107241254
 21
671.5303727514
 31
0.0
  0
LINE
  5
373
330
1F
100
AcDbEntity
  8
0
  6
Continuous
 62
     8
370
    18
100
AcDbLine
 10
775.8678318889
 20
649.7803727514
 30
0.0
 11
775.8722718319
 21
649.7803727514
 31
0.0
  0
LINE
  5
374
330
1F
100
AcDbEntity
  8
0
  6
Continuous
 62
     8
370
    18
100
AcDbLine
 10
797.6107245225
 20
671.5216452189
 30
0.0
 11
797.6107245225
 21
671.5260851434
 31
0.0
  0
SPLINE
  5
375
330
1F
100
AcDbEntity
  8
0
  6
Continuous
 62
     8
370
    18
100
AcDbSpline
210
0.0
220
0.0
230
1.0
 70
     8
 71
     3
 72
    18
 73
    14
 74
     0
 42
0.000000001
 43
0.00000001
 40
0.0
 40
0.0
 40
0.0
 40
0.0
 40
0.0000017576874324
 40
0.0364929107765215
 40
0.183419733804976
 40
0.2877695105078312
 40
0.3921441025453795
 40
0.4993591877198527
 40
0.6063886859551834
 40
0.7134284383809892
 40
0.817827044422695
 40
0.907973493207006
 40
0.9999999999999999
 40
0.9999999999999999
 40
0.9999999999999999
 40
0.9999999999999999
 10
797.6107245224553
 20
628.0346603593742
 30
0.0
 10
797.6107045359611
 20
628.0346603595823
 30
0.0
 10
797.1957471707783
 20
628.0346646811718
 30
0.0
 10
795.110538346675
 20
628.0970490834146
 30
0.0
 10
791.8535893994411
 20
628.6662143919515
 30
0.0
 10
788.0662690473264
 20
630.1311547227754
 30
0.0
 10
784.9670320067717
 20
631.9794502457977
 30
0.0
 10
782.1740341025584
 20
634.3137423064929
 30
0.0
 10
779.8104650514385
 20
637.122635088732
 30
0.0
 10
777.9552281555517
 20
640.2527872933593
 30
0.0
 10
776.7192972435705
 20
643.465577513524
 30
0.0
 10
775.9949138404522
 20
646.6595005542986
 30
0.0
 10
775.9104829866543
 20
648.7329492299588
 30
0.0
 10
775.8678318888778
 20
649.7803727513639
 30
0.0
  0
LINE
  5
376
330
1F
100
AcDbEntity
  8
0
  6
Continuous
 62
     8
370
    18
100
AcDbLine
 10
797.6107245225
 20
628.0391002838
 30
0.0
 11
797.6107245225
 21
628.0346603594
 31
0.0
  0
LINE
  5
377
330
1F
100
AcDbEntity
  8
0
  6
Continuous
 62
     8
370
    18
100
AcDbLine
 10
797.6107245225
 20
628.0346603594
 30
0.0
 11
797.6107241254
 21
628.0303727514
 31
0.0
  0
SPLINE
  5
378
330
1F
100
AcDbEntity
  8
0
  6
Continuous
 62
     8
370
    18
100
AcDbSpline
210
0.0
220
0.0
230
1.0
 70
     8
 71
     3
 72
    18
 73
    14
 74
     0
 42
0.000000001
 43
0.00000001
 40
0.0
 40
0.0
 40
0.0
 40
0.0
 40
0.0000017576874324
 40
0.0364929107765215
 40
0.1834197338049761
 40
0.2877695105078297
 40
0.3921441025453798
 40
0.4993591877198527
 40
0.6063886859551834
 40
0.7134284383809892
 40
0.8178270444226952
 40
0.9079734932070057
 40
1.0
 40
1.0
 40
1.0
 40
1.0
 10
903.6107245224551
 20
628.0346603593741
 30
0.0
 10
903.6107445089493
 20
628.0346603595823
 30
0.0
 10
904.0257018742287
 20
628.0346646811237
 30
0.0
 10
906.1109106980456
 20
628.097049083509
 30
0.0
 10
909.367859645521
 20
628.6662143919258
 30
0.0
 10
913.1551799975723
 20
630.131154722781
 30
0.0
 10
916.254417038142
 20
631.9794502457961
 30
0.0
 10
919.0474149423512
 20
634.3137423064933
 30
0.0
 10
921.4109839934721
 20
637.1226350887318
 30
0.0
 10
923.2662208893587
 20
640.2527872933593
 30
0.0
 10
924.5021518013399
 20
643.465577513524
 30
0.0
 10
925.2265352044582
 20
646.6595005542986
 30
0.0
 10
925.3109660582561
 20
648.7329492299588
 30
0.0
 10
925.3536171560326
 20
649.7803727513638
 30
0.0
  0
LINE
  5
379
330
1F
100
AcDbEntity
  8
0
  6
Continuous
 62
     8
370
    18
100
AcDbLine
 10
903.6107245225
 20
628.0391002838
 30
0.0
 11
903.6107245225
 21
628.0346603594
 31
0.0
  0
LINE
  5
37A
330
1F
100
AcDbEntity
  8
0
  6
Continuous
 62
     8
370
    18
100
AcDbLine
 10
903.6107245225
 20
628.0346603594
 30
0.0
 11
903.6107249195
 21
628.0303727514
 31
0.0
  0
LINE
  5
37B
330
1F
100
AcDbEntity
  8
0
  6
Continuous
 62
     8
370
    18
100
AcDbLine
 10
896.6107245225
 20
629.7803727514
 30
0.0
 11
804.6107245225
 21
629.7803727514
 31
0.0
  0
LINE
  5
37C
330
1F
100
AcDbEntity
  8
0
  6
Continuous
 62
     8
370
    18
100
AcDbLine
 10
896.6107245225
 20
669.7803727514
 30
0.0
 11
804.6107245225
 21
669.7803727514
 31
0.0
  0
LINE
  5
37D
330
1F
100
AcDbEntity
  8
0
  6
Continuous
 62
     8
370
    18
100
AcDbLine
 10
903.6107245225
 20
671.5260851434
 30
0.0
 11
797.6107245225
 21
671.5260851434
 31
0.0
  0
LINE
  5
37E
330
1F
100
AcDbEntity
  8
0
  6
Continuous
 62
     8
370
    18
100
AcDbLine
 10
903.6107245225
 20
628.0346603594
 30
0.0
 11
797.6107245225
 21
628.0346603594
 31
0.0
  0
LINE
  5
37F
330
1F
100
AcDbEntity
  8
0
  6
Continuous
 62
     8
370
    18
100
AcDbLine
 10
903.6107245225
 20
671.5303727514
 30
0.0
 11
903.6107245225
 21
676.0303727514
 31
0.0
  0
LINE
  5
380
330
1F
100
AcDbEntity
  8
0
  6
Continuous
 62
     8
370
    18
100
AcDbLine
 10
797.6107245225
 20
671.5303727514
 30
0.0
 11
797.6107245225
 21
676.0303727514
 31
0.0
  0
LINE
  5
381
330
1F
100
AcDbEntity
  8
0
  6
Continuous
 62
     8
370
    18
100
AcDbLine
 10
903.6107245225
 20
676.0303727514
 30
0.0
 11
797.6107245225
 21
676.0303727514
 31
0.0
  0
LINE
  5
382
330
1F
100
AcDbEntity
  8
0
  6
Continuous
 62
     8
370
    18
100
AcDbLine
 10
903.6107245225
 20
676.0303727514
 30
0.0
 11
903.6107245225
 21
676.7803727514
 31
0.0
  0
LINE
  5
383
330
1F
100
AcDbEntity
  8
0
  6
Continuous
 62
     8
370
    18
100
AcDbLine
 10
797.6107245225
 20
676.0303727514
 30
0.0
 11
797.6107245225
 21
676.7803727514
 31
0.0
  0
LINE
  5
384
330
1F
100
AcDbEntity
  8
0
  6
Continuous
 62
     8
370
    18
100
AcDbLine
 10
903.6107245225
 20
628.0303727514
 30
0.0
 11
903.6107245225
 21
623.5303727514
 31
0.0
  0
ARC
  5
385
330
1F
100
AcDbEntity
  8
0
  6
Continuous
 62
     8
370
    18
100
AcDbCircle
 10
903.6107245225
 20
649.7803727514
 30
0.0
 40
26.25000000000011
100
AcDbArc
 50
270.0
 51
90.0
  0
LINE
  5
386
330
1F
100
AcDbEntity
  8
0
  6
Continuous
 62
     8
370
    18
100
AcDbLine
 10
903.6107245225
 20
623.5303727514
 30
0.0
 11
903.6107245225
 21
622.7803727514
 31
0.0
  0
LINE
  5
387
330
1F
100
AcDbEntity
  8
0
  6
Continuous
 62
     8
370
    18
100
AcDbLine
 10
797.6107245225
 20
628.0303727514
 30
0.0
 11
797.6107245225
 21
623.5303727514
 31
0.0
  0
ARC
  5
388
330
1F
100
AcDbEntity
  8
0
  6
Continuous
 62
     8
370
    18
100
AcDbCircle
 10
797.6107245225
 20
649.7803727514
 30
0.0
 40
26.25000000000011
100
AcDbArc
 50
90.0
 51
270.0
  0
LINE
  5
389
330
1F
100
AcDbEntity
  8
0
  6
Continuous
 62
     8
370
    18
100
AcDbLine
 10
797.6107245225
 20
623.5303727514
 30
0.0
 11
797.6107245225
 21
622.7803727514
 31
0.0
  0
LINE
  5
38A
330
1F
100
AcDbEntity
  8
0
  6
Continuous
 62
     8
370
    18
100
AcDbLine
 10
903.6107245225
 20
623.5303727514
 30
0.0
 11
797.6107245225
 21
623.5303727514
 31
0.0
  0
CIRCLE
  5
38B
330
1F
100
AcDbEntity
  8
0
  6
Continuous
 62
     8
370
    18
100
AcDbCircle
 10
850.6107245225
 20
649.7803727514
 30
0.0
 40
5.61470943354675
  0
ARC
  5
38C
330
1F
100
AcDbEntity
  8
0
  6
Continuous
 62
     8
370
    18
100
AcDbCircle
 10
850.6107245225
 20
649.7803727514
 30
0.0
 40
7.463480267439844
100
AcDbArc
 50
306.49444767
 51
53.5055523299
  0
ARC
  5
38D
330
1F
100
AcDbEntity
  8
0
  6
Continuous
 62
     8
370
    18
100
AcDbCircle
 10
850.6107245225
 20
649.7803727514
 30
0.0
 40
7.463480267439909
100
AcDbArc
 50
126.4944476701
 51
233.50555233
  0
ARC
  5
38E
330
1F
100
AcDbEntity
  8
0
  6
Continuous
 62
     8
370
    18
100
AcDbCircle
 10
850.6107245225
 20
649.7803727514
 30
0.0
 40
8.284968901367112
100
AcDbArc
 50
313.5974061618
 51
46.4025938382
  0
ARC
  5
38F
330
1F
100
AcDbEntity
  8
0
  6
Continuous
 62
     8
370
    18
100
AcDbCircle
 10
850.6107245225
 20
649.7803727514
 30
0.0
 40
8.284968901367112
100
AcDbArc
 50
133.5974061618
 51
226.4025938382
  0
LINE
  5
390
330
1F
100
AcDbEntity
  8
0
  6
Continuous
 62
     8
370
    18
100
AcDbLine
 10
1391.6107245225
 20
614.7803727514
 30
0.0
 11
1391.6107245225
 21
699.2803727514
 31
0.0
  0
LINE
  5
391
330
1F
100
AcDbEntity
  8
0
  6
Continuous
 62
     8
370
    18
100
AcDbLine
 10
309.6107245225
 20
614.7803727514
 30
0.0
 11
309.6107245225
 21
699.2803727514
 31
0.0
  0
LINE
  5
392
330
1F
100
AcDbEntity
  8
0
  6
Continuous
 62
     8
370
    18
100
AcDbLine
 10
288.1107245225
 20
700.3053727514
 30
0.0
 11
288.1107245225
 21
699.3053727514
 31
0.0
  0
LINE
  5
393
330
1F
100
AcDbEntity
  8
0
  6
Continuous
 62
     8
370
    18
100
AcDbLine
 10
278.1107245225
 20
698.3053727514
 30
0.0
 11
308.6107245225
 21
698.3053727514
 31
0.0
  0
LINE
  5
394
330
1F
100
AcDbEntity
  8
0
  6
Continuous
 62
     8
370
    18
100
AcDbLine
 10
1413.1107245225
 20
699.3053727514
 30
0.0
 11
1413.1107245225
 21
700.3053727514
 31
0.0
  0
LINE
  5
395
330
1F
100
AcDbEntity
  8
0
  6
Continuous
 62
     8
370
    18
100
AcDbLine
 10
1392.6107245225
 20
698.3053727514
 30
0.0
 11
1423.1107245225
 21
698.3053727514
 31
0.0
  0
LINE
  5
396
330
1F
100
AcDbEntity
  8
0
  6
Continuous
 62
     8
370
    18
100
AcDbLine
 10
310.6107245225
 20
698.2803727514
 30
0.0
 11
1390.6107245225
 21
698.2803727514
 31
0.0
  0
LINE
  5
397
330
1F
100
AcDbEntity
  8
0
  6
Continuous
 62
     8
370
    18
100
AcDbLine
 10
1390.6107245225
 20
683.7803727514
 30
0.0
 11
310.6107245225
 21
683.7803727514
 31
0.0
  0
LINE
  5
398
330
1F
100
AcDbEntity
  8
0
  6
Continuous
 62
     8
370
    18
100
AcDbLine
 10
310.6107245225
 20
613.7803727514
 30
0.0
 11
1390.6107245225
 21
613.7803727514
 31
0.0
  0
LINE
  5
399
330
1F
100
AcDbEntity
  8
0
  6
Continuous
 62
     8
370
    18
100
AcDbLine
 10
310.6107245225
 20
680.8370655389
 30
0.0
 11
1390.6107245225
 21
680.8370655389
 31
0.0
  0
LINE
  5
39A
330
1F
100
AcDbEntity
  8
0
  6
Continuous
 62
     8
370
    18
100
AcDbLine
 10
310.6107245225
 20
618.7236799638
 30
0.0
 11
1390.6107245225
 21
618.7236799638
 31
0.0
  0
SPLINE
  5
39B
330
1F
100
AcDbEntity
  8
0
  6
Continuous
 62
     8
370
    18
100
AcDbSpline
210
0.0
220
0.0
230
1.0
 70
     8
 71
     3
 72
    14
 73
    10
 74
     0
 42
0.000000001
 43
0.00000001
 40
0.0
 40
0.0
 40
0.0
 40
0.0
 40
0.2500000000000001
 40
0.2500000000000001
 40
0.5000000000000001
 40
0.5000000000000001
 40
0.7500000000000001
 40
0.7500000000000001
 40
1.0
 40
1.0
 40
1.0
 40
1.0
 10
767.6115816206088
 20
649.8370655389273
 30
0.0
 10
767.6368232067521
 20
653.1762290477425
 30
0.0
 10
768.2246991499399
 20
656.5104511174834
 30
0.0
 10
770.4612460510356
 20
662.8033406178873
 30
0.0
 10
772.1094559883379
 20
665.7607108918814
 30
0.0
 10
776.284985882591
 20
670.9729609249571
 30
0.0
 10
778.8114451353373
 20
673.2267662801593
 30
0.0
 10
784.464669686919
 20
676.7825576793405
 30
0.0
 10
787.5902696835623
 20
678.0838107661419
 30
0.0
 10
790.8434615505678
 20
678.8370655389272
 30
0.0
  0
LINE
  5
39C
330
1F
100
AcDbEntity
  8
0
  6
Continuous
 62
     8
370
    18
100
AcDbLine
 10
310.6107245225
 20
649.8370655389
 30
0.0
 11
767.6115816206
 21
649.8370655389
 31
0.0
  0
LINE
  5
39D
330
1F
100
AcDbEntity
  8
0
  6
Continuous
 62
     8
370
    18
100
AcDbLine
 10
933.6098674243
 20
649.8370655389
 30
0.0
 11
1390.6107245225
 21
649.8370655389
 31
0.0
  0
SPLINE
  5
39E
330
1F
100
AcDbEntity
  8
0
  6
Continuous
 62
     8
370
    18
100
AcDbSpline
210
0.0
220
0.0
230
1.0
 70
     8
 71
     3
 72
    14
 73
    10
 74
     0
 42
0.000000001
 43
0.00000001
 40
0.0
 40
0.0
 40
0.0
 40
0.0
 40
0.25
 40
0.25
 40
0.5
 40
0.5
 40
0.75
 40
0.75
 40
1.0
 40
1.0
 40
1.0
 40
1.0
 10
910.3779874943432
 20
678.8370655389273
 30
0.0
 10
913.6311793613487
 20
678.0838107661419
 30
0.0
 10
916.756779357992
 20
676.7825576793405
 30
0.0
 10
922.4100039095736
 20
673.2267662801593
 30
0.0
 10
924.93646316232
 20
670.9729609249571
 30
0.0
 10
929.111993056573
 20
665.7607108918814
 30
0.0
 10
930.7602029938754
 20
662.8033406178873
 30
0.0
 10
932.9967498949711
 20
656.5104511174833
 30
0.0
 10
933.5846258381589
 20
653.1762290477424
 30
0.0
 10
933.609867424302
 20
649.8370655389272
 30
0.0
  0
LINE
  5
39F
330
1F
100
AcDbEntity
  8
0
  6
Continuous
 62
     8
370
    18
100
AcDbLine
 10
310.6107245225
 20
649.7236799638
 30
0.0
 11
767.6115816206
 21
649.7236799638
 31
0.0
  0
SPLINE
  5
3A0
330
1F
100
AcDbEntity
  8
0
  6
Continuous
 62
     8
370
    18
100
AcDbSpline
210
0.0
220
0.0
230
1.0
 70
     8
 71
     3
 72
    14
 73
    10
 74
     0
 42
0.000000001
 43
0.00000001
 40
0.0
 40
0.0
 40
0.0
 40
0.0
 40
0.2500000000000002
 40
0.2500000000000002
 40
0.5000000000000003
 40
0.5000000000000003
 40
0.7500000000000002
 40
0.7500000000000002
 40
1.0
 40
1.0
 40
1.0
 40
1.0
 10
790.8434615505676
 20
620.7236799638005
 30
0.0
 10
787.5902696835622
 20
621.4769347365857
 30
0.0
 10
784.464669686919
 20
622.7781878233872
 30
0.0
 10
778.8114451353373
 20
626.3339792225684
 30
0.0
 10
776.2849858825908
 20
628.5877845777705
 30
0.0
 10
772.1094559883379
 20
633.8000346108462
 30
0.0
 10
770.4612460510356
 20
636.7574048848403
 30
0.0
 10
768.2246991499397
 20
643.0502943852442
 30
0.0
 10
767.6368232067521
 20
646.3845164549851
 30
0.0
 10
767.6115816206088
 20
649.7236799638004
 30
0.0
  0
SPLINE
  5
3A1
330
1F
100
AcDbEntity
  8
0
  6
Continuous
 62
     8
370
    18
100
AcDbSpline
210
0.0
220
0.0
230
1.0
 70
     8
 71
     3
 72
    14
 73
    10
 74
     0
 42
0.000000001
 43
0.00000001
 40
0.0
 40
0.0
 40
0.0
 40
0.0
 40
0.25
 40
0.25
 40
0.5
 40
0.5
 40
0.75
 40
0.75
 40
1.0
 40
1.0
 40
1.0
 40
1.0
 10
933.609867424302
 20
649.7236799638004
 30
0.0
 10
933.5846258381589
 20
646.3845164549851
 30
0.0
 10
932.9967498949711
 20
643.0502943852443
 30
0.0
 10
930.7602029938754
 20
636.7574048848403
 30
0.0
 10
929.111993056573
 20
633.8000346108462
 30
0.0
 10
924.9364631623201
 20
628.5877845777705
 30
0.0
 10
922.4100039095737
 20
626.3339792225684
 30
0.0
 10
916.756779357992
 20
622.7781878233872
 30
0.0
 10
913.6311793613487
 20
621.4769347365857
 30
0.0
 10
910.3779874943434
 20
620.7236799638005
 30
0.0
  0
LINE
  5
3A2
330
1F
100
AcDbEntity
  8
0
  6
Continuous
 62
     8
370
    18
100
AcDbLine
 10
933.6098674243
 20
649.7236799638
 30
0.0
 11
1390.6107245225
 21
649.7236799638
 31
0.0
  0
LINE
  5
3A3
330
1F
100
AcDbEntity
  8
0
  6
Continuous
 62
     8
370
    18
100
AcDbLine
 10
903.6107245225
 20
679.0353524493
 30
0.0
 11
903.6107245225
 21
679.0303727514
 31
0.0
  0
LINE
  5
3A4
330
1F
100
AcDbEntity
  8
0
  6
Continuous
 62
     8
370
    18
100
AcDbLine
 10
797.6107245225
 20
679.0353524493
 30
0.0
 11
797.6107245225
 21
679.0303727514
 31
0.0
  0
ARC
  5
3A5
330
1F
100
AcDbEntity
  8
0
  6
Continuous
 62
     8
370
    18
100
AcDbCircle
 10
857.3610139226
 20
690.4118005053
 30
0.0
 40
54.2657716820375
100
AcDbArc
 50
344.6911781266
 51
347.6843554441
  0
LINE
  5
3A6
330
1F
100
AcDbEntity
  8
0
  6
Continuous
 62
     8
370
    18
100
AcDbLine
 10
903.6107245225
 20
679.0303727514
 30
0.0
 11
903.6107245225
 21
676.7803727514
 31
0.0
  0
LINE
  5
3A7
330
1F
100
AcDbEntity
  8
0
  6
Continuous
 62
     8
370
    18
100
AcDbLine
 10
797.6107245225
 20
679.0303727514
 30
0.0
 11
797.6107245225
 21
676.7803727514
 31
0.0
  0
ARC
  5
3A8
330
1F
100
AcDbEntity
  8
0
  6
Continuous
 62
     8
370
    18
100
AcDbCircle
 10
843.8604351222
 20
690.4118005053
 30
0.0
 40
54.26577168195826
100
AcDbArc
 50
192.3156445558
 51
195.3088218734
  0
ARC
  5
3A9
330
1F
100
AcDbEntity
  8
0
  6
Continuous
 62
     8
370
    18
100
AcDbCircle
 10
843.8604351229
 20
609.1489449973
 30
0.0
 40
54.26577168265401
100
AcDbArc
 50
164.6911781266
 51
167.6843554441
  0
LINE
  5
3AA
330
1F
100
AcDbEntity
  8
0
  6
Continuous
 62
     8
370
    18
100
AcDbLine
 10
797.6107245225
 20
622.7803727514
 30
0.0
 11
797.6107245225
 21
620.5303727514
 31
0.0
  0
LINE
  5
3AB
330
1F
100
AcDbEntity
  8
0
  6
Continuous
 62
     8
370
    18
100
AcDbLine
 10
903.6107245225
 20
622.7803727514
 30
0.0
 11
903.6107245225
 21
620.5303727514
 31
0.0
  0
ARC
  5
3AC
330
1F
100
AcDbEntity
  8
0
  6
Continuous
 62
     8
370
    18
100
AcDbCircle
 10
857.3610139216
 20
609.1489449972
 30
0.0
 40
54.26577168305669
100
AcDbArc
 50
12.3156445559
 51
15.3088218734
  0
LINE
  5
3AD
330
1F
100
AcDbEntity
  8
0
  6
Continuous
 62
     8
370
    18
100
AcDbLine
 10
797.6107245225
 20
620.5253930534
 30
0.0
 11
797.6107245225
 21
620.5303727514
 31
0.0
  0
LINE
  5
3AE
330
1F
100
AcDbEntity
  8
0
  6
Continuous
 62
     8
370
    18
100
AcDbLine
 10
903.6107245225
 20
620.5253930534
 30
0.0
 11
903.6107245225
 21
620.5303727514
 31
0.0
  0
ARC
  5
3AF
330
1F
100
AcDbEntity
  8
0
  6
Continuous
 62
     8
370
    18
100
AcDbCircle
 10
932.7780302899
 20
664.2349376635
 30
0.0
 40
14.42188180276891
100
AcDbArc
 50
261.3675974434
 51
273.306588142
  0
ARC
  5
3B0
330
1F
100
AcDbEntity
  8
0
  6
Continuous
 62
     8
370
    18
100
AcDbCircle
 10
768.443418755
 20
664.2349376635
 30
0.0
 40
14.42188180276818
100
AcDbArc
 50
266.693411858
 51
278.6324025566
  0
ARC
  5
3B1
330
1F
100
AcDbEntity
  8
0
  6
Continuous
 62
     8
370
    18
100
AcDbCircle
 10
768.443418755
 20
635.3258078393
 30
0.0
 40
14.42188180275372
100
AcDbArc
 50
81.3675974434
 51
93.306588142
  0
ARC
  5
3B2
330
1F
100
AcDbEntity
  8
0
  6
Continuous
 62
     8
370
    18
100
AcDbCircle
 10
932.7780302899
 20
635.3258078393
 30
0.0
 40
14.42188180275329
100
AcDbArc
 50
86.693411858
 51
98.6324025566
  0
SPLINE
  5
3B3
330
1F
100
AcDbEntity
  8
0
  6
Continuous
 62
     8
370
    18
100
AcDbSpline
210
0.0
220
0.0
230
1.0
 70
     8
 71
     3
 72
     8
 73
     4
 74
     0
 42
0.000000001
 43
0.00000001
 40
0.0
 40
0.0
 40
0.0
 40
0.0
 40
1.0
 40
1.0
 40
1.0
 40
1.0
 10
933.609867424302
 20
649.8370655389272
 30
0.0
 10
933.6110102381654
 20
649.7992703472183
 30
0.0
 10
933.6110102381654
 20
649.7614751555093
 30
0.0
 10
933.609867424302
 20
649.7236799638004
 30
0.0
  0
SPLINE
  5
3B4
330
1F
100
AcDbEntity
  8
0
  6
Continuous
 62
     8
370
    18
100
AcDbSpline
210
0.0
220
0.0
230
1.0
 70
     8
 71
     3
 72
     8
 73
     4
 74
     0
 42
0.000000001
 43
0.00000001
 40
0.0
 40
0.0
 40
0.0
 40
0.0
 40
1.0
 40
1.0
 40
1.0
 40
1.0
 10
767.6115816206088
 20
649.7236799638004
 30
0.0
 10
767.6104388067457
 20
649.7614751555093
 30
0.0
 10
767.6104388067457
 20
649.7992703472183
 30
0.0
 10
767.6115816206088
 20
649.8370655389272
 30
0.0
  0
ENDSEC
  0
SECTION
  2
OBJECTS
  0
DICTIONARY
  5
C
330
0
100
AcDbDictionary
281
     1
  3
ACAD_GROUP
350
D
  3
ACAD_LAYOUT
350
1A
  3
ACAD_MLINESTYLE
350
17
  3
ACAD_PLOTSETTINGS
350
19
  3
ACAD_PLOTSTYLENAME
350
E
  3
ACAD_SCALELIST
350
47
  0
DICTIONARY
  5
D
102
{ACAD_REACTORS
330
C
102
}
330
C
100
AcDbDictionary
281
     1
  0
DICTIONARY
  5
1A
102
{ACAD_REACTORS
330
C
102
}
330
C
100
AcDbDictionary
281
     1
  3
Layout1
350
1E
  3
Layout2
350
26
  3
Model
350
22
  0
DICTIONARY
  5
17
102
{ACAD_REACTORS
330
C
102
}
330
C
100
AcDbDictionary
281
     1
  3
Standard
350
18
  0
DICTIONARY
  5
19
102
{ACAD_REACTORS
330
C
102
}
330
C
100
AcDbDictionary
281
     1
  0
ACDBDICTIONARYWDFLT
  5
E
102
{ACAD_REACTORS
330
C
102
}
330
C
100
AcDbDictionary
281
     1
  3
Normal
350
F
100
AcDbDictionaryWithDefault
340
F
  0
DICTIONARY
  5
47
102
{ACAD_REACTORS
330
C
102
}
330
C
100
AcDbDictionary
281
     1
  3
A0
350
48
  3
A1
350
49
  3
A2
350
4A
  3
A3
350
4B
  3
A4
350
4C
  3
A5
350
4D
  3
A6
350
4E
  3
A7
350
4F
  3
A8
350
50
  3
A9
350
51
  3
B0
350
52
  3
B1
350
53
  3
B2
350
54
  3
B3
350
55
  3
B4
350
56
  3
B5
350
57
  3
B6
350
58
  3
B7
350
59
  3
B8
350
5A
  3
B9
350
5B
  3
C0
350
5C
  3
C1
350
5D
  3
C2
350
5E
  3
C3
350
5F
  3
C4
350
60
  3
C5
350
61
  3
C6
350
62
  3
C7
350
63
  3
C8
350
64
  3
C9
350
65
  3
D0
350
66
  3
D1
350
67
  3
D2
350
68
  0
LAYOUT
  5
1E
102
{ACAD_REACTORS
330
1A
102
}
330
1A
100
AcDbPlotSettings
  1

  2
none_device
  4

  6

 40
0.0
 41
0.0
 42
0.0
 43
0.0
 44
0.0
 45
0.0
 46
0.0
 47
0.0
 48
0.0
 49
0.0
140
0.0
141
0.0
142
1.0
143
1.0
 70
   688
 72
     1
 73
     0
 74
     5
  7

 75
    16
147
1.0
148
0.0
149
0.0
100
AcDbLayout
  1
Layout1
 70
     1
 71
     1
 10
0.0
 20
0.0
 11
420.0
 21
297.0
 12
0.0
 22
0.0
 32
0.0
 14
1.0000000000E+20
 24
1.0000000000E+20
 34
1.0000000000E+20
 15
-1.0000000000E+20
 25
-1.0000000000E+20
 35
-1.0000000000E+20
146
0.0
 13
0.0
 23
0.0
 33
0.0
 16
1.0
 26
0.0
 36
0.0
 17
0.0
 27
1.0
 37
0.0
 76
     0
330
1B
  0
LAYOUT
  5
26
102
{ACAD_REACTORS
330
1A
102
}
330
1A
100
AcDbPlotSettings
  1

  2
none_device
  4

  6

 40
0.0
 41
0.0
 42
0.0
 43
0.0
 44
0.0
 45
0.0
 46
0.0
 47
0.0
 48
0.0
 49
0.0
140
0.0
141
0.0
142
1.0
143
1.0
 70
   688
 72
     1
 73
     0
 74
     5
  7

 75
    16
147
1.0
148
0.0
149
0.0
100
AcDbLayout
  1
Layout2
 70
     1
 71
     2
 10
0.0
 20
0.0
 11
0.0
 21
0.0
 12
0.0
 22
0.0
 32
0.0
 14
0.0
 24
0.0
 34
0.0
 15
0.0
 25
0.0
 35
0.0
146
0.0
 13
0.0
 23
0.0
 33
0.0
 16
1.0
 26
0.0
 36
0.0
 17
0.0
 27
1.0
 37
0.0
 76
     0
330
23
  0
LAYOUT
  5
22
102
{ACAD_REACTORS
330
1A
102
}
330
1A
100
AcDbPlotSettings
  1

  2
none_device
  4
Letter_(8.50_x_11.00_Inches)
  6

 40
6.35
 41
6.35
 42
6.35000508
 43
6.35000508
 44
215.9
 45
279.4
 46
0.0
 47
0.0
 48
0.0
 49
0.0
140
0.0
141
0.0
142
1.0
143
1.0
 70
  1712
 72
     1
 73
     0
 74
     0
  7

 75
     0
147
1.0
148
0.0
149
0.0
100
AcDbLayout
  1
Model
 70
     1
 71
     0
 10
0.0
 20
0.0
 11
2100.0
 21
1485.0
 12
0.0
 22
0.0
 32
0.0
 14
0.0
 24
0.0
 34
0.0
 15
2100.0
 25
1485.0
 35
0.0
146
0.0
 13
0.0
 23
0.0
 33
0.0
 16
1.0
 26
0.0
 36
0.0
 17
0.0
 27
1.0
 37
0.0
 76
     0
330
1F
331
29
  0
MLINESTYLE
  5
18
102
{ACAD_REACTORS
330
17
102
}
330
17
100
AcDbMlineStyle
  2
Standard
 70
     0
  3

 62
   256
 51
90.0
 52
90.0
 71
     2
 49
0.5
 62
   256
  6
BYLAYER
 49
-0.5
 62
   256
  6
BYLAYER
  0
ACDBPLACEHOLDER
  5
F
102
{ACAD_REACTORS
330
E
102
}
330
E
  0
SCALE
  5
48
102
{ACAD_REACTORS
330
47
102
}
330
47
100
AcDbScale
 70
     0
300
1:1
140
1.0
141
1.0
290
     1
  0
SCALE
  5
49
102
{ACAD_REACTORS
330
47
102
}
330
47
100
AcDbScale
 70
     0
300
1:2
140
1.0
141
2.0
290
     0
  0
SCALE
  5
4A
102
{ACAD_REACTORS
330
47
102
}
330
47
100
AcDbScale
 70
     0
300
1:4
140
1.0
141
4.0
290
     0
  0
SCALE
  5
4B
102
{ACAD_REACTORS
330
47
102
}
330
47
100
AcDbScale
 70
     0
300
1:5
140
1.0
141
5.0
290
     0
  0
SCALE
  5
4C
102
{ACAD_REACTORS
330
47
102
}
330
47
100
AcDbScale
 70
     0
300
1:8
140
1.0
141
8.0
290
     0
  0
SCALE
  5
4D
102
{ACAD_REACTORS
330
47
102
}
330
47
100
AcDbScale
 70
     0
300
1:10
140
1.0
141
10.0
290
     0
  0
SCALE
  5
4E
102
{ACAD_REACTORS
330
47
102
}
330
47
100
AcDbScale
 70
     0
300
1:16
140
1.0
141
16.0
290
     0
  0
SCALE
  5
4F
102
{ACAD_REACTORS
330
47
102
}
330
47
100
AcDbScale
 70
     0
300
1:20
140
1.0
141
20.0
290
     0
  0
SCALE
  5
50
102
{ACAD_REACTORS
330
47
102
}
330
47
100
AcDbScale
 70
     0
300
1:30
140
1.0
141
30.0
290
     0
  0
SCALE
  5
51
102
{ACAD_REACTORS
330
47
102
}
330
47
100
AcDbScale
 70
     0
300
1:40
140
1.0
141
40.0
290
     0
  0
SCALE
  5
52
102
{ACAD_REACTORS
330
47
102
}
330
47
100
AcDbScale
 70
     0
300
1:50
140
1.0
141
50.0
290
     0
  0
SCALE
  5
53
102
{ACAD_REACTORS
330
47
102
}
330
47
100
AcDbScale
 70
     0
300
1:100
140
1.0
141
100.0
290
     0
  0
SCALE
  5
54
102
{ACAD_REACTORS
330
47
102
}
330
47
100
AcDbScale
 70
     0
300
2:1
140
2.0
141
1.0
290
     0
  0
SCALE
  5
55
102
{ACAD_REACTORS
330
47
102
}
330
47
100
AcDbScale
 70
     0
300
4:1
140
4.0
141
1.0
290
     0
  0
SCALE
  5
56
102
{ACAD_REACTORS
330
47
102
}
330
47
100
AcDbScale
 70
     0
300
8:1
140
8.0
141
1.0
290
     0
  0
SCALE
  5
57
102
{ACAD_REACTORS
330
47
102
}
330
47
100
AcDbScale
 70
     0
300
10:1
140
10.0
141
1.0
290
     0
  0
SCALE
  5
58
102
{ACAD_REACTORS
330
47
102
}
330
47
100
AcDbScale
 70
     0
300
100:1
140
100.0
141
1.0
290
     0
  0
SCALE
  5
59
102
{ACAD_REACTORS
330
47
102
}
330
47
100
AcDbScale
 70
     0
300
1/128" = 1'-0"
140
0.0078125
141
12.0
290
     0
  0
SCALE
  5
5A
102
{ACAD_REACTORS
330
47
102
}
330
47
100
AcDbScale
 70
     0
300
1/64" = 1'-0"
140
0.015625
141
12.0
290
     0
  0
SCALE
  5
5B
102
{ACAD_REACTORS
330
47
102
}
330
47
100
AcDbScale
 70
     0
300
1/32" = 1'-0"
140
0.03125
141
12.0
290
     0
  0
SCALE
  5
5C
102
{ACAD_REACTORS
330
47
102
}
330
47
100
AcDbScale
 70
     0
300
1/16" = 1'-0"
140
0.0625
141
12.0
290
     0
  0
SCALE
  5
5D
102
{ACAD_REACTORS
330
47
102
}
330
47
100
AcDbScale
 70
     0
300
3/32" = 1'-0"
140
0.09375
141
12.0
290
     0
  0
SCALE
  5
5E
102
{ACAD_REACTORS
330
47
102
}
330
47
100
AcDbScale
 70
     0
300
1/8" = 1'-0"
140
0.125
141
12.0
290
     0
  0
SCALE
  5
5F
102
{ACAD_REACTORS
330
47
102
}
330
47
100
AcDbScale
 70
     0
300
3/16" = 1'-0"
140
0.1875
141
12.0
290
     0
  0
SCALE
  5
60
102
{ACAD_REACTORS
330
47
102
}
330
47
100
AcDbScale
 70
     0
300
1/4" = 1'-0"
140
0.25
141
12.0
290
     0
  0
SCALE
  5
61
102
{ACAD_REACTORS
330
47
102
}
330
47
100
AcDbScale
 70
     0
300
3/8" = 1'-0"
140
0.375
141
12.0
290
     0
  0
SCALE
  5
62
102
{ACAD_REACTORS
330
47
102
}
330
47
100
AcDbScale
 70
     0
300
1/2" = 1'-0"
140
0.5
141
12.0
290
     0
  0
SCALE
  5
63
102
{ACAD_REACTORS
330
47
102
}
330
47
100
AcDbScale
 70
     0
300
3/4" = 1'-0"
140
0.75
141
12.0
290
     0
  0
SCALE
  5
64
102
{ACAD_REACTORS
330
47
102
}
330
47
100
AcDbScale
 70
     0
300
1" = 1'-0"
140
1.0
141
12.0
290
     0
  0
SCALE
  5
65
102
{ACAD_REACTORS
330
47
102
}
330
47
100
AcDbScale
 70
     0
300
1-1/2" = 1'-0"
140
1.5
141
12.0
290
     0
  0
SCALE
  5
66
102
{ACAD_REACTORS
330
47
102
}
330
47
100
AcDbScale
 70
     0
300
3" = 1'-0"
140
3.0
141
12.0
290
     0
  0
SCALE
  5
67
102
{ACAD_REACTORS
330
47
102
}
330
47
100
AcDbScale
 70
     0
300
6" = 1'-0"
140
6.0
141
12.0
290
     0
  0
SCALE
  5
68
102
{ACAD_REACTORS
330
47
102
}
330
47
100
AcDbScale
 70
     0
300
1'-0" = 1'-0"
140
12.0
141
12.0
290
     0
  0
ENDSEC
  0
EOF
