  0
SECTION
  2
HEADER
  9
$ACADVER
  1
AC1015
  9
$ACADMAINTVER
 70
     6
  9
$DWGCODEPAGE
  3
ANSI_1252
  9
$INSBASE
 10
0.0
 20
0.0
 30
0.0
  9
$EXTMIN
 10
0.0
 20
0.0
 30
0.0
  9
$EXTMAX
 10
2100.0
 20
1485.0
 30
0.0
  9
$LIMMIN
 10
0.0
 20
0.0
  9
$LIMMAX
 10
2100.0
 20
1485.0
  9
$ORTHOMODE
 70
     0
  9
$REGENMODE
 70
     1
  9
$FILLMODE
 70
     1
  9
$QTEXTMODE
 70
     0
  9
$MIRRTEXT
 70
     1
  9
$LTSCALE
 40
5.0
  9
$ATTMODE
 70
     1
  9
$TEXTSIZE
 40
12.5
  9
$TRACEWID
 40
1.0
  9
$TEXTSTYLE
  7
Standard
  9
$CLAYER
  8
0
  9
$CELTYPE
  6
ByLayer
  9
$CECOLOR
 62
   256
  9
$CELTSCALE
 40
1.0
  9
$DISPSILH
 70
     0
  9
$DIMSCALE
 40
1.0
  9
$DIMASZ
 40
12.5
  9
$DIMEXO
 40
0.0
  9
$DIMDLI
 40
3.75
  9
$DIMRND
 40
0.0
  9
$DIMDLE
 40
0.0
  9
$DIMEXE
 40
5.0
  9
$DIMTP
 40
0.0
  9
$DIMTM
 40
0.0
  9
$DIMTXT
 40
12.5
  9
$DIMCEN
 40
2.5
  9
$DIMTSZ
 40
0.0
  9
$DIMTOL
 70
     0
  9
$DIMLIM
 70
     0
  9
$DIMTIH
 70
     1
  9
$DIMTOH
 70
     1
  9
$DIMSE1
 70
     0
  9
$DIMSE2
 70
     0
  9
$DIMTAD
 70
     1
  9
$DIMZIN
 70
     0
  9
$DIMBLK
  1

  9
$DIMASO
 70
     1
  9
$DIMSHO
 70
     1
  9
$DIMPOST
  1

  9
$DIMAPOST
  1

  9
$DIMALT
 70
     0
  9
$DIMALTD
 70
     3
  9
$DIMALTF
 40
0.0393700787
  9
$DIMLFAC
 40
1.0
  9
$DIMTOFL
 70
     1
  9
$DIMTVP
 40
0.0
  9
$DIMTIX
 70
     0
  9
$DIMSOXD
 70
     0
  9
$DIMSAH
 70
     0
  9
$DIMBLK1
  1

  9
$DIMBLK2
  1

  9
$DIMSTYLE
  2
ISO-25
  9
$DIMCLRD
 70
     0
  9
$DIMCLRE
 70
     0
  9
$DIMCLRT
 70
     0
  9
$DIMTFAC
 40
1.0
  9
$DIMGAP
 40
7.62
  9
$DIMJUST
 70
     0
  9
$DIMSD1
 70
     0
  9
$DIMSD2
 70
     0
  9
$DIMTOLJ
 70
     0
  9
$DIMTZIN
 70
     0
  9
$DIMALTZ
 70
     0
  9
$DIMALTTZ
 70
     0
  9
$DIMUPT
 70
     0
  9
$DIMDEC
 70
     2
  9
$DIMTDEC
 70
     2
  9
$DIMALTU
 70
     2
  9
$DIMALTTD
 70
     3
  9
$DIMTXSTY
  7
Standard
  9
$DIMAUNIT
 70
     0
  9
$DIMADEC
 70
     2
  9
$DIMALTRND
 40
0.0
  9
$DIMAZIN
 70
     0
  9
$DIMDSEP
 70
    44
  9
$DIMATFIT
 70
     3
  9
$DIMFRAC
 70
     0
  9
$DIMLDRBLK
  1

  9
$DIMLUNIT
 70
     2
  9
$DIMLWD
 70
    -2
  9
$DIMLWE
 70
    -2
  9
$DIMTMOVE
 70
     0
  9
$LUNITS
 70
     2
  9
$LUPREC
 70
     1
  9
$SKETCHINC
 40
1.0
  9
$FILLETRAD
 40
10.0
  9
$AUNITS
 70
     0
  9
$AUPREC
 70
     2
  9
$MENU
  1
.
  9
$ELEVATION
 40
0.0
  9
$PELEVATION
 40
0.0
  9
$THICKNESS
 40
0.0
  9
$LIMCHECK
 70
     0
  9
$CHAMFERA
 40
0.0
  9
$CHAMFERB
 40
0.0
  9
$CHAMFERC
 40
0.0
  9
$CHAMFERD
 40
0.0
  9
$SKPOLY
 70
     0
  9
$TDCREATE
 40
2458907.634086377
  9
$TDUCREATE
 40
2458907.40491971
  9
$TDUPDATE
 40
2458907.634089398
  9
$TDUUPDATE
 40
2458907.404922732
  9
$TDINDWG
 40
0.0000000116
  9
$TDUSRTIMER
 40
0.0000000116
  9
$USRTIMER
 70
     1
  9
$ANGBASE
 50
0.0
  9
$ANGDIR
 70
     0
  9
$PDMODE
 70
     0
  9
$PDSIZE
 40
-1.0
  9
$PLINEWID
 40
0.0
  9
$SPLFRAME
 70
     0
  9
$SPLINETYPE
 70
     6
  9
$SPLINESEGS
 70
     8
  9
$HANDSEED
  5
3B7
  9
$SURFTAB1
 70
     6
  9
$SURFTAB2
 70
     6
  9
$SURFTYPE
 70
     6
  9
$SURFU
 70
     6
  9
$SURFV
 70
     6
  9
$UCSBASE
  2

  9
$UCSNAME
  2

  9
$UCSORG
 10
0.0
 20
0.0
 30
0.0
  9
$UCSXDIR
 10
1.0
 20
0.0
 30
0.0
  9
$UCSYDIR
 10
0.0
 20
1.0
 30
0.0
  9
$UCSORTHOREF
  2

  9
$UCSORTHOVIEW
 70
     0
  9
$UCSORGTOP
 10
0.0
 20
0.0
 30
0.0
  9
$UCSORGBOTTOM
 10
0.0
 20
0.0
 30
0.0
  9
$UCSORGLEFT
 10
0.0
 20
0.0
 30
0.0
  9
$UCSORGRIGHT
 10
0.0
 20
0.0
 30
0.0
  9
$UCSORGFRONT
 10
0.0
 20
0.0
 30
0.0
  9
$UCSORGBACK
 10
0.0
 20
0.0
 30
0.0
  9
$PUCSBASE
  2

  9
$PUCSNAME
  2

  9
$PUCSORG
 10
0.0
 20
0.0
 30
0.0
  9
$PUCSXDIR
 10
1.0
 20
0.0
 30
0.0
  9
$PUCSYDIR
 10
0.0
 20
1.0
 30
0.0
  9
$PUCSORTHOREF
  2

  9
$PUCSORTHOVIEW
 70
     0
  9
$PUCSORGTOP
 10
0.0
 20
0.0
 30
0.0
  9
$PUCSORGBOTTOM
 10
0.0
 20
0.0
 30
0.0
  9
$PUCSORGLEFT
 10
0.0
 20
0.0
 30
0.0
  9
$PUCSORGRIGHT
 10
0.0
 20
0.0
 30
0.0
  9
$PUCSORGFRONT
 10
0.0
 20
0.0
 30
0.0
  9
$PUCSORGBACK
 10
0.0
 20
0.0
 30
0.0
  9
$USERI1
 70
     0
  9
$USERI2
 70
     0
  9
$USERI3
 70
     0
  9
$USERI4
 70
     0
  9
$USERI5
 70
     0
  9
$USERR1
 40
0.0
  9
$USERR2
 40
0.0
  9
$USERR3
 40
0.0
  9
$USERR4
 40
0.0
  9
$USERR5
 40
0.0
  9
$WORLDVIEW
 70
     1
  9
$SHADEDGE
 70
     3
  9
$SHADEDIF
 70
    70
  9
$TILEMODE
 70
     1
  9
$MAXACTVP
 70
    64
  9
$PINSBASE
 10
0.0
 20
0.0
 30
0.0
  9
$PLIMCHECK
 70
     0
  9
$PEXTMIN
 10
1.0000000000E+20
 20
1.0000000000E+20
 30
1.0000000000E+20
  9
$PEXTMAX
 10
-1.0000000000E+20
 20
-1.0000000000E+20
 30
-1.0000000000E+20
  9
$PLIMMIN
 10
0.0
 20
0.0
  9
$PLIMMAX
 10
420.0
 20
297.0
  9
$UNITMODE
 70
     0
  9
$VISRETAIN
 70
     1
  9
$PLINEGEN
 70
     0
  9
$PSLTSCALE
 70
     1
  9
$TREEDEPTH
 70
  3020
  9
$CMLSTYLE
  2
Standard
  9
$CMLJUST
 70
     0
  9
$CMLSCALE
 40
20.0
  9
$PROXYGRAPHICS
 70
     1
  9
$MEASUREMENT
 70
     1
  9
$CELWEIGHT
370
    -1
  9
$ENDCAPS
280
     0
  9
$JOINSTYLE
280
     0
  9
$LWDISPLAY
290
     1
  9
$INSUNITS
 70
     4
  9
$HYPERLINKBASE
  1

  9
$STYLESHEET
  1

  9
$XEDIT
290
     1
  9
$CEPSNTYPE
380
     0
  9
$PSTYLEMODE
290
     1
  9
$FINGERPRINTGUID
  2
{da7a3b98-fb8c-4078-a2ee-7be925fdaeb8}
  9
$VERSIONGUID
  2
{FAEB1C32-E019-11D5-929B-00C0DF256EC4}
  9
$EXTNAMES
290
     1
  9
$PSVPSCALE
 40
0.0
  9
$OLESTARTUP
290
     0
  0
ENDSEC
  0
SECTION
  2
CLASSES
  0
CLASS
  1
ACDBDICTIONARYWDFLT
  2
AcDbDictionaryWithDefault
  3
ObjectDBX Classes
 90
        0
280
     0
281
     0
  0
CLASS
  1
VISUALSTYLE
  2
AcDbVisualStyle
  3
ObjectDBX Classes
 90
     4095
280
     0
281
     0
  0
CLASS
  1
MATERIAL
  2
AcDbMaterial
  3
ObjectDBX Classes
 90
     1153
280
     0
281
     0
  0
CLASS
  1
SCALE
  2
AcDbScale
  3
ObjectDBX Classes
 90
     1153
280
     0
281
     0
  0
CLASS
  1
TABLESTYLE
  2
AcDbTableStyle
  3
ObjectDBX Classes
 90
     4095
280
     0
281
     0
  0
CLASS
  1
MLEADERSTYLE
  2
AcDbMLeaderStyle
  3
ACDB_MLEADERSTYLE_CLASS
 90
     4095
280
     0
281
     0
  0
CLASS
  1
SUN
  2
AcDbSun
  3
SCENEOE
 90
     1153
280
     0
281
     0
  0
CLASS
  1
ACDBPLACEHOLDER
  2
AcDbPlaceHolder
  3
ObjectDBX Classes
 90
        0
280
     0
281
     0
  0
CLASS
  1
LAYOUT
  2
AcDbLayout
  3
ObjectDBX Classes
 90
        0
280
     0
281
     0
  0
ENDSEC
  0
SECTION
  2
TABLES
  0
TABLE
  2
VPORT
  5
8
330
0
100
AcDbSymbolTable
 70
     1
  0
VPORT
  5
29
330
8
100
AcDbSymbolTableRecord
100
AcDbViewportTableRecord
  2
*Active
 70
     0
 10
0.0
 20
0.0
 11
1.0
 21
1.0
 12
1050.0
 22
742.5
 13
0.0
 23
0.0
 14
10.0
 24
10.0
 15
10.0
 25
10.0
 16
0.0
 26
0.0
 36
1.0
 17
0.0
 27
0.0
 37
0.0
 40
1485.0
 41
1.4141414141
 42
50.0
 43
0.0
 44
0.0
 50
0.0
 51
0.0
 71
     0
 72
  2000
 73
     1
 74
     3
 75
     0
 76
     0
 77
     0
 78
     0
281
     0
 65
     1
110
0.0
120
0.0
130
0.0
111
1.0
121
0.0
131
0.0
112
0.0
122
1.0
132
0.0
 79
     0
146
0.0
  0
ENDTAB
  0
TABLE
  2
LTYPE
  5
5
330
0
100
AcDbSymbolTable
 70
     6
  0
LTYPE
  5
14
330
5
100
AcDbSymbolTableRecord
100
AcDbLinetypeTableRecord
  2
ByBlock
 70
     0
  3

 72
    65
 73
     0
 40
0.0
  0
LTYPE
  5
15
330
5
100
AcDbSymbolTableRecord
100
AcDbLinetypeTableRecord
  2
ByLayer
 70
     0
  3

 72
    65
 73
     0
 40
0.0
  0
LTYPE
  5
16
330
5
100
AcDbSymbolTableRecord
100
AcDbLinetypeTableRecord
  2
Continuous
 70
     0
  3
Solid line
 72
    65
 73
     0
 40
0.0
  0
LTYPE
  5
6E
330
5
100
AcDbSymbolTableRecord
100
AcDbLinetypeTableRecord
  2
HIDDEN
 70
     0
  3
Hidden __ __ __ __ __ __ __ __ __ __ __ __ __ __
 72
    65
 73
     2
 40
1.905
 49
1.27
 74
     0
 49
-0.635
 74
     0
  0
LTYPE
  5
6F
330
5
100
AcDbSymbolTableRecord
100
AcDbLinetypeTableRecord
  2
PHANTOM
 70
     0
  3
Phantom ______  __  __  ______  __  __  ______
 72
    65
 73
     6
 40
12.7
 49
6.35
 74
     0
 49
-1.27
 74
     0
 49
1.27
 74
     0
 49
-1.27
 74
     0
 49
1.27
 74
     0
 49
-1.27
 74
     0
  0
LTYPE
  5
70
330
5
100
AcDbSymbolTableRecord
100
AcDbLinetypeTableRecord
  2
CENTER
 70
     0
  3
Center ____ _ ____ _ ____ _ ____ _ ____ _ ____
 72
    65
 73
     4
 40
10.16
 49
6.35
 74
     0
 49
-1.27
 74
     0
 49
1.27
 74
     0
 49
-1.27
 74
     0
  0
LTYPE
  5
71
330
5
100
AcDbSymbolTableRecord
100
AcDbLinetypeTableRecord
  2
CENTERX2
 70
     0
  3
Center (2x) ________  __  ________  __  _____
 72
    65
 73
     4
 40
20.32
 49
12.7
 74
     0
 49
-2.54
 74
     0
 49
2.54
 74
     0
 49
-2.54
 74
     0
  0
LTYPE
  5
72
330
5
100
AcDbSymbolTableRecord
100
AcDbLinetypeTableRecord
  2
DOT2
 70
     0
  3
Dot (.5x) ........................................
 72
    65
 73
     2
 40
0.635
 49
0.0
 74
     0
 49
-0.635
 74
     0
  0
ENDTAB
  0
TABLE
  2
LAYER
  5
2
330
0
100
AcDbSymbolTable
 70
    10
  0
LAYER
  5
10
330
2
100
AcDbSymbolTableRecord
100
AcDbLayerTableRecord
  2
0
 70
     0
 62
     7
  6
Continuous
370
    -3
390
F
  0
LAYER
  5
73
330
2
100
AcDbSymbolTableRecord
100
AcDbLayerTableRecord
  2
DIMENSION
 70
     0
 62
     7
  6
Continuous
370
    -3
390
F
  0
LAYER
  5
74
330
2
100
AcDbSymbolTableRecord
100
AcDbLayerTableRecord
  2
NOTES
 70
     0
 62
     7
  6
Continuous
370
    -3
390
F
  0
LAYER
  5
75
330
2
100
AcDbSymbolTableRecord
100
AcDbLayerTableRecord
  2
TABLES
 70
     0
 62
     7
  6
Continuous
370
    -3
390
F
  0
LAYER
  5
76
330
2
100
AcDbSymbolTableRecord
100
AcDbLayerTableRecord
  2
INVISIBLE
 70
     0
 62
    -7
  6
Continuous
290
     0
370
    -3
390
F
  0
LAYER
  5
77
330
2
100
AcDbSymbolTableRecord
100
AcDbLayerTableRecord
  2
WEP
 70
     0
 62
  -150
  6
Continuous
290
     0
370
    -3
390
F
  0
LAYER
  5
78
330
2
100
AcDbSymbolTableRecord
100
AcDbLayerTableRecord
  2
EMP
 70
     0
 62
     1
  6
Continuous
370
    -3
390
F
  0
LAYER
  5
79
330
2
100
AcDbSymbolTableRecord
100
AcDbLayerTableRecord
  2
MARKETING_DRW
 70
     0
 62
    -7
  6
Continuous
290
     0
370
    -3
390
F
  0
LAYER
  5
7A
330
2
100
AcDbSymbolTableRecord
100
AcDbLayerTableRecord
  2
SINGLE_ARTICLE_DRW
 70
     0
 62
     7
  6
Continuous
370
    -3
390
F
  0
LAYER
  5
7B
330
2
100
AcDbSymbolTableRecord
100
AcDbLayerTableRecord
  2
TABLE_DRW
 70
     0
 62
    -7
  6
Continuous
290
     0
370
    -3
390
F
  0
ENDTAB
  0
TABLE
  2
STYLE
  5
3
330
0
100
AcDbSymbolTable
 70
     2
  0
STYLE
  5
11
330
3
100
AcDbSymbolTableRecord
100
AcDbTextStyleTableRecord
  2
Standard
 70
     0
 40
0.0
 41
1.0
 50
0.0
 71
     0
 42
12.5
  3
txt
  4

  0
STYLE
  5
B5
330
3
100
AcDbSymbolTableRecord
100
AcDbTextStyleTableRecord
  2
SLDTEXTSTYLE0
 70
     0
 40
0.0
 41
0.605
 50
0.0
 71
     0
 42
12.5
  3
TXT
  4

  0
ENDTAB
  0
TABLE
  2
VIEW
  5
6
330
0
100
AcDbSymbolTable
 70
     0
  0
ENDTAB
  0
TABLE
  2
UCS
  5
7
330
0
100
AcDbSymbolTable
 70
     0
  0
ENDTAB
  0
TABLE
  2
APPID
  5
9
330
0
100
AcDbSymbolTable
 70
     1
  0
APPID
  5
12
330
9
100
AcDbSymbolTableRecord
100
AcDbRegAppTableRecord
  2
ACAD
 70
     0
  0
ENDTAB
  0
TABLE
  2
DIMSTYLE
  5
A
330
0
100
AcDbSymbolTable
 70
     1
100
AcDbDimStyleTable
  0
DIMSTYLE
105
27
330
A
100
AcDbSymbolTableRecord
100
AcDbDimStyleTableRecord
  2
ISO-25
 70
     0
 41
2.5
 42
0.625
 43
3.75
 44
1.25
 73
     0
 74
     0
 77
     1
 78
     8
140
2.5
141
2.5
143
0.0393700787
147
0.625
171
     3
172
     1
178
     0
271
     2
272
     2
274
     3
278
    44
283
     0
284
     8
340
11
  0
ENDTAB
  0
TABLE
  2
BLOCK_RECORD
  5
1
330
0
100
AcDbSymbolTable
 70
     3
  0
BLOCK_RECORD
  5
1F
330
1
100
AcDbSymbolTableRecord
100
AcDbBlockTableRecord
  2
*Model_Space
340
22
  0
BLOCK_RECORD
  5
1B
330
1
100
AcDbSymbolTableRecord
100
AcDbBlockTableRecord
  2
*Paper_Space
340
1E
  0
BLOCK_RECORD
  5
23
330
1
100
AcDbSymbolTableRecord
100
AcDbBlockTableRecord
  2
*Paper_Space0
340
26
  0
BLOCK_RECORD
  5
BF
330
1
100
AcDbSymbolTableRecord
100
AcDbBlockTableRecord
  2
SW_NOTE_0
340
0
102
{BLKREFS
331
C5
102
}
  0
BLOCK_RECORD
  5
E8
330
1
100
AcDbSymbolTableRecord
100
AcDbBlockTableRecord
  2
SW_NOTE_0_1
340
0
102
{BLKREFS
331
EE
102
}
  0
ENDTAB
  0
ENDSEC
  0
SECTION
  2
BLOCKS
  0
BLOCK
  5
20
330
1F
100
AcDbEntity
  8
0
100
AcDbBlockBegin
  2
*Model_Space
 70
     0
 10
0.0
 20
0.0
 30
0.0
  3
*Model_Space
  1

  0
ENDBLK
  5
21
330
1F
100
AcDbEntity
  8
0
100
AcDbBlockEnd
  0
BLOCK
  5
1C
330
1B
100
AcDbEntity
 67
     1
  8
0
100
AcDbBlockBegin
  2
*Paper_Space
 70
     0
 10
0.0
 20
0.0
 30
0.0
  3
*Paper_Space
  1

  0
ENDBLK
  5
1D
330
1B
100
AcDbEntity
 67
     1
  8
0
100
AcDbBlockEnd
  0
BLOCK
  5
24
330
23
100
AcDbEntity
  8
0
100
AcDbBlockBegin
  2
*Paper_Space0
 70
     0
 10
0.0
 20
0.0
 30
0.0
  3
*Paper_Space0
  1

  0
ENDBLK
  5
25
330
23
100
AcDbEntity
  8
0
100
AcDbBlockEnd
  0
BLOCK
  5
C0
330
BF
100
AcDbEntity
  8
0
100
AcDbBlockBegin
  2
SW_NOTE_0
 70
     0
 10
0.0
 20
0.0
 30
0.0
  3
SW_NOTE_0
  1

  0
MTEXT
  5
C2
330
BF
100
AcDbEntity
  8
TABLE_DRW
 62
     0
100
AcDbMText
 10
0.0
 20
11.6016096579
 30
0.0
 40
9.0
 41
0.0
 71
     1
 72
     1
  1
The reproduction, distribution and utilization of this document as well as the communication of its contents to
  7
SLDTEXTSTYLE0
 73
     1
 44
1.0
  0
MTEXT
  5
C3
330
BF
100
AcDbEntity
  8
TABLE_DRW
 62
     0
100
AcDbMText
 10
0.0
 20
0.0016098055
 30
0.0
 40
9.0
 41
0.0
 71
     1
 72
     1
  1
others without express authorization is prohibited. Offenders will be held liable for the payment of damages.
  7
SLDTEXTSTYLE0
 73
     1
 44
1.0
  0
MTEXT
  5
C4
330
BF
100
AcDbEntity
  8
TABLE_DRW
 62
     0
100
AcDbMText
 10
0.0
 20
-11.598390047
 30
0.0
 40
9.0
 41
0.0
 71
     1
 72
     1
  1
All rights reserved in the event of the grant of a patent, utility model or design. Observe copyright by ISO 16016
  7
SLDTEXTSTYLE0
 73
     1
 44
1.0
  0
ENDBLK
  5
C1
330
BF
100
AcDbEntity
  8
0
100
AcDbBlockEnd
  0
BLOCK
  5
E9
330
E8
100
AcDbEntity
  8
0
100
AcDbBlockBegin
  2
SW_NOTE_0_1
 70
     0
 10
0.0
 20
0.0
 30
0.0
  3
SW_NOTE_0_1
  1

  0
MTEXT
  5
EB
330
E8
100
AcDbEntity
  8
MARKETING_DRW
 62
     0
100
AcDbMText
 10
0.0
 20
11.6016096579
 30
0.0
 40
9.0
 41
0.0
 71
     1
 72
     1
  1
The reproduction, distribution and utilization of this document as well as the communication of its contents to
  7
SLDTEXTSTYLE0
 73
     1
 44
1.0
  0
MTEXT
  5
EC
330
E8
100
AcDbEntity
  8
MARKETING_DRW
 62
     0
100
AcDbMText
 10
0.0
 20
-0.0233903849
 30
0.0
 40
9.0
 41
0.0
 71
     1
 72
     1
  1
others without express authorization is prohibited. Offenders will be held liable for the payment of damages.
  7
SLDTEXTSTYLE0
 73
     1
 44
1.0
  0
MTEXT
  5
ED
330
E8
100
AcDbEntity
  8
MARKETING_DRW
 62
     0
100
AcDbMText
 10
0.0
 20
-11.6483904277
 30
0.0
 40
9.0
 41
0.0
 71
     1
 72
     1
  1
All rights reserved in the event of the grant of a patent, utility model or design. Observe copyright by ISO 16016
  7
SLDTEXTSTYLE0
 73
     1
 44
1.0
  0
ENDBLK
  5
EA
330
E8
100
AcDbEntity
  8
0
100
AcDbBlockEnd
  0
ENDSEC
  0
SECTION
  2
ENTITIES
  0
LINE
  5
7C
330
1F
100
AcDbEntity
  8
TABLE_DRW
  6
CENTERX2
 62
     7
100
AcDbLine
 10
1955.0
 20
200.0
 30
0.0
 11
1980.0
 21
200.0
 31
0.0
  0
LINE
  5
7D
330
1F
100
AcDbEntity
  8
TABLE_DRW
  6
CENTERX2
 62
     7
100
AcDbLine
 10
1967.5
 20
212.5
 30
0.0
 11
1967.5
 21
187.5
 31
0.0
  0
LINE
  5
7E
330
1F
100
AcDbEntity
  8
TABLE_DRW
  6
CENTERX2
 62
     7
100
AcDbLine
 10
1915.0
 20
200.0
 30
0.0
 11
1950.0
 21
200.0
 31
0.0
  0
LINE
  5
7F
330
1F
100
AcDbEntity
  8
TABLE_DRW
 62
     7
100
AcDbLine
 10
1920.0
 20
194.95
 30
0.0
 11
1945.0
 21
190.0
 31
0.0
  0
LINE
  5
80
330
1F
100
AcDbEntity
  8
TABLE_DRW
 62
     7
100
AcDbLine
 10
1920.0
 20
205.05
 30
0.0
 11
1920.0
 21
194.95
 31
0.0
  0
LINE
  5
81
330
1F
100
AcDbEntity
  8
TABLE_DRW
 62
     7
100
AcDbLine
 10
1945.0
 20
210.0
 30
0.0
 11
1920.0
 21
205.05
 31
0.0
  0
LINE
  5
82
330
1F
100
AcDbEntity
  8
TABLE_DRW
 62
     7
100
AcDbLine
 10
1945.0
 20
190.0
 30
0.0
 11
1945.0
 21
210.0
 31
0.0
  0
LINE
  5
83
330
1F
100
AcDbEntity
  8
TABLE_DRW
 62
     7
100
AcDbLine
 10
2050.0
 20
50.0
 30
0.0
 11
2050.0
 21
340.0
 31
0.0
  0
LINE
  5
84
330
1F
100
AcDbEntity
  8
TABLE_DRW
 62
     7
100
AcDbLine
 10
1150.0
 20
340.0
 30
0.0
 11
1150.0
 21
50.0
 31
0.0
  0
LINE
  5
85
330
1F
100
AcDbEntity
  8
TABLE_DRW
 62
     7
100
AcDbLine
 10
1700.0
 20
95.0
 30
0.0
 11
1700.0
 21
50.0
 31
0.0
  0
LINE
  5
86
330
1F
100
AcDbEntity
  8
TABLE_DRW
 62
     7
100
AcDbLine
 10
1850.0
 20
50.0
 30
0.0
 11
1850.0
 21
95.0
 31
0.0
  0
LINE
  5
87
330
1F
100
AcDbEntity
  8
TABLE_DRW
 62
     7
100
AcDbLine
 10
2000.0
 20
95.0
 30
0.0
 11
2000.0
 21
50.0
 31
0.0
  0
LINE
  5
88
330
1F
100
AcDbEntity
  8
TABLE_DRW
 62
     7
100
AcDbLine
 10
1900.0
 20
320.0
 30
0.0
 11
1900.0
 21
185.0
 31
0.0
  0
LINE
  5
89
330
1F
100
AcDbEntity
  8
TABLE_DRW
 62
     7
100
AcDbLine
 10
2050.0
 20
320.0
 30
0.0
 11
1150.0
 21
320.0
 31
0.0
  0
LINE
  5
8A
330
1F
100
AcDbEntity
  8
TABLE_DRW
 62
     7
100
AcDbLine
 10
1800.0
 20
95.0
 30
0.0
 11
1800.0
 21
50.0
 31
0.0
  0
LINE
  5
8B
330
1F
100
AcDbEntity
  8
TABLE_DRW
 62
     7
100
AcDbLine
 10
2050.0
 20
275.0
 30
0.0
 11
1400.0
 21
275.0
 31
0.0
  0
LINE
  5
8C
330
1F
100
AcDbEntity
  8
TABLE_DRW
 62
     7
100
AcDbLine
 10
1650.0
 20
230.0
 30
0.0
 11
1650.0
 21
185.0
 31
0.0
  0
LINE
  5
8D
330
1F
100
AcDbEntity
  8
TABLE_DRW
 62
     7
100
AcDbLine
 10
2050.0
 20
230.0
 30
0.0
 11
1400.0
 21
230.0
 31
0.0
  0
LINE
  5
8E
330
1F
100
AcDbEntity
  8
TABLE_DRW
 62
     7
100
AcDbLine
 10
1400.0
 20
320.0
 30
0.0
 11
1400.0
 21
185.0
 31
0.0
  0
LINE
  5
8F
330
1F
100
AcDbEntity
  8
TABLE_DRW
 62
     7
100
AcDbLine
 10
2000.0
 20
230.0
 30
0.0
 11
2000.0
 21
185.0
 31
0.0
  0
LINE
  5
90
330
1F
100
AcDbEntity
  8
TABLE_DRW
 62
     7
100
AcDbLine
 10
2050.0
 20
95.0
 30
0.0
 11
1150.0
 21
95.0
 31
0.0
  0
LINE
  5
91
330
1F
100
AcDbEntity
  8
TABLE_DRW
 62
     7
100
AcDbLine
 10
1650.0
 20
275.0
 30
0.0
 11
1650.0
 21
320.0
 31
0.0
  0
LINE
  5
92
330
1F
100
AcDbEntity
  8
TABLE_DRW
 62
     7
100
AcDbLine
 10
1150.0
 20
340.0
 30
0.0
 11
2050.0
 21
340.0
 31
0.0
  0
LINE
  5
93
330
1F
100
AcDbEntity
  8
TABLE_DRW
 62
     7
100
AcDbLine
 10
1150.0
 20
185.0
 30
0.0
 11
2050.0
 21
185.0
 31
0.0
  0
LINE
  5
94
330
1F
100
AcDbEntity
  8
TABLE_DRW
 62
     7
100
AcDbLine
 10
1150.0
 20
50.0
 30
0.0
 11
2050.0
 21
50.0
 31
0.0
  0
LINE
  5
95
330
1F
100
AcDbEntity
  8
TABLE_DRW
 62
     7
100
AcDbLine
 10
1400.0
 20
275.0
 30
0.0
 11
1150.0
 21
275.0
 31
0.0
  0
LINE
  5
96
330
1F
100
AcDbEntity
  8
MARKETING_DRW
  6
CENTERX2
100
AcDbLine
 10
1955.0
 20
200.0
 30
0.0
 11
1980.0
 21
200.0
 31
0.0
  0
LINE
  5
97
330
1F
100
AcDbEntity
  8
MARKETING_DRW
  6
CENTERX2
100
AcDbLine
 10
1967.5
 20
212.5
 30
0.0
 11
1967.5
 21
187.5
 31
0.0
  0
LINE
  5
98
330
1F
100
AcDbEntity
  8
MARKETING_DRW
  6
CENTERX2
100
AcDbLine
 10
1915.0
 20
200.0
 30
0.0
 11
1950.0
 21
200.0
 31
0.0
  0
LINE
  5
99
330
1F
100
AcDbEntity
  8
MARKETING_DRW
100
AcDbLine
 10
1920.0
 20
194.95
 30
0.0
 11
1945.0
 21
190.0
 31
0.0
  0
LINE
  5
9A
330
1F
100
AcDbEntity
  8
MARKETING_DRW
100
AcDbLine
 10
1920.0
 20
205.05
 30
0.0
 11
1920.0
 21
194.95
 31
0.0
  0
LINE
  5
9B
330
1F
100
AcDbEntity
  8
MARKETING_DRW
100
AcDbLine
 10
1945.0
 20
210.0
 30
0.0
 11
1920.0
 21
205.05
 31
0.0
  0
LINE
  5
9C
330
1F
100
AcDbEntity
  8
MARKETING_DRW
100
AcDbLine
 10
1945.0
 20
190.0
 30
0.0
 11
1945.0
 21
210.0
 31
0.0
  0
LINE
  5
9D
330
1F
100
AcDbEntity
  8
MARKETING_DRW
100
AcDbLine
 10
2050.0
 20
50.0
 30
0.0
 11
2050.0
 21
230.0
 31
0.0
  0
LINE
  5
9E
330
1F
100
AcDbEntity
  8
MARKETING_DRW
100
AcDbLine
 10
1150.0
 20
50.0
 30
0.0
 11
2050.0
 21
50.0
 31
0.0
  0
LINE
  5
9F
330
1F
100
AcDbEntity
  8
MARKETING_DRW
100
AcDbLine
 10
1150.0
 20
275.0
 30
0.0
 11
1150.0
 21
50.0
 31
0.0
  0
LINE
  5
A0
330
1F
100
AcDbEntity
  8
MARKETING_DRW
100
AcDbLine
 10
1150.0
 20
275.0
 30
0.0
 11
1650.0
 21
275.0
 31
0.0
  0
LINE
  5
A1
330
1F
100
AcDbEntity
  8
MARKETING_DRW
 62
     7
100
AcDbLine
 10
1850.0
 20
50.0
 30
0.0
 11
1850.0
 21
95.0
 31
0.0
  0
LINE
  5
A2
330
1F
100
AcDbEntity
  8
MARKETING_DRW
100
AcDbLine
 10
2000.0
 20
95.0
 30
0.0
 11
2000.0
 21
50.0
 31
0.0
  0
LINE
  5
A3
330
1F
100
AcDbEntity
  8
MARKETING_DRW
100
AcDbLine
 10
1650.0
 20
275.0
 30
0.0
 11
1650.0
 21
230.0
 31
0.0
  0
LINE
  5
A4
330
1F
100
AcDbEntity
  8
MARKETING_DRW
100
AcDbLine
 10
2050.0
 20
230.0
 30
0.0
 11
1400.0
 21
230.0
 31
0.0
  0
LINE
  5
A5
330
1F
100
AcDbEntity
  8
MARKETING_DRW
100
AcDbLine
 10
1400.0
 20
275.0
 30
0.0
 11
1400.0
 21
185.0
 31
0.0
  0
LINE
  5
A6
330
1F
100
AcDbEntity
  8
MARKETING_DRW
100
AcDbLine
 10
2000.0
 20
230.0
 30
0.0
 11
2000.0
 21
185.0
 31
0.0
  0
LINE
  5
A7
330
1F
100
AcDbEntity
  8
MARKETING_DRW
100
AcDbLine
 10
2050.0
 20
95.0
 30
0.0
 11
1150.0
 21
95.0
 31
0.0
  0
LINE
  5
A8
330
1F
100
AcDbEntity
  8
MARKETING_DRW
100
AcDbLine
 10
1150.0
 20
185.0
 30
0.0
 11
2050.0
 21
185.0
 31
0.0
  0
LINE
  5
A9
330
1F
100
AcDbEntity
  8
MARKETING_DRW
100
AcDbLine
 10
1150.0
 20
50.0
 30
0.0
 11
2050.0
 21
50.0
 31
0.0
  0
LINE
  5
AA
330
1F
100
AcDbEntity
  8
MARKETING_DRW
100
AcDbLine
 10
1900.0
 20
230.0
 30
0.0
 11
1900.0
 21
185.0
 31
0.0
  0
LINE
  5
AB
330
1F
100
AcDbEntity
  8
MARKETING_DRW
100
AcDbLine
 10
1650.0
 20
275.0
 30
0.0
 11
1900.0
 21
275.0
 31
0.0
  0
LINE
  5
AC
330
1F
100
AcDbEntity
  8
MARKETING_DRW
100
AcDbLine
 10
1900.0
 20
275.0
 30
0.0
 11
1900.0
 21
230.0
 31
0.0
  0
LINE
  5
AD
330
1F
100
AcDbEntity
  8
MARKETING_DRW
100
AcDbLine
 10
1900.0
 20
275.0
 30
0.0
 11
2050.0
 21
275.0
 31
0.0
  0
LINE
  5
AE
330
1F
100
AcDbEntity
  8
MARKETING_DRW
100
AcDbLine
 10
2050.0
 20
275.0
 30
0.0
 11
2050.0
 21
230.0
 31
0.0
  0
LINE
  5
AF
330
1F
100
AcDbEntity
  8
MARKETING_DRW
100
AcDbLine
 10
1825.0
 20
275.0
 30
0.0
 11
1825.0
 21
230.0
 31
0.0
  0
LINE
  5
B0
330
1F
100
AcDbEntity
  8
MARKETING_DRW
100
AcDbLine
 10
1650.0
 20
230.0
 30
0.0
 11
1650.0
 21
185.0
 31
0.0
  0
CIRCLE
  5
B1
330
1F
100
AcDbEntity
  8
TABLE_DRW
 62
     7
100
AcDbCircle
 10
1967.5
 20
200.0
 30
0.0
 40
5.000000000000224
  0
CIRCLE
  5
B2
330
1F
100
AcDbEntity
  8
TABLE_DRW
 62
     7
100
AcDbCircle
 10
1967.5
 20
200.0
 30
0.0
 40
10.00000000000024
  0
CIRCLE
  5
B3
330
1F
100
AcDbEntity
  8
MARKETING_DRW
100
AcDbCircle
 10
1967.5
 20
200.0
 30
0.0
 40
5.000000000000224
  0
CIRCLE
  5
B4
330
1F
100
AcDbEntity
  8
MARKETING_DRW
100
AcDbCircle
 10
1967.5
 20
200.0
 30
0.0
 40
10.00000000000024
  0
MTEXT
  5
B6
330
1F
100
AcDbEntity
  8
TABLE_DRW
100
AcDbMText
 10
1905.0
 20
294.9675136777
 30
0.0
 40
12.5
 41
0.0
 71
     1
 72
     1
  1
see table
  7
SLDTEXTSTYLE0
 73
     1
 44
1.0
  0
MTEXT
  5
B7
330
1F
100
AcDbEntity
  8
TABLE_DRW
100
AcDbMText
 10
1155.0
 20
334.9766099061
 30
0.0
 40
9.0
 41
0.0
 71
     1
 72
     1
  1
modification:
  7
SLDTEXTSTYLE0
 73
     1
 44
1.0
  0
MTEXT
  5
B8
330
1F
100
AcDbEntity
  8
TABLE_DRW
100
AcDbMText
 10
1405.0
 20
249.9675136777
 30
0.0
 40
12.5
 41
0.0
 71
     1
 72
     1
  1
see table
  7
SLDTEXTSTYLE0
 73
     1
 44
1.0
  0
MTEXT
  5
B9
330
1F
100
AcDbEntity
  8
TABLE_DRW
100
AcDbMText
 10
1155.0
 20
159.9675136777
 30
0.0
 40
12.5
 41
0.0
 71
     1
 72
     1
  1
ACO ShowerDrain
  7
SLDTEXTSTYLE0
 73
     1
 44
1.0
  0
MTEXT
  5
BA
330
1F
100
AcDbEntity
  8
TABLE_DRW
100
AcDbMText
 10
1824.7395830229
 20
69.9675136777
 30
0.0
 40
12.5
 41
0.0
 71
     2
 72
     1
  1
001
  7
SLDTEXTSTYLE0
 73
     1
 44
1.0
  0
MTEXT
  5
BB
330
1F
100
AcDbEntity
  8
TABLE_DRW
100
AcDbMText
 10
1749.0407964215
 20
69.9675136777
 30
0.0
 40
12.5
 41
0.0
 71
     2
 72
     1
  1
1076934-O
  7
SLDTEXTSTYLE0
 73
     1
 44
1.0
  0
MTEXT
  5
BC
330
1F
100
AcDbEntity
  8
TABLE_DRW
100
AcDbMText
 10
1155.0
 20
295.0022357116
 30
0.0
 40
12.5
 41
0.0
 71
     1
 72
     1
  1
Tittmar, Alexander
  7
SLDTEXTSTYLE0
 73
     1
 44
1.0
  0
MTEXT
  5
BD
330
1F
100
AcDbEntity
  8
TABLE_DRW
100
AcDbMText
 10
1155.0
 20
137.4675136777
 30
0.0
 40
12.5
 41
0.0
 71
     1
 72
     1
  1
ASM Shower Channel C with WA and gap, with side outlet, with FAT GV50 L980, International
  7
SLDTEXTSTYLE0
 73
     1
 44
1.0
  0
MTEXT
  5
BE
330
1F
100
AcDbEntity
  8
TABLE_DRW
100
AcDbMText
 10
1155.0
 20
114.9675136777
 30
0.0
 40
12.5
 41
0.0
 71
     1
 72
     1
  1
ZB Duschrinne C mit Spalt, mit Wandaufkantung, mit Seite Auslass, mit FAT GV50 L980, International
  7
SLDTEXTSTYLE0
 73
     1
 44
1.0
  0
INSERT
  5
C5
330
1F
100
AcDbEntity
  8
TABLE_DRW
100
AcDbBlockReference
  2
SW_NOTE_0
 10
1155.0
 20
78.4000001475
 30
0.0
  0
MTEXT
  5
C6
330
1F
100
AcDbEntity
  8
TABLE_DRW
100
AcDbMText
 10
1405.0
 20
224.9766099061
 30
0.0
 40
9.0
 41
0.0
 71
     1
 72
     1
  1
created by:
  7
SLDTEXTSTYLE0
 73
     1
 44
1.0
  0
MTEXT
  5
C7
330
1F
100
AcDbEntity
  8
TABLE_DRW
100
AcDbMText
 10
1655.0
 20
314.9766099061
 30
0.0
 40
9.0
 41
0.0
 71
     1
 72
     1
  1
surface:
  7
SLDTEXTSTYLE0
 73
     1
 44
1.0
  0
MTEXT
  5
C8
330
1F
100
AcDbEntity
  8
TABLE_DRW
100
AcDbMText
 10
2024.8750000875
 20
224.9766099061
 30
0.0
 40
9.0
 41
0.0
 71
     2
 72
     1
  1
scale:
  7
SLDTEXTSTYLE0
 73
     1
 44
1.0
  0
MTEXT
  5
C9
330
1F
100
AcDbEntity
  8
TABLE_DRW
100
AcDbMText
 10
1905.0
 20
314.9766099061
 30
0.0
 40
9.0
 41
0.0
 71
     1
 72
     1
  1
weight:
  7
SLDTEXTSTYLE0
 73
     1
 44
1.0
  0
MTEXT
  5
CA
330
1F
100
AcDbEntity
  8
TABLE_DRW
100
AcDbMText
 10
1749.034373872
 20
89.9766099061
 30
0.0
 40
9.0
 41
0.0
 71
     2
 72
     1
  1
drawing-no.:
  7
SLDTEXTSTYLE0
 73
     1
 44
1.0
  0
MTEXT
  5
CB
330
1F
100
AcDbEntity
  8
TABLE_DRW
100
AcDbMText
 10
1905.0
 20
269.9766099061
 30
0.0
 40
9.0
 41
0.0
 71
     1
 72
     1
  1
documenttype:
  7
SLDTEXTSTYLE0
 73
     1
 44
1.0
  0
MTEXT
  5
CC
330
1F
100
AcDbEntity
  8
TABLE_DRW
100
AcDbMText
 10
1824.8125000894
 20
89.9766099061
 30
0.0
 40
9.0
 41
0.0
 71
     2
 72
     1
  1
index:
  7
SLDTEXTSTYLE0
 73
     1
 44
1.0
  0
MTEXT
  5
CD
330
1F
100
AcDbEntity
  8
TABLE_DRW
100
AcDbMText
 10
1655.0
 20
224.9766099061
 30
0.0
 40
9.0
 41
0.0
 71
     1
 72
     1
  1
reviewed by:
  7
SLDTEXTSTYLE0
 73
     1
 44
1.0
  0
MTEXT
  5
CE
330
1F
100
AcDbEntity
  8
TABLE_DRW
100
AcDbMText
 10
1855.0
 20
89.9766099061
 30
0.0
 40
9.0
 41
0.0
 71
     1
 72
     1
  1
release date:
  7
SLDTEXTSTYLE0
 73
     1
 44
1.0
  0
MTEXT
  5
CF
330
1F
100
AcDbEntity
  8
TABLE_DRW
100
AcDbMText
 10
2024.7500000913
 20
89.9766099061
 30
0.0
 40
9.0
 41
0.0
 71
     2
 72
     1
  1
sheet:
  7
SLDTEXTSTYLE0
 73
     1
 44
1.0
  0
MTEXT
  5
D0
330
1F
100
AcDbEntity
  8
TABLE_DRW
100
AcDbMText
 10
1905.0
 20
224.9766099061
 30
0.0
 40
9.0
 41
0.0
 71
     1
 72
     1
  1
projection:ISO-E
  7
SLDTEXTSTYLE0
 73
     1
 44
1.0
  0
MTEXT
  5
D1
330
1F
100
AcDbEntity
  8
TABLE_DRW
100
AcDbMText
 10
1405.0
 20
269.9766099061
 30
0.0
 40
9.0
 41
0.0
 71
     1
 72
     1
  1
material:
  7
SLDTEXTSTYLE0
 73
     1
 44
1.0
  0
MTEXT
  5
D2
330
1F
100
AcDbEntity
  8
TABLE_DRW
100
AcDbMText
 10
1905.0
 20
249.9675136777
 30
0.0
 40
12.5
 41
0.0
 71
     1
 72
     1
  1
production drw.
  7
SLDTEXTSTYLE0
 73
     1
 44
1.0
  0
MTEXT
  5
D3
330
1F
100
AcDbEntity
  8
TABLE_DRW
100
AcDbMText
 10
1405.0
 20
314.9766099061
 30
0.0
 40
9.0
 41
0.0
 71
     1
 72
     1
  1
general tolerance:
  7
SLDTEXTSTYLE0
 73
     1
 44
1.0
  0
MTEXT
  5
D4
330
1F
100
AcDbEntity
  8
TABLE_DRW
100
AcDbMText
 10
2024.7829862405
 20
204.9675136777
 30
0.0
 40
12.5
 41
0.0
 71
     2
 72
     1
  1
1:5
  7
SLDTEXTSTYLE0
 73
     1
 44
1.0
  0
MTEXT
  5
D5
330
1F
100
AcDbEntity
  8
TABLE_DRW
100
AcDbMText
 10
2024.7829862405
 20
69.9675136777
 30
0.0
 40
12.5
 41
0.0
 71
     2
 72
     1
  1
1/1
  7
SLDTEXTSTYLE0
 73
     1
 44
1.0
  0
MTEXT
  5
D6
330
1F
100
AcDbEntity
  8
TABLE_DRW
100
AcDbMText
 10
1155.0
 20
314.9766099061
 30
0.0
 40
9.0
 41
0.0
 71
     1
 72
     1
  1
technical reference:
  7
SLDTEXTSTYLE0
 73
     1
 44
1.0
  0
MTEXT
  5
D7
330
1F
100
AcDbEntity
  8
TABLE_DRW
100
AcDbMText
 10
1155.0
 20
179.9766099061
 30
0.0
 40
9.0
 41
0.0
 71
     1
 72
     1
  1
title:
  7
SLDTEXTSTYLE0
 73
     1
 44
1.0
  0
MTEXT
  5
D8
330
1F
100
AcDbEntity
  8
MARKETING_DRW
100
AcDbMText
 10
1155.0
 20
114.9675136777
 30
0.0
 40
12.5
 41
0.0
 71
     1
 72
     1
  1
ZB Duschrinne C mit Spalt, mit Wandaufkantung, mit Seite Auslass, mit FAT GV50 L980, International
  7
SLDTEXTSTYLE0
 73
     1
 44
1.0
  0
MTEXT
  5
D9
330
1F
100
AcDbEntity
  8
MARKETING_DRW
100
AcDbMText
 10
1155.0
 20
137.4675136777
 30
0.0
 40
12.5
 41
0.0
 71
     1
 72
     1
  1
ASM Shower Channel C with WA and gap, with side outlet, with FAT GV50 L980, International
  7
SLDTEXTSTYLE0
 73
     1
 44
1.0
  0
MTEXT
  5
DA
330
1F
100
AcDbEntity
  8
MARKETING_DRW
100
AcDbMText
 10
1736.5407964215
 20
249.9675136777
 30
0.0
 40
12.5
 41
0.0
 71
     2
 72
     1
  1
1076934-O
  7
SLDTEXTSTYLE0
 73
     1
 44
1.0
  0
MTEXT
  5
DB
330
1F
100
AcDbEntity
  8
MARKETING_DRW
100
AcDbMText
 10
1862.2395830229
 20
252.0971433073
 30
0.0
 40
12.5
 41
0.0
 71
     2
 72
     1
  1
001
  7
SLDTEXTSTYLE0
 73
     1
 44
1.0
  0
MTEXT
  5
DC
330
1F
100
AcDbEntity
  8
MARKETING_DRW
100
AcDbMText
 10
1155.0
 20
159.9675136777
 30
0.0
 40
12.5
 41
0.0
 71
     1
 72
     1
  1
ACO ShowerDrain
  7
SLDTEXTSTYLE0
 73
     1
 44
1.0
  0
MTEXT
  5
DD
330
1F
100
AcDbEntity
  8
MARKETING_DRW
100
AcDbMText
 10
1905.0
 20
269.9766099061
 30
0.0
 40
9.0
 41
0.0
 71
     1
 72
     1
  1
documenttype:
  7
SLDTEXTSTYLE0
 73
     1
 44
1.0
  0
MTEXT
  5
DE
330
1F
100
AcDbEntity
  8
MARKETING_DRW
100
AcDbMText
 10
1655.0
 20
224.9766099061
 30
0.0
 40
9.0
 41
0.0
 71
     1
 72
     1
  1
reviewed by:
  7
SLDTEXTSTYLE0
 73
     1
 44
1.0
  0
MTEXT
  5
DF
330
1F
100
AcDbEntity
  8
MARKETING_DRW
100
AcDbMText
 10
1736.534373872
 20
270.0578764559
 30
0.0
 40
9.0
 41
0.0
 71
     2
 72
     1
  1
drawing-no.:
  7
SLDTEXTSTYLE0
 73
     1
 44
1.0
  0
MTEXT
  5
E0
330
1F
100
AcDbEntity
  8
MARKETING_DRW
100
AcDbMText
 10
1905.0
 20
224.9766099061
 30
0.0
 40
9.0
 41
0.0
 71
     1
 72
     1
  1
projection:ISO-E
  7
SLDTEXTSTYLE0
 73
     1
 44
1.0
  0
MTEXT
  5
E1
330
1F
100
AcDbEntity
  8
MARKETING_DRW
100
AcDbMText
 10
2024.7500000913
 20
89.9766099061
 30
0.0
 40
9.0
 41
0.0
 71
     2
 72
     1
  1
sheet:
  7
SLDTEXTSTYLE0
 73
     1
 44
1.0
  0
MTEXT
  5
E2
330
1F
100
AcDbEntity
  8
MARKETING_DRW
100
AcDbMText
 10
2024.7829862405
 20
69.9675136777
 30
0.0
 40
12.5
 41
0.0
 71
     2
 72
     1
  1
1/1
  7
SLDTEXTSTYLE0
 73
     1
 44
1.0
  0
MTEXT
  5
E3
330
1F
100
AcDbEntity
  8
MARKETING_DRW
100
AcDbMText
 10
1855.0
 20
89.9766099061
 30
0.0
 40
9.0
 41
0.0
 71
     1
 72
     1
  1
release date:
  7
SLDTEXTSTYLE0
 73
     1
 44
1.0
  0
MTEXT
  5
E4
330
1F
100
AcDbEntity
  8
MARKETING_DRW
100
AcDbMText
 10
1862.3125000894
 20
269.9766099061
 30
0.0
 40
9.0
 41
0.0
 71
     2
 72
     1
  1
index:
  7
SLDTEXTSTYLE0
 73
     1
 44
1.0
  0
MTEXT
  5
E5
330
1F
100
AcDbEntity
  8
MARKETING_DRW
100
AcDbMText
 10
1155.0
 20
179.9766099061
 30
0.0
 40
9.0
 41
0.0
 71
     1
 72
     1
  1
title:
  7
SLDTEXTSTYLE0
 73
     1
 44
1.0
  0
MTEXT
  5
E6
330
1F
100
AcDbEntity
  8
MARKETING_DRW
100
AcDbMText
 10
2024.8750000875
 20
224.9766099061
 30
0.0
 40
9.0
 41
0.0
 71
     2
 72
     1
  1
scale:
  7
SLDTEXTSTYLE0
 73
     1
 44
1.0
  0
MTEXT
  5
E7
330
1F
100
AcDbEntity
  8
MARKETING_DRW
100
AcDbMText
 10
2024.7829862405
 20
204.9675136777
 30
0.0
 40
12.5
 41
0.0
 71
     2
 72
     1
  1
1:5
  7
SLDTEXTSTYLE0
 73
     1
 44
1.0
  0
INSERT
  5
EE
330
1F
100
AcDbEntity
  8
MARKETING_DRW
100
AcDbBlockReference
  2
SW_NOTE_0_1
 10
1155.0
 20
78.3750002482
 30
0.0
  0
MTEXT
  5
EF
330
1F
100
AcDbEntity
  8
MARKETING_DRW
100
AcDbMText
 10
1905.0
 20
249.9675136777
 30
0.0
 40
12.5
 41
0.0
 71
     1
 72
     1
  1
marketing drw.
  7
SLDTEXTSTYLE0
 73
     1
 44
1.0
  0
MTEXT
  5
F0
330
1F
100
AcDbEntity
  8
MARKETING_DRW
100
AcDbMText
 10
1405.0
 20
224.9766099061
 30
0.0
 40
9.0
 41
0.0
 71
     1
 72
     1
  1
created by:
  7
SLDTEXTSTYLE0
 73
     1
 44
1.0
  0
LINE
  5
F1
330
1F
100
AcDbEntity
  8
0
  6
Continuous
 62
     7
370
    35
100
AcDbLine
 10
1340.6107245225
 20
933.9846816169
 30
0.0
 11
360.6107245225
 21
933.9846816169
 31
0.0
  0
LINE
  5
F2
330
1F
100
AcDbEntity
  8
0
  6
Continuous
 62
     7
370
    35
100
AcDbLine
 10
769.6107245225
 20
913.893125855
 30
0.0
 11
769.6107245225
 21
910.9850816169
 31
0.0
  0
LINE
  5
F3
330
1F
100
AcDbEntity
  8
0
  6
Continuous
 62
     7
370
    35
100
AcDbLine
 10
931.6107245225
 20
910.9850816169
 30
0.0
 11
931.6107245225
 21
913.893125855
 31
0.0
  0
ARC
  5
F4
330
1F
100
AcDbEntity
  8
0
  6
Continuous
 62
     7
370
    35
100
AcDbCircle
 10
767.6107245225
 20
913.8866925372
 30
0.0
 40
2.00000000000007
100
AcDbArc
 50
0.1603835477
 51
88.7916387136
  0
ARC
  5
F5
330
1F
100
AcDbEntity
  8
0
  6
Continuous
 62
     7
370
    35
100
AcDbCircle
 10
933.6107245225
 20
913.8866925372
 30
0.0
 40
1.999999999999986
100
AcDbArc
 50
91.1928878275
 51
179.8251412338
  0
LINE
  5
F6
330
1F
100
AcDbEntity
  8
0
  6
Continuous
 62
     7
370
    35
100
AcDbLine
 10
360.6107245225
 20
915.8862925372
 30
0.0
 11
767.6515453343
 21
915.8862925372
 31
0.0
  0
LINE
  5
F7
330
1F
100
AcDbEntity
  8
0
  6
Continuous
 62
     7
370
    35
100
AcDbLine
 10
933.5699037104
 20
915.8862925372
 30
0.0
 11
1340.6107245225
 21
915.8862925372
 31
0.0
  0
LINE
  5
F8
330
1F
100
AcDbEntity
  8
0
  6
Continuous
 62
     7
370
    35
100
AcDbLine
 10
942.1107245225
 20
840.4850816169
 30
0.0
 11
985.2991228681
 21
840.4850816169
 31
0.0
  0
LINE
  5
F9
330
1F
100
AcDbEntity
  8
0
  6
Continuous
 62
     7
370
    35
100
AcDbLine
 10
985.2991228681
 20
890.5850816169
 30
0.0
 11
942.1107245225
 21
890.5850816169
 31
0.0
  0
ARC
  5
FA
330
1F
100
AcDbEntity
  8
0
  6
Continuous
 62
     7
370
    35
100
AcDbCircle
 10
985.2991228681
 20
887.5850816169
 30
0.0
 40
3.000000000000114
100
AcDbArc
 50
78.1402208791
 51
90.0
  0
ARC
  5
FB
330
1F
100
AcDbEntity
  8
0
  6
Continuous
 62
     7
370
    35
100
AcDbCircle
 10
985.2991228681
 20
843.4850816169
 30
0.0
 40
3.0
100
AcDbArc
 50
270.0
 51
281.8597791209
  0
LINE
  5
FC
330
1F
100
AcDbEntity
  8
0
  6
Continuous
 62
     7
370
    35
100
AcDbLine
 10
985.915674571
 20
840.5491211271
 30
0.0
 11
990.6107245225
 21
841.5350816169
 31
0.0
  0
LINE
  5
FD
330
1F
100
AcDbEntity
  8
0
  6
Continuous
 62
     7
370
    35
100
AcDbLine
 10
990.6107245225
 20
889.5350816169
 30
0.0
 11
985.915674571
 21
890.5210421067
 31
0.0
  0
LINE
  5
FE
330
1F
100
AcDbEntity
  8
0
  6
Continuous
 62
     7
370
    35
100
AcDbLine
 10
942.1107245607
 20
890.5350816169
 30
0.0
 11
940.508558949
 21
890.5350816169
 31
0.0
  0
LINE
  5
FF
330
1F
100
AcDbEntity
  8
0
  6
Continuous
 62
     7
370
    35
100
AcDbLine
 10
923.6107245224
 20
840.5350816169
 30
0.0
 11
942.1107245607
 21
840.5350816169
 31
0.0
  0
LINE
  5
100
330
1F
100
AcDbEntity
  8
0
  6
Continuous
 62
     7
370
    35
100
AcDbLine
 10
919.6575069295
 20
840.5350816169
 30
0.0
 11
923.6107245225
 21
840.5350816169
 31
0.0
  0
LINE
  5
101
330
1F
100
AcDbEntity
  8
0
  6
Continuous
 62
     7
370
    35
100
AcDbLine
 10
1340.6107245225
 20
921.9846816169
 30
0.0
 11
360.6107245225
 21
921.9846816169
 31
0.0
  0
LINE
  5
102
330
1F
100
AcDbEntity
  8
0
  6
Continuous
 62
     7
370
    35
100
AcDbLine
 10
1340.6107245225
 20
920.9846816169
 30
0.0
 11
1340.6107245225
 21
921.9846816169
 31
0.0
  0
LINE
  5
103
330
1F
100
AcDbEntity
  8
0
  6
Continuous
 62
     7
370
    35
100
AcDbLine
 10
1340.6107245225
 20
920.9846816169
 30
0.0
 11
360.6107245225
 21
920.9846816169
 31
0.0
  0
LINE
  5
104
330
1F
100
AcDbEntity
  8
0
  6
Continuous
 62
     7
370
    35
100
AcDbLine
 10
360.6107245225
 20
920.9846816169
 30
0.0
 11
360.6107245225
 21
921.9846816169
 31
0.0
  0
LINE
  5
105
330
1F
100
AcDbEntity
  8
0
  6
Continuous
 62
     7
370
    35
100
AcDbLine
 10
1340.6107245225
 20
921.9846816169
 30
0.0
 11
1340.6107245225
 21
922.9846816169
 31
0.0
  0
LINE
  5
106
330
1F
100
AcDbEntity
  8
0
  6
Continuous
 62
     7
370
    35
100
AcDbLine
 10
360.6107245225
 20
922.9846816169
 30
0.0
 11
360.6107245225
 21
921.9846816169
 31
0.0
  0
LINE
  5
107
330
1F
100
AcDbEntity
  8
0
  6
Continuous
 62
     7
370
    35
100
AcDbLine
 10
360.6107245225
 20
932.9846816169
 30
0.0
 11
360.6107245225
 21
933.9846816169
 31
0.0
  0
LINE
  5
108
330
1F
100
AcDbEntity
  8
0
  6
Continuous
 62
     7
370
    35
100
AcDbLine
 10
1340.6107245225
 20
933.9846816169
 30
0.0
 11
1340.6107245225
 21
932.9846816169
 31
0.0
  0
LINE
  5
109
330
1F
100
AcDbEntity
  8
0
  6
Continuous
 62
     7
370
    35
100
AcDbLine
 10
1340.6107245225
 20
932.4846816169
 30
0.0
 11
1340.6107245225
 21
922.9846816169
 31
0.0
  0
LINE
  5
10A
330
1F
100
AcDbEntity
  8
0
  6
Continuous
 62
     7
370
    35
100
AcDbLine
 10
360.6107245225
 20
922.9846816169
 30
0.0
 11
360.6107245225
 21
932.4846816169
 31
0.0
  0
LINE
  5
10B
330
1F
100
AcDbEntity
  8
0
  6
Continuous
 62
     7
370
    35
100
AcDbLine
 10
360.6107245225
 20
918.8866658985
 30
0.0
 11
360.6107245225
 21
919.6466001062
 31
0.0
  0
LINE
  5
10C
330
1F
100
AcDbEntity
  8
0
  6
Continuous
 62
     7
370
    35
100
AcDbLine
 10
1340.6107245225
 20
918.8866658985
 30
0.0
 11
1340.6107245225
 21
919.6466001062
 31
0.0
  0
LINE
  5
10D
330
1F
100
AcDbEntity
  8
0
  6
Continuous
 62
     7
370
    35
100
AcDbLine
 10
360.6107245225
 20
919.6466001062
 30
0.0
 11
360.6107245225
 21
920.9846816169
 31
0.0
  0
LINE
  5
10E
330
1F
100
AcDbEntity
  8
0
  6
Continuous
 62
     7
370
    35
100
AcDbLine
 10
1340.6107245225
 20
919.6466001062
 30
0.0
 11
1340.6107245225
 21
920.9846816169
 31
0.0
  0
SPLINE
  5
10F
330
1F
100
AcDbEntity
  8
0
  6
Continuous
 62
     7
370
    35
100
AcDbSpline
210
0.0
220
0.0
230
1.0
 70
     8
 71
     3
 72
    14
 73
    10
 74
     0
 42
0.000000001
 43
0.00000001
 40
0.0
 40
0.0
 40
0.0
 40
0.0
 40
0.25
 40
0.25
 40
0.5
 40
0.5
 40
0.75
 40
0.75
 40
1.0
 40
1.0
 40
1.0
 40
1.0
 10
933.5699006311411
 20
915.8895091961086
 30
0.0
 10
933.5446765355915
 20
916.0787565222579
 30
0.0
 10
932.9585000552072
 20
916.267676136266
 30
0.0
 10
930.7271087171623
 20
916.624413185393
 30
0.0
 10
929.082851134275
 20
916.7920685235907
 30
0.0
 10
924.9143225496144
 20
917.0877254115662
 30
0.0
 10
922.3918216722316
 20
917.2155945938612
 30
0.0
 10
916.7438593029436
 20
917.4174206584349
 30
0.0
 10
913.6208681473724
 20
917.491286577801
 30
0.0
 10
910.3689584038314
 20
917.534042626204
 30
0.0
  0
SPLINE
  5
110
330
1F
100
AcDbEntity
  8
0
  6
Continuous
 62
     7
370
    35
100
AcDbSpline
210
0.0
220
0.0
230
1.0
 70
     8
 71
     3
 72
    16
 73
    12
 74
     0
 42
0.000000001
 43
0.00000001
 40
0.0
 40
0.0
 40
0.0
 40
0.0
 40
0.0624999999999992
 40
0.0624999999999992
 40
0.1249999999999984
 40
0.1249999999999984
 40
0.2499999999999969
 40
0.2499999999999969
 40
0.4999999999999969
 40
0.4999999999999969
 40
1.0
 40
1.0
 40
1.0
 40
1.0
 10
910.3689584037752
 20
917.5340426261894
 30
0.0
 10
910.2304932348145
 20
917.5358631636375
 30
0.0
 10
910.0900733997549
 20
917.5365378820645
 30
0.0
 10
909.809236171098
 20
917.5378887500958
 30
0.0
 10
909.6685997114894
 20
917.5384364839044
 30
0.0
 10
909.2465605193398
 20
917.5400035891747
 30
0.0
 10
908.9650109054486
 20
917.5409095484476
 30
0.0
 10
908.1203434532249
 20
917.5434254842812
 30
0.0
 10
907.5570254944432
 20
917.5448015546108
 30
0.0
 10
905.8665230984943
 20
917.5481289609118
 30
0.0
 10
904.7386370309325
 20
917.5492539362532
 30
0.0
 10
903.6107245224555
 20
917.5492539362532
 30
0.0
  0
LINE
  5
111
330
1F
100
AcDbEntity
  8
0
  6
Continuous
 62
     7
370
    35
100
AcDbLine
 10
903.6107245225
 20
917.5492539363
 30
0.0
 11
797.6107245225
 21
917.5492539363
 31
0.0
  0
SPLINE
  5
112
330
1F
100
AcDbEntity
  8
0
  6
Continuous
 62
     7
370
    35
100
AcDbSpline
210
0.0
220
0.0
230
1.0
 70
     8
 71
     3
 72
    16
 73
    12
 74
     0
 42
0.000000001
 43
0.00000001
 40
0.0
 40
0.0
 40
0.0
 40
0.0
 40
0.5000000000000031
 40
0.5000000000000031
 40
0.7500000000000031
 40
0.7500000000000031
 40
0.8750000000000016
 40
0.8750000000000016
 40
0.9375000000000007
 40
0.9375000000000007
 40
1.0
 40
1.0
 40
1.0
 40
1.0
 10
797.6107245224555
 20
917.5492539362532
 30
0.0
 10
796.4827745007907
 20
917.5492539362532
 30
0.0
 10
795.3552327706383
 20
917.5481294584007
 30
0.0
 10
793.6645159956925
 20
917.5448017897721
 30
0.0
 10
793.1010288387845
 20
917.5434253126222
 30
0.0
 10
792.2562477367019
 20
917.5409089528214
 30
0.0
 10
791.974708402439
 20
917.5400029979992
 30
0.0
 10
791.5526348127233
 20
917.538435648488
 30
0.0
 10
791.4119558259011
 20
917.53788770206
 30
0.0
 10
791.1311173099314
 20
917.5365364506862
 30
0.0
 10
790.9907000348161
 20
917.535859800709
 30
0.0
 10
790.8524906411358
 20
917.5340426261894
 30
0.0
  0
SPLINE
  5
113
330
1F
100
AcDbEntity
  8
0
  6
Continuous
 62
     7
370
    35
100
AcDbSpline
210
0.0
220
0.0
230
1.0
 70
     8
 71
     3
 72
    14
 73
    10
 74
     0
 42
0.000000001
 43
0.00000001
 40
0.0
 40
0.0
 40
0.0
 40
0.0
 40
0.25
 40
0.25
 40
0.5
 40
0.5
 40
0.75
 40
0.75
 40
1.0
 40
1.0
 40
1.0
 40
1.0
 10
790.8524906410487
 20
917.5340426262106
 30
0.0
 10
787.6005809064877
 20
917.4912865779257
 30
0.0
 10
784.4776134445688
 20
917.4174216037302
 30
0.0
 10
778.829581400645
 20
917.2155928527735
 30
0.0
 10
776.3071171314043
 20
917.0877248808268
 30
0.0
 10
772.1385907863682
 20
916.792067884891
 30
0.0
 10
770.4943206082744
 20
916.6244102797027
 30
0.0
 10
768.2629599536372
 20
916.2676776422126
 30
0.0
 10
767.6767725094038
 20
916.0787565218502
 30
0.0
 10
767.651548413909
 20
915.8895091961081
 30
0.0
  0
LINE
  5
114
330
1F
100
AcDbEntity
  8
0
  6
Continuous
 62
     7
370
    35
100
AcDbLine
 10
769.6107245225
 20
910.9850816169
 30
0.0
 11
797.6107245225
 21
910.9850816169
 31
0.0
  0
LINE
  5
115
330
1F
100
AcDbEntity
  8
0
  6
Continuous
 62
     7
370
    35
100
AcDbLine
 10
903.6107245225
 20
910.9850816169
 30
0.0
 11
924.7648808718
 21
910.9850816169
 31
0.0
  0
LINE
  5
116
330
1F
100
AcDbEntity
  8
0
  6
Continuous
 62
     7
370
    35
100
AcDbLine
 10
925.3999307893
 20
910.9850816169
 30
0.0
 11
931.6107245225
 21
910.9850816169
 31
0.0
  0
LINE
  5
117
330
1F
100
AcDbEntity
  8
0
  6
Continuous
 62
     7
370
    35
100
AcDbLine
 10
797.6107245225
 20
910.9850816169
 30
0.0
 11
903.6107245225
 21
910.9850816169
 31
0.0
  0
LINE
  5
118
330
1F
100
AcDbEntity
  8
0
  6
Continuous
 62
     7
370
    35
100
AcDbLine
 10
1340.6107245225
 20
933.9846816169
 30
0.0
 11
360.6107245225
 21
933.9846816169
 31
0.0
  0
LINE
  5
119
330
1F
100
AcDbEntity
  8
0
  6
Continuous
 62
     7
370
    35
100
AcDbLine
 10
360.6107245225
 20
934.9846816169
 30
0.0
 11
360.6107245225
 21
933.9846816169
 31
0.0
  0
LINE
  5
11A
330
1F
100
AcDbEntity
  8
0
  6
Continuous
 62
     7
370
    35
100
AcDbLine
 10
1340.6107245225
 20
933.9846816169
 30
0.0
 11
1340.6107245225
 21
934.9846816169
 31
0.0
  0
LINE
  5
11B
330
1F
100
AcDbEntity
  8
0
  6
Continuous
 62
     7
370
    35
100
AcDbLine
 10
360.6107245225
 20
964.4846816169
 30
0.0
 11
1340.6107245225
 21
964.4846816169
 31
0.0
  0
LINE
  5
11C
330
1F
100
AcDbEntity
  8
0
  6
Continuous
 62
     7
370
    35
100
AcDbLine
 10
1340.6107245225
 20
964.4846816169
 30
0.0
 11
1340.6107245225
 21
934.9846816169
 31
0.0
  0
LINE
  5
11D
330
1F
100
AcDbEntity
  8
0
  6
Continuous
 62
     7
370
    35
100
AcDbLine
 10
360.6107245225
 20
934.9846816169
 30
0.0
 11
360.6107245225
 21
964.4846816169
 31
0.0
  0
LINE
  5
11E
330
1F
100
AcDbEntity
  8
0
  6
Continuous
 62
     7
370
    35
100
AcDbLine
 10
769.8107245225
 20
914.0350816169
 30
0.0
 11
797.6107245225
 21
914.0350816169
 31
0.0
  0
LINE
  5
11F
330
1F
100
AcDbEntity
  8
0
  6
Continuous
 62
     7
370
    35
100
AcDbLine
 10
931.4107245225
 20
914.0350816169
 30
0.0
 11
903.6107245225
 21
914.0350816169
 31
0.0
  0
LINE
  5
120
330
1F
100
AcDbEntity
  8
0
  6
Continuous
 62
     7
370
    35
100
AcDbLine
 10
942.1107245225
 20
865.5350816169
 30
0.0
 11
942.1107245225
 21
890.5850816169
 31
0.0
  0
LINE
  5
121
330
1F
100
AcDbEntity
  8
0
  6
Continuous
 62
     7
370
    35
100
AcDbLine
 10
942.1107245225
 20
840.4850816169
 30
0.0
 11
942.1107245225
 21
865.5350816169
 31
0.0
  0
LINE
  5
122
330
1F
100
AcDbEntity
  8
0
  6
Continuous
 62
     7
370
    35
100
AcDbLine
 10
990.6107245225
 20
865.5350816169
 30
0.0
 11
990.6107245225
 21
889.5350816169
 31
0.0
  0
LINE
  5
123
330
1F
100
AcDbEntity
  8
0
  6
Continuous
 62
     7
370
    35
100
AcDbLine
 10
990.6107245225
 20
841.5350816169
 30
0.0
 11
990.6107245225
 21
865.5350816169
 31
0.0
  0
ARC
  5
124
330
1F
100
AcDbEntity
  8
0
  6
Continuous
 62
     7
370
    35
100
AcDbCircle
 10
850.6107245225
 20
865.5850816169
 30
0.0
 40
25.05000000000026
100
AcDbArc
 50
237.7865374201
 51
302.2134625799
  0
SPLINE
  5
125
330
1F
100
AcDbEntity
  8
0
  6
Continuous
 62
     7
370
    35
100
AcDbSpline
210
0.0
220
0.0
230
1.0
 70
    24
 71
     3
 72
    10
 73
     6
 74
     0
 42
0.000000001
 43
0.00000001
 40
0.0
 40
0.0
 40
0.0
 40
0.0
 40
0.2125176675662
 40
0.6062581077227605
 40
1.0
 40
1.0
 40
1.0
 40
1.0
 10
850.6107245224563
 20
890.8970881438581
 30
0.0
 10
850.6107245224555
 20
890.9803716525716
 30
0.0
 10
850.610724522453
 20
891.2179580282144
 30
0.0
 10
850.6107245224565
 20
891.8294225926246
 30
0.0
 10
850.6107245224554
 20
892.4543224309726
 30
0.0
 10
850.6107245224548
 20
892.7667729263055
 30
0.0
  0
SPLINE
  5
126
330
1F
100
AcDbEntity
  8
0
  6
Continuous
 62
     7
370
    35
100
AcDbSpline
210
0.0
220
0.0
230
1.0
 70
     8
 71
     3
 72
    25
 73
    21
 74
     0
 42
0.000000001
 43
0.00000001
 40
0.0
 40
0.0
 40
0.0
 40
0.0
 40
0.040377285082533
 40
0.0581432905171141
 40
0.0718747463632703
 40
0.0830985540815626
 40
0.0953185813390223
 40
0.1147179721021833
 40
0.149295971334959
 40
0.2292797835274576
 40
0.3102091618275162
 40
0.3726852819819036
 40
0.4313870265629195
 40
0.4804590282852382
 40
0.5235520429457753
 40
0.5708166295125259
 40
0.6751808706738801
 40
0.7818081507417537
 40
0.8902538127997787
 40
1.0
 40
1.0
 40
1.0
 40
1.0
 10
769.1107245224538
 20
910.9850816168905
 30
0.0
 10
769.1173955279837
 20
910.1060289413174
 30
0.0
 10
769.1270017759466
 20
908.8401930885298
 30
0.0
 10
769.0875770579698
 20
907.3231355548304
 30
0.0
 10
769.1722615558742
 20
906.3208342953232
 30
0.0
 10
768.4928104465416
 20
905.7738323272628
 30
0.0
 10
767.6850532203408
 20
905.3544443360513
 30
0.0
 10
766.6126683731515
 20
904.355458325978
 30
0.0
 10
765.2853794539523
 20
901.7277804205828
 30
0.0
 10
764.611160990191
 20
897.5241291362187
 30
0.0
 10
763.512159814886
 20
892.8285927110572
 30
0.0
 10
762.7736350672839
 20
888.5193181350878
 30
0.0
 10
762.21185497278
 20
884.8824538391315
 30
0.0
 10
761.8293138304668
 20
881.6422515701969
 30
0.0
 10
761.6371804282468
 20
878.6330136554316
 30
0.0
 10
761.5665967110731
 20
874.4230916493739
 30
0.0
 10
761.9227351354193
 20
868.8378598916462
 30
0.0
 10
763.1474584178579
 20
862.0308435039279
 30
0.0
 10
765.1230863869553
 20
855.2679109591974
 30
0.0
 10
767.0977491637151
 20
850.9785512756032
 30
0.0
 10
768.0909655074618
 20
848.8210881421035
 30
0.0
  0
SPLINE
  5
127
330
1F
100
AcDbEntity
  8
0
  6
Continuous
 62
     7
370
    35
100
AcDbSpline
210
0.0
220
0.0
230
1.0
 70
    24
 71
     3
 72
    19
 73
    15
 74
     0
 42
0.000000001
 43
0.00000001
 40
0.0
 40
0.0
 40
0.0
 40
0.0
 40
0.2409130132110066
 40
0.4882582803106315
 40
0.5391715029117267
 40
0.5899404478678764
 40
0.6400693120936306
 40
0.6899887491764645
 40
0.7400419496428635
 40
0.7904190820051402
 40
0.8413201884464402
 40
0.8929676784851895
 40
0.9456873805534206
 40
1.0
 40
1.0
 40
1.0
 40
1.0
 10
850.6107245224548
 20
910.9850816168899
 30
0.0
 10
842.7646814241731
 20
910.98508161689
 30
0.0
 10
826.8631099011156
 20
910.98508161689
 30
0.0
 10
809.2976853158148
 20
910.9850816168897
 30
0.0
 10
797.9357985128117
 20
910.98508161689
 30
0.0
 10
792.9800259185672
 20
910.9850816168895
 30
0.0
 10
788.1956651551573
 20
910.9850816168899
 30
0.0
 10
783.7120872110265
 20
910.9850816168905
 30
0.0
 10
779.6338369204491
 20
910.9850816168906
 30
0.0
 10
776.060584978954
 20
910.9850816168906
 30
0.0
 10
773.0941792341342
 20
910.9850816168905
 30
0.0
 10
770.8641530147695
 20
910.9850816168903
 30
0.0
 10
769.3908429177474
 20
910.9850816168905
 30
0.0
 10
769.2050191666671
 20
910.9850816168905
 30
0.0
 10
769.1107245224538
 20
910.9850816168905
 30
0.0
  0
SPLINE
  5
128
330
1F
100
AcDbEntity
  8
0
  6
Continuous
 62
     7
370
    35
100
AcDbSpline
210
0.0
220
0.0
230
1.0
 70
    24
 71
     3
 72
    18
 73
    14
 74
     0
 42
0.000000001
 43
0.00000001
 40
0.0
 40
0.0
 40
0.0
 40
0.0
 40
0.1056000872447471
 40
0.3249463313005461
 40
0.5456095245813467
 40
0.6686132746948407
 40
0.7011918426142492
 40
0.7339487647370306
 40
0.7672437697818042
 40
0.8035947759165847
 40
0.8401179485066305
 40
0.8975115054529705
 40
1.0
 40
1.0
 40
1.0
 40
1.0
 10
850.6107245224548
 20
892.7667729263052
 30
0.0
 10
850.6107245224548
 20
893.4429815354353
 30
0.0
 10
850.6107245224548
 20
895.5237705997604
 30
0.0
 10
850.6107245224548
 20
898.9557606432871
 30
0.0
 10
850.6107245224548
 20
902.6019250792485
 30
0.0
 10
850.6107245224548
 20
904.7460868256721
 30
0.0
 10
850.6107245224548
 20
905.5281955554563
 30
0.0
 10
850.6107245224548
 20
905.809814556729
 30
0.0
 10
850.6107245224548
 20
906.294024159434
 30
0.0
 10
850.6107245224548
 20
907.0541740864869
 30
0.0
 10
850.6107245224548
 20
907.9104829431135
 30
0.0
 10
850.6107245224548
 20
909.2320763269133
 30
0.0
 10
850.6107245224548
 20
910.3003139254927
 30
0.0
 10
850.6107245224548
 20
910.9850816168899
 30
0.0
  0
SPLINE
  5
129
330
1F
100
AcDbEntity
  8
0
  6
Continuous
 62
     7
370
    35
100
AcDbSpline
210
0.0
220
0.0
230
1.0
 70
    24
 71
     3
 72
    19
 73
    15
 74
     0
 42
0.000000001
 43
0.00000001
 40
0.0
 40
0.0
 40
0.0
 40
0.0
 40
0.2409130132110045
 40
0.4882582803106243
 40
0.5391715029117194
 40
0.5899404478678691
 40
0.6400693120936233
 40
0.6899887491764569
 40
0.7400419496428565
 40
0.7904190820051348
 40
0.8413201884464379
 40
0.8929676784851892
 40
0.9456873805534207
 40
1.0
 40
1.0
 40
1.0
 40
1.0
 10
850.6107245224548
 20
910.9850816168899
 30
0.0
 10
858.4567676207364
 20
910.9850816168899
 30
0.0
 10
874.3583391437937
 20
910.98508161689
 30
0.0
 10
891.9237637290944
 20
910.985081616889
 30
0.0
 10
903.2856505320972
 20
910.9850816168895
 30
0.0
 10
908.2414231263416
 20
910.9850816168885
 30
0.0
 10
913.0257838897517
 20
910.9850816168887
 30
0.0
 10
917.5093618338824
 20
910.9850816168894
 30
0.0
 10
921.5876121244598
 20
910.9850816168895
 30
0.0
 10
925.160864065955
 20
910.9850816168894
 30
0.0
 10
928.1272698107754
 20
910.9850816168893
 30
0.0
 10
930.3572960301404
 20
910.9850816168893
 30
0.0
 10
931.8306061271628
 20
910.9850816168893
 30
0.0
 10
932.016429878243
 20
910.9850816168894
 30
0.0
 10
932.1107245224562
 20
910.9850816168894
 30
0.0
  0
SPLINE
  5
12A
330
1F
100
AcDbEntity
  8
0
  6
Continuous
 62
     7
370
    35
100
AcDbSpline
210
0.0
220
0.0
230
1.0
 70
     8
 71
     3
 72
    16
 73
    12
 74
     0
 42
0.000000001
 43
0.00000001
 40
0.0
 40
0.0
 40
0.0
 40
0.0
 40
0.1465768179208922
 40
0.2110706177997921
 40
0.2609182759381927
 40
0.3016627196753197
 40
0.3460236197864539
 40
0.4164469026261952
 40
0.5419712682998716
 40
0.7688489389603025
 40
1.0
 40
1.0
 40
1.0
 40
1.0
 10
932.1107245224562
 20
910.9850816168894
 30
0.0
 10
932.104054676927
 20
910.1060292882823
 30
0.0
 10
932.0944500993653
 20
908.8401939351261
 30
0.0
 10
932.1338679618984
 20
907.3231343509049
 30
0.0
 10
932.0491981895223
 20
906.3208374959291
 30
0.0
 10
932.7286052113243
 20
905.7738223409106
 30
0.0
 10
933.5365684084577
 20
905.3544959573704
 30
0.0
 10
934.607336213527
 20
904.3550262761381
 30
0.0
 10
935.7764634709771
 20
902.0748575375925
 30
0.0
 10
936.379276471641
 20
898.631632730794
 30
0.0
 10
936.9924975278179
 20
895.9766343215821
 30
0.0
 10
937.3019687202934
 20
894.6367496006607
 30
0.0
  0
SPLINE
  5
12B
330
1F
100
AcDbEntity
  8
0
  6
Continuous
 62
     7
370
    35
100
AcDbSpline
210
0.0
220
0.0
230
1.0
 70
     8
 71
     3
 72
    14
 73
    10
 74
     0
 42
0.000000001
 43
0.00000001
 40
0.0
 40
0.0
 40
0.0
 40
0.0
 40
0.1497838616746357
 40
0.3039198677007078
 40
0.4537011775423317
 40
0.6078081864720632
 40
0.757933700022959
 40
0.9123691506710973
 40
1.0
 40
1.0
 40
1.0
 40
1.0
 10
768.0909655074618
 20
848.8210881421035
 30
0.0
 10
768.4998122205734
 20
848.0959736292624
 30
0.0
 10
769.3293851636765
 20
846.6246755578508
 30
0.0
 10
771.0129204086123
 20
844.730236761101
 30
0.0
 10
772.9830275807399
 20
843.1137576321565
 30
0.0
 10
775.1843416226279
 20
841.8636859754611
 30
0.0
 10
777.5849013868738
 20
840.9957883651782
 30
0.0
 10
779.7354135670262
 20
840.5876669513679
 30
0.0
 10
781.0779339407541
 20
840.5490583756589
 30
0.0
 10
781.5639421153835
 20
840.5350816168905
 30
0.0
  0
SPLINE
  5
12C
330
1F
100
AcDbEntity
  8
0
  6
Continuous
 62
     7
370
    35
100
AcDbSpline
210
0.0
220
0.0
230
1.0
 70
    24
 71
     3
 72
    19
 73
    15
 74
     0
 42
0.000000001
 43
0.00000001
 40
0.0
 40
0.0
 40
0.0
 40
0.0
 40
0.0339082014123464
 40
0.0838890956615408
 40
0.1338856406936262
 40
0.1787639190833878
 40
0.2236368521988045
 40
0.2646138248638232
 40
0.3055644086924201
 40
0.3465596390526753
 40
0.3876059998972905
 40
0.551099977900531
 40
0.7146015071203438
 40
1.0
 40
1.0
 40
1.0
 40
1.0
 10
781.5639421153835
 20
840.5350816168905
 30
0.0
 10
781.7043719688131
 20
840.5350816168904
 30
0.0
 10
782.0517962767215
 20
840.5350816168905
 30
0.0
 10
783.2496724435188
 20
840.5350816168904
 30
0.0
 10
785.0998672639882
 20
840.5350816168905
 30
0.0
 10
787.3922196844674
 20
840.5350816168905
 30
0.0
 10
789.9151112157173
 20
840.5350816168904
 30
0.0
 10
792.680728919066
 20
840.5350816168905
 30
0.0
 10
795.6095199263725
 20
840.5350816168905
 30
0.0
 10
798.7559625071248
 20
840.5350816168905
 30
0.0
 10
805.2468190581131
 20
840.5350816168904
 30
0.0
 10
814.9844281721267
 20
840.5350816168902
 30
0.0
 10
831.1872343895492
 20
840.5350816168897
 30
0.0
 10
843.0614312891006
 20
840.5350816168898
 30
0.0
 10
850.6107245224553
 20
840.5350816168898
 30
0.0
  0
SPLINE
  5
12D
330
1F
100
AcDbEntity
  8
0
  6
Continuous
 62
     7
370
    35
100
AcDbSpline
210
0.0
220
0.0
230
1.0
 70
    24
 71
     3
 72
    19
 73
    15
 74
     0
 42
0.000000001
 43
0.00000001
 40
0.0
 40
0.0
 40
0.0
 40
0.0
 40
0.0339064855174937
 40
0.083137297379109
 40
0.133884014771798
 40
0.1782456415880435
 40
0.223632096785988
 40
0.2641259724126844
 40
0.3055570601923705
 40
0.3459382551888643
 40
0.3876378429813759
 40
0.5510878192859419
 40
0.7146159494612725
 40
1.0
 40
1.0
 40
1.0
 40
1.0
 10
919.6575069295279
 20
840.5350816168892
 30
0.0
 10
919.5169209967275
 20
840.5350816168892
 30
0.0
 10
919.172210115486
 20
840.5350816168891
 30
0.0
 10
917.9839389113782
 20
840.5350816168892
 30
0.0
 10
916.1392246328347
 20
840.5350816168892
 30
0.0
 10
913.839951848551
 20
840.5350816168892
 30
0.0
 10
911.326090637727
 20
840.5350816168892
 30
0.0
 10
908.5533832087599
 20
840.5350816168892
 30
0.0
 10
905.6363426591529
 20
840.5350816168892
 30
0.0
 10
902.4889334419603
 20
840.5350816168892
 30
0.0
 10
895.9868857614142
 20
840.5350816168891
 30
0.0
 10
886.240200229471
 20
840.5350816168901
 30
0.0
 10
870.0340526793693
 20
840.5350816168897
 30
0.0
 10
858.1595962562866
 20
840.5350816168898
 30
0.0
 10
850.6107245224553
 20
840.5350816168898
 30
0.0
  0
SPLINE
  5
12E
330
1F
100
AcDbEntity
  8
0
  6
Continuous
 62
     7
370
    35
100
AcDbSpline
210
0.0
220
0.0
230
1.0
 70
     8
 71
     3
 72
    10
 73
     6
 74
     0
 42
0.000000001
 43
0.00000001
 40
0.0
 40
0.0
 40
0.0
 40
0.0
 40
0.0149525925089902
 40
0.5037698573839627
 40
1.0
 40
1.0
 40
1.0
 40
1.0
 10
923.6107245224568
 20
840.5350816168892
 30
0.0
 10
923.611665100813
 20
840.5351222800289
 30
0.0
 10
923.6433542559895
 20
840.5364922674796
 30
0.0
 10
923.7063543107092
 20
840.6540946045591
 30
0.0
 10
923.7680082279113
 20
841.0874205509118
 30
0.0
 10
923.7990671717687
 20
841.3057140000622
 30
0.0
  0
LINE
  5
12F
330
1F
100
AcDbEntity
  8
0
  6
Continuous
 62
     7
370
    35
100
AcDbLine
 10
937.3019687203
 20
894.6367496007
 30
0.0
 11
937.5240273083
 21
893.2162821114
 31
0.0
  0
SPLINE
  5
130
330
1F
100
AcDbEntity
  8
0
  6
Continuous
 62
     7
370
    35
100
AcDbSpline
210
0.0
220
0.0
230
1.0
 70
     8
 71
     3
 72
    13
 73
     9
 74
     0
 42
0.000000001
 43
0.00000001
 40
0.0
 40
0.0
 40
0.0
 40
0.0
 40
0.0095081972613442
 40
0.0791116948017535
 40
0.3094644223199435
 40
0.5396843471459984
 40
0.7698410895023555
 40
1.0
 40
1.0
 40
1.0
 40
1.0
 10
940.508558948983
 20
890.5350816168896
 30
0.0
 10
940.4946927191689
 20
890.5351437808214
 30
0.0
 10
940.3793205922606
 20
890.5356610075747
 30
0.0
 10
939.9285422521268
 20
890.5651961522748
 30
0.0
 10
939.1690681860912
 20
890.7853078393362
 30
0.0
 10
938.3400760529618
 20
891.3833485983874
 30
0.0
 10
937.7304199956611
 20
892.2209295234876
 30
0.0
 10
937.5928250867851
 20
892.884496873622
 30
0.0
 10
937.5240273083027
 20
893.2162821114298
 30
0.0
  0
LINE
  5
131
330
1F
100
AcDbEntity
  8
0
  6
Continuous
 62
     7
370
    35
100
AcDbLine
 10
360.6107245225
 20
932.9846816169
 30
0.0
 11
360.6107245225
 21
922.9846816169
 31
0.0
  0
LINE
  5
132
330
1F
100
AcDbEntity
  8
0
  6
Continuous
 62
     7
370
    35
100
AcDbLine
 10
358.6107245225
 20
932.9846816169
 30
0.0
 11
358.6107245225
 21
921.9846816169
 31
0.0
  0
ARC
  5
133
330
1F
100
AcDbEntity
  8
0
  6
Continuous
 62
     7
370
    35
100
AcDbCircle
 10
359.6107245225
 20
932.9846816169
 30
0.0
 40
1.0
100
AcDbArc
 50
90.0
 51
180.0
  0
ARC
  5
134
330
1F
100
AcDbEntity
  8
0
  6
Continuous
 62
     7
370
    35
100
AcDbCircle
 10
359.6107245225
 20
932.9846816169
 30
0.0
 40
1.000000000000057
100
AcDbArc
 50
0.0
 51
90.0
  0
LINE
  5
135
330
1F
100
AcDbEntity
  8
0
  6
Continuous
 62
     7
370
    35
100
AcDbLine
 10
358.6107245225
 20
920.9846816169
 30
0.0
 11
358.6107245225
 21
915.2588221385
 31
0.0
  0
LINE
  5
136
330
1F
100
AcDbEntity
  8
0
  6
Continuous
 62
     7
370
    35
100
AcDbLine
 10
360.6107245225
 20
918.8866658985
 30
0.0
 11
360.6107245225
 21
915.2588221385
 31
0.0
  0
LINE
  5
137
330
1F
100
AcDbEntity
  8
0
  6
Continuous
 62
     7
370
    35
100
AcDbLine
 10
358.6107245225
 20
913.4462065644
 30
0.0
 11
358.6107245225
 21
915.2588221385
 31
0.0
  0
LINE
  5
138
330
1F
100
AcDbEntity
  8
0
  6
Continuous
 62
     7
370
    35
100
AcDbLine
 10
360.6107245225
 20
915.2588221385
 30
0.0
 11
360.6107245225
 21
913.4462065644
 31
0.0
  0
LINE
  5
139
330
1F
100
AcDbEntity
  8
0
  6
Continuous
 62
     7
370
    35
100
AcDbLine
 10
358.6107245225
 20
913.4462065644
 30
0.0
 11
358.6107245225
 21
906.1879072798
 31
0.0
  0
LINE
  5
13A
330
1F
100
AcDbEntity
  8
0
  6
Continuous
 62
     7
370
    35
100
AcDbLine
 10
360.6107245225
 20
913.4462065644
 30
0.0
 11
360.6107245225
 21
906.1879072798
 31
0.0
  0
LINE
  5
13B
330
1F
100
AcDbEntity
  8
0
  6
Continuous
 62
     7
370
    35
100
AcDbLine
 10
358.6107245225
 20
904.3752917058
 30
0.0
 11
358.6107245225
 21
906.1879072798
 31
0.0
  0
LINE
  5
13C
330
1F
100
AcDbEntity
  8
0
  6
Continuous
 62
     7
370
    35
100
AcDbLine
 10
360.6107245225
 20
906.1879072798
 30
0.0
 11
360.6107245225
 21
904.3752917058
 31
0.0
  0
LINE
  5
13D
330
1F
100
AcDbEntity
  8
0
  6
Continuous
 62
     7
370
    35
100
AcDbLine
 10
358.6107245225
 20
904.3752917058
 30
0.0
 11
358.6107245225
 21
870.0846816169
 31
0.0
  0
LINE
  5
13E
330
1F
100
AcDbEntity
  8
0
  6
Continuous
 62
     7
370
    35
100
AcDbLine
 10
360.6107245225
 20
904.3752917058
 30
0.0
 11
360.6107245225
 21
870.0846816169
 31
0.0
  0
LINE
  5
13F
330
1F
100
AcDbEntity
  8
0
  6
Continuous
 62
     7
370
    35
100
AcDbLine
 10
360.6107245225
 20
868.0846816169
 30
0.0
 11
358.6107245225
 21
868.0846816169
 31
0.0
  0
LINE
  5
140
330
1F
100
AcDbEntity
  8
0
  6
Continuous
 62
     7
370
    35
100
AcDbLine
 10
358.6107245225
 20
868.0846816169
 30
0.0
 11
358.6107245225
 21
870.0846816169
 31
0.0
  0
LINE
  5
141
330
1F
100
AcDbEntity
  8
0
  6
Continuous
 62
     7
370
    35
100
AcDbLine
 10
360.6107245225
 20
870.0846816169
 30
0.0
 11
360.6107245225
 21
868.0846816169
 31
0.0
  0
ARC
  5
142
330
1F
100
AcDbEntity
  8
0
  6
Continuous
 62
     7
370
    35
100
AcDbCircle
 10
1341.6107245225
 20
932.9846816169
 30
0.0
 40
1.000000000000227
100
AcDbArc
 50
90.0
 51
180.0
  0
ARC
  5
143
330
1F
100
AcDbEntity
  8
0
  6
Continuous
 62
     7
370
    35
100
AcDbCircle
 10
1341.6107245225
 20
932.9846816169
 30
0.0
 40
1.0
100
AcDbArc
 50
0.0
 51
90.0
  0
LINE
  5
144
330
1F
100
AcDbEntity
  8
0
  6
Continuous
 62
     7
370
    35
100
AcDbLine
 10
1340.6107245225
 20
932.9846816169
 30
0.0
 11
1340.6107245225
 21
922.9846816169
 31
0.0
  0
LINE
  5
145
330
1F
100
AcDbEntity
  8
0
  6
Continuous
 62
     7
370
    35
100
AcDbLine
 10
1342.6107245225
 20
932.9846816169
 30
0.0
 11
1342.6107245225
 21
921.9846816169
 31
0.0
  0
LINE
  5
146
330
1F
100
AcDbEntity
  8
0
  6
Continuous
 62
     7
370
    35
100
AcDbLine
 10
1340.6107245225
 20
918.8866658985
 30
0.0
 11
1340.6107245225
 21
915.2588221385
 31
0.0
  0
LINE
  5
147
330
1F
100
AcDbEntity
  8
0
  6
Continuous
 62
     7
370
    35
100
AcDbLine
 10
1342.6107245225
 20
920.9846816169
 30
0.0
 11
1342.6107245225
 21
915.2588221385
 31
0.0
  0
LINE
  5
148
330
1F
100
AcDbEntity
  8
0
  6
Continuous
 62
     7
370
    35
100
AcDbLine
 10
1340.6107245225
 20
913.4462065644
 30
0.0
 11
1340.6107245225
 21
915.2588221385
 31
0.0
  0
LINE
  5
149
330
1F
100
AcDbEntity
  8
0
  6
Continuous
 62
     7
370
    35
100
AcDbLine
 10
1342.6107245225
 20
915.2588221385
 30
0.0
 11
1342.6107245225
 21
913.4462065644
 31
0.0
  0
LINE
  5
14A
330
1F
100
AcDbEntity
  8
0
  6
Continuous
 62
     7
370
    35
100
AcDbLine
 10
1340.6107245225
 20
913.4462065644
 30
0.0
 11
1340.6107245225
 21
906.1879072798
 31
0.0
  0
LINE
  5
14B
330
1F
100
AcDbEntity
  8
0
  6
Continuous
 62
     7
370
    35
100
AcDbLine
 10
1342.6107245225
 20
913.4462065644
 30
0.0
 11
1342.6107245225
 21
906.1879072798
 31
0.0
  0
LINE
  5
14C
330
1F
100
AcDbEntity
  8
0
  6
Continuous
 62
     7
370
    35
100
AcDbLine
 10
1340.6107245225
 20
904.3752917058
 30
0.0
 11
1340.6107245225
 21
906.1879072798
 31
0.0
  0
LINE
  5
14D
330
1F
100
AcDbEntity
  8
0
  6
Continuous
 62
     7
370
    35
100
AcDbLine
 10
1342.6107245225
 20
906.1879072798
 30
0.0
 11
1342.6107245225
 21
904.3752917058
 31
0.0
  0
LINE
  5
14E
330
1F
100
AcDbEntity
  8
0
  6
Continuous
 62
     7
370
    35
100
AcDbLine
 10
1340.6107245225
 20
904.3752917058
 30
0.0
 11
1340.6107245225
 21
870.0846816169
 31
0.0
  0
LINE
  5
14F
330
1F
100
AcDbEntity
  8
0
  6
Continuous
 62
     7
370
    35
100
AcDbLine
 10
1342.6107245225
 20
904.3752917058
 30
0.0
 11
1342.6107245225
 21
870.0846816169
 31
0.0
  0
LINE
  5
150
330
1F
100
AcDbEntity
  8
0
  6
Continuous
 62
     7
370
    35
100
AcDbLine
 10
1342.6107245225
 20
868.0846816169
 30
0.0
 11
1340.6107245225
 21
868.0846816169
 31
0.0
  0
LINE
  5
151
330
1F
100
AcDbEntity
  8
0
  6
Continuous
 62
     7
370
    35
100
AcDbLine
 10
1340.6107245225
 20
868.0846816169
 30
0.0
 11
1340.6107245225
 21
870.0846816169
 31
0.0
  0
LINE
  5
152
330
1F
100
AcDbEntity
  8
0
  6
Continuous
 62
     7
370
    35
100
AcDbLine
 10
1342.6107245225
 20
870.0846816169
 30
0.0
 11
1342.6107245225
 21
868.0846816169
 31
0.0
  0
LINE
  5
153
330
1F
100
AcDbEntity
  8
0
  6
Continuous
 62
     7
370
    35
100
AcDbLine
 10
338.1107245225
 20
920.9846816169
 30
0.0
 11
328.1107245225
 21
920.9846816169
 31
0.0
  0
LINE
  5
154
330
1F
100
AcDbEntity
  8
0
  6
Continuous
 62
     7
370
    35
100
AcDbLine
 10
328.1107245225
 20
920.9846816169
 30
0.0
 11
328.1107245225
 21
921.9846816169
 31
0.0
  0
LINE
  5
155
330
1F
100
AcDbEntity
  8
0
  6
Continuous
 62
     7
370
    35
100
AcDbLine
 10
328.1107245225
 20
921.9846816169
 30
0.0
 11
338.1107245225
 21
921.9846816169
 31
0.0
  0
LINE
  5
156
330
1F
100
AcDbEntity
  8
0
  6
Continuous
 62
     7
370
    35
100
AcDbLine
 10
360.6107245225
 20
921.9846816169
 30
0.0
 11
338.1107245225
 21
921.9846816169
 31
0.0
  0
LINE
  5
157
330
1F
100
AcDbEntity
  8
0
  6
Continuous
 62
     7
370
    35
100
AcDbLine
 10
360.6107245225
 20
920.9846816169
 30
0.0
 11
338.1107245225
 21
920.9846816169
 31
0.0
  0
LINE
  5
158
330
1F
100
AcDbEntity
  8
0
  6
Continuous
 62
     7
370
    35
100
AcDbLine
 10
328.1107245225
 20
922.9846816169
 30
0.0
 11
328.1107245225
 21
921.9846816169
 31
0.0
  0
ARC
  5
159
330
1F
100
AcDbEntity
  8
0
  6
Continuous
 62
     7
370
    35
100
AcDbCircle
 10
338.1107245225
 20
954.4846816169
 30
0.0
 40
10.0
100
AcDbArc
 50
90.0
 51
180.0
  0
LINE
  5
15A
330
1F
100
AcDbEntity
  8
0
  6
Continuous
 62
     7
370
    35
100
AcDbLine
 10
360.6107245225
 20
964.4846816169
 30
0.0
 11
338.1107245225
 21
964.4846816169
 31
0.0
  0
LINE
  5
15B
330
1F
100
AcDbEntity
  8
0
  6
Continuous
 62
     7
370
    35
100
AcDbLine
 10
328.1107245225
 20
954.4846816169
 30
0.0
 11
328.1107245225
 21
922.9846816169
 31
0.0
  0
LINE
  5
15C
330
1F
100
AcDbEntity
  8
0
  6
Continuous
 62
     7
370
    35
100
AcDbLine
 10
1340.6107245225
 20
920.9846816169
 30
0.0
 11
1363.1107245225
 21
920.9846816169
 31
0.0
  0
LINE
  5
15D
330
1F
100
AcDbEntity
  8
0
  6
Continuous
 62
     7
370
    35
100
AcDbLine
 10
1340.6107245225
 20
921.9846816169
 30
0.0
 11
1363.1107245225
 21
921.9846816169
 31
0.0
  0
LINE
  5
15E
330
1F
100
AcDbEntity
  8
0
  6
Continuous
 62
     7
370
    35
100
AcDbLine
 10
1373.1107245225
 20
921.9846816169
 30
0.0
 11
1373.1107245225
 21
920.9846816169
 31
0.0
  0
LINE
  5
15F
330
1F
100
AcDbEntity
  8
0
  6
Continuous
 62
     7
370
    35
100
AcDbLine
 10
1373.1107245225
 20
920.9846816169
 30
0.0
 11
1363.1107245225
 21
920.9846816169
 31
0.0
  0
LINE
  5
160
330
1F
100
AcDbEntity
  8
0
  6
Continuous
 62
     7
370
    35
100
AcDbLine
 10
1363.1107245225
 20
921.9846816169
 30
0.0
 11
1373.1107245225
 21
921.9846816169
 31
0.0
  0
LINE
  5
161
330
1F
100
AcDbEntity
  8
0
  6
Continuous
 62
     7
370
    35
100
AcDbLine
 10
1373.1107245225
 20
921.9846816169
 30
0.0
 11
1373.1107245225
 21
922.9846816169
 31
0.0
  0
LINE
  5
162
330
1F
100
AcDbEntity
  8
0
  6
Continuous
 62
     7
370
    35
100
AcDbLine
 10
1340.6107245225
 20
964.4846816169
 30
0.0
 11
1363.1107245225
 21
964.4846816169
 31
0.0
  0
ARC
  5
163
330
1F
100
AcDbEntity
  8
0
  6
Continuous
 62
     7
370
    35
100
AcDbCircle
 10
1363.1107245225
 20
954.4846816169
 30
0.0
 40
10.0
100
AcDbArc
 50
0.0
 51
90.0
  0
LINE
  5
164
330
1F
100
AcDbEntity
  8
0
  6
Continuous
 62
     7
370
    35
100
AcDbLine
 10
1373.1107245225
 20
954.4846816169
 30
0.0
 11
1373.1107245225
 21
922.9846816169
 31
0.0
  0
LINE
  5
165
330
1F
100
AcDbEntity
  8
0
  6
Continuous
 62
     8
370
    18
100
AcDbLine
 10
1340.6107245225
 20
922.9846816169
 30
0.0
 11
360.6107245225
 21
922.9846816169
 31
0.0
  0
LINE
  5
166
330
1F
100
AcDbEntity
  8
0
  6
Continuous
 62
     8
370
    18
100
AcDbLine
 10
360.6107245225
 20
932.4846816169
 30
0.0
 11
1340.6107245225
 21
932.4846816169
 31
0.0
  0
LINE
  5
167
330
1F
100
AcDbEntity
  8
0
  6
Continuous
 62
     8
370
    18
100
AcDbLine
 10
360.6107245225
 20
917.6498167651
 30
0.0
 11
1340.6107245225
 21
917.6498167651
 31
0.0
  0
LINE
  5
168
330
1F
100
AcDbEntity
  8
0
  6
Continuous
 62
     8
370
    18
100
AcDbLine
 10
360.6107245225
 20
919.6466001062
 30
0.0
 11
1340.6107245225
 21
919.6466001062
 31
0.0
  0
LINE
  5
169
330
1F
100
AcDbEntity
  8
0
  6
Continuous
 62
     8
370
    18
100
AcDbLine
 10
360.6107245225
 20
915.8895091961
 30
0.0
 11
767.6515484138
 21
915.8895091961
 31
0.0
  0
LINE
  5
16A
330
1F
100
AcDbEntity
  8
0
  6
Continuous
 62
     8
370
    18
100
AcDbLine
 10
933.5699006311
 20
915.8895091961
 30
0.0
 11
1340.6107245225
 21
915.8895091961
 31
0.0
  0
SPLINE
  5
16B
330
1F
100
AcDbEntity
  8
0
  6
Continuous
 62
     8
370
    18
100
AcDbSpline
210
0.0
220
0.0
230
1.0
 70
     8
 71
     3
 72
    10
 73
     6
 74
     0
 42
0.000000001
 43
0.00000001
 40
0.0
 40
0.0
 40
0.0
 40
0.0
 40
0.5
 40
0.5
 40
1.0
 40
1.0
 40
1.0
 40
1.0
 10
909.9268366295508
 20
915.5398651936623
 30
0.0
 10
908.8877929467926
 20
915.554502329606
 30
0.0
 10
907.8421806260882
 20
915.5889723067584
 30
0.0
 10
905.7370541912617
 20
915.6419959131547
 30
0.0
 10
904.6775367798003
 20
915.6604485297164
 30
0.0
 10
903.610724522456
 20
915.6604485297164
 30
0.0
  0
LINE
  5
16C
330
1F
100
AcDbEntity
  8
0
  6
Continuous
 62
     8
370
    18
100
AcDbLine
 10
903.6107245225
 20
915.6604485297
 30
0.0
 11
903.6107245225
 21
917.5492539363
 31
0.0
  0
ARC
  5
16D
330
1F
100
AcDbEntity
  8
0
  6
Continuous
 62
     8
370
    18
100
AcDbCircle
 10
912.8909515315
 20
915.9288014516
 30
0.0
 40
2.989523133340462
100
AcDbArc
 50
147.5233674626
 51
187.4753574051
  0
SPLINE
  5
16E
330
1F
100
AcDbEntity
  8
0
  6
Continuous
 62
     8
370
    18
100
AcDbSpline
210
0.0
220
0.0
230
1.0
 70
     8
 71
     3
 72
    10
 73
     6
 74
     0
 42
0.000000001
 43
0.00000001
 40
0.0
 40
0.0
 40
0.0
 40
0.0
 40
0.5
 40
0.5
 40
1.0
 40
1.0
 40
1.0
 40
1.0
 10
797.6107245224555
 20
915.6604485296756
 30
0.0
 10
796.5439122651114
 20
915.6604485296756
 30
0.0
 10
795.4843948536495
 20
915.6419959131547
 30
0.0
 10
793.3792684188229
 20
915.5889723067584
 30
0.0
 10
792.3336560981184
 20
915.5545023296378
 30
0.0
 10
791.2946124153601
 20
915.5398651936944
 30
0.0
  0
ARC
  5
16F
330
1F
100
AcDbEntity
  8
0
  6
Continuous
 62
     8
370
    18
100
AcDbCircle
 10
788.3304975124
 20
915.9288014514
 30
0.0
 40
2.989523134309749
100
AcDbArc
 50
352.5246425999
 51
32.476632528
  0
LINE
  5
170
330
1F
100
AcDbEntity
  8
0
  6
Continuous
 62
     8
370
    18
100
AcDbLine
 10
797.6107245225
 20
915.6604485297
 30
0.0
 11
797.6107245225
 21
917.5492539363
 31
0.0
  0
LINE
  5
171
330
1F
100
AcDbEntity
  8
0
  6
Continuous
 62
     8
370
    18
100
AcDbLine
 10
903.6107245225
 20
915.6604485297
 30
0.0
 11
797.6107245225
 21
915.6604485297
 31
0.0
  0
ELLIPSE
  5
172
330
1F
100
AcDbEntity
  8
0
  6
Continuous
 62
     8
370
    18
100
AcDbEllipse
 10
903.6107245225
 20
913.8802488559
 30
0.0
 11
28.0
 21
0.0
 31
0.0
210
0.0
220
0.0
230
1.0
 40
0.0608401234
 41
0.0075591103181333
 42
1.34326267482132
  0
ARC
  5
173
330
1F
100
AcDbEntity
  8
0
  6
Continuous
 62
     8
370
    18
100
AcDbCircle
 10
933.6092233685
 20
913.8905796579
 30
0.0
 40
1.999300425703758
100
AcDbArc
 50
91.1268920303
 51
179.9270312827
  0
ELLIPSE
  5
174
330
1F
100
AcDbEntity
  8
0
  6
Continuous
 62
     8
370
    18
100
AcDbEllipse
 10
797.6107245225
 20
913.8802488559
 30
0.0
 11
28.0
 21
0.0
 31
0.0
210
0.0
220
0.0
230
1.0
 40
0.0608401234
 41
1.798329978768473
 42
3.134033543271658
  0
ARC
  5
175
330
1F
100
AcDbEntity
  8
0
  6
Continuous
 62
     8
370
    18
100
AcDbCircle
 10
767.6122256764
 20
913.8905796579
 30
0.0
 40
1.999300425704554
100
AcDbArc
 50
0.0729687173
 51
88.8731079807
  0
LINE
  5
176
330
1F
100
AcDbEntity
  8
0
  6
Continuous
 62
     8
370
    18
100
AcDbLine
 10
797.6107245225
 20
915.6604485297
 30
0.0
 11
797.6107245225
 21
910.9850816169
 31
0.0
  0
LINE
  5
177
330
1F
100
AcDbEntity
  8
0
  6
Continuous
 62
     8
370
    18
100
AcDbLine
 10
903.6107245225
 20
915.6604485297
 30
0.0
 11
903.6107245225
 21
910.9850816169
 31
0.0
  0
LINE
  5
178
330
1F
100
AcDbEntity
  8
0
  6
Continuous
 62
     8
370
    18
100
AcDbLine
 10
1340.6107245225
 20
934.9846816169
 30
0.0
 11
360.6107245225
 21
934.9846816169
 31
0.0
  0
LINE
  5
179
330
1F
100
AcDbEntity
  8
0
  6
Continuous
 62
     8
370
    18
100
AcDbLine
 10
769.6706969412
 20
913.6922800886
 30
0.0
 11
797.6107245225
 21
913.6922800886
 31
0.0
  0
LINE
  5
17A
330
1F
100
AcDbEntity
  8
0
  6
Continuous
 62
     8
370
    18
100
AcDbLine
 10
931.5507521037
 20
913.6922800886
 30
0.0
 11
903.6107245225
 21
913.6922800886
 31
0.0
  0
LINE
  5
17B
330
1F
100
AcDbEntity
  8
0
  6
Continuous
 62
     8
370
    18
100
AcDbLine
 10
985.2991228681
 20
840.4850816169
 30
0.0
 11
985.2991228681
 21
890.5850816169
 31
0.0
  0
LINE
  5
17C
330
1F
100
AcDbEntity
  8
0
  6
Continuous
 62
     8
370
    18
100
AcDbLine
 10
985.915674571
 20
890.5210421067
 30
0.0
 11
985.915674571
 21
840.5491211271
 31
0.0
  0
SPLINE
  5
17D
330
1F
100
AcDbEntity
  8
0
  6
Continuous
 62
     8
370
    18
100
AcDbSpline
210
0.0
220
0.0
230
1.0
 70
     8
 71
     3
 72
    33
 73
    29
 74
     0
 42
0.000000001
 43
0.00000001
 40
0.0
 40
0.0
 40
0.0
 40
0.0
 40
0.0272519121761633
 40
0.0643955705395721
 40
0.1017679836315393
 40
0.1399161503387557
 40
0.1783602451249488
 40
0.2309313350457374
 40
0.284075135045449
 40
0.3463079719325324
 40
0.3778605917353997
 40
0.4098349893637296
 40
0.4664493290388115
 40
0.5237708874937661
 40
0.5552660258970225
 40
0.5869395080180243
 40
0.6191572696364612
 40
0.6515559584292158
 40
0.6730472716079231
 40
0.7163558120329118
 40
0.7603800963832658
 40
0.8051322093176815
 40
0.8276949767825302
 40
0.8487242154456167
 40
0.8910915758444968
 40
0.9341506962041375
 40
0.9779263650739449
 40
0.9999999999999999
 40
0.9999999999999999
 40
0.9999999999999999
 40
0.9999999999999999
 10
831.1240615835824
 20
849.6183256408316
 30
0.0
 10
830.8025908097461
 20
850.0029148578764
 30
0.0
 10
830.0429636041699
 20
850.9116893282646
 30
0.0
 10
828.9598440984258
 20
852.4510796348774
 30
0.0
 10
827.8873226876469
 20
854.2503312468245
 30
0.0
 10
826.9528273174423
 20
856.1698234990524
 30
0.0
 10
826.0778967331256
 20
858.4453851270204
 30
0.0
 10
825.3645704966211
 20
861.1015849019042
 30
0.0
 10
824.9196342999448
 20
864.3039339762284
 30
0.0
 10
824.9189803996599
 20
867.1582980601559
 30
0.0
 10
825.1935900502881
 20
869.5840974087696
 30
0.0
 10
825.6320168971164
 20
871.8773252328753
 30
0.0
 10
826.4590794517729
 20
874.5969662615297
 30
0.0
 10
827.6399818522312
 20
877.1679667738061
 30
0.0
 10
828.8293974917713
 20
879.1764992153999
 30
0.0
 10
829.8842826210844
 20
880.6912677947225
 30
0.0
 10
831.05785364906
 20
882.1352815297236
 30
0.0
 10
832.1991116356181
 20
883.3438461462875
 30
0.0
 10
833.5667508805178
 20
884.6243830619521
 30
0.0
 10
835.2002427100177
 20
885.9424554067341
 30
0.0
 10
837.3305175054428
 20
887.338044090039
 30
0.0
 10
839.2363263822257
 20
888.3353805938382
 30
0.0
 10
840.803008581694
 20
889.0114261486211
 30
0.0
 10
842.3586159078303
 20
889.5951590667061
 30
0.0
 10
844.3362743255957
 20
890.182911545836
 30
0.0
 10
846.7968064659768
 20
890.6623830582743
 30
0.0
 10
848.9037168391824
 20
890.8744804099773
 30
0.0
 10
850.1821689604557
 20
890.891412322833
 30
0.0
 10
850.610724522454
 20
890.8970881438581
 30
0.0
  0
SPLINE
  5
17E
330
1F
100
AcDbEntity
  8
0
  6
Continuous
 62
     8
370
    18
100
AcDbSpline
210
0.0
220
0.0
230
1.0
 70
    24
 71
     3
 72
    21
 73
    17
 74
     0
 42
0.000000001
 43
0.00000001
 40
0.0
 40
0.0
 40
0.0
 40
0.0
 40
0.0720514219264897
 40
0.1446031256583225
 40
0.2187326761061078
 40
0.2934074331762788
 40
0.3654588516753553
 40
0.4380105213676799
 40
0.5121399203052105
 40
0.5868144764983328
 40
0.6588679246026058
 40
0.7314216095207124
 40
0.8055529476989903
 40
0.8802294033636548
 40
0.9908667802310032
 40
1.0
 40
1.0
 40
1.0
 40
1.0
 10
850.6107245224537
 20
890.8970881438581
 30
0.0
 10
850.6107245224493
 20
890.7425353018878
 30
0.0
 10
850.6107245224409
 20
890.4323564958246
 30
0.0
 10
850.6107245224563
 20
889.8616918430965
 30
0.0
 10
850.610724522456
 20
889.212713073948
 30
0.0
 10
850.6107245224613
 20
888.4898719737255
 30
0.0
 10
850.6107245224449
 20
887.705709736954
 30
0.0
 10
850.6107245224592
 20
886.8629489823147
 30
0.0
 10
850.6107245224522
 20
885.954064729326
 30
0.0
 10
850.6107245224485
 20
884.9970939341413
 30
0.0
 10
850.6107245224555
 20
884.0048031027055
 30
0.0
 10
850.6107245224513
 20
882.9803272918293
 30
0.0
 10
850.6107245224587
 20
881.9151854495676
 30
0.0
 10
850.6107245224396
 20
880.642606326671
 30
0.0
 10
850.6107245224943
 20
879.6734441694601
 30
0.0
 10
850.6107245224458
 20
879.0768710180029
 30
0.0
 10
850.6107245224422
 20
879.0313787698756
 30
0.0
  0
SPLINE
  5
17F
330
1F
100
AcDbEntity
  8
0
  6
Continuous
 62
     8
370
    18
100
AcDbSpline
210
0.0
220
0.0
230
1.0
 70
     8
 71
     3
 72
    20
 73
    16
 74
     0
 42
0.000000001
 43
0.00000001
 40
0.0
 40
0.0
 40
0.0
 40
0.0
 40
0.0031848875244884
 40
0.0996872166702685
 40
0.1961928561586088
 40
0.2929138960264297
 40
0.3894614585497548
 40
0.4531459406897287
 40
0.5167654851003723
 40
0.6214864979190167
 40
0.7268808125404137
 40
0.8182687157727474
 40
0.893962014427049
 40
0.969830422139591
 40
1.0
 40
1.0
 40
1.0
 40
1.0
 10
850.610724522457
 20
879.0313787698757
 30
0.0
 10
850.5775605268718
 20
879.0317814167522
 30
0.0
 10
849.5395249955887
 20
879.0443842939685
 30
0.0
 10
847.4909883310479
 20
878.8836466837284
 30
0.0
 10
844.5513081987519
 20
878.1481225028709
 30
0.0
 10
841.7716919916132
 20
876.9384783807823
 30
0.0
 10
839.5289852682516
 20
875.4454723529834
 30
0.0
 10
837.8471780657111
 20
873.8176085426496
 30
0.0
 10
836.3956314347115
 20
871.8753556679645
 30
0.0
 10
835.2415920674483
 20
869.207886365613
 30
0.0
 10
835.1417903030878
 20
865.9832877533966
 30
0.0
 10
836.0878102376333
 20
863.2624568370114
 30
0.0
 10
837.4396744760644
 20
861.111658198849
 30
0.0
 10
838.6751634136743
 20
859.6691386790898
 30
0.0
 10
839.4674126088646
 20
858.8998456082434
 30
0.0
 10
839.6928207364331
 20
858.680968881446
 30
0.0
  0
LINE
  5
180
330
1F
100
AcDbEntity
  8
0
  6
Continuous
 62
     8
370
    18
100
AcDbLine
 10
831.1240615836
 20
849.6183256408
 30
0.0
 11
839.6928207364
 21
858.6809688814
 31
0.0
  0
SPLINE
  5
181
330
1F
100
AcDbEntity
  8
0
  6
Continuous
 62
     8
370
    18
100
AcDbSpline
210
0.0
220
0.0
230
1.0
 70
     8
 71
     3
 72
    33
 73
    29
 74
     0
 42
0.000000001
 43
0.00000001
 40
0.0
 40
0.0
 40
0.0
 40
0.0
 40
0.0420694805196967
 40
0.0843884430381631
 40
0.1054254118363577
 40
0.1478084180885791
 40
0.1908708294596766
 40
0.2346249844283184
 40
0.2566774230954381
 40
0.2919631051304075
 40
0.3274716165362363
 40
0.3636903997735284
 40
0.4001608597630004
 40
0.4308871503519154
 40
0.4617758629698895
 40
0.4929198210567778
 40
0.5244145950467567
 40
0.5762252118466538
 40
0.6285929245268348
 40
0.6833701247922539
 40
0.7388451995033108
 40
0.7691720205739122
 40
0.8150603675630267
 40
0.8615324906874954
 40
0.8956623911437317
 40
0.9301881902968956
 40
0.9649049432978533
 40
0.9999999999999999
 40
0.9999999999999999
 40
0.9999999999999999
 40
0.9999999999999999
 10
850.6107245224573
 20
890.8970881438581
 30
0.0
 10
851.4277540869367
 20
890.8763304072286
 30
0.0
 10
853.06665839502
 20
890.8346918356668
 30
0.0
 10
855.0945952296078
 20
890.5378743770303
 30
0.0
 10
857.0984201140076
 20
890.1121451568874
 30
0.0
 10
859.0814770742626
 20
889.5393733506228
 30
0.0
 10
861.4065652828884
 20
888.6221280911068
 30
0.0
 10
863.279842925205
 20
887.6653896773078
 30
0.0
 10
864.9460510599367
 20
886.6556177533934
 30
0.0
 10
866.4139318905322
 20
885.6328230449578
 30
0.0
 10
868.0063687386952
 20
884.3212530892
 30
0.0
 10
869.5045596067185
 20
882.8672062560396
 30
0.0
 10
870.8176692673965
 20
881.3612497169353
 30
0.0
 10
871.949438138746
 20
879.8390280129317
 30
0.0
 10
872.9152895918058
 20
878.3245326112369
 30
0.0
 10
873.7767257864748
 20
876.7287091250877
 30
0.0
 10
874.6854056617806
 20
874.7018354075635
 30
0.0
 10
875.5234646230008
 20
872.1970702475743
 30
0.0
 10
876.1322203494403
 20
869.162281713384
 30
0.0
 10
876.3505942683369
 20
866.0083113372242
 30
0.0
 10
876.1784786189276
 20
863.2934795404223
 30
0.0
 10
875.7637824549028
 20
860.8023691601766
 30
0.0
 10
875.1742687701175
 20
858.5371159543722
 30
0.0
 10
874.3289729592026
 20
856.3008819836888
 30
0.0
 10
873.387688284943
 20
854.3608978217318
 30
0.0
 10
872.4174076616148
 20
852.7005129252871
 30
0.0
 10
871.3289839201692
 20
851.104741907637
 30
0.0
 10
870.5094000305548
 20
850.1155844471809
 30
0.0
 10
870.0973874613275
 20
849.6183256408316
 30
0.0
  0
LINE
  5
182
330
1F
100
AcDbEntity
  8
0
  6
Continuous
 62
     8
370
    18
100
AcDbLine
 10
870.0973874613
 20
849.6183256408
 30
0.0
 11
861.5286283085
 21
858.6809688814
 31
0.0
  0
SPLINE
  5
183
330
1F
100
AcDbEntity
  8
0
  6
Continuous
 62
     8
370
    18
100
AcDbSpline
210
0.0
220
0.0
230
1.0
 70
     8
 71
     3
 72
    19
 73
    15
 74
     0
 42
0.000000001
 43
0.00000001
 40
0.0
 40
0.0
 40
0.0
 40
0.0
 40
0.0723119353046659
 40
0.1445206361806467
 40
0.2538055534572532
 40
0.3457400466261744
 40
0.4376020288244567
 40
0.557618731195364
 40
0.6329165099067149
 40
0.7083141187347103
 40
0.8053610917388583
 40
0.9023999691423429
 40
0.9968144251432691
 40
1.0
 40
1.0
 40
1.0
 40
1.0
 10
861.5286283084764
 20
858.680968881446
 30
0.0
 10
862.0612494029953
 20
859.2145421421188
 30
0.0
 10
863.1257312080916
 20
860.280926920185
 30
0.0
 10
864.6885431324952
 20
862.421829476151
 30
0.0
 10
865.8898560497769
 20
865.058767323316
 30
0.0
 10
866.1095835141433
 20
868.167209831224
 30
0.0
 10
865.2300249873553
 20
871.2596047793983
 30
0.0
 10
863.5100037950932
 20
873.7775969892042
 30
0.0
 10
861.3933116519453
 20
875.6563004629685
 30
0.0
 10
859.2068093753396
 20
877.0426248769442
 30
0.0
 10
856.6197792786338
 20
878.1632721949672
 30
0.0
 10
853.6920983626467
 20
878.8925211378707
 30
0.0
 10
851.659968927561
 20
879.044095183543
 30
0.0
 10
850.6438884506963
 20
879.0317807031415
 30
0.0
 10
850.610724522457
 20
879.0313787698757
 30
0.0
  0
SPLINE
  5
184
330
1F
100
AcDbEntity
  8
0
  6
Continuous
 62
     8
370
    18
100
AcDbSpline
210
0.0
220
0.0
230
1.0
 70
     8
 71
     3
 72
     9
 73
     5
 74
     0
 42
0.000000001
 43
0.00000001
 40
0.0
 40
0.0
 40
0.0
 40
0.0
 40
0.5770474436019433
 40
1.0
 40
1.0
 40
1.0
 40
1.0
 10
837.2571935611603
 20
844.3910798506885
 30
0.0
 10
835.9971431679821
 20
845.2458760153482
 30
0.0
 10
833.8135265396635
 20
846.7272033726346
 30
0.0
 10
831.9234670686092
 20
848.7589803670238
 30
0.0
 10
831.1240615835824
 20
849.6183256408316
 30
0.0
  0
SPLINE
  5
185
330
1F
100
AcDbEntity
  8
0
  6
Continuous
 62
     8
370
    18
100
AcDbSpline
210
0.0
220
0.0
230
1.0
 70
     8
 71
     3
 72
    10
 73
     6
 74
     0
 42
0.000000001
 43
0.00000001
 40
0.0
 40
0.0
 40
0.0
 40
0.0
 40
0.2479681796226277
 40
0.4972688069878468
 40
1.0
 40
1.0
 40
1.0
 40
1.0
 10
839.6928207364331
 20
858.680968881446
 30
0.0
 10
840.0375208842099
 20
858.3744743114838
 30
0.0
 10
840.7287734131208
 20
857.7598382344461
 30
0.0
 10
842.2257802719374
 20
856.6537680163428
 30
0.0
 10
843.4013227870469
 20
855.8963169480631
 30
0.0
 10
844.1871697087381
 20
855.3899630028092
 30
0.0
  0
LINE
  5
186
330
1F
100
AcDbEntity
  8
0
  6
Continuous
 62
     8
370
    18
100
AcDbLine
 10
844.1871697087
 20
855.3899630028
 30
0.0
 11
837.2571935612
 21
844.3910798507
 31
0.0
  0
ARC
  5
187
330
1F
100
AcDbEntity
  8
0
  6
Continuous
 62
     8
370
    18
100
AcDbCircle
 10
850.6107245225
 20
865.5850816169
 30
0.0
 40
12.05000000000018
100
AcDbArc
 50
237.7865374201
 51
302.2134625799
  0
LINE
  5
188
330
1F
100
AcDbEntity
  8
0
  6
Continuous
 62
     8
370
    18
100
AcDbLine
 10
857.0342793362
 20
855.3899630028
 30
0.0
 11
863.9642554837
 21
844.3910798507
 31
0.0
  0
SPLINE
  5
189
330
1F
100
AcDbEntity
  8
0
  6
Continuous
 62
     8
370
    18
100
AcDbSpline
210
0.0
220
0.0
230
1.0
 70
     8
 71
     3
 72
    10
 73
     6
 74
     0
 42
0.000000001
 43
0.00000001
 40
0.0
 40
0.0
 40
0.0
 40
0.0
 40
0.3514670345888331
 40
0.7035972473579524
 40
1.0
 40
1.0
 40
1.0
 40
1.0
 10
857.0342793361715
 20
855.3899630028092
 30
0.0
 10
857.5841669413654
 20
855.7427980146794
 30
0.0
 10
858.684979726904
 20
856.4491337978168
 30
0.0
 10
860.2079538629312
 20
857.5207691018377
 30
0.0
 10
861.1143656940733
 20
858.3170431648915
 30
0.0
 10
861.5286283084764
 20
858.680968881446
 30
0.0
  0
SPLINE
  5
18A
330
1F
100
AcDbEntity
  8
0
  6
Continuous
 62
     8
370
    18
100
AcDbSpline
210
0.0
220
0.0
230
1.0
 70
     8
 71
     3
 72
     9
 73
     5
 74
     0
 42
0.000000001
 43
0.00000001
 40
0.0
 40
0.0
 40
0.0
 40
0.0
 40
0.3490261811818368
 40
1.0
 40
1.0
 40
1.0
 40
1.0
 10
870.0973874613275
 20
849.6183256408316
 30
0.0
 10
869.441801503309
 20
848.9041828139068
 30
0.0
 10
867.5634726174969
 20
846.8580817893173
 30
0.0
 10
865.3834155549789
 20
845.363811007728
 30
0.0
 10
863.96425548375
 20
844.3910798506885
 30
0.0
  0
SPLINE
  5
18B
330
1F
100
AcDbEntity
  8
0
  6
Continuous
 62
     8
370
    18
100
AcDbSpline
210
0.0
220
0.0
230
1.0
 70
     8
 71
     3
 72
    18
 73
    14
 74
     0
 42
0.000000001
 43
0.00000001
 40
0.0
 40
0.0
 40
0.0
 40
0.0
 40
0.0987970799383286
 40
0.2002031521159853
 40
0.3040525078882603
 40
0.4120845877792452
 40
0.5047740734780934
 40
0.600537786803454
 40
0.6921670882566421
 40
0.7863356247216277
 40
0.8914320327008245
 40
0.9999986785287139
 40
0.9999999999999999
 40
0.9999999999999999
 40
0.9999999999999999
 40
0.9999999999999999
 10
829.1188111438498
 20
848.8616356290308
 30
0.0
 10
828.2309697526704
 20
849.9499146293791
 30
0.0
 10
826.4318412237287
 20
852.1552114497647
 30
0.0
 10
824.4027472330431
 20
856.0818688746533
 30
0.0
 10
822.9886342802772
 20
860.4883214471347
 30
0.0
 10
822.4376843939885
 20
865.0422036293924
 30
0.0
 10
822.6990341230122
 20
869.5300329768687
 30
0.0
 10
823.6525808965782
 20
873.6832710125005
 30
0.0
 10
825.2649305399473
 20
877.6422531196499
 30
0.0
 10
827.5564307688367
 20
881.4051467561584
 30
0.0
 10
830.6078624616835
 20
884.9107386037791
 30
0.0
 10
833.1220562372871
 20
886.9254773568196
 30
0.0
 10
834.4785642049817
 20
887.8225101153417
 30
0.0
 10
834.4785807161716
 20
887.8225210338755
 30
0.0
  0
SPLINE
  5
18C
330
1F
100
AcDbEntity
  8
0
  6
Continuous
 62
     8
370
    18
100
AcDbSpline
210
0.0
220
0.0
230
1.0
 70
     8
 71
     3
 72
    13
 73
     9
 74
     0
 42
0.000000001
 43
0.00000001
 40
0.0
 40
0.0
 40
0.0
 40
0.0
 40
0.0000034881331163
 40
0.2481902506141583
 40
0.5024205295387568
 40
0.7482140500399477
 40
0.9999965118668843
 40
1.0
 40
1.0
 40
1.0
 40
1.0
 10
834.4785807161716
 20
887.8225210338755
 30
0.0
 10
834.4785970072343
 20
887.8225322655084
 30
0.0
 10
835.637750851714
 20
888.6216937855279
 30
0.0
 10
838.1157032954659
 20
890.0633494161041
 30
0.0
 10
842.1017960534384
 20
891.6224319476153
 30
0.0
 10
846.3095838046993
 20
892.569400638943
 30
0.0
 10
849.1672273664999
 20
892.7732673307269
 30
0.0
 10
850.6107045251496
 20
892.7667730162746
 30
0.0
 10
850.6107245224548
 20
892.7667729263052
 30
0.0
  0
ARC
  5
18D
330
1F
100
AcDbEntity
  8
0
  6
Continuous
 62
     8
370
    18
100
AcDbCircle
 10
831.2547354208
 20
846.2367053211
 30
0.0
 40
3.384144151528801
100
AcDbArc
 50
92.2129439008
 51
129.1354920666
  0
SPLINE
  5
18E
330
1F
100
AcDbEntity
  8
0
  6
Continuous
 62
     8
370
    18
100
AcDbSpline
210
0.0
220
0.0
230
1.0
 70
     8
 71
     3
 72
    13
 73
     9
 74
     0
 42
0.000000001
 43
0.00000001
 40
0.0
 40
0.0
 40
0.0
 40
0.0
 40
0.000003488132369
 40
0.2457799679353324
 40
0.4975795644761239
 40
0.7457645563596907
 40
0.9999965118676329
 40
1.0
 40
1.0
 40
1.0
 40
1.0
 10
850.6107245224548
 20
892.7667729263052
 30
0.0
 10
850.61074451976
 20
892.7667730162746
 30
0.0
 10
852.0197899649639
 20
892.7731124198376
 30
0.0
 10
854.8770254912441
 20
892.5745141220851
 30
0.0
 10
859.0539900163749
 20
891.6424449528458
 30
0.0
 10
863.0740003729713
 20
890.0786050443455
 30
0.0
 10
865.5554643212415
 20
888.641159211985
 30
0.0
 10
866.7428520376753
 20
887.822532265508
 30
0.0
 10
866.7428683287378
 20
887.8225210338753
 30
0.0
  0
SPLINE
  5
18F
330
1F
100
AcDbEntity
  8
0
  6
Continuous
 62
     8
370
    18
100
AcDbSpline
210
0.0
220
0.0
230
1.0
 70
     8
 71
     3
 72
    19
 73
    15
 74
     0
 42
0.000000001
 43
0.00000001
 40
0.0
 40
0.0
 40
0.0
 40
0.0
 40
0.0000013213841023
 40
0.0176852170218708
 40
0.1143733902378679
 40
0.2137145610419426
 40
0.3053523452007533
 40
0.3995000333270483
 40
0.4922123793434067
 40
0.587940342833589
 40
0.6917200092822501
 40
0.7998090016712737
 40
0.8985189583178738
 40
0.9999999999999999
 40
0.9999999999999999
 40
0.9999999999999999
 40
0.9999999999999999
 10
866.7428683287378
 20
887.8225210338753
 30
0.0
 10
866.7428848399279
 20
887.8225101153413
 30
0.0
 10
866.9638682614772
 20
887.6763780070411
 30
0.0
 10
868.3788686547747
 20
886.7101347252612
 30
0.0
 10
870.8505543261858
 20
884.6484808023346
 30
0.0
 10
873.685456799967
 20
881.359552420799
 30
0.0
 10
875.9388964980021
 20
877.6772188800571
 30
0.0
 10
877.5427731844906
 20
873.7631905734925
 30
0.0
 10
878.5156250975452
 20
869.5771243732328
 30
0.0
 10
878.7853143900833
 20
865.1515833392917
 30
0.0
 10
878.2468363668605
 20
860.5523386560869
 30
0.0
 10
876.8590195803266
 20
856.1741831972574
 30
0.0
 10
874.8107717641172
 20
852.1885770496074
 30
0.0
 10
873.0136412722304
 20
849.9808029239628
 30
0.0
 10
872.1026379010603
 20
848.861635629031
 30
0.0
  0
ARC
  5
190
330
1F
100
AcDbEntity
  8
0
  6
Continuous
 62
     8
370
    18
100
AcDbCircle
 10
869.9667136241
 20
846.2367053211
 30
0.0
 40
3.384144151530625
100
AcDbArc
 50
50.8645079334
 51
87.7870560992
  0
SPLINE
  5
191
330
1F
100
AcDbEntity
  8
0
  6
Continuous
 62
     8
370
    18
100
AcDbSpline
210
0.0
220
0.0
230
1.0
 70
     8
 71
     3
 72
    14
 73
    10
 74
     0
 42
0.000000001
 43
0.00000001
 40
0.0
 40
0.0
 40
0.0
 40
0.0
 40
0.0588507131428013
 40
0.1865507860318815
 40
0.3150706499745779
 40
0.5205160403891113
 40
0.7296050309949514
 40
0.9289213534635694
 40
1.0
 40
1.0
 40
1.0
 40
1.0
 10
815.0700344133129
 20
887.7443004184796
 30
0.0
 10
815.0697068837968
 20
887.022432260906
 30
0.0
 10
815.0686686484827
 20
884.7341834867585
 30
0.0
 10
815.0654979252979
 20
880.8080613004686
 30
0.0
 10
815.0640272350373
 20
875.0045887680635
 30
0.0
 10
815.0717974863264
 20
868.1352036496759
 30
0.0
 10
815.0729343758943
 20
860.4568816741788
 30
0.0
 10
815.0713951914382
 20
854.6241787390171
 30
0.0
 10
815.0713434250089
 20
851.4728368647479
 30
0.0
 10
815.0713298171827
 20
850.6444445465742
 30
0.0
  0
ARC
  5
192
330
1F
100
AcDbEntity
  8
0
  6
Continuous
 62
     8
370
    18
100
AcDbCircle
 10
813.8828006863
 20
854.7262793309
 30
0.0
 40
4.251349985717551
100
AcDbArc
 50
269.1903220348
 51
286.2342508995
  0
SPLINE
  5
193
330
1F
100
AcDbEntity
  8
0
  6
Continuous
 62
     8
370
    18
100
AcDbSpline
210
0.0
220
0.0
230
1.0
 70
     8
 71
     3
 72
    14
 73
    10
 74
     0
 42
0.000000001
 43
0.00000001
 40
0.0
 40
0.0
 40
0.0
 40
0.0
 40
0.2078011624980565
 40
0.4196948388477429
 40
0.5443918098789499
 40
0.6699512654772783
 40
0.7982264655367445
 40
0.927442255833656
 40
1.0
 40
1.0
 40
1.0
 40
1.0
 10
813.718398020254
 20
887.892914045523
 30
0.0
 10
813.6882139630783
 20
885.3055188522541
 30
0.0
 10
813.6272513926101
 20
880.0797713365992
 30
0.0
 10
813.6389211514191
 20
873.1166279265126
 30
0.0
 10
813.6948965727004
 20
867.2404333336327
 30
0.0
 10
813.7494950960264
 20
862.4649806667228
 30
0.0
 10
813.8000093393622
 20
857.7120915045127
 30
0.0
 10
813.8274651290405
 20
853.7049336553733
 30
0.0
 10
813.8239783734278
 20
851.3295438051514
 30
0.0
 10
813.8227245364349
 20
850.4753538366492
 30
0.0
  0
ARC
  5
194
330
1F
100
AcDbEntity
  8
0
  6
Continuous
 62
     8
370
    18
100
AcDbCircle
 10
813.7187008569
 20
881.6748156922
 30
0.0
 40
6.218098360745264
100
AcDbArc
 50
77.4481726938
 51
90.0027904447
  0
SPLINE
  5
195
330
1F
100
AcDbEntity
  8
0
  6
Continuous
 62
     8
370
    18
100
AcDbSpline
210
0.0
220
0.0
230
1.0
 70
     8
 71
     3
 72
    14
 73
    10
 74
     0
 42
0.000000001
 43
0.00000001
 40
0.0
 40
0.0
 40
0.0
 40
0.0
 40
0.0706469358108942
 40
0.269149602258382
 40
0.4748299235320667
 40
0.6841240356853506
 40
0.8123563766451413
 40
0.9412272031615688
 40
1.0
 40
1.0
 40
1.0
 40
1.0
 10
816.9613317059925
 20
850.9142375983416
 30
0.0
 10
816.9598553523731
 20
851.7266364684193
 30
0.0
 10
816.9542307632121
 20
854.8217011056439
 30
0.0
 10
817.03305806178
 20
860.545050380614
 30
0.0
 10
817.1587730835395
 20
868.1342444733771
 30
0.0
 10
817.2199189981353
 20
874.9155888892177
 30
0.0
 10
817.1976793062611
 20
880.704559795158
 30
0.0
 10
817.1519438969374
 20
884.5979284138093
 30
0.0
 10
817.116548368784
 20
886.8778085357814
 30
0.0
 10
817.1054619585561
 20
887.5919011802791
 30
0.0
  0
ARC
  5
196
330
1F
100
AcDbEntity
  8
0
  6
Continuous
 62
     8
370
    18
100
AcDbCircle
 10
816.9002520442
 20
844.5871397433
 30
0.0
 40
6.327392669386207
100
AcDbArc
 50
89.4469031132
 51
106.8009889676
  0
ARC
  5
197
330
1F
100
AcDbEntity
  8
0
  6
Continuous
 62
     8
370
    18
100
AcDbCircle
 10
816.8439506026
 20
897.7678575095
 30
0.0
 40
10.17931605778244
100
AcDbArc
 50
259.964010462
 51
271.4721171423
  0
SPLINE
  5
198
330
1F
100
AcDbEntity
  8
0
  6
Continuous
 62
     8
370
    18
100
AcDbSpline
210
0.0
220
0.0
230
1.0
 70
     8
 71
     3
 72
    14
 73
    10
 74
     0
 42
0.000000001
 43
0.00000001
 40
0.0
 40
0.0
 40
0.0
 40
0.0
 40
0.2078011624980603
 40
0.4196948388477505
 40
0.5443918098789597
 40
0.6699512654772896
 40
0.7982264655367504
 40
0.9274422558336542
 40
1.0
 40
1.0
 40
1.0
 40
1.0
 10
887.5030510246556
 20
887.8929140455225
 30
0.0
 10
887.5332350818312
 20
885.3055188522534
 30
0.0
 10
887.5941976522987
 20
880.0797713365986
 30
0.0
 10
887.5825278934894
 20
873.1166279265119
 30
0.0
 10
887.5265524722092
 20
867.2404333336322
 30
0.0
 10
887.4719539488821
 20
862.4649806667225
 30
0.0
 10
887.4214397055482
 20
857.7120915045125
 30
0.0
 10
887.3939839158695
 20
853.7049336553731
 30
0.0
 10
887.3974706714822
 20
851.3295438051514
 30
0.0
 10
887.3987245084752
 20
850.4753538366492
 30
0.0
  0
ARC
  5
199
330
1F
100
AcDbEntity
  8
0
  6
Continuous
 62
     8
370
    18
100
AcDbCircle
 10
887.3386483586
 20
854.7262793309
 30
0.0
 40
4.251349985719592
100
AcDbArc
 50
253.7657491005
 51
270.8096779652
  0
SPLINE
  5
19A
330
1F
100
AcDbEntity
  8
0
  6
Continuous
 62
     8
370
    18
100
AcDbSpline
210
0.0
220
0.0
230
1.0
 70
     8
 71
     3
 72
    14
 73
    10
 74
     0
 42
0.000000001
 43
0.00000001
 40
0.0
 40
0.0
 40
0.0
 40
0.0
 40
0.0588507131428023
 40
0.1865507860318847
 40
0.3150706499745833
 40
0.5205160403891199
 40
0.7296050309949642
 40
0.9289213534635679
 40
1.0
 40
1.0
 40
1.0
 40
1.0
 10
886.1514146315967
 20
887.744300418479
 30
0.0
 10
886.1517421611127
 20
887.0224322609055
 30
0.0
 10
886.1527803964269
 20
884.734183486758
 30
0.0
 10
886.1559511196108
 20
880.808061300468
 30
0.0
 10
886.1574218098718
 20
875.0045887680628
 30
0.0
 10
886.149651558582
 20
868.1352036496752
 30
0.0
 10
886.1485146690162
 20
860.4568816741784
 30
0.0
 10
886.150053853472
 20
854.624178739017
 30
0.0
 10
886.1501056199013
 20
851.4728368647479
 30
0.0
 10
886.1501192277274
 20
850.6444445465742
 30
0.0
  0
ARC
  5
19B
330
1F
100
AcDbEntity
  8
0
  6
Continuous
 62
     8
370
    18
100
AcDbCircle
 10
887.502748188
 20
881.6748156921
 30
0.0
 40
6.218098360756645
100
AcDbArc
 50
89.9972095553
 51
102.5518273062
  0
ARC
  5
19C
330
1F
100
AcDbEntity
  8
0
  6
Continuous
 62
     8
370
    18
100
AcDbCircle
 10
884.3211970007
 20
844.5871397433
 30
0.0
 40
6.327392669384726
100
AcDbArc
 50
73.1990110324
 51
90.5530968868
  0
SPLINE
  5
19D
330
1F
100
AcDbEntity
  8
0
  6
Continuous
 62
     8
370
    18
100
AcDbSpline
210
0.0
220
0.0
230
1.0
 70
     8
 71
     3
 72
    14
 73
    10
 74
     0
 42
0.000000001
 43
0.00000001
 40
0.0
 40
0.0
 40
0.0
 40
0.0
 40
0.0706469358108948
 40
0.269149602258369
 40
0.4748299235320582
 40
0.6841240356853453
 40
0.8123563766451382
 40
0.9412272031615683
 40
1.0
 40
1.0
 40
1.0
 40
1.0
 10
884.2601173389177
 20
850.9142375983416
 30
0.0
 10
884.261593692537
 20
851.7266364684193
 30
0.0
 10
884.2672182816981
 20
854.8217011056437
 30
0.0
 10
884.1883909831304
 20
860.5450503806136
 30
0.0
 10
884.06267596137
 20
868.1342444733765
 30
0.0
 10
884.0015300467742
 20
874.9155888892171
 30
0.0
 10
884.0237697386489
 20
880.7045597951574
 30
0.0
 10
884.0695051479718
 20
884.5979284138087
 30
0.0
 10
884.1049006761259
 20
886.8778085357807
 30
0.0
 10
884.1159870863539
 20
887.5919011802783
 30
0.0
  0
ARC
  5
19E
330
1F
100
AcDbEntity
  8
0
  6
Continuous
 62
     8
370
    18
100
AcDbCircle
 10
884.3774984423
 20
897.7678575095
 30
0.0
 40
10.17931605778716
100
AcDbArc
 50
268.5278828577
 51
280.035989538
  0
SPLINE
  5
19F
330
1F
100
AcDbEntity
  8
0
  6
Continuous
 62
     8
370
    18
100
AcDbSpline
210
0.0
220
0.0
230
1.0
 70
     8
 71
     3
 72
    14
 73
    10
 74
     0
 42
0.000000001
 43
0.00000001
 40
0.0
 40
0.0
 40
0.0
 40
0.0
 40
0.1272473860604718
 40
0.2554745767697396
 40
0.3810919869018191
 40
0.5075916090131556
 40
0.7089607368256291
 40
0.9137762176246998
 40
1.0
 40
1.0
 40
1.0
 40
1.0
 10
806.1371237105425
 20
850.6764254633581
 30
0.0
 10
806.1356786725634
 20
852.1663348272889
 30
0.0
 10
806.1327774698152
 20
855.1576258546313
 30
0.0
 10
806.1364791043128
 20
859.7963884659232
 30
0.0
 10
806.1421329060263
 20
864.5079644594023
 30
0.0
 10
806.1506815909571
 20
870.1995947853904
 30
0.0
 10
806.1591910777373
 20
876.9316619126862
 30
0.0
 10
806.1525613016955
 20
883.1144648388857
 30
0.0
 10
806.1476201014952
 20
886.683741752108
 30
0.0
 10
806.1461562132004
 20
887.7411817430086
 30
0.0
  0
ARC
  5
1A0
330
1F
100
AcDbEntity
  8
0
  6
Continuous
 62
     8
370
    18
100
AcDbCircle
 10
807.49843465
 20
881.7960966889
 30
0.0
 40
6.0969413046047
100
AcDbArc
 50
89.6346559708
 51
102.8145546266
  0
SPLINE
  5
1A1
330
1F
100
AcDbEntity
  8
0
  6
Continuous
 62
     8
370
    18
100
AcDbSpline
210
0.0
220
0.0
230
1.0
 70
     8
 71
     3
 72
    14
 73
    10
 74
     0
 42
0.000000001
 43
0.00000001
 40
0.0
 40
0.0
 40
0.0
 40
0.0
 40
0.12969690086605
 40
0.2603671951156624
 40
0.3853421446376495
 40
0.5111847557259611
 40
0.6397642884787726
 40
0.7692911603858882
 40
1.0
 40
1.0
 40
1.0
 40
1.0
 10
807.479722043016
 20
850.47535383665
 30
0.0
 10
807.4786155424842
 20
852.0094048205978
 30
0.0
 10
807.4763942369797
 20
855.0890200557174
 30
0.0
 10
807.5017570438974
 20
859.8248834470859
 30
0.0
 10
807.5325311712378
 20
864.5962225185106
 30
0.0
 10
807.5628490228793
 20
869.4053692059683
 30
0.0
 10
807.5849053951877
 20
874.296749460867
 30
0.0
 10
807.5861702484523
 20
880.5257758728842
 30
0.0
 10
807.556386150547
 20
885.0167323533135
 30
0.0
 10
807.5373112658344
 20
887.892914045523
 30
0.0
  0
ARC
  5
1A2
330
1F
100
AcDbEntity
  8
0
  6
Continuous
 62
     8
370
    18
100
AcDbCircle
 10
807.4088043949
 20
854.5847656822
 30
0.0
 40
4.110023726143112
100
AcDbArc
 50
251.9763477959
 51
270.9886764295
  0
ARC
  5
1A3
330
1F
100
AcDbEntity
  8
0
  6
Continuous
 62
     8
370
    18
100
AcDbCircle
 10
804.2260200115
 20
844.9052222996
 30
0.0
 40
6.07939991326295
100
AcDbArc
 50
71.6779814803
 51
90.2649234322
  0
SPLINE
  5
1A4
330
1F
100
AcDbEntity
  8
0
  6
Continuous
 62
     8
370
    18
100
AcDbSpline
210
0.0
220
0.0
230
1.0
 70
     8
 71
     3
 72
    15
 73
    11
 74
     0
 42
0.000000001
 43
0.00000001
 40
0.0
 40
0.0
 40
0.0
 40
0.0
 40
0.1214527241786875
 40
0.2436356162157024
 40
0.3679634748124441
 40
0.492999645184968
 40
0.618586543380512
 40
0.7450337263104021
 40
0.8719902588119044
 40
1.0
 40
1.0
 40
1.0
 40
1.0
 10
804.0966331372617
 20
887.5480433504722
 30
0.0
 10
804.0794214755794
 20
886.0746565955313
 30
0.0
 10
804.0448946765433
 20
883.1190251562897
 30
0.0
 10
804.0130159278666
 20
878.5740711620548
 30
0.0
 10
804.0156176704149
 20
873.9603399542639
 30
0.0
 10
804.0481874722788
 20
869.2962319750666
 30
0.0
 10
804.0969682504966
 20
864.6272123257445
 30
0.0
 10
804.1495810902677
 20
859.9921877765133
 30
0.0
 10
804.1931860450655
 20
855.4066813262052
 30
0.0
 10
804.1963311954107
 20
852.4626523013851
 30
0.0
 10
804.1979102665399
 20
850.9845572260488
 30
0.0
  0
ARC
  5
1A5
330
1F
100
AcDbEntity
  8
0
  6
Continuous
 62
     8
370
    18
100
AcDbCircle
 10
804.237892266
 20
897.0200585762
 30
0.0
 40
9.47306848801948
100
AcDbArc
 50
269.1455934393
 51
281.6212347178
  0
SPLINE
  5
1A6
330
1F
100
AcDbEntity
  8
0
  6
Continuous
 62
     8
370
    18
100
AcDbSpline
210
0.0
220
0.0
230
1.0
 70
     8
 71
     3
 72
    15
 73
    11
 74
     0
 42
0.000000001
 43
0.00000001
 40
0.0
 40
0.0
 40
0.0
 40
0.0
 40
0.1214527241786882
 40
0.2436356162157035
 40
0.3679634748124448
 40
0.4929996451849683
 40
0.6185865433805127
 40
0.745033726310402
 40
0.8719902588119042
 40
1.0
 40
1.0
 40
1.0
 40
1.0
 10
897.1248159076478
 20
887.5480433504716
 30
0.0
 10
897.1420275693304
 20
886.0746565955308
 30
0.0
 10
897.1765543683664
 20
883.1190251562891
 30
0.0
 10
897.208433117043
 20
878.5740711620542
 30
0.0
 10
897.2058313744944
 20
873.9603399542634
 30
0.0
 10
897.173261572631
 20
869.296231975066
 30
0.0
 10
897.1244807944128
 20
864.6272123257439
 30
0.0
 10
897.0718679546427
 20
859.9921877765127
 30
0.0
 10
897.0282629998445
 20
855.4066813262045
 30
0.0
 10
897.0251178494993
 20
852.4626523013845
 30
0.0
 10
897.0235387783703
 20
850.9845572260481
 30
0.0
  0
ARC
  5
1A7
330
1F
100
AcDbEntity
  8
0
  6
Continuous
 62
     8
370
    18
100
AcDbCircle
 10
896.9954290334
 20
844.9052222996
 30
0.0
 40
6.079399913264468
100
AcDbArc
 50
89.7350765678
 51
108.3220185197
  0
SPLINE
  5
1A8
330
1F
100
AcDbEntity
  8
0
  6
Continuous
 62
     8
370
    18
100
AcDbSpline
210
0.0
220
0.0
230
1.0
 70
     8
 71
     3
 72
    14
 73
    10
 74
     0
 42
0.000000001
 43
0.00000001
 40
0.0
 40
0.0
 40
0.0
 40
0.0
 40
0.1272473860604718
 40
0.2554745767697393
 40
0.3810919869018191
 40
0.5075916090131555
 40
0.7089607368256288
 40
0.9137762176247
 40
1.0
 40
1.0
 40
1.0
 40
1.0
 10
895.0843253343678
 20
850.6764254633575
 30
0.0
 10
895.0857703723469
 20
852.1663348272881
 30
0.0
 10
895.088671575095
 20
855.1576258546306
 30
0.0
 10
895.0849699405978
 20
859.7963884659226
 30
0.0
 10
895.0793161388823
 20
864.5079644594017
 30
0.0
 10
895.070767453952
 20
870.1995947853898
 30
0.0
 10
895.0622579671716
 20
876.9316619126856
 30
0.0
 10
895.0688877432141
 20
883.1144648388852
 30
0.0
 10
895.0738289434144
 20
886.6837417521073
 30
0.0
 10
895.0752928317092
 20
887.741181743008
 30
0.0
  0
ARC
  5
1A9
330
1F
100
AcDbEntity
  8
0
  6
Continuous
 62
     8
370
    18
100
AcDbCircle
 10
896.983556779
 20
897.0200585763
 30
0.0
 40
9.47306848803253
100
AcDbArc
 50
258.3787652822
 51
270.8544065606
  0
SPLINE
  5
1AA
330
1F
100
AcDbEntity
  8
0
  6
Continuous
 62
     8
370
    18
100
AcDbSpline
210
0.0
220
0.0
230
1.0
 70
     8
 71
     3
 72
    14
 73
    10
 74
     0
 42
0.000000001
 43
0.00000001
 40
0.0
 40
0.0
 40
0.0
 40
0.0
 40
0.1296969008660503
 40
0.2603671951156624
 40
0.3853421446376501
 40
0.5111847557259613
 40
0.6397642884787726
 40
0.7692911603858882
 40
1.0
 40
1.0
 40
1.0
 40
1.0
 10
893.7417270018942
 20
850.4753538366492
 30
0.0
 10
893.7428335024259
 20
852.009404820597
 30
0.0
 10
893.7450548079305
 20
855.0890200557168
 30
0.0
 10
893.7196920010131
 20
859.8248834470853
 30
0.0
 10
893.6889178736709
 20
864.59622251851
 30
0.0
 10
893.6586000220298
 20
869.4053692059676
 30
0.0
 10
893.6365436497214
 20
874.2967494608664
 30
0.0
 10
893.6352787964566
 20
880.5257758728836
 30
0.0
 10
893.6650628943621
 20
885.016732353313
 30
0.0
 10
893.6841377790751
 20
887.8929140455225
 30
0.0
  0
ARC
  5
1AB
330
1F
100
AcDbEntity
  8
0
  6
Continuous
 62
     8
370
    18
100
AcDbCircle
 10
893.7230143949
 20
881.7960966888
 30
0.0
 40
6.096941304635787
100
AcDbArc
 50
77.1854453734
 51
90.3653440292
  0
ARC
  5
1AC
330
1F
100
AcDbEntity
  8
0
  6
Continuous
 62
     8
370
    18
100
AcDbCircle
 10
893.81264465
 20
854.5847656822
 30
0.0
 40
4.110023726150585
100
AcDbArc
 50
269.0113235705
 51
288.0236522041
  0
LINE
  5
1AD
330
1F
100
AcDbEntity
  8
0
  6
Continuous
 62
     8
370
    18
100
AcDbLine
 10
813.8227245364
 20
850.4753538366
 30
0.0
 11
807.479722043
 21
850.4753538367
 31
0.0
  0
LINE
  5
1AE
330
1F
100
AcDbEntity
  8
0
  6
Continuous
 62
     8
370
    18
100
AcDbLine
 10
813.7183980203
 20
887.8929140455
 30
0.0
 11
807.5373112658
 21
887.8929140455
 31
0.0
  0
LINE
  5
1AF
330
1F
100
AcDbEntity
  8
0
  6
Continuous
 62
     8
370
    18
100
AcDbLine
 10
887.3987245085
 20
850.4753538366
 30
0.0
 11
893.7417270019
 21
850.4753538366
 31
0.0
  0
LINE
  5
1B0
330
1F
100
AcDbEntity
  8
0
  6
Continuous
 62
     8
370
    18
100
AcDbLine
 10
887.5030510247
 20
887.8929140455
 30
0.0
 11
893.6841377791
 21
887.8929140455
 31
0.0
  0
LINE
  5
1B1
330
1F
100
AcDbEntity
  8
0
  6
Continuous
 62
     8
370
    18
100
AcDbLine
 10
816.8789121142
 20
848.8568315682
 30
0.0
 11
816.961331706
 21
850.9142375983
 31
0.0
  0
SPLINE
  5
1B2
330
1F
100
AcDbEntity
  8
0
  6
Continuous
 62
     8
370
    18
100
AcDbSpline
210
0.0
220
0.0
230
1.0
 70
     8
 71
     3
 72
     9
 73
     5
 74
     0
 42
0.000000001
 43
0.00000001
 40
0.0
 40
0.0
 40
0.0
 40
0.0
 40
0.8892351459142923
 40
1.0
 40
1.0
 40
1.0
 40
1.0
 10
817.1054619585561
 20
887.5919011802791
 30
0.0
 10
817.0563994519374
 20
890.8188895366306
 30
0.0
 10
817.0012256243574
 20
894.4478378200834
 30
0.0
 10
816.9892526762179
 20
897.9944228698332
 30
0.0
 10
816.9879264943643
 20
898.3872598453713
 30
0.0
  0
SPLINE
  5
1B3
330
1F
100
AcDbEntity
  8
0
  6
Continuous
 62
     8
370
    18
100
AcDbSpline
210
0.0
220
0.0
230
1.0
 70
     8
 71
     3
 72
    11
 73
     7
 74
     0
 42
0.000000001
 43
0.00000001
 40
0.0
 40
0.0
 40
0.0
 40
0.0
 40
0.5574252101166927
 40
0.8582360298869939
 40
0.9999887157360463
 40
1.0
 40
1.0
 40
1.0
 40
1.0
 10
816.9879264943643
 20
898.3872598453713
 30
0.0
 10
816.9465666550012
 20
899.3006528260014
 30
0.0
 10
816.8828872524775
 20
900.7069522742421
 30
0.0
 10
816.2708161503638
 20
902.2452440835478
 30
0.0
 10
815.7969634507426
 20
902.8120757210129
 30
0.0
 10
815.6207290015491
 20
902.9696526306985
 30
0.0
 10
815.6207149734711
 20
902.969665173656
 30
0.0
  0
SPLINE
  5
1B4
330
1F
100
AcDbEntity
  8
0
  6
Continuous
 62
     8
370
    18
100
AcDbSpline
210
0.0
220
0.0
230
1.0
 70
     8
 71
     3
 72
    11
 73
     7
 74
     0
 42
0.000000001
 43
0.00000001
 40
0.0
 40
0.0
 40
0.0
 40
0.0
 40
0.0000403578895606
 40
0.1670896913903655
 40
0.6133765181116565
 40
1.0
 40
1.0
 40
1.0
 40
1.0
 10
815.6207149734711
 20
902.969665173656
 30
0.0
 10
815.6206979003961
 20
902.9696747907772
 30
0.0
 10
815.5500119733578
 20
903.0094915855868
 30
0.0
 10
815.2854345977584
 20
903.1462238284113
 30
0.0
 10
814.8197028017921
 20
903.3174137779133
 30
0.0
 10
814.4065310150704
 20
903.346333232374
 30
0.0
 10
814.2147433602064
 20
903.3597571749789
 30
0.0
  0
LINE
  5
1B5
330
1F
100
AcDbEntity
  8
0
  6
Continuous
 62
     8
370
    18
100
AcDbLine
 10
814.2147433602
 20
903.359757175
 30
0.0
 11
807.1083524969
 21
903.4826780951
 31
0.0
  0
SPLINE
  5
1B6
330
1F
100
AcDbEntity
  8
0
  6
Continuous
 62
     8
370
    18
100
AcDbSpline
210
0.0
220
0.0
230
1.0
 70
     8
 71
     3
 72
    11
 73
     7
 74
     0
 42
0.000000001
 43
0.00000001
 40
0.0
 40
0.0
 40
0.0
 40
0.0
 40
0.2986044395550189
 40
0.5785107697798607
 40
0.9999675635114514
 40
0.9999999999999999
 40
0.9999999999999999
 40
0.9999999999999999
 40
0.9999999999999999
 10
807.1083524969141
 20
903.4826780951278
 30
0.0
 10
806.9234665708834
 20
903.4768420160274
 30
0.0
 10
806.5652719655088
 20
903.4655353033143
 30
0.0
 10
805.9719645431145
 20
903.2921013550873
 30
0.0
 10
805.5965928645488
 20
903.0863964502627
 30
0.0
 10
805.3877079052226
 20
902.941162398305
 30
0.0
 10
805.3876918300916
 20
902.9411512215481
 30
0.0
  0
SPLINE
  5
1B7
330
1F
100
AcDbEntity
  8
0
  6
Continuous
 62
     8
370
    18
100
AcDbSpline
210
0.0
220
0.0
230
1.0
 70
     8
 71
     3
 72
    12
 73
     8
 74
     0
 42
0.000000001
 43
0.00000001
 40
0.0
 40
0.0
 40
0.0
 40
0.0
 40
0.0000113964157658
 40
0.0165615426249112
 40
0.2254762501766455
 40
0.6569695733823875
 40
1.0
 40
1.0
 40
1.0
 40
1.0
 10
805.3876918300916
 20
902.9411512215481
 30
0.0
 10
805.3876790486096
 20
902.941137412893
 30
0.0
 10
805.3691046947966
 20
902.9210703466714
 30
0.0
 10
805.120494526847
 20
902.6443713677014
 30
0.0
 10
804.568534602676
 20
901.7081356732502
 30
0.0
 10
804.2363412847944
 20
900.1331546262313
 30
0.0
 10
804.1972166482607
 20
898.8813902714564
 30
0.0
 10
804.1798886570086
 20
898.3269937655507
 30
0.0
  0
SPLINE
  5
1B8
330
1F
100
AcDbEntity
  8
0
  6
Continuous
 62
     8
370
    18
100
AcDbSpline
210
0.0
220
0.0
230
1.0
 70
     8
 71
     3
 72
    10
 73
     6
 74
     0
 42
0.000000001
 43
0.00000001
 40
0.0
 40
0.0
 40
0.0
 40
0.0
 40
0.0305940752880727
 40
0.8849546452569854
 40
1.0
 40
1.0
 40
1.0
 40
1.0
 10
804.1798886570086
 20
898.3269937655507
 30
0.0
 10
804.1796765200129
 20
898.2185555233744
 30
0.0
 10
804.1735403116762
 20
895.0819048734148
 30
0.0
 10
804.1330947434326
 20
891.4841184099789
 30
0.0
 10
804.1005012118317
 20
887.9656067395289
 30
0.0
 10
804.0966331372617
 20
887.5480433504722
 30
0.0
  0
LINE
  5
1B9
330
1F
100
AcDbEntity
  8
0
  6
Continuous
 62
     8
370
    18
100
AcDbLine
 10
804.1979102665
 20
850.984557226
 30
0.0
 11
804.2691074903
 21
848.9813231806
 31
0.0
  0
SPLINE
  5
1BA
330
1F
100
AcDbEntity
  8
0
  6
Continuous
 62
     8
370
    18
100
AcDbSpline
210
0.0
220
0.0
230
1.0
 70
     8
 71
     3
 72
    18
 73
    14
 74
     0
 42
0.000000001
 43
0.00000001
 40
0.0
 40
0.0
 40
0.0
 40
0.0
 40
0.0497884573626217
 40
0.1520626953526157
 40
0.2542931679105498
 40
0.3525326664709011
 40
0.4508084200367274
 40
0.5543273934134142
 40
0.6578565275353682
 40
0.7740307271289463
 40
0.8901694733964515
 40
0.9999988953086805
 40
1.0
 40
1.0
 40
1.0
 40
1.0
 10
804.2691074903249
 20
848.9813231806086
 30
0.0
 10
803.3680172152212
 20
848.9969840768027
 30
0.0
 10
800.6159292163834
 20
849.0448152050009
 30
0.0
 10
796.0134988082639
 20
849.1300231740313
 30
0.0
 10
790.7127887940446
 20
849.1855941138854
 30
0.0
 10
785.8220112427033
 20
849.2499878159317
 30
0.0
 10
781.3288388769031
 20
849.2750774685475
 30
0.0
 10
777.2971995288453
 20
849.2639266617169
 30
0.0
 10
773.6870022407356
 20
849.217029997871
 30
0.0
 10
770.7749063952746
 20
849.1381486610898
 30
0.0
 10
768.795090660974
 20
849.0128773409281
 30
0.0
 10
768.2033843937658
 20
848.8885177500111
 30
0.0
 10
768.0909666381758
 20
848.8210888203133
 30
0.0
 10
768.0909655074618
 20
848.8210881421035
 30
0.0
  0
SPLINE
  5
1BB
330
1F
100
AcDbEntity
  8
0
  6
Continuous
 62
     8
370
    18
100
AcDbSpline
210
0.0
220
0.0
230
1.0
 70
     8
 71
     3
 72
     9
 73
     5
 74
     0
 42
0.000000001
 43
0.00000001
 40
0.0
 40
0.0
 40
0.0
 40
0.0
 40
0.084393495020108
 40
1.0
 40
1.0
 40
1.0
 40
1.0
 10
829.1188111438498
 20
848.8616356290308
 30
0.0
 10
828.774500750529
 20
848.8598310940504
 30
0.0
 10
824.6946792756778
 20
848.8384486998267
 30
0.0
 10
820.6146309248667
 20
848.8480450695903
 30
0.0
 10
816.8789121142316
 20
848.8568315681699
 30
0.0
  0
SPLINE
  5
1BC
330
1F
100
AcDbEntity
  8
0
  6
Continuous
 62
     8
370
    18
100
AcDbSpline
210
0.0
220
0.0
230
1.0
 70
     8
 71
     3
 72
    14
 73
    10
 74
     0
 42
0.000000001
 43
0.00000001
 40
0.0
 40
0.0
 40
0.0
 40
0.0
 40
0.0834734048384967
 40
0.2523701720924949
 40
0.4264211392157433
 40
0.5891168996027676
 40
0.7559016487235019
 40
0.8772249525218103
 40
1.0
 40
1.0
 40
1.0
 40
1.0
 10
896.952341554585
 20
848.9813231806079
 30
0.0
 10
897.8533205408457
 20
848.9975557311083
 30
0.0
 10
900.5773045720981
 20
849.0466325786525
 30
0.0
 10
905.18521794317
 20
849.1082375885691
 30
0.0
 10
910.4592071194147
 20
849.1903299476619
 30
0.0
 10
915.3841424399646
 20
849.2486878012851
 30
0.0
 10
919.4039738397511
 20
849.272496181872
 30
0.0
 10
922.727255573051
 20
849.2686270755115
 30
0.0
 10
924.4402628677948
 20
849.2522581003553
 30
0.0
 10
925.3018604609074
 20
849.2440249365856
 30
0.0
  0
LINE
  5
1BD
330
1F
100
AcDbEntity
  8
0
  6
Continuous
 62
     8
370
    18
100
AcDbLine
 10
897.0235387784
 20
850.984557226
 30
0.0
 11
896.9523415546
 21
848.9813231806
 31
0.0
  0
SPLINE
  5
1BE
330
1F
100
AcDbEntity
  8
0
  6
Continuous
 62
     8
370
    18
100
AcDbSpline
210
0.0
220
0.0
230
1.0
 70
     8
 71
     3
 72
    10
 73
     6
 74
     0
 42
0.000000001
 43
0.00000001
 40
0.0
 40
0.0
 40
0.0
 40
0.0
 40
0.0305940752880738
 40
0.8849546452569846
 40
1.0
 40
1.0
 40
1.0
 40
1.0
 10
897.0415603879009
 20
898.32699376555
 30
0.0
 10
897.0417725248966
 20
898.2185555233739
 30
0.0
 10
897.0479087332334
 20
895.0819048734141
 30
0.0
 10
897.088354301477
 20
891.4841184099784
 30
0.0
 10
897.1209478330778
 20
887.9656067395283
 30
0.0
 10
897.1248159076478
 20
887.5480433504716
 30
0.0
  0
SPLINE
  5
1BF
330
1F
100
AcDbEntity
  8
0
  6
Continuous
 62
     8
370
    18
100
AcDbSpline
210
0.0
220
0.0
230
1.0
 70
     8
 71
     3
 72
    12
 73
     8
 74
     0
 42
0.000000001
 43
0.00000001
 40
0.0
 40
0.0
 40
0.0
 40
0.0
 40
0.000011396415791
 40
0.016561542624936
 40
0.2254762501766656
 40
0.6569695733823978
 40
1.0
 40
1.0
 40
1.0
 40
1.0
 10
895.8337572148179
 20
902.9411512215474
 30
0.0
 10
895.8337699962998
 20
902.9411374128924
 30
0.0
 10
895.8523443501516
 20
902.9210703467024
 30
0.0
 10
896.1009545178208
 20
902.6443713675039
 30
0.0
 10
896.6529144424605
 20
901.7081356734346
 30
0.0
 10
896.9851077600595
 20
900.1331546261854
 30
0.0
 10
897.0242323966318
 20
898.881390271442
 30
0.0
 10
897.0415603879009
 20
898.32699376555
 30
0.0
  0
SPLINE
  5
1C0
330
1F
100
AcDbEntity
  8
0
  6
Continuous
 62
     8
370
    18
100
AcDbSpline
210
0.0
220
0.0
230
1.0
 70
     8
 71
     3
 72
    11
 73
     7
 74
     0
 42
0.000000001
 43
0.00000001
 40
0.0
 40
0.0
 40
0.0
 40
0.0
 40
0.2986044395549582
 40
0.578510769779743
 40
0.9999675635115337
 40
0.9999999999999999
 40
0.9999999999999999
 40
0.9999999999999999
 40
0.9999999999999999
 10
894.1130965479948
 20
903.4826780951271
 30
0.0
 10
894.2979824740321
 20
903.476842016032
 30
0.0
 10
894.6561770794194
 20
903.4655353033295
 30
0.0
 10
895.2494845017087
 20
903.2921013550153
 30
0.0
 10
895.6248561806473
 20
903.0863964504999
 30
0.0
 10
895.8337411396869
 20
902.9411623983044
 30
0.0
 10
895.8337572148179
 20
902.9411512215474
 30
0.0
  0
LINE
  5
1C1
330
1F
100
AcDbEntity
  8
0
  6
Continuous
 62
     8
370
    18
100
AcDbLine
 10
887.0067056847
 20
903.359757175
 30
0.0
 11
894.113096548
 21
903.4826780951
 31
0.0
  0
SPLINE
  5
1C2
330
1F
100
AcDbEntity
  8
0
  6
Continuous
 62
     8
370
    18
100
AcDbSpline
210
0.0
220
0.0
230
1.0
 70
     8
 71
     3
 72
    11
 73
     7
 74
     0
 42
0.000000001
 43
0.00000001
 40
0.0
 40
0.0
 40
0.0
 40
0.0
 40
0.0000403578891936
 40
0.1670896913899128
 40
0.6133765181114444
 40
1.0
 40
1.0
 40
1.0
 40
1.0
 10
885.6007340714392
 20
902.9696651736555
 30
0.0
 10
885.600751144514
 20
902.9696747907766
 30
0.0
 10
885.671437071317
 20
903.0094915859626
 30
0.0
 10
885.9360144474521
 20
903.1462238279289
 30
0.0
 10
886.4017462430302
 20
903.317413778052
 30
0.0
 10
886.8149180298111
 20
903.346333232418
 30
0.0
 10
887.0067056847026
 20
903.3597571749789
 30
0.0
  0
SPLINE
  5
1C3
330
1F
100
AcDbEntity
  8
0
  6
Continuous
 62
     8
370
    18
100
AcDbSpline
210
0.0
220
0.0
230
1.0
 70
     8
 71
     3
 72
    11
 73
     7
 74
     0
 42
0.000000001
 43
0.00000001
 40
0.0
 40
0.0
 40
0.0
 40
0.0
 40
0.5574252101166455
 40
0.8582360298869189
 40
0.9999887157359582
 40
1.0
 40
1.0
 40
1.0
 40
1.0
 10
884.2335225505451
 20
898.3872598453707
 30
0.0
 10
884.2748823895641
 20
899.3006528263302
 30
0.0
 10
884.3385617915576
 20
900.7069522750779
 30
0.0
 10
884.9506328959067
 20
902.2452440822456
 30
0.0
 10
885.4244855928021
 20
902.8120757223184
 30
0.0
 10
885.6007200433609
 20
902.969652630698
 30
0.0
 10
885.6007340714392
 20
902.9696651736555
 30
0.0
  0
SPLINE
  5
1C4
330
1F
100
AcDbEntity
  8
0
  6
Continuous
 62
     8
370
    18
100
AcDbSpline
210
0.0
220
0.0
230
1.0
 70
     8
 71
     3
 72
     9
 73
     5
 74
     0
 42
0.000000001
 43
0.00000001
 40
0.0
 40
0.0
 40
0.0
 40
0.0
 40
0.8892351459142943
 40
1.0
 40
1.0
 40
1.0
 40
1.0
 10
884.1159870863539
 20
887.5919011802783
 30
0.0
 10
884.1650495929724
 20
890.81888953663
 30
0.0
 10
884.2202234205522
 20
894.4478378200828
 30
0.0
 10
884.2321963686917
 20
897.9944228698326
 30
0.0
 10
884.2335225505451
 20
898.3872598453707
 30
0.0
  0
LINE
  5
1C5
330
1F
100
AcDbEntity
  8
0
  6
Continuous
 62
     8
370
    18
100
AcDbLine
 10
884.3425369307
 20
848.8568315682
 30
0.0
 11
884.2601173389
 21
850.9142375983
 31
0.0
  0
SPLINE
  5
1C6
330
1F
100
AcDbEntity
  8
0
  6
Continuous
 62
     8
370
    18
100
AcDbSpline
210
0.0
220
0.0
230
1.0
 70
     8
 71
     3
 72
     9
 73
     5
 74
     0
 42
0.000000001
 43
0.00000001
 40
0.0
 40
0.0
 40
0.0
 40
0.0
 40
0.0843934950201029
 40
0.9999999999999999
 40
0.9999999999999999
 40
0.9999999999999999
 40
0.9999999999999999
 10
872.1026379010603
 20
848.861635629031
 30
0.0
 10
872.4469482943812
 20
848.8598310940505
 30
0.0
 10
876.5267697692326
 20
848.8384486998262
 30
0.0
 10
880.6068181200441
 20
848.84804506959
 30
0.0
 10
884.3425369306796
 20
848.8568315681699
 30
0.0
  0
SPLINE
  5
1C7
330
1F
100
AcDbEntity
  8
0
  6
Continuous
 62
     8
370
    18
100
AcDbSpline
210
0.0
220
0.0
230
1.0
 70
     8
 71
     3
 72
    12
 73
     8
 74
     0
 42
0.000000001
 43
0.00000001
 40
0.0
 40
0.0
 40
0.0
 40
0.0
 40
0.3429907427795728
 40
0.6931111831538826
 40
0.8460382371952905
 40
0.9999906400284373
 40
1.0
 40
1.0
 40
1.0
 40
1.0
 10
937.0195671897666
 20
892.2610655177681
 30
0.0
 10
937.0602116072513
 20
892.6505942347984
 30
0.0
 10
937.1423453116862
 20
893.4377487444083
 30
0.0
 10
937.225590894099
 20
894.1125910792648
 30
0.0
 10
937.2756778784845
 20
894.4760584975529
 30
0.0
 10
937.294113360435
 20
894.5924917147065
 30
0.0
 10
937.3019682427627
 20
894.6367469102045
 30
0.0
 10
937.3019687202934
 20
894.6367496006607
 30
0.0
  0
SPLINE
  5
1C8
330
1F
100
AcDbEntity
  8
0
  6
Continuous
 62
     8
370
    18
100
AcDbSpline
210
0.0
220
0.0
230
1.0
 70
     8
 71
     3
 72
    20
 73
    16
 74
     0
 42
0.000000001
 43
0.00000001
 40
0.0
 40
0.0
 40
0.0
 40
0.0
 40
0.0777495206401193
 40
0.1580444463721844
 40
0.2279673988375337
 40
0.2994604618770906
 40
0.3760581917562227
 40
0.4543933132980241
 40
0.5398335171527756
 40
0.6277318368777229
 40
0.7140713710304705
 40
0.8026163874373397
 40
0.8879068463690987
 40
0.975835572894791
 40
1.0
 40
1.0
 40
1.0
 40
1.0
 10
925.3018604609074
 20
849.2440249365856
 30
0.0
 10
925.297229883702
 20
850.4088698742094
 30
0.0
 10
925.2878171309958
 20
852.7766950615612
 30
0.0
 10
925.7696829110417
 20
856.5957880739927
 30
0.0
 10
926.5388910551766
 20
860.4360202845576
 30
0.0
 10
927.5282150934713
 20
864.284735501867
 30
0.0
 10
928.7009009835442
 20
868.283094429086
 30
0.0
 10
929.9972748166514
 20
872.4636088967924
 30
0.0
 10
931.2851803240221
 20
876.6872546003274
 30
0.0
 10
932.498133759284
 20
880.7630388237218
 30
0.0
 10
933.6661680386379
 20
884.4547175391202
 30
0.0
 10
934.7897921681998
 20
887.6250250848832
 30
0.0
 10
935.9014447696635
 20
890.1847501530982
 30
0.0
 10
936.6299344418012
 20
891.5991237046804
 30
0.0
 10
936.9504682663515
 20
892.1436742900372
 30
0.0
 10
937.0195671897666
 20
892.2610655177681
 30
0.0
  0
SPLINE
  5
1C9
330
1F
100
AcDbEntity
  8
0
  6
Continuous
 62
     8
370
    18
100
AcDbSpline
210
0.0
220
0.0
230
1.0
 70
     8
 71
     3
 72
     9
 73
     5
 74
     0
 42
0.000000001
 43
0.00000001
 40
0.0
 40
0.0
 40
0.0
 40
0.0
 40
0.3531288107769718
 40
0.9999999999999999
 40
0.9999999999999999
 40
0.9999999999999999
 40
0.9999999999999999
 10
815.0717103072532
 20
898.6036875822018
 30
0.0
 10
815.0718337460783
 20
897.3386947723998
 30
0.0
 10
815.0721833035807
 20
893.7564529071194
 30
0.0
 10
815.0708784715562
 20
890.1058015823631
 30
0.0
 10
815.0700344133129
 20
887.7443004184796
 30
0.0
  0
LINE
  5
1CA
330
1F
100
AcDbEntity
  8
0
  6
Continuous
 62
     8
370
    18
100
AcDbLine
 10
813.8047311724
 20
898.7526130802
 30
0.0
 11
813.7183980203
 21
887.8929140455
 31
0.0
  0
ARC
  5
1CB
330
1F
100
AcDbEntity
  8
0
  6
Continuous
 62
     8
370
    18
100
AcDbCircle
 10
813.8520177951
 20
893.6910466477
 30
0.0
 40
5.061787310424969
100
AcDbArc
 50
76.056743273
 51
90.5352582305
  0
LINE
  5
1CC
330
1F
100
AcDbEntity
  8
0
  6
Continuous
 62
     8
370
    18
100
AcDbLine
 10
887.4167178725
 20
898.7526130802
 30
0.0
 11
887.5030510247
 21
887.8929140455
 31
0.0
  0
SPLINE
  5
1CD
330
1F
100
AcDbEntity
  8
0
  6
Continuous
 62
     8
370
    18
100
AcDbSpline
210
0.0
220
0.0
230
1.0
 70
     8
 71
     3
 72
     9
 73
     5
 74
     0
 42
0.000000001
 43
0.00000001
 40
0.0
 40
0.0
 40
0.0
 40
0.0
 40
0.3531288107769718
 40
0.9999999999999999
 40
0.9999999999999999
 40
0.9999999999999999
 40
0.9999999999999999
 10
886.1497387376564
 20
898.6036875822012
 30
0.0
 10
886.1496152988313
 20
897.3386947723992
 30
0.0
 10
886.1492657413289
 20
893.7564529071188
 30
0.0
 10
886.1505705733534
 20
890.1058015823627
 30
0.0
 10
886.1514146315967
 20
887.744300418479
 30
0.0
  0
ARC
  5
1CE
330
1F
100
AcDbEntity
  8
0
  6
Continuous
 62
     8
370
    18
100
AcDbCircle
 10
887.3694312498
 20
893.6910466476
 30
0.0
 40
5.061787310430788
100
AcDbArc
 50
89.4647417695
 51
103.943256727
  0
SPLINE
  5
1CF
330
1F
100
AcDbEntity
  8
0
  6
Continuous
 62
     8
370
    18
100
AcDbSpline
210
0.0
220
0.0
230
1.0
 70
     8
 71
     3
 72
    10
 73
     6
 74
     0
 42
0.000000001
 43
0.00000001
 40
0.0
 40
0.0
 40
0.0
 40
0.0
 40
0.0049102993503908
 40
0.115164344171695
 40
0.9999999999999999
 40
0.9999999999999999
 40
0.9999999999999999
 40
0.9999999999999999
 10
806.1461562132004
 20
887.7411817430086
 30
0.0
 10
806.1461341153451
 20
887.7591173050943
 30
0.0
 10
806.1456158404263
 20
888.1797713421593
 30
0.0
 10
806.1403120169736
 20
891.8285609673328
 30
0.0
 10
806.1378981133882
 20
895.4025032575582
 30
0.0
 10
806.1357516657256
 20
898.5804595445139
 30
0.0
  0
ARC
  5
1D0
330
1F
100
AcDbEntity
  8
0
  6
Continuous
 62
     8
370
    18
100
AcDbCircle
 10
807.4239919552
 20
893.858106496
 30
0.0
 40
4.894913825380006
100
AcDbArc
 50
89.260915705
 51
105.2587981171
  0
SPLINE
  5
1D1
330
1F
100
AcDbEntity
  8
0
  6
Continuous
 62
     8
370
    18
100
AcDbSpline
210
0.0
220
0.0
230
1.0
 70
     8
 71
     3
 72
     9
 73
     5
 74
     0
 42
0.000000001
 43
0.00000001
 40
0.0
 40
0.0
 40
0.0
 40
0.0
 40
0.853636342424055
 40
0.9999999999999999
 40
0.9999999999999999
 40
0.9999999999999999
 40
0.9999999999999999
 10
807.5373112658344
 20
887.892914045523
 30
0.0
 10
807.5166635133202
 20
891.0039949278226
 30
0.0
 10
807.4924755172286
 20
894.6484987143712
 30
0.0
 10
807.4878141732031
 20
898.2286142725764
 30
0.0
 10
807.4871319218423
 20
898.7526130802199
 30
0.0
  0
SPLINE
  5
1D2
330
1F
100
AcDbEntity
  8
0
  6
Continuous
 62
     8
370
    18
100
AcDbSpline
210
0.0
220
0.0
230
1.0
 70
     8
 71
     3
 72
     9
 73
     5
 74
     0
 42
0.000000001
 43
0.00000001
 40
0.0
 40
0.0
 40
0.0
 40
0.0
 40
0.853636342424055
 40
0.9999999999999999
 40
0.9999999999999999
 40
0.9999999999999999
 40
0.9999999999999999
 10
893.6841377790751
 20
887.8929140455225
 30
0.0
 10
893.7047855315894
 20
891.0039949278222
 30
0.0
 10
893.728973527681
 20
894.6484987143706
 30
0.0
 10
893.7336348717065
 20
898.2286142725758
 30
0.0
 10
893.7343171230673
 20
898.7526130802194
 30
0.0
  0
ARC
  5
1D3
330
1F
100
AcDbEntity
  8
0
  6
Continuous
 62
     8
370
    18
100
AcDbCircle
 10
893.7974570897
 20
893.858106496
 30
0.0
 40
4.894913825381601
100
AcDbArc
 50
74.7412018829
 51
90.739084295
  0
SPLINE
  5
1D4
330
1F
100
AcDbEntity
  8
0
  6
Continuous
 62
     8
370
    18
100
AcDbSpline
210
0.0
220
0.0
230
1.0
 70
     8
 71
     3
 72
    10
 73
     6
 74
     0
 42
0.000000001
 43
0.00000001
 40
0.0
 40
0.0
 40
0.0
 40
0.0
 40
0.0049102993503908
 40
0.115164344171695
 40
0.9999999999999999
 40
0.9999999999999999
 40
0.9999999999999999
 40
0.9999999999999999
 10
895.0752928317092
 20
887.741181743008
 30
0.0
 10
895.0753149295645
 20
887.7591173050936
 30
0.0
 10
895.0758332044833
 20
888.1797713421587
 30
0.0
 10
895.081137027936
 20
891.8285609673321
 30
0.0
 10
895.0835509315214
 20
895.4025032575577
 30
0.0
 10
895.085697379184
 20
898.5804595445134
 30
0.0
  0
LINE
  5
1D5
330
1F
100
AcDbEntity
  8
0
  6
Continuous
 62
     8
370
    18
100
AcDbLine
 10
813.8047311724
 20
898.7526130802
 30
0.0
 11
807.4871319218
 21
898.7526130802
 31
0.0
  0
LINE
  5
1D6
330
1F
100
AcDbEntity
  8
0
  6
Continuous
 62
     8
370
    18
100
AcDbLine
 10
887.4167178725
 20
898.7526130802
 30
0.0
 11
893.7343171231
 21
898.7526130802
 31
0.0
  0
ARC
  5
1D7
330
1F
100
AcDbEntity
  8
0
  6
Continuous
 62
     8
370
    18
100
AcDbCircle
 10
816.8817572792
 20
906.0384027911
 30
0.0
 40
7.651879525870753
100
AcDbArc
 50
256.3170319392
 51
270.7949998579
  0
ARC
  5
1D8
330
1F
100
AcDbEntity
  8
0
  6
Continuous
 62
     8
370
    18
100
AcDbCircle
 10
884.3396917657
 20
906.0384027911
 30
0.0
 40
7.651879525871212
100
AcDbArc
 50
269.2050001421
 51
283.6829680608
  0
ARC
  5
1D9
330
1F
100
AcDbEntity
  8
0
  6
Continuous
 62
     8
370
    18
100
AcDbCircle
 10
804.2287712996
 20
905.6227113971
 30
0.0
 40
7.295881391056931
100
AcDbArc
 50
269.6161135418
 51
285.1518230015
  0
ARC
  5
1DA
330
1F
100
AcDbEntity
  8
0
  6
Continuous
 62
     8
370
    18
100
AcDbCircle
 10
896.9926777453
 20
905.6227113971
 30
0.0
 40
7.295881391047784
100
AcDbArc
 50
254.8481769985
 51
270.3838864582
  0
LINE
  5
1DB
330
1F
100
AcDbEntity
  8
0
  6
Continuous
 62
     8
370
    18
100
AcDbLine
 10
804.2691074903
 20
848.9813231806
 30
0.0
 11
804.2828944415
 21
848.8242113211
 31
0.0
  0
SPLINE
  5
1DC
330
1F
100
AcDbEntity
  8
0
  6
Continuous
 62
     8
370
    18
100
AcDbSpline
210
0.0
220
0.0
230
1.0
 70
     8
 71
     3
 72
    14
 73
    10
 74
     0
 42
0.000000001
 43
0.00000001
 40
0.0
 40
0.0
 40
0.0
 40
0.0
 40
0.213507205401368
 40
0.6517504153255504
 40
0.8731400298126194
 40
0.9340362681777978
 40
0.960743100577066
 40
0.9801118651181863
 40
1.0
 40
1.0
 40
1.0
 40
1.0
 10
804.2828944415439
 20
848.8242113210937
 30
0.0
 10
804.3391416927157
 20
848.2303424525649
 30
0.0
 10
804.5108416090867
 20
846.4175030170762
 30
0.0
 10
804.8683275820555
 20
844.3634790549942
 30
0.0
 10
805.3200514665124
 20
843.0320226623647
 30
0.0
 10
805.8190905483198
 20
842.5814520919041
 30
0.0
 10
806.0892928813465
 20
842.4725727830574
 30
0.0
 10
806.2893611114016
 20
842.4331268445917
 30
0.0
 10
806.4152141098349
 20
842.4325071202541
 30
0.0
 10
806.4789731291388
 20
842.4321931585962
 30
0.0
  0
LINE
  5
1DD
330
1F
100
AcDbEntity
  8
0
  6
Continuous
 62
     8
370
    18
100
AcDbLine
 10
806.4789731291
 20
842.4321931586
 30
0.0
 11
814.7723227192
 21
842.6507112
 31
0.0
  0
SPLINE
  5
1DE
330
1F
100
AcDbEntity
  8
0
  6
Continuous
 62
     8
370
    18
100
AcDbSpline
210
0.0
220
0.0
230
1.0
 70
     8
 71
     3
 72
    16
 73
    12
 74
     0
 42
0.000000001
 43
0.00000001
 40
0.0
 40
0.0
 40
0.0
 40
0.0
 40
0.0145165189494738
 40
0.0410735504097995
 40
0.0660449149745879
 40
0.1244471088434507
 40
0.1776973916031349
 40
0.2535931192178167
 40
0.3633556422017846
 40
0.5223716192680161
 40
1.0
 40
1.0
 40
1.0
 40
1.0
 10
814.7723227192304
 20
842.6507112000482
 30
0.0
 10
814.8149850128767
 20
842.6527783497514
 30
0.0
 10
814.935695210327
 20
842.6586272159864
 30
0.0
 10
815.1148564900244
 20
842.703882596453
 30
0.0
 10
815.354175656736
 20
842.8179404515733
 30
0.0
 10
815.5617503967476
 20
843.0063155634829
 30
0.0
 10
815.7670442014372
 20
843.2936983837167
 30
0.0
 10
815.9641102627429
 20
843.6932429770047
 30
0.0
 10
816.1790895066057
 20
844.3222380642447
 30
0.0
 10
816.5375346574654
 20
845.8139080538496
 30
0.0
 10
816.7183312306853
 20
847.4088900000302
 30
0.0
 10
816.853969870141
 20
848.6054900089983
 30
0.0
  0
LINE
  5
1DF
330
1F
100
AcDbEntity
  8
0
  6
Continuous
 62
     8
370
    18
100
AcDbLine
 10
816.8539698701
 20
848.605490009
 30
0.0
 11
816.8789121142
 21
848.8568315682
 31
0.0
  0
SPLINE
  5
1E0
330
1F
100
AcDbEntity
  8
0
  6
Continuous
 62
     8
370
    18
100
AcDbSpline
210
0.0
220
0.0
230
1.0
 70
     8
 71
     3
 72
     9
 73
     5
 74
     0
 42
0.000000001
 43
0.00000001
 40
0.0
 40
0.0
 40
0.0
 40
0.0
 40
0.0094533958096562
 40
1.0
 40
1.0
 40
1.0
 40
1.0
 10
850.6107245224553
 20
840.5350816168898
 30
0.0
 10
850.6015164307771
 20
840.5350816398673
 30
0.0
 10
849.6274652153694
 20
840.5350840704674
 30
0.0
 10
848.6556066268931
 20
840.6604069716891
 30
0.0
 10
847.6929354023247
 20
840.7845451459216
 30
0.0
  0
SPLINE
  5
1E1
330
1F
100
AcDbEntity
  8
0
  6
Continuous
 62
     8
370
    18
100
AcDbSpline
210
0.0
220
0.0
230
1.0
 70
     8
 71
     3
 72
    12
 73
     8
 74
     0
 42
0.000000001
 43
0.00000001
 40
0.0
 40
0.0
 40
0.0
 40
0.0
 40
0.0986927005377723
 40
0.3626715646534694
 40
0.6320534788937502
 40
0.8140997464527818
 40
1.0
 40
1.0
 40
1.0
 40
1.0
 10
846.6973688515138
 20
840.8704732237906
 30
0.0
 10
846.0830338775936
 20
840.9114532925703
 30
0.0
 10
843.8255029254669
 20
841.0620450342393
 30
0.0
 10
839.9444294903017
 20
842.1702003165882
 30
0.0
 10
835.6671713803945
 20
843.9862336612439
 30
0.0
 10
832.0134515804693
 20
846.2458704857066
 30
0.0
 10
830.0904054831547
 20
847.983646579319
 30
0.0
 10
829.1188111438498
 20
848.8616356290308
 30
0.0
  0
LINE
  5
1E2
330
1F
100
AcDbEntity
  8
0
  6
Continuous
 62
     8
370
    18
100
AcDbLine
 10
806.1359792783
 20
848.6229365268
 30
0.0
 11
806.1364317302
 21
848.7864737035
 31
0.0
  0
LINE
  5
1E3
330
1F
100
AcDbEntity
  8
0
  6
Continuous
 62
     8
370
    18
100
AcDbLine
 10
806.1364317302
 20
848.7864737035
 30
0.0
 11
806.1371237105
 21
850.6764254634
 31
0.0
  0
LINE
  5
1E4
330
1F
100
AcDbEntity
  8
0
  6
Continuous
 62
     8
370
    18
100
AcDbLine
 10
807.4175419499
 20
848.3047207409
 30
0.0
 11
807.479722043
 21
850.4753538367
 31
0.0
  0
ARC
  5
1E5
330
1F
100
AcDbEntity
  8
0
  6
Continuous
 62
     8
370
    18
100
AcDbCircle
 10
807.5490858948
 20
851.5742439365
 30
0.0
 40
3.27216835391604
100
AcDbArc
 50
244.4145746888
 51
267.6960401779
  0
LINE
  5
1E6
330
1F
100
AcDbEntity
  8
0
  6
Continuous
 62
     8
370
    18
100
AcDbLine
 10
814.7578334156
 20
842.7941701737
 30
0.0
 11
806.4453755988
 21
842.5756521323
 31
0.0
  0
SPLINE
  5
1E7
330
1F
100
AcDbEntity
  8
0
  6
Continuous
 62
     8
370
    18
100
AcDbSpline
210
0.0
220
0.0
230
1.0
 70
     8
 71
     3
 72
    10
 73
     6
 74
     0
 42
0.000000001
 43
0.00000001
 40
0.0
 40
0.0
 40
0.0
 40
0.0
 40
0.4454896378197732
 40
0.7187778752024843
 40
1.0
 40
1.0
 40
1.0
 40
1.0
 10
806.4453755988071
 20
842.5756521322943
 30
0.0
 10
806.6704364336204
 20
843.1873128167728
 30
0.0
 10
807.0335621606968
 20
844.1742003441369
 30
0.0
 10
807.2686266970915
 20
846.2509122130838
 30
0.0
 10
807.3674322982067
 20
847.6136187350128
 30
0.0
 10
807.4175419498611
 20
848.3047207408715
 30
0.0
  0
LINE
  5
1E8
330
1F
100
AcDbEntity
  8
0
  6
Continuous
 62
     8
370
    18
100
AcDbLine
 10
813.8227245364
 20
850.4753538366
 30
0.0
 11
813.8900509117
 21
848.1774403064
 31
0.0
  0
SPLINE
  5
1E9
330
1F
100
AcDbEntity
  8
0
  6
Continuous
 62
     8
370
    18
100
AcDbSpline
210
0.0
220
0.0
230
1.0
 70
     8
 71
     3
 72
    10
 73
     6
 74
     0
 42
0.000000001
 43
0.00000001
 40
0.0
 40
0.0
 40
0.0
 40
0.0
 40
0.5085358280598834
 40
0.7966056673011307
 40
1.0
 40
1.0
 40
1.0
 40
1.0
 10
813.8900509117362
 20
848.1774403064072
 30
0.0
 10
813.9790934764072
 20
847.052618914921
 30
0.0
 10
814.1185759036704
 20
845.2906209479777
 30
0.0
 10
814.4204989151738
 20
843.658850632888
 30
0.0
 10
814.659091117496
 20
843.047273652815
 30
0.0
 10
814.7578334156108
 20
842.7941701737457
 30
0.0
  0
LINE
  5
1EA
330
1F
100
AcDbEntity
  8
0
  6
Continuous
 62
     8
370
    18
100
AcDbLine
 10
815.0713298172
 20
850.6444445466
 30
0.0
 11
815.0694735112
 21
848.711075354
 31
0.0
  0
LINE
  5
1EB
330
1F
100
AcDbEntity
  8
0
  6
Continuous
 62
     8
370
    18
100
AcDbLine
 10
815.0694735112
 20
848.711075354
 30
0.0
 11
815.0692787885
 21
848.4517644726
 31
0.0
  0
ARC
  5
1EC
330
1F
100
AcDbEntity
  8
0
  6
Continuous
 62
     8
370
    18
100
AcDbCircle
 10
813.7420890347
 20
851.4851942296
 30
0.0
 40
3.311061571939196
100
AcDbArc
 50
272.5612375306
 51
293.6303960838
  0
LINE
  5
1ED
330
1F
100
AcDbEntity
  8
0
  6
Continuous
 62
     8
370
    18
100
AcDbLine
 10
887.3987245085
 20
850.4753538366
 30
0.0
 11
887.3313981332
 21
848.1774403064
 31
0.0
  0
LINE
  5
1EE
330
1F
100
AcDbEntity
  8
0
  6
Continuous
 62
     8
370
    18
100
AcDbLine
 10
893.803907095
 20
848.3047207409
 30
0.0
 11
893.7417270019
 21
850.4753538366
 31
0.0
  0
SPLINE
  5
1EF
330
1F
100
AcDbEntity
  8
0
  6
Continuous
 62
     8
370
    18
100
AcDbSpline
210
0.0
220
0.0
230
1.0
 70
     8
 71
     3
 72
    10
 73
     6
 74
     0
 42
0.000000001
 43
0.00000001
 40
0.0
 40
0.0
 40
0.0
 40
0.0
 40
0.4454896378197916
 40
0.7187778752024936
 40
1.0
 40
1.0
 40
1.0
 40
1.0
 10
894.7760734461029
 20
842.575652132293
 30
0.0
 10
894.5510126112899
 20
843.1873128167717
 30
0.0
 10
894.1878868842133
 20
844.1742003441364
 30
0.0
 10
893.9528223478188
 20
846.2509122130832
 30
0.0
 10
893.8540167467033
 20
847.6136187350121
 30
0.0
 10
893.803907095049
 20
848.3047207408711
 30
0.0
  0
LINE
  5
1F0
330
1F
100
AcDbEntity
  8
0
  6
Continuous
 62
     8
370
    18
100
AcDbLine
 10
886.4636156293
 20
842.7941701737
 30
0.0
 11
894.7760734461
 21
842.5756521323
 31
0.0
  0
SPLINE
  5
1F1
330
1F
100
AcDbEntity
  8
0
  6
Continuous
 62
     8
370
    18
100
AcDbSpline
210
0.0
220
0.0
230
1.0
 70
     8
 71
     3
 72
    10
 73
     6
 74
     0
 42
0.000000001
 43
0.00000001
 40
0.0
 40
0.0
 40
0.0
 40
0.0
 40
0.5085358280598539
 40
0.7966056673011425
 40
1.0
 40
1.0
 40
1.0
 40
1.0
 10
887.331398133174
 20
848.1774403064072
 30
0.0
 10
887.2423555685028
 20
847.052618914921
 30
0.0
 10
887.1028731412398
 20
845.2906209479775
 30
0.0
 10
886.8009501297365
 20
843.6588506328882
 30
0.0
 10
886.5623579274143
 20
843.047273652815
 30
0.0
 10
886.4636156292995
 20
842.7941701737457
 30
0.0
  0
ARC
  5
1F2
330
1F
100
AcDbEntity
  8
0
  6
Continuous
 62
     8
370
    18
100
AcDbCircle
 10
887.4793600102
 20
851.4851942296
 30
0.0
 40
3.31106157193796
100
AcDbArc
 50
246.3696039162
 51
267.4387624694
  0
LINE
  5
1F3
330
1F
100
AcDbEntity
  8
0
  6
Continuous
 62
     8
370
    18
100
AcDbLine
 10
886.1519755338
 20
848.711075354
 30
0.0
 11
886.1521702564
 21
848.4517644726
 31
0.0
  0
LINE
  5
1F4
330
1F
100
AcDbEntity
  8
0
  6
Continuous
 62
     8
370
    18
100
AcDbLine
 10
886.1501192277
 20
850.6444445466
 30
0.0
 11
886.1519755338
 21
848.711075354
 31
0.0
  0
LINE
  5
1F5
330
1F
100
AcDbEntity
  8
0
  6
Continuous
 62
     8
370
    18
100
AcDbLine
 10
895.0850173147
 20
848.7864737035
 30
0.0
 11
895.0843253344
 21
850.6764254634
 31
0.0
  0
LINE
  5
1F6
330
1F
100
AcDbEntity
  8
0
  6
Continuous
 62
     8
370
    18
100
AcDbLine
 10
895.0854697666
 20
848.6229365268
 30
0.0
 11
895.0850173147
 21
848.7864737035
 31
0.0
  0
ARC
  5
1F7
330
1F
100
AcDbEntity
  8
0
  6
Continuous
 62
     8
370
    18
100
AcDbCircle
 10
893.6723631502
 20
851.5742439365
 30
0.0
 40
3.272168353912154
100
AcDbArc
 50
272.3039598221
 51
295.5854253112
  0
LINE
  5
1F8
330
1F
100
AcDbEntity
  8
0
  6
Continuous
 62
     8
370
    18
100
AcDbLine
 10
884.3674791748
 20
848.605490009
 30
0.0
 11
884.3425369307
 21
848.8568315682
 31
0.0
  0
SPLINE
  5
1F9
330
1F
100
AcDbEntity
  8
0
  6
Continuous
 62
     8
370
    18
100
AcDbSpline
210
0.0
220
0.0
230
1.0
 70
     8
 71
     3
 72
    16
 73
    12
 74
     0
 42
0.000000001
 43
0.00000001
 40
0.0
 40
0.0
 40
0.0
 40
0.0
 40
0.0145165189495135
 40
0.0410735504098393
 40
0.0660449149746279
 40
0.124447108843491
 40
0.1776973916031755
 40
0.2535931192178847
 40
0.3633556422018523
 40
0.5223716192680848
 40
1.0
 40
1.0
 40
1.0
 40
1.0
 10
886.4491263256801
 20
842.6507112000482
 30
0.0
 10
886.4064640320337
 20
842.6527783497514
 30
0.0
 10
886.2857538345833
 20
842.6586272159864
 30
0.0
 10
886.1065925548857
 20
842.703882596453
 30
0.0
 10
885.8672733881742
 20
842.8179404515733
 30
0.0
 10
885.6596986481627
 20
843.0063155634829
 30
0.0
 10
885.4544048434728
 20
843.2936983837167
 30
0.0
 10
885.2573387821673
 20
843.6932429770047
 30
0.0
 10
885.0423595383047
 20
844.3222380642449
 30
0.0
 10
884.6839143874427
 20
845.8139080538493
 30
0.0
 10
884.50311781424
 20
847.4088900000312
 30
0.0
 10
884.3674791747972
 20
848.6054900090005
 30
0.0
  0
LINE
  5
1FA
330
1F
100
AcDbEntity
  8
0
  6
Continuous
 62
     8
370
    18
100
AcDbLine
 10
894.7424759158
 20
842.4321931586
 30
0.0
 11
886.4491263257
 21
842.6507112
 31
0.0
  0
SPLINE
  5
1FB
330
1F
100
AcDbEntity
  8
0
  6
Continuous
 62
     8
370
    18
100
AcDbSpline
210
0.0
220
0.0
230
1.0
 70
     8
 71
     3
 72
    14
 73
    10
 74
     0
 42
0.000000001
 43
0.00000001
 40
0.0
 40
0.0
 40
0.0
 40
0.0
 40
0.2135072054014702
 40
0.6517504153255759
 40
0.873140029812641
 40
0.9340362681778096
 40
0.9607431005770727
 40
0.9801118651181897
 40
1.0
 40
1.0
 40
1.0
 40
1.0
 10
896.9385546033466
 20
848.8242113210956
 30
0.0
 10
896.8823073521827
 20
848.2303424525659
 30
0.0
 10
896.7106074358354
 20
846.4175030170751
 30
0.0
 10
896.3531214628525
 20
844.363479054994
 30
0.0
 10
895.901397578398
 20
843.0320226623636
 30
0.0
 10
895.4023584965903
 20
842.5814520919029
 30
0.0
 10
895.1321561635636
 20
842.4725727830563
 30
0.0
 10
894.9320879335085
 20
842.4331268445906
 30
0.0
 10
894.8062349350752
 20
842.4325071202528
 30
0.0
 10
894.7424759157713
 20
842.4321931585952
 30
0.0
  0
LINE
  5
1FC
330
1F
100
AcDbEntity
  8
0
  6
Continuous
 62
     8
370
    18
100
AcDbLine
 10
896.9523415546
 20
848.9813231806
 30
0.0
 11
896.9385546033
 21
848.8242113211
 31
0.0
  0
SPLINE
  5
1FD
330
1F
100
AcDbEntity
  8
0
  6
Continuous
 62
     8
370
    18
100
AcDbSpline
210
0.0
220
0.0
230
1.0
 70
     8
 71
     3
 72
    15
 73
    11
 74
     0
 42
0.000000001
 43
0.00000001
 40
0.0
 40
0.0
 40
0.0
 40
0.0
 40
0.0014239395057858
 40
0.1351061085576226
 40
0.2892216052154397
 40
0.4462432513905971
 40
0.5840152296264951
 40
0.7248088485654174
 40
0.8605044118101063
 40
1.0
 40
1.0
 40
1.0
 40
1.0
 10
919.6575069295279
 20
840.5350816168892
 30
0.0
 10
919.6630069974426
 20
840.5350845363524
 30
0.0
 10
920.184863979249
 20
840.5353615406076
 30
0.0
 10
921.2348941737765
 20
840.6217159791985
 30
0.0
 10
922.6291379073965
 20
841.0875286188677
 30
0.0
 10
923.780234501017
 20
841.97806793807
 30
0.0
 10
924.6367662855587
 20
843.2618290131879
 30
0.0
 10
925.180111895827
 20
844.8778494019658
 30
0.0
 10
925.4554008692246
 20
846.8583981177363
 30
0.0
 10
925.3535095914983
 20
848.441529017381
 30
0.0
 10
925.3018604609074
 20
849.2440249365856
 30
0.0
  0
SPLINE
  5
1FE
330
1F
100
AcDbEntity
  8
0
  6
Continuous
 62
     8
370
    18
100
AcDbSpline
210
0.0
220
0.0
230
1.0
 70
     8
 71
     3
 72
    12
 73
     8
 74
     0
 42
0.000000001
 43
0.00000001
 40
0.0
 40
0.0
 40
0.0
 40
0.0
 40
0.1729070209294623
 40
0.350059252937724
 40
0.6008939024631887
 40
0.8574899875494117
 40
1.0
 40
1.0
 40
1.0
 40
1.0
 10
872.1026379010603
 20
848.861635629031
 30
0.0
 10
871.1534125286342
 20
848.0021718566804
 30
0.0
 10
869.2316564139616
 20
846.2621427678744
 30
0.0
 10
865.6117170959401
 20
844.0188310197428
 30
0.0
 10
861.313118754298
 20
842.1716947063171
 30
0.0
 10
857.1159952024572
 20
841.0034378880612
 30
0.0
 10
854.5037522884235
 20
840.844841776199
 30
0.0
 10
853.5709908685893
 20
840.7882113863965
 30
0.0
  0
SPLINE
  5
1FF
330
1F
100
AcDbEntity
  8
0
  6
Continuous
 62
     8
370
    18
100
AcDbSpline
210
0.0
220
0.0
230
1.0
 70
     8
 71
     3
 72
     9
 73
     5
 74
     0
 42
0.000000001
 43
0.00000001
 40
0.0
 40
0.0
 40
0.0
 40
0.0
 40
0.9809099457842948
 40
1.0
 40
1.0
 40
1.0
 40
1.0
 10
852.0556347685448
 20
840.6574198919881
 30
0.0
 10
851.5835542891706
 20
840.5967402526221
 30
0.0
 10
851.1022863793047
 20
840.5348796917964
 30
0.0
 10
850.6199326807125
 20
840.535077834338
 30
0.0
 10
850.6107245224553
 20
840.5350816168898
 30
0.0
  0
ARC
  5
200
330
1F
100
AcDbEntity
  8
0
  6
Continuous
 62
     8
370
    18
100
AcDbCircle
 10
816.4216213192
 20
843.2295116395
 30
0.0
 40
5.645869680607604
100
AcDbArc
 50
85.3542029002
 51
103.8566348578
  0
ARC
  5
201
330
1F
100
AcDbEntity
  8
0
  6
Continuous
 62
     8
370
    18
100
AcDbCircle
 10
884.7998277257
 20
843.2295116395
 30
0.0
 40
5.645869680600322
100
AcDbArc
 50
76.1433651422
 51
94.6457970998
  0
ARC
  5
202
330
1F
100
AcDbEntity
  8
0
  6
Continuous
 62
     8
370
    18
100
AcDbCircle
 10
804.6371870791
 20
843.4636838945
 30
0.0
 40
5.52990288113109
100
AcDbArc
 50
74.2693192234
 51
93.8165246585
  0
ARC
  5
203
330
1F
100
AcDbEntity
  8
0
  6
Continuous
 62
     8
370
    18
100
AcDbCircle
 10
896.5842619658
 20
843.4636838945
 30
0.0
 40
5.529902881131076
100
AcDbArc
 50
86.1834753415
 51
105.7306807766
  0
SPLINE
  5
204
330
1F
100
AcDbEntity
  8
0
  6
Continuous
 62
     8
370
    18
100
AcDbSpline
210
0.0
220
0.0
230
1.0
 70
     8
 71
     3
 72
    15
 73
    11
 74
     0
 42
0.000000001
 43
0.00000001
 40
0.0
 40
0.0
 40
0.0
 40
0.0
 40
0.0247383799946503
 40
0.0492201071029635
 40
0.0751567027976501
 40
0.118695396431137
 40
0.2418825692051537
 40
0.4816368506398208
 40
0.8380569172748068
 40
1.0
 40
1.0
 40
1.0
 40
1.0
 10
814.1929520845162
 20
902.5987526820155
 30
0.0
 10
814.2330244060869
 20
902.5996523231265
 30
0.0
 10
814.3127533115365
 20
902.6014422718557
 30
0.0
 10
814.427265241147
 20
902.5610612448676
 30
0.0
 10
814.5464751367211
 20
902.4821976890017
 30
0.0
 10
814.7352986086577
 20
902.2722610131805
 30
0.0
 10
814.9591054920447
 20
901.7365366843633
 30
0.0
 10
815.0541439111549
 20
900.7327425050064
 30
0.0
 10
815.070247863733
 20
899.6307973257293
 30
0.0
 10
815.0713621807761
 20
898.8481852956124
 30
0.0
 10
815.0717103072532
 20
898.6036875822018
 30
0.0
  0
SPLINE
  5
205
330
1F
100
AcDbEntity
  8
0
  6
Continuous
 62
     8
370
    18
100
AcDbSpline
210
0.0
220
0.0
230
1.0
 70
     8
 71
     3
 72
     9
 73
     5
 74
     0
 42
0.000000001
 43
0.00000001
 40
0.0
 40
0.0
 40
0.0
 40
0.0
 40
0.3204572925054245
 40
1.0
 40
1.0
 40
1.0
 40
1.0
 10
814.1929520845162
 20
902.5987526820155
 30
0.0
 10
814.1177639188071
 20
902.2437523229286
 30
0.0
 10
813.8831361931555
 20
901.1359592803315
 30
0.0
 10
813.8364538310924
 20
899.7169145668648
 30
0.0
 10
813.8047311723838
 20
898.7526130802199
 30
0.0
  0
SPLINE
  5
206
330
1F
100
AcDbEntity
  8
0
  6
Continuous
 62
     8
370
    18
100
AcDbSpline
210
0.0
220
0.0
230
1.0
 70
     8
 71
     3
 72
    15
 73
    11
 74
     0
 42
0.000000001
 43
0.00000001
 40
0.0
 40
0.0
 40
0.0
 40
0.0
 40
0.0247383799946503
 40
0.0492201071029635
 40
0.0751567027976501
 40
0.118695396431137
 40
0.2418825692051537
 40
0.4816368506398208
 40
0.8380569172748068
 40
1.0
 40
1.0
 40
1.0
 40
1.0
 10
887.0284969603933
 20
902.598752682015
 30
0.0
 10
886.9884246388226
 20
902.599652323126
 30
0.0
 10
886.908695733373
 20
902.6014422718553
 30
0.0
 10
886.7941838037625
 20
902.5610612448669
 30
0.0
 10
886.6749739081885
 20
902.482197689001
 30
0.0
 10
886.4861504362518
 20
902.2722610131799
 30
0.0
 10
886.2623435528648
 20
901.7365366843627
 30
0.0
 10
886.1673051337546
 20
900.7327425050058
 30
0.0
 10
886.1512011811766
 20
899.6307973257286
 30
0.0
 10
886.1500868641335
 20
898.8481852956119
 30
0.0
 10
886.1497387376564
 20
898.6036875822012
 30
0.0
  0
SPLINE
  5
207
330
1F
100
AcDbEntity
  8
0
  6
Continuous
 62
     8
370
    18
100
AcDbSpline
210
0.0
220
0.0
230
1.0
 70
     8
 71
     3
 72
     9
 73
     5
 74
     0
 42
0.000000001
 43
0.00000001
 40
0.0
 40
0.0
 40
0.0
 40
0.0
 40
0.3204572925054245
 40
1.0
 40
1.0
 40
1.0
 40
1.0
 10
887.0284969603933
 20
902.598752682015
 30
0.0
 10
887.1036851261024
 20
902.243752322928
 30
0.0
 10
887.3383128517542
 20
901.1359592803309
 30
0.0
 10
887.3849952138171
 20
899.7169145668643
 30
0.0
 10
887.4167178725257
 20
898.7526130802194
 30
0.0
  0
SPLINE
  5
208
330
1F
100
AcDbEntity
  8
0
  6
Continuous
 62
     8
370
    18
100
AcDbSpline
210
0.0
220
0.0
230
1.0
 70
     8
 71
     3
 72
    15
 73
    11
 74
     0
 42
0.000000001
 43
0.00000001
 40
0.0
 40
0.0
 40
0.0
 40
0.0
 40
0.3092031051605585
 40
0.663838255257455
 40
0.803986173963673
 40
0.9077221477257735
 40
0.9361281220494168
 40
0.9546919441403823
 40
0.978908979412591
 40
1.0
 40
1.0
 40
1.0
 40
1.0
 10
806.1357516657256
 20
898.5804595445139
 30
0.0
 10
806.1364917159943
 20
899.068179054242
 30
0.0
 10
806.1380805541107
 20
900.1152800147092
 30
0.0
 10
806.1482712230661
 20
901.3164659173993
 30
0.0
 10
806.3452770205832
 20
902.1725435979437
 30
0.0
 10
806.5501305410122
 20
902.5346732669319
 30
0.0
 10
806.736219176732
 20
902.6840159643856
 30
0.0
 10
806.8425828587914
 20
902.7333753078107
 30
0.0
 10
806.9512530952709
 20
902.7541770290358
 30
0.0
 10
807.0265471577767
 20
902.74413619444
 30
0.0
 10
807.0615967442637
 20
902.7394621592125
 30
0.0
  0
SPLINE
  5
209
330
1F
100
AcDbEntity
  8
0
  6
Continuous
 62
     8
370
    18
100
AcDbSpline
210
0.0
220
0.0
230
1.0
 70
     8
 71
     3
 72
     9
 73
     5
 74
     0
 42
0.000000001
 43
0.00000001
 40
0.0
 40
0.0
 40
0.0
 40
0.0
 40
0.6310361367051674
 40
1.0
 40
1.0
 40
1.0
 40
1.0
 10
807.4871319218423
 20
898.7526130802199
 30
0.0
 10
807.4572261864915
 20
899.689094458304
 30
0.0
 10
807.4098347082364
 20
901.1731320967403
 30
0.0
 10
807.1554540241953
 20
902.3173040536993
 30
0.0
 10
807.0615967442637
 20
902.7394621592125
 30
0.0
  0
SPLINE
  5
20A
330
1F
100
AcDbEntity
  8
0
  6
Continuous
 62
     8
370
    18
100
AcDbSpline
210
0.0
220
0.0
230
1.0
 70
     8
 71
     3
 72
     9
 73
     5
 74
     0
 42
0.000000001
 43
0.00000001
 40
0.0
 40
0.0
 40
0.0
 40
0.0
 40
0.6310361367051674
 40
1.0
 40
1.0
 40
1.0
 40
1.0
 10
893.7343171230673
 20
898.7526130802194
 30
0.0
 10
893.7642228584181
 20
899.6890944583033
 30
0.0
 10
893.8116143366731
 20
901.1731320967397
 30
0.0
 10
894.0659950207142
 20
902.3173040536988
 30
0.0
 10
894.1598523006459
 20
902.7394621592119
 30
0.0
  0
SPLINE
  5
20B
330
1F
100
AcDbEntity
  8
0
  6
Continuous
 62
     8
370
    18
100
AcDbSpline
210
0.0
220
0.0
230
1.0
 70
     8
 71
     3
 72
    15
 73
    11
 74
     0
 42
0.000000001
 43
0.00000001
 40
0.0
 40
0.0
 40
0.0
 40
0.0
 40
0.3092031051605585
 40
0.663838255257455
 40
0.803986173963673
 40
0.9077221477257735
 40
0.9361281220494168
 40
0.9546919441403823
 40
0.978908979412591
 40
1.0
 40
1.0
 40
1.0
 40
1.0
 10
895.085697379184
 20
898.5804595445134
 30
0.0
 10
895.0849573289152
 20
899.0681790542416
 30
0.0
 10
895.0833684907989
 20
900.1152800147087
 30
0.0
 10
895.0731778218436
 20
901.3164659173988
 30
0.0
 10
894.8761720243264
 20
902.1725435979431
 30
0.0
 10
894.6713185038975
 20
902.5346732669313
 30
0.0
 10
894.4852298681775
 20
902.6840159643849
 30
0.0
 10
894.3788661861182
 20
902.73337530781
 30
0.0
 10
894.2701959496387
 20
902.7541770290352
 30
0.0
 10
894.1949018871328
 20
902.7441361944394
 30
0.0
 10
894.1598523006459
 20
902.7394621592119
 30
0.0
  0
LINE
  5
20C
330
1F
100
AcDbEntity
  8
0
  6
Continuous
 62
     8
370
    18
100
AcDbLine
 10
807.0615967443
 20
902.7394621592
 30
0.0
 11
814.1929520845
 21
902.598752682
 31
0.0
  0
LINE
  5
20D
330
1F
100
AcDbEntity
  8
0
  6
Continuous
 62
     8
370
    18
100
AcDbLine
 10
894.1598523006
 20
902.7394621592
 30
0.0
 11
887.0284969604
 21
902.598752682
 31
0.0
  0
ARC
  5
20E
330
1F
100
AcDbEntity
  8
0
  6
Continuous
 62
     8
370
    18
100
AcDbCircle
 10
720.4372724561
 20
905.6642499726
 30
0.0
 40
93.80578199780291
100
AcDbArc
 50
358.1272867192
 51
358.5922936386
  0
ARC
  5
20F
330
1F
100
AcDbEntity
  8
0
  6
Continuous
 62
     8
370
    18
100
AcDbCircle
 10
980.7841766383
 20
905.6642499741
 30
0.0
 40
93.8057820473782
100
AcDbArc
 50
181.4077063616
 51
181.8727132807
  0
ARC
  5
210
330
1F
100
AcDbEntity
  8
0
  6
Continuous
 62
     8
370
    18
100
AcDbCircle
 10
766.489113634
 20
905.6649578241
 30
0.0
 40
40.67781841027828
100
AcDbArc
 50
355.8758017504
 51
356.9247251144
  0
ARC
  5
211
330
1F
100
AcDbEntity
  8
0
  6
Continuous
 62
     8
370
    18
100
AcDbCircle
 10
934.7323354195
 20
905.6649578247
 30
0.0
 40
40.67781841886432
100
AcDbArc
 50
183.0752748858
 51
184.1241982495
  0
SPLINE
  5
212
330
1F
100
AcDbEntity
  8
0
  6
Continuous
 62
     8
370
    18
100
AcDbSpline
210
0.0
220
0.0
230
1.0
 70
     8
 71
     3
 72
    19
 73
    15
 74
     0
 42
0.000000001
 43
0.00000001
 40
0.0
 40
0.0
 40
0.0
 40
0.0
 40
0.510865580978488
 40
0.6773161886274501
 40
0.7897294814090523
 40
0.8649135704138745
 40
0.9149987759643738
 40
0.9638937301973742
 40
0.9805048002912533
 40
0.9864047265890651
 40
0.9923573643452019
 40
0.9937773259466395
 40
0.9978992913798035
 40
1.0
 40
1.0
 40
1.0
 40
1.0
 10
815.0692787885295
 20
848.4517644725929
 30
0.0
 10
815.0702284265486
 20
847.2726670507992
 30
0.0
 10
815.0714874763411
 20
845.7093952206237
 30
0.0
 10
815.0732543195822
 20
844.2874941100281
 30
0.0
 10
815.0661642439858
 20
843.7055757992482
 30
0.0
 10
815.04906390203
 20
843.3442724477175
 30
0.0
 10
815.01587619561
 20
843.094282480178
 30
0.0
 10
814.97420203177
 20
842.9360945308123
 30
0.0
 10
814.9059670960252
 20
842.8452621900014
 30
0.0
 10
814.860679049408
 20
842.8139573482375
 30
0.0
 10
814.8317721301603
 20
842.8021540462047
 30
0.0
 10
814.8025617336607
 20
842.7956620769133
 30
0.0
 10
814.7810632644051
 20
842.7933470985473
 30
0.0
 10
814.7636963136082
 20
842.7939624407562
 30
0.0
 10
814.7578334156108
 20
842.7941701737457
 30
0.0
  0
ARC
  5
213
330
1F
100
AcDbEntity
  8
0
  6
Continuous
 62
     8
370
    18
100
AcDbCircle
 10
816.4261462276
 20
843.1357165478
 30
0.0
 40
5.486479270496517
100
AcDbArc
 50
85.5276603397
 51
104.3184561189
  0
ARC
  5
214
330
1F
100
AcDbEntity
  8
0
  6
Continuous
 62
     8
370
    18
100
AcDbCircle
 10
807.576925679
 20
841.9964399374
 30
0.0
 40
7.225081968521535
100
AcDbArc
 50
5.1955682006
 51
6.339022105
  0
ARC
  5
215
330
1F
100
AcDbEntity
  8
0
  6
Continuous
 62
     8
370
    18
100
AcDbCircle
 10
884.7953028173
 20
843.1357165479
 30
0.0
 40
5.486479270455639
100
AcDbArc
 50
75.6815438811
 51
94.4723396601
  0
SPLINE
  5
216
330
1F
100
AcDbEntity
  8
0
  6
Continuous
 62
     8
370
    18
100
AcDbSpline
210
0.0
220
0.0
230
1.0
 70
     8
 71
     3
 72
    19
 73
    15
 74
     0
 42
0.000000001
 43
0.00000001
 40
0.0
 40
0.0
 40
0.0
 40
0.0
 40
0.51086558097851
 40
0.6773161886274646
 40
0.7897294814090617
 40
0.8649135704138805
 40
0.9149987759643776
 40
0.9638937301973759
 40
0.9805048002912542
 40
0.9864047265890656
 40
0.9923573643452023
 40
0.9937773259466397
 40
0.9978992913798035
 40
1.0
 40
1.0
 40
1.0
 40
1.0
 10
886.1521702563807
 20
848.4517644725929
 30
0.0
 10
886.1512206183617
 20
847.2726670507992
 30
0.0
 10
886.1499615685692
 20
845.7093952206237
 30
0.0
 10
886.148194725328
 20
844.2874941100283
 30
0.0
 10
886.1552848009245
 20
843.7055757992482
 30
0.0
 10
886.1723851428801
 20
843.3442724477175
 30
0.0
 10
886.2055728493001
 20
843.094282480178
 30
0.0
 10
886.24724701314
 20
842.9360945308124
 30
0.0
 10
886.315481948885
 20
842.8452621900014
 30
0.0
 10
886.3607699955023
 20
842.8139573482375
 30
0.0
 10
886.38967691475
 20
842.8021540462047
 30
0.0
 10
886.4188873112494
 20
842.7956620769133
 30
0.0
 10
886.440385780505
 20
842.7933470985474
 30
0.0
 10
886.4577527313021
 20
842.7939624407562
 30
0.0
 10
886.4636156292995
 20
842.7941701737457
 30
0.0
  0
ARC
  5
217
330
1F
100
AcDbEntity
  8
0
  6
Continuous
 62
     8
370
    18
100
AcDbCircle
 10
893.6445233688
 20
841.9964399372
 30
0.0
 40
7.22508197136178
100
AcDbArc
 50
173.6609778953
 51
174.8044317993
  0
SPLINE
  5
218
330
1F
100
AcDbEntity
  8
0
  6
Continuous
 62
     8
370
    18
100
AcDbSpline
210
0.0
220
0.0
230
1.0
 70
     8
 71
     3
 72
    17
 73
    13
 74
     0
 42
0.000000001
 43
0.00000001
 40
0.0
 40
0.0
 40
0.0
 40
0.0
 40
0.0045109817899508
 40
0.0089278415503381
 40
0.0130797684277637
 40
0.0177777921768911
 40
0.0339670776357914
 40
0.084060007251609
 40
0.3047425979556686
 40
0.7692822253148978
 40
0.8273200843747881
 40
1.0
 40
1.0
 40
1.0
 40
1.0
 10
806.4453755988071
 20
842.5756521322943
 30
0.0
 10
806.4324061077863
 20
842.5738883434832
 30
0.0
 10
806.4067377353088
 20
842.570397567469
 30
0.0
 10
806.3658617252154
 20
842.5721121032655
 30
0.0
 10
806.3285010351137
 20
842.5804330091154
 30
0.0
 10
806.2725710121938
 20
842.6051030605519
 30
0.0
 10
806.1880648813134
 20
842.6983152523632
 30
0.0
 10
806.0937898901743
 20
843.1022591936901
 30
0.0
 10
806.1265899952713
 20
844.29337256294
 30
0.0
 10
806.1272473119813
 20
845.8904850895132
 30
0.0
 10
806.1331730075334
 20
847.5771349264521
 30
0.0
 10
806.1347780155996
 20
848.175266804206
 30
0.0
 10
806.1359792783016
 20
848.6229365267675
 30
0.0
  0
ARC
  5
219
330
1F
100
AcDbEntity
  8
0
  6
Continuous
 62
     8
370
    18
100
AcDbCircle
 10
803.6804808702
 20
841.8524609131
 30
0.0
 40
2.857909795625265
100
AcDbArc
 50
11.7037763202
 51
14.6580100087
  0
ARC
  5
21A
330
1F
100
AcDbEntity
  8
0
  6
Continuous
 62
     8
370
    18
100
AcDbCircle
 10
804.6313808736
 20
843.4015623598
 30
0.0
 40
5.433835160388211
100
AcDbArc
 50
73.9250614362
 51
93.677055676
  0
ARC
  5
21B
330
1F
100
AcDbEntity
  8
0
  6
Continuous
 62
     8
370
    18
100
AcDbCircle
 10
897.5409681751
 20
841.852460913
 30
0.0
 40
2.857909796057543
100
AcDbArc
 50
165.3419899915
 51
168.2962236795
  0
SPLINE
  5
21C
330
1F
100
AcDbEntity
  8
0
  6
Continuous
 62
     8
370
    18
100
AcDbSpline
210
0.0
220
0.0
230
1.0
 70
     8
 71
     3
 72
    17
 73
    13
 74
     0
 42
0.000000001
 43
0.00000001
 40
0.0
 40
0.0
 40
0.0
 40
0.0
 40
0.0045109817899506
 40
0.0089278415503378
 40
0.0130797684277633
 40
0.0177777921768901
 40
0.0339670776357898
 40
0.0840600072516064
 40
0.3047425979556935
 40
0.7692822253149068
 40
0.8273200843747941
 40
1.0
 40
1.0
 40
1.0
 40
1.0
 10
894.7760734461029
 20
842.575652132293
 30
0.0
 10
894.789042937124
 20
842.573888343482
 30
0.0
 10
894.8147113096014
 20
842.5703975674678
 30
0.0
 10
894.8555873196949
 20
842.5721121032642
 30
0.0
 10
894.8929480097964
 20
842.5804330091142
 30
0.0
 10
894.9488780327164
 20
842.6051030605506
 30
0.0
 10
895.0333841635967
 20
842.698315252362
 30
0.0
 10
895.127659154736
 20
843.1022591936887
 30
0.0
 10
895.0948590496387
 20
844.29337256294
 30
0.0
 10
895.094201732929
 20
845.8904850895124
 30
0.0
 10
895.0882760373767
 20
847.5771349264515
 30
0.0
 10
895.0866710293107
 20
848.1752668042054
 30
0.0
 10
895.0854697666085
 20
848.6229365267669
 30
0.0
  0
ARC
  5
21D
330
1F
100
AcDbEntity
  8
0
  6
Continuous
 62
     8
370
    18
100
AcDbCircle
 10
896.5900681713
 20
843.4015623599
 30
0.0
 40
5.433835160320049
100
AcDbArc
 50
86.3229443242
 51
106.074938564
  0
SPLINE
  5
21E
330
1F
100
AcDbEntity
  8
0
  6
Continuous
 62
     8
370
    18
100
AcDbSpline
210
0.0
220
0.0
230
1.0
 70
     8
 71
     3
 72
    20
 73
    16
 74
     0
 42
0.000000001
 43
0.00000001
 40
0.0
 40
0.0
 40
0.0
 40
0.0
 40
0.0177553498927668
 40
0.0895541770723953
 40
0.1635124813712785
 40
0.250581900721475
 40
0.3150328805895233
 40
0.3805147797652292
 40
0.4675444081230327
 40
0.569441081332072
 40
0.675450331677593
 40
0.7871440412594481
 40
0.8785532165774701
 40
0.9388623767392651
 40
0.9999999999999999
 40
0.9999999999999999
 40
0.9999999999999999
 40
0.9999999999999999
 10
926.7492716576925
 20
849.7971376572398
 30
0.0
 10
926.7385677274921
 20
850.0462460163825
 30
0.0
 10
926.6845793991107
 20
851.3026951564792
 30
0.0
 10
926.7493617077914
 20
853.7858421137693
 30
0.0
 10
927.192370649794
 20
857.5817235873051
 30
0.0
 10
927.9472334642935
 20
861.4348666874786
 30
0.0
 10
928.8575250522696
 20
865.18868176076
 30
0.0
 10
929.8544914173426
 20
868.9398329395433
 30
0.0
 10
931.0583890218535
 20
873.27656988099
 30
0.0
 10
932.3343343197485
 20
878.0940405308378
 30
0.0
 10
933.6055109761433
 20
882.8329508856967
 30
0.0
 10
934.7972069825737
 20
886.7494187952557
 30
0.0
 10
935.8028024179257
 20
889.4296295880781
 30
0.0
 10
936.5327824600324
 20
891.1813124923956
 30
0.0
 10
936.8565693634123
 20
891.8995147430933
 30
0.0
 10
937.0195671897666
 20
892.2610655177681
 30
0.0
  0
ARC
  5
21F
330
1F
100
AcDbEntity
  8
0
  6
Continuous
 62
     8
370
    18
100
AcDbCircle
 10
927.3790518572
 20
845.9787164556
 30
0.0
 40
3.870008213485301
100
AcDbArc
 50
99.3655973717
 51
122.4620469832
  0
ARC
  5
220
330
1F
100
AcDbEntity
  8
0
  6
Continuous
 62
     8
370
    18
100
AcDbCircle
 10
929.769475304
 20
889.1858006885
 30
0.0
 40
7.875346730282277
100
AcDbArc
 50
22.4525517102
 51
22.9851555303
  0
SPLINE
  5
221
330
1F
100
AcDbEntity
  8
0
  6
Continuous
 62
     8
370
    18
100
AcDbSpline
210
0.0
220
0.0
230
1.0
 70
     8
 71
     3
 72
    19
 73
    15
 74
     0
 42
0.000000001
 43
0.00000001
 40
0.0
 40
0.0
 40
0.0
 40
0.0
 40
0.0812843755281371
 40
0.1625926981205907
 40
0.2503967158277937
 40
0.3382767484838723
 40
0.4242704765567142
 40
0.5102462209491132
 40
0.5965701789596967
 40
0.682906581972304
 40
0.7657398742054028
 40
0.8485711078275134
 40
0.9243009273350645
 40
1.0
 40
1.0
 40
1.0
 40
1.0
 10
926.8153289583998
 20
849.8066564424454
 30
0.0
 10
926.8064584706095
 20
850.9846148624965
 30
0.0
 10
926.7887148817081
 20
853.3408787391095
 30
0.0
 10
927.2682909115924
 20
857.4362974436532
 30
0.0
 10
928.1240437400612
 20
861.8141014052885
 30
0.0
 10
929.247787811992
 20
866.3514635654199
 30
0.0
 10
930.4638044293255
 20
870.823115606816
 30
0.0
 10
931.6472263007695
 20
875.1480870486441
 30
0.0
 10
932.7200167144141
 20
879.24244256574
 30
0.0
 10
933.7207174252521
 20
882.9396812035621
 30
0.0
 10
934.6936431039485
 20
886.1487757453029
 30
0.0
 10
935.6043650535321
 20
888.7536396426743
 30
0.0
 10
936.4418949962406
 20
890.8265574263016
 30
0.0
 10
936.8458858414713
 20
891.7379401686752
 30
0.0
 10
937.0478402499751
 20
892.1935390141182
 30
0.0
  0
ARC
  5
222
330
1F
100
AcDbEntity
  8
0
  6
Continuous
 62
     8
370
    18
100
AcDbCircle
 10
923.7110150326
 20
871.1156267551
 30
0.0
 40
21.53390305393487
100
AcDbArc
 50
278.1110275318
 51
278.2886032804
  0
SPLINE
  5
223
330
1F
100
AcDbEntity
  8
0
  6
Continuous
 62
     8
370
    18
100
AcDbSpline
210
0.0
220
0.0
230
1.0
 70
     8
 71
     3
 72
    20
 73
    16
 74
     0
 42
0.000000001
 43
0.00000001
 40
0.0
 40
0.0
 40
0.0
 40
0.0
 40
0.0734892725957272
 40
0.1488054069163635
 40
0.2291724603079964
 40
0.3115652575978909
 40
0.3969600311379815
 40
0.4847691432648291
 40
0.5707826311793048
 40
0.6591664434836095
 40
0.7461833123618619
 40
0.8361404262887483
 40
0.9035264557374448
 40
0.972851405441462
 40
1.0
 40
1.0
 40
1.0
 40
1.0
 10
939.9272221915865
 20
889.8694153294083
 30
0.0
 10
939.685479520526
 20
889.5285090637977
 30
0.0
 10
939.1959847239984
 20
888.8382219813069
 30
0.0
 10
938.1863410887765
 20
887.0961692372368
 30
0.0
 10
937.0590050510332
 20
884.80521788004
 30
0.0
 10
935.8895662070963
 20
881.882255439396
 30
0.0
 10
934.6667337819925
 20
878.4088353334367
 30
0.0
 10
933.3740608051365
 20
874.511604284408
 30
0.0
 10
931.946431525688
 20
870.3379179663115
 30
0.0
 10
930.4740577557033
 20
866.0499531393165
 30
0.0
 10
929.0985737082655
 20
861.6429724368364
 30
0.0
 10
928.1106738614188
 20
857.6099845601784
 30
0.0
 10
927.5674864726222
 20
854.0186299034733
 30
0.0
 10
927.43624626242
 20
851.5712138623701
 30
0.0
 10
927.4875831960529
 20
850.2486069025849
 30
0.0
 10
927.5020299089599
 20
849.8764124280689
 30
0.0
  0
ARC
  5
224
330
1F
100
AcDbEntity
  8
0
  6
Continuous
 62
     8
370
    18
100
AcDbCircle
 10
927.6374105231
 20
845.1287475503
 30
0.0
 40
4.74959468824092
100
AcDbArc
 50
91.6333580123
 51
99.9672112785
  0
ARC
  5
225
330
1F
100
AcDbEntity
  8
0
  6
Continuous
 62
     8
370
    18
100
AcDbCircle
 10
940.0401375392
 20
892.9550179132
 30
0.0
 40
3.0876679194138
100
AcDbArc
 50
194.2775571615
 51
267.9042384386
  0
SPLINE
  5
226
330
1F
100
AcDbEntity
  8
0
  6
Continuous
 62
     8
370
    18
100
AcDbSpline
210
0.0
220
0.0
230
1.0
 70
     8
 71
     3
 72
     9
 73
     5
 74
     0
 42
0.000000001
 43
0.00000001
 40
0.0
 40
0.0
 40
0.0
 40
0.0
 40
0.4955319650024669
 40
1.0
 40
1.0
 40
1.0
 40
1.0
 10
940.508558948983
 20
890.5350816168896
 30
0.0
 10
940.4623038404064
 20
890.5069940980624
 30
0.0
 10
940.3689594916187
 20
890.4503125501282
 30
0.0
 10
940.075342552105
 20
890.0641978523034
 30
0.0
 10
939.9272221915865
 20
889.8694153294083
 30
0.0
  0
SPLINE
  5
227
330
1F
100
AcDbEntity
  8
0
  6
Continuous
 62
     8
370
    18
100
AcDbSpline
210
0.0
220
0.0
230
1.0
 70
     8
 71
     3
 72
     9
 73
     5
 74
     0
 42
0.000000001
 43
0.00000001
 40
0.0
 40
0.0
 40
0.0
 40
0.0
 40
0.8724809942930267
 40
1.0
 40
1.0
 40
1.0
 40
1.0
 10
923.8394263109067
 20
841.3056528372458
 30
0.0
 10
923.7729510192273
 20
840.9552415703439
 30
0.0
 10
923.6967599135023
 20
840.5536153238194
 30
0.0
 10
923.6204548662171
 20
840.5371777233564
 30
0.0
 10
923.6107245224568
 20
840.5350816168892
 30
0.0
  0
SPLINE
  5
228
330
1F
100
AcDbEntity
  8
0
  6
Continuous
 62
     8
370
    18
100
AcDbSpline
210
0.0
220
0.0
230
1.0
 70
     8
 71
     3
 72
    13
 73
     9
 74
     0
 42
0.000000001
 43
0.00000001
 40
0.0
 40
0.0
 40
0.0
 40
0.0
 40
0.1645623234208167
 40
0.332800939901234
 40
0.5301300948724874
 40
0.7327153280276614
 40
0.9440961992823407
 40
0.9999999999999999
 40
0.9999999999999999
 40
0.9999999999999999
 40
0.9999999999999999
 10
927.5020299089599
 20
849.8764124280689
 30
0.0
 10
927.5125815830141
 20
849.1807162971099
 30
0.0
 10
927.5339206536461
 20
847.7737823072637
 30
0.0
 10
927.2021925887218
 20
845.8288197170061
 30
0.0
 10
926.5385785511554
 20
844.0562736346366
 30
0.0
 10
925.5583102484295
 20
842.561636649576
 30
0.0
 10
924.3689320930888
 20
841.7482344615222
 30
0.0
 10
923.9310180235675
 20
841.3822087698225
 30
0.0
 10
923.8394263109067
 20
841.3056528372458
 30
0.0
  0
SPLINE
  5
229
330
1F
100
AcDbEntity
  8
0
  6
Continuous
 62
     8
370
    18
100
AcDbSpline
210
0.0
220
0.0
230
1.0
 70
     8
 71
     3
 72
    12
 73
     8
 74
     0
 42
0.000000001
 43
0.00000001
 40
0.0
 40
0.0
 40
0.0
 40
0.0
 40
0.2584254149750769
 40
0.5253727836647166
 40
0.632563733547195
 40
0.8141005554129509
 40
1.0
 40
1.0
 40
1.0
 40
1.0
 10
923.6107245224582
 20
841.3044859655421
 30
0.0
 10
924.1170301694144
 20
841.6867115426038
 30
0.0
 10
925.1463376280179
 20
842.4637671407468
 30
0.0
 10
925.9924486777862
 20
844.0788433457644
 30
0.0
 10
926.5036677576271
 20
845.8051328136738
 30
0.0
 10
926.7858845484265
 20
847.4871552012536
 30
0.0
 10
926.761572176015
 20
849.0210726988321
 30
0.0
 10
926.7492716576925
 20
849.7971376572398
 30
0.0
  0
SPLINE
  5
22A
330
1F
100
AcDbEntity
  8
0
  6
Continuous
 62
     8
370
    18
100
AcDbSpline
210
0.0
220
0.0
230
1.0
 70
     8
 71
     3
 72
    10
 73
     6
 74
     0
 42
0.000000001
 43
0.00000001
 40
0.0
 40
0.0
 40
0.0
 40
0.0
 40
0.5660710179693638
 40
0.9956845546965855
 40
0.9999999999999999
 40
0.9999999999999999
 40
0.9999999999999999
 40
0.9999999999999999
 10
923.6107245224582
 20
841.3044859655421
 30
0.0
 10
922.9365587164206
 20
841.0545660995944
 30
0.0
 10
921.7507419918966
 20
840.6149722279125
 30
0.0
 10
920.3139859599537
 20
840.5353978776316
 30
0.0
 10
919.6639713570755
 20
840.5350847311468
 30
0.0
 10
919.6575069295279
 20
840.5350816168892
 30
0.0
  0
SPLINE
  5
22B
330
1F
100
AcDbEntity
  8
0
  6
Continuous
 62
     8
370
    18
100
AcDbSpline
210
0.0
220
0.0
230
1.0
 70
     8
 71
     3
 72
    14
 73
    10
 74
     0
 42
0.000000001
 43
0.00000001
 40
0.0
 40
0.0
 40
0.0
 40
0.0
 40
0.0665232667018131
 40
0.1346138509585629
 40
0.2705263731886024
 40
0.4679094570369234
 40
0.6697252416072472
 40
0.8332896955030695
 40
1.0
 40
1.0
 40
1.0
 40
1.0
 10
923.7990671717687
 20
841.3057140000622
 30
0.0
 10
923.8862051199994
 20
841.3973707378933
 30
0.0
 10
924.0625340250208
 20
841.5828436867945
 30
0.0
 10
924.5971741485216
 20
842.0081613878475
 30
0.0
 10
925.2669939078799
 20
842.7654349873078
 30
0.0
 10
926.0255536973772
 20
844.0637004205988
 30
0.0
 10
926.5592238462067
 20
845.8014491949758
 30
0.0
 10
926.8409934032048
 20
847.7290146512619
 30
0.0
 10
926.8239379241971
 20
849.1097254449023
 30
0.0
 10
926.8153289583998
 20
849.8066564424454
 30
0.0
  0
ARC
  5
22C
330
1F
100
AcDbEntity
  8
0
  6
Continuous
 62
     8
370
    18
100
AcDbCircle
 10
923.610724726
 20
855.7480477604
 30
0.0
 40
14.44356179489614
100
AcDbArc
 50
269.9999991926
 51
270.7471517929
  0
ARC
  5
22D
330
1F
100
AcDbEntity
  8
0
  6
Continuous
 62
     8
370
    18
100
AcDbCircle
 10
923.8145611645
 20
838.2138400603
 30
0.0
 40
3.091912761216392
100
AcDbArc
 50
89.5392226712
 51
90.2871180966
  0
LINE
  5
22E
330
1F
100
AcDbEntity
  8
0
  6
Continuous
 62
     8
370
    18
100
AcDbLine
 10
923.6107245225
 20
840.5350816169
 30
0.0
 11
923.6107245225
 21
841.3044859655
 31
0.0
  0
SPLINE
  5
22F
330
1F
100
AcDbEntity
  8
0
  6
Continuous
 62
     8
370
    18
100
AcDbSpline
210
0.0
220
0.0
230
1.0
 70
     8
 71
     3
 72
     9
 73
     5
 74
     0
 42
0.000000001
 43
0.00000001
 40
0.0
 40
0.0
 40
0.0
 40
0.0
 40
0.4953932977280082
 40
1.0
 40
1.0
 40
1.0
 40
1.0
 10
937.0478402499751
 20
892.1935390141182
 30
0.0
 10
937.1671152020729
 20
892.4530121128231
 30
0.0
 10
937.407883401087
 20
892.9767840328204
 30
0.0
 10
937.485075604897
 20
893.1359605659621
 30
0.0
 10
937.5240273083027
 20
893.2162821114298
 30
0.0
  0
LINE
  5
230
330
1F
100
AcDbEntity
  8
0
  6
Continuous
 62
     8
370
    18
100
AcDbLine
 10
358.6107245225
 20
915.2588221385
 30
0.0
 11
360.6107245225
 21
915.2588221385
 31
0.0
  0
LINE
  5
231
330
1F
100
AcDbEntity
  8
0
  6
Continuous
 62
     8
370
    18
100
AcDbLine
 10
360.6107245225
 20
913.4462065644
 30
0.0
 11
358.6107245225
 21
913.4462065644
 31
0.0
  0
LINE
  5
232
330
1F
100
AcDbEntity
  8
0
  6
Continuous
 62
     8
370
    18
100
AcDbLine
 10
358.6107245225
 20
906.1879072798
 30
0.0
 11
360.6107245225
 21
906.1879072798
 31
0.0
  0
LINE
  5
233
330
1F
100
AcDbEntity
  8
0
  6
Continuous
 62
     8
370
    18
100
AcDbLine
 10
360.6107245225
 20
904.3752917058
 30
0.0
 11
358.6107245225
 21
904.3752917058
 31
0.0
  0
LINE
  5
234
330
1F
100
AcDbEntity
  8
0
  6
Continuous
 62
     8
370
    18
100
AcDbLine
 10
358.6107245225
 20
870.0846816169
 30
0.0
 11
360.6107245225
 21
870.0846816169
 31
0.0
  0
LINE
  5
235
330
1F
100
AcDbEntity
  8
0
  6
Continuous
 62
     8
370
    18
100
AcDbLine
 10
1340.6107245225
 20
915.2588221385
 30
0.0
 11
1342.6107245225
 21
915.2588221385
 31
0.0
  0
LINE
  5
236
330
1F
100
AcDbEntity
  8
0
  6
Continuous
 62
     8
370
    18
100
AcDbLine
 10
1342.6107245225
 20
913.4462065644
 30
0.0
 11
1340.6107245225
 21
913.4462065644
 31
0.0
  0
LINE
  5
237
330
1F
100
AcDbEntity
  8
0
  6
Continuous
 62
     8
370
    18
100
AcDbLine
 10
1340.6107245225
 20
906.1879072798
 30
0.0
 11
1342.6107245225
 21
906.1879072798
 31
0.0
  0
LINE
  5
238
330
1F
100
AcDbEntity
  8
0
  6
Continuous
 62
     8
370
    18
100
AcDbLine
 10
1342.6107245225
 20
904.3752917058
 30
0.0
 11
1340.6107245225
 21
904.3752917058
 31
0.0
  0
LINE
  5
239
330
1F
100
AcDbEntity
  8
0
  6
Continuous
 62
     8
370
    18
100
AcDbLine
 10
1340.6107245225
 20
870.0846816169
 30
0.0
 11
1342.6107245225
 21
870.0846816169
 31
0.0
  0
LINE
  5
23A
330
1F
100
AcDbEntity
  8
0
  6
Continuous
 62
     8
370
    18
100
AcDbLine
 10
338.1107245225
 20
921.9846816169
 30
0.0
 11
338.1107245225
 21
920.9846816169
 31
0.0
  0
LINE
  5
23B
330
1F
100
AcDbEntity
  8
0
  6
Continuous
 62
     8
370
    18
100
AcDbLine
 10
358.6107245225
 20
922.9846816169
 30
0.0
 11
328.1107245225
 21
922.9846816169
 31
0.0
  0
LINE
  5
23C
330
1F
100
AcDbEntity
  8
0
  6
Continuous
 62
     8
370
    18
100
AcDbLine
 10
1363.1107245225
 20
920.9846816169
 30
0.0
 11
1363.1107245225
 21
921.9846816169
 31
0.0
  0
LINE
  5
23D
330
1F
100
AcDbEntity
  8
0
  6
Continuous
 62
     8
370
    18
100
AcDbLine
 10
1373.1107245225
 20
922.9846816169
 30
0.0
 11
1342.6107245225
 21
922.9846816169
 31
0.0
  0
SPLINE
  5
23E
330
1F
100
AcDbEntity
  8
0
  6
Continuous
 62
     7
370
    35
100
AcDbSpline
210
0.0
220
0.0
230
1.0
 70
     8
 71
     3
 72
    21
 73
    17
 74
     0
 42
0.000000001
 43
0.00000001
 40
0.0
 40
0.0
 40
0.0
 40
0.0
 40
0.0194297446418248
 40
0.1063134160558094
 40
0.1971827435477511
 40
0.2431269965634031
 40
0.287760106294489
 40
0.3091647742164754
 40
0.3297204036296609
 40
0.3691429066058695
 40
0.4450527365661776
 40
0.5209828835693018
 40
0.6006991125038132
 40
0.7803290563725497
 40
0.9937101053114314
 40
1.0
 40
1.0
 40
1.0
 40
1.0
 10
1656.528961427111
 20
903.2260398626617
 30
0.0
 10
1656.491947931309
 20
903.3151616504064
 30
0.0
 10
1656.289421791542
 20
903.8028078791548
 30
0.0
 10
1655.657536233706
 20
904.5772410440803
 30
0.0
 10
1654.795676761772
 20
905.2859983700027
 30
0.0
 10
1654.017528273887
 20
905.7312143297268
 30
0.0
 10
1653.485796850095
 20
905.9460655670869
 30
0.0
 10
1653.223934704854
 20
906.2922185892945
 30
0.0
 10
1653.098575828123
 20
906.6669995063319
 30
0.0
 10
1653.147199280266
 20
907.2946812657362
 30
0.0
 10
1653.120848300853
 20
908.0916851558242
 30
0.0
 10
1653.129282757955
 20
908.8747547374538
 30
0.0
 10
1653.126231819706
 20
909.7166916123183
 30
0.0
 10
1653.127997662398
 20
910.3025880923265
 30
0.0
 10
1653.12744715385
 20
910.4971637520058
 30
0.0
 10
1653.127449556108
 20
910.4386409280138
 30
0.0
 10
1653.127449624892
 20
910.4369652289263
 30
0.0
  0
ARC
  5
23F
330
1F
100
AcDbEntity
  8
0
  6
Continuous
 62
     7
370
    35
100
AcDbCircle
 10
1604.690873701
 20
855.5350370489
 30
0.0
 40
14.99995543245399
100
AcDbArc
 50
235.2278938985
 51
269.9820874844
  0
ARC
  5
240
330
1F
100
AcDbEntity
  8
0
  6
Continuous
 62
     7
370
    35
100
AcDbCircle
 10
1644.5640175228
 20
855.5350364391
 30
0.0
 40
14.99995482259986
100
AcDbArc
 50
270.017911725
 51
305.1236860193
  0
SPLINE
  5
241
330
1F
100
AcDbEntity
  8
0
  6
Continuous
 62
     7
370
    35
100
AcDbSpline
210
0.0
220
0.0
230
1.0
 70
     8
 71
     3
 72
    14
 73
    10
 74
     0
 42
0.000000001
 43
0.00000001
 40
0.0
 40
0.0
 40
0.0
 40
0.0
 40
0.1910307360243505
 40
0.5100956344248855
 40
0.6698730214117488
 40
0.7584351360390229
 40
0.8292863577715845
 40
0.9200950248363283
 40
1.0
 40
1.0
 40
1.0
 40
1.0
 10
1656.985525473845
 20
902.6394226478523
 30
0.0
 10
1656.939061085989
 20
902.6842041530684
 30
0.0
 10
1656.814990573071
 20
902.8037809855151
 30
0.0
 10
1656.681431525885
 20
902.9863717654497
 30
0.0
 10
1656.579317245868
 20
903.143103423172
 30
0.0
 10
1656.538208523953
 20
903.2127445415188
 30
0.0
 10
1656.519622770219
 20
903.2454641991696
 30
0.0
 10
1656.510404362514
 20
903.2623457288066
 30
0.0
 10
1656.511079400178
 20
903.261094405086
 30
0.0
 10
1656.511395361263
 20
903.2605087050242
 30
0.0
  0
SPLINE
  5
242
330
1F
100
AcDbEntity
  8
0
  6
Continuous
 62
     7
370
    35
100
AcDbSpline
210
0.0
220
0.0
230
1.0
 70
     8
 71
     3
 72
    14
 73
    10
 74
     0
 42
0.000000001
 43
0.00000001
 40
0.0
 40
0.0
 40
0.0
 40
0.0
 40
0.0318510699561632
 40
0.1445183584978347
 40
0.2397810598334519
 40
0.3260834741554738
 40
0.5119178317107225
 40
0.8180500484405158
 40
1.0
 40
1.0
 40
1.0
 40
1.0
 10
1592.742731017255
 20
903.25888309758
 30
0.0
 10
1592.743574560662
 20
903.2605316581398
 30
0.0
 10
1592.747401983371
 20
903.2680116977841
 30
0.0
 10
1592.738338907694
 20
903.2508289576742
 30
0.0
 10
1592.717274163701
 20
903.2136346446753
 30
0.0
 10
1592.664755016307
 20
903.1251964346898
 30
0.0
 10
1592.551614132572
 20
902.9559959023037
 30
0.0
 10
1592.409209862361
 20
902.7652907920242
 30
0.0
 10
1592.280492762114
 20
902.6497339277443
 30
0.0
 10
1592.232508894486
 20
902.6066560051646
 30
0.0
  0
SPLINE
  5
243
330
1F
100
AcDbEntity
  8
0
  6
Continuous
 62
     7
370
    35
100
AcDbSpline
210
0.0
220
0.0
230
1.0
 70
     8
 71
     3
 72
    12
 73
     8
 74
     0
 42
0.000000001
 43
0.00000001
 40
0.0
 40
0.0
 40
0.0
 40
0.0
 40
0.1423628141111915
 40
0.2495218665546489
 40
0.368881939970342
 40
0.6085285389127446
 40
0.9999999999999999
 40
0.9999999999999999
 40
0.9999999999999999
 40
0.9999999999999999
 10
1652.274847830282
 20
842.6834045262556
 30
0.0
 10
1652.275292793745
 20
842.683663796464
 30
0.0
 10
1652.276072689216
 20
842.6841182240247
 30
0.0
 10
1652.291523378556
 20
842.6929404305794
 30
0.0
 10
1652.324331079578
 20
842.7110450395528
 30
0.0
 10
1652.391785964696
 20
842.7484900561341
 30
0.0
 10
1652.453428193767
 20
842.7728981148049
 30
0.0
 10
1652.491663787084
 20
842.7880380054137
 30
0.0
  0
SPLINE
  5
244
330
1F
100
AcDbEntity
  8
0
  6
Continuous
 62
     7
370
    35
100
AcDbSpline
210
0.0
220
0.0
230
1.0
 70
     8
 71
     3
 72
    13
 73
     9
 74
     0
 42
0.000000001
 43
0.00000001
 40
0.0
 40
0.0
 40
0.0
 40
0.0
 40
0.231264538587835
 40
0.5779681623840155
 40
0.7146434852254794
 40
0.8157376924336861
 40
0.9213272835674963
 40
1.0
 40
1.0
 40
1.0
 40
1.0
 10
1596.780043402586
 20
842.7848993144523
 30
0.0
 10
1596.801048178591
 20
842.7757951954924
 30
0.0
 10
1596.853542572515
 20
842.75304250311
 30
0.0
 10
1596.916288690956
 20
842.7188763235661
 30
0.0
 10
1596.958472202561
 20
842.695680972892
 30
0.0
 10
1596.973841047502
 20
842.6869677373969
 30
0.0
 10
1596.980461797103
 20
842.6831672102004
 30
0.0
 10
1596.980051581809
 20
842.6834036247667
 30
0.0
 10
1596.979876436105
 20
842.6835045644345
 30
0.0
  0
LINE
  5
245
330
1F
100
AcDbEntity
  8
0
  6
Continuous
 62
     7
370
    35
100
AcDbLine
 10
1596.7912531675
 20
842.7976146582
 30
0.0
 11
1596.6649653306
 21
842.8763162246
 31
0.0
  0
ARC
  5
246
330
1F
100
AcDbEntity
  8
0
  6
Continuous
 62
     7
370
    35
100
AcDbCircle
 10
1656.1274455084
 20
853.5350816169
 30
0.0
 40
13.00000000000011
100
AcDbArc
 50
270.0
 51
360.0
  0
LINE
  5
247
330
1F
100
AcDbEntity
  8
0
  6
Continuous
 62
     7
370
    35
100
AcDbLine
 10
1644.1261450571
 20
840.5350816169
 30
0.0
 11
1656.1274455084
 21
840.5350816169
 31
0.0
  0
SPLINE
  5
248
330
1F
100
AcDbEntity
  8
0
  6
Continuous
 62
     7
370
    35
100
AcDbSpline
210
0.0
220
0.0
230
1.0
 70
     8
 71
     3
 72
    10
 73
     6
 74
     0
 42
0.000000001
 43
0.00000001
 40
0.0
 40
0.0
 40
0.0
 40
0.0
 40
0.2439500855834794
 40
0.6120271290531064
 40
1.0
 40
1.0
 40
1.0
 40
1.0
 10
1653.127465148994
 20
907.1200495545833
 30
0.0
 10
1653.127463727317
 20
907.598878221727
 30
0.0
 10
1653.127460160583
 20
908.8001736988712
 30
0.0
 10
1653.127453886769
 20
910.1671259899243
 30
0.0
 10
1653.127452434364
 20
910.7076880221458
 30
0.0
 10
1653.127451689051
 20
910.9850816168896
 30
0.0
  0
LINE
  5
249
330
1F
100
AcDbEntity
  8
0
  6
Continuous
 62
     7
370
    35
100
AcDbLine
 10
1690.1274455084
 20
920.9846816169
 30
0.0
 11
1690.1024455084
 21
920.9846816169
 31
0.0
  0
LINE
  5
24A
330
1F
100
AcDbEntity
  8
0
  6
Continuous
 62
     7
370
    35
100
AcDbLine
 10
1690.1274455084
 20
921.9846816169
 30
0.0
 11
1690.1024455084
 21
921.9846816169
 31
0.0
  0
LINE
  5
24B
330
1F
100
AcDbEntity
  8
0
  6
Continuous
 62
     7
370
    35
100
AcDbLine
 10
1690.1274455084
 20
920.9846816169
 30
0.0
 11
1690.1274455084
 21
921.9846816169
 31
0.0
  0
ARC
  5
24C
330
1F
100
AcDbEntity
  8
0
  6
Continuous
 62
     7
370
    35
100
AcDbCircle
 10
1660.6274455084
 20
922.9846816169
 30
0.0
 40
1.000000000000114
100
AcDbArc
 50
180.0
 51
270.0
  0
LINE
  5
24D
330
1F
100
AcDbEntity
  8
0
  6
Continuous
 62
     7
370
    35
100
AcDbLine
 10
1657.6274455084
 20
919.6466001062
 30
0.0
 11
1657.6274455084
 21
920.9846816169
 31
0.0
  0
LINE
  5
24E
330
1F
100
AcDbEntity
  8
0
  6
Continuous
 62
     7
370
    35
100
AcDbLine
 10
1575.1024455084
 20
964.4846816169
 30
0.0
 11
1575.1274455084
 21
964.4846816169
 31
0.0
  0
LINE
  5
24F
330
1F
100
AcDbEntity
  8
0
  6
Continuous
 62
     7
370
    35
100
AcDbLine
 10
1575.1274455084
 20
934.9846816169
 30
0.0
 11
1575.1274455084
 21
964.4846816169
 31
0.0
  0
ARC
  5
250
330
1F
100
AcDbEntity
  8
0
  6
Continuous
 62
     7
370
    35
100
AcDbCircle
 10
1576.1274455084
 20
934.9846816169
 30
0.0
 40
1.0
100
AcDbArc
 50
180.0
 51
270.0
  0
LINE
  5
251
330
1F
100
AcDbEntity
  8
0
  6
Continuous
 62
     7
370
    35
100
AcDbLine
 10
1591.6274455084
 20
920.9846816169
 30
0.0
 11
1591.6274455084
 21
919.6466001062
 31
0.0
  0
LWPOLYLINE
  5
252
330
1F
100
AcDbEntity
  8
0
  6
Continuous
 62
     7
370
    35
100
AcDbPolyline
 90
        3
 70
   128
 43
0.0
 10
1591.6274455084
 20
919.6466001062
 10
1591.6631577414
 20
919.2703374736
 10
1591.7274455084
 20
919.0221003063
  0
ARC
  5
253
330
1F
100
AcDbEntity
  8
0
  6
Continuous
 62
     7
370
    35
100
AcDbCircle
 10
1655.6274455084
 20
919.6466001062
 30
0.0
 40
2.000000000000069
100
AcDbArc
 50
337.6683549908
 51
0.0
  0
LINE
  5
254
330
1F
100
AcDbEntity
  8
0
  6
Continuous
 62
     7
370
    35
100
AcDbLine
 10
1652.6274455084
 20
911.7230894748
 30
0.0
 11
1652.6274455084
 21
910.9850816169
 31
0.0
  0
LINE
  5
255
330
1F
100
AcDbEntity
  8
0
  6
Continuous
 62
     7
370
    35
100
AcDbLine
 10
1596.6274455084
 20
911.6997740919
 30
0.0
 11
1596.6274455084
 21
910.9850816169
 31
0.0
  0
LINE
  5
256
330
1F
100
AcDbEntity
  8
0
  6
Continuous
 62
     7
370
    35
100
AcDbLine
 10
1596.6274455084
 20
910.9850816169
 30
0.0
 11
1598.1601084672
 21
910.9850816169
 31
0.0
  0
LINE
  5
257
330
1F
100
AcDbEntity
  8
0
  6
Continuous
 62
     7
370
    35
100
AcDbLine
 10
1651.0447825496
 20
910.9850816169
 30
0.0
 11
1652.6261913843
 21
910.9850816169
 31
0.0
  0
SPLINE
  5
258
330
1F
100
AcDbEntity
  8
0
  6
Continuous
 62
     7
370
    35
100
AcDbSpline
210
0.0
220
0.0
230
1.0
 70
     8
 71
     3
 72
    12
 73
     8
 74
     0
 42
0.000000001
 43
0.00000001
 40
0.0
 40
0.0
 40
0.0
 40
0.0
 40
0.0000113964157658
 40
0.0165615426249112
 40
0.2254762501766455
 40
0.6569695733823875
 40
1.0
 40
1.0
 40
1.0
 40
1.0
 10
1656.520072759755
 20
902.9411512215481
 30
0.0
 10
1656.520077951061
 20
902.941137412893
 30
0.0
 10
1656.527622081298
 20
902.9210703466706
 30
0.0
 10
1656.631679047352
 20
902.6443713677066
 30
0.0
 10
1656.984016840646
 20
901.7081356732452
 30
0.0
 10
1657.563875663153
 20
900.1331546262326
 30
0.0
 10
1657.998657724662
 20
898.8813902714568
 30
0.0
 10
1658.191219251768
 20
898.3269937655507
 30
0.0
  0
SPLINE
  5
259
330
1F
100
AcDbEntity
  8
0
  6
Continuous
 62
     7
370
    35
100
AcDbSpline
210
0.0
220
0.0
230
1.0
 70
     8
 71
     3
 72
    15
 73
    11
 74
     0
 42
0.000000001
 43
0.00000001
 40
0.0
 40
0.0
 40
0.0
 40
0.0
 40
0.1214527241786875
 40
0.2436356162157024
 40
0.3679634748124441
 40
0.492999645184968
 40
0.618586543380512
 40
0.7450337263104021
 40
0.8719902588119044
 40
1.0
 40
1.0
 40
1.0
 40
1.0
 10
1661.365799556961
 20
887.5480433504722
 30
0.0
 10
1661.697245755219
 20
886.0746565955313
 30
0.0
 10
1662.362130790125
 20
883.1190251562897
 30
0.0
 10
1662.926835769175
 20
878.5740711620548
 30
0.0
 10
1663.188450449102
 20
873.9603399542641
 30
0.0
 10
1663.094484010432
 20
869.2962319750666
 30
0.0
 10
1662.631334428115
 20
864.6272123257445
 30
0.0
 10
1661.769859942792
 20
859.9921877765133
 30
0.0
 10
1660.529666321072
 20
855.4066813262052
 30
0.0
 10
1659.350776428756
 20
852.4626523013851
 30
0.0
 10
1658.758896617279
 20
850.9845572260488
 30
0.0
  0
SPLINE
  5
25A
330
1F
100
AcDbEntity
  8
0
  6
Continuous
 62
     7
370
    35
100
AcDbSpline
210
0.0
220
0.0
230
1.0
 70
    24
 71
     3
 72
    10
 73
     6
 74
     0
 42
0.000000001
 43
0.00000001
 40
0.0
 40
0.0
 40
0.0
 40
0.0
 40
0.1892744005188161
 40
0.5530594203474322
 40
1.0
 40
1.0
 40
1.0
 40
1.0
 10
1624.627445508359
 20
880.3137335435313
 30
0.0
 10
1624.627445508359
 20
879.7834802846985
 30
0.0
 10
1624.627445508359
 20
878.23408132127
 30
0.0
 10
1624.627445508359
 20
875.4217401668529
 30
0.0
 10
1624.627445508359
 20
873.1511320041596
 30
0.0
 10
1624.627445508359
 20
871.8993805742707
 30
0.0
  0
SPLINE
  5
25B
330
1F
100
AcDbEntity
  8
0
  6
Continuous
 62
     7
370
    35
100
AcDbSpline
210
0.0
220
0.0
230
1.0
 70
    24
 71
     3
 72
    10
 73
     6
 74
     0
 42
0.000000001
 43
0.00000001
 40
0.0
 40
0.0
 40
0.0
 40
0.0
 40
0.3006654806480862
 40
0.6482485604421757
 40
1.0
 40
1.0
 40
1.0
 40
1.0
 10
1624.627445508359
 20
868.0846816168901
 30
0.0
 10
1624.627445508359
 20
866.0798998382155
 30
0.0
 10
1624.627445508359
 20
861.7574984131323
 30
0.0
 10
1624.627445508359
 20
855.2696373114002
 30
0.0
 10
1624.627445508359
 20
850.9791290084398
 30
0.0
 10
1624.627445508359
 20
848.8210881421035
 30
0.0
  0
SPLINE
  5
25C
330
1F
100
AcDbEntity
  8
0
  6
Continuous
 62
     7
370
    35
100
AcDbSpline
210
0.0
220
0.0
230
1.0
 70
    24
 71
     3
 72
    13
 73
     9
 74
     0
 42
0.000000001
 43
0.00000001
 40
0.0
 40
0.0
 40
0.0
 40
0.0
 40
0.3691963150658381
 40
0.7482499823834028
 40
0.8262738878666137
 40
0.9040766895823263
 40
0.9808985752244036
 40
1.0
 40
1.0
 40
1.0
 40
1.0
 10
1653.127445508358
 20
910.9850816168899
 30
0.0
 10
1653.139271930312
 20
910.98508161689
 30
0.0
 10
1653.16324053362
 20
910.98508161689
 30
0.0
 10
1653.028805996617
 20
910.9850816168897
 30
0.0
 10
1653.193007320345
 20
910.98508161689
 30
0.0
 10
1652.877988620709
 20
910.9850816168895
 30
0.0
 10
1652.077952688661
 20
910.9850816168899
 30
0.0
 10
1651.216354530691
 20
910.98508161689
 30
0.0
 10
1651.044782549598
 20
910.98508161689
 30
0.0
  0
SPLINE
  5
25D
330
1F
100
AcDbEntity
  8
0
  6
Continuous
 62
     7
370
    35
100
AcDbSpline
210
0.0
220
0.0
230
1.0
 70
     8
 71
     3
 72
    12
 73
     8
 74
     0
 42
0.000000001
 43
0.00000001
 40
0.0
 40
0.0
 40
0.0
 40
0.0
 40
0.000011396415745
 40
0.0165615426248907
 40
0.2254762501766299
 40
0.6569695733823796
 40
1.0
 40
1.0
 40
1.0
 40
1.0
 10
1592.734818256963
 20
902.9411512215474
 30
0.0
 10
1592.734813065656
 20
902.9411374128923
 30
0.0
 10
1592.72726893541
 20
902.9210703466416
 30
0.0
 10
1592.623211969423
 20
902.6443713678826
 30
0.0
 10
1592.270874176016
 20
901.7081356730788
 30
0.0
 10
1591.691015353577
 20
900.1331546262725
 30
0.0
 10
1591.256233292059
 20
898.8813902714686
 30
0.0
 10
1591.06367176495
 20
898.32699376555
 30
0.0
  0
SPLINE
  5
25E
330
1F
100
AcDbEntity
  8
0
  6
Continuous
 62
     7
370
    35
100
AcDbSpline
210
0.0
220
0.0
230
1.0
 70
     8
 71
     3
 72
     9
 73
     5
 74
     0
 42
0.000000001
 43
0.00000001
 40
0.0
 40
0.0
 40
0.0
 40
0.0
 40
0.1562903953760564
 40
1.0
 40
1.0
 40
1.0
 40
1.0
 10
1592.744114043713
 20
903.2607519199158
 30
0.0
 10
1592.749909397578
 20
903.2727449580748
 30
0.0
 10
1592.78699007583
 20
903.349480563805
 30
0.0
 10
1592.792890692965
 20
903.3550544411381
 30
0.0
 10
1592.797869100315
 20
903.3597571749791
 30
0.0
  0
SPLINE
  5
25F
330
1F
100
AcDbEntity
  8
0
  6
Continuous
 62
     7
370
    35
100
AcDbSpline
210
0.0
220
0.0
230
1.0
 70
     8
 71
     3
 72
    11
 73
     7
 74
     0
 42
0.000000001
 43
0.00000001
 40
0.0
 40
0.0
 40
0.0
 40
0.0
 40
0.0402999249220416
 40
0.2187640754573935
 40
0.4992077406778274
 40
1.0
 40
1.0
 40
1.0
 40
1.0
 10
1596.106794403067
 20
906.8780367249801
 30
0.0
 10
1596.114370229368
 20
906.9327509733438
 30
0.0
 10
1596.155494837901
 20
907.2297617489414
 30
0.0
 10
1596.109716804534
 20
907.9162659195796
 30
0.0
 10
1596.137548642257
 20
909.2287807568507
 30
0.0
 10
1596.131392045037
 20
910.2990265934371
 30
0.0
 10
1596.127445508358
 20
910.9850816168899
 30
0.0
  0
SPLINE
  5
260
330
1F
100
AcDbEntity
  8
0
  6
Continuous
 62
     7
370
    35
100
AcDbSpline
210
0.0
220
0.0
230
1.0
 70
    24
 71
     3
 72
    13
 73
     9
 74
     0
 42
0.000000001
 43
0.00000001
 40
0.0
 40
0.0
 40
0.0
 40
0.0
 40
0.369905629579894
 40
0.749687549745234
 40
0.8278613578313265
 40
0.9058136373566468
 40
0.9827831162337024
 40
1.0
 40
1.0
 40
1.0
 40
1.0
 10
1596.127445508358
 20
910.9850816168899
 30
0.0
 10
1596.115541281026
 20
910.98508161689
 30
0.0
 10
1596.091414989597
 20
910.9850816168902
 30
0.0
 10
1596.226734129627
 20
910.9850816168903
 30
0.0
 10
1596.061452574898
 20
910.9850816168906
 30
0.0
 10
1596.378571441467
 20
910.9850816168897
 30
0.0
 10
1597.163963927541
 20
910.9850816168899
 30
0.0
 10
1598.006158691819
 20
910.98508161689
 30
0.0
 10
1598.160108467118
 20
910.98508161689
 30
0.0
  0
SPLINE
  5
261
330
1F
100
AcDbEntity
  8
0
  6
Continuous
 62
     7
370
    35
100
AcDbSpline
210
0.0
220
0.0
230
1.0
 70
     8
 71
     3
 72
    15
 73
    11
 74
     0
 42
0.000000001
 43
0.00000001
 40
0.0
 40
0.0
 40
0.0
 40
0.0
 40
0.1214527241786881
 40
0.2436356162157029
 40
0.3679634748124445
 40
0.4929996451849683
 40
0.6185865433805124
 40
0.7450337263104025
 40
0.871990258811905
 40
1.0
 40
1.0
 40
1.0
 40
1.0
 10
1587.889091459755
 20
887.5480433504716
 30
0.0
 10
1587.557645261497
 20
886.0746565955308
 30
0.0
 10
1586.892760226591
 20
883.1190251562891
 30
0.0
 10
1586.328055247542
 20
878.5740711620542
 30
0.0
 10
1586.066440567615
 20
873.9603399542634
 30
0.0
 10
1586.160407006285
 20
869.296231975066
 30
0.0
 10
1586.623556588602
 20
864.6272123257439
 30
0.0
 10
1587.485031073924
 20
859.9921877765127
 30
0.0
 10
1588.725224695644
 20
855.4066813262045
 30
0.0
 10
1589.90411458796
 20
852.4626523013845
 30
0.0
 10
1590.495994399438
 20
850.9845572260481
 30
0.0
  0
LINE
  5
262
330
1F
100
AcDbEntity
  8
0
  6
Continuous
 62
     7
370
    35
100
AcDbLine
 10
1597.5520328815
 20
842.4321931586
 30
0.0
 11
1597.0365952413
 21
842.6507112
 31
0.0
  0
SPLINE
  5
263
330
1F
100
AcDbEntity
  8
0
  6
Continuous
 62
     7
370
    35
100
AcDbSpline
210
0.0
220
0.0
230
1.0
 70
    24
 71
     3
 72
    14
 73
    10
 74
     0
 42
0.000000001
 43
0.00000001
 40
0.0
 40
0.0
 40
0.0
 40
0.0
 40
0.1497838616746357
 40
0.3039198677007078
 40
0.4537011775423317
 40
0.6078081864720632
 40
0.757933700022959
 40
0.9123691506710973
 40
1.0
 40
1.0
 40
1.0
 40
1.0
 10
1624.627445508359
 20
848.8210881421035
 30
0.0
 10
1624.627445508359
 20
848.0959736292624
 30
0.0
 10
1624.627445508359
 20
846.6246755578508
 30
0.0
 10
1624.627445508359
 20
844.730236761101
 30
0.0
 10
1624.627445508359
 20
843.1137576321565
 30
0.0
 10
1624.627445508359
 20
841.8636859754611
 30
0.0
 10
1624.627445508359
 20
840.9957883651782
 30
0.0
 10
1624.627445508359
 20
840.5876669513679
 30
0.0
 10
1624.627445508359
 20
840.5490583756589
 30
0.0
 10
1624.627445508359
 20
840.5350816168905
 30
0.0
  0
SPLINE
  5
264
330
1F
100
AcDbEntity
  8
0
  6
Continuous
 62
     7
370
    35
100
AcDbSpline
210
0.0
220
0.0
230
1.0
 70
    24
 71
     3
 72
    18
 73
    14
 74
     0
 42
0.000000001
 43
0.00000001
 40
0.0
 40
0.0
 40
0.0
 40
0.0
 40
0.0528858667102686
 40
0.1296739535442296
 40
0.2088264841310044
 40
0.2780198271462878
 40
0.3488116530585197
 40
0.4119722453844564
 40
0.4765946606108138
 40
0.5395794985729832
 40
0.6046207084834039
 40
0.859562898117895
 40
1.0
 40
1.0
 40
1.0
 40
1.0
 10
1624.627445508359
 20
840.5350816168905
 30
0.0
 10
1623.740350799642
 20
840.5350816168905
 30
0.0
 10
1621.565231335727
 20
840.5350816168905
 30
0.0
 10
1618.201635657318
 20
840.5350816168904
 30
0.0
 10
1614.839668064288
 20
840.5350816168905
 30
0.0
 10
1611.900565832706
 20
840.5350816168904
 30
0.0
 10
1609.524220192531
 20
840.5350816168905
 30
0.0
 10
1607.589326260862
 20
840.5350816168904
 30
0.0
 10
1606.163266814425
 20
840.5350816168905
 30
0.0
 10
1605.197915188557
 20
840.5350816168904
 30
0.0
 10
1604.721315364678
 20
840.5350816168907
 30
0.0
 10
1604.712166087128
 20
840.5350816168897
 30
0.0
 10
1604.718209333647
 20
840.5350816168898
 30
0.0
 10
1604.720355870011
 20
840.5350816168898
 30
0.0
  0
SPLINE
  5
265
330
1F
100
AcDbEntity
  8
0
  6
Continuous
 62
     7
370
    35
100
AcDbSpline
210
0.0
220
0.0
230
1.0
 70
     8
 71
     3
 72
     9
 73
     5
 74
     0
 42
0.000000001
 43
0.00000001
 40
0.0
 40
0.0
 40
0.0
 40
0.0
 40
0.4409399555714866
 40
1.0
 40
1.0
 40
1.0
 40
1.0
 10
1596.665729853495
 20
842.8774246910288
 30
0.0
 10
1596.593263029271
 20
842.9227499167267
 30
0.0
 10
1596.428916788227
 20
843.025542201992
 30
0.0
 10
1596.244694583617
 20
843.1525523357569
 30
0.0
 10
1596.141703309723
 20
843.2235586267825
 30
0.0
  0
LINE
  5
266
330
1F
100
AcDbEntity
  8
0
  6
Continuous
 62
     7
370
    35
100
AcDbLine
 10
1651.7028581352
 20
842.4321931586
 30
0.0
 11
1652.2182957754
 21
842.6507112
 31
0.0
  0
SPLINE
  5
267
330
1F
100
AcDbEntity
  8
0
  6
Continuous
 62
     7
370
    35
100
AcDbSpline
210
0.0
220
0.0
230
1.0
 70
     8
 71
     3
 72
    10
 73
     6
 74
     0
 42
0.000000001
 43
0.00000001
 40
0.0
 40
0.0
 40
0.0
 40
0.0
 40
0.3651912706393532
 40
0.938840886184402
 40
1.0
 40
1.0
 40
1.0
 40
1.0
 10
1652.598352373272
 20
842.8832686315078
 30
0.0
 10
1652.667856700525
 20
842.9271547031116
 30
0.0
 10
1652.846539789191
 20
843.0399778773442
 30
0.0
 10
1653.061929139407
 20
843.182551951087
 30
0.0
 10
1653.195759624265
 20
843.2809625851547
 30
0.0
 10
1653.208653199096
 20
843.2904437200089
 30
0.0
  0
SPLINE
  5
268
330
1F
100
AcDbEntity
  8
0
  6
Continuous
 62
     7
370
    35
100
AcDbSpline
210
0.0
220
0.0
230
1.0
 70
    24
 71
     3
 72
    18
 73
    14
 74
     0
 42
0.000000001
 43
0.00000001
 40
0.0
 40
0.0
 40
0.0
 40
0.0
 40
0.0528900501225398
 40
0.1308503043354549
 40
0.2088349706568593
 40
0.2788361590001469
 40
0.3488290097785899
 40
0.4127449371310106
 40
0.47661970314715
 40
0.5405641088728242
 40
0.6045882679846397
 40
0.8596063559737083
 40
0.9999999999999999
 40
0.9999999999999999
 40
0.9999999999999999
 40
0.9999999999999999
 10
1624.627445508359
 20
840.5350816168905
 30
0.0
 10
1625.514599454299
 20
840.5350816168905
 30
0.0
 10
1627.709423689666
 20
840.5350816168905
 30
0.0
 10
1631.070136222912
 20
840.5350816168905
 30
0.0
 10
1634.443635890366
 20
840.5350816168905
 30
0.0
 10
1637.363339614015
 20
840.5350816168905
 30
0.0
 10
1639.748546704164
 20
840.5350816168905
 30
0.0
 10
1641.668577767792
 20
840.5350816168905
 30
0.0
 10
1643.111376117259
 20
840.5350816168905
 30
0.0
 10
1644.028281664681
 20
840.5350816168905
 30
0.0
 10
1644.570455678213
 20
840.5350816168905
 30
0.0
 10
1644.540724760895
 20
840.5350816168902
 30
0.0
 10
1644.537246499146
 20
840.5350816168901
 30
0.0
 10
1644.536011518487
 20
840.5350816168899
 30
0.0
  0
SPLINE
  5
269
330
1F
100
AcDbEntity
  8
0
  6
Continuous
 62
     7
370
    35
100
AcDbSpline
210
0.0
220
0.0
230
1.0
 70
     8
 71
     3
 72
    14
 73
    10
 74
     0
 42
0.000000001
 43
0.00000001
 40
0.0
 40
0.0
 40
0.0
 40
0.0
 40
0.12969690086605
 40
0.2603671951156624
 40
0.3853421446376495
 40
0.5111847557259611
 40
0.6397642884787726
 40
0.7692911603858882
 40
1.0
 40
1.0
 40
1.0
 40
1.0
 10
1659.947560397804
 20
850.47535383665
 30
0.0
 10
1660.561877120466
 20
852.0094048205978
 30
0.0
 10
1661.795121098726
 20
855.0890200557175
 30
0.0
 10
1663.1139951064
 20
859.8248834470859
 30
0.0
 10
1664.045770397495
 20
864.5962225185106
 30
0.0
 10
1664.570424595253
 20
869.4053692059683
 30
0.0
 10
1664.681735573405
 20
874.296749460867
 30
0.0
 10
1664.337065994862
 20
880.5257758728842
 30
0.0
 10
1663.357610532295
 20
885.0167323533137
 30
0.0
 10
1662.730329488257
 20
887.892914045523
 30
0.0
  0
SPLINE
  5
26A
330
1F
100
AcDbEntity
  8
0
  6
Continuous
 62
     7
370
    35
100
AcDbSpline
210
0.0
220
0.0
230
1.0
 70
     8
 71
     3
 72
    14
 73
    10
 74
     0
 42
0.000000001
 43
0.00000001
 40
0.0
 40
0.0
 40
0.0
 40
0.0
 40
0.12969690086605
 40
0.2603671951156623
 40
0.3853421446376495
 40
0.5111847557259608
 40
0.6397642884787725
 40
0.7692911603858877
 40
1.0
 40
1.0
 40
1.0
 40
1.0
 10
1589.307330618912
 20
850.4753538366492
 30
0.0
 10
1588.69301389625
 20
852.009404820597
 30
0.0
 10
1587.45976991799
 20
855.0890200557168
 30
0.0
 10
1586.140895910316
 20
859.8248834470853
 30
0.0
 10
1585.209120619222
 20
864.59622251851
 30
0.0
 10
1584.684466421463
 20
869.4053692059676
 30
0.0
 10
1584.573155443311
 20
874.2967494608664
 30
0.0
 10
1584.917825021854
 20
880.5257758728835
 30
0.0
 10
1585.897280484422
 20
885.016732353313
 30
0.0
 10
1586.52456152846
 20
887.8929140455225
 30
0.0
  0
SPLINE
  5
26B
330
1F
100
AcDbEntity
  8
0
  6
Continuous
 62
     7
370
    35
100
AcDbSpline
210
0.0
220
0.0
230
1.0
 70
     8
 71
     3
 72
    10
 73
     6
 74
     0
 42
0.000000001
 43
0.00000001
 40
0.0
 40
0.0
 40
0.0
 40
0.0
 40
0.3422812336044581
 40
0.6664353245308012
 40
0.9999999999999999
 40
0.9999999999999999
 40
0.9999999999999999
 40
0.9999999999999999
 10
1653.208653199096
 20
843.2904437200089
 30
0.0
 10
1653.973553823153
 20
843.693357697986
 30
0.0
 10
1655.462846093893
 20
844.4778474137778
 30
0.0
 10
1657.323813053433
 20
846.2565273385974
 30
0.0
 10
1658.300660958534
 20
847.6155082122708
 30
0.0
 10
1658.796073239733
 20
848.3047207408715
 30
0.0
  0
SPLINE
  5
26C
330
1F
100
AcDbEntity
  8
0
  6
Continuous
 62
     7
370
    35
100
AcDbSpline
210
0.0
220
0.0
230
1.0
 70
     8
 71
     3
 72
    10
 73
     6
 74
     0
 42
0.000000001
 43
0.00000001
 40
0.0
 40
0.0
 40
0.0
 40
0.0
 40
0.3422812336045816
 40
0.6664353245308646
 40
1.0
 40
1.0
 40
1.0
 40
1.0
 10
1596.046237817622
 20
843.2904437200078
 30
0.0
 10
1595.281337193565
 20
843.6933576979851
 30
0.0
 10
1593.792044922824
 20
844.4778474137768
 30
0.0
 10
1591.931077963284
 20
846.2565273385966
 30
0.0
 10
1590.954230058183
 20
847.6155082122702
 30
0.0
 10
1590.458817776983
 20
848.3047207408708
 30
0.0
  0
SPLINE
  5
26D
330
1F
100
AcDbEntity
  8
0
  6
Continuous
 62
     7
370
    35
100
AcDbSpline
210
0.0
220
0.0
230
1.0
 70
     8
 71
     3
 72
     9
 73
     5
 74
     0
 42
0.000000001
 43
0.00000001
 40
0.0
 40
0.0
 40
0.0
 40
0.0
 40
0.853636342424055
 40
0.9999999999999999
 40
0.9999999999999999
 40
0.9999999999999999
 40
0.9999999999999999
 10
1662.730329488257
 20
887.892914045523
 30
0.0
 10
1661.858340564702
 20
891.0039949278229
 30
0.0
 10
1660.836841267849
 20
894.6484987143712
 30
0.0
 10
1659.612725811428
 20
898.2286142725765
 30
0.0
 10
1659.433559795931
 20
898.7526130802199
 30
0.0
  0
SPLINE
  5
26E
330
1F
100
AcDbEntity
  8
0
  6
Continuous
 62
     7
370
    35
100
AcDbSpline
210
0.0
220
0.0
230
1.0
 70
     8
 71
     3
 72
     9
 73
     5
 74
     0
 42
0.000000001
 43
0.00000001
 40
0.0
 40
0.0
 40
0.0
 40
0.0
 40
0.8536363424240561
 40
1.0
 40
1.0
 40
1.0
 40
1.0
 10
1586.52456152846
 20
887.8929140455225
 30
0.0
 10
1587.396550452014
 20
891.0039949278222
 30
0.0
 10
1588.418049748868
 20
894.6484987143705
 30
0.0
 10
1589.642165205289
 20
898.2286142725758
 30
0.0
 10
1589.821331220786
 20
898.7526130802194
 30
0.0
  0
SPLINE
  5
26F
330
1F
100
AcDbEntity
  8
0
  6
Continuous
 62
     7
370
    35
100
AcDbSpline
210
0.0
220
0.0
230
1.0
 70
     8
 71
     3
 72
     9
 73
     5
 74
     0
 42
0.000000001
 43
0.00000001
 40
0.0
 40
0.0
 40
0.0
 40
0.0
 40
0.6310361367051674
 40
1.0
 40
1.0
 40
1.0
 40
1.0
 10
1659.433559795931
 20
898.7526130802199
 30
0.0
 10
1659.025778199359
 20
899.689094458304
 30
0.0
 10
1658.379568619823
 20
901.1731320967403
 30
0.0
 10
1657.276703645914
 20
902.3173040536993
 30
0.0
 10
1656.869786324448
 20
902.7394621592126
 30
0.0
  0
SPLINE
  5
270
330
1F
100
AcDbEntity
  8
0
  6
Continuous
 62
     7
370
    35
100
AcDbSpline
210
0.0
220
0.0
230
1.0
 70
     8
 71
     3
 72
     9
 73
     5
 74
     0
 42
0.000000001
 43
0.00000001
 40
0.0
 40
0.0
 40
0.0
 40
0.0
 40
0.6310361367051666
 40
1.0
 40
1.0
 40
1.0
 40
1.0
 10
1589.821331220786
 20
898.7526130802194
 30
0.0
 10
1590.229112817358
 20
899.6890944583033
 30
0.0
 10
1590.875322396895
 20
901.1731320967397
 30
0.0
 10
1591.978187370803
 20
902.3173040536988
 30
0.0
 10
1592.385104692269
 20
902.7394621592119
 30
0.0
  0
LINE
  5
271
330
1F
100
AcDbEntity
  8
0
  6
Continuous
 62
     7
370
    35
100
AcDbLine
 10
1658.7960732397
 20
848.3047207409
 30
0.0
 11
1659.9475603978
 21
850.4753538367
 31
0.0
  0
LINE
  5
272
330
1F
100
AcDbEntity
  8
0
  6
Continuous
 62
     7
370
    35
100
AcDbLine
 10
1590.458817777
 20
848.3047207409
 30
0.0
 11
1589.3073306189
 21
850.4753538366
 31
0.0
  0
LINE
  5
273
330
1F
100
AcDbEntity
  8
0
  6
Continuous
 62
     7
370
    35
100
AcDbLine
 10
1652.4895381572
 20
842.7941701737
 30
0.0
 11
1651.9965708145
 21
842.5756521323
 31
0.0
  0
LINE
  5
274
330
1F
100
AcDbEntity
  8
0
  6
Continuous
 62
     7
370
    35
100
AcDbLine
 10
1596.7653528595
 20
842.7941701737
 30
0.0
 11
1597.2583202022
 21
842.5756521323
 31
0.0
  0
LINE
  5
275
330
1F
100
AcDbEntity
  8
0
  6
Continuous
 62
     7
370
    35
100
AcDbLine
 10
1656.8697863244
 20
902.7394621592
 30
0.0
 11
1657.0148554944
 21
902.598752682
 31
0.0
  0
LINE
  5
276
330
1F
100
AcDbEntity
  8
0
  6
Continuous
 62
     7
370
    35
100
AcDbLine
 10
1592.3851046923
 20
902.7394621592
 30
0.0
 11
1592.2400355223
 21
902.598752682
 31
0.0
  0
SPLINE
  5
277
330
1F
100
AcDbEntity
  8
0
  6
Continuous
 62
     7
370
    35
100
AcDbSpline
210
0.0
220
0.0
230
1.0
 70
     8
 71
     3
 72
    21
 73
    17
 74
     0
 42
0.000000001
 43
0.00000001
 40
0.0
 40
0.0
 40
0.0
 40
0.0
 40
0.0385875042305047
 40
0.1137555859597326
 40
0.1905584151145935
 40
0.2679261122717592
 40
0.3425758673548928
 40
0.417743913817071
 40
0.4945465859978759
 40
0.5719140750339133
 40
0.6465659329143822
 40
0.7217360672759273
 40
0.7985407486308728
 40
0.8759102056376787
 40
0.990537415736169
 40
0.9999999999999999
 40
0.9999999999999999
 40
0.9999999999999999
 40
0.9999999999999999
 10
1661.905339573913
 20
890.6650552176715
 30
0.0
 10
1662.072432221994
 20
890.5842937735118
 30
0.0
 10
1662.565019718156
 20
890.3462098241466
 30
0.0
 10
1663.344022819855
 20
889.8600817209743
 30
0.0
 10
1664.237776845707
 20
889.2131524966821
 30
0.0
 10
1665.068736181984
 20
888.4897585080411
 30
0.0
 10
1665.83086806933
 20
887.7057398892599
 30
0.0
 10
1666.523390690271
 20
886.8629406843828
 30
0.0
 10
1667.149968037504
 20
885.9540669939307
 30
0.0
 10
1667.695365293082
 20
884.997093349368
 30
0.0
 10
1668.154857914826
 20
884.0048032580966
 30
0.0
 10
1668.529424928303
 20
882.9803272490967
 30
0.0
 10
1668.819926062514
 20
881.9151854611107
 30
0.0
 10
1669.052090174006
 20
880.6426063216722
 30
0.0
 10
1669.125252789399
 20
879.6734441695479
 30
0.0
 10
1669.127290147681
 20
879.0768710180091
 30
0.0
 10
1669.127445508358
 20
879.0313787698756
 30
0.0
  0
SPLINE
  5
278
330
1F
100
AcDbEntity
  8
0
  6
Continuous
 62
     7
370
    35
100
AcDbSpline
210
0.0
220
0.0
230
1.0
 70
    24
 71
     3
 72
    20
 73
    16
 74
     0
 42
0.000000001
 43
0.00000001
 40
0.0
 40
0.0
 40
0.0
 40
0.0
 40
0.0031848875244884
 40
0.0996872166702685
 40
0.1961928561586088
 40
0.2929138960264297
 40
0.3894614585497548
 40
0.4531459406897287
 40
0.5167654851003723
 40
0.6214864979190166
 40
0.7268808125404136
 40
0.8182687157727472
 40
0.8939620144270488
 40
0.9698304221395909
 40
0.9999999999999999
 40
0.9999999999999999
 40
0.9999999999999999
 40
0.9999999999999999
 10
1669.127445508358
 20
879.0313787698757
 30
0.0
 10
1669.127445508358
 20
879.0317814167522
 30
0.0
 10
1669.127445508358
 20
879.0443842939685
 30
0.0
 10
1669.127445508358
 20
878.8836466837284
 30
0.0
 10
1669.127445508358
 20
878.1481225028709
 30
0.0
 10
1669.127445508358
 20
876.9384783807823
 30
0.0
 10
1669.127445508358
 20
875.4454723529834
 30
0.0
 10
1669.127445508358
 20
873.8176085426496
 30
0.0
 10
1669.127445508358
 20
871.8753556679645
 30
0.0
 10
1669.127445508358
 20
869.207886365613
 30
0.0
 10
1669.127445508358
 20
865.9832877533966
 30
0.0
 10
1669.127445508358
 20
863.2624568370114
 30
0.0
 10
1669.127445508358
 20
861.111658198849
 30
0.0
 10
1669.127445508358
 20
859.6691386790898
 30
0.0
 10
1669.127445508358
 20
858.8998456082434
 30
0.0
 10
1669.127445508358
 20
858.680968881446
 30
0.0
  0
SPLINE
  5
279
330
1F
100
AcDbEntity
  8
0
  6
Continuous
 62
     7
370
    35
100
AcDbSpline
210
0.0
220
0.0
230
1.0
 70
    24
 71
     3
 72
    10
 73
     6
 74
     0
 42
0.000000001
 43
0.00000001
 40
0.0
 40
0.0
 40
0.0
 40
0.0
 40
0.2479681796226275
 40
0.4972688069878465
 40
1.0
 40
1.0
 40
1.0
 40
1.0
 10
1669.127445508358
 20
858.680968881446
 30
0.0
 10
1669.127445508358
 20
858.3744743114838
 30
0.0
 10
1669.127445508358
 20
857.7598382344459
 30
0.0
 10
1669.127445508358
 20
856.6537680163428
 30
0.0
 10
1669.127445508358
 20
855.8963169480633
 30
0.0
 10
1669.127445508358
 20
855.3899630028092
 30
0.0
  0
LINE
  5
27A
330
1F
100
AcDbEntity
  8
0
  6
Continuous
 62
     7
370
    35
100
AcDbLine
 10
1669.1274455084
 20
855.3899630028
 30
0.0
 11
1669.1274455084
 21
853.5350816169
 31
0.0
  0
LINE
  5
27B
330
1F
100
AcDbEntity
  8
0
  6
Continuous
 62
     7
370
    35
100
AcDbLine
 10
1575.1274455084
 20
922.9846816169
 30
0.0
 11
1575.1274455084
 21
932.9846816169
 31
0.0
  0
ARC
  5
27C
330
1F
100
AcDbEntity
  8
0
  6
Continuous
 62
     7
370
    35
100
AcDbCircle
 10
1637.6024455084
 20
870.0846816169
 30
0.0
 40
2.000000000000114
100
AcDbArc
 50
270.0
 51
0.0
  0
ARC
  5
27D
330
1F
100
AcDbEntity
  8
0
  6
Continuous
 62
     7
370
    35
100
AcDbCircle
 10
1611.6024455084
 20
870.0846816169
 30
0.0
 40
2.000000000000114
100
AcDbArc
 50
180.0
 51
270.0
  0
LINE
  5
27E
330
1F
100
AcDbEntity
  8
0
  6
Continuous
 62
     7
370
    35
100
AcDbLine
 10
1609.6024455084
 20
870.0846816169
 30
0.0
 11
1609.6024455084
 21
904.3752917058
 31
0.0
  0
ARC
  5
27F
330
1F
100
AcDbEntity
  8
0
  6
Continuous
 62
     7
370
    35
100
AcDbCircle
 10
1607.6024455084
 20
904.3752917058
 30
0.0
 40
2.0
100
AcDbArc
 50
360.0
 51
65.0
  0
ARC
  5
280
330
1F
100
AcDbEntity
  8
0
  6
Continuous
 62
     7
370
    35
100
AcDbCircle
 10
1593.7274455084
 20
915.2588221385
 30
0.0
 40
2.0
100
AcDbArc
 50
180.0
 51
245.0
  0
LINE
  5
281
330
1F
100
AcDbEntity
  8
0
  6
Continuous
 62
     7
370
    35
100
AcDbLine
 10
1591.7274455084
 20
915.2588221385
 30
0.0
 11
1591.7274455084
 21
920.9846816169
 31
0.0
  0
LINE
  5
282
330
1F
100
AcDbEntity
  8
0
  6
Continuous
 62
     7
370
    35
100
AcDbLine
 10
1656.3226820318
 20
913.4462065644
 30
0.0
 11
1640.7572089849
 21
906.1879072798
 31
0.0
  0
LINE
  5
283
330
1F
100
AcDbEntity
  8
0
  6
Continuous
 62
     7
370
    35
100
AcDbLine
 10
1639.6024455084
 20
904.3752917058
 30
0.0
 11
1639.6024455084
 21
870.0846816169
 31
0.0
  0
LINE
  5
284
330
1F
100
AcDbEntity
  8
0
  6
Continuous
 62
     7
370
    35
100
AcDbLine
 10
1637.6024455084
 20
868.0846816169
 30
0.0
 11
1611.6024455084
 21
868.0846816169
 31
0.0
  0
LINE
  5
285
330
1F
100
AcDbEntity
  8
0
  6
Continuous
 62
     7
370
    35
100
AcDbLine
 10
1608.4476820318
 20
906.1879072798
 30
0.0
 11
1592.8822089849
 21
913.4462065644
 31
0.0
  0
LINE
  5
286
330
1F
100
AcDbEntity
  8
0
  6
Continuous
 62
     7
370
    35
100
AcDbLine
 10
1625.6024455084
 20
888.0846816169
 30
0.0
 11
1625.6024455084
 21
898.0846816169
 31
0.0
  0
ARC
  5
287
330
1F
100
AcDbEntity
  8
0
  6
Continuous
 62
     7
370
    35
100
AcDbCircle
 10
1632.1024455084
 20
898.0846816169
 30
0.0
 40
6.500000000000227
100
AcDbArc
 50
0.0
 51
180.0
  0
LINE
  5
288
330
1F
100
AcDbEntity
  8
0
  6
Continuous
 62
     7
370
    35
100
AcDbLine
 10
1623.6024455084
 20
898.0846816169
 30
0.0
 11
1623.6024455084
 21
888.0846816169
 31
0.0
  0
ARC
  5
289
330
1F
100
AcDbEntity
  8
0
  6
Continuous
 62
     7
370
    35
100
AcDbCircle
 10
1617.1024455084
 20
888.0846816169
 30
0.0
 40
6.500000000000227
100
AcDbArc
 50
180.0
 51
0.0
  0
CIRCLE
  5
28A
330
1F
100
AcDbEntity
  8
0
  6
Continuous
 62
     7
370
    35
100
AcDbCircle
 10
1624.6024455084
 20
876.0846816169
 30
0.0
 40
4.250000000000227
  0
LINE
  5
28B
330
1F
100
AcDbEntity
  8
0
  6
Continuous
 62
     7
370
    35
100
AcDbLine
 10
1638.6024455084
 20
898.0846816169
 30
0.0
 11
1638.6024455084
 21
888.0846816169
 31
0.0
  0
ARC
  5
28C
330
1F
100
AcDbEntity
  8
0
  6
Continuous
 62
     7
370
    35
100
AcDbCircle
 10
1632.1024455084
 20
888.0846816169
 30
0.0
 40
6.500000000000227
100
AcDbArc
 50
180.0
 51
0.0
  0
ARC
  5
28D
330
1F
100
AcDbEntity
  8
0
  6
Continuous
 62
     7
370
    35
100
AcDbCircle
 10
1641.6024455084
 20
904.3752917058
 30
0.0
 40
2.0
100
AcDbArc
 50
115.0
 51
180.0
  0
LINE
  5
28E
330
1F
100
AcDbEntity
  8
0
  6
Continuous
 62
     7
370
    35
100
AcDbLine
 10
1610.6024455084
 20
888.0846816169
 30
0.0
 11
1610.6024455084
 21
898.0846816169
 31
0.0
  0
ARC
  5
28F
330
1F
100
AcDbEntity
  8
0
  6
Continuous
 62
     7
370
    35
100
AcDbCircle
 10
1617.1024455084
 20
898.0846816169
 30
0.0
 40
6.5
100
AcDbArc
 50
0.0
 51
180.0
  0
LINE
  5
290
330
1F
100
AcDbEntity
  8
0
  6
Continuous
 62
     7
370
    35
100
AcDbLine
 10
1659.6274455084
 20
932.9846816169
 30
0.0
 11
1659.6274455084
 21
921.9846816169
 31
0.0
  0
LINE
  5
291
330
1F
100
AcDbEntity
  8
0
  6
Continuous
 62
     7
370
    35
100
AcDbLine
 10
1657.4774455084
 20
920.9846816169
 30
0.0
 11
1657.4774455084
 21
915.2588221385
 31
0.0
  0
ARC
  5
292
330
1F
100
AcDbEntity
  8
0
  6
Continuous
 62
     7
370
    35
100
AcDbCircle
 10
1655.4774455084
 20
915.2588221385
 30
0.0
 40
2.00000000000013
100
AcDbArc
 50
295.0
 51
360.0
  0
ARC
  5
293
330
1F
100
AcDbEntity
  8
0
  6
Continuous
 62
     7
370
    35
100
AcDbCircle
 10
1576.1274455084
 20
922.9846816169
 30
0.0
 40
1.0
100
AcDbArc
 50
180.0
 51
270.0
  0
LINE
  5
294
330
1F
100
AcDbEntity
  8
0
  6
Continuous
 62
     7
370
    35
100
AcDbLine
 10
1659.6274455084
 20
933.9846816169
 30
0.0
 11
1575.1274455084
 21
933.9846816169
 31
0.0
  0
LINE
  5
295
330
1F
100
AcDbEntity
  8
0
  6
Continuous
 62
     7
370
    35
100
AcDbLine
 10
1575.1274455084
 20
932.9846816169
 30
0.0
 11
1575.1274455084
 21
933.9846816169
 31
0.0
  0
LINE
  5
296
330
1F
100
AcDbEntity
  8
0
  6
Continuous
 62
     7
370
    35
100
AcDbLine
 10
1659.6274455084
 20
933.9846816169
 30
0.0
 11
1659.6274455084
 21
932.9846816169
 31
0.0
  0
LINE
  5
297
330
1F
100
AcDbEntity
  8
0
  6
Continuous
 62
     7
370
    35
100
AcDbLine
 10
1574.1024455084
 20
954.4846816169
 30
0.0
 11
1574.1024455084
 21
922.9846816169
 31
0.0
  0
LINE
  5
298
330
1F
100
AcDbEntity
  8
0
  6
Continuous
 62
     7
370
    35
100
AcDbLine
 10
1575.1024455084
 20
954.4846816169
 30
0.0
 11
1575.1024455084
 21
922.9846816169
 31
0.0
  0
ARC
  5
299
330
1F
100
AcDbEntity
  8
0
  6
Continuous
 62
     7
370
    35
100
AcDbCircle
 10
1576.1024455084
 20
922.9846816169
 30
0.0
 40
0.9999999999998863
100
AcDbArc
 50
180.0
 51
270.0
  0
ARC
  5
29A
330
1F
100
AcDbEntity
  8
0
  6
Continuous
 62
     7
370
    35
100
AcDbCircle
 10
1576.1024455084
 20
922.9846816169
 30
0.0
 40
2.0
100
AcDbArc
 50
180.0
 51
270.0
  0
LINE
  5
29B
330
1F
100
AcDbEntity
  8
0
  6
Continuous
 62
     7
370
    35
100
AcDbLine
 10
1690.1024455084
 20
921.9846816169
 30
0.0
 11
1690.1024455084
 21
920.9846816169
 31
0.0
  0
LINE
  5
29C
330
1F
100
AcDbEntity
  8
0
  6
Continuous
 62
     7
370
    35
100
AcDbLine
 10
1690.1024455084
 20
920.9846816169
 30
0.0
 11
1680.1024455084
 21
920.9846816169
 31
0.0
  0
LINE
  5
29D
330
1F
100
AcDbEntity
  8
0
  6
Continuous
 62
     7
370
    35
100
AcDbLine
 10
1680.1024455084
 20
921.9846816169
 30
0.0
 11
1690.1024455084
 21
921.9846816169
 31
0.0
  0
LINE
  5
29E
330
1F
100
AcDbEntity
  8
0
  6
Continuous
 62
     7
370
    35
100
AcDbLine
 10
1680.1024455084
 20
920.9846816169
 30
0.0
 11
1576.1024455084
 21
920.9846816169
 31
0.0
  0
LINE
  5
29F
330
1F
100
AcDbEntity
  8
0
  6
Continuous
 62
     7
370
    35
100
AcDbLine
 10
1680.1024455084
 20
921.9846816169
 30
0.0
 11
1576.1024455084
 21
921.9846816169
 31
0.0
  0
LINE
  5
2A0
330
1F
100
AcDbEntity
  8
0
  6
Continuous
 62
     7
370
    35
100
AcDbLine
 10
1574.1024455084
 20
964.4846816169
 30
0.0
 11
1575.1024455084
 21
964.4846816169
 31
0.0
  0
LINE
  5
2A1
330
1F
100
AcDbEntity
  8
0
  6
Continuous
 62
     7
370
    35
100
AcDbLine
 10
1574.1024455084
 20
954.4846816169
 30
0.0
 11
1574.1024455084
 21
964.4846816169
 31
0.0
  0
LINE
  5
2A2
330
1F
100
AcDbEntity
  8
0
  6
Continuous
 62
     7
370
    35
100
AcDbLine
 10
1575.1024455084
 20
964.4846816169
 30
0.0
 11
1575.1024455084
 21
954.4846816169
 31
0.0
  0
LINE
  5
2A3
330
1F
100
AcDbEntity
  8
0
  6
Continuous
 62
     8
370
    18
100
AcDbLine
 10
1657.6274455084
 20
919.6466001062
 30
0.0
 11
1657.4774455084
 21
919.6466001062
 31
0.0
  0
LINE
  5
2A4
330
1F
100
AcDbEntity
  8
0
  6
Continuous
 62
     8
370
    18
100
AcDbLine
 10
1575.1024455084
 20
934.9846816169
 30
0.0
 11
1575.1274455084
 21
934.9846816169
 31
0.0
  0
LINE
  5
2A5
330
1F
100
AcDbEntity
  8
0
  6
Continuous
 62
     8
370
    18
100
AcDbLine
 10
1591.6274455084
 20
919.6466001062
 30
0.0
 11
1591.7274455084
 21
919.6466001062
 31
0.0
  0
SPLINE
  5
2A6
330
1F
100
AcDbEntity
  8
0
  6
Continuous
 62
     8
370
    18
100
AcDbSpline
210
0.0
220
0.0
230
1.0
 70
     8
 71
     3
 72
     9
 73
     5
 74
     0
 42
0.000000001
 43
0.00000001
 40
0.0
 40
0.0
 40
0.0
 40
0.0
 40
0.4639726887596862
 40
1.0
 40
1.0
 40
1.0
 40
1.0
 10
1656.571833235513
 20
903.1349961048774
 30
0.0
 10
1656.542418015903
 20
903.1963657433006
 30
0.0
 10
1656.479019414384
 20
903.3286356805406
 30
0.0
 10
1656.464698381274
 20
903.3488967098925
 30
0.0
 10
1656.457021916402
 20
903.3597571749789
 30
0.0
  0
LINE
  5
2A7
330
1F
100
AcDbEntity
  8
0
  6
Continuous
 62
     8
370
    18
100
AcDbLine
 10
1656.4570219164
 20
903.359757175
 30
0.0
 11
1656.3004546701
 21
903.4826780951
 31
0.0
  0
SPLINE
  5
2A8
330
1F
100
AcDbEntity
  8
0
  6
Continuous
 62
     8
370
    18
100
AcDbSpline
210
0.0
220
0.0
230
1.0
 70
     8
 71
     3
 72
    11
 73
     7
 74
     0
 42
0.000000001
 43
0.00000001
 40
0.0
 40
0.0
 40
0.0
 40
0.0
 40
0.298604439555021
 40
0.5785107697798647
 40
0.9999675635114516
 40
1.0
 40
1.0
 40
1.0
 40
1.0
 10
1656.30045467015
 20
903.4826780951278
 30
0.0
 10
1656.300388088092
 20
903.4768420160276
 30
0.0
 10
1656.300259093234
 20
903.4655353033149
 30
0.0
 10
1656.379940301626
 20
903.292101355084
 30
0.0
 10
1656.467014036641
 20
903.0863964502742
 30
0.0
 10
1656.520068676836
 20
902.941162398305
 30
0.0
 10
1656.520072759755
 20
902.9411512215481
 30
0.0
  0
SPLINE
  5
2A9
330
1F
100
AcDbEntity
  8
0
  6
Continuous
 62
     8
370
    18
100
AcDbSpline
210
0.0
220
0.0
230
1.0
 70
     8
 71
     3
 72
    10
 73
     6
 74
     0
 42
0.000000001
 43
0.00000001
 40
0.0
 40
0.0
 40
0.0
 40
0.0
 40
0.0305940752880727
 40
0.8849546452569854
 40
1.0
 40
1.0
 40
1.0
 40
1.0
 10
1658.191219251768
 20
898.3269937655507
 30
0.0
 10
1658.228311485251
 20
898.2185555233744
 30
0.0
 10
1659.301229820433
 20
895.0819048734148
 30
0.0
 10
1660.361629570222
 20
891.4841184099789
 30
0.0
 10
1661.259270942412
 20
887.9656067395289
 30
0.0
 10
1661.365799556961
 20
887.5480433504722
 30
0.0
  0
LINE
  5
2AA
330
1F
100
AcDbEntity
  8
0
  6
Continuous
 62
     8
370
    18
100
AcDbLine
 10
1658.7588966173
 20
850.984557226
 30
0.0
 11
1657.8415430951
 21
848.9813231806
 31
0.0
  0
SPLINE
  5
2AB
330
1F
100
AcDbEntity
  8
0
  6
Continuous
 62
     8
370
    18
100
AcDbSpline
210
0.0
220
0.0
230
1.0
 70
     8
 71
     3
 72
    18
 73
    14
 74
     0
 42
0.000000001
 43
0.00000001
 40
0.0
 40
0.0
 40
0.0
 40
0.0
 40
0.0497884573626219
 40
0.152062695352616
 40
0.25429316791055
 40
0.3525326664709012
 40
0.4508084200367276
 40
0.5543273934134142
 40
0.6578565275353682
 40
0.7740307271289462
 40
0.8901694733964514
 40
0.9999988953086805
 40
1.0
 40
1.0
 40
1.0
 40
1.0
 10
1657.841543095063
 20
848.9813231806086
 30
0.0
 10
1657.832348437473
 20
848.9969840768027
 30
0.0
 10
1657.804266337922
 20
849.0448152050009
 30
0.0
 10
1657.370473248559
 20
849.1300231740313
 30
0.0
 10
1655.854529679842
 20
849.1855941138854
 30
0.0
 10
1653.494558644355
 20
849.2499878159318
 30
0.0
 10
1650.405090316124
 20
849.2750774685475
 30
0.0
 10
1646.590560889876
 20
849.2639266617169
 30
0.0
 10
1641.957082262485
 20
849.217029997871
 30
0.0
 10
1636.584316248713
 20
849.13814866109
 30
0.0
 10
1630.682957636823
 20
849.0128773409281
 30
0.0
 10
1626.611577964009
 20
848.888517750011
 30
0.0
 10
1624.627465464849
 20
848.8210888203134
 30
0.0
 10
1624.627445508359
 20
848.8210881421035
 30
0.0
  0
SPLINE
  5
2AC
330
1F
100
AcDbEntity
  8
0
  6
Continuous
 62
     8
370
    18
100
AcDbSpline
210
0.0
220
0.0
230
1.0
 70
     8
 71
     3
 72
    10
 73
     6
 74
     0
 42
0.000000001
 43
0.00000001
 40
0.0
 40
0.0
 40
0.0
 40
0.0
 40
0.0305940752880734
 40
0.8849546452569866
 40
1.0
 40
1.0
 40
1.0
 40
1.0
 10
1591.06367176495
 20
898.32699376555
 30
0.0
 10
1591.026579531466
 20
898.2185555233739
 30
0.0
 10
1589.953661196284
 20
895.0819048734141
 30
0.0
 10
1588.893261446495
 20
891.4841184099784
 30
0.0
 10
1587.995620074304
 20
887.9656067395283
 30
0.0
 10
1587.889091459755
 20
887.5480433504716
 30
0.0
  0
SPLINE
  5
2AD
330
1F
100
AcDbEntity
  8
0
  6
Continuous
 62
     8
370
    18
100
AcDbSpline
210
0.0
220
0.0
230
1.0
 70
     8
 71
     3
 72
    11
 73
     7
 74
     0
 42
0.000000001
 43
0.00000001
 40
0.0
 40
0.0
 40
0.0
 40
0.0
 40
0.2986044395547213
 40
0.5785107697795336
 40
0.9999675635113832
 40
1.0
 40
1.0
 40
1.0
 40
1.0
 10
1592.954436346567
 20
903.4826780951284
 30
0.0
 10
1592.954502928621
 20
903.4768420160218
 30
0.0
 10
1592.954631923472
 20
903.4655353032966
 30
0.0
 10
1592.874950715142
 20
903.2921013551694
 30
0.0
 10
1592.787876979907
 20
903.0863964499916
 30
0.0
 10
1592.734822339881
 20
902.9411623983043
 30
0.0
 10
1592.734818256962
 20
902.9411512215474
 30
0.0
  0
LINE
  5
2AE
330
1F
100
AcDbEntity
  8
0
  6
Continuous
 62
     8
370
    18
100
AcDbLine
 10
1592.7978691003
 20
903.359757175
 30
0.0
 11
1592.9544363466
 21
903.4826780951
 31
0.0
  0
SPLINE
  5
2AF
330
1F
100
AcDbEntity
  8
0
  6
Continuous
 62
     8
370
    18
100
AcDbSpline
210
0.0
220
0.0
230
1.0
 70
     8
 71
     3
 72
    18
 73
    14
 74
     0
 42
0.000000001
 43
0.00000001
 40
0.0
 40
0.0
 40
0.0
 40
0.0
 40
0.0497848687598485
 40
0.1505175920502426
 40
0.2543243622726993
 40
0.3513587062571549
 40
0.4508317882787367
 40
0.5531105266318749
 40
0.6578696705688374
 40
0.7722222945756155
 40
0.8901773896516061
 40
0.9999988953883033
 40
1.0
 40
1.0
 40
1.0
 40
1.0
 10
1591.413347921653
 20
848.9813231806079
 30
0.0
 10
1591.423327404285
 20
848.9975558901846
 30
0.0
 10
1591.453498975148
 20
849.0466332186738
 30
0.0
 10
1591.851117815356
 20
849.1082316705504
 30
0.0
 10
1593.389721087427
 20
849.1903517467882
 30
0.0
 10
1595.743878920176
 20
849.2486117019602
 30
0.0
 10
1598.824109748333
 20
849.2754416676571
 30
0.0
 10
1602.644836021764
 20
849.2635869636105
 30
0.0
 10
1607.253555130636
 20
849.2179791703638
 30
0.0
 10
1612.636653774829
 20
849.1374667229932
 30
0.0
 10
1618.539850438589
 20
849.0141984924142
 30
0.0
 10
1622.643313051377
 20
848.888517751362
 30
0.0
 10
1624.627425551868
 20
848.8210888203133
 30
0.0
 10
1624.627445508359
 20
848.8210881421035
 30
0.0
  0
LINE
  5
2B0
330
1F
100
AcDbEntity
  8
0
  6
Continuous
 62
     8
370
    18
100
AcDbLine
 10
1590.4959943994
 20
850.984557226
 30
0.0
 11
1591.4133479217
 21
848.9813231806
 31
0.0
  0
SPLINE
  5
2B1
330
1F
100
AcDbEntity
  8
0
  6
Continuous
 62
     8
370
    18
100
AcDbSpline
210
0.0
220
0.0
230
1.0
 70
     8
 71
     3
 72
    14
 73
    10
 74
     0
 42
0.000000001
 43
0.00000001
 40
0.0
 40
0.0
 40
0.0
 40
0.0
 40
0.2135072054014852
 40
0.6517504153256222
 40
0.8731400298126325
 40
0.934036268177805
 40
0.9607431005770698
 40
0.9801118651181884
 40
1.0
 40
1.0
 40
1.0
 40
1.0
 10
1591.490469004375
 20
848.8242113210956
 30
0.0
 10
1591.817354136325
 20
848.2303424525659
 30
0.0
 10
1592.815201118169
 20
846.4175030170752
 30
0.0
 10
1594.716527329826
 20
844.3634790549934
 30
0.0
 10
1596.558663409098
 20
843.0320226623647
 30
0.0
 10
1597.303676025244
 20
842.5814520919039
 30
0.0
 10
1597.488820841164
 20
842.4725727830574
 30
0.0
 10
1597.554710262911
 20
842.4331268445917
 30
0.0
 10
1597.552933178963
 20
842.4325071202541
 30
0.0
 10
1597.552032881543
 20
842.4321931585962
 30
0.0
  0
LINE
  5
2B2
330
1F
100
AcDbEntity
  8
0
  6
Continuous
 62
     8
370
    18
100
AcDbLine
 10
1591.4133479217
 20
848.9813231806
 30
0.0
 11
1591.4904690044
 21
848.8242113211
 31
0.0
  0
SPLINE
  5
2B3
330
1F
100
AcDbEntity
  8
0
  6
Continuous
 62
     8
370
    18
100
AcDbSpline
210
0.0
220
0.0
230
1.0
 70
     8
 71
     3
 72
     9
 73
     5
 74
     0
 42
0.000000001
 43
0.00000001
 40
0.0
 40
0.0
 40
0.0
 40
0.0
 40
0.4374209949156147
 40
1.0
 40
1.0
 40
1.0
 40
1.0
 10
1597.036595241284
 20
842.6507112000477
 30
0.0
 10
1597.033390879031
 20
842.652365560408
 30
0.0
 10
1597.026065299581
 20
842.6561476384967
 30
0.0
 10
1596.984114650058
 20
842.6809571721006
 30
0.0
 10
1596.960514095387
 20
842.6949144948323
 30
0.0
  0
LINE
  5
2B4
330
1F
100
AcDbEntity
  8
0
  6
Continuous
 62
     8
370
    18
100
AcDbLine
 10
1596.7912531675
 20
842.7976146582
 30
0.0
 11
1596.6657298535
 21
842.877424691
 31
0.0
  0
LINE
  5
2B5
330
1F
100
AcDbEntity
  8
0
  6
Continuous
 62
     8
370
    18
100
AcDbLine
 10
1657.8415430951
 20
848.9813231806
 30
0.0
 11
1657.7644220123
 21
848.8242113211
 31
0.0
  0
SPLINE
  5
2B6
330
1F
100
AcDbEntity
  8
0
  6
Continuous
 62
     8
370
    18
100
AcDbSpline
210
0.0
220
0.0
230
1.0
 70
     8
 71
     3
 72
    14
 73
    10
 74
     0
 42
0.000000001
 43
0.00000001
 40
0.0
 40
0.0
 40
0.0
 40
0.0
 40
0.213507205401368
 40
0.6517504153255504
 40
0.8731400298126194
 40
0.9340362681777978
 40
0.960743100577066
 40
0.9801118651181863
 40
1.0
 40
1.0
 40
1.0
 40
1.0
 10
1657.764422012339
 20
848.8242113210937
 30
0.0
 10
1657.437536880391
 20
848.2303424525649
 30
0.0
 10
1656.439689898548
 20
846.4175030170762
 30
0.0
 10
1654.538363686891
 20
844.3634790549942
 30
0.0
 10
1652.696227607619
 20
843.0320226623647
 30
0.0
 10
1651.951214991473
 20
842.5814520919041
 30
0.0
 10
1651.766070175553
 20
842.4725727830574
 30
0.0
 10
1651.700180753805
 20
842.4331268445917
 30
0.0
 10
1651.701957837754
 20
842.4325071202541
 30
0.0
 10
1651.702858135173
 20
842.4321931585962
 30
0.0
  0
SPLINE
  5
2B7
330
1F
100
AcDbEntity
  8
0
  6
Continuous
 62
     8
370
    18
100
AcDbSpline
210
0.0
220
0.0
230
1.0
 70
     8
 71
     3
 72
     9
 73
     5
 74
     0
 42
0.000000001
 43
0.00000001
 40
0.0
 40
0.0
 40
0.0
 40
0.0
 40
0.5224329713452734
 40
1.0
 40
1.0
 40
1.0
 40
1.0
 10
1652.218295775434
 20
842.6507112000482
 30
0.0
 10
1652.221070948131
 20
842.6521049179247
 30
0.0
 10
1652.226382964886
 20
842.6547726627895
 30
0.0
 10
1652.260685748746
 20
842.6750462078561
 30
0.0
 10
1652.277067627309
 20
842.6847281845338
 30
0.0
  0
SPLINE
  5
2B8
330
1F
100
AcDbEntity
  8
0
  6
Continuous
 62
     8
370
    18
100
AcDbSpline
210
0.0
220
0.0
230
1.0
 70
     8
 71
     3
 72
     9
 73
     5
 74
     0
 42
0.000000001
 43
0.00000001
 40
0.0
 40
0.0
 40
0.0
 40
0.0
 40
0.3615544521723529
 40
1.0
 40
1.0
 40
1.0
 40
1.0
 10
1652.375379950612
 20
842.7435671711438
 30
0.0
 10
1652.397577210442
 20
842.7568664479919
 30
0.0
 10
1652.458971171149
 20
842.7936500549099
 30
0.0
 10
1652.544040340709
 20
842.8483473725698
 30
0.0
 10
1652.598352373272
 20
842.8832686315078
 30
0.0
  0
SPLINE
  5
2B9
330
1F
100
AcDbEntity
  8
0
  6
Continuous
 62
     8
370
    18
100
AcDbSpline
210
0.0
220
0.0
230
1.0
 70
     8
 71
     3
 72
    14
 73
    10
 74
     0
 42
0.000000001
 43
0.00000001
 40
0.0
 40
0.0
 40
0.0
 40
0.0
 40
0.1272473860604718
 40
0.2554745767697396
 40
0.3810919869018191
 40
0.5075916090131556
 40
0.7089607368256291
 40
0.9137762176246998
 40
1.0
 40
1.0
 40
1.0
 40
1.0
 10
1659.470564954215
 20
850.6764254633582
 30
0.0
 10
1660.067880808483
 20
852.1663348272889
 30
0.0
 10
1661.267111848045
 20
855.1576258546313
 30
0.0
 10
1662.552742732601
 20
859.7963884659232
 30
0.0
 10
1663.464822628739
 20
864.5079644594023
 30
0.0
 10
1664.073810294854
 20
870.1995947853904
 30
0.0
 10
1664.064362240452
 20
876.9316619126863
 30
0.0
 10
1663.293479226935
 20
883.1144648388857
 30
0.0
 10
1662.44062865811
 20
886.683741752108
 30
0.0
 10
1662.187961711929
 20
887.7411817430086
 30
0.0
  0
LWPOLYLINE
  5
2BA
330
1F
100
AcDbEntity
  8
0
  6
Continuous
 62
     8
370
    18
100
AcDbPolyline
 90
        9
 70
   128
 43
0.0
 10
1658.7588966173
 20
850.984557226
 10
1658.7758319797
 20
850.9771905182
 10
1658.8143653737
 20
850.9604820617
 10
1658.8741925792
 20
850.9345637694
 10
1658.9548412627
 20
850.8996402651
 10
1659.0556747056
 20
850.8559872688
 10
1659.1758968314
 20
850.8039494193
 10
1659.3145584906
 20
850.7439375536
 10
1659.4705649542
 20
850.6764254634
  0
ARC
  5
2BB
330
1F
100
AcDbEntity
  8
0
  6
Continuous
 62
     8
370
    18
100
AcDbCircle
 10
1656.8323397783
 20
908.6928066018
 30
0.0
 40
21.62529237991826
100
AcDbArc
 50
282.1010759283
 51
284.3388181969
  0
LWPOLYLINE
  5
2BC
330
1F
100
AcDbEntity
  8
0
  6
Continuous
 62
     8
370
    18
100
AcDbPolyline
 90
        9
 70
   128
 43
0.0
 10
1590.4959943994
 20
850.984557226
 10
1590.479059037
 20
850.9771905182
 10
1590.4405256431
 20
850.9604820617
 10
1590.3806984375
 20
850.9345637694
 10
1590.300049754
 20
850.8996402651
 10
1590.1992163111
 20
850.8559872688
 10
1590.0789941853
 20
850.8039494193
 10
1589.9403325261
 20
850.7439375536
 10
1589.7843260625
 20
850.6764254634
  0
SPLINE
  5
2BD
330
1F
100
AcDbEntity
  8
0
  6
Continuous
 62
     8
370
    18
100
AcDbSpline
210
0.0
220
0.0
230
1.0
 70
     8
 71
     3
 72
    14
 73
    10
 74
     0
 42
0.000000001
 43
0.00000001
 40
0.0
 40
0.0
 40
0.0
 40
0.0
 40
0.1272473860604716
 40
0.2554745767697392
 40
0.3810919869018187
 40
0.5075916090131551
 40
0.7089607368256288
 40
0.9137762176246995
 40
1.0
 40
1.0
 40
1.0
 40
1.0
 10
1589.784326062502
 20
850.6764254633575
 30
0.0
 10
1589.187010208234
 20
852.1663348272881
 30
0.0
 10
1587.987779168671
 20
855.1576258546307
 30
0.0
 10
1586.702148284116
 20
859.7963884659226
 30
0.0
 10
1585.790068387977
 20
864.5079644594017
 30
0.0
 10
1585.181080721863
 20
870.19959478539
 30
0.0
 10
1585.190528776264
 20
876.9316619126856
 30
0.0
 10
1585.961411789781
 20
883.1144648388852
 30
0.0
 10
1586.814262358607
 20
886.6837417521073
 30
0.0
 10
1587.066929304787
 20
887.741181743008
 30
0.0
  0
ARC
  5
2BE
330
1F
100
AcDbEntity
  8
0
  6
Continuous
 62
     8
370
    18
100
AcDbCircle
 10
1592.4225512385
 20
908.6928066021
 30
0.0
 40
21.62529238032337
100
AcDbArc
 50
255.6611818031
 51
257.8989240717
  0
SPLINE
  5
2BF
330
1F
100
AcDbEntity
  8
0
  6
Continuous
 62
     8
370
    18
100
AcDbSpline
210
0.0
220
0.0
230
1.0
 70
     8
 71
     3
 72
    17
 73
    13
 74
     0
 42
0.000000001
 43
0.00000001
 40
0.0
 40
0.0
 40
0.0
 40
0.0
 40
0.0045109817899508
 40
0.0089278415503381
 40
0.0130797684277637
 40
0.0177777921768911
 40
0.0339670776357914
 40
0.084060007251609
 40
0.3047425979556686
 40
0.7692822253148978
 40
0.8273200843747881
 40
1.0
 40
1.0
 40
1.0
 40
1.0
 10
1651.996570814498
 20
842.5756521322943
 30
0.0
 10
1651.992251526559
 20
842.5738883434833
 30
0.0
 10
1651.983703073003
 20
842.570397567469
 30
0.0
 10
1651.984895531752
 20
842.5721121032655
 30
0.0
 10
1651.999744628046
 20
842.5804330091154
 30
0.0
 10
1652.046683239618
 20
842.6051030605519
 30
0.0
 10
1652.229027765493
 20
842.6983152523632
 30
0.0
 10
1652.997034821754
 20
843.1022591936901
 30
0.0
 10
1654.893950604902
 20
844.29337256294
 30
0.0
 10
1656.537925718228
 20
845.8904850895132
 30
0.0
 10
1657.806583573534
 20
847.5771349264521
 30
0.0
 10
1658.172178840991
 20
848.1752668042061
 30
0.0
 10
1658.445807346743
 20
848.6229365267675
 30
0.0
  0
ARC
  5
2C0
330
1F
100
AcDbEntity
  8
0
  6
Continuous
 62
     8
370
    18
100
AcDbCircle
 10
1653.1506454935
 20
839.8404438456
 30
0.0
 40
2.968712302730748
100
AcDbArc
 50
112.8764869257
 51
119.1883353828
  0
ARC
  5
2C1
330
1F
100
AcDbEntity
  8
0
  6
Continuous
 62
     8
370
    18
100
AcDbCircle
 10
1657.633236119
 20
847.1261005202
 30
0.0
 40
1.703170581842408
100
AcDbArc
 50
61.5042694372
 51
85.582444766
  0
ARC
  5
2C2
330
1F
100
AcDbEntity
  8
0
  6
Continuous
 62
     8
370
    18
100
AcDbCircle
 10
1596.1042455233
 20
839.8404438456
 30
0.0
 40
2.968712302730646
100
AcDbArc
 50
60.8116646172
 51
67.1235130743
  0
SPLINE
  5
2C3
330
1F
100
AcDbEntity
  8
0
  6
Continuous
 62
     8
370
    18
100
AcDbSpline
210
0.0
220
0.0
230
1.0
 70
     8
 71
     3
 72
    17
 73
    13
 74
     0
 42
0.000000001
 43
0.00000001
 40
0.0
 40
0.0
 40
0.0
 40
0.0
 40
0.004510981789951
 40
0.0089278415503385
 40
0.0130797684277643
 40
0.0177777921768912
 40
0.0339670776357921
 40
0.0840600072516122
 40
0.3047425979556444
 40
0.7692822253148908
 40
0.8273200843747821
 40
1.0
 40
1.0
 40
1.0
 40
1.0
 10
1597.258320202219
 20
842.5756521322943
 30
0.0
 10
1597.262639490157
 20
842.5738883434832
 30
0.0
 10
1597.271187943714
 20
842.570397567469
 30
0.0
 10
1597.269995484965
 20
842.5721121032655
 30
0.0
 10
1597.255146388671
 20
842.5804330091155
 30
0.0
 10
1597.208207777098
 20
842.6051030605519
 30
0.0
 10
1597.025863251223
 20
842.6983152523632
 30
0.0
 10
1596.257856194962
 20
843.10225919369
 30
0.0
 10
1594.360940411814
 20
844.2933725629391
 30
0.0
 10
1592.716965298489
 20
845.8904850895126
 30
0.0
 10
1591.448307443183
 20
847.5771349264514
 30
0.0
 10
1591.082712175725
 20
848.1752668042054
 30
0.0
 10
1590.809083669973
 20
848.6229365267669
 30
0.0
  0
ARC
  5
2C4
330
1F
100
AcDbEntity
  8
0
  6
Continuous
 62
     8
370
    18
100
AcDbCircle
 10
1591.6216548977
 20
847.1261005201
 30
0.0
 40
1.703170581859999
100
AcDbArc
 50
94.4175552344
 51
118.4957305629
  0
ARC
  5
2C5
330
1F
100
AcDbEntity
  8
0
  6
Continuous
 62
     8
370
    18
100
AcDbCircle
 10
1624.590607465
 20
998.4044940015
 30
0.0
 40
105.5675478825249
100
AcDbArc
 50
288.5592662704
 51
288.9867308474
  0
SPLINE
  5
2C6
330
1F
100
AcDbEntity
  8
0
  6
Continuous
 62
     8
370
    18
100
AcDbSpline
210
0.0
220
0.0
230
1.0
 70
     8
 71
     3
 72
    10
 73
     6
 74
     0
 42
0.000000001
 43
0.00000001
 40
0.0
 40
0.0
 40
0.0
 40
0.0
 40
0.0049102993503908
 40
0.115164344171695
 40
0.9999999999999999
 40
0.9999999999999999
 40
0.9999999999999999
 40
0.9999999999999999
 10
1662.187961711929
 20
887.7411817430086
 30
0.0
 10
1662.183331631902
 20
887.7591173050943
 30
0.0
 10
1662.074739448058
 20
888.1797713421594
 30
0.0
 10
1661.115993851547
 20
891.8285609673327
 30
0.0
 10
1659.962558628519
 20
895.4025032575582
 30
0.0
 10
1658.936921832804
 20
898.5804595445139
 30
0.0
  0
SPLINE
  5
2C7
330
1F
100
AcDbEntity
  8
0
  6
Continuous
 62
     8
370
    18
100
AcDbSpline
210
0.0
220
0.0
230
1.0
 70
     8
 71
     3
 72
    10
 73
     6
 74
     0
 42
0.000000001
 43
0.00000001
 40
0.0
 40
0.0
 40
0.0
 40
0.0
 40
0.0049102993503896
 40
0.1151643441716922
 40
1.0
 40
1.0
 40
1.0
 40
1.0
 10
1587.066929304787
 20
887.741181743008
 30
0.0
 10
1587.071559384814
 20
887.7591173050936
 30
0.0
 10
1587.180151568658
 20
888.1797713421587
 30
0.0
 10
1588.13889716517
 20
891.8285609673322
 30
0.0
 10
1589.292332388198
 20
895.4025032575577
 30
0.0
 10
1590.317969183913
 20
898.5804595445134
 30
0.0
  0
ARC
  5
2C8
330
1F
100
AcDbEntity
  8
0
  6
Continuous
 62
     8
370
    18
100
AcDbCircle
 10
1624.664283551
 20
998.4044939995
 30
0.0
 40
105.5675478803706
100
AcDbArc
 50
251.0132691525
 51
251.4407337295
  0
ARC
  5
2C9
330
1F
100
AcDbEntity
  8
0
  6
Continuous
 62
     8
370
    18
100
AcDbCircle
 10
1658.9316096025
 20
904.9085699647
 30
0.0
 40
2.992681724126017
100
AcDbArc
 50
208.4544255779
 51
226.4525487523
  0
SPLINE
  5
2CA
330
1F
100
AcDbEntity
  8
0
  6
Continuous
 62
     8
370
    18
100
AcDbSpline
210
0.0
220
0.0
230
1.0
 70
     8
 71
     3
 72
    15
 73
    11
 74
     0
 42
0.000000001
 43
0.00000001
 40
0.0
 40
0.0
 40
0.0
 40
0.0
 40
0.3092031051605585
 40
0.663838255257455
 40
0.803986173963673
 40
0.9077221477257735
 40
0.9361281220494168
 40
0.9546919441403823
 40
0.978908979412591
 40
1.0
 40
1.0
 40
1.0
 40
1.0
 10
1658.936921832804
 20
898.5804595445139
 30
0.0
 10
1658.752962364088
 20
899.0681790542423
 30
0.0
 10
1658.358013766509
 20
900.1152800147092
 30
0.0
 10
1657.708476103233
 20
901.3164659173993
 30
0.0
 10
1657.207995265668
 20
902.1725435979437
 30
0.0
 10
1656.98529876507
 20
902.5346732669319
 30
0.0
 10
1656.89013044081
 20
902.6840159643856
 30
0.0
 10
1656.860856893959
 20
902.7333753078107
 30
0.0
 10
1656.852222420243
 20
902.7541770290358
 30
0.0
 10
1656.864207321169
 20
902.74413619444
 30
0.0
 10
1656.869786324448
 20
902.7394621592126
 30
0.0
  0
SPLINE
  5
2CB
330
1F
100
AcDbEntity
  8
0
  6
Continuous
 62
     8
370
    18
100
AcDbSpline
210
0.0
220
0.0
230
1.0
 70
     8
 71
     3
 72
    15
 73
    11
 74
     0
 42
0.000000001
 43
0.00000001
 40
0.0
 40
0.0
 40
0.0
 40
0.0
 40
0.3092031051605585
 40
0.663838255257455
 40
0.803986173963673
 40
0.9077221477257735
 40
0.9361281220494168
 40
0.9546919441403823
 40
0.978908979412591
 40
1.0
 40
1.0
 40
1.0
 40
1.0
 10
1590.317969183913
 20
898.5804595445134
 30
0.0
 10
1590.501928652629
 20
899.0681790542416
 30
0.0
 10
1590.896877250208
 20
900.1152800147087
 30
0.0
 10
1591.546414913484
 20
901.3164659173988
 30
0.0
 10
1592.046895751049
 20
902.1725435979431
 30
0.0
 10
1592.269592251648
 20
902.5346732669313
 30
0.0
 10
1592.364760575907
 20
902.6840159643849
 30
0.0
 10
1592.394034122758
 20
902.73337530781
 30
0.0
 10
1592.402668596474
 20
902.7541770290352
 30
0.0
 10
1592.390683695548
 20
902.7441361944392
 30
0.0
 10
1592.385104692269
 20
902.7394621592119
 30
0.0
  0
ARC
  5
2CC
330
1F
100
AcDbEntity
  8
0
  6
Continuous
 62
     8
370
    18
100
AcDbCircle
 10
1590.3232814142
 20
904.9085699647
 30
0.0
 40
2.992681724079355
100
AcDbArc
 50
313.5474512476
 51
331.5455744223
  0
LINE
  5
2CD
330
1F
100
AcDbEntity
  8
0
  6
Continuous
 62
     8
370
    18
100
AcDbLine
 10
1658.5384739162
 20
848.7864737035
 30
0.0
 11
1659.4705649542
 21
850.6764254634
 31
0.0
  0
ARC
  5
2CE
330
1F
100
AcDbEntity
  8
0
  6
Continuous
 62
     8
370
    18
100
AcDbCircle
 10
1657.7410388515
 20
847.2780394248
 30
0.0
 40
1.706246364310683
100
AcDbArc
 50
62.1367925984
 51
86.6231112419
  0
ARC
  5
2CF
330
1F
100
AcDbEntity
  8
0
  6
Continuous
 62
     8
370
    18
100
AcDbCircle
 10
1591.5138521652
 20
847.2780394248
 30
0.0
 40
1.706246364310939
100
AcDbArc
 50
93.3768887581
 51
117.8632074016
  0
LINE
  5
2D0
330
1F
100
AcDbEntity
  8
0
  6
Continuous
 62
     8
370
    18
100
AcDbLine
 10
1590.7164171005
 20
848.7864737035
 30
0.0
 11
1589.7843260625
 21
850.6764254634
 31
0.0
  0
ARC
  5
2D1
330
1F
100
AcDbEntity
  8
0
  6
Continuous
 62
     8
370
    18
100
AcDbCircle
 10
1658.9593745662
 20
900.3269947008
 30
0.0
 40
12.99332377673753
100
AcDbArc
 50
284.3876121929
 51
286.8712772964
  0
ARC
  5
2D2
330
1F
100
AcDbEntity
  8
0
  6
Continuous
 62
     8
370
    18
100
AcDbCircle
 10
1670.3722127273
 20
875.8717211506
 30
0.0
 40
27.45266560708449
100
AcDbArc
 50
246.6025480368
 51
247.6829243032
  0
ARC
  5
2D3
330
1F
100
AcDbEntity
  8
0
  6
Continuous
 62
     8
370
    18
100
AcDbCircle
 10
1590.2955164502
 20
900.3269946999
 30
0.0
 40
12.99332377579237
100
AcDbArc
 50
253.1287227035
 51
255.6123878072
  0
ARC
  5
2D4
330
1F
100
AcDbEntity
  8
0
  6
Continuous
 62
     8
370
    18
100
AcDbCircle
 10
1578.8826782898
 20
875.8717211497
 30
0.0
 40
27.45266560616332
100
AcDbArc
 50
292.3170756968
 51
293.3974519632
  0
LINE
  5
2D5
330
1F
100
AcDbEntity
  8
0
  6
Continuous
 62
     8
370
    18
100
AcDbLine
 10
1658.4458073467
 20
848.6229365268
 30
0.0
 11
1658.5384739162
 21
848.7864737035
 31
0.0
  0
LINE
  5
2D6
330
1F
100
AcDbEntity
  8
0
  6
Continuous
 62
     8
370
    18
100
AcDbLine
 10
1590.80908367
 20
848.6229365268
 30
0.0
 11
1590.7164171005
 21
848.7864737035
 31
0.0
  0
ARC
  5
2D7
330
1F
100
AcDbEntity
  8
0
  6
Continuous
 62
     8
370
    18
100
AcDbCircle
 10
1657.91184959
 20
847.6833196227
 30
0.0
 40
1.080736236285408
100
AcDbArc
 50
35.0981925254
 51
60.3916535263
  0
ARC
  5
2D8
330
1F
100
AcDbEntity
  8
0
  6
Continuous
 62
     8
370
    18
100
AcDbCircle
 10
1591.3430414267
 20
847.6833196227
 30
0.0
 40
1.080736236287015
100
AcDbArc
 50
119.6083464738
 51
144.9018074746
  0
ARC
  5
2D9
330
1F
100
AcDbEntity
  8
0
  6
Continuous
 62
     8
370
    18
100
AcDbCircle
 10
1617.1438834616
 20
1019.9497501433
 30
0.0
 40
128.3634011575565
100
AcDbArc
 50
289.0009454547
 51
289.2355634086
  0
ARC
  5
2DA
330
1F
100
AcDbEntity
  8
0
  6
Continuous
 62
     8
370
    18
100
AcDbCircle
 10
1632.1110075465
 20
1019.9497501186
 30
0.0
 40
128.363401131452
100
AcDbArc
 50
250.7644365914
 51
250.9990545453
  0
ARC
  5
2DB
330
1F
100
AcDbEntity
  8
0
  6
Continuous
 62
     8
370
    18
100
AcDbCircle
 10
1653.7515579237
 20
840.0798770856
 30
0.0
 40
2.9933394159412
100
AcDbArc
 50
114.9362317311
 51
120.8121245743
  0
ARC
  5
2DC
330
1F
100
AcDbEntity
  8
0
  6
Continuous
 62
     8
370
    18
100
AcDbCircle
 10
1595.503333093
 20
840.0798770856
 30
0.0
 40
2.993339415993227
100
AcDbArc
 50
59.1878754258
 51
65.0637682689
  0
ARC
  5
2DD
330
1F
100
AcDbEntity
  8
0
  6
Continuous
 62
     8
370
    18
100
AcDbCircle
 10
1659.1241255524
 20
904.7298501302
 30
0.0
 40
2.998432342299408
100
AcDbArc
 50
207.1895966033
 51
225.2949287513
  0
ARC
  5
2DE
330
1F
100
AcDbEntity
  8
0
  6
Continuous
 62
     8
370
    18
100
AcDbCircle
 10
1590.1307654643
 20
904.7298501302
 30
0.0
 40
2.998432342258442
100
AcDbArc
 50
314.7050712486
 51
332.8104033968
  0
SPLINE
  5
2DF
330
1F
100
AcDbEntity
  8
0
  6
Continuous
 62
     8
370
    18
100
AcDbSpline
210
0.0
220
0.0
230
1.0
 70
     8
 71
     3
 72
    14
 73
    10
 74
     0
 42
0.000000001
 43
0.00000001
 40
0.0
 40
0.0
 40
0.0
 40
0.0
 40
0.1092374782649528
 40
0.258125363523247
 40
0.4079301969034697
 40
0.5608445870787161
 40
0.7149451852853921
 40
0.9256729043336754
 40
1.0
 40
1.0
 40
1.0
 40
1.0
 10
1659.794169396761
 20
849.6183256408316
 30
0.0
 10
1659.964072518198
 20
850.0029168559472
 30
0.0
 10
1660.365549242865
 20
850.9116960477263
 30
0.0
 10
1660.975873403724
 20
852.451040921947
 30
0.0
 10
1661.613109534198
 20
854.2504771871364
 30
0.0
 10
1662.207795199703
 20
856.16926475057
 30
0.0
 10
1662.803241938021
 20
858.4478136056844
 30
0.0
 10
1663.254351644542
 20
860.4548244685755
 30
0.0
 10
1663.453916679644
 20
861.8117712169435
 30
0.0
 10
1663.505952599368
 20
862.1655905722874
 30
0.0
  0
LWPOLYLINE
  5
2E0
330
1F
100
AcDbEntity
  8
0
  6
Continuous
 62
     8
370
    18
100
AcDbPolyline
 90
        3
 70
   128
 43
0.0
 10
1659.7941693968
 20
849.6183256408
 10
1659.4744727261
 20
849.6277404497
 10
1659.455344329
 20
849.6272899347
  0
LWPOLYLINE
  5
2E1
330
1F
100
AcDbEntity
  8
0
  6
Continuous
 62
     8
370
    18
100
AcDbPolyline
 90
        9
 70
   128
 43
0.0
 10
1659.7941693968
 20
849.6183256408
 10
1661.7415042946
 20
850.1610360584
 10
1663.5443368136
 20
850.9230442439
 10
1665.1562631668
 20
851.8847365809
 10
1666.5357933732
 20
853.0213597072
 10
1667.6474191838
 20
854.303657651
 10
1668.4625280424
 20
855.6986248614
 10
1668.9601395541
 20
857.1703557505
 10
1669.1274455084
 20
858.6809688814
  0
SPLINE
  5
2E2
330
1F
100
AcDbEntity
  8
0
  6
Continuous
 62
     8
370
    18
100
AcDbSpline
210
0.0
220
0.0
230
1.0
 70
     8
 71
     3
 72
     9
 73
     5
 74
     0
 42
0.000000001
 43
0.00000001
 40
0.0
 40
0.0
 40
0.0
 40
0.0
 40
0.577047443601943
 40
1.0
 40
1.0
 40
1.0
 40
1.0
 10
1656.127445508358
 20
844.3910798506885
 30
0.0
 10
1656.918735029134
 20
845.2458760153482
 30
0.0
 10
1658.290007928009
 20
846.7272033726346
 30
0.0
 10
1659.347078637773
 20
848.7589803670239
 30
0.0
 10
1659.794169396761
 20
849.6183256408316
 30
0.0
  0
SPLINE
  5
2E3
330
1F
100
AcDbEntity
  8
0
  6
Continuous
 62
     8
370
    18
100
AcDbSpline
210
0.0
220
0.0
230
1.0
 70
     8
 71
     3
 72
    10
 73
     6
 74
     0
 42
0.000000001
 43
0.00000001
 40
0.0
 40
0.0
 40
0.0
 40
0.0
 40
0.394708216760189
 40
0.7987089853918099
 40
0.9999999999999999
 40
0.9999999999999999
 40
0.9999999999999999
 40
0.9999999999999999
 10
1656.127445508358
 20
844.3910798506885
 30
0.0
 10
1654.984074967884
 20
843.6610131368585
 30
0.0
 10
1652.670415698754
 20
842.1836918663322
 30
0.0
 10
1649.500547138148
 20
841.0632348040639
 30
0.0
 10
1647.531707111319
 20
840.8983120253358
 30
0.0
 10
1646.876965352756
 20
840.843466619564
 30
0.0
  0
LWPOLYLINE
  5
2E4
330
1F
100
AcDbEntity
  8
0
  6
Continuous
 62
     8
370
    18
100
AcDbPolyline
 90
       10
 70
   128
 43
0.0
 10
1669.1274455084
 20
855.3899630028
 10
1668.9299462975
 20
853.4800269871
 10
1668.3434495786
 20
851.6281234107
 10
1667.3857757576
 20
849.8905214267
 10
1666.0860232689
 20
848.3200171922
 10
1664.4836844343
 20
846.9643296836
 10
1662.6274455084
 20
845.8646507798
 10
1660.5737073716
 20
845.0543936679
 10
1658.384871818
 20
844.5581776001
 10
1656.1274455084
 20
844.3910798507
  0
LINE
  5
2E5
330
1F
100
AcDbEntity
  8
0
  6
Continuous
 62
     8
370
    18
100
AcDbLine
 10
1656.1274455084
 20
840.5350816169
 30
0.0
 11
1656.1274455084
 21
844.3910798507
 31
0.0
  0
SPLINE
  5
2E6
330
1F
100
AcDbEntity
  8
0
  6
Continuous
 62
     8
370
    18
100
AcDbSpline
210
0.0
220
0.0
230
1.0
 70
     8
 71
     3
 72
    17
 73
    13
 74
     0
 42
0.000000001
 43
0.00000001
 40
0.0
 40
0.0
 40
0.0
 40
0.0
 40
0.2229912195125248
 40
0.5008176009813644
 40
0.6858965399883318
 40
0.8665771651903962
 40
0.9279597470317683
 40
0.949761636180796
 40
0.971758309012416
 40
0.9770054670052026
 40
0.992237290067687
 40
1.0
 40
1.0
 40
1.0
 40
1.0
 10
1594.928486956356
 20
843.9496059378114
 30
0.0
 10
1595.064230245471
 20
843.8491924793892
 30
0.0
 10
1595.369097085307
 20
843.6236731631437
 30
0.0
 10
1595.807628595233
 20
843.3447886216884
 30
0.0
 10
1596.223871224148
 20
843.0941676618784
 30
0.0
 10
1596.504457617938
 20
842.9361042756464
 30
0.0
 10
1596.671569773735
 20
842.8452617498175
 30
0.0
 10
1596.729555996399
 20
842.8139574180539
 30
0.0
 10
1596.7513719273
 20
842.8021540425791
 30
0.0
 10
1596.763195027557
 20
842.7956620783395
 30
0.0
 10
1596.767252176826
 20
842.7933470983187
 30
0.0
 10
1596.765832221353
 20
842.7939624406987
 30
0.0
 10
1596.765352859478
 20
842.7941701737457
 30
0.0
  0
LINE
  5
2E7
330
1F
100
AcDbEntity
  8
0
  6
Continuous
 62
     8
370
    18
100
AcDbLine
 10
1659.6274455084
 20
932.9846816169
 30
0.0
 11
1575.1274455084
 21
932.9846816169
 31
0.0
  0
LINE
  5
2E8
330
1F
100
AcDbEntity
  8
0
  6
Continuous
 62
     8
370
    18
100
AcDbLine
 10
1575.1024455084
 20
922.9846816169
 30
0.0
 11
1574.1024455084
 21
922.9846816169
 31
0.0
  0
LINE
  5
2E9
330
1F
100
AcDbEntity
  8
0
  6
Continuous
 62
     8
370
    18
100
AcDbLine
 10
1575.1024455084
 20
954.4846816169
 30
0.0
 11
1574.1024455084
 21
954.4846816169
 31
0.0
  0
LINE
  5
2EA
330
1F
100
AcDbEntity
  8
0
  6
Continuous
 62
     8
370
    18
100
AcDbLine
 10
1576.1024455084
 20
921.9846816169
 30
0.0
 11
1576.1024455084
 21
920.9846816169
 31
0.0
  0
LINE
  5
2EB
330
1F
100
AcDbEntity
  8
0
  6
Continuous
 62
     8
370
    18
100
AcDbLine
 10
1680.1024455084
 20
920.9846816169
 30
0.0
 11
1680.1024455084
 21
921.9846816169
 31
0.0
  0
LINE
  5
2EC
330
1F
100
AcDbEntity
  8
0
  6
Continuous
 62
     7
370
    35
100
AcDbLine
 10
360.6107245225
 20
699.2803727514
 30
0.0
 11
1340.6107245225
 21
699.2803727514
 31
0.0
  0
LINE
  5
2ED
330
1F
100
AcDbEntity
  8
0
  6
Continuous
 62
     7
370
    35
100
AcDbLine
 10
360.6107245225
 20
700.2803727514
 30
0.0
 11
360.6107245225
 21
699.2803727514
 31
0.0
  0
LINE
  5
2EE
330
1F
100
AcDbEntity
  8
0
  6
Continuous
 62
     7
370
    35
100
AcDbLine
 10
360.6107245225
 20
700.2803727514
 30
0.0
 11
1340.6107245225
 21
700.2803727514
 31
0.0
  0
LINE
  5
2EF
330
1F
100
AcDbEntity
  8
0
  6
Continuous
 62
     7
370
    35
100
AcDbLine
 10
1340.6107245225
 20
700.2803727514
 30
0.0
 11
1340.6107245225
 21
699.2803727514
 31
0.0
  0
LINE
  5
2F0
330
1F
100
AcDbEntity
  8
0
  6
Continuous
 62
     7
370
    35
100
AcDbLine
 10
1340.6107245225
 20
698.2803727514
 30
0.0
 11
1340.6107245225
 21
699.2803727514
 31
0.0
  0
LINE
  5
2F1
330
1F
100
AcDbEntity
  8
0
  6
Continuous
 62
     7
370
    35
100
AcDbLine
 10
360.6107245225
 20
699.2803727514
 30
0.0
 11
360.6107245225
 21
698.2803727514
 31
0.0
  0
LINE
  5
2F2
330
1F
100
AcDbEntity
  8
0
  6
Continuous
 62
     7
370
    35
100
AcDbLine
 10
1340.6107245225
 20
683.7803727514
 30
0.0
 11
1340.6107245225
 21
698.2803727514
 31
0.0
  0
LINE
  5
2F3
330
1F
100
AcDbEntity
  8
0
  6
Continuous
 62
     7
370
    35
100
AcDbLine
 10
360.6107245225
 20
698.2803727514
 30
0.0
 11
360.6107245225
 21
683.7803727514
 31
0.0
  0
LINE
  5
2F4
330
1F
100
AcDbEntity
  8
0
  6
Continuous
 62
     7
370
    35
100
AcDbLine
 10
360.6107245225
 20
682.0483219438
 30
0.0
 11
360.6107245225
 21
683.7803727514
 31
0.0
  0
LINE
  5
2F5
330
1F
100
AcDbEntity
  8
0
  6
Continuous
 62
     7
370
    35
100
AcDbLine
 10
1340.6107245225
 20
683.7803727514
 30
0.0
 11
1340.6107245225
 21
682.0483219438
 31
0.0
  0
LINE
  5
2F6
330
1F
100
AcDbEntity
  8
0
  6
Continuous
 62
     7
370
    35
100
AcDbLine
 10
1340.6107245225
 20
681.7803727514
 30
0.0
 11
360.6107245225
 21
681.7803727514
 31
0.0
  0
LINE
  5
2F7
330
1F
100
AcDbEntity
  8
0
  6
Continuous
 62
     7
370
    35
100
AcDbLine
 10
1340.6107245225
 20
617.6945863137
 30
0.0
 11
1340.6107245225
 21
614.866159189
 31
0.0
  0
LINE
  5
2F8
330
1F
100
AcDbEntity
  8
0
  6
Continuous
 62
     7
370
    35
100
AcDbLine
 10
360.6107245225
 20
614.7803727514
 30
0.0
 11
1340.6107245225
 21
614.7803727514
 31
0.0
  0
LINE
  5
2F9
330
1F
100
AcDbEntity
  8
0
  6
Continuous
 62
     7
370
    35
100
AcDbLine
 10
360.6107245225
 20
614.866159189
 30
0.0
 11
360.6107245225
 21
617.6945863137
 31
0.0
  0
LINE
  5
2FA
330
1F
100
AcDbEntity
  8
0
  6
Continuous
 62
     7
370
    35
100
AcDbLine
 10
360.6107245225
 20
617.7803727514
 30
0.0
 11
1340.6107245225
 21
617.7803727514
 31
0.0
  0
LINE
  5
2FB
330
1F
100
AcDbEntity
  8
0
  6
Continuous
 62
     7
370
    35
100
AcDbLine
 10
360.6107245225
 20
614.7803727514
 30
0.0
 11
360.6107245225
 21
613.7803727514
 31
0.0
  0
LINE
  5
2FC
330
1F
100
AcDbEntity
  8
0
  6
Continuous
 62
     7
370
    35
100
AcDbLine
 10
1340.6107245225
 20
613.7803727514
 30
0.0
 11
1340.6107245225
 21
614.7803727514
 31
0.0
  0
LINE
  5
2FD
330
1F
100
AcDbEntity
  8
0
  6
Continuous
 62
     7
370
    35
100
AcDbLine
 10
1340.6107245225
 20
584.2803727514
 30
0.0
 11
360.6107245225
 21
584.2803727514
 31
0.0
  0
LINE
  5
2FE
330
1F
100
AcDbEntity
  8
0
  6
Continuous
 62
     7
370
    35
100
AcDbLine
 10
360.6107245225
 20
584.2803727514
 30
0.0
 11
360.6107245225
 21
613.7803727514
 31
0.0
  0
LINE
  5
2FF
330
1F
100
AcDbEntity
  8
0
  6
Continuous
 62
     7
370
    35
100
AcDbLine
 10
1340.6107245225
 20
613.7803727514
 30
0.0
 11
1340.6107245225
 21
584.2803727514
 31
0.0
  0
LINE
  5
300
330
1F
100
AcDbEntity
  8
0
  6
Continuous
 62
     7
370
    35
100
AcDbLine
 10
797.6107245225
 20
679.0353524493
 30
0.0
 11
903.6107245225
 21
679.0353524493
 31
0.0
  0
SPLINE
  5
301
330
1F
100
AcDbEntity
  8
0
  6
Continuous
 62
     7
370
    35
100
AcDbSpline
210
0.0
220
0.0
230
1.0
 70
     8
 71
     3
 72
     8
 73
     4
 74
     0
 42
0.000000001
 43
0.00000001
 40
0.0
 40
0.0
 40
0.0
 40
0.0
 40
1.0
 40
1.0
 40
1.0
 40
1.0
 10
790.8434615505678
 20
678.8370881795698
 30
0.0
 10
793.096788541677
 20
678.9675759603707
 30
0.0
 10
795.353605990175
 20
679.0353524493211
 30
0.0
 10
797.6107245224555
 20
679.0353524493211
 30
0.0
  0
SPLINE
  5
302
330
1F
100
AcDbEntity
  8
0
  6
Continuous
 62
     7
370
    35
100
AcDbSpline
210
0.0
220
0.0
230
1.0
 70
     8
 71
     3
 72
     8
 73
     4
 74
     0
 42
0.000000001
 43
0.00000001
 40
0.0
 40
0.0
 40
0.0
 40
0.0
 40
1.0
 40
1.0
 40
1.0
 40
1.0
 10
903.6107245224555
 20
679.0353524493211
 30
0.0
 10
905.867838192201
 20
679.0353524493211
 30
0.0
 10
908.1246601969731
 20
678.9675759781302
 30
0.0
 10
910.3779874943432
 20
678.83708817957
 30
0.0
  0
SPLINE
  5
303
330
1F
100
AcDbEntity
  8
0
  6
Continuous
 62
     7
370
    35
100
AcDbSpline
210
0.0
220
0.0
230
1.0
 70
     8
 71
     3
 72
     8
 73
     4
 74
     0
 42
0.000000001
 43
0.00000001
 40
0.0
 40
0.0
 40
0.0
 40
0.0
 40
1.0
 40
1.0
 40
1.0
 40
1.0
 10
797.6107245224555
 20
620.5253930534066
 30
0.0
 10
795.35361085271
 20
620.5253930534066
 30
0.0
 10
793.0967888479378
 20
620.5931695245974
 30
0.0
 10
790.8434615505676
 20
620.7236573231577
 30
0.0
  0
LINE
  5
304
330
1F
100
AcDbEntity
  8
0
  6
Continuous
 62
     7
370
    35
100
AcDbLine
 10
903.6107245225
 20
620.5253930534
 30
0.0
 11
797.6107245225
 21
620.5253930534
 31
0.0
  0
SPLINE
  5
305
330
1F
100
AcDbEntity
  8
0
  6
Continuous
 62
     7
370
    35
100
AcDbSpline
210
0.0
220
0.0
230
1.0
 70
     8
 71
     3
 72
     8
 73
     4
 74
     0
 42
0.000000001
 43
0.00000001
 40
0.0
 40
0.0
 40
0.0
 40
0.0
 40
1.0
 40
1.0
 40
1.0
 40
1.0
 10
910.3779874943434
 20
620.7236573231578
 30
0.0
 10
908.1246605032339
 20
620.5931695423569
 30
0.0
 10
905.867843054736
 20
620.5253930534066
 30
0.0
 10
903.6107245224555
 20
620.5253930534066
 30
0.0
  0
SPLINE
  5
306
330
1F
100
AcDbEntity
  8
0
  6
Continuous
 62
     7
370
    35
100
AcDbSpline
210
0.0
220
0.0
230
1.0
 70
     8
 71
     3
 72
    10
 73
     6
 74
     0
 42
0.000000001
 43
0.00000001
 40
0.0
 40
0.0
 40
0.0
 40
0.0
 40
0.5
 40
0.5
 40
1.0
 40
1.0
 40
1.0
 40
1.0
 10
903.6107245224555
 20
679.0303727513639
 30
0.0
 10
904.7536846704128
 20
679.0303727513639
 30
0.0
 10
905.8888781481562
 20
679.0140987325353
 30
0.0
 10
908.1444044805272
 20
678.9496643405263
 30
0.0
 10
909.264740426583
 20
678.9015067632204
 30
0.0
 10
910.3779874943434
 20
678.8370655389273
 30
0.0
  0
SPLINE
  5
307
330
1F
100
AcDbEntity
  8
0
  6
Continuous
 62
     7
370
    35
100
AcDbSpline
210
0.0
220
0.0
230
1.0
 70
     8
 71
     3
 72
    10
 73
     6
 74
     0
 42
0.000000001
 43
0.00000001
 40
0.0
 40
0.0
 40
0.0
 40
0.0
 40
0.5
 40
0.5
 40
1.0
 40
1.0
 40
1.0
 40
1.0
 10
903.6107245224555
 20
676.7803727513639
 30
0.0
 10
904.6394642555443
 20
676.7803727513639
 30
0.0
 10
905.6611437318402
 20
676.7217792143548
 30
0.0
 10
907.6910693144869
 20
676.4898165403393
 30
0.0
 10
908.6993188312529
 20
676.3164598260519
 30
0.0
 10
909.7012611971544
 20
676.0844667865924
 30
0.0
  0
SPLINE
  5
308
330
1F
100
AcDbEntity
  8
0
  6
Continuous
 62
     7
370
    35
100
AcDbSpline
210
0.0
220
0.0
230
1.0
 70
     8
 71
     3
 72
    10
 73
     6
 74
     0
 42
0.000000001
 43
0.00000001
 40
0.0
 40
0.0
 40
0.0
 40
0.0
 40
0.5
 40
0.5
 40
1.0
 40
1.0
 40
1.0
 40
1.0
 10
790.8434615505676
 20
678.8370655389273
 30
0.0
 10
791.956708618328
 20
678.9015067632204
 30
0.0
 10
793.0770445643838
 20
678.9496643405263
 30
0.0
 10
795.3325708967548
 20
679.0140987325353
 30
0.0
 10
796.4677643744982
 20
679.0303727513639
 30
0.0
 10
797.6107245224555
 20
679.0303727513639
 30
0.0
  0
SPLINE
  5
309
330
1F
100
AcDbEntity
  8
0
  6
Continuous
 62
     7
370
    35
100
AcDbSpline
210
0.0
220
0.0
230
1.0
 70
     8
 71
     3
 72
    10
 73
     6
 74
     0
 42
0.000000001
 43
0.00000001
 40
0.0
 40
0.0
 40
0.0
 40
0.0
 40
0.5
 40
0.5
 40
1.0
 40
1.0
 40
1.0
 40
1.0
 10
791.5201878477566
 20
676.0844667865923
 30
0.0
 10
792.5221302136581
 20
676.3164598260519
 30
0.0
 10
793.5303797304241
 20
676.4898165403393
 30
0.0
 10
795.5603053130708
 20
676.7217792143548
 30
0.0
 10
796.5819847893666
 20
676.7803727513639
 30
0.0
 10
797.6107245224555
 20
676.7803727513639
 30
0.0
  0
SPLINE
  5
30A
330
1F
100
AcDbEntity
  8
0
  6
Continuous
 62
     7
370
    35
100
AcDbSpline
210
0.0
220
0.0
230
1.0
 70
     8
 71
     3
 72
    10
 73
     6
 74
     0
 42
0.000000001
 43
0.00000001
 40
0.0
 40
0.0
 40
0.0
 40
0.0
 40
0.5
 40
0.5
 40
1.0
 40
1.0
 40
1.0
 40
1.0
 10
797.6107245224555
 20
620.5303727513638
 30
0.0
 10
796.4677643744982
 20
620.5303727513638
 30
0.0
 10
795.3325708967548
 20
620.5466467701922
 30
0.0
 10
793.0770445643836
 20
620.6110811622012
 30
0.0
 10
791.9567086183279
 20
620.6592387395074
 30
0.0
 10
790.8434615505674
 20
620.7236799638004
 30
0.0
  0
SPLINE
  5
30B
330
1F
100
AcDbEntity
  8
0
  6
Continuous
 62
     7
370
    35
100
AcDbSpline
210
0.0
220
0.0
230
1.0
 70
     8
 71
     3
 72
    10
 73
     6
 74
     0
 42
0.000000001
 43
0.00000001
 40
0.0
 40
0.0
 40
0.0
 40
0.0
 40
0.5
 40
0.5
 40
1.0
 40
1.0
 40
1.0
 40
1.0
 10
797.6107245224555
 20
622.7803727513638
 30
0.0
 10
796.5819847893666
 20
622.7803727513638
 30
0.0
 10
795.5603053130708
 20
622.8389662883728
 30
0.0
 10
793.530379730424
 20
623.0709289623882
 30
0.0
 10
792.522130213658
 20
623.2442856766758
 30
0.0
 10
791.5201878477563
 20
623.4762787161353
 30
0.0
  0
SPLINE
  5
30C
330
1F
100
AcDbEntity
  8
0
  6
Continuous
 62
     7
370
    35
100
AcDbSpline
210
0.0
220
0.0
230
1.0
 70
     8
 71
     3
 72
    10
 73
     6
 74
     0
 42
0.000000001
 43
0.00000001
 40
0.0
 40
0.0
 40
0.0
 40
0.0
 40
0.5
 40
0.5
 40
1.0
 40
1.0
 40
1.0
 40
1.0
 10
910.3779874943435
 20
620.7236799638004
 30
0.0
 10
909.2647404265831
 20
620.6592387395074
 30
0.0
 10
908.1444044805273
 20
620.6110811622012
 30
0.0
 10
905.8888781481562
 20
620.5466467701922
 30
0.0
 10
904.7536846704128
 20
620.5303727513638
 30
0.0
 10
903.6107245224555
 20
620.5303727513638
 30
0.0
  0
SPLINE
  5
30D
330
1F
100
AcDbEntity
  8
0
  6
Continuous
 62
     7
370
    35
100
AcDbSpline
210
0.0
220
0.0
230
1.0
 70
     8
 71
     3
 72
    10
 73
     6
 74
     0
 42
0.000000001
 43
0.00000001
 40
0.0
 40
0.0
 40
0.0
 40
0.0
 40
0.5
 40
0.5
 40
1.0
 40
1.0
 40
1.0
 40
1.0
 10
909.7012611971546
 20
623.4762787161353
 30
0.0
 10
908.6993188312529
 20
623.2442856766759
 30
0.0
 10
907.691069314487
 20
623.0709289623882
 30
0.0
 10
905.6611437318402
 20
622.8389662883728
 30
0.0
 10
904.6394642555443
 20
622.7803727513638
 30
0.0
 10
903.6107245224555
 20
622.7803727513638
 30
0.0
  0
LINE
  5
30E
330
1F
100
AcDbEntity
  8
0
  6
Continuous
 62
     7
370
    35
100
AcDbLine
 10
903.6107245225
 20
679.0303727514
 30
0.0
 11
797.6107245225
 21
679.0303727514
 31
0.0
  0
LINE
  5
30F
330
1F
100
AcDbEntity
  8
0
  6
Continuous
 62
     7
370
    35
100
AcDbLine
 10
797.6107245225
 20
676.7803727514
 30
0.0
 11
903.6107245225
 21
676.7803727514
 31
0.0
  0
LINE
  5
310
330
1F
100
AcDbEntity
  8
0
  6
Continuous
 62
     7
370
    35
100
AcDbLine
 10
797.6107245225
 20
620.5303727514
 30
0.0
 11
903.6107245225
 21
620.5303727514
 31
0.0
  0
LINE
  5
311
330
1F
100
AcDbEntity
  8
0
  6
Continuous
 62
     7
370
    35
100
AcDbLine
 10
903.6107245225
 20
622.7803727514
 30
0.0
 11
797.6107245225
 21
622.7803727514
 31
0.0
  0
ARC
  5
312
330
1F
100
AcDbEntity
  8
0
  6
Continuous
 62
     7
370
    35
100
AcDbCircle
 10
903.6107245225
 20
649.7803727514
 30
0.0
 40
27.0000000000001
100
AcDbArc
 50
0.4331051188
 51
76.9632820449
  0
ARC
  5
313
330
1F
100
AcDbEntity
  8
0
  6
Continuous
 62
     7
370
    35
100
AcDbCircle
 10
797.6107245225
 20
649.7803727514
 30
0.0
 40
27.0000000000001
100
AcDbArc
 50
103.0367179551
 51
179.5668948812
  0
ARC
  5
314
330
1F
100
AcDbEntity
  8
0
  6
Continuous
 62
     7
370
    35
100
AcDbCircle
 10
797.6107245225
 20
649.7803727514
 30
0.0
 40
27.0000000000001
100
AcDbArc
 50
180.4331051188
 51
256.9632820449
  0
ARC
  5
315
330
1F
100
AcDbEntity
  8
0
  6
Continuous
 62
     7
370
    35
100
AcDbCircle
 10
903.6107245225
 20
649.7803727514
 30
0.0
 40
27.0000000000001
100
AcDbArc
 50
283.0367179551
 51
359.5668948812
  0
LINE
  5
316
330
1F
100
AcDbEntity
  8
0
  6
Continuous
 62
     7
370
    35
100
AcDbLine
 10
893.6107245225
 20
654.713547254
 30
0.0
 11
894.030325607
 21
657.5798962592
 31
0.0
  0
SPLINE
  5
317
330
1F
100
AcDbEntity
  8
0
  6
Continuous
 62
     7
370
    35
100
AcDbSpline
210
0.0
220
0.0
230
1.0
 70
     8
 71
     3
 72
    11
 73
     7
 74
     0
 42
0.000000001
 43
0.00000001
 40
0.0
 40
0.0
 40
0.0
 40
0.0
 40
0.2606216717109327
 40
0.4632004480822266
 40
0.6713667795608118
 40
1.0
 40
1.0
 40
1.0
 40
1.0
 10
894.030325606957
 20
657.5798962592454
 30
0.0
 10
894.3972069776183
 20
658.5816144390558
 30
0.0
 10
895.0492617901278
 20
660.3619587469341
 30
0.0
 10
896.5866266519506
 20
662.6169583689968
 30
0.0
 10
898.6013924364466
 20
664.8315925493489
 30
0.0
 10
900.4467205222842
 20
665.9520546473209
 30
0.0
 10
901.5764459653274
 20
666.6380110090971
 30
0.0
  0
SPLINE
  5
318
330
1F
100
AcDbEntity
  8
0
  6
Continuous
 62
     7
370
    35
100
AcDbSpline
210
0.0
220
0.0
230
1.0
 70
     8
 71
     3
 72
    16
 73
    12
 74
     0
 42
0.000000001
 43
0.00000001
 40
0.0
 40
0.0
 40
0.0
 40
0.0
 40
0.609364260452155
 40
0.7233750503883669
 40
0.8172213162021763
 40
0.8496365726798809
 40
0.8823612341657188
 40
0.9067814804504398
 40
0.9311421346358156
 40
0.9706402276081939
 40
1.0
 40
1.0
 40
1.0
 40
1.0
 10
901.5764459653274
 20
666.6380110090971
 30
0.0
 10
902.1532802349167
 20
666.9356660850468
 30
0.0
 10
902.8380390005854
 20
667.2890118086765
 30
0.0
 10
903.5052819717691
 20
667.8147501323341
 30
0.0
 10
903.6755353697473
 20
667.9999031423883
 30
0.0
 10
903.7438088304241
 20
668.1485594425601
 30
0.0
 10
903.7554479714181
 20
668.2421601079419
 30
0.0
 10
903.7309225232045
 20
668.32612279295
 30
0.0
 10
903.6746598155613
 20
668.4042617801232
 30
0.0
 10
903.5915876528971
 20
668.4664589759584
 30
0.0
 10
903.5231667844517
 20
668.4983489051878
 30
0.0
 10
903.4939933397947
 20
668.5119462053482
 30
0.0
  0
SPLINE
  5
319
330
1F
100
AcDbEntity
  8
0
  6
Continuous
 62
     7
370
    35
100
AcDbSpline
210
0.0
220
0.0
230
1.0
 70
     8
 71
     3
 72
    13
 73
     9
 74
     0
 42
0.000000001
 43
0.00000001
 40
0.0
 40
0.0
 40
0.0
 40
0.0
 40
0.1585077763893691
 40
0.3168380823633754
 40
0.4791716695217884
 40
0.6493085002788197
 40
0.823595348237253
 40
1.0
 40
1.0
 40
1.0
 40
1.0
 10
916.1383367596148
 20
654.1015254118388
 30
0.0
 10
915.8457616058556
 20
655.1118508636454
 30
0.0
 10
915.2609388749091
 20
657.1313705743188
 30
0.0
 10
913.7649123232221
 20
659.9519733258804
 30
0.0
 10
911.8382336535163
 20
662.5820241338648
 30
0.0
 10
909.4391592557374
 20
664.9449567301133
 30
0.0
 10
906.6468329830033
 20
667.0008490751895
 30
0.0
 10
904.549162454117
 20
668.0062233646959
 30
0.0
 10
903.4939933397947
 20
668.5119462053482
 30
0.0
  0
SPLINE
  5
31A
330
1F
100
AcDbEntity
  8
0
  6
Continuous
 62
     7
370
    35
100
AcDbSpline
210
0.0
220
0.0
230
1.0
 70
     8
 71
     3
 72
     9
 73
     5
 74
     0
 42
0.000000001
 43
0.00000001
 40
0.0
 40
0.0
 40
0.0
 40
0.0
 40
0.4230848072461902
 40
1.0
 40
1.0
 40
1.0
 40
1.0
 10
916.1383367596148
 20
645.4592200908887
 30
0.0
 10
916.3644571658726
 20
646.6739357150437
 30
0.0
 10
916.8989136209025
 20
649.5450282320771
 30
0.0
 10
916.4165941754544
 20
652.4345286951961
 30
0.0
 10
916.1383367596148
 20
654.1015254118388
 30
0.0
  0
SPLINE
  5
31B
330
1F
100
AcDbEntity
  8
0
  6
Continuous
 62
     7
370
    35
100
AcDbSpline
210
0.0
220
0.0
230
1.0
 70
     8
 71
     3
 72
    13
 73
     9
 74
     0
 42
0.000000001
 43
0.00000001
 40
0.0
 40
0.0
 40
0.0
 40
0.0
 40
0.1585077763893679
 40
0.3168380823633726
 40
0.4791716695217846
 40
0.649308500278815
 40
0.8235953482372543
 40
1.0
 40
1.0
 40
1.0
 40
1.0
 10
916.1383367596148
 20
645.4592200908887
 30
0.0
 10
915.8457616058556
 20
644.4488946390821
 30
0.0
 10
915.2609388749091
 20
642.4293749284088
 30
0.0
 10
913.7649123232219
 20
639.6087721768472
 30
0.0
 10
911.8382336535163
 20
636.9787213688628
 30
0.0
 10
909.4391592557373
 20
634.6157887726143
 30
0.0
 10
906.6468329830033
 20
632.5598964275378
 30
0.0
 10
904.549162454117
 20
631.5545221380314
 30
0.0
 10
903.4939933397947
 20
631.0487992973791
 30
0.0
  0
SPLINE
  5
31C
330
1F
100
AcDbEntity
  8
0
  6
Continuous
 62
     7
370
    35
100
AcDbSpline
210
0.0
220
0.0
230
1.0
 70
     8
 71
     3
 72
    16
 73
    12
 74
     0
 42
0.000000001
 43
0.00000001
 40
0.0
 40
0.0
 40
0.0
 40
0.0
 40
0.6093642604521569
 40
0.723375050388367
 40
0.8172213162021764
 40
0.849636572679881
 40
0.8823612341657189
 40
0.9067814804504399
 40
0.9311421346358156
 40
0.9706402276081939
 40
1.0
 40
1.0
 40
1.0
 40
1.0
 10
901.5764459653274
 20
632.9227344936303
 30
0.0
 10
902.1532802349167
 20
632.6250794176806
 30
0.0
 10
902.8380390005854
 20
632.271733694051
 30
0.0
 10
903.5052819717691
 20
631.7459953703933
 30
0.0
 10
903.6755353697473
 20
631.560842360339
 30
0.0
 10
903.743808830424
 20
631.4121860601672
 30
0.0
 10
903.7554479714181
 20
631.3185853947855
 30
0.0
 10
903.7309225232045
 20
631.2346227097775
 30
0.0
 10
903.6746598155613
 20
631.1564837226041
 30
0.0
 10
903.5915876528971
 20
631.0942865267689
 30
0.0
 10
903.5231667844517
 20
631.0623965975395
 30
0.0
 10
903.4939933397947
 20
631.0487992973791
 30
0.0
  0
SPLINE
  5
31D
330
1F
100
AcDbEntity
  8
0
  6
Continuous
 62
     7
370
    35
100
AcDbSpline
210
0.0
220
0.0
230
1.0
 70
     8
 71
     3
 72
    11
 73
     7
 74
     0
 42
0.000000001
 43
0.00000001
 40
0.0
 40
0.0
 40
0.0
 40
0.0
 40
0.2606216717109335
 40
0.4632004480822242
 40
0.6713667795608064
 40
1.0
 40
1.0
 40
1.0
 40
1.0
 10
894.030325606957
 20
641.9808492434822
 30
0.0
 10
894.3972069776183
 20
640.9791310636718
 30
0.0
 10
895.0492617901278
 20
639.1987867557935
 30
0.0
 10
896.5866266519506
 20
636.9437871337308
 30
0.0
 10
898.6013924364466
 20
634.7291529533787
 30
0.0
 10
900.4467205222842
 20
633.6086908554066
 30
0.0
 10
901.5764459653274
 20
632.9227344936303
 30
0.0
  0
LINE
  5
31E
330
1F
100
AcDbEntity
  8
0
  6
Continuous
 62
     7
370
    35
100
AcDbLine
 10
893.6107245225
 20
644.8471982487
 30
0.0
 11
894.030325607
 21
641.9808492435
 31
0.0
  0
LINE
  5
31F
330
1F
100
AcDbEntity
  8
0
  6
Continuous
 62
     7
370
    35
100
AcDbLine
 10
893.6107245225
 20
644.8471982487
 30
0.0
 11
893.6107245225
 21
654.713547254
 31
0.0
  0
LINE
  5
320
330
1F
100
AcDbEntity
  8
0
  6
Continuous
 62
     7
370
    35
100
AcDbLine
 10
807.6107245225
 20
644.8471982487
 30
0.0
 11
807.191123438
 21
641.9808492435
 31
0.0
  0
SPLINE
  5
321
330
1F
100
AcDbEntity
  8
0
  6
Continuous
 62
     7
370
    35
100
AcDbSpline
210
0.0
220
0.0
230
1.0
 70
     8
 71
     3
 72
    11
 73
     7
 74
     0
 42
0.000000001
 43
0.00000001
 40
0.0
 40
0.0
 40
0.0
 40
0.0
 40
0.2606216717109316
 40
0.4632004480822233
 40
0.6713667795608058
 40
1.0
 40
1.0
 40
1.0
 40
1.0
 10
807.1911234379533
 20
641.9808492434822
 30
0.0
 10
806.824242067292
 20
640.9791310636718
 30
0.0
 10
806.1721872547823
 20
639.1987867557935
 30
0.0
 10
804.6348223929598
 20
636.9437871337308
 30
0.0
 10
802.6200566084635
 20
634.7291529533787
 30
0.0
 10
800.774728522626
 20
633.6086908554066
 30
0.0
 10
799.6450030795829
 20
632.9227344936303
 30
0.0
  0
SPLINE
  5
322
330
1F
100
AcDbEntity
  8
0
  6
Continuous
 62
     7
370
    35
100
AcDbSpline
210
0.0
220
0.0
230
1.0
 70
     8
 71
     3
 72
    16
 73
    12
 74
     0
 42
0.000000001
 43
0.00000001
 40
0.0
 40
0.0
 40
0.0
 40
0.0
 40
0.6093642604521555
 40
0.7233750503883672
 40
0.8172213162021765
 40
0.8496365726798811
 40
0.8823612341657189
 40
0.9067814804504399
 40
0.9311421346358157
 40
0.970640227608194
 40
1.0
 40
1.0
 40
1.0
 40
1.0
 10
799.6450030795829
 20
632.9227344936303
 30
0.0
 10
799.0681688099936
 20
632.6250794176806
 30
0.0
 10
798.3834100443249
 20
632.271733694051
 30
0.0
 10
797.7161670731412
 20
631.7459953703933
 30
0.0
 10
797.545913675163
 20
631.560842360339
 30
0.0
 10
797.4776402144862
 20
631.4121860601672
 30
0.0
 10
797.4660010734922
 20
631.3185853947856
 30
0.0
 10
797.4905265217056
 20
631.2346227097775
 30
0.0
 10
797.5467892293489
 20
631.1564837226043
 30
0.0
 10
797.6298613920131
 20
631.0942865267689
 30
0.0
 10
797.6982822604585
 20
631.0623965975395
 30
0.0
 10
797.7274557051156
 20
631.0487992973791
 30
0.0
  0
SPLINE
  5
323
330
1F
100
AcDbEntity
  8
0
  6
Continuous
 62
     7
370
    35
100
AcDbSpline
210
0.0
220
0.0
230
1.0
 70
     8
 71
     3
 72
    13
 73
     9
 74
     0
 42
0.000000001
 43
0.00000001
 40
0.0
 40
0.0
 40
0.0
 40
0.0
 40
0.1585077763893677
 40
0.3168380823633722
 40
0.4791716695217857
 40
0.6493085002788156
 40
0.8235953482372544
 40
1.0
 40
1.0
 40
1.0
 40
1.0
 10
785.0831122852954
 20
645.4592200908887
 30
0.0
 10
785.3756874390547
 20
644.4488946390821
 30
0.0
 10
785.960510170001
 20
642.4293749284088
 30
0.0
 10
787.4565367216882
 20
639.6087721768472
 30
0.0
 10
789.383215391394
 20
636.9787213688628
 30
0.0
 10
791.782289789173
 20
634.6157887726143
 30
0.0
 10
794.5746160619069
 20
632.5598964275378
 30
0.0
 10
796.6722865907933
 20
631.5545221380314
 30
0.0
 10
797.7274557051156
 20
631.0487992973791
 30
0.0
  0
SPLINE
  5
324
330
1F
100
AcDbEntity
  8
0
  6
Continuous
 62
     7
370
    35
100
AcDbSpline
210
0.0
220
0.0
230
1.0
 70
     8
 71
     3
 72
     9
 73
     5
 74
     0
 42
0.000000001
 43
0.00000001
 40
0.0
 40
0.0
 40
0.0
 40
0.0
 40
0.4230848072461901
 40
1.0
 40
1.0
 40
1.0
 40
1.0
 10
785.0831122852954
 20
645.4592200908887
 30
0.0
 10
784.8569918790375
 20
646.6739357150439
 30
0.0
 10
784.3225354240077
 20
649.5450282320772
 30
0.0
 10
784.8048548694559
 20
652.4345286951963
 30
0.0
 10
785.0831122852954
 20
654.1015254118389
 30
0.0
  0
SPLINE
  5
325
330
1F
100
AcDbEntity
  8
0
  6
Continuous
 62
     7
370
    35
100
AcDbSpline
210
0.0
220
0.0
230
1.0
 70
     8
 71
     3
 72
    13
 73
     9
 74
     0
 42
0.000000001
 43
0.00000001
 40
0.0
 40
0.0
 40
0.0
 40
0.0
 40
0.1585077763893687
 40
0.3168380823633747
 40
0.479171669521789
 40
0.6493085002788203
 40
0.8235953482372533
 40
1.0
 40
1.0
 40
1.0
 40
1.0
 10
785.0831122852954
 20
654.1015254118389
 30
0.0
 10
785.3756874390547
 20
655.1118508636455
 30
0.0
 10
785.960510170001
 20
657.1313705743188
 30
0.0
 10
787.4565367216882
 20
659.9519733258804
 30
0.0
 10
789.383215391394
 20
662.5820241338648
 30
0.0
 10
791.782289789173
 20
664.9449567301133
 30
0.0
 10
794.574616061907
 20
667.0008490751895
 30
0.0
 10
796.6722865907933
 20
668.0062233646961
 30
0.0
 10
797.7274557051156
 20
668.5119462053482
 30
0.0
  0
SPLINE
  5
326
330
1F
100
AcDbEntity
  8
0
  6
Continuous
 62
     7
370
    35
100
AcDbSpline
210
0.0
220
0.0
230
1.0
 70
     8
 71
     3
 72
    16
 73
    12
 74
     0
 42
0.000000001
 43
0.00000001
 40
0.0
 40
0.0
 40
0.0
 40
0.0
 40
0.6093642604521534
 40
0.723375050388367
 40
0.8172213162021763
 40
0.8496365726798809
 40
0.8823612341657187
 40
0.9067814804504397
 40
0.9311421346358155
 40
0.9706402276081938
 40
0.9999999999999999
 40
0.9999999999999999
 40
0.9999999999999999
 40
0.9999999999999999
 10
799.6450030795829
 20
666.6380110090971
 30
0.0
 10
799.0681688099936
 20
666.9356660850468
 30
0.0
 10
798.3834100443249
 20
667.2890118086765
 30
0.0
 10
797.7161670731412
 20
667.8147501323341
 30
0.0
 10
797.545913675163
 20
667.9999031423883
 30
0.0
 10
797.4776402144862
 20
668.1485594425601
 30
0.0
 10
797.4660010734922
 20
668.2421601079419
 30
0.0
 10
797.4905265217056
 20
668.32612279295
 30
0.0
 10
797.5467892293489
 20
668.4042617801232
 30
0.0
 10
797.6298613920131
 20
668.4664589759584
 30
0.0
 10
797.6982822604585
 20
668.4983489051878
 30
0.0
 10
797.7274557051156
 20
668.5119462053482
 30
0.0
  0
SPLINE
  5
327
330
1F
100
AcDbEntity
  8
0
  6
Continuous
 62
     7
370
    35
100
AcDbSpline
210
0.0
220
0.0
230
1.0
 70
     8
 71
     3
 72
    11
 73
     7
 74
     0
 42
0.000000001
 43
0.00000001
 40
0.0
 40
0.0
 40
0.0
 40
0.0
 40
0.2606216717109345
 40
0.4632004480822277
 40
0.6713667795608126
 40
1.0
 40
1.0
 40
1.0
 40
1.0
 10
807.1911234379533
 20
657.5798962592454
 30
0.0
 10
806.824242067292
 20
658.5816144390558
 30
0.0
 10
806.1721872547823
 20
660.3619587469341
 30
0.0
 10
804.6348223929598
 20
662.6169583689968
 30
0.0
 10
802.6200566084636
 20
664.8315925493489
 30
0.0
 10
800.774728522626
 20
665.9520546473209
 30
0.0
 10
799.6450030795829
 20
666.6380110090971
 30
0.0
  0
LINE
  5
328
330
1F
100
AcDbEntity
  8
0
  6
Continuous
 62
     7
370
    35
100
AcDbLine
 10
807.6107245225
 20
654.713547254
 30
0.0
 11
807.191123438
 21
657.5798962592
 31
0.0
  0
LINE
  5
329
330
1F
100
AcDbEntity
  8
0
  6
Continuous
 62
     7
370
    35
100
AcDbLine
 10
807.6107245225
 20
644.8471982487
 30
0.0
 11
807.6107245225
 21
654.713547254
 31
0.0
  0
SPLINE
  5
32A
330
1F
100
AcDbEntity
  8
0
  6
Continuous
 62
     7
370
    35
100
AcDbSpline
210
0.0
220
0.0
230
1.0
 70
     8
 71
     3
 72
    17
 73
    13
 74
     0
 42
0.000000001
 43
0.00000001
 40
0.0
 40
0.0
 40
0.0
 40
0.0
 40
0.0364925733413331
 40
0.1833587448077187
 40
0.2877156143828467
 40
0.3934837304905568
 40
0.4992474923956522
 40
0.6063189697897157
 40
0.7133499989193073
 40
0.8177518468878905
 40
0.9088657685707867
 40
1.0
 40
1.0
 40
1.0
 40
1.0
 10
903.6107245224551
 20
671.5216452188994
 30
0.0
 10
904.025530158455
 20
671.5138405559564
 30
0.0
 10
906.1097416511521
 20
671.4746256398835
 30
0.0
 10
909.3653199712458
 20
670.8864419011096
 30
0.0
 10
913.165967859037
 20
669.4215114503522
 30
0.0
 10
916.2633976569302
 20
667.5704685761634
 30
0.0
 10
919.052012358999
 20
665.2337320854165
 30
0.0
 10
921.4056315091422
 20
662.4384489014418
 30
0.0
 10
923.2600619147973
 20
659.308652654655
 30
0.0
 10
924.5034861508603
 20
656.0872046857406
 30
0.0
 10
925.2153339319995
 20
652.8903285407413
 30
0.0
 10
925.3045594715466
 20
650.8171016946688
 30
0.0
 10
925.3491772129702
 20
649.7803727513638
 30
0.0
  0
SPLINE
  5
32B
330
1F
100
AcDbEntity
  8
0
  6
Continuous
 62
     7
370
    35
100
AcDbSpline
210
0.0
220
0.0
230
1.0
 70
     8
 71
     3
 72
    17
 73
    13
 74
     0
 42
0.000000001
 43
0.00000001
 40
0.0
 40
0.0
 40
0.0
 40
0.0
 40
0.036492573341333
 40
0.1833587448077184
 40
0.2877156143828461
 40
0.3934837304905568
 40
0.4992474923956529
 40
0.6063189697897161
 40
0.7133499989193075
 40
0.8177518468878905
 40
0.9088657685707867
 40
1.0
 40
1.0
 40
1.0
 40
1.0
 10
797.610724522455
 20
671.5216452188994
 30
0.0
 10
797.1959188864553
 20
671.5138405559564
 30
0.0
 10
795.111707393758
 20
671.4746256398836
 30
0.0
 10
791.8561290736646
 20
670.8864419011096
 30
0.0
 10
788.0554811858732
 20
669.4215114503522
 30
0.0
 10
784.95805138798
 20
667.5704685761634
 30
0.0
 10
782.1694366859111
 20
665.2337320854165
 30
0.0
 10
779.815817535768
 20
662.4384489014418
 30
0.0
 10
777.9613871301127
 20
659.3086526546551
 30
0.0
 10
776.7179628940497
 20
656.0872046857406
 30
0.0
 10
776.0061151129108
 20
652.8903285407413
 30
0.0
 10
775.9168895733635
 20
650.8171016946688
 30
0.0
 10
775.87227183194
 20
649.7803727513638
 30
0.0
  0
SPLINE
  5
32C
330
1F
100
AcDbEntity
  8
0
  6
Continuous
 62
     7
370
    35
100
AcDbSpline
210
0.0
220
0.0
230
1.0
 70
     8
 71
     3
 72
    17
 73
    13
 74
     0
 42
0.000000001
 43
0.00000001
 40
0.0
 40
0.0
 40
0.0
 40
0.0
 40
0.0364925733413329
 40
0.1833587448077177
 40
0.287715614382845
 40
0.3934837304905572
 40
0.4992474923956549
 40
0.6063189697897178
 40
0.7133499989193087
 40
0.8177518468878912
 40
0.908865768570787
 40
1.0
 40
1.0
 40
1.0
 40
1.0
 10
797.610724522455
 20
628.039100283828
 30
0.0
 10
797.1959188864553
 20
628.0469049467711
 30
0.0
 10
795.1117073937581
 20
628.0861198628439
 30
0.0
 10
791.8561290736645
 20
628.6743036016178
 30
0.0
 10
788.0554811858732
 20
630.1392340523751
 30
0.0
 10
784.95805138798
 20
631.9902769265641
 30
0.0
 10
782.1694366859111
 20
634.3270134173112
 30
0.0
 10
779.815817535768
 20
637.1222966012858
 30
0.0
 10
777.9613871301127
 20
640.2520928480725
 30
0.0
 10
776.7179628940498
 20
643.473540816987
 30
0.0
 10
776.0061151129106
 20
646.6704169619862
 30
0.0
 10
775.9168895733635
 20
648.7436438080588
 30
0.0
 10
775.87227183194
 20
649.7803727513638
 30
0.0
  0
SPLINE
  5
32D
330
1F
100
AcDbEntity
  8
0
  6
Continuous
 62
     7
370
    35
100
AcDbSpline
210
0.0
220
0.0
230
1.0
 70
     8
 71
     3
 72
    17
 73
    13
 74
     0
 42
0.000000001
 43
0.00000001
 40
0.0
 40
0.0
 40
0.0
 40
0.0
 40
0.0364925733413329
 40
0.1833587448077179
 40
0.2877156143828454
 40
0.3934837304905568
 40
0.4992474923956543
 40
0.6063189697897172
 40
0.7133499989193084
 40
0.8177518468878908
 40
0.9088657685707869
 40
1.0
 40
1.0
 40
1.0
 40
1.0
 10
903.610724522455
 20
628.039100283828
 30
0.0
 10
904.025530158455
 20
628.0469049467711
 30
0.0
 10
906.1097416511521
 20
628.0861198628439
 30
0.0
 10
909.3653199712458
 20
628.6743036016178
 30
0.0
 10
913.165967859037
 20
630.1392340523751
 30
0.0
 10
916.2633976569302
 20
631.9902769265641
 30
0.0
 10
919.052012358999
 20
634.3270134173112
 30
0.0
 10
921.4056315091422
 20
637.1222966012858
 30
0.0
 10
923.2600619147973
 20
640.2520928480725
 30
0.0
 10
924.5034861508603
 20
643.473540816987
 30
0.0
 10
925.2153339319995
 20
646.6704169619862
 30
0.0
 10
925.3045594715466
 20
648.7436438080587
 30
0.0
 10
925.3491772129702
 20
649.7803727513638
 30
0.0
  0
LINE
  5
32E
330
1F
100
AcDbEntity
  8
0
  6
Continuous
 62
     7
370
    35
100
AcDbLine
 10
807.4545533323
 20
643.7803727514
 30
0.0
 11
893.7668957127
 21
643.7803727514
 31
0.0
  0
LINE
  5
32F
330
1F
100
AcDbEntity
  8
0
  6
Continuous
 62
     7
370
    35
100
AcDbLine
 10
903.6107245225
 20
671.5216452189
 30
0.0
 11
797.6107245225
 21
671.5216452189
 31
0.0
  0
LINE
  5
330
330
1F
100
AcDbEntity
  8
0
  6
Continuous
 62
     7
370
    35
100
AcDbLine
 10
903.6107245225
 20
628.0391002838
 30
0.0
 11
797.6107245225
 21
628.0391002838
 31
0.0
  0
LINE
  5
331
330
1F
100
AcDbEntity
  8
0
  6
Continuous
 62
     7
370
    35
100
AcDbLine
 10
807.4545533323
 20
655.7803727514
 30
0.0
 11
893.7668957127
 21
655.7803727514
 31
0.0
  0
LINE
  5
332
330
1F
100
AcDbEntity
  8
0
  6
Continuous
 62
     7
370
    35
100
AcDbLine
 10
903.6107245225
 20
671.5303727514
 30
0.0
 11
797.6107245225
 21
671.5303727514
 31
0.0
  0
ARC
  5
333
330
1F
100
AcDbEntity
  8
0
  6
Continuous
 62
     7
370
    35
100
AcDbCircle
 10
903.6107245225
 20
649.7803727514
 30
0.0
 40
21.75000000000023
100
AcDbArc
 50
270.0
 51
90.0
  0
ARC
  5
334
330
1F
100
AcDbEntity
  8
0
  6
Continuous
 62
     7
370
    35
100
AcDbCircle
 10
797.6107245225
 20
649.7803727514
 30
0.0
 40
21.75000000000023
100
AcDbArc
 50
90.0
 51
270.0
  0
LINE
  5
335
330
1F
100
AcDbEntity
  8
0
  6
Continuous
 62
     7
370
    35
100
AcDbLine
 10
903.6107245225
 20
628.0303727514
 30
0.0
 11
797.6107245225
 21
628.0303727514
 31
0.0
  0
LINE
  5
336
330
1F
100
AcDbEntity
  8
0
  6
Continuous
 62
     7
370
    35
100
AcDbLine
 10
360.6107245225
 20
614.7803727514
 30
0.0
 11
359.6107245225
 21
614.7803727514
 31
0.0
  0
LINE
  5
337
330
1F
100
AcDbEntity
  8
0
  6
Continuous
 62
     7
370
    35
100
AcDbLine
 10
359.6107245225
 20
699.2803727514
 30
0.0
 11
360.6107245225
 21
699.2803727514
 31
0.0
  0
LINE
  5
338
330
1F
100
AcDbEntity
  8
0
  6
Continuous
 62
     7
370
    35
100
AcDbLine
 10
360.6107245225
 20
682.0483219438
 30
0.0
 11
360.6107245225
 21
617.6945863137
 31
0.0
  0
LINE
  5
339
330
1F
100
AcDbEntity
  8
0
  6
Continuous
 62
     7
370
    35
100
AcDbLine
 10
360.6107245225
 20
614.866159189
 30
0.0
 11
360.6107245225
 21
614.7803727514
 31
0.0
  0
LINE
  5
33A
330
1F
100
AcDbEntity
  8
0
  6
Continuous
 62
     7
370
    35
100
AcDbLine
 10
359.6107245225
 20
614.7803727514
 30
0.0
 11
358.6107245225
 21
614.7803727514
 31
0.0
  0
LINE
  5
33B
330
1F
100
AcDbEntity
  8
0
  6
Continuous
 62
     7
370
    35
100
AcDbLine
 10
358.6107245225
 20
614.7803727514
 30
0.0
 11
358.6107245225
 21
699.2803727514
 31
0.0
  0
LINE
  5
33C
330
1F
100
AcDbEntity
  8
0
  6
Continuous
 62
     7
370
    35
100
AcDbLine
 10
358.6107245225
 20
699.2803727514
 30
0.0
 11
359.6107245225
 21
699.2803727514
 31
0.0
  0
LINE
  5
33D
330
1F
100
AcDbEntity
  8
0
  6
Continuous
 62
     7
370
    35
100
AcDbLine
 10
1341.6107245225
 20
614.7803727514
 30
0.0
 11
1340.6107245225
 21
614.7803727514
 31
0.0
  0
LINE
  5
33E
330
1F
100
AcDbEntity
  8
0
  6
Continuous
 62
     7
370
    35
100
AcDbLine
 10
1340.6107245225
 20
614.7803727514
 30
0.0
 11
1340.6107245225
 21
614.866159189
 31
0.0
  0
LINE
  5
33F
330
1F
100
AcDbEntity
  8
0
  6
Continuous
 62
     7
370
    35
100
AcDbLine
 10
1340.6107245225
 20
617.6945863137
 30
0.0
 11
1340.6107245225
 21
682.0483219438
 31
0.0
  0
LINE
  5
340
330
1F
100
AcDbEntity
  8
0
  6
Continuous
 62
     7
370
    35
100
AcDbLine
 10
1340.6107245225
 20
699.2803727514
 30
0.0
 11
1341.6107245225
 21
699.2803727514
 31
0.0
  0
LINE
  5
341
330
1F
100
AcDbEntity
  8
0
  6
Continuous
 62
     7
370
    35
100
AcDbLine
 10
1342.6107245225
 20
614.7803727514
 30
0.0
 11
1341.6107245225
 21
614.7803727514
 31
0.0
  0
LINE
  5
342
330
1F
100
AcDbEntity
  8
0
  6
Continuous
 62
     7
370
    35
100
AcDbLine
 10
1342.6107245225
 20
699.2803727514
 30
0.0
 11
1342.6107245225
 21
614.7803727514
 31
0.0
  0
LINE
  5
343
330
1F
100
AcDbEntity
  8
0
  6
Continuous
 62
     7
370
    35
100
AcDbLine
 10
1341.6107245225
 20
699.2803727514
 30
0.0
 11
1342.6107245225
 21
699.2803727514
 31
0.0
  0
LINE
  5
344
330
1F
100
AcDbEntity
  8
0
  6
Continuous
 62
     7
370
    35
100
AcDbLine
 10
360.6107245225
 20
700.3053727514
 30
0.0
 11
360.6107245225
 21
699.3053727514
 31
0.0
  0
LINE
  5
345
330
1F
100
AcDbEntity
  8
0
  6
Continuous
 62
     7
370
    35
100
AcDbLine
 10
360.6107245225
 20
699.3053727514
 30
0.0
 11
338.1107245225
 21
699.3053727514
 31
0.0
  0
LINE
  5
346
330
1F
100
AcDbEntity
  8
0
  6
Continuous
 62
     7
370
    35
100
AcDbLine
 10
360.6107245225
 20
700.3053727514
 30
0.0
 11
338.1107245225
 21
700.3053727514
 31
0.0
  0
LINE
  5
347
330
1F
100
AcDbEntity
  8
0
  6
Continuous
 62
     7
370
    35
100
AcDbLine
 10
328.1107245225
 20
699.3053727514
 30
0.0
 11
328.1107245225
 21
700.3053727514
 31
0.0
  0
LINE
  5
348
330
1F
100
AcDbEntity
  8
0
  6
Continuous
 62
     7
370
    35
100
AcDbLine
 10
328.1107245225
 20
700.3053727514
 30
0.0
 11
338.1107245225
 21
700.3053727514
 31
0.0
  0
LINE
  5
349
330
1F
100
AcDbEntity
  8
0
  6
Continuous
 62
     7
370
    35
100
AcDbLine
 10
338.1107245225
 20
699.3053727514
 30
0.0
 11
328.1107245225
 21
699.3053727514
 31
0.0
  0
LINE
  5
34A
330
1F
100
AcDbEntity
  8
0
  6
Continuous
 62
     7
370
    35
100
AcDbLine
 10
328.1107245225
 20
699.3053727514
 30
0.0
 11
328.1107245225
 21
698.3053727514
 31
0.0
  0
LINE
  5
34B
330
1F
100
AcDbEntity
  8
0
  6
Continuous
 62
     7
370
    35
100
AcDbLine
 10
360.6107245225
 20
613.7803727514
 30
0.0
 11
360.6107245225
 21
584.3053727514
 31
0.0
  0
LINE
  5
34C
330
1F
100
AcDbEntity
  8
0
  6
Continuous
 62
     7
370
    35
100
AcDbLine
 10
360.6107245225
 20
584.3053727514
 30
0.0
 11
338.1107245225
 21
584.3053727514
 31
0.0
  0
ARC
  5
34D
330
1F
100
AcDbEntity
  8
0
  6
Continuous
 62
     7
370
    35
100
AcDbCircle
 10
338.1107245225
 20
594.3053727514
 30
0.0
 40
10.0
100
AcDbArc
 50
180.0
 51
270.0
  0
LINE
  5
34E
330
1F
100
AcDbEntity
  8
0
  6
Continuous
 62
     7
370
    35
100
AcDbLine
 10
328.1107245225
 20
594.3053727514
 30
0.0
 11
328.1107245225
 21
698.3053727514
 31
0.0
  0
LINE
  5
34F
330
1F
100
AcDbEntity
  8
0
  6
Continuous
 62
     7
370
    35
100
AcDbLine
 10
1373.1107245225
 20
700.3053727514
 30
0.0
 11
1373.1107245225
 21
699.3053727514
 31
0.0
  0
LINE
  5
350
330
1F
100
AcDbEntity
  8
0
  6
Continuous
 62
     7
370
    35
100
AcDbLine
 10
1373.1107245225
 20
699.3053727514
 30
0.0
 11
1363.1107245225
 21
699.3053727514
 31
0.0
  0
LINE
  5
351
330
1F
100
AcDbEntity
  8
0
  6
Continuous
 62
     7
370
    35
100
AcDbLine
 10
1363.1107245225
 20
700.3053727514
 30
0.0
 11
1373.1107245225
 21
700.3053727514
 31
0.0
  0
LINE
  5
352
330
1F
100
AcDbEntity
  8
0
  6
Continuous
 62
     7
370
    35
100
AcDbLine
 10
1340.6107245225
 20
700.3053727514
 30
0.0
 11
1340.6107245225
 21
699.3053727514
 31
0.0
  0
LINE
  5
353
330
1F
100
AcDbEntity
  8
0
  6
Continuous
 62
     7
370
    35
100
AcDbLine
 10
1340.6107245225
 20
700.3053727514
 30
0.0
 11
1363.1107245225
 21
700.3053727514
 31
0.0
  0
LINE
  5
354
330
1F
100
AcDbEntity
  8
0
  6
Continuous
 62
     7
370
    35
100
AcDbLine
 10
1340.6107245225
 20
699.3053727514
 30
0.0
 11
1363.1107245225
 21
699.3053727514
 31
0.0
  0
LINE
  5
355
330
1F
100
AcDbEntity
  8
0
  6
Continuous
 62
     7
370
    35
100
AcDbLine
 10
1373.1107245225
 20
698.3053727514
 30
0.0
 11
1373.1107245225
 21
699.3053727514
 31
0.0
  0
ARC
  5
356
330
1F
100
AcDbEntity
  8
0
  6
Continuous
 62
     7
370
    35
100
AcDbCircle
 10
1363.1107245225
 20
594.3053727514
 30
0.0
 40
10.0
100
AcDbArc
 50
270.0
 51
0.0
  0
LINE
  5
357
330
1F
100
AcDbEntity
  8
0
  6
Continuous
 62
     7
370
    35
100
AcDbLine
 10
1340.6107245225
 20
584.3053727514
 30
0.0
 11
1363.1107245225
 21
584.3053727514
 31
0.0
  0
LINE
  5
358
330
1F
100
AcDbEntity
  8
0
  6
Continuous
 62
     7
370
    35
100
AcDbLine
 10
1340.6107245225
 20
613.7803727514
 30
0.0
 11
1340.6107245225
 21
584.3053727514
 31
0.0
  0
LINE
  5
359
330
1F
100
AcDbEntity
  8
0
  6
Continuous
 62
     7
370
    35
100
AcDbLine
 10
1373.1107245225
 20
594.3053727514
 30
0.0
 11
1373.1107245225
 21
698.3053727514
 31
0.0
  0
LINE
  5
35A
330
1F
100
AcDbEntity
  8
0
  6
Continuous
 62
     8
370
    18
100
AcDbLine
 10
360.6107245225
 20
698.2803727514
 30
0.0
 11
1340.6107245225
 21
698.2803727514
 31
0.0
  0
LINE
  5
35B
330
1F
100
AcDbEntity
  8
0
  6
Continuous
 62
     8
370
    18
100
AcDbLine
 10
1340.6107245225
 20
683.7803727514
 30
0.0
 11
360.6107245225
 21
683.7803727514
 31
0.0
  0
LINE
  5
35C
330
1F
100
AcDbEntity
  8
0
  6
Continuous
 62
     8
370
    18
100
AcDbLine
 10
360.6107245225
 20
613.7803727514
 30
0.0
 11
1340.6107245225
 21
613.7803727514
 31
0.0
  0
LINE
  5
35D
330
1F
100
AcDbEntity
  8
0
  6
Continuous
 62
     8
370
    18
100
AcDbLine
 10
360.6107245225
 20
680.8370655389
 30
0.0
 11
1340.6107245225
 21
680.8370655389
 31
0.0
  0
LINE
  5
35E
330
1F
100
AcDbEntity
  8
0
  6
Continuous
 62
     8
370
    18
100
AcDbLine
 10
360.6107245225
 20
618.7236799638
 30
0.0
 11
1340.6107245225
 21
618.7236799638
 31
0.0
  0
SPLINE
  5
35F
330
1F
100
AcDbEntity
  8
0
  6
Continuous
 62
     8
370
    18
100
AcDbSpline
210
0.0
220
0.0
230
1.0
 70
     8
 71
     3
 72
    14
 73
    10
 74
     0
 42
0.000000001
 43
0.00000001
 40
0.0
 40
0.0
 40
0.0
 40
0.0
 40
0.2500000000000001
 40
0.2500000000000001
 40
0.5000000000000001
 40
0.5000000000000001
 40
0.7500000000000001
 40
0.7500000000000001
 40
1.0
 40
1.0
 40
1.0
 40
1.0
 10
767.6115816206088
 20
649.8370655389273
 30
0.0
 10
767.6368232067521
 20
653.1762290477425
 30
0.0
 10
768.2246991499399
 20
656.5104511174834
 30
0.0
 10
770.4612460510356
 20
662.8033406178873
 30
0.0
 10
772.1094559883379
 20
665.7607108918814
 30
0.0
 10
776.284985882591
 20
670.9729609249571
 30
0.0
 10
778.8114451353373
 20
673.2267662801593
 30
0.0
 10
784.464669686919
 20
676.7825576793405
 30
0.0
 10
787.5902696835623
 20
678.0838107661419
 30
0.0
 10
790.8434615505678
 20
678.8370655389272
 30
0.0
  0
LINE
  5
360
330
1F
100
AcDbEntity
  8
0
  6
Continuous
 62
     8
370
    18
100
AcDbLine
 10
360.6107245225
 20
649.8370655389
 30
0.0
 11
767.6115816206
 21
649.8370655389
 31
0.0
  0
LINE
  5
361
330
1F
100
AcDbEntity
  8
0
  6
Continuous
 62
     8
370
    18
100
AcDbLine
 10
933.6098674243
 20
649.8370655389
 30
0.0
 11
1340.6107245225
 21
649.8370655389
 31
0.0
  0
SPLINE
  5
362
330
1F
100
AcDbEntity
  8
0
  6
Continuous
 62
     8
370
    18
100
AcDbSpline
210
0.0
220
0.0
230
1.0
 70
     8
 71
     3
 72
    14
 73
    10
 74
     0
 42
0.000000001
 43
0.00000001
 40
0.0
 40
0.0
 40
0.0
 40
0.0
 40
0.25
 40
0.25
 40
0.5
 40
0.5
 40
0.75
 40
0.75
 40
1.0
 40
1.0
 40
1.0
 40
1.0
 10
910.3779874943432
 20
678.8370655389273
 30
0.0
 10
913.6311793613487
 20
678.0838107661419
 30
0.0
 10
916.756779357992
 20
676.7825576793405
 30
0.0
 10
922.4100039095736
 20
673.2267662801593
 30
0.0
 10
924.93646316232
 20
670.9729609249571
 30
0.0
 10
929.111993056573
 20
665.7607108918814
 30
0.0
 10
930.7602029938754
 20
662.8033406178873
 30
0.0
 10
932.9967498949711
 20
656.5104511174833
 30
0.0
 10
933.5846258381589
 20
653.1762290477424
 30
0.0
 10
933.609867424302
 20
649.8370655389272
 30
0.0
  0
LINE
  5
363
330
1F
100
AcDbEntity
  8
0
  6
Continuous
 62
     8
370
    18
100
AcDbLine
 10
360.6107245225
 20
649.7236799638
 30
0.0
 11
767.6115816206
 21
649.7236799638
 31
0.0
  0
SPLINE
  5
364
330
1F
100
AcDbEntity
  8
0
  6
Continuous
 62
     8
370
    18
100
AcDbSpline
210
0.0
220
0.0
230
1.0
 70
     8
 71
     3
 72
    14
 73
    10
 74
     0
 42
0.000000001
 43
0.00000001
 40
0.0
 40
0.0
 40
0.0
 40
0.0
 40
0.2500000000000002
 40
0.2500000000000002
 40
0.5000000000000003
 40
0.5000000000000003
 40
0.7500000000000002
 40
0.7500000000000002
 40
1.0
 40
1.0
 40
1.0
 40
1.0
 10
790.8434615505676
 20
620.7236799638005
 30
0.0
 10
787.5902696835622
 20
621.4769347365857
 30
0.0
 10
784.464669686919
 20
622.7781878233872
 30
0.0
 10
778.8114451353373
 20
626.3339792225684
 30
0.0
 10
776.2849858825908
 20
628.5877845777705
 30
0.0
 10
772.1094559883379
 20
633.8000346108462
 30
0.0
 10
770.4612460510356
 20
636.7574048848403
 30
0.0
 10
768.2246991499397
 20
643.0502943852442
 30
0.0
 10
767.6368232067521
 20
646.3845164549851
 30
0.0
 10
767.6115816206088
 20
649.7236799638004
 30
0.0
  0
SPLINE
  5
365
330
1F
100
AcDbEntity
  8
0
  6
Continuous
 62
     8
370
    18
100
AcDbSpline
210
0.0
220
0.0
230
1.0
 70
     8
 71
     3
 72
    14
 73
    10
 74
     0
 42
0.000000001
 43
0.00000001
 40
0.0
 40
0.0
 40
0.0
 40
0.0
 40
0.25
 40
0.25
 40
0.5
 40
0.5
 40
0.75
 40
0.75
 40
1.0
 40
1.0
 40
1.0
 40
1.0
 10
933.609867424302
 20
649.7236799638004
 30
0.0
 10
933.5846258381589
 20
646.3845164549851
 30
0.0
 10
932.9967498949711
 20
643.0502943852443
 30
0.0
 10
930.7602029938754
 20
636.7574048848403
 30
0.0
 10
929.111993056573
 20
633.8000346108462
 30
0.0
 10
924.9364631623201
 20
628.5877845777705
 30
0.0
 10
922.4100039095737
 20
626.3339792225684
 30
0.0
 10
916.756779357992
 20
622.7781878233872
 30
0.0
 10
913.6311793613487
 20
621.4769347365857
 30
0.0
 10
910.3779874943434
 20
620.7236799638005
 30
0.0
  0
LINE
  5
366
330
1F
100
AcDbEntity
  8
0
  6
Continuous
 62
     8
370
    18
100
AcDbLine
 10
933.6098674243
 20
649.7236799638
 30
0.0
 11
1340.6107245225
 21
649.7236799638
 31
0.0
  0
LINE
  5
367
330
1F
100
AcDbEntity
  8
0
  6
Continuous
 62
     8
370
    18
100
AcDbLine
 10
903.6107245225
 20
679.0353524493
 30
0.0
 11
903.6107245225
 21
679.0303727514
 31
0.0
  0
ARC
  5
368
330
1F
100
AcDbEntity
  8
0
  6
Continuous
 62
     8
370
    18
100
AcDbCircle
 10
857.3610139226
 20
690.4118005053
 30
0.0
 40
54.2657716820375
100
AcDbArc
 50
344.6911781266
 51
347.6843554441
  0
LINE
  5
369
330
1F
100
AcDbEntity
  8
0
  6
Continuous
 62
     8
370
    18
100
AcDbLine
 10
903.6107245225
 20
679.0303727514
 30
0.0
 11
903.6107245225
 21
676.7803727514
 31
0.0
  0
LINE
  5
36A
330
1F
100
AcDbEntity
  8
0
  6
Continuous
 62
     8
370
    18
100
AcDbLine
 10
797.6107245225
 20
679.0353524493
 30
0.0
 11
797.6107245225
 21
679.0303727514
 31
0.0
  0
LINE
  5
36B
330
1F
100
AcDbEntity
  8
0
  6
Continuous
 62
     8
370
    18
100
AcDbLine
 10
797.6107245225
 20
679.0303727514
 30
0.0
 11
797.6107245225
 21
676.7803727514
 31
0.0
  0
ARC
  5
36C
330
1F
100
AcDbEntity
  8
0
  6
Continuous
 62
     8
370
    18
100
AcDbCircle
 10
843.8604351222
 20
690.4118005053
 30
0.0
 40
54.26577168195826
100
AcDbArc
 50
192.3156445558
 51
195.3088218734
  0
ARC
  5
36D
330
1F
100
AcDbEntity
  8
0
  6
Continuous
 62
     8
370
    18
100
AcDbCircle
 10
843.8604351229
 20
609.1489449973
 30
0.0
 40
54.26577168265401
100
AcDbArc
 50
164.6911781266
 51
167.6843554441
  0
LINE
  5
36E
330
1F
100
AcDbEntity
  8
0
  6
Continuous
 62
     8
370
    18
100
AcDbLine
 10
797.6107245225
 20
622.7803727514
 30
0.0
 11
797.6107245225
 21
620.5303727514
 31
0.0
  0
LINE
  5
36F
330
1F
100
AcDbEntity
  8
0
  6
Continuous
 62
     8
370
    18
100
AcDbLine
 10
903.6107245225
 20
622.7803727514
 30
0.0
 11
903.6107245225
 21
620.5303727514
 31
0.0
  0
ARC
  5
370
330
1F
100
AcDbEntity
  8
0
  6
Continuous
 62
     8
370
    18
100
AcDbCircle
 10
857.3610139216
 20
609.1489449972
 30
0.0
 40
54.26577168305669
100
AcDbArc
 50
12.3156445559
 51
15.3088218734
  0
LINE
  5
371
330
1F
100
AcDbEntity
  8
0
  6
Continuous
 62
     8
370
    18
100
AcDbLine
 10
797.6107245225
 20
620.5253930534
 30
0.0
 11
797.6107245225
 21
620.5303727514
 31
0.0
  0
LINE
  5
372
330
1F
100
AcDbEntity
  8
0
  6
Continuous
 62
     8
370
    18
100
AcDbLine
 10
903.6107245225
 20
620.5253930534
 30
0.0
 11
903.6107245225
 21
620.5303727514
 31
0.0
  0
ARC
  5
373
330
1F
100
AcDbEntity
  8
0
  6
Continuous
 62
     8
370
    18
100
AcDbCircle
 10
932.7780302899
 20
664.2349376635
 30
0.0
 40
14.42188180276891
100
AcDbArc
 50
261.3675974434
 51
273.306588142
  0
ARC
  5
374
330
1F
100
AcDbEntity
  8
0
  6
Continuous
 62
     8
370
    18
100
AcDbCircle
 10
768.443418755
 20
664.2349376635
 30
0.0
 40
14.42188180276818
100
AcDbArc
 50
266.693411858
 51
278.6324025566
  0
ARC
  5
375
330
1F
100
AcDbEntity
  8
0
  6
Continuous
 62
     8
370
    18
100
AcDbCircle
 10
768.443418755
 20
635.3258078393
 30
0.0
 40
14.42188180275372
100
AcDbArc
 50
81.3675974434
 51
93.306588142
  0
ARC
  5
376
330
1F
100
AcDbEntity
  8
0
  6
Continuous
 62
     8
370
    18
100
AcDbCircle
 10
932.7780302899
 20
635.3258078393
 30
0.0
 40
14.42188180275329
100
AcDbArc
 50
86.693411858
 51
98.6324025566
  0
SPLINE
  5
377
330
1F
100
AcDbEntity
  8
0
  6
Continuous
 62
     8
370
    18
100
AcDbSpline
210
0.0
220
0.0
230
1.0
 70
     8
 71
     3
 72
     8
 73
     4
 74
     0
 42
0.000000001
 43
0.00000001
 40
0.0
 40
0.0
 40
0.0
 40
0.0
 40
1.0
 40
1.0
 40
1.0
 40
1.0
 10
933.609867424302
 20
649.8370655389272
 30
0.0
 10
933.6110102381654
 20
649.7992703472183
 30
0.0
 10
933.6110102381654
 20
649.7614751555093
 30
0.0
 10
933.609867424302
 20
649.7236799638004
 30
0.0
  0
SPLINE
  5
378
330
1F
100
AcDbEntity
  8
0
  6
Continuous
 62
     8
370
    18
100
AcDbSpline
210
0.0
220
0.0
230
1.0
 70
     8
 71
     3
 72
     8
 73
     4
 74
     0
 42
0.000000001
 43
0.00000001
 40
0.0
 40
0.0
 40
0.0
 40
0.0
 40
1.0
 40
1.0
 40
1.0
 40
1.0
 10
767.6115816206088
 20
649.7236799638004
 30
0.0
 10
767.6104388067457
 20
649.7614751555093
 30
0.0
 10
767.6104388067457
 20
649.7992703472183
 30
0.0
 10
767.6115816206088
 20
649.8370655389272
 30
0.0
  0
SPLINE
  5
379
330
1F
100
AcDbEntity
  8
0
  6
Continuous
 62
     8
370
    18
100
AcDbSpline
210
0.0
220
0.0
230
1.0
 70
     8
 71
     3
 72
     9
 73
     5
 74
     0
 42
0.000000001
 43
0.00000001
 40
0.0
 40
0.0
 40
0.0
 40
0.0
 40
0.1546895589938838
 40
1.0
 40
1.0
 40
1.0
 40
1.0
 10
797.7274557051156
 20
668.5119462053482
 30
0.0
 10
797.9705081616935
 20
668.4392716703461
 30
0.0
 10
799.5417354517499
 20
667.9694627480444
 30
0.0
 10
800.9658533605759
 20
667.1531847189947
 30
0.0
 10
802.1696750981304
 20
666.4631763782752
 30
0.0
  0
ARC
  5
37A
330
1F
100
AcDbEntity
  8
0
  6
Continuous
 62
     8
370
    18
100
AcDbCircle
 10
803.626091775
 20
665.0168463931
 30
0.0
 40
2.052564240816915
100
AcDbArc
 50
135.1990950652
 51
168.3527908007
  0
ARC
  5
37B
330
1F
100
AcDbEntity
  8
0
  6
Continuous
 62
     8
370
    18
100
AcDbCircle
 10
897.5953572699
 20
665.0168463931
 30
0.0
 40
2.052564240817872
100
AcDbArc
 50
11.6472091993
 51
44.8009049348
  0
SPLINE
  5
37C
330
1F
100
AcDbEntity
  8
0
  6
Continuous
 62
     8
370
    18
100
AcDbSpline
210
0.0
220
0.0
230
1.0
 70
     8
 71
     3
 72
     9
 73
     5
 74
     0
 42
0.000000001
 43
0.00000001
 40
0.0
 40
0.0
 40
0.0
 40
0.0
 40
0.1546895589938839
 40
1.0
 40
1.0
 40
1.0
 40
1.0
 10
903.4939933397947
 20
668.5119462053482
 30
0.0
 10
903.2509408832168
 20
668.4392716703461
 30
0.0
 10
901.6797135931605
 20
667.9694627480444
 30
0.0
 10
900.2555956843343
 20
667.1531847189947
 30
0.0
 10
899.0517739467799
 20
666.4631763782752
 30
0.0
  0
SPLINE
  5
37D
330
1F
100
AcDbEntity
  8
0
  6
Continuous
 62
     8
370
    18
100
AcDbSpline
210
0.0
220
0.0
230
1.0
 70
     8
 71
     3
 72
     9
 73
     5
 74
     0
 42
0.000000001
 43
0.00000001
 40
0.0
 40
0.0
 40
0.0
 40
0.0
 40
0.1546895589938838
 40
0.9999999999999999
 40
0.9999999999999999
 40
0.9999999999999999
 40
0.9999999999999999
 10
903.4939933397947
 20
631.0487992973791
 30
0.0
 10
903.2509408832168
 20
631.1214738323814
 30
0.0
 10
901.6797135931604
 20
631.5912827546831
 30
0.0
 10
900.2555956843343
 20
632.4075607837326
 30
0.0
 10
899.0517739467799
 20
633.0975691244521
 30
0.0
  0
ARC
  5
37E
330
1F
100
AcDbEntity
  8
0
  6
Continuous
 62
     8
370
    18
100
AcDbCircle
 10
897.5953572699
 20
634.5438991096
 30
0.0
 40
2.052564240818114
100
AcDbArc
 50
315.1990950652
 51
348.3527908007
  0
ARC
  5
37F
330
1F
100
AcDbEntity
  8
0
  6
Continuous
 62
     8
370
    18
100
AcDbCircle
 10
803.626091775
 20
634.5438991096
 30
0.0
 40
2.052564240817309
100
AcDbArc
 50
191.6472091993
 51
224.8009049348
  0
SPLINE
  5
380
330
1F
100
AcDbEntity
  8
0
  6
Continuous
 62
     8
370
    18
100
AcDbSpline
210
0.0
220
0.0
230
1.0
 70
     8
 71
     3
 72
     9
 73
     5
 74
     0
 42
0.000000001
 43
0.00000001
 40
0.0
 40
0.0
 40
0.0
 40
0.0
 40
0.1546895589938838
 40
1.0
 40
1.0
 40
1.0
 40
1.0
 10
797.7274557051156
 20
631.0487992973791
 30
0.0
 10
797.9705081616935
 20
631.1214738323814
 30
0.0
 10
799.5417354517499
 20
631.5912827546831
 30
0.0
 10
800.9658533605759
 20
632.4075607837326
 30
0.0
 10
802.1696750981304
 20
633.0975691244521
 30
0.0
  0
SPLINE
  5
381
330
1F
100
AcDbEntity
  8
0
  6
Continuous
 62
     8
370
    18
100
AcDbSpline
210
0.0
220
0.0
230
1.0
 70
     8
 71
     3
 72
    14
 73
    10
 74
     0
 42
0.000000001
 43
0.00000001
 40
0.0
 40
0.0
 40
0.0
 40
0.0
 40
0.1114289230413324
 40
0.495878564967996
 40
0.704655530561827
 40
0.8301760374257539
 40
0.9121018798659094
 40
0.9942797082137461
 40
1.0
 40
1.0
 40
1.0
 40
1.0
 10
899.0517739467799
 20
666.4631763782752
 30
0.0
 10
898.932382901144
 20
666.3808440130261
 30
0.0
 10
898.4010714717231
 20
666.0144503154487
 30
0.0
 10
897.7267799483685
 20
665.38167916473
 30
0.0
 10
897.2689161606065
 20
664.5906946500297
 30
0.0
 10
897.184458410273
 20
664.080499916167
 30
0.0
 10
897.2669227031251
 20
663.7361713105028
 30
0.0
 10
897.3866296467476
 20
663.55847158977
 30
0.0
 10
897.4673409199538
 20
663.483089020347
 30
0.0
 10
897.4725935013796
 20
663.4781832238176
 30
0.0
  0
SPLINE
  5
382
330
1F
100
AcDbEntity
  8
0
  6
Continuous
 62
     8
370
    18
100
AcDbSpline
210
0.0
220
0.0
230
1.0
 70
     8
 71
     3
 72
    14
 73
    10
 74
     0
 42
0.000000001
 43
0.00000001
 40
0.0
 40
0.0
 40
0.0
 40
0.0
 40
0.1114289230413295
 40
0.4958785649680192
 40
0.7046555305618417
 40
0.8301760374257611
 40
0.9121018798659147
 40
0.9942797082137521
 40
1.0
 40
1.0
 40
1.0
 40
1.0
 10
899.0517739467799
 20
633.0975691244521
 30
0.0
 10
898.932382901144
 20
633.1799014897014
 30
0.0
 10
898.4010714717231
 20
633.5462951872786
 30
0.0
 10
897.7267799483685
 20
634.1790663379976
 30
0.0
 10
897.2689161606065
 20
634.9700508526979
 30
0.0
 10
897.184458410273
 20
635.4802455865606
 30
0.0
 10
897.2669227031251
 20
635.8245741922249
 30
0.0
 10
897.3866296467476
 20
636.0022739129575
 30
0.0
 10
897.4673409199538
 20
636.0776564823806
 30
0.0
 10
897.4725935013796
 20
636.0825622789099
 30
0.0
  0
ARC
  5
383
330
1F
100
AcDbEntity
  8
0
  6
Continuous
 62
     8
370
    18
100
AcDbCircle
 10
896.6107245225
 20
649.7803727514
 30
0.0
 40
20.0
100
AcDbArc
 50
270.0
 51
347.5224163016
  0
LINE
  5
384
330
1F
100
AcDbEntity
  8
0
  6
Continuous
 62
     8
370
    18
100
AcDbLine
 10
896.6107245225
 20
637.0677219645
 30
0.0
 11
896.6107245225
 21
629.7803727514
 31
0.0
  0
LINE
  5
385
330
1F
100
AcDbEntity
  8
0
  6
Continuous
 62
     8
370
    18
100
AcDbLine
 10
896.6107245225
 20
662.4930235383
 30
0.0
 11
896.6107245225
 21
669.7803727514
 31
0.0
  0
ARC
  5
386
330
1F
100
AcDbEntity
  8
0
  6
Continuous
 62
     8
370
    18
100
AcDbCircle
 10
896.6107245225
 20
649.7803727514
 30
0.0
 40
20.0
100
AcDbArc
 50
12.4775836984
 51
90.0
  0
ARC
  5
387
330
1F
100
AcDbEntity
  8
0
  6
Continuous
 62
     8
370
    18
100
AcDbCircle
 10
804.6107245225
 20
649.7803727514
 30
0.0
 40
20.00000000000002
100
AcDbArc
 50
90.0
 51
167.5224163016
  0
LINE
  5
388
330
1F
100
AcDbEntity
  8
0
  6
Continuous
 62
     8
370
    18
100
AcDbLine
 10
804.6107245225
 20
662.4930235383
 30
0.0
 11
804.6107245225
 21
669.7803727514
 31
0.0
  0
LINE
  5
389
330
1F
100
AcDbEntity
  8
0
  6
Continuous
 62
     8
370
    18
100
AcDbLine
 10
804.6107245225
 20
637.0677219645
 30
0.0
 11
804.6107245225
 21
629.7803727514
 31
0.0
  0
ARC
  5
38A
330
1F
100
AcDbEntity
  8
0
  6
Continuous
 62
     8
370
    18
100
AcDbCircle
 10
804.6107245225
 20
649.7803727514
 30
0.0
 40
20.00000000000011
100
AcDbArc
 50
192.4775836984
 51
270.0
  0
SPLINE
  5
38B
330
1F
100
AcDbEntity
  8
0
  6
Continuous
 62
     8
370
    18
100
AcDbSpline
210
0.0
220
0.0
230
1.0
 70
     8
 71
     3
 72
    14
 73
    10
 74
     0
 42
0.000000001
 43
0.00000001
 40
0.0
 40
0.0
 40
0.0
 40
0.0
 40
0.1114289230413289
 40
0.4958785649680207
 40
0.7046555305618419
 40
0.8301760374257579
 40
0.9121018798659113
 40
0.994279708213752
 40
1.0
 40
1.0
 40
1.0
 40
1.0
 10
802.1696750981304
 20
633.0975691244521
 30
0.0
 10
802.2890661437663
 20
633.1799014897014
 30
0.0
 10
802.8203775731872
 20
633.5462951872786
 30
0.0
 10
803.4946690965418
 20
634.1790663379976
 30
0.0
 10
803.9525328843038
 20
634.9700508526979
 30
0.0
 10
804.0369906346373
 20
635.4802455865606
 30
0.0
 10
803.954526341785
 20
635.8245741922249
 30
0.0
 10
803.8348193981627
 20
636.0022739129575
 30
0.0
 10
803.7541081249566
 20
636.0776564823806
 30
0.0
 10
803.7488555435307
 20
636.08256227891
 30
0.0
  0
SPLINE
  5
38C
330
1F
100
AcDbEntity
  8
0
  6
Continuous
 62
     8
370
    18
100
AcDbSpline
210
0.0
220
0.0
230
1.0
 70
     8
 71
     3
 72
    14
 73
    10
 74
     0
 42
0.000000001
 43
0.00000001
 40
0.0
 40
0.0
 40
0.0
 40
0.0
 40
0.1114289230413319
 40
0.4958785649679985
 40
0.7046555305618282
 40
0.8301760374257517
 40
0.912101879865908
 40
0.9942797082137481
 40
1.0
 40
1.0
 40
1.0
 40
1.0
 10
802.1696750981304
 20
666.4631763782752
 30
0.0
 10
802.2890661437663
 20
666.3808440130261
 30
0.0
 10
802.8203775731872
 20
666.0144503154487
 30
0.0
 10
803.4946690965418
 20
665.38167916473
 30
0.0
 10
803.9525328843038
 20
664.5906946500297
 30
0.0
 10
804.0369906346373
 20
664.080499916167
 30
0.0
 10
803.954526341785
 20
663.7361713105028
 30
0.0
 10
803.8348193981627
 20
663.5584715897701
 30
0.0
 10
803.7541081249566
 20
663.483089020347
 30
0.0
 10
803.7488555435307
 20
663.4781832238176
 30
0.0
  0
SPLINE
  5
38D
330
1F
100
AcDbEntity
  8
0
  6
Continuous
 62
     8
370
    18
100
AcDbSpline
210
0.0
220
0.0
230
1.0
 70
     8
 71
     3
 72
    18
 73
    14
 74
     0
 42
0.000000001
 43
0.00000001
 40
0.0
 40
0.0
 40
0.0
 40
0.0
 40
0.0000017576874324
 40
0.0364929107765217
 40
0.1834197338049771
 40
0.2877695105078331
 40
0.39214410254538
 40
0.4993591877198501
 40
0.6063886859551814
 40
0.7134284383809879
 40
0.8178270444226947
 40
0.9079734932070053
 40
0.9999999999999999
 40
0.9999999999999999
 40
0.9999999999999999
 40
0.9999999999999999
 10
903.6107245224551
 20
671.5260851433533
 30
0.0
 10
903.6107445089492
 20
671.5260851431451
 30
0.0
 10
904.0257018742287
 20
671.52608082158
 30
0.0
 10
906.1109106980452
 20
671.4636964192653
 30
0.0
 10
909.367859645521
 20
670.894531110789
 30
0.0
 10
913.1551799975721
 20
669.429590779949
 30
0.0
 10
916.2544170381419
 20
667.5812952569304
 30
0.0
 10
919.0474149423512
 20
665.2470031962345
 30
0.0
 10
921.410983993472
 20
662.4381104139957
 30
0.0
 10
923.2662208893586
 20
659.3079582093683
 30
0.0
 10
924.5021518013398
 20
656.0951679892036
 30
0.0
 10
925.2265352044581
 20
652.901244948429
 30
0.0
 10
925.3109660582559
 20
650.8277962727689
 30
0.0
 10
925.3536171560326
 20
649.7803727513638
 30
0.0
  0
LINE
  5
38E
330
1F
100
AcDbEntity
  8
0
  6
Continuous
 62
     8
370
    18
100
AcDbLine
 10
903.6107245225
 20
671.5260851434
 30
0.0
 11
903.6107249195
 21
671.5303727514
 31
0.0
  0
LINE
  5
38F
330
1F
100
AcDbEntity
  8
0
  6
Continuous
 62
     8
370
    18
100
AcDbLine
 10
925.353617156
 20
649.7803727514
 30
0.0
 11
925.349177213
 21
649.7803727514
 31
0.0
  0
LINE
  5
390
330
1F
100
AcDbEntity
  8
0
  6
Continuous
 62
     8
370
    18
100
AcDbLine
 10
903.6107245225
 20
671.5216452189
 30
0.0
 11
903.6107245225
 21
671.5260851434
 31
0.0
  0
SPLINE
  5
391
330
1F
100
AcDbEntity
  8
0
  6
Continuous
 62
     8
370
    18
100
AcDbSpline
210
0.0
220
0.0
230
1.0
 70
     8
 71
     3
 72
    18
 73
    14
 74
     0
 42
0.000000001
 43
0.00000001
 40
0.0
 40
0.0
 40
0.0
 40
0.0
 40
0.0000017576874324
 40
0.0364929107765216
 40
0.1834197338049766
 40
0.2877695105078327
 40
0.3921441025453813
 40
0.4993591877198513
 40
0.6063886859551824
 40
0.7134284383809886
 40
0.8178270444226952
 40
0.9079734932070055
 40
1.0
 40
1.0
 40
1.0
 40
1.0
 10
797.610724522455
 20
671.5260851433533
 30
0.0
 10
797.6107045359611
 20
671.5260851431451
 30
0.0
 10
797.1957471705862
 20
671.526080821604
 30
0.0
 10
795.1105383470526
 20
671.4636964192181
 30
0.0
 10
791.8535893993383
 20
670.8945311108018
 30
0.0
 10
788.0662690473497
 20
669.4295907799462
 30
0.0
 10
784.9670320067651
 20
667.5812952569313
 30
0.0
 10
782.1740341025599
 20
665.2470031962343
 30
0.0
 10
779.810465051438
 20
662.4381104139957
 30
0.0
 10
777.9552281555517
 20
659.3079582093682
 30
0.0
 10
776.7192972435703
 20
656.0951679892037
 30
0.0
 10
775.9949138404522
 20
652.901244948429
 30
0.0
 10
775.9104829866542
 20
650.8277962727689
 30
0.0
 10
775.8678318888777
 20
649.7803727513639
 30
0.0
  0
LINE
  5
392
330
1F
100
AcDbEntity
  8
0
  6
Continuous
 62
     8
370
    18
100
AcDbLine
 10
797.6107245225
 20
671.5260851434
 30
0.0
 11
797.6107241254
 21
671.5303727514
 31
0.0
  0
LINE
  5
393
330
1F
100
AcDbEntity
  8
0
  6
Continuous
 62
     8
370
    18
100
AcDbLine
 10
775.8678318889
 20
649.7803727514
 30
0.0
 11
775.8722718319
 21
649.7803727514
 31
0.0
  0
LINE
  5
394
330
1F
100
AcDbEntity
  8
0
  6
Continuous
 62
     8
370
    18
100
AcDbLine
 10
797.6107245225
 20
671.5216452189
 30
0.0
 11
797.6107245225
 21
671.5260851434
 31
0.0
  0
SPLINE
  5
395
330
1F
100
AcDbEntity
  8
0
  6
Continuous
 62
     8
370
    18
100
AcDbSpline
210
0.0
220
0.0
230
1.0
 70
     8
 71
     3
 72
    18
 73
    14
 74
     0
 42
0.000000001
 43
0.00000001
 40
0.0
 40
0.0
 40
0.0
 40
0.0
 40
0.0000017576874324
 40
0.0364929107765214
 40
0.1834197338049758
 40
0.2877695105078313
 40
0.3921441025453795
 40
0.4993591877198533
 40
0.6063886859551838
 40
0.7134284383809896
 40
0.8178270444226953
 40
0.9079734932070063
 40
1.0
 40
1.0
 40
1.0
 40
1.0
 10
797.610724522455
 20
628.0346603593741
 30
0.0
 10
797.6107045359611
 20
628.0346603595823
 30
0.0
 10
797.1957471706822
 20
628.0346646811477
 30
0.0
 10
795.1105383468636
 20
628.0970490834617
 30
0.0
 10
791.8535893993898
 20
628.6662143919386
 30
0.0
 10
788.0662690473381
 20
630.1311547227782
 30
0.0
 10
784.9670320067682
 20
631.9794502457969
 30
0.0
 10
782.1740341025592
 20
634.3137423064932
 30
0.0
 10
779.8104650514381
 20
637.122635088732
 30
0.0
 10
777.9552281555516
 20
640.2527872933593
 30
0.0
 10
776.7192972435703
 20
643.465577513524
 30
0.0
 10
775.9949138404522
 20
646.6595005542986
 30
0.0
 10
775.9104829866542
 20
648.7329492299588
 30
0.0
 10
775.8678318888777
 20
649.7803727513639
 30
0.0
  0
LINE
  5
396
330
1F
100
AcDbEntity
  8
0
  6
Continuous
 62
     8
370
    18
100
AcDbLine
 10
797.6107245225
 20
628.0346603594
 30
0.0
 11
797.6107241254
 21
628.0303727514
 31
0.0
  0
LINE
  5
397
330
1F
100
AcDbEntity
  8
0
  6
Continuous
 62
     8
370
    18
100
AcDbLine
 10
797.6107245225
 20
628.0391002838
 30
0.0
 11
797.6107245225
 21
628.0346603594
 31
0.0
  0
SPLINE
  5
398
330
1F
100
AcDbEntity
  8
0
  6
Continuous
 62
     8
370
    18
100
AcDbSpline
210
0.0
220
0.0
230
1.0
 70
     8
 71
     3
 72
    18
 73
    14
 74
     0
 42
0.000000001
 43
0.00000001
 40
0.0
 40
0.0
 40
0.0
 40
0.0
 40
0.0000017576874324
 40
0.0364929107765215
 40
0.1834197338049759
 40
0.2877695105078287
 40
0.3921441025453793
 40
0.4993591877198529
 40
0.6063886859551835
 40
0.7134284383809892
 40
0.8178270444226952
 40
0.9079734932070058
 40
1.0
 40
1.0
 40
1.0
 40
1.0
 10
903.610724522455
 20
628.0346603593741
 30
0.0
 10
903.6107445089492
 20
628.0346603595823
 30
0.0
 10
904.0257018742767
 20
628.0346646811237
 30
0.0
 10
906.1109106979508
 20
628.0970490835089
 30
0.0
 10
909.3678596455467
 20
628.6662143919258
 30
0.0
 10
913.1551799975663
 20
630.131154722781
 30
0.0
 10
916.2544170381435
 20
631.9794502457961
 30
0.0
 10
919.0474149423507
 20
634.3137423064933
 30
0.0
 10
921.4109839934721
 20
637.1226350887318
 30
0.0
 10
923.2662208893586
 20
640.2527872933593
 30
0.0
 10
924.5021518013398
 20
643.465577513524
 30
0.0
 10
925.2265352044581
 20
646.6595005542986
 30
0.0
 10
925.3109660582559
 20
648.7329492299588
 30
0.0
 10
925.3536171560326
 20
649.7803727513638
 30
0.0
  0
LINE
  5
399
330
1F
100
AcDbEntity
  8
0
  6
Continuous
 62
     8
370
    18
100
AcDbLine
 10
903.6107245225
 20
628.0346603594
 30
0.0
 11
903.6107249195
 21
628.0303727514
 31
0.0
  0
LINE
  5
39A
330
1F
100
AcDbEntity
  8
0
  6
Continuous
 62
     8
370
    18
100
AcDbLine
 10
903.6107245225
 20
628.0391002838
 30
0.0
 11
903.6107245225
 21
628.0346603594
 31
0.0
  0
LINE
  5
39B
330
1F
100
AcDbEntity
  8
0
  6
Continuous
 62
     8
370
    18
100
AcDbLine
 10
896.6107245225
 20
629.7803727514
 30
0.0
 11
804.6107245225
 21
629.7803727514
 31
0.0
  0
LINE
  5
39C
330
1F
100
AcDbEntity
  8
0
  6
Continuous
 62
     8
370
    18
100
AcDbLine
 10
896.6107245225
 20
669.7803727514
 30
0.0
 11
804.6107245225
 21
669.7803727514
 31
0.0
  0
LINE
  5
39D
330
1F
100
AcDbEntity
  8
0
  6
Continuous
 62
     8
370
    18
100
AcDbLine
 10
903.6107245225
 20
671.5260851434
 30
0.0
 11
797.6107245225
 21
671.5260851434
 31
0.0
  0
LINE
  5
39E
330
1F
100
AcDbEntity
  8
0
  6
Continuous
 62
     8
370
    18
100
AcDbLine
 10
903.6107245225
 20
628.0346603594
 30
0.0
 11
797.6107245225
 21
628.0346603594
 31
0.0
  0
LINE
  5
39F
330
1F
100
AcDbEntity
  8
0
  6
Continuous
 62
     8
370
    18
100
AcDbLine
 10
903.6107245225
 20
671.5303727514
 30
0.0
 11
903.6107245225
 21
676.0303727514
 31
0.0
  0
LINE
  5
3A0
330
1F
100
AcDbEntity
  8
0
  6
Continuous
 62
     8
370
    18
100
AcDbLine
 10
797.6107245225
 20
671.5303727514
 30
0.0
 11
797.6107245225
 21
676.0303727514
 31
0.0
  0
LINE
  5
3A1
330
1F
100
AcDbEntity
  8
0
  6
Continuous
 62
     8
370
    18
100
AcDbLine
 10
903.6107245225
 20
676.0303727514
 30
0.0
 11
797.6107245225
 21
676.0303727514
 31
0.0
  0
LINE
  5
3A2
330
1F
100
AcDbEntity
  8
0
  6
Continuous
 62
     8
370
    18
100
AcDbLine
 10
903.6107245225
 20
676.0303727514
 30
0.0
 11
903.6107245225
 21
676.7803727514
 31
0.0
  0
LINE
  5
3A3
330
1F
100
AcDbEntity
  8
0
  6
Continuous
 62
     8
370
    18
100
AcDbLine
 10
797.6107245225
 20
676.0303727514
 30
0.0
 11
797.6107245225
 21
676.7803727514
 31
0.0
  0
LINE
  5
3A4
330
1F
100
AcDbEntity
  8
0
  6
Continuous
 62
     8
370
    18
100
AcDbLine
 10
903.6107245225
 20
628.0303727514
 30
0.0
 11
903.6107245225
 21
623.5303727514
 31
0.0
  0
ARC
  5
3A5
330
1F
100
AcDbEntity
  8
0
  6
Continuous
 62
     8
370
    18
100
AcDbCircle
 10
903.6107245225
 20
649.7803727514
 30
0.0
 40
26.25000000000011
100
AcDbArc
 50
270.0
 51
90.0
  0
LINE
  5
3A6
330
1F
100
AcDbEntity
  8
0
  6
Continuous
 62
     8
370
    18
100
AcDbLine
 10
903.6107245225
 20
623.5303727514
 30
0.0
 11
903.6107245225
 21
622.7803727514
 31
0.0
  0
LINE
  5
3A7
330
1F
100
AcDbEntity
  8
0
  6
Continuous
 62
     8
370
    18
100
AcDbLine
 10
797.6107245225
 20
628.0303727514
 30
0.0
 11
797.6107245225
 21
623.5303727514
 31
0.0
  0
ARC
  5
3A8
330
1F
100
AcDbEntity
  8
0
  6
Continuous
 62
     8
370
    18
100
AcDbCircle
 10
797.6107245225
 20
649.7803727514
 30
0.0
 40
26.25000000000011
100
AcDbArc
 50
90.0
 51
270.0
  0
LINE
  5
3A9
330
1F
100
AcDbEntity
  8
0
  6
Continuous
 62
     8
370
    18
100
AcDbLine
 10
797.6107245225
 20
623.5303727514
 30
0.0
 11
797.6107245225
 21
622.7803727514
 31
0.0
  0
LINE
  5
3AA
330
1F
100
AcDbEntity
  8
0
  6
Continuous
 62
     8
370
    18
100
AcDbLine
 10
903.6107245225
 20
623.5303727514
 30
0.0
 11
797.6107245225
 21
623.5303727514
 31
0.0
  0
CIRCLE
  5
3AB
330
1F
100
AcDbEntity
  8
0
  6
Continuous
 62
     8
370
    18
100
AcDbCircle
 10
850.6107245225
 20
649.7803727514
 30
0.0
 40
3.548336454629748
  0
CIRCLE
  5
3AC
330
1F
100
AcDbEntity
  8
0
  6
Continuous
 62
     8
370
    18
100
AcDbCircle
 10
850.6107245225
 20
649.7803727514
 30
0.0
 40
5.61470943354675
  0
ARC
  5
3AD
330
1F
100
AcDbEntity
  8
0
  6
Continuous
 62
     8
370
    18
100
AcDbCircle
 10
850.6107245225
 20
649.7803727514
 30
0.0
 40
7.463480267439909
100
AcDbArc
 50
306.49444767
 51
53.5055523299
  0
ARC
  5
3AE
330
1F
100
AcDbEntity
  8
0
  6
Continuous
 62
     8
370
    18
100
AcDbCircle
 10
850.6107245225
 20
649.7803727514
 30
0.0
 40
7.463480267439777
100
AcDbArc
 50
126.4944476701
 51
233.50555233
  0
ARC
  5
3AF
330
1F
100
AcDbEntity
  8
0
  6
Continuous
 62
     8
370
    18
100
AcDbCircle
 10
850.6107245225
 20
649.7803727514
 30
0.0
 40
8.28496890136719
100
AcDbArc
 50
313.5974061618
 51
46.4025938382
  0
ARC
  5
3B0
330
1F
100
AcDbEntity
  8
0
  6
Continuous
 62
     8
370
    18
100
AcDbCircle
 10
850.6107245225
 20
649.7803727514
 30
0.0
 40
8.284968901367034
100
AcDbArc
 50
133.5974061618
 51
226.4025938382
  0
LINE
  5
3B1
330
1F
100
AcDbEntity
  8
0
  6
Continuous
 62
     8
370
    18
100
AcDbLine
 10
359.6107245225
 20
614.7803727514
 30
0.0
 11
359.6107245225
 21
699.2803727514
 31
0.0
  0
LINE
  5
3B2
330
1F
100
AcDbEntity
  8
0
  6
Continuous
 62
     8
370
    18
100
AcDbLine
 10
1341.6107245225
 20
614.7803727514
 30
0.0
 11
1341.6107245225
 21
699.2803727514
 31
0.0
  0
LINE
  5
3B3
330
1F
100
AcDbEntity
  8
0
  6
Continuous
 62
     8
370
    18
100
AcDbLine
 10
338.1107245225
 20
700.3053727514
 30
0.0
 11
338.1107245225
 21
699.3053727514
 31
0.0
  0
LINE
  5
3B4
330
1F
100
AcDbEntity
  8
0
  6
Continuous
 62
     8
370
    18
100
AcDbLine
 10
328.1107245225
 20
698.3053727514
 30
0.0
 11
358.6107245225
 21
698.3053727514
 31
0.0
  0
LINE
  5
3B5
330
1F
100
AcDbEntity
  8
0
  6
Continuous
 62
     8
370
    18
100
AcDbLine
 10
1363.1107245225
 20
699.3053727514
 30
0.0
 11
1363.1107245225
 21
700.3053727514
 31
0.0
  0
LINE
  5
3B6
330
1F
100
AcDbEntity
  8
0
  6
Continuous
 62
     8
370
    18
100
AcDbLine
 10
1342.6107245225
 20
698.3053727514
 30
0.0
 11
1373.1107245225
 21
698.3053727514
 31
0.0
  0
ENDSEC
  0
SECTION
  2
OBJECTS
  0
DICTIONARY
  5
C
330
0
100
AcDbDictionary
281
     1
  3
ACAD_GROUP
350
D
  3
ACAD_LAYOUT
350
1A
  3
ACAD_MLINESTYLE
350
17
  3
ACAD_PLOTSETTINGS
350
19
  3
ACAD_PLOTSTYLENAME
350
E
  3
ACAD_SCALELIST
350
47
  0
DICTIONARY
  5
D
102
{ACAD_REACTORS
330
C
102
}
330
C
100
AcDbDictionary
281
     1
  0
DICTIONARY
  5
1A
102
{ACAD_REACTORS
330
C
102
}
330
C
100
AcDbDictionary
281
     1
  3
Layout1
350
1E
  3
Layout2
350
26
  3
Model
350
22
  0
DICTIONARY
  5
17
102
{ACAD_REACTORS
330
C
102
}
330
C
100
AcDbDictionary
281
     1
  3
Standard
350
18
  0
DICTIONARY
  5
19
102
{ACAD_REACTORS
330
C
102
}
330
C
100
AcDbDictionary
281
     1
  0
ACDBDICTIONARYWDFLT
  5
E
102
{ACAD_REACTORS
330
C
102
}
330
C
100
AcDbDictionary
281
     1
  3
Normal
350
F
100
AcDbDictionaryWithDefault
340
F
  0
DICTIONARY
  5
47
102
{ACAD_REACTORS
330
C
102
}
330
C
100
AcDbDictionary
281
     1
  3
A0
350
48
  3
A1
350
49
  3
A2
350
4A
  3
A3
350
4B
  3
A4
350
4C
  3
A5
350
4D
  3
A6
350
4E
  3
A7
350
4F
  3
A8
350
50
  3
A9
350
51
  3
B0
350
52
  3
B1
350
53
  3
B2
350
54
  3
B3
350
55
  3
B4
350
56
  3
B5
350
57
  3
B6
350
58
  3
B7
350
59
  3
B8
350
5A
  3
B9
350
5B
  3
C0
350
5C
  3
C1
350
5D
  3
C2
350
5E
  3
C3
350
5F
  3
C4
350
60
  3
C5
350
61
  3
C6
350
62
  3
C7
350
63
  3
C8
350
64
  3
C9
350
65
  3
D0
350
66
  3
D1
350
67
  3
D2
350
68
  0
LAYOUT
  5
1E
102
{ACAD_REACTORS
330
1A
102
}
330
1A
100
AcDbPlotSettings
  1

  2
none_device
  4

  6

 40
0.0
 41
0.0
 42
0.0
 43
0.0
 44
0.0
 45
0.0
 46
0.0
 47
0.0
 48
0.0
 49
0.0
140
0.0
141
0.0
142
1.0
143
1.0
 70
   688
 72
     1
 73
     0
 74
     5
  7

 75
    16
147
1.0
148
0.0
149
0.0
100
AcDbLayout
  1
Layout1
 70
     1
 71
     1
 10
0.0
 20
0.0
 11
420.0
 21
297.0
 12
0.0
 22
0.0
 32
0.0
 14
1.0000000000E+20
 24
1.0000000000E+20
 34
1.0000000000E+20
 15
-1.0000000000E+20
 25
-1.0000000000E+20
 35
-1.0000000000E+20
146
0.0
 13
0.0
 23
0.0
 33
0.0
 16
1.0
 26
0.0
 36
0.0
 17
0.0
 27
1.0
 37
0.0
 76
     0
330
1B
  0
LAYOUT
  5
26
102
{ACAD_REACTORS
330
1A
102
}
330
1A
100
AcDbPlotSettings
  1

  2
none_device
  4

  6

 40
0.0
 41
0.0
 42
0.0
 43
0.0
 44
0.0
 45
0.0
 46
0.0
 47
0.0
 48
0.0
 49
0.0
140
0.0
141
0.0
142
1.0
143
1.0
 70
   688
 72
     1
 73
     0
 74
     5
  7

 75
    16
147
1.0
148
0.0
149
0.0
100
AcDbLayout
  1
Layout2
 70
     1
 71
     2
 10
0.0
 20
0.0
 11
0.0
 21
0.0
 12
0.0
 22
0.0
 32
0.0
 14
0.0
 24
0.0
 34
0.0
 15
0.0
 25
0.0
 35
0.0
146
0.0
 13
0.0
 23
0.0
 33
0.0
 16
1.0
 26
0.0
 36
0.0
 17
0.0
 27
1.0
 37
0.0
 76
     0
330
23
  0
LAYOUT
  5
22
102
{ACAD_REACTORS
330
1A
102
}
330
1A
100
AcDbPlotSettings
  1

  2
none_device
  4
Letter_(8.50_x_11.00_Inches)
  6

 40
6.35
 41
6.35
 42
6.35000508
 43
6.35000508
 44
215.9
 45
279.4
 46
0.0
 47
0.0
 48
0.0
 49
0.0
140
0.0
141
0.0
142
1.0
143
1.0
 70
  1712
 72
     1
 73
     0
 74
     0
  7

 75
     0
147
1.0
148
0.0
149
0.0
100
AcDbLayout
  1
Model
 70
     1
 71
     0
 10
0.0
 20
0.0
 11
2100.0
 21
1485.0
 12
0.0
 22
0.0
 32
0.0
 14
0.0
 24
0.0
 34
0.0
 15
2100.0
 25
1485.0
 35
0.0
146
0.0
 13
0.0
 23
0.0
 33
0.0
 16
1.0
 26
0.0
 36
0.0
 17
0.0
 27
1.0
 37
0.0
 76
     0
330
1F
331
29
  0
MLINESTYLE
  5
18
102
{ACAD_REACTORS
330
17
102
}
330
17
100
AcDbMlineStyle
  2
Standard
 70
     0
  3

 62
   256
 51
90.0
 52
90.0
 71
     2
 49
0.5
 62
   256
  6
BYLAYER
 49
-0.5
 62
   256
  6
BYLAYER
  0
ACDBPLACEHOLDER
  5
F
102
{ACAD_REACTORS
330
E
102
}
330
E
  0
SCALE
  5
48
102
{ACAD_REACTORS
330
47
102
}
330
47
100
AcDbScale
 70
     0
300
1:1
140
1.0
141
1.0
290
     1
  0
SCALE
  5
49
102
{ACAD_REACTORS
330
47
102
}
330
47
100
AcDbScale
 70
     0
300
1:2
140
1.0
141
2.0
290
     0
  0
SCALE
  5
4A
102
{ACAD_REACTORS
330
47
102
}
330
47
100
AcDbScale
 70
     0
300
1:4
140
1.0
141
4.0
290
     0
  0
SCALE
  5
4B
102
{ACAD_REACTORS
330
47
102
}
330
47
100
AcDbScale
 70
     0
300
1:5
140
1.0
141
5.0
290
     0
  0
SCALE
  5
4C
102
{ACAD_REACTORS
330
47
102
}
330
47
100
AcDbScale
 70
     0
300
1:8
140
1.0
141
8.0
290
     0
  0
SCALE
  5
4D
102
{ACAD_REACTORS
330
47
102
}
330
47
100
AcDbScale
 70
     0
300
1:10
140
1.0
141
10.0
290
     0
  0
SCALE
  5
4E
102
{ACAD_REACTORS
330
47
102
}
330
47
100
AcDbScale
 70
     0
300
1:16
140
1.0
141
16.0
290
     0
  0
SCALE
  5
4F
102
{ACAD_REACTORS
330
47
102
}
330
47
100
AcDbScale
 70
     0
300
1:20
140
1.0
141
20.0
290
     0
  0
SCALE
  5
50
102
{ACAD_REACTORS
330
47
102
}
330
47
100
AcDbScale
 70
     0
300
1:30
140
1.0
141
30.0
290
     0
  0
SCALE
  5
51
102
{ACAD_REACTORS
330
47
102
}
330
47
100
AcDbScale
 70
     0
300
1:40
140
1.0
141
40.0
290
     0
  0
SCALE
  5
52
102
{ACAD_REACTORS
330
47
102
}
330
47
100
AcDbScale
 70
     0
300
1:50
140
1.0
141
50.0
290
     0
  0
SCALE
  5
53
102
{ACAD_REACTORS
330
47
102
}
330
47
100
AcDbScale
 70
     0
300
1:100
140
1.0
141
100.0
290
     0
  0
SCALE
  5
54
102
{ACAD_REACTORS
330
47
102
}
330
47
100
AcDbScale
 70
     0
300
2:1
140
2.0
141
1.0
290
     0
  0
SCALE
  5
55
102
{ACAD_REACTORS
330
47
102
}
330
47
100
AcDbScale
 70
     0
300
4:1
140
4.0
141
1.0
290
     0
  0
SCALE
  5
56
102
{ACAD_REACTORS
330
47
102
}
330
47
100
AcDbScale
 70
     0
300
8:1
140
8.0
141
1.0
290
     0
  0
SCALE
  5
57
102
{ACAD_REACTORS
330
47
102
}
330
47
100
AcDbScale
 70
     0
300
10:1
140
10.0
141
1.0
290
     0
  0
SCALE
  5
58
102
{ACAD_REACTORS
330
47
102
}
330
47
100
AcDbScale
 70
     0
300
100:1
140
100.0
141
1.0
290
     0
  0
SCALE
  5
59
102
{ACAD_REACTORS
330
47
102
}
330
47
100
AcDbScale
 70
     0
300
1/128" = 1'-0"
140
0.0078125
141
12.0
290
     0
  0
SCALE
  5
5A
102
{ACAD_REACTORS
330
47
102
}
330
47
100
AcDbScale
 70
     0
300
1/64" = 1'-0"
140
0.015625
141
12.0
290
     0
  0
SCALE
  5
5B
102
{ACAD_REACTORS
330
47
102
}
330
47
100
AcDbScale
 70
     0
300
1/32" = 1'-0"
140
0.03125
141
12.0
290
     0
  0
SCALE
  5
5C
102
{ACAD_REACTORS
330
47
102
}
330
47
100
AcDbScale
 70
     0
300
1/16" = 1'-0"
140
0.0625
141
12.0
290
     0
  0
SCALE
  5
5D
102
{ACAD_REACTORS
330
47
102
}
330
47
100
AcDbScale
 70
     0
300
3/32" = 1'-0"
140
0.09375
141
12.0
290
     0
  0
SCALE
  5
5E
102
{ACAD_REACTORS
330
47
102
}
330
47
100
AcDbScale
 70
     0
300
1/8" = 1'-0"
140
0.125
141
12.0
290
     0
  0
SCALE
  5
5F
102
{ACAD_REACTORS
330
47
102
}
330
47
100
AcDbScale
 70
     0
300
3/16" = 1'-0"
140
0.1875
141
12.0
290
     0
  0
SCALE
  5
60
102
{ACAD_REACTORS
330
47
102
}
330
47
100
AcDbScale
 70
     0
300
1/4" = 1'-0"
140
0.25
141
12.0
290
     0
  0
SCALE
  5
61
102
{ACAD_REACTORS
330
47
102
}
330
47
100
AcDbScale
 70
     0
300
3/8" = 1'-0"
140
0.375
141
12.0
290
     0
  0
SCALE
  5
62
102
{ACAD_REACTORS
330
47
102
}
330
47
100
AcDbScale
 70
     0
300
1/2" = 1'-0"
140
0.5
141
12.0
290
     0
  0
SCALE
  5
63
102
{ACAD_REACTORS
330
47
102
}
330
47
100
AcDbScale
 70
     0
300
3/4" = 1'-0"
140
0.75
141
12.0
290
     0
  0
SCALE
  5
64
102
{ACAD_REACTORS
330
47
102
}
330
47
100
AcDbScale
 70
     0
300
1" = 1'-0"
140
1.0
141
12.0
290
     0
  0
SCALE
  5
65
102
{ACAD_REACTORS
330
47
102
}
330
47
100
AcDbScale
 70
     0
300
1-1/2" = 1'-0"
140
1.5
141
12.0
290
     0
  0
SCALE
  5
66
102
{ACAD_REACTORS
330
47
102
}
330
47
100
AcDbScale
 70
     0
300
3" = 1'-0"
140
3.0
141
12.0
290
     0
  0
SCALE
  5
67
102
{ACAD_REACTORS
330
47
102
}
330
47
100
AcDbScale
 70
     0
300
6" = 1'-0"
140
6.0
141
12.0
290
     0
  0
SCALE
  5
68
102
{ACAD_REACTORS
330
47
102
}
330
47
100
AcDbScale
 70
     0
300
1'-0" = 1'-0"
140
12.0
141
12.0
290
     0
  0
ENDSEC
  0
EOF
