  0
SECTION
  2
HEADER
  9
$ACADVER
  1
AC1015
  9
$ACADMAINTVER
 70
     6
  9
$DWGCODEPAGE
  3
ANSI_1252
  9
$INSBASE
 10
0.0
 20
0.0
 30
0.0
  9
$EXTMIN
 10
0.0
 20
0.0
 30
0.0
  9
$EXTMAX
 10
2100.0
 20
1485.0
 30
0.0
  9
$LIMMIN
 10
0.0
 20
0.0
  9
$LIMMAX
 10
2100.0
 20
1485.0
  9
$ORTHOMODE
 70
     0
  9
$REGENMODE
 70
     1
  9
$FILLMODE
 70
     1
  9
$QTEXTMODE
 70
     0
  9
$MIRRTEXT
 70
     1
  9
$LTSCALE
 40
5.0
  9
$ATTMODE
 70
     1
  9
$TEXTSIZE
 40
12.5
  9
$TRACEWID
 40
1.0
  9
$TEXTSTYLE
  7
Standard
  9
$CLAYER
  8
0
  9
$CELTYPE
  6
ByLayer
  9
$CECOLOR
 62
   256
  9
$CELTSCALE
 40
1.0
  9
$DISPSILH
 70
     0
  9
$DIMSCALE
 40
1.0
  9
$DIMASZ
 40
12.5
  9
$DIMEXO
 40
0.0
  9
$DIMDLI
 40
3.75
  9
$DIMRND
 40
0.0
  9
$DIMDLE
 40
0.0
  9
$DIMEXE
 40
5.0
  9
$DIMTP
 40
0.0
  9
$DIMTM
 40
0.0
  9
$DIMTXT
 40
12.5
  9
$DIMCEN
 40
2.5
  9
$DIMTSZ
 40
0.0
  9
$DIMTOL
 70
     0
  9
$DIMLIM
 70
     0
  9
$DIMTIH
 70
     1
  9
$DIMTOH
 70
     1
  9
$DIMSE1
 70
     0
  9
$DIMSE2
 70
     0
  9
$DIMTAD
 70
     1
  9
$DIMZIN
 70
     0
  9
$DIMBLK
  1

  9
$DIMASO
 70
     1
  9
$DIMSHO
 70
     1
  9
$DIMPOST
  1

  9
$DIMAPOST
  1

  9
$DIMALT
 70
     0
  9
$DIMALTD
 70
     3
  9
$DIMALTF
 40
0.0393700787
  9
$DIMLFAC
 40
1.0
  9
$DIMTOFL
 70
     1
  9
$DIMTVP
 40
0.0
  9
$DIMTIX
 70
     0
  9
$DIMSOXD
 70
     0
  9
$DIMSAH
 70
     0
  9
$DIMBLK1
  1

  9
$DIMBLK2
  1

  9
$DIMSTYLE
  2
ISO-25
  9
$DIMCLRD
 70
     0
  9
$DIMCLRE
 70
     0
  9
$DIMCLRT
 70
     0
  9
$DIMTFAC
 40
1.0
  9
$DIMGAP
 40
7.62
  9
$DIMJUST
 70
     0
  9
$DIMSD1
 70
     0
  9
$DIMSD2
 70
     0
  9
$DIMTOLJ
 70
     0
  9
$DIMTZIN
 70
     0
  9
$DIMALTZ
 70
     0
  9
$DIMALTTZ
 70
     0
  9
$DIMUPT
 70
     0
  9
$DIMDEC
 70
     2
  9
$DIMTDEC
 70
     2
  9
$DIMALTU
 70
     2
  9
$DIMALTTD
 70
     3
  9
$DIMTXSTY
  7
Standard
  9
$DIMAUNIT
 70
     0
  9
$DIMADEC
 70
     2
  9
$DIMALTRND
 40
0.0
  9
$DIMAZIN
 70
     0
  9
$DIMDSEP
 70
    44
  9
$DIMATFIT
 70
     3
  9
$DIMFRAC
 70
     0
  9
$DIMLDRBLK
  1

  9
$DIMLUNIT
 70
     2
  9
$DIMLWD
 70
    -2
  9
$DIMLWE
 70
    -2
  9
$DIMTMOVE
 70
     0
  9
$LUNITS
 70
     2
  9
$LUPREC
 70
     1
  9
$SKETCHINC
 40
1.0
  9
$FILLETRAD
 40
10.0
  9
$AUNITS
 70
     0
  9
$AUPREC
 70
     2
  9
$MENU
  1
.
  9
$ELEVATION
 40
0.0
  9
$PELEVATION
 40
0.0
  9
$THICKNESS
 40
0.0
  9
$LIMCHECK
 70
     0
  9
$CHAMFERA
 40
0.0
  9
$CHAMFERB
 40
0.0
  9
$CHAMFERC
 40
0.0
  9
$CHAMFERD
 40
0.0
  9
$SKPOLY
 70
     0
  9
$TDCREATE
 40
2458907.633736551
  9
$TDUCREATE
 40
2458907.404569884
  9
$TDUPDATE
 40
2458907.633739641
  9
$TDUUPDATE
 40
2458907.404572974
  9
$TDINDWG
 40
0.0000000116
  9
$TDUSRTIMER
 40
0.0000000116
  9
$USRTIMER
 70
     1
  9
$ANGBASE
 50
0.0
  9
$ANGDIR
 70
     0
  9
$PDMODE
 70
     0
  9
$PDSIZE
 40
-1.0
  9
$PLINEWID
 40
0.0
  9
$SPLFRAME
 70
     0
  9
$SPLINETYPE
 70
     6
  9
$SPLINESEGS
 70
     8
  9
$HANDSEED
  5
3B6
  9
$SURFTAB1
 70
     6
  9
$SURFTAB2
 70
     6
  9
$SURFTYPE
 70
     6
  9
$SURFU
 70
     6
  9
$SURFV
 70
     6
  9
$UCSBASE
  2

  9
$UCSNAME
  2

  9
$UCSORG
 10
0.0
 20
0.0
 30
0.0
  9
$UCSXDIR
 10
1.0
 20
0.0
 30
0.0
  9
$UCSYDIR
 10
0.0
 20
1.0
 30
0.0
  9
$UCSORTHOREF
  2

  9
$UCSORTHOVIEW
 70
     0
  9
$UCSORGTOP
 10
0.0
 20
0.0
 30
0.0
  9
$UCSORGBOTTOM
 10
0.0
 20
0.0
 30
0.0
  9
$UCSORGLEFT
 10
0.0
 20
0.0
 30
0.0
  9
$UCSORGRIGHT
 10
0.0
 20
0.0
 30
0.0
  9
$UCSORGFRONT
 10
0.0
 20
0.0
 30
0.0
  9
$UCSORGBACK
 10
0.0
 20
0.0
 30
0.0
  9
$PUCSBASE
  2

  9
$PUCSNAME
  2

  9
$PUCSORG
 10
0.0
 20
0.0
 30
0.0
  9
$PUCSXDIR
 10
1.0
 20
0.0
 30
0.0
  9
$PUCSYDIR
 10
0.0
 20
1.0
 30
0.0
  9
$PUCSORTHOREF
  2

  9
$PUCSORTHOVIEW
 70
     0
  9
$PUCSORGTOP
 10
0.0
 20
0.0
 30
0.0
  9
$PUCSORGBOTTOM
 10
0.0
 20
0.0
 30
0.0
  9
$PUCSORGLEFT
 10
0.0
 20
0.0
 30
0.0
  9
$PUCSORGRIGHT
 10
0.0
 20
0.0
 30
0.0
  9
$PUCSORGFRONT
 10
0.0
 20
0.0
 30
0.0
  9
$PUCSORGBACK
 10
0.0
 20
0.0
 30
0.0
  9
$USERI1
 70
     0
  9
$USERI2
 70
     0
  9
$USERI3
 70
     0
  9
$USERI4
 70
     0
  9
$USERI5
 70
     0
  9
$USERR1
 40
0.0
  9
$USERR2
 40
0.0
  9
$USERR3
 40
0.0
  9
$USERR4
 40
0.0
  9
$USERR5
 40
0.0
  9
$WORLDVIEW
 70
     1
  9
$SHADEDGE
 70
     3
  9
$SHADEDIF
 70
    70
  9
$TILEMODE
 70
     1
  9
$MAXACTVP
 70
    64
  9
$PINSBASE
 10
0.0
 20
0.0
 30
0.0
  9
$PLIMCHECK
 70
     0
  9
$PEXTMIN
 10
1.0000000000E+20
 20
1.0000000000E+20
 30
1.0000000000E+20
  9
$PEXTMAX
 10
-1.0000000000E+20
 20
-1.0000000000E+20
 30
-1.0000000000E+20
  9
$PLIMMIN
 10
0.0
 20
0.0
  9
$PLIMMAX
 10
420.0
 20
297.0
  9
$UNITMODE
 70
     0
  9
$VISRETAIN
 70
     1
  9
$PLINEGEN
 70
     0
  9
$PSLTSCALE
 70
     1
  9
$TREEDEPTH
 70
  3020
  9
$CMLSTYLE
  2
Standard
  9
$CMLJUST
 70
     0
  9
$CMLSCALE
 40
20.0
  9
$PROXYGRAPHICS
 70
     1
  9
$MEASUREMENT
 70
     1
  9
$CELWEIGHT
370
    -1
  9
$ENDCAPS
280
     0
  9
$JOINSTYLE
280
     0
  9
$LWDISPLAY
290
     1
  9
$INSUNITS
 70
     4
  9
$HYPERLINKBASE
  1

  9
$STYLESHEET
  1

  9
$XEDIT
290
     1
  9
$CEPSNTYPE
380
     0
  9
$PSTYLEMODE
290
     1
  9
$FINGERPRINTGUID
  2
{1007cd3d-5896-4ab6-b56a-2cf28c5198a0}
  9
$VERSIONGUID
  2
{FAEB1C32-E019-11D5-929B-00C0DF256EC4}
  9
$EXTNAMES
290
     1
  9
$PSVPSCALE
 40
0.0
  9
$OLESTARTUP
290
     0
  0
ENDSEC
  0
SECTION
  2
CLASSES
  0
CLASS
  1
ACDBDICTIONARYWDFLT
  2
AcDbDictionaryWithDefault
  3
ObjectDBX Classes
 90
        0
280
     0
281
     0
  0
CLASS
  1
VISUALSTYLE
  2
AcDbVisualStyle
  3
ObjectDBX Classes
 90
     4095
280
     0
281
     0
  0
CLASS
  1
MATERIAL
  2
AcDbMaterial
  3
ObjectDBX Classes
 90
     1153
280
     0
281
     0
  0
CLASS
  1
SCALE
  2
AcDbScale
  3
ObjectDBX Classes
 90
     1153
280
     0
281
     0
  0
CLASS
  1
TABLESTYLE
  2
AcDbTableStyle
  3
ObjectDBX Classes
 90
     4095
280
     0
281
     0
  0
CLASS
  1
MLEADERSTYLE
  2
AcDbMLeaderStyle
  3
ACDB_MLEADERSTYLE_CLASS
 90
     4095
280
     0
281
     0
  0
CLASS
  1
SUN
  2
AcDbSun
  3
SCENEOE
 90
     1153
280
     0
281
     0
  0
CLASS
  1
ACDBPLACEHOLDER
  2
AcDbPlaceHolder
  3
ObjectDBX Classes
 90
        0
280
     0
281
     0
  0
CLASS
  1
LAYOUT
  2
AcDbLayout
  3
ObjectDBX Classes
 90
        0
280
     0
281
     0
  0
ENDSEC
  0
SECTION
  2
TABLES
  0
TABLE
  2
VPORT
  5
8
330
0
100
AcDbSymbolTable
 70
     1
  0
VPORT
  5
29
330
8
100
AcDbSymbolTableRecord
100
AcDbViewportTableRecord
  2
*Active
 70
     0
 10
0.0
 20
0.0
 11
1.0
 21
1.0
 12
1050.0
 22
742.5
 13
0.0
 23
0.0
 14
10.0
 24
10.0
 15
10.0
 25
10.0
 16
0.0
 26
0.0
 36
1.0
 17
0.0
 27
0.0
 37
0.0
 40
1485.0
 41
1.4141414141
 42
50.0
 43
0.0
 44
0.0
 50
0.0
 51
0.0
 71
     0
 72
  2000
 73
     1
 74
     3
 75
     0
 76
     0
 77
     0
 78
     0
281
     0
 65
     1
110
0.0
120
0.0
130
0.0
111
1.0
121
0.0
131
0.0
112
0.0
122
1.0
132
0.0
 79
     0
146
0.0
  0
ENDTAB
  0
TABLE
  2
LTYPE
  5
5
330
0
100
AcDbSymbolTable
 70
     6
  0
LTYPE
  5
14
330
5
100
AcDbSymbolTableRecord
100
AcDbLinetypeTableRecord
  2
ByBlock
 70
     0
  3

 72
    65
 73
     0
 40
0.0
  0
LTYPE
  5
15
330
5
100
AcDbSymbolTableRecord
100
AcDbLinetypeTableRecord
  2
ByLayer
 70
     0
  3

 72
    65
 73
     0
 40
0.0
  0
LTYPE
  5
16
330
5
100
AcDbSymbolTableRecord
100
AcDbLinetypeTableRecord
  2
Continuous
 70
     0
  3
Solid line
 72
    65
 73
     0
 40
0.0
  0
LTYPE
  5
6E
330
5
100
AcDbSymbolTableRecord
100
AcDbLinetypeTableRecord
  2
HIDDEN
 70
     0
  3
Hidden __ __ __ __ __ __ __ __ __ __ __ __ __ __
 72
    65
 73
     2
 40
1.905
 49
1.27
 74
     0
 49
-0.635
 74
     0
  0
LTYPE
  5
6F
330
5
100
AcDbSymbolTableRecord
100
AcDbLinetypeTableRecord
  2
PHANTOM
 70
     0
  3
Phantom ______  __  __  ______  __  __  ______
 72
    65
 73
     6
 40
12.7
 49
6.35
 74
     0
 49
-1.27
 74
     0
 49
1.27
 74
     0
 49
-1.27
 74
     0
 49
1.27
 74
     0
 49
-1.27
 74
     0
  0
LTYPE
  5
70
330
5
100
AcDbSymbolTableRecord
100
AcDbLinetypeTableRecord
  2
CENTER
 70
     0
  3
Center ____ _ ____ _ ____ _ ____ _ ____ _ ____
 72
    65
 73
     4
 40
10.16
 49
6.35
 74
     0
 49
-1.27
 74
     0
 49
1.27
 74
     0
 49
-1.27
 74
     0
  0
LTYPE
  5
71
330
5
100
AcDbSymbolTableRecord
100
AcDbLinetypeTableRecord
  2
CENTERX2
 70
     0
  3
Center (2x) ________  __  ________  __  _____
 72
    65
 73
     4
 40
20.32
 49
12.7
 74
     0
 49
-2.54
 74
     0
 49
2.54
 74
     0
 49
-2.54
 74
     0
  0
LTYPE
  5
72
330
5
100
AcDbSymbolTableRecord
100
AcDbLinetypeTableRecord
  2
DOT2
 70
     0
  3
Dot (.5x) ........................................
 72
    65
 73
     2
 40
0.635
 49
0.0
 74
     0
 49
-0.635
 74
     0
  0
ENDTAB
  0
TABLE
  2
LAYER
  5
2
330
0
100
AcDbSymbolTable
 70
    10
  0
LAYER
  5
10
330
2
100
AcDbSymbolTableRecord
100
AcDbLayerTableRecord
  2
0
 70
     0
 62
     7
  6
Continuous
370
    -3
390
F
  0
LAYER
  5
73
330
2
100
AcDbSymbolTableRecord
100
AcDbLayerTableRecord
  2
DIMENSION
 70
     0
 62
     7
  6
Continuous
370
    -3
390
F
  0
LAYER
  5
74
330
2
100
AcDbSymbolTableRecord
100
AcDbLayerTableRecord
  2
NOTES
 70
     0
 62
     7
  6
Continuous
370
    -3
390
F
  0
LAYER
  5
75
330
2
100
AcDbSymbolTableRecord
100
AcDbLayerTableRecord
  2
TABLES
 70
     0
 62
     7
  6
Continuous
370
    -3
390
F
  0
LAYER
  5
76
330
2
100
AcDbSymbolTableRecord
100
AcDbLayerTableRecord
  2
INVISIBLE
 70
     0
 62
    -7
  6
Continuous
290
     0
370
    -3
390
F
  0
LAYER
  5
77
330
2
100
AcDbSymbolTableRecord
100
AcDbLayerTableRecord
  2
WEP
 70
     0
 62
  -150
  6
Continuous
290
     0
370
    -3
390
F
  0
LAYER
  5
78
330
2
100
AcDbSymbolTableRecord
100
AcDbLayerTableRecord
  2
EMP
 70
     0
 62
     1
  6
Continuous
370
    -3
390
F
  0
LAYER
  5
79
330
2
100
AcDbSymbolTableRecord
100
AcDbLayerTableRecord
  2
MARKETING_DRW
 70
     0
 62
    -7
  6
Continuous
290
     0
370
    -3
390
F
  0
LAYER
  5
7A
330
2
100
AcDbSymbolTableRecord
100
AcDbLayerTableRecord
  2
SINGLE_ARTICLE_DRW
 70
     0
 62
     7
  6
Continuous
370
    -3
390
F
  0
LAYER
  5
7B
330
2
100
AcDbSymbolTableRecord
100
AcDbLayerTableRecord
  2
TABLE_DRW
 70
     0
 62
    -7
  6
Continuous
290
     0
370
    -3
390
F
  0
ENDTAB
  0
TABLE
  2
STYLE
  5
3
330
0
100
AcDbSymbolTable
 70
     2
  0
STYLE
  5
11
330
3
100
AcDbSymbolTableRecord
100
AcDbTextStyleTableRecord
  2
Standard
 70
     0
 40
0.0
 41
1.0
 50
0.0
 71
     0
 42
12.5
  3
txt
  4

  0
STYLE
  5
B5
330
3
100
AcDbSymbolTableRecord
100
AcDbTextStyleTableRecord
  2
SLDTEXTSTYLE0
 70
     0
 40
0.0
 41
0.605
 50
0.0
 71
     0
 42
12.5
  3
TXT
  4

  0
ENDTAB
  0
TABLE
  2
VIEW
  5
6
330
0
100
AcDbSymbolTable
 70
     0
  0
ENDTAB
  0
TABLE
  2
UCS
  5
7
330
0
100
AcDbSymbolTable
 70
     0
  0
ENDTAB
  0
TABLE
  2
APPID
  5
9
330
0
100
AcDbSymbolTable
 70
     1
  0
APPID
  5
12
330
9
100
AcDbSymbolTableRecord
100
AcDbRegAppTableRecord
  2
ACAD
 70
     0
  0
ENDTAB
  0
TABLE
  2
DIMSTYLE
  5
A
330
0
100
AcDbSymbolTable
 70
     1
100
AcDbDimStyleTable
  0
DIMSTYLE
105
27
330
A
100
AcDbSymbolTableRecord
100
AcDbDimStyleTableRecord
  2
ISO-25
 70
     0
 41
2.5
 42
0.625
 43
3.75
 44
1.25
 73
     0
 74
     0
 77
     1
 78
     8
140
2.5
141
2.5
143
0.0393700787
147
0.625
171
     3
172
     1
178
     0
271
     2
272
     2
274
     3
278
    44
283
     0
284
     8
340
11
  0
ENDTAB
  0
TABLE
  2
BLOCK_RECORD
  5
1
330
0
100
AcDbSymbolTable
 70
     3
  0
BLOCK_RECORD
  5
1F
330
1
100
AcDbSymbolTableRecord
100
AcDbBlockTableRecord
  2
*Model_Space
340
22
  0
BLOCK_RECORD
  5
1B
330
1
100
AcDbSymbolTableRecord
100
AcDbBlockTableRecord
  2
*Paper_Space
340
1E
  0
BLOCK_RECORD
  5
23
330
1
100
AcDbSymbolTableRecord
100
AcDbBlockTableRecord
  2
*Paper_Space0
340
26
  0
BLOCK_RECORD
  5
BF
330
1
100
AcDbSymbolTableRecord
100
AcDbBlockTableRecord
  2
SW_NOTE_0
340
0
102
{BLKREFS
331
C5
102
}
  0
BLOCK_RECORD
  5
E8
330
1
100
AcDbSymbolTableRecord
100
AcDbBlockTableRecord
  2
SW_NOTE_0_1
340
0
102
{BLKREFS
331
EE
102
}
  0
ENDTAB
  0
ENDSEC
  0
SECTION
  2
BLOCKS
  0
BLOCK
  5
20
330
1F
100
AcDbEntity
  8
0
100
AcDbBlockBegin
  2
*Model_Space
 70
     0
 10
0.0
 20
0.0
 30
0.0
  3
*Model_Space
  1

  0
ENDBLK
  5
21
330
1F
100
AcDbEntity
  8
0
100
AcDbBlockEnd
  0
BLOCK
  5
1C
330
1B
100
AcDbEntity
 67
     1
  8
0
100
AcDbBlockBegin
  2
*Paper_Space
 70
     0
 10
0.0
 20
0.0
 30
0.0
  3
*Paper_Space
  1

  0
ENDBLK
  5
1D
330
1B
100
AcDbEntity
 67
     1
  8
0
100
AcDbBlockEnd
  0
BLOCK
  5
24
330
23
100
AcDbEntity
  8
0
100
AcDbBlockBegin
  2
*Paper_Space0
 70
     0
 10
0.0
 20
0.0
 30
0.0
  3
*Paper_Space0
  1

  0
ENDBLK
  5
25
330
23
100
AcDbEntity
  8
0
100
AcDbBlockEnd
  0
BLOCK
  5
C0
330
BF
100
AcDbEntity
  8
0
100
AcDbBlockBegin
  2
SW_NOTE_0
 70
     0
 10
0.0
 20
0.0
 30
0.0
  3
SW_NOTE_0
  1

  0
MTEXT
  5
C2
330
BF
100
AcDbEntity
  8
TABLE_DRW
 62
     0
100
AcDbMText
 10
0.0
 20
11.6016096579
 30
0.0
 40
9.0
 41
0.0
 71
     1
 72
     1
  1
The reproduction, distribution and utilization of this document as well as the communication of its contents to
  7
SLDTEXTSTYLE0
 73
     1
 44
1.0
  0
MTEXT
  5
C3
330
BF
100
AcDbEntity
  8
TABLE_DRW
 62
     0
100
AcDbMText
 10
0.0
 20
0.0016098055
 30
0.0
 40
9.0
 41
0.0
 71
     1
 72
     1
  1
others without express authorization is prohibited. Offenders will be held liable for the payment of damages.
  7
SLDTEXTSTYLE0
 73
     1
 44
1.0
  0
MTEXT
  5
C4
330
BF
100
AcDbEntity
  8
TABLE_DRW
 62
     0
100
AcDbMText
 10
0.0
 20
-11.598390047
 30
0.0
 40
9.0
 41
0.0
 71
     1
 72
     1
  1
All rights reserved in the event of the grant of a patent, utility model or design. Observe copyright by ISO 16016
  7
SLDTEXTSTYLE0
 73
     1
 44
1.0
  0
ENDBLK
  5
C1
330
BF
100
AcDbEntity
  8
0
100
AcDbBlockEnd
  0
BLOCK
  5
E9
330
E8
100
AcDbEntity
  8
0
100
AcDbBlockBegin
  2
SW_NOTE_0_1
 70
     0
 10
0.0
 20
0.0
 30
0.0
  3
SW_NOTE_0_1
  1

  0
MTEXT
  5
EB
330
E8
100
AcDbEntity
  8
MARKETING_DRW
 62
     0
100
AcDbMText
 10
0.0
 20
11.6016096579
 30
0.0
 40
9.0
 41
0.0
 71
     1
 72
     1
  1
The reproduction, distribution and utilization of this document as well as the communication of its contents to
  7
SLDTEXTSTYLE0
 73
     1
 44
1.0
  0
MTEXT
  5
EC
330
E8
100
AcDbEntity
  8
MARKETING_DRW
 62
     0
100
AcDbMText
 10
0.0
 20
-0.0233903849
 30
0.0
 40
9.0
 41
0.0
 71
     1
 72
     1
  1
others without express authorization is prohibited. Offenders will be held liable for the payment of damages.
  7
SLDTEXTSTYLE0
 73
     1
 44
1.0
  0
MTEXT
  5
ED
330
E8
100
AcDbEntity
  8
MARKETING_DRW
 62
     0
100
AcDbMText
 10
0.0
 20
-11.6483904277
 30
0.0
 40
9.0
 41
0.0
 71
     1
 72
     1
  1
All rights reserved in the event of the grant of a patent, utility model or design. Observe copyright by ISO 16016
  7
SLDTEXTSTYLE0
 73
     1
 44
1.0
  0
ENDBLK
  5
EA
330
E8
100
AcDbEntity
  8
0
100
AcDbBlockEnd
  0
ENDSEC
  0
SECTION
  2
ENTITIES
  0
LINE
  5
7C
330
1F
100
AcDbEntity
  8
TABLE_DRW
  6
CENTERX2
 62
     7
100
AcDbLine
 10
1955.0
 20
200.0
 30
0.0
 11
1980.0
 21
200.0
 31
0.0
  0
LINE
  5
7D
330
1F
100
AcDbEntity
  8
TABLE_DRW
  6
CENTERX2
 62
     7
100
AcDbLine
 10
1967.5
 20
212.5
 30
0.0
 11
1967.5
 21
187.5
 31
0.0
  0
LINE
  5
7E
330
1F
100
AcDbEntity
  8
TABLE_DRW
  6
CENTERX2
 62
     7
100
AcDbLine
 10
1915.0
 20
200.0
 30
0.0
 11
1950.0
 21
200.0
 31
0.0
  0
LINE
  5
7F
330
1F
100
AcDbEntity
  8
TABLE_DRW
 62
     7
100
AcDbLine
 10
1920.0
 20
194.95
 30
0.0
 11
1945.0
 21
190.0
 31
0.0
  0
LINE
  5
80
330
1F
100
AcDbEntity
  8
TABLE_DRW
 62
     7
100
AcDbLine
 10
1920.0
 20
205.05
 30
0.0
 11
1920.0
 21
194.95
 31
0.0
  0
LINE
  5
81
330
1F
100
AcDbEntity
  8
TABLE_DRW
 62
     7
100
AcDbLine
 10
1945.0
 20
210.0
 30
0.0
 11
1920.0
 21
205.05
 31
0.0
  0
LINE
  5
82
330
1F
100
AcDbEntity
  8
TABLE_DRW
 62
     7
100
AcDbLine
 10
1945.0
 20
190.0
 30
0.0
 11
1945.0
 21
210.0
 31
0.0
  0
LINE
  5
83
330
1F
100
AcDbEntity
  8
TABLE_DRW
 62
     7
100
AcDbLine
 10
2050.0
 20
50.0
 30
0.0
 11
2050.0
 21
340.0
 31
0.0
  0
LINE
  5
84
330
1F
100
AcDbEntity
  8
TABLE_DRW
 62
     7
100
AcDbLine
 10
1150.0
 20
340.0
 30
0.0
 11
1150.0
 21
50.0
 31
0.0
  0
LINE
  5
85
330
1F
100
AcDbEntity
  8
TABLE_DRW
 62
     7
100
AcDbLine
 10
1700.0
 20
95.0
 30
0.0
 11
1700.0
 21
50.0
 31
0.0
  0
LINE
  5
86
330
1F
100
AcDbEntity
  8
TABLE_DRW
 62
     7
100
AcDbLine
 10
1850.0
 20
50.0
 30
0.0
 11
1850.0
 21
95.0
 31
0.0
  0
LINE
  5
87
330
1F
100
AcDbEntity
  8
TABLE_DRW
 62
     7
100
AcDbLine
 10
2000.0
 20
95.0
 30
0.0
 11
2000.0
 21
50.0
 31
0.0
  0
LINE
  5
88
330
1F
100
AcDbEntity
  8
TABLE_DRW
 62
     7
100
AcDbLine
 10
1900.0
 20
320.0
 30
0.0
 11
1900.0
 21
185.0
 31
0.0
  0
LINE
  5
89
330
1F
100
AcDbEntity
  8
TABLE_DRW
 62
     7
100
AcDbLine
 10
2050.0
 20
320.0
 30
0.0
 11
1150.0
 21
320.0
 31
0.0
  0
LINE
  5
8A
330
1F
100
AcDbEntity
  8
TABLE_DRW
 62
     7
100
AcDbLine
 10
1800.0
 20
95.0
 30
0.0
 11
1800.0
 21
50.0
 31
0.0
  0
LINE
  5
8B
330
1F
100
AcDbEntity
  8
TABLE_DRW
 62
     7
100
AcDbLine
 10
2050.0
 20
275.0
 30
0.0
 11
1400.0
 21
275.0
 31
0.0
  0
LINE
  5
8C
330
1F
100
AcDbEntity
  8
TABLE_DRW
 62
     7
100
AcDbLine
 10
1650.0
 20
230.0
 30
0.0
 11
1650.0
 21
185.0
 31
0.0
  0
LINE
  5
8D
330
1F
100
AcDbEntity
  8
TABLE_DRW
 62
     7
100
AcDbLine
 10
2050.0
 20
230.0
 30
0.0
 11
1400.0
 21
230.0
 31
0.0
  0
LINE
  5
8E
330
1F
100
AcDbEntity
  8
TABLE_DRW
 62
     7
100
AcDbLine
 10
1400.0
 20
320.0
 30
0.0
 11
1400.0
 21
185.0
 31
0.0
  0
LINE
  5
8F
330
1F
100
AcDbEntity
  8
TABLE_DRW
 62
     7
100
AcDbLine
 10
2000.0
 20
230.0
 30
0.0
 11
2000.0
 21
185.0
 31
0.0
  0
LINE
  5
90
330
1F
100
AcDbEntity
  8
TABLE_DRW
 62
     7
100
AcDbLine
 10
2050.0
 20
95.0
 30
0.0
 11
1150.0
 21
95.0
 31
0.0
  0
LINE
  5
91
330
1F
100
AcDbEntity
  8
TABLE_DRW
 62
     7
100
AcDbLine
 10
1650.0
 20
275.0
 30
0.0
 11
1650.0
 21
320.0
 31
0.0
  0
LINE
  5
92
330
1F
100
AcDbEntity
  8
TABLE_DRW
 62
     7
100
AcDbLine
 10
1150.0
 20
340.0
 30
0.0
 11
2050.0
 21
340.0
 31
0.0
  0
LINE
  5
93
330
1F
100
AcDbEntity
  8
TABLE_DRW
 62
     7
100
AcDbLine
 10
1150.0
 20
185.0
 30
0.0
 11
2050.0
 21
185.0
 31
0.0
  0
LINE
  5
94
330
1F
100
AcDbEntity
  8
TABLE_DRW
 62
     7
100
AcDbLine
 10
1150.0
 20
50.0
 30
0.0
 11
2050.0
 21
50.0
 31
0.0
  0
LINE
  5
95
330
1F
100
AcDbEntity
  8
TABLE_DRW
 62
     7
100
AcDbLine
 10
1400.0
 20
275.0
 30
0.0
 11
1150.0
 21
275.0
 31
0.0
  0
LINE
  5
96
330
1F
100
AcDbEntity
  8
MARKETING_DRW
  6
CENTERX2
100
AcDbLine
 10
1955.0
 20
200.0
 30
0.0
 11
1980.0
 21
200.0
 31
0.0
  0
LINE
  5
97
330
1F
100
AcDbEntity
  8
MARKETING_DRW
  6
CENTERX2
100
AcDbLine
 10
1967.5
 20
212.5
 30
0.0
 11
1967.5
 21
187.5
 31
0.0
  0
LINE
  5
98
330
1F
100
AcDbEntity
  8
MARKETING_DRW
  6
CENTERX2
100
AcDbLine
 10
1915.0
 20
200.0
 30
0.0
 11
1950.0
 21
200.0
 31
0.0
  0
LINE
  5
99
330
1F
100
AcDbEntity
  8
MARKETING_DRW
100
AcDbLine
 10
1920.0
 20
194.95
 30
0.0
 11
1945.0
 21
190.0
 31
0.0
  0
LINE
  5
9A
330
1F
100
AcDbEntity
  8
MARKETING_DRW
100
AcDbLine
 10
1920.0
 20
205.05
 30
0.0
 11
1920.0
 21
194.95
 31
0.0
  0
LINE
  5
9B
330
1F
100
AcDbEntity
  8
MARKETING_DRW
100
AcDbLine
 10
1945.0
 20
210.0
 30
0.0
 11
1920.0
 21
205.05
 31
0.0
  0
LINE
  5
9C
330
1F
100
AcDbEntity
  8
MARKETING_DRW
100
AcDbLine
 10
1945.0
 20
190.0
 30
0.0
 11
1945.0
 21
210.0
 31
0.0
  0
LINE
  5
9D
330
1F
100
AcDbEntity
  8
MARKETING_DRW
100
AcDbLine
 10
2050.0
 20
50.0
 30
0.0
 11
2050.0
 21
230.0
 31
0.0
  0
LINE
  5
9E
330
1F
100
AcDbEntity
  8
MARKETING_DRW
100
AcDbLine
 10
1150.0
 20
50.0
 30
0.0
 11
2050.0
 21
50.0
 31
0.0
  0
LINE
  5
9F
330
1F
100
AcDbEntity
  8
MARKETING_DRW
100
AcDbLine
 10
1150.0
 20
275.0
 30
0.0
 11
1150.0
 21
50.0
 31
0.0
  0
LINE
  5
A0
330
1F
100
AcDbEntity
  8
MARKETING_DRW
100
AcDbLine
 10
1150.0
 20
275.0
 30
0.0
 11
1650.0
 21
275.0
 31
0.0
  0
LINE
  5
A1
330
1F
100
AcDbEntity
  8
MARKETING_DRW
 62
     7
100
AcDbLine
 10
1850.0
 20
50.0
 30
0.0
 11
1850.0
 21
95.0
 31
0.0
  0
LINE
  5
A2
330
1F
100
AcDbEntity
  8
MARKETING_DRW
100
AcDbLine
 10
2000.0
 20
95.0
 30
0.0
 11
2000.0
 21
50.0
 31
0.0
  0
LINE
  5
A3
330
1F
100
AcDbEntity
  8
MARKETING_DRW
100
AcDbLine
 10
1650.0
 20
275.0
 30
0.0
 11
1650.0
 21
230.0
 31
0.0
  0
LINE
  5
A4
330
1F
100
AcDbEntity
  8
MARKETING_DRW
100
AcDbLine
 10
2050.0
 20
230.0
 30
0.0
 11
1400.0
 21
230.0
 31
0.0
  0
LINE
  5
A5
330
1F
100
AcDbEntity
  8
MARKETING_DRW
100
AcDbLine
 10
1400.0
 20
275.0
 30
0.0
 11
1400.0
 21
185.0
 31
0.0
  0
LINE
  5
A6
330
1F
100
AcDbEntity
  8
MARKETING_DRW
100
AcDbLine
 10
2000.0
 20
230.0
 30
0.0
 11
2000.0
 21
185.0
 31
0.0
  0
LINE
  5
A7
330
1F
100
AcDbEntity
  8
MARKETING_DRW
100
AcDbLine
 10
2050.0
 20
95.0
 30
0.0
 11
1150.0
 21
95.0
 31
0.0
  0
LINE
  5
A8
330
1F
100
AcDbEntity
  8
MARKETING_DRW
100
AcDbLine
 10
1150.0
 20
185.0
 30
0.0
 11
2050.0
 21
185.0
 31
0.0
  0
LINE
  5
A9
330
1F
100
AcDbEntity
  8
MARKETING_DRW
100
AcDbLine
 10
1150.0
 20
50.0
 30
0.0
 11
2050.0
 21
50.0
 31
0.0
  0
LINE
  5
AA
330
1F
100
AcDbEntity
  8
MARKETING_DRW
100
AcDbLine
 10
1900.0
 20
230.0
 30
0.0
 11
1900.0
 21
185.0
 31
0.0
  0
LINE
  5
AB
330
1F
100
AcDbEntity
  8
MARKETING_DRW
100
AcDbLine
 10
1650.0
 20
275.0
 30
0.0
 11
1900.0
 21
275.0
 31
0.0
  0
LINE
  5
AC
330
1F
100
AcDbEntity
  8
MARKETING_DRW
100
AcDbLine
 10
1900.0
 20
275.0
 30
0.0
 11
1900.0
 21
230.0
 31
0.0
  0
LINE
  5
AD
330
1F
100
AcDbEntity
  8
MARKETING_DRW
100
AcDbLine
 10
1900.0
 20
275.0
 30
0.0
 11
2050.0
 21
275.0
 31
0.0
  0
LINE
  5
AE
330
1F
100
AcDbEntity
  8
MARKETING_DRW
100
AcDbLine
 10
2050.0
 20
275.0
 30
0.0
 11
2050.0
 21
230.0
 31
0.0
  0
LINE
  5
AF
330
1F
100
AcDbEntity
  8
MARKETING_DRW
100
AcDbLine
 10
1825.0
 20
275.0
 30
0.0
 11
1825.0
 21
230.0
 31
0.0
  0
LINE
  5
B0
330
1F
100
AcDbEntity
  8
MARKETING_DRW
100
AcDbLine
 10
1650.0
 20
230.0
 30
0.0
 11
1650.0
 21
185.0
 31
0.0
  0
CIRCLE
  5
B1
330
1F
100
AcDbEntity
  8
TABLE_DRW
 62
     7
100
AcDbCircle
 10
1967.5
 20
200.0
 30
0.0
 40
5.000000000000224
  0
CIRCLE
  5
B2
330
1F
100
AcDbEntity
  8
TABLE_DRW
 62
     7
100
AcDbCircle
 10
1967.5
 20
200.0
 30
0.0
 40
10.00000000000024
  0
CIRCLE
  5
B3
330
1F
100
AcDbEntity
  8
MARKETING_DRW
100
AcDbCircle
 10
1967.5
 20
200.0
 30
0.0
 40
5.000000000000224
  0
CIRCLE
  5
B4
330
1F
100
AcDbEntity
  8
MARKETING_DRW
100
AcDbCircle
 10
1967.5
 20
200.0
 30
0.0
 40
10.00000000000024
  0
MTEXT
  5
B6
330
1F
100
AcDbEntity
  8
TABLE_DRW
100
AcDbMText
 10
1905.0
 20
294.9675136777
 30
0.0
 40
12.5
 41
0.0
 71
     1
 72
     1
  1
see table
  7
SLDTEXTSTYLE0
 73
     1
 44
1.0
  0
MTEXT
  5
B7
330
1F
100
AcDbEntity
  8
TABLE_DRW
100
AcDbMText
 10
1155.0
 20
334.9766099061
 30
0.0
 40
9.0
 41
0.0
 71
     1
 72
     1
  1
modification:
  7
SLDTEXTSTYLE0
 73
     1
 44
1.0
  0
MTEXT
  5
B8
330
1F
100
AcDbEntity
  8
TABLE_DRW
100
AcDbMText
 10
1405.0
 20
249.9675136777
 30
0.0
 40
12.5
 41
0.0
 71
     1
 72
     1
  1
see table
  7
SLDTEXTSTYLE0
 73
     1
 44
1.0
  0
MTEXT
  5
B9
330
1F
100
AcDbEntity
  8
TABLE_DRW
100
AcDbMText
 10
1155.0
 20
159.9675136777
 30
0.0
 40
12.5
 41
0.0
 71
     1
 72
     1
  1
ACO ShowerDrain
  7
SLDTEXTSTYLE0
 73
     1
 44
1.0
  0
MTEXT
  5
BA
330
1F
100
AcDbEntity
  8
TABLE_DRW
100
AcDbMText
 10
1824.7395830229
 20
69.9675136777
 30
0.0
 40
12.5
 41
0.0
 71
     2
 72
     1
  1
001
  7
SLDTEXTSTYLE0
 73
     1
 44
1.0
  0
MTEXT
  5
BB
330
1F
100
AcDbEntity
  8
TABLE_DRW
100
AcDbMText
 10
1749.0407964215
 20
69.9675136777
 30
0.0
 40
12.5
 41
0.0
 71
     2
 72
     1
  1
1076933-O
  7
SLDTEXTSTYLE0
 73
     1
 44
1.0
  0
MTEXT
  5
BC
330
1F
100
AcDbEntity
  8
TABLE_DRW
100
AcDbMText
 10
1155.0
 20
295.0022357116
 30
0.0
 40
12.5
 41
0.0
 71
     1
 72
     1
  1
Tittmar, Alexander
  7
SLDTEXTSTYLE0
 73
     1
 44
1.0
  0
MTEXT
  5
BD
330
1F
100
AcDbEntity
  8
TABLE_DRW
100
AcDbMText
 10
1155.0
 20
137.4675136777
 30
0.0
 40
12.5
 41
0.0
 71
     1
 72
     1
  1
ASM Shower Channel C with WA and gap, with side outlet, with FAT GV50 L880, International
  7
SLDTEXTSTYLE0
 73
     1
 44
1.0
  0
MTEXT
  5
BE
330
1F
100
AcDbEntity
  8
TABLE_DRW
100
AcDbMText
 10
1155.0
 20
114.9675136777
 30
0.0
 40
12.5
 41
0.0
 71
     1
 72
     1
  1
ZB Duschrinne C mit Spalt, mit Wandaufkantung, mit Seite Auslass, mit FAT GV50 L880, International
  7
SLDTEXTSTYLE0
 73
     1
 44
1.0
  0
INSERT
  5
C5
330
1F
100
AcDbEntity
  8
TABLE_DRW
100
AcDbBlockReference
  2
SW_NOTE_0
 10
1155.0
 20
78.4000001475
 30
0.0
  0
MTEXT
  5
C6
330
1F
100
AcDbEntity
  8
TABLE_DRW
100
AcDbMText
 10
1405.0
 20
224.9766099061
 30
0.0
 40
9.0
 41
0.0
 71
     1
 72
     1
  1
created by:
  7
SLDTEXTSTYLE0
 73
     1
 44
1.0
  0
MTEXT
  5
C7
330
1F
100
AcDbEntity
  8
TABLE_DRW
100
AcDbMText
 10
1655.0
 20
314.9766099061
 30
0.0
 40
9.0
 41
0.0
 71
     1
 72
     1
  1
surface:
  7
SLDTEXTSTYLE0
 73
     1
 44
1.0
  0
MTEXT
  5
C8
330
1F
100
AcDbEntity
  8
TABLE_DRW
100
AcDbMText
 10
2024.8750000875
 20
224.9766099061
 30
0.0
 40
9.0
 41
0.0
 71
     2
 72
     1
  1
scale:
  7
SLDTEXTSTYLE0
 73
     1
 44
1.0
  0
MTEXT
  5
C9
330
1F
100
AcDbEntity
  8
TABLE_DRW
100
AcDbMText
 10
1905.0
 20
314.9766099061
 30
0.0
 40
9.0
 41
0.0
 71
     1
 72
     1
  1
weight:
  7
SLDTEXTSTYLE0
 73
     1
 44
1.0
  0
MTEXT
  5
CA
330
1F
100
AcDbEntity
  8
TABLE_DRW
100
AcDbMText
 10
1749.034373872
 20
89.9766099061
 30
0.0
 40
9.0
 41
0.0
 71
     2
 72
     1
  1
drawing-no.:
  7
SLDTEXTSTYLE0
 73
     1
 44
1.0
  0
MTEXT
  5
CB
330
1F
100
AcDbEntity
  8
TABLE_DRW
100
AcDbMText
 10
1905.0
 20
269.9766099061
 30
0.0
 40
9.0
 41
0.0
 71
     1
 72
     1
  1
documenttype:
  7
SLDTEXTSTYLE0
 73
     1
 44
1.0
  0
MTEXT
  5
CC
330
1F
100
AcDbEntity
  8
TABLE_DRW
100
AcDbMText
 10
1824.8125000894
 20
89.9766099061
 30
0.0
 40
9.0
 41
0.0
 71
     2
 72
     1
  1
index:
  7
SLDTEXTSTYLE0
 73
     1
 44
1.0
  0
MTEXT
  5
CD
330
1F
100
AcDbEntity
  8
TABLE_DRW
100
AcDbMText
 10
1655.0
 20
224.9766099061
 30
0.0
 40
9.0
 41
0.0
 71
     1
 72
     1
  1
reviewed by:
  7
SLDTEXTSTYLE0
 73
     1
 44
1.0
  0
MTEXT
  5
CE
330
1F
100
AcDbEntity
  8
TABLE_DRW
100
AcDbMText
 10
1855.0
 20
89.9766099061
 30
0.0
 40
9.0
 41
0.0
 71
     1
 72
     1
  1
release date:
  7
SLDTEXTSTYLE0
 73
     1
 44
1.0
  0
MTEXT
  5
CF
330
1F
100
AcDbEntity
  8
TABLE_DRW
100
AcDbMText
 10
2024.7500000913
 20
89.9766099061
 30
0.0
 40
9.0
 41
0.0
 71
     2
 72
     1
  1
sheet:
  7
SLDTEXTSTYLE0
 73
     1
 44
1.0
  0
MTEXT
  5
D0
330
1F
100
AcDbEntity
  8
TABLE_DRW
100
AcDbMText
 10
1905.0
 20
224.9766099061
 30
0.0
 40
9.0
 41
0.0
 71
     1
 72
     1
  1
projection:ISO-E
  7
SLDTEXTSTYLE0
 73
     1
 44
1.0
  0
MTEXT
  5
D1
330
1F
100
AcDbEntity
  8
TABLE_DRW
100
AcDbMText
 10
1405.0
 20
269.9766099061
 30
0.0
 40
9.0
 41
0.0
 71
     1
 72
     1
  1
material:
  7
SLDTEXTSTYLE0
 73
     1
 44
1.0
  0
MTEXT
  5
D2
330
1F
100
AcDbEntity
  8
TABLE_DRW
100
AcDbMText
 10
1905.0
 20
249.9675136777
 30
0.0
 40
12.5
 41
0.0
 71
     1
 72
     1
  1
production drw.
  7
SLDTEXTSTYLE0
 73
     1
 44
1.0
  0
MTEXT
  5
D3
330
1F
100
AcDbEntity
  8
TABLE_DRW
100
AcDbMText
 10
1405.0
 20
314.9766099061
 30
0.0
 40
9.0
 41
0.0
 71
     1
 72
     1
  1
general tolerance:
  7
SLDTEXTSTYLE0
 73
     1
 44
1.0
  0
MTEXT
  5
D4
330
1F
100
AcDbEntity
  8
TABLE_DRW
100
AcDbMText
 10
2024.7829862405
 20
204.9675136777
 30
0.0
 40
12.5
 41
0.0
 71
     2
 72
     1
  1
1:5
  7
SLDTEXTSTYLE0
 73
     1
 44
1.0
  0
MTEXT
  5
D5
330
1F
100
AcDbEntity
  8
TABLE_DRW
100
AcDbMText
 10
2024.7829862405
 20
69.9675136777
 30
0.0
 40
12.5
 41
0.0
 71
     2
 72
     1
  1
1/1
  7
SLDTEXTSTYLE0
 73
     1
 44
1.0
  0
MTEXT
  5
D6
330
1F
100
AcDbEntity
  8
TABLE_DRW
100
AcDbMText
 10
1155.0
 20
314.9766099061
 30
0.0
 40
9.0
 41
0.0
 71
     1
 72
     1
  1
technical reference:
  7
SLDTEXTSTYLE0
 73
     1
 44
1.0
  0
MTEXT
  5
D7
330
1F
100
AcDbEntity
  8
TABLE_DRW
100
AcDbMText
 10
1155.0
 20
179.9766099061
 30
0.0
 40
9.0
 41
0.0
 71
     1
 72
     1
  1
title:
  7
SLDTEXTSTYLE0
 73
     1
 44
1.0
  0
MTEXT
  5
D8
330
1F
100
AcDbEntity
  8
MARKETING_DRW
100
AcDbMText
 10
1155.0
 20
114.9675136777
 30
0.0
 40
12.5
 41
0.0
 71
     1
 72
     1
  1
ZB Duschrinne C mit Spalt, mit Wandaufkantung, mit Seite Auslass, mit FAT GV50 L880, International
  7
SLDTEXTSTYLE0
 73
     1
 44
1.0
  0
MTEXT
  5
D9
330
1F
100
AcDbEntity
  8
MARKETING_DRW
100
AcDbMText
 10
1155.0
 20
137.4675136777
 30
0.0
 40
12.5
 41
0.0
 71
     1
 72
     1
  1
ASM Shower Channel C with WA and gap, with side outlet, with FAT GV50 L880, International
  7
SLDTEXTSTYLE0
 73
     1
 44
1.0
  0
MTEXT
  5
DA
330
1F
100
AcDbEntity
  8
MARKETING_DRW
100
AcDbMText
 10
1736.5407964215
 20
249.9675136777
 30
0.0
 40
12.5
 41
0.0
 71
     2
 72
     1
  1
1076933-O
  7
SLDTEXTSTYLE0
 73
     1
 44
1.0
  0
MTEXT
  5
DB
330
1F
100
AcDbEntity
  8
MARKETING_DRW
100
AcDbMText
 10
1862.2395830229
 20
252.0971433073
 30
0.0
 40
12.5
 41
0.0
 71
     2
 72
     1
  1
001
  7
SLDTEXTSTYLE0
 73
     1
 44
1.0
  0
MTEXT
  5
DC
330
1F
100
AcDbEntity
  8
MARKETING_DRW
100
AcDbMText
 10
1155.0
 20
159.9675136777
 30
0.0
 40
12.5
 41
0.0
 71
     1
 72
     1
  1
ACO ShowerDrain
  7
SLDTEXTSTYLE0
 73
     1
 44
1.0
  0
MTEXT
  5
DD
330
1F
100
AcDbEntity
  8
MARKETING_DRW
100
AcDbMText
 10
1905.0
 20
269.9766099061
 30
0.0
 40
9.0
 41
0.0
 71
     1
 72
     1
  1
documenttype:
  7
SLDTEXTSTYLE0
 73
     1
 44
1.0
  0
MTEXT
  5
DE
330
1F
100
AcDbEntity
  8
MARKETING_DRW
100
AcDbMText
 10
1655.0
 20
224.9766099061
 30
0.0
 40
9.0
 41
0.0
 71
     1
 72
     1
  1
reviewed by:
  7
SLDTEXTSTYLE0
 73
     1
 44
1.0
  0
MTEXT
  5
DF
330
1F
100
AcDbEntity
  8
MARKETING_DRW
100
AcDbMText
 10
1736.534373872
 20
270.0578764559
 30
0.0
 40
9.0
 41
0.0
 71
     2
 72
     1
  1
drawing-no.:
  7
SLDTEXTSTYLE0
 73
     1
 44
1.0
  0
MTEXT
  5
E0
330
1F
100
AcDbEntity
  8
MARKETING_DRW
100
AcDbMText
 10
1905.0
 20
224.9766099061
 30
0.0
 40
9.0
 41
0.0
 71
     1
 72
     1
  1
projection:ISO-E
  7
SLDTEXTSTYLE0
 73
     1
 44
1.0
  0
MTEXT
  5
E1
330
1F
100
AcDbEntity
  8
MARKETING_DRW
100
AcDbMText
 10
2024.7500000913
 20
89.9766099061
 30
0.0
 40
9.0
 41
0.0
 71
     2
 72
     1
  1
sheet:
  7
SLDTEXTSTYLE0
 73
     1
 44
1.0
  0
MTEXT
  5
E2
330
1F
100
AcDbEntity
  8
MARKETING_DRW
100
AcDbMText
 10
2024.7829862405
 20
69.9675136777
 30
0.0
 40
12.5
 41
0.0
 71
     2
 72
     1
  1
1/1
  7
SLDTEXTSTYLE0
 73
     1
 44
1.0
  0
MTEXT
  5
E3
330
1F
100
AcDbEntity
  8
MARKETING_DRW
100
AcDbMText
 10
1855.0
 20
89.9766099061
 30
0.0
 40
9.0
 41
0.0
 71
     1
 72
     1
  1
release date:
  7
SLDTEXTSTYLE0
 73
     1
 44
1.0
  0
MTEXT
  5
E4
330
1F
100
AcDbEntity
  8
MARKETING_DRW
100
AcDbMText
 10
1862.3125000894
 20
269.9766099061
 30
0.0
 40
9.0
 41
0.0
 71
     2
 72
     1
  1
index:
  7
SLDTEXTSTYLE0
 73
     1
 44
1.0
  0
MTEXT
  5
E5
330
1F
100
AcDbEntity
  8
MARKETING_DRW
100
AcDbMText
 10
1155.0
 20
179.9766099061
 30
0.0
 40
9.0
 41
0.0
 71
     1
 72
     1
  1
title:
  7
SLDTEXTSTYLE0
 73
     1
 44
1.0
  0
MTEXT
  5
E6
330
1F
100
AcDbEntity
  8
MARKETING_DRW
100
AcDbMText
 10
2024.8750000875
 20
224.9766099061
 30
0.0
 40
9.0
 41
0.0
 71
     2
 72
     1
  1
scale:
  7
SLDTEXTSTYLE0
 73
     1
 44
1.0
  0
MTEXT
  5
E7
330
1F
100
AcDbEntity
  8
MARKETING_DRW
100
AcDbMText
 10
2024.7829862405
 20
204.9675136777
 30
0.0
 40
12.5
 41
0.0
 71
     2
 72
     1
  1
1:5
  7
SLDTEXTSTYLE0
 73
     1
 44
1.0
  0
INSERT
  5
EE
330
1F
100
AcDbEntity
  8
MARKETING_DRW
100
AcDbBlockReference
  2
SW_NOTE_0_1
 10
1155.0
 20
78.3750002482
 30
0.0
  0
MTEXT
  5
EF
330
1F
100
AcDbEntity
  8
MARKETING_DRW
100
AcDbMText
 10
1905.0
 20
249.9675136777
 30
0.0
 40
12.5
 41
0.0
 71
     1
 72
     1
  1
marketing drw.
  7
SLDTEXTSTYLE0
 73
     1
 44
1.0
  0
MTEXT
  5
F0
330
1F
100
AcDbEntity
  8
MARKETING_DRW
100
AcDbMText
 10
1405.0
 20
224.9766099061
 30
0.0
 40
9.0
 41
0.0
 71
     1
 72
     1
  1
created by:
  7
SLDTEXTSTYLE0
 73
     1
 44
1.0
  0
LINE
  5
F1
330
1F
100
AcDbEntity
  8
0
  6
Continuous
 62
     7
370
    35
100
AcDbLine
 10
1290.6107245225
 20
933.9846816169
 30
0.0
 11
410.6107245225
 21
933.9846816169
 31
0.0
  0
LINE
  5
F2
330
1F
100
AcDbEntity
  8
0
  6
Continuous
 62
     7
370
    35
100
AcDbLine
 10
769.6107245225
 20
913.893125855
 30
0.0
 11
769.6107245225
 21
910.9850816169
 31
0.0
  0
LINE
  5
F3
330
1F
100
AcDbEntity
  8
0
  6
Continuous
 62
     7
370
    35
100
AcDbLine
 10
931.6107245225
 20
910.9850816169
 30
0.0
 11
931.6107245225
 21
913.893125855
 31
0.0
  0
ARC
  5
F4
330
1F
100
AcDbEntity
  8
0
  6
Continuous
 62
     7
370
    35
100
AcDbCircle
 10
767.6107245225
 20
913.8866925372
 30
0.0
 40
2.00000000000007
100
AcDbArc
 50
0.1603835477
 51
88.7916387136
  0
ARC
  5
F5
330
1F
100
AcDbEntity
  8
0
  6
Continuous
 62
     7
370
    35
100
AcDbCircle
 10
933.6107245225
 20
913.8866925372
 30
0.0
 40
1.999999999999986
100
AcDbArc
 50
91.1928878275
 51
179.8251412338
  0
LINE
  5
F6
330
1F
100
AcDbEntity
  8
0
  6
Continuous
 62
     7
370
    35
100
AcDbLine
 10
410.6107245225
 20
915.8862925372
 30
0.0
 11
767.6515453343
 21
915.8862925372
 31
0.0
  0
LINE
  5
F7
330
1F
100
AcDbEntity
  8
0
  6
Continuous
 62
     7
370
    35
100
AcDbLine
 10
933.5699037104
 20
915.8862925372
 30
0.0
 11
1290.6107245225
 21
915.8862925372
 31
0.0
  0
LINE
  5
F8
330
1F
100
AcDbEntity
  8
0
  6
Continuous
 62
     7
370
    35
100
AcDbLine
 10
942.1107245225
 20
840.4850816169
 30
0.0
 11
985.2991228681
 21
840.4850816169
 31
0.0
  0
LINE
  5
F9
330
1F
100
AcDbEntity
  8
0
  6
Continuous
 62
     7
370
    35
100
AcDbLine
 10
985.2991228681
 20
890.5850816169
 30
0.0
 11
942.1107245225
 21
890.5850816169
 31
0.0
  0
ARC
  5
FA
330
1F
100
AcDbEntity
  8
0
  6
Continuous
 62
     7
370
    35
100
AcDbCircle
 10
985.2991228681
 20
887.5850816169
 30
0.0
 40
3.000000000000114
100
AcDbArc
 50
78.1402208791
 51
90.0
  0
ARC
  5
FB
330
1F
100
AcDbEntity
  8
0
  6
Continuous
 62
     7
370
    35
100
AcDbCircle
 10
985.2991228681
 20
843.4850816169
 30
0.0
 40
3.0
100
AcDbArc
 50
270.0
 51
281.8597791209
  0
LINE
  5
FC
330
1F
100
AcDbEntity
  8
0
  6
Continuous
 62
     7
370
    35
100
AcDbLine
 10
985.915674571
 20
840.5491211271
 30
0.0
 11
990.6107245225
 21
841.5350816169
 31
0.0
  0
LINE
  5
FD
330
1F
100
AcDbEntity
  8
0
  6
Continuous
 62
     7
370
    35
100
AcDbLine
 10
990.6107245225
 20
889.5350816169
 30
0.0
 11
985.915674571
 21
890.5210421067
 31
0.0
  0
LINE
  5
FE
330
1F
100
AcDbEntity
  8
0
  6
Continuous
 62
     7
370
    35
100
AcDbLine
 10
942.1107245579
 20
890.5350816169
 30
0.0
 11
940.508558949
 21
890.5350816169
 31
0.0
  0
LINE
  5
FF
330
1F
100
AcDbEntity
  8
0
  6
Continuous
 62
     7
370
    35
100
AcDbLine
 10
923.6107245224
 20
840.5350816169
 30
0.0
 11
942.1107245579
 21
840.5350816169
 31
0.0
  0
LINE
  5
100
330
1F
100
AcDbEntity
  8
0
  6
Continuous
 62
     7
370
    35
100
AcDbLine
 10
919.6575069295
 20
840.5350816169
 30
0.0
 11
923.6107245225
 21
840.5350816169
 31
0.0
  0
LINE
  5
101
330
1F
100
AcDbEntity
  8
0
  6
Continuous
 62
     7
370
    35
100
AcDbLine
 10
1290.6107245225
 20
921.9846816169
 30
0.0
 11
410.6107245225
 21
921.9846816169
 31
0.0
  0
LINE
  5
102
330
1F
100
AcDbEntity
  8
0
  6
Continuous
 62
     7
370
    35
100
AcDbLine
 10
1290.6107245225
 20
920.9846816169
 30
0.0
 11
1290.6107245225
 21
921.9846816169
 31
0.0
  0
LINE
  5
103
330
1F
100
AcDbEntity
  8
0
  6
Continuous
 62
     7
370
    35
100
AcDbLine
 10
1290.6107245225
 20
920.9846816169
 30
0.0
 11
410.6107245225
 21
920.9846816169
 31
0.0
  0
LINE
  5
104
330
1F
100
AcDbEntity
  8
0
  6
Continuous
 62
     7
370
    35
100
AcDbLine
 10
410.6107245225
 20
920.9846816169
 30
0.0
 11
410.6107245225
 21
921.9846816169
 31
0.0
  0
LINE
  5
105
330
1F
100
AcDbEntity
  8
0
  6
Continuous
 62
     7
370
    35
100
AcDbLine
 10
1290.6107245225
 20
921.9846816169
 30
0.0
 11
1290.6107245225
 21
922.9846816169
 31
0.0
  0
LINE
  5
106
330
1F
100
AcDbEntity
  8
0
  6
Continuous
 62
     7
370
    35
100
AcDbLine
 10
410.6107245225
 20
922.9846816169
 30
0.0
 11
410.6107245225
 21
921.9846816169
 31
0.0
  0
LINE
  5
107
330
1F
100
AcDbEntity
  8
0
  6
Continuous
 62
     7
370
    35
100
AcDbLine
 10
410.6107245225
 20
932.9846816169
 30
0.0
 11
410.6107245225
 21
933.9846816169
 31
0.0
  0
LINE
  5
108
330
1F
100
AcDbEntity
  8
0
  6
Continuous
 62
     7
370
    35
100
AcDbLine
 10
1290.6107245225
 20
933.9846816169
 30
0.0
 11
1290.6107245225
 21
932.9846816169
 31
0.0
  0
LINE
  5
109
330
1F
100
AcDbEntity
  8
0
  6
Continuous
 62
     7
370
    35
100
AcDbLine
 10
1290.6107245225
 20
932.4846816169
 30
0.0
 11
1290.6107245225
 21
922.9846816169
 31
0.0
  0
LINE
  5
10A
330
1F
100
AcDbEntity
  8
0
  6
Continuous
 62
     7
370
    35
100
AcDbLine
 10
410.6107245225
 20
922.9846816169
 30
0.0
 11
410.6107245225
 21
932.4846816169
 31
0.0
  0
LINE
  5
10B
330
1F
100
AcDbEntity
  8
0
  6
Continuous
 62
     7
370
    35
100
AcDbLine
 10
410.6107245225
 20
918.8866658985
 30
0.0
 11
410.6107245225
 21
919.6466001062
 31
0.0
  0
LINE
  5
10C
330
1F
100
AcDbEntity
  8
0
  6
Continuous
 62
     7
370
    35
100
AcDbLine
 10
1290.6107245225
 20
918.8866658985
 30
0.0
 11
1290.6107245225
 21
919.6466001062
 31
0.0
  0
LINE
  5
10D
330
1F
100
AcDbEntity
  8
0
  6
Continuous
 62
     7
370
    35
100
AcDbLine
 10
410.6107245225
 20
919.6466001062
 30
0.0
 11
410.6107245225
 21
920.9846816169
 31
0.0
  0
LINE
  5
10E
330
1F
100
AcDbEntity
  8
0
  6
Continuous
 62
     7
370
    35
100
AcDbLine
 10
1290.6107245225
 20
919.6466001062
 30
0.0
 11
1290.6107245225
 21
920.9846816169
 31
0.0
  0
SPLINE
  5
10F
330
1F
100
AcDbEntity
  8
0
  6
Continuous
 62
     7
370
    35
100
AcDbSpline
210
0.0
220
0.0
230
1.0
 70
     8
 71
     3
 72
    14
 73
    10
 74
     0
 42
0.000000001
 43
0.00000001
 40
0.0
 40
0.0
 40
0.0
 40
0.0
 40
0.25
 40
0.25
 40
0.5
 40
0.5
 40
0.75
 40
0.75
 40
1.0
 40
1.0
 40
1.0
 40
1.0
 10
933.5699006311411
 20
915.8895091961086
 30
0.0
 10
933.5446765355916
 20
916.0787565222579
 30
0.0
 10
932.9585000552072
 20
916.2676761362659
 30
0.0
 10
930.7271087171628
 20
916.624413185393
 30
0.0
 10
929.0828511342758
 20
916.7920685235907
 30
0.0
 10
924.9143225496141
 20
917.0877254115662
 30
0.0
 10
922.3918216722319
 20
917.2155945938612
 30
0.0
 10
916.7438593029437
 20
917.4174206584349
 30
0.0
 10
913.6208681473729
 20
917.491286577801
 30
0.0
 10
910.3689584038314
 20
917.534042626204
 30
0.0
  0
SPLINE
  5
110
330
1F
100
AcDbEntity
  8
0
  6
Continuous
 62
     7
370
    35
100
AcDbSpline
210
0.0
220
0.0
230
1.0
 70
     8
 71
     3
 72
    16
 73
    12
 74
     0
 42
0.000000001
 43
0.00000001
 40
0.0
 40
0.0
 40
0.0
 40
0.0
 40
0.0624999999999992
 40
0.0624999999999992
 40
0.1249999999999984
 40
0.1249999999999984
 40
0.2499999999999969
 40
0.2499999999999969
 40
0.4999999999999969
 40
0.4999999999999969
 40
1.0
 40
1.0
 40
1.0
 40
1.0
 10
910.3689584037752
 20
917.5340426261894
 30
0.0
 10
910.2304932348145
 20
917.5358631636375
 30
0.0
 10
910.0900733997549
 20
917.5365378820645
 30
0.0
 10
909.809236171098
 20
917.5378887500958
 30
0.0
 10
909.6685997114894
 20
917.5384364839044
 30
0.0
 10
909.2465605193398
 20
917.5400035891747
 30
0.0
 10
908.9650109054486
 20
917.5409095484476
 30
0.0
 10
908.1203434532249
 20
917.5434254842812
 30
0.0
 10
907.5570254944432
 20
917.5448015546108
 30
0.0
 10
905.8665230984943
 20
917.5481289609118
 30
0.0
 10
904.7386370309325
 20
917.5492539362532
 30
0.0
 10
903.6107245224555
 20
917.5492539362532
 30
0.0
  0
LINE
  5
111
330
1F
100
AcDbEntity
  8
0
  6
Continuous
 62
     7
370
    35
100
AcDbLine
 10
903.6107245225
 20
917.5492539363
 30
0.0
 11
797.6107245225
 21
917.5492539363
 31
0.0
  0
SPLINE
  5
112
330
1F
100
AcDbEntity
  8
0
  6
Continuous
 62
     7
370
    35
100
AcDbSpline
210
0.0
220
0.0
230
1.0
 70
     8
 71
     3
 72
    16
 73
    12
 74
     0
 42
0.000000001
 43
0.00000001
 40
0.0
 40
0.0
 40
0.0
 40
0.0
 40
0.499999999999997
 40
0.499999999999997
 40
0.749999999999997
 40
0.749999999999997
 40
0.8749999999999986
 40
0.8749999999999986
 40
0.9374999999999992
 40
0.9374999999999992
 40
1.0
 40
1.0
 40
1.0
 40
1.0
 10
797.6107245224555
 20
917.5492539362532
 30
0.0
 10
796.4827745007907
 20
917.5492539362532
 30
0.0
 10
795.3552327706383
 20
917.5481294584007
 30
0.0
 10
793.6645159956925
 20
917.5448017897721
 30
0.0
 10
793.1010288387845
 20
917.5434253126222
 30
0.0
 10
792.2562477367019
 20
917.5409089528214
 30
0.0
 10
791.9747084024388
 20
917.5400029979992
 30
0.0
 10
791.5526348127232
 20
917.538435648488
 30
0.0
 10
791.411955825901
 20
917.53788770206
 30
0.0
 10
791.1311173099314
 20
917.5365364506862
 30
0.0
 10
790.9907000348161
 20
917.535859800709
 30
0.0
 10
790.8524906411358
 20
917.5340426261894
 30
0.0
  0
SPLINE
  5
113
330
1F
100
AcDbEntity
  8
0
  6
Continuous
 62
     7
370
    35
100
AcDbSpline
210
0.0
220
0.0
230
1.0
 70
     8
 71
     3
 72
    14
 73
    10
 74
     0
 42
0.000000001
 43
0.00000001
 40
0.0
 40
0.0
 40
0.0
 40
0.0
 40
0.25
 40
0.25
 40
0.5
 40
0.5
 40
0.75
 40
0.75
 40
1.0
 40
1.0
 40
1.0
 40
1.0
 10
790.8524906410487
 20
917.5340426262106
 30
0.0
 10
787.6005809064876
 20
917.4912865779257
 30
0.0
 10
784.4776134445682
 20
917.4174216037302
 30
0.0
 10
778.8295814006455
 20
917.2155928527735
 30
0.0
 10
776.3071171314051
 20
917.0877248808266
 30
0.0
 10
772.1385907863673
 20
916.792067884891
 30
0.0
 10
770.4943206082744
 20
916.6244102797027
 30
0.0
 10
768.2629599536372
 20
916.2676776422126
 30
0.0
 10
767.6767725094036
 20
916.0787565218501
 30
0.0
 10
767.651548413909
 20
915.8895091961081
 30
0.0
  0
LINE
  5
114
330
1F
100
AcDbEntity
  8
0
  6
Continuous
 62
     7
370
    35
100
AcDbLine
 10
769.6107245225
 20
910.9850816169
 30
0.0
 11
797.6107245225
 21
910.9850816169
 31
0.0
  0
LINE
  5
115
330
1F
100
AcDbEntity
  8
0
  6
Continuous
 62
     7
370
    35
100
AcDbLine
 10
903.6107245225
 20
910.9850816169
 30
0.0
 11
924.7648808718
 21
910.9850816169
 31
0.0
  0
LINE
  5
116
330
1F
100
AcDbEntity
  8
0
  6
Continuous
 62
     7
370
    35
100
AcDbLine
 10
925.3999307893
 20
910.9850816169
 30
0.0
 11
931.6107245225
 21
910.9850816169
 31
0.0
  0
LINE
  5
117
330
1F
100
AcDbEntity
  8
0
  6
Continuous
 62
     7
370
    35
100
AcDbLine
 10
797.6107245225
 20
910.9850816169
 30
0.0
 11
903.6107245225
 21
910.9850816169
 31
0.0
  0
LINE
  5
118
330
1F
100
AcDbEntity
  8
0
  6
Continuous
 62
     7
370
    35
100
AcDbLine
 10
1290.6107245225
 20
933.9846816169
 30
0.0
 11
410.6107245225
 21
933.9846816169
 31
0.0
  0
LINE
  5
119
330
1F
100
AcDbEntity
  8
0
  6
Continuous
 62
     7
370
    35
100
AcDbLine
 10
410.6107245225
 20
934.9846816169
 30
0.0
 11
410.6107245225
 21
933.9846816169
 31
0.0
  0
LINE
  5
11A
330
1F
100
AcDbEntity
  8
0
  6
Continuous
 62
     7
370
    35
100
AcDbLine
 10
1290.6107245225
 20
933.9846816169
 30
0.0
 11
1290.6107245225
 21
934.9846816169
 31
0.0
  0
LINE
  5
11B
330
1F
100
AcDbEntity
  8
0
  6
Continuous
 62
     7
370
    35
100
AcDbLine
 10
410.6107245225
 20
964.4846816169
 30
0.0
 11
1290.6107245225
 21
964.4846816169
 31
0.0
  0
LINE
  5
11C
330
1F
100
AcDbEntity
  8
0
  6
Continuous
 62
     7
370
    35
100
AcDbLine
 10
1290.6107245225
 20
964.4846816169
 30
0.0
 11
1290.6107245225
 21
934.9846816169
 31
0.0
  0
LINE
  5
11D
330
1F
100
AcDbEntity
  8
0
  6
Continuous
 62
     7
370
    35
100
AcDbLine
 10
410.6107245225
 20
934.9846816169
 30
0.0
 11
410.6107245225
 21
964.4846816169
 31
0.0
  0
LINE
  5
11E
330
1F
100
AcDbEntity
  8
0
  6
Continuous
 62
     7
370
    35
100
AcDbLine
 10
769.8107245225
 20
914.0350816169
 30
0.0
 11
797.6107245225
 21
914.0350816169
 31
0.0
  0
LINE
  5
11F
330
1F
100
AcDbEntity
  8
0
  6
Continuous
 62
     7
370
    35
100
AcDbLine
 10
931.4107245225
 20
914.0350816169
 30
0.0
 11
903.6107245225
 21
914.0350816169
 31
0.0
  0
LINE
  5
120
330
1F
100
AcDbEntity
  8
0
  6
Continuous
 62
     7
370
    35
100
AcDbLine
 10
942.1107245225
 20
865.5350816169
 30
0.0
 11
942.1107245225
 21
890.5850816169
 31
0.0
  0
LINE
  5
121
330
1F
100
AcDbEntity
  8
0
  6
Continuous
 62
     7
370
    35
100
AcDbLine
 10
942.1107245225
 20
840.4850816169
 30
0.0
 11
942.1107245225
 21
865.5350816169
 31
0.0
  0
LINE
  5
122
330
1F
100
AcDbEntity
  8
0
  6
Continuous
 62
     7
370
    35
100
AcDbLine
 10
990.6107245225
 20
865.5350816169
 30
0.0
 11
990.6107245225
 21
889.5350816169
 31
0.0
  0
LINE
  5
123
330
1F
100
AcDbEntity
  8
0
  6
Continuous
 62
     7
370
    35
100
AcDbLine
 10
990.6107245225
 20
841.5350816169
 30
0.0
 11
990.6107245225
 21
865.5350816169
 31
0.0
  0
ARC
  5
124
330
1F
100
AcDbEntity
  8
0
  6
Continuous
 62
     7
370
    35
100
AcDbCircle
 10
850.6107245225
 20
865.5850816169
 30
0.0
 40
25.05000000000026
100
AcDbArc
 50
237.7865374201
 51
302.2134625799
  0
SPLINE
  5
125
330
1F
100
AcDbEntity
  8
0
  6
Continuous
 62
     7
370
    35
100
AcDbSpline
210
0.0
220
0.0
230
1.0
 70
    24
 71
     3
 72
    10
 73
     6
 74
     0
 42
0.000000001
 43
0.00000001
 40
0.0
 40
0.0
 40
0.0
 40
0.0
 40
0.2125176675661993
 40
0.6062581077227583
 40
1.0
 40
1.0
 40
1.0
 40
1.0
 10
850.6107245224565
 20
890.8970881438581
 30
0.0
 10
850.6107245224555
 20
890.9803716525716
 30
0.0
 10
850.610724522453
 20
891.2179580282144
 30
0.0
 10
850.6107245224566
 20
891.8294225926247
 30
0.0
 10
850.6107245224554
 20
892.4543224309726
 30
0.0
 10
850.6107245224548
 20
892.7667729263055
 30
0.0
  0
SPLINE
  5
126
330
1F
100
AcDbEntity
  8
0
  6
Continuous
 62
     7
370
    35
100
AcDbSpline
210
0.0
220
0.0
230
1.0
 70
     8
 71
     3
 72
    25
 73
    21
 74
     0
 42
0.000000001
 43
0.00000001
 40
0.0
 40
0.0
 40
0.0
 40
0.0
 40
0.040377285082533
 40
0.0581432905171143
 40
0.0718747463632703
 40
0.0830985540815624
 40
0.0953185813390224
 40
0.1147179721021834
 40
0.1492959713349587
 40
0.2292797835274575
 40
0.3102091618275161
 40
0.3726852819819033
 40
0.4313870265629193
 40
0.4804590282852381
 40
0.5235520429457751
 40
0.5708166295125255
 40
0.6751808706738801
 40
0.7818081507417538
 40
0.8902538127997786
 40
1.0
 40
1.0
 40
1.0
 40
1.0
 10
769.1107245224539
 20
910.9850816168905
 30
0.0
 10
769.1173955279838
 20
910.1060289413174
 30
0.0
 10
769.1270017759467
 20
908.8401930885298
 30
0.0
 10
769.08757705797
 20
907.3231355548304
 30
0.0
 10
769.1722615558743
 20
906.3208342953232
 30
0.0
 10
768.4928104465417
 20
905.7738323272628
 30
0.0
 10
767.6850532203409
 20
905.3544443360512
 30
0.0
 10
766.6126683731516
 20
904.355458325978
 30
0.0
 10
765.2853794539524
 20
901.7277804205828
 30
0.0
 10
764.611160990191
 20
897.5241291362187
 30
0.0
 10
763.5121598148861
 20
892.8285927110572
 30
0.0
 10
762.773635067284
 20
888.5193181350878
 30
0.0
 10
762.21185497278
 20
884.8824538391314
 30
0.0
 10
761.829313830467
 20
881.6422515701968
 30
0.0
 10
761.6371804282469
 20
878.6330136554316
 30
0.0
 10
761.5665967110732
 20
874.4230916493739
 30
0.0
 10
761.9227351354193
 20
868.8378598916462
 30
0.0
 10
763.1474584178582
 20
862.0308435039278
 30
0.0
 10
765.1230863869554
 20
855.2679109591974
 30
0.0
 10
767.0977491637151
 20
850.9785512756032
 30
0.0
 10
768.0909655074618
 20
848.8210881421035
 30
0.0
  0
SPLINE
  5
127
330
1F
100
AcDbEntity
  8
0
  6
Continuous
 62
     7
370
    35
100
AcDbSpline
210
0.0
220
0.0
230
1.0
 70
    24
 71
     3
 72
    19
 73
    15
 74
     0
 42
0.000000001
 43
0.00000001
 40
0.0
 40
0.0
 40
0.0
 40
0.0
 40
0.2409130132110065
 40
0.4882582803106309
 40
0.539171502911726
 40
0.5899404478678758
 40
0.6400693120936302
 40
0.689988749176464
 40
0.7400419496428633
 40
0.7904190820051399
 40
0.8413201884464401
 40
0.8929676784851894
 40
0.9456873805534206
 40
1.0
 40
1.0
 40
1.0
 40
1.0
 10
850.6107245224548
 20
910.9850816168899
 30
0.0
 10
842.7646814241731
 20
910.98508161689
 30
0.0
 10
826.8631099011156
 20
910.98508161689
 30
0.0
 10
809.2976853158149
 20
910.9850816168897
 30
0.0
 10
797.9357985128119
 20
910.98508161689
 30
0.0
 10
792.9800259185673
 20
910.9850816168895
 30
0.0
 10
788.1956651551574
 20
910.9850816168899
 30
0.0
 10
783.7120872110266
 20
910.9850816168905
 30
0.0
 10
779.6338369204492
 20
910.9850816168906
 30
0.0
 10
776.0605849789541
 20
910.9850816168906
 30
0.0
 10
773.0941792341342
 20
910.9850816168903
 30
0.0
 10
770.8641530147696
 20
910.9850816168903
 30
0.0
 10
769.3908429177474
 20
910.9850816168905
 30
0.0
 10
769.2050191666672
 20
910.9850816168905
 30
0.0
 10
769.1107245224539
 20
910.9850816168905
 30
0.0
  0
SPLINE
  5
128
330
1F
100
AcDbEntity
  8
0
  6
Continuous
 62
     7
370
    35
100
AcDbSpline
210
0.0
220
0.0
230
1.0
 70
    24
 71
     3
 72
    18
 73
    14
 74
     0
 42
0.000000001
 43
0.00000001
 40
0.0
 40
0.0
 40
0.0
 40
0.0
 40
0.105600087244747
 40
0.3249463313005462
 40
0.5456095245813464
 40
0.6686132746948408
 40
0.7011918426142494
 40
0.7339487647370309
 40
0.7672437697818042
 40
0.8035947759165847
 40
0.8401179485066305
 40
0.8975115054529705
 40
1.0
 40
1.0
 40
1.0
 40
1.0
 10
850.6107245224548
 20
892.7667729263052
 30
0.0
 10
850.6107245224548
 20
893.4429815354353
 30
0.0
 10
850.6107245224548
 20
895.5237705997604
 30
0.0
 10
850.6107245224548
 20
898.9557606432871
 30
0.0
 10
850.6107245224548
 20
902.6019250792485
 30
0.0
 10
850.6107245224548
 20
904.7460868256721
 30
0.0
 10
850.6107245224548
 20
905.5281955554563
 30
0.0
 10
850.6107245224548
 20
905.809814556729
 30
0.0
 10
850.6107245224548
 20
906.294024159434
 30
0.0
 10
850.6107245224548
 20
907.0541740864869
 30
0.0
 10
850.6107245224548
 20
907.9104829431135
 30
0.0
 10
850.6107245224548
 20
909.2320763269133
 30
0.0
 10
850.6107245224548
 20
910.3003139254927
 30
0.0
 10
850.6107245224548
 20
910.9850816168899
 30
0.0
  0
SPLINE
  5
129
330
1F
100
AcDbEntity
  8
0
  6
Continuous
 62
     7
370
    35
100
AcDbSpline
210
0.0
220
0.0
230
1.0
 70
    24
 71
     3
 72
    19
 73
    15
 74
     0
 42
0.000000001
 43
0.00000001
 40
0.0
 40
0.0
 40
0.0
 40
0.0
 40
0.2409130132110045
 40
0.4882582803106245
 40
0.5391715029117193
 40
0.589940447867869
 40
0.6400693120936232
 40
0.6899887491764569
 40
0.7400419496428563
 40
0.7904190820051346
 40
0.8413201884464377
 40
0.8929676784851891
 40
0.9456873805534207
 40
1.0
 40
1.0
 40
1.0
 40
1.0
 10
850.6107245224548
 20
910.9850816168899
 30
0.0
 10
858.4567676207365
 20
910.9850816168899
 30
0.0
 10
874.3583391437937
 20
910.98508161689
 30
0.0
 10
891.9237637290944
 20
910.985081616889
 30
0.0
 10
903.2856505320972
 20
910.9850816168895
 30
0.0
 10
908.2414231263418
 20
910.9850816168885
 30
0.0
 10
913.0257838897517
 20
910.9850816168888
 30
0.0
 10
917.5093618338823
 20
910.9850816168894
 30
0.0
 10
921.5876121244598
 20
910.9850816168895
 30
0.0
 10
925.160864065955
 20
910.9850816168895
 30
0.0
 10
928.1272698107754
 20
910.9850816168894
 30
0.0
 10
930.3572960301404
 20
910.9850816168893
 30
0.0
 10
931.8306061271628
 20
910.9850816168894
 30
0.0
 10
932.016429878243
 20
910.9850816168894
 30
0.0
 10
932.1107245224562
 20
910.9850816168894
 30
0.0
  0
SPLINE
  5
12A
330
1F
100
AcDbEntity
  8
0
  6
Continuous
 62
     7
370
    35
100
AcDbSpline
210
0.0
220
0.0
230
1.0
 70
     8
 71
     3
 72
    16
 73
    12
 74
     0
 42
0.000000001
 43
0.00000001
 40
0.0
 40
0.0
 40
0.0
 40
0.0
 40
0.1465768179208928
 40
0.2110706177997926
 40
0.2609182759381916
 40
0.3016627196753192
 40
0.3460236197864533
 40
0.4164469026261956
 40
0.5419712682998723
 40
0.7688489389603033
 40
1.0
 40
1.0
 40
1.0
 40
1.0
 10
932.1107245224562
 20
910.9850816168894
 30
0.0
 10
932.104054676927
 20
910.1060292882823
 30
0.0
 10
932.0944500993651
 20
908.8401939351262
 30
0.0
 10
932.1338679618983
 20
907.3231343509049
 30
0.0
 10
932.0491981895223
 20
906.3208374959291
 30
0.0
 10
932.7286052113242
 20
905.7738223409106
 30
0.0
 10
933.5365684084577
 20
905.3544959573704
 30
0.0
 10
934.607336213527
 20
904.3550262761381
 30
0.0
 10
935.7764634709771
 20
902.0748575375925
 30
0.0
 10
936.379276471641
 20
898.631632730794
 30
0.0
 10
936.9924975278179
 20
895.9766343215821
 30
0.0
 10
937.3019687202933
 20
894.6367496006607
 30
0.0
  0
SPLINE
  5
12B
330
1F
100
AcDbEntity
  8
0
  6
Continuous
 62
     7
370
    35
100
AcDbSpline
210
0.0
220
0.0
230
1.0
 70
     8
 71
     3
 72
    14
 73
    10
 74
     0
 42
0.000000001
 43
0.00000001
 40
0.0
 40
0.0
 40
0.0
 40
0.0
 40
0.1497838616746357
 40
0.3039198677007078
 40
0.4537011775423317
 40
0.6078081864720632
 40
0.757933700022959
 40
0.9123691506710973
 40
1.0
 40
1.0
 40
1.0
 40
1.0
 10
768.0909655074618
 20
848.8210881421035
 30
0.0
 10
768.4998122205734
 20
848.0959736292624
 30
0.0
 10
769.3293851636765
 20
846.6246755578508
 30
0.0
 10
771.0129204086123
 20
844.730236761101
 30
0.0
 10
772.9830275807399
 20
843.1137576321565
 30
0.0
 10
775.1843416226282
 20
841.8636859754611
 30
0.0
 10
777.584901386874
 20
840.9957883651782
 30
0.0
 10
779.7354135670262
 20
840.5876669513677
 30
0.0
 10
781.0779339407541
 20
840.5490583756589
 30
0.0
 10
781.5639421153835
 20
840.5350816168904
 30
0.0
  0
SPLINE
  5
12C
330
1F
100
AcDbEntity
  8
0
  6
Continuous
 62
     7
370
    35
100
AcDbSpline
210
0.0
220
0.0
230
1.0
 70
    24
 71
     3
 72
    19
 73
    15
 74
     0
 42
0.000000001
 43
0.00000001
 40
0.0
 40
0.0
 40
0.0
 40
0.0
 40
0.0339082014123465
 40
0.083889095661541
 40
0.1338856406936263
 40
0.1787639190833881
 40
0.2236368521988049
 40
0.2646138248638237
 40
0.3055644086924206
 40
0.3465596390526759
 40
0.3876059998972911
 40
0.5510999779005312
 40
0.7146015071203439
 40
1.0
 40
1.0
 40
1.0
 40
1.0
 10
781.5639421153835
 20
840.5350816168904
 30
0.0
 10
781.7043719688132
 20
840.5350816168904
 30
0.0
 10
782.0517962767217
 20
840.5350816168904
 30
0.0
 10
783.2496724435188
 20
840.5350816168904
 30
0.0
 10
785.0998672639882
 20
840.5350816168904
 30
0.0
 10
787.3922196844675
 20
840.5350816168904
 30
0.0
 10
789.9151112157174
 20
840.5350816168904
 30
0.0
 10
792.6807289190662
 20
840.5350816168904
 30
0.0
 10
795.6095199263727
 20
840.5350816168904
 30
0.0
 10
798.7559625071248
 20
840.5350816168904
 30
0.0
 10
805.2468190581133
 20
840.5350816168904
 30
0.0
 10
814.9844281721267
 20
840.5350816168901
 30
0.0
 10
831.1872343895493
 20
840.5350816168897
 30
0.0
 10
843.0614312891006
 20
840.5350816168898
 30
0.0
 10
850.6107245224554
 20
840.5350816168898
 30
0.0
  0
SPLINE
  5
12D
330
1F
100
AcDbEntity
  8
0
  6
Continuous
 62
     7
370
    35
100
AcDbSpline
210
0.0
220
0.0
230
1.0
 70
    24
 71
     3
 72
    19
 73
    15
 74
     0
 42
0.000000001
 43
0.00000001
 40
0.0
 40
0.0
 40
0.0
 40
0.0
 40
0.0339064855174937
 40
0.0831372973791091
 40
0.1338840147717981
 40
0.1782456415880436
 40
0.2236320967859881
 40
0.2641259724126844
 40
0.3055570601923705
 40
0.3459382551888645
 40
0.387637842981376
 40
0.5510878192859417
 40
0.7146159494612724
 40
1.0
 40
1.0
 40
1.0
 40
1.0
 10
919.6575069295278
 20
840.5350816168892
 30
0.0
 10
919.5169209967274
 20
840.5350816168892
 30
0.0
 10
919.1722101154859
 20
840.5350816168892
 30
0.0
 10
917.9839389113782
 20
840.5350816168892
 30
0.0
 10
916.1392246328345
 20
840.5350816168892
 30
0.0
 10
913.8399518485509
 20
840.5350816168892
 30
0.0
 10
911.3260906377268
 20
840.5350816168892
 30
0.0
 10
908.5533832087597
 20
840.5350816168892
 30
0.0
 10
905.6363426591529
 20
840.5350816168892
 30
0.0
 10
902.4889334419603
 20
840.5350816168892
 30
0.0
 10
895.9868857614142
 20
840.5350816168892
 30
0.0
 10
886.240200229471
 20
840.5350816168901
 30
0.0
 10
870.0340526793693
 20
840.5350816168897
 30
0.0
 10
858.1595962562866
 20
840.5350816168898
 30
0.0
 10
850.6107245224554
 20
840.5350816168898
 30
0.0
  0
SPLINE
  5
12E
330
1F
100
AcDbEntity
  8
0
  6
Continuous
 62
     7
370
    35
100
AcDbSpline
210
0.0
220
0.0
230
1.0
 70
     8
 71
     3
 72
    10
 73
     6
 74
     0
 42
0.000000001
 43
0.00000001
 40
0.0
 40
0.0
 40
0.0
 40
0.0
 40
0.0149525925089902
 40
0.5037698573839628
 40
1.0
 40
1.0
 40
1.0
 40
1.0
 10
923.6107245224567
 20
840.5350816168892
 30
0.0
 10
923.6116651008127
 20
840.5351222800291
 30
0.0
 10
923.6433542559893
 20
840.5364922674796
 30
0.0
 10
923.7063543107092
 20
840.6540946045592
 30
0.0
 10
923.7680082279113
 20
841.0874205509119
 30
0.0
 10
923.7990671717686
 20
841.3057140000623
 30
0.0
  0
LINE
  5
12F
330
1F
100
AcDbEntity
  8
0
  6
Continuous
 62
     7
370
    35
100
AcDbLine
 10
937.3019687203
 20
894.6367496007
 30
0.0
 11
937.5240273083
 21
893.2162821114
 31
0.0
  0
SPLINE
  5
130
330
1F
100
AcDbEntity
  8
0
  6
Continuous
 62
     7
370
    35
100
AcDbSpline
210
0.0
220
0.0
230
1.0
 70
     8
 71
     3
 72
    13
 73
     9
 74
     0
 42
0.000000001
 43
0.00000001
 40
0.0
 40
0.0
 40
0.0
 40
0.0
 40
0.0095081972613442
 40
0.0791116948017535
 40
0.3094644223199435
 40
0.5396843471459984
 40
0.7698410895023555
 40
1.0
 40
1.0
 40
1.0
 40
1.0
 10
940.508558948983
 20
890.5350816168896
 30
0.0
 10
940.4946927191689
 20
890.5351437808214
 30
0.0
 10
940.3793205922606
 20
890.5356610075747
 30
0.0
 10
939.9285422521267
 20
890.5651961522748
 30
0.0
 10
939.1690681860911
 20
890.7853078393362
 30
0.0
 10
938.3400760529618
 20
891.3833485983874
 30
0.0
 10
937.730419995661
 20
892.2209295234876
 30
0.0
 10
937.5928250867848
 20
892.884496873622
 30
0.0
 10
937.5240273083027
 20
893.2162821114298
 30
0.0
  0
ARC
  5
131
330
1F
100
AcDbEntity
  8
0
  6
Continuous
 62
     7
370
    35
100
AcDbCircle
 10
1291.6107245225
 20
932.9846816169
 30
0.0
 40
1.000000000000227
100
AcDbArc
 50
90.0
 51
180.0
  0
ARC
  5
132
330
1F
100
AcDbEntity
  8
0
  6
Continuous
 62
     7
370
    35
100
AcDbCircle
 10
1291.6107245225
 20
932.9846816169
 30
0.0
 40
1.0
100
AcDbArc
 50
0.0
 51
90.0
  0
LINE
  5
133
330
1F
100
AcDbEntity
  8
0
  6
Continuous
 62
     7
370
    35
100
AcDbLine
 10
1290.6107245225
 20
932.9846816169
 30
0.0
 11
1290.6107245225
 21
922.9846816169
 31
0.0
  0
LINE
  5
134
330
1F
100
AcDbEntity
  8
0
  6
Continuous
 62
     7
370
    35
100
AcDbLine
 10
1292.6107245225
 20
932.9846816169
 30
0.0
 11
1292.6107245225
 21
921.9846816169
 31
0.0
  0
LINE
  5
135
330
1F
100
AcDbEntity
  8
0
  6
Continuous
 62
     7
370
    35
100
AcDbLine
 10
1290.6107245225
 20
918.8866658985
 30
0.0
 11
1290.6107245225
 21
915.2588221385
 31
0.0
  0
LINE
  5
136
330
1F
100
AcDbEntity
  8
0
  6
Continuous
 62
     7
370
    35
100
AcDbLine
 10
1292.6107245225
 20
920.9846816169
 30
0.0
 11
1292.6107245225
 21
915.2588221385
 31
0.0
  0
LINE
  5
137
330
1F
100
AcDbEntity
  8
0
  6
Continuous
 62
     7
370
    35
100
AcDbLine
 10
1290.6107245225
 20
913.4462065644
 30
0.0
 11
1290.6107245225
 21
915.2588221385
 31
0.0
  0
LINE
  5
138
330
1F
100
AcDbEntity
  8
0
  6
Continuous
 62
     7
370
    35
100
AcDbLine
 10
1292.6107245225
 20
915.2588221385
 30
0.0
 11
1292.6107245225
 21
913.4462065644
 31
0.0
  0
LINE
  5
139
330
1F
100
AcDbEntity
  8
0
  6
Continuous
 62
     7
370
    35
100
AcDbLine
 10
1290.6107245225
 20
913.4462065644
 30
0.0
 11
1290.6107245225
 21
906.1879072798
 31
0.0
  0
LINE
  5
13A
330
1F
100
AcDbEntity
  8
0
  6
Continuous
 62
     7
370
    35
100
AcDbLine
 10
1292.6107245225
 20
913.4462065644
 30
0.0
 11
1292.6107245225
 21
906.1879072798
 31
0.0
  0
LINE
  5
13B
330
1F
100
AcDbEntity
  8
0
  6
Continuous
 62
     7
370
    35
100
AcDbLine
 10
1290.6107245225
 20
904.3752917058
 30
0.0
 11
1290.6107245225
 21
906.1879072798
 31
0.0
  0
LINE
  5
13C
330
1F
100
AcDbEntity
  8
0
  6
Continuous
 62
     7
370
    35
100
AcDbLine
 10
1292.6107245225
 20
906.1879072798
 30
0.0
 11
1292.6107245225
 21
904.3752917058
 31
0.0
  0
LINE
  5
13D
330
1F
100
AcDbEntity
  8
0
  6
Continuous
 62
     7
370
    35
100
AcDbLine
 10
1290.6107245225
 20
904.3752917058
 30
0.0
 11
1290.6107245225
 21
870.0846816169
 31
0.0
  0
LINE
  5
13E
330
1F
100
AcDbEntity
  8
0
  6
Continuous
 62
     7
370
    35
100
AcDbLine
 10
1292.6107245225
 20
904.3752917058
 30
0.0
 11
1292.6107245225
 21
870.0846816169
 31
0.0
  0
LINE
  5
13F
330
1F
100
AcDbEntity
  8
0
  6
Continuous
 62
     7
370
    35
100
AcDbLine
 10
1292.6107245225
 20
868.0846816169
 30
0.0
 11
1290.6107245225
 21
868.0846816169
 31
0.0
  0
LINE
  5
140
330
1F
100
AcDbEntity
  8
0
  6
Continuous
 62
     7
370
    35
100
AcDbLine
 10
1290.6107245225
 20
868.0846816169
 30
0.0
 11
1290.6107245225
 21
870.0846816169
 31
0.0
  0
LINE
  5
141
330
1F
100
AcDbEntity
  8
0
  6
Continuous
 62
     7
370
    35
100
AcDbLine
 10
1292.6107245225
 20
870.0846816169
 30
0.0
 11
1292.6107245225
 21
868.0846816169
 31
0.0
  0
LINE
  5
142
330
1F
100
AcDbEntity
  8
0
  6
Continuous
 62
     7
370
    35
100
AcDbLine
 10
408.6107245225
 20
932.9846816169
 30
0.0
 11
408.6107245225
 21
921.9846816169
 31
0.0
  0
ARC
  5
143
330
1F
100
AcDbEntity
  8
0
  6
Continuous
 62
     7
370
    35
100
AcDbCircle
 10
409.6107245225
 20
932.9846816169
 30
0.0
 40
1.0
100
AcDbArc
 50
90.0
 51
180.0
  0
ARC
  5
144
330
1F
100
AcDbEntity
  8
0
  6
Continuous
 62
     7
370
    35
100
AcDbCircle
 10
409.6107245225
 20
932.9846816169
 30
0.0
 40
1.0
100
AcDbArc
 50
0.0
 51
90.0
  0
LINE
  5
145
330
1F
100
AcDbEntity
  8
0
  6
Continuous
 62
     7
370
    35
100
AcDbLine
 10
410.6107245225
 20
932.9846816169
 30
0.0
 11
410.6107245225
 21
922.9846816169
 31
0.0
  0
LINE
  5
146
330
1F
100
AcDbEntity
  8
0
  6
Continuous
 62
     7
370
    35
100
AcDbLine
 10
408.6107245225
 20
920.9846816169
 30
0.0
 11
408.6107245225
 21
915.2588221385
 31
0.0
  0
LINE
  5
147
330
1F
100
AcDbEntity
  8
0
  6
Continuous
 62
     7
370
    35
100
AcDbLine
 10
410.6107245225
 20
918.8866658985
 30
0.0
 11
410.6107245225
 21
915.2588221385
 31
0.0
  0
LINE
  5
148
330
1F
100
AcDbEntity
  8
0
  6
Continuous
 62
     7
370
    35
100
AcDbLine
 10
408.6107245225
 20
913.4462065644
 30
0.0
 11
408.6107245225
 21
915.2588221385
 31
0.0
  0
LINE
  5
149
330
1F
100
AcDbEntity
  8
0
  6
Continuous
 62
     7
370
    35
100
AcDbLine
 10
410.6107245225
 20
915.2588221385
 30
0.0
 11
410.6107245225
 21
913.4462065644
 31
0.0
  0
LINE
  5
14A
330
1F
100
AcDbEntity
  8
0
  6
Continuous
 62
     7
370
    35
100
AcDbLine
 10
408.6107245225
 20
913.4462065644
 30
0.0
 11
408.6107245225
 21
906.1879072798
 31
0.0
  0
LINE
  5
14B
330
1F
100
AcDbEntity
  8
0
  6
Continuous
 62
     7
370
    35
100
AcDbLine
 10
410.6107245225
 20
913.4462065644
 30
0.0
 11
410.6107245225
 21
906.1879072798
 31
0.0
  0
LINE
  5
14C
330
1F
100
AcDbEntity
  8
0
  6
Continuous
 62
     7
370
    35
100
AcDbLine
 10
408.6107245225
 20
904.3752917058
 30
0.0
 11
408.6107245225
 21
906.1879072798
 31
0.0
  0
LINE
  5
14D
330
1F
100
AcDbEntity
  8
0
  6
Continuous
 62
     7
370
    35
100
AcDbLine
 10
410.6107245225
 20
906.1879072798
 30
0.0
 11
410.6107245225
 21
904.3752917058
 31
0.0
  0
LINE
  5
14E
330
1F
100
AcDbEntity
  8
0
  6
Continuous
 62
     7
370
    35
100
AcDbLine
 10
408.6107245225
 20
904.3752917058
 30
0.0
 11
408.6107245225
 21
870.0846816169
 31
0.0
  0
LINE
  5
14F
330
1F
100
AcDbEntity
  8
0
  6
Continuous
 62
     7
370
    35
100
AcDbLine
 10
410.6107245225
 20
904.3752917058
 30
0.0
 11
410.6107245225
 21
870.0846816169
 31
0.0
  0
LINE
  5
150
330
1F
100
AcDbEntity
  8
0
  6
Continuous
 62
     7
370
    35
100
AcDbLine
 10
410.6107245225
 20
868.0846816169
 30
0.0
 11
408.6107245225
 21
868.0846816169
 31
0.0
  0
LINE
  5
151
330
1F
100
AcDbEntity
  8
0
  6
Continuous
 62
     7
370
    35
100
AcDbLine
 10
408.6107245225
 20
868.0846816169
 30
0.0
 11
408.6107245225
 21
870.0846816169
 31
0.0
  0
LINE
  5
152
330
1F
100
AcDbEntity
  8
0
  6
Continuous
 62
     7
370
    35
100
AcDbLine
 10
410.6107245225
 20
870.0846816169
 30
0.0
 11
410.6107245225
 21
868.0846816169
 31
0.0
  0
LINE
  5
153
330
1F
100
AcDbEntity
  8
0
  6
Continuous
 62
     7
370
    35
100
AcDbLine
 10
388.1107245225
 20
920.9846816169
 30
0.0
 11
378.1107245225
 21
920.9846816169
 31
0.0
  0
LINE
  5
154
330
1F
100
AcDbEntity
  8
0
  6
Continuous
 62
     7
370
    35
100
AcDbLine
 10
378.1107245225
 20
920.9846816169
 30
0.0
 11
378.1107245225
 21
921.9846816169
 31
0.0
  0
LINE
  5
155
330
1F
100
AcDbEntity
  8
0
  6
Continuous
 62
     7
370
    35
100
AcDbLine
 10
378.1107245225
 20
921.9846816169
 30
0.0
 11
388.1107245225
 21
921.9846816169
 31
0.0
  0
LINE
  5
156
330
1F
100
AcDbEntity
  8
0
  6
Continuous
 62
     7
370
    35
100
AcDbLine
 10
410.6107245225
 20
921.9846816169
 30
0.0
 11
388.1107245225
 21
921.9846816169
 31
0.0
  0
LINE
  5
157
330
1F
100
AcDbEntity
  8
0
  6
Continuous
 62
     7
370
    35
100
AcDbLine
 10
410.6107245225
 20
920.9846816169
 30
0.0
 11
388.1107245225
 21
920.9846816169
 31
0.0
  0
LINE
  5
158
330
1F
100
AcDbEntity
  8
0
  6
Continuous
 62
     7
370
    35
100
AcDbLine
 10
378.1107245225
 20
922.9846816169
 30
0.0
 11
378.1107245225
 21
921.9846816169
 31
0.0
  0
ARC
  5
159
330
1F
100
AcDbEntity
  8
0
  6
Continuous
 62
     7
370
    35
100
AcDbCircle
 10
388.1107245225
 20
954.4846816169
 30
0.0
 40
10.0
100
AcDbArc
 50
90.0
 51
180.0
  0
LINE
  5
15A
330
1F
100
AcDbEntity
  8
0
  6
Continuous
 62
     7
370
    35
100
AcDbLine
 10
410.6107245225
 20
964.4846816169
 30
0.0
 11
388.1107245225
 21
964.4846816169
 31
0.0
  0
LINE
  5
15B
330
1F
100
AcDbEntity
  8
0
  6
Continuous
 62
     7
370
    35
100
AcDbLine
 10
378.1107245225
 20
954.4846816169
 30
0.0
 11
378.1107245225
 21
922.9846816169
 31
0.0
  0
LINE
  5
15C
330
1F
100
AcDbEntity
  8
0
  6
Continuous
 62
     7
370
    35
100
AcDbLine
 10
1290.6107245225
 20
920.9846816169
 30
0.0
 11
1313.1107245225
 21
920.9846816169
 31
0.0
  0
LINE
  5
15D
330
1F
100
AcDbEntity
  8
0
  6
Continuous
 62
     7
370
    35
100
AcDbLine
 10
1290.6107245225
 20
921.9846816169
 30
0.0
 11
1313.1107245225
 21
921.9846816169
 31
0.0
  0
LINE
  5
15E
330
1F
100
AcDbEntity
  8
0
  6
Continuous
 62
     7
370
    35
100
AcDbLine
 10
1323.1107245225
 20
921.9846816169
 30
0.0
 11
1323.1107245225
 21
920.9846816169
 31
0.0
  0
LINE
  5
15F
330
1F
100
AcDbEntity
  8
0
  6
Continuous
 62
     7
370
    35
100
AcDbLine
 10
1323.1107245225
 20
920.9846816169
 30
0.0
 11
1313.1107245225
 21
920.9846816169
 31
0.0
  0
LINE
  5
160
330
1F
100
AcDbEntity
  8
0
  6
Continuous
 62
     7
370
    35
100
AcDbLine
 10
1313.1107245225
 20
921.9846816169
 30
0.0
 11
1323.1107245225
 21
921.9846816169
 31
0.0
  0
LINE
  5
161
330
1F
100
AcDbEntity
  8
0
  6
Continuous
 62
     7
370
    35
100
AcDbLine
 10
1323.1107245225
 20
921.9846816169
 30
0.0
 11
1323.1107245225
 21
922.9846816169
 31
0.0
  0
LINE
  5
162
330
1F
100
AcDbEntity
  8
0
  6
Continuous
 62
     7
370
    35
100
AcDbLine
 10
1290.6107245225
 20
964.4846816169
 30
0.0
 11
1313.1107245225
 21
964.4846816169
 31
0.0
  0
ARC
  5
163
330
1F
100
AcDbEntity
  8
0
  6
Continuous
 62
     7
370
    35
100
AcDbCircle
 10
1313.1107245225
 20
954.4846816169
 30
0.0
 40
10.0
100
AcDbArc
 50
0.0
 51
90.0
  0
LINE
  5
164
330
1F
100
AcDbEntity
  8
0
  6
Continuous
 62
     7
370
    35
100
AcDbLine
 10
1323.1107245225
 20
954.4846816169
 30
0.0
 11
1323.1107245225
 21
922.9846816169
 31
0.0
  0
LINE
  5
165
330
1F
100
AcDbEntity
  8
0
  6
Continuous
 62
     8
370
    18
100
AcDbLine
 10
1290.6107245225
 20
922.9846816169
 30
0.0
 11
410.6107245225
 21
922.9846816169
 31
0.0
  0
LINE
  5
166
330
1F
100
AcDbEntity
  8
0
  6
Continuous
 62
     8
370
    18
100
AcDbLine
 10
410.6107245225
 20
932.4846816169
 30
0.0
 11
1290.6107245225
 21
932.4846816169
 31
0.0
  0
LINE
  5
167
330
1F
100
AcDbEntity
  8
0
  6
Continuous
 62
     8
370
    18
100
AcDbLine
 10
410.6107245225
 20
917.6498167651
 30
0.0
 11
1290.6107245225
 21
917.6498167651
 31
0.0
  0
LINE
  5
168
330
1F
100
AcDbEntity
  8
0
  6
Continuous
 62
     8
370
    18
100
AcDbLine
 10
410.6107245225
 20
919.6466001062
 30
0.0
 11
1290.6107245225
 21
919.6466001062
 31
0.0
  0
LINE
  5
169
330
1F
100
AcDbEntity
  8
0
  6
Continuous
 62
     8
370
    18
100
AcDbLine
 10
410.6107245225
 20
915.8895091961
 30
0.0
 11
767.6515484138
 21
915.8895091961
 31
0.0
  0
LINE
  5
16A
330
1F
100
AcDbEntity
  8
0
  6
Continuous
 62
     8
370
    18
100
AcDbLine
 10
933.5699006311
 20
915.8895091961
 30
0.0
 11
1290.6107245225
 21
915.8895091961
 31
0.0
  0
SPLINE
  5
16B
330
1F
100
AcDbEntity
  8
0
  6
Continuous
 62
     8
370
    18
100
AcDbSpline
210
0.0
220
0.0
230
1.0
 70
     8
 71
     3
 72
    10
 73
     6
 74
     0
 42
0.000000001
 43
0.00000001
 40
0.0
 40
0.0
 40
0.0
 40
0.0
 40
0.5
 40
0.5
 40
1.0
 40
1.0
 40
1.0
 40
1.0
 10
909.9268366295508
 20
915.5398651936623
 30
0.0
 10
908.8877929467926
 20
915.554502329606
 30
0.0
 10
907.8421806260882
 20
915.5889723067584
 30
0.0
 10
905.7370541912617
 20
915.6419959131547
 30
0.0
 10
904.6775367798003
 20
915.6604485297164
 30
0.0
 10
903.610724522456
 20
915.6604485297164
 30
0.0
  0
LINE
  5
16C
330
1F
100
AcDbEntity
  8
0
  6
Continuous
 62
     8
370
    18
100
AcDbLine
 10
903.6107245225
 20
915.6604485297
 30
0.0
 11
903.6107245225
 21
917.5492539363
 31
0.0
  0
ARC
  5
16D
330
1F
100
AcDbEntity
  8
0
  6
Continuous
 62
     8
370
    18
100
AcDbCircle
 10
912.8909515315
 20
915.9288014516
 30
0.0
 40
2.989523133340558
100
AcDbArc
 50
147.5233674626
 51
187.4753574051
  0
SPLINE
  5
16E
330
1F
100
AcDbEntity
  8
0
  6
Continuous
 62
     8
370
    18
100
AcDbSpline
210
0.0
220
0.0
230
1.0
 70
     8
 71
     3
 72
    10
 73
     6
 74
     0
 42
0.000000001
 43
0.00000001
 40
0.0
 40
0.0
 40
0.0
 40
0.0
 40
0.5
 40
0.5
 40
1.0
 40
1.0
 40
1.0
 40
1.0
 10
797.6107245224555
 20
915.6604485296756
 30
0.0
 10
796.5439122651114
 20
915.6604485296756
 30
0.0
 10
795.4843948536495
 20
915.6419959131547
 30
0.0
 10
793.3792684188229
 20
915.5889723067584
 30
0.0
 10
792.3336560981184
 20
915.5545023296378
 30
0.0
 10
791.2946124153601
 20
915.5398651936944
 30
0.0
  0
ARC
  5
16F
330
1F
100
AcDbEntity
  8
0
  6
Continuous
 62
     8
370
    18
100
AcDbCircle
 10
788.3304975124
 20
915.9288014514
 30
0.0
 40
2.989523134309749
100
AcDbArc
 50
352.5246425999
 51
32.476632528
  0
LINE
  5
170
330
1F
100
AcDbEntity
  8
0
  6
Continuous
 62
     8
370
    18
100
AcDbLine
 10
797.6107245225
 20
915.6604485297
 30
0.0
 11
797.6107245225
 21
917.5492539363
 31
0.0
  0
LINE
  5
171
330
1F
100
AcDbEntity
  8
0
  6
Continuous
 62
     8
370
    18
100
AcDbLine
 10
903.6107245225
 20
915.6604485297
 30
0.0
 11
797.6107245225
 21
915.6604485297
 31
0.0
  0
ELLIPSE
  5
172
330
1F
100
AcDbEntity
  8
0
  6
Continuous
 62
     8
370
    18
100
AcDbEllipse
 10
903.6107245225
 20
913.8802488559
 30
0.0
 11
28.0
 21
0.0
 31
0.0
210
0.0
220
0.0
230
1.0
 40
0.0608401234
 41
0.0075591103181333
 42
1.34326267482132
  0
ARC
  5
173
330
1F
100
AcDbEntity
  8
0
  6
Continuous
 62
     8
370
    18
100
AcDbCircle
 10
933.6092233685
 20
913.8905796579
 30
0.0
 40
1.999300425703758
100
AcDbArc
 50
91.1268920303
 51
179.9270312827
  0
ELLIPSE
  5
174
330
1F
100
AcDbEntity
  8
0
  6
Continuous
 62
     8
370
    18
100
AcDbEllipse
 10
797.6107245225
 20
913.8802488559
 30
0.0
 11
28.0
 21
0.0
 31
0.0
210
0.0
220
0.0
230
1.0
 40
0.0608401234
 41
1.798329978768473
 42
3.134033543271658
  0
ARC
  5
175
330
1F
100
AcDbEntity
  8
0
  6
Continuous
 62
     8
370
    18
100
AcDbCircle
 10
767.6122256764
 20
913.8905796579
 30
0.0
 40
1.999300425704554
100
AcDbArc
 50
0.0729687173
 51
88.8731079807
  0
LINE
  5
176
330
1F
100
AcDbEntity
  8
0
  6
Continuous
 62
     8
370
    18
100
AcDbLine
 10
797.6107245225
 20
915.6604485297
 30
0.0
 11
797.6107245225
 21
910.9850816169
 31
0.0
  0
LINE
  5
177
330
1F
100
AcDbEntity
  8
0
  6
Continuous
 62
     8
370
    18
100
AcDbLine
 10
903.6107245225
 20
915.6604485297
 30
0.0
 11
903.6107245225
 21
910.9850816169
 31
0.0
  0
LINE
  5
178
330
1F
100
AcDbEntity
  8
0
  6
Continuous
 62
     8
370
    18
100
AcDbLine
 10
1290.6107245225
 20
934.9846816169
 30
0.0
 11
410.6107245225
 21
934.9846816169
 31
0.0
  0
LINE
  5
179
330
1F
100
AcDbEntity
  8
0
  6
Continuous
 62
     8
370
    18
100
AcDbLine
 10
769.6706969412
 20
913.6922800886
 30
0.0
 11
797.6107245225
 21
913.6922800886
 31
0.0
  0
LINE
  5
17A
330
1F
100
AcDbEntity
  8
0
  6
Continuous
 62
     8
370
    18
100
AcDbLine
 10
931.5507521037
 20
913.6922800886
 30
0.0
 11
903.6107245225
 21
913.6922800886
 31
0.0
  0
LINE
  5
17B
330
1F
100
AcDbEntity
  8
0
  6
Continuous
 62
     8
370
    18
100
AcDbLine
 10
985.2991228681
 20
840.4850816169
 30
0.0
 11
985.2991228681
 21
890.5850816169
 31
0.0
  0
LINE
  5
17C
330
1F
100
AcDbEntity
  8
0
  6
Continuous
 62
     8
370
    18
100
AcDbLine
 10
985.915674571
 20
890.5210421067
 30
0.0
 11
985.915674571
 21
840.5491211271
 31
0.0
  0
SPLINE
  5
17D
330
1F
100
AcDbEntity
  8
0
  6
Continuous
 62
     8
370
    18
100
AcDbSpline
210
0.0
220
0.0
230
1.0
 70
     8
 71
     3
 72
    33
 73
    29
 74
     0
 42
0.000000001
 43
0.00000001
 40
0.0
 40
0.0
 40
0.0
 40
0.0
 40
0.0272519121761633
 40
0.064395570539572
 40
0.1017679836315394
 40
0.1399161503387549
 40
0.1783602451249481
 40
0.2309313350457368
 40
0.2840751350454483
 40
0.3463079719325318
 40
0.3778605917353992
 40
0.4098349893637291
 40
0.4664493290388111
 40
0.5237708874937655
 40
0.5552660258970219
 40
0.5869395080180242
 40
0.6191572696364611
 40
0.6515559584292157
 40
0.6730472716079231
 40
0.7163558120329118
 40
0.7603800963832658
 40
0.8051322093176815
 40
0.8276949767825305
 40
0.8487242154456169
 40
0.8910915758444969
 40
0.9341506962041375
 40
0.9779263650739449
 40
1.0
 40
1.0
 40
1.0
 40
1.0
 10
831.1240615835824
 20
849.6183256408316
 30
0.0
 10
830.8025908097462
 20
850.0029148578764
 30
0.0
 10
830.0429636041699
 20
850.9116893282646
 30
0.0
 10
828.9598440984258
 20
852.4510796348774
 30
0.0
 10
827.887322687647
 20
854.2503312468245
 30
0.0
 10
826.9528273174425
 20
856.1698234990522
 30
0.0
 10
826.0778967331257
 20
858.4453851270204
 30
0.0
 10
825.3645704966212
 20
861.1015849019042
 30
0.0
 10
824.9196342999448
 20
864.3039339762283
 30
0.0
 10
824.91898039966
 20
867.1582980601559
 30
0.0
 10
825.1935900502882
 20
869.5840974087696
 30
0.0
 10
825.6320168971165
 20
871.8773252328751
 30
0.0
 10
826.459079451773
 20
874.5969662615295
 30
0.0
 10
827.6399818522312
 20
877.1679667738059
 30
0.0
 10
828.8293974917714
 20
879.1764992153999
 30
0.0
 10
829.8842826210844
 20
880.6912677947223
 30
0.0
 10
831.0578536490601
 20
882.1352815297236
 30
0.0
 10
832.1991116356182
 20
883.3438461462875
 30
0.0
 10
833.5667508805178
 20
884.6243830619521
 30
0.0
 10
835.2002427100177
 20
885.9424554067341
 30
0.0
 10
837.3305175054429
 20
887.338044090039
 30
0.0
 10
839.2363263822258
 20
888.3353805938382
 30
0.0
 10
840.803008581694
 20
889.0114261486211
 30
0.0
 10
842.3586159078303
 20
889.5951590667061
 30
0.0
 10
844.3362743255958
 20
890.182911545836
 30
0.0
 10
846.7968064659769
 20
890.6623830582743
 30
0.0
 10
848.9037168391825
 20
890.8744804099773
 30
0.0
 10
850.1821689604558
 20
890.891412322833
 30
0.0
 10
850.610724522454
 20
890.8970881438581
 30
0.0
  0
SPLINE
  5
17E
330
1F
100
AcDbEntity
  8
0
  6
Continuous
 62
     8
370
    18
100
AcDbSpline
210
0.0
220
0.0
230
1.0
 70
    24
 71
     3
 72
    21
 73
    17
 74
     0
 42
0.000000001
 43
0.00000001
 40
0.0
 40
0.0
 40
0.0
 40
0.0
 40
0.0720514219264896
 40
0.1446031256583223
 40
0.2187326761061075
 40
0.2934074331762784
 40
0.3654588516753549
 40
0.4380105213676793
 40
0.5121399203052098
 40
0.5868144764983333
 40
0.6588679246026061
 40
0.7314216095207127
 40
0.8055529476989906
 40
0.880229403363655
 40
0.990866780231003
 40
1.0
 40
1.0
 40
1.0
 40
1.0
 10
850.6107245224537
 20
890.8970881438581
 30
0.0
 10
850.6107245224495
 20
890.7425353018878
 30
0.0
 10
850.610724522441
 20
890.4323564958246
 30
0.0
 10
850.6107245224563
 20
889.8616918430965
 30
0.0
 10
850.610724522456
 20
889.212713073948
 30
0.0
 10
850.6107245224613
 20
888.4898719737255
 30
0.0
 10
850.6107245224449
 20
887.705709736954
 30
0.0
 10
850.6107245224592
 20
886.8629489823147
 30
0.0
 10
850.6107245224523
 20
885.954064729326
 30
0.0
 10
850.6107245224485
 20
884.9970939341413
 30
0.0
 10
850.6107245224556
 20
884.0048031027055
 30
0.0
 10
850.6107245224515
 20
882.9803272918293
 30
0.0
 10
850.6107245224588
 20
881.9151854495676
 30
0.0
 10
850.6107245224396
 20
880.642606326671
 30
0.0
 10
850.6107245224944
 20
879.6734441694598
 30
0.0
 10
850.6107245224459
 20
879.0768710180029
 30
0.0
 10
850.6107245224422
 20
879.0313787698756
 30
0.0
  0
SPLINE
  5
17F
330
1F
100
AcDbEntity
  8
0
  6
Continuous
 62
     8
370
    18
100
AcDbSpline
210
0.0
220
0.0
230
1.0
 70
     8
 71
     3
 72
    20
 73
    16
 74
     0
 42
0.000000001
 43
0.00000001
 40
0.0
 40
0.0
 40
0.0
 40
0.0
 40
0.0031848875244884
 40
0.0996872166702684
 40
0.1961928561586086
 40
0.2929138960264295
 40
0.3894614585497547
 40
0.4531459406897285
 40
0.516765485100372
 40
0.6214864979190163
 40
0.7268808125404136
 40
0.8182687157727473
 40
0.8939620144270488
 40
0.969830422139591
 40
1.0
 40
1.0
 40
1.0
 40
1.0
 10
850.6107245224572
 20
879.0313787698757
 30
0.0
 10
850.5775605268718
 20
879.0317814167522
 30
0.0
 10
849.539524995589
 20
879.0443842939684
 30
0.0
 10
847.4909883310479
 20
878.8836466837284
 30
0.0
 10
844.5513081987522
 20
878.1481225028709
 30
0.0
 10
841.7716919916134
 20
876.9384783807823
 30
0.0
 10
839.5289852682516
 20
875.4454723529834
 30
0.0
 10
837.8471780657112
 20
873.8176085426496
 30
0.0
 10
836.3956314347116
 20
871.8753556679645
 30
0.0
 10
835.2415920674483
 20
869.207886365613
 30
0.0
 10
835.1417903030879
 20
865.9832877533966
 30
0.0
 10
836.0878102376334
 20
863.2624568370114
 30
0.0
 10
837.4396744760645
 20
861.111658198849
 30
0.0
 10
838.6751634136746
 20
859.6691386790898
 30
0.0
 10
839.4674126088647
 20
858.8998456082434
 30
0.0
 10
839.6928207364332
 20
858.680968881446
 30
0.0
  0
LINE
  5
180
330
1F
100
AcDbEntity
  8
0
  6
Continuous
 62
     8
370
    18
100
AcDbLine
 10
831.1240615836
 20
849.6183256408
 30
0.0
 11
839.6928207364
 21
858.6809688814
 31
0.0
  0
SPLINE
  5
181
330
1F
100
AcDbEntity
  8
0
  6
Continuous
 62
     8
370
    18
100
AcDbSpline
210
0.0
220
0.0
230
1.0
 70
     8
 71
     3
 72
    33
 73
    29
 74
     0
 42
0.000000001
 43
0.00000001
 40
0.0
 40
0.0
 40
0.0
 40
0.0
 40
0.0420694805196967
 40
0.0843884430381631
 40
0.1054254118363576
 40
0.1478084180885791
 40
0.1908708294596766
 40
0.2346249844283183
 40
0.2566774230954379
 40
0.2919631051304075
 40
0.3274716165362364
 40
0.3636903997735285
 40
0.4001608597630005
 40
0.4308871503519153
 40
0.4617758629698894
 40
0.4929198210567777
 40
0.5244145950467565
 40
0.5762252118466537
 40
0.6285929245268348
 40
0.6833701247922538
 40
0.7388451995033108
 40
0.7691720205739122
 40
0.8150603675630267
 40
0.8615324906874955
 40
0.8956623911437316
 40
0.9301881902968956
 40
0.9649049432978533
 40
1.0
 40
1.0
 40
1.0
 40
1.0
 10
850.6107245224574
 20
890.8970881438581
 30
0.0
 10
851.4277540869367
 20
890.8763304072286
 30
0.0
 10
853.0666583950201
 20
890.8346918356668
 30
0.0
 10
855.0945952296078
 20
890.5378743770303
 30
0.0
 10
857.0984201140076
 20
890.1121451568874
 30
0.0
 10
859.0814770742626
 20
889.5393733506228
 30
0.0
 10
861.4065652828884
 20
888.6221280911068
 30
0.0
 10
863.2798429252052
 20
887.6653896773078
 30
0.0
 10
864.9460510599367
 20
886.6556177533934
 30
0.0
 10
866.4139318905322
 20
885.6328230449578
 30
0.0
 10
868.0063687386953
 20
884.3212530892
 30
0.0
 10
869.5045596067185
 20
882.8672062560396
 30
0.0
 10
870.8176692673965
 20
881.3612497169353
 30
0.0
 10
871.949438138746
 20
879.8390280129317
 30
0.0
 10
872.9152895918058
 20
878.3245326112369
 30
0.0
 10
873.7767257864748
 20
876.7287091250877
 30
0.0
 10
874.6854056617806
 20
874.7018354075635
 30
0.0
 10
875.5234646230008
 20
872.1970702475743
 30
0.0
 10
876.1322203494403
 20
869.162281713384
 30
0.0
 10
876.3505942683369
 20
866.0083113372242
 30
0.0
 10
876.1784786189276
 20
863.2934795404223
 30
0.0
 10
875.7637824549026
 20
860.8023691601766
 30
0.0
 10
875.1742687701175
 20
858.5371159543722
 30
0.0
 10
874.3289729592026
 20
856.3008819836888
 30
0.0
 10
873.387688284943
 20
854.3608978217318
 30
0.0
 10
872.4174076616148
 20
852.7005129252871
 30
0.0
 10
871.3289839201692
 20
851.104741907637
 30
0.0
 10
870.5094000305548
 20
850.1155844471809
 30
0.0
 10
870.0973874613275
 20
849.6183256408316
 30
0.0
  0
LINE
  5
182
330
1F
100
AcDbEntity
  8
0
  6
Continuous
 62
     8
370
    18
100
AcDbLine
 10
870.0973874613
 20
849.6183256408
 30
0.0
 11
861.5286283085
 21
858.6809688814
 31
0.0
  0
SPLINE
  5
183
330
1F
100
AcDbEntity
  8
0
  6
Continuous
 62
     8
370
    18
100
AcDbSpline
210
0.0
220
0.0
230
1.0
 70
     8
 71
     3
 72
    19
 73
    15
 74
     0
 42
0.000000001
 43
0.00000001
 40
0.0
 40
0.0
 40
0.0
 40
0.0
 40
0.0723119353046658
 40
0.1445206361806465
 40
0.253805553457253
 40
0.3457400466261742
 40
0.4376020288244566
 40
0.5576187311953641
 40
0.632916509906715
 40
0.7083141187347103
 40
0.8053610917388584
 40
0.9023999691423429
 40
0.996814425143269
 40
0.9999999999999999
 40
0.9999999999999999
 40
0.9999999999999999
 40
0.9999999999999999
 10
861.5286283084764
 20
858.680968881446
 30
0.0
 10
862.0612494029954
 20
859.2145421421188
 30
0.0
 10
863.1257312080916
 20
860.280926920185
 30
0.0
 10
864.6885431324952
 20
862.4218294761508
 30
0.0
 10
865.8898560497769
 20
865.058767323316
 30
0.0
 10
866.1095835141433
 20
868.167209831224
 30
0.0
 10
865.2300249873554
 20
871.2596047793983
 30
0.0
 10
863.5100037950932
 20
873.7775969892041
 30
0.0
 10
861.3933116519453
 20
875.6563004629685
 30
0.0
 10
859.2068093753396
 20
877.0426248769442
 30
0.0
 10
856.6197792786338
 20
878.1632721949672
 30
0.0
 10
853.6920983626468
 20
878.8925211378707
 30
0.0
 10
851.659968927561
 20
879.044095183543
 30
0.0
 10
850.6438884506964
 20
879.0317807031415
 30
0.0
 10
850.6107245224572
 20
879.0313787698757
 30
0.0
  0
SPLINE
  5
184
330
1F
100
AcDbEntity
  8
0
  6
Continuous
 62
     8
370
    18
100
AcDbSpline
210
0.0
220
0.0
230
1.0
 70
     8
 71
     3
 72
     9
 73
     5
 74
     0
 42
0.000000001
 43
0.00000001
 40
0.0
 40
0.0
 40
0.0
 40
0.0
 40
0.5770474436019438
 40
1.0
 40
1.0
 40
1.0
 40
1.0
 10
837.2571935611603
 20
844.3910798506885
 30
0.0
 10
835.9971431679821
 20
845.2458760153482
 30
0.0
 10
833.8135265396635
 20
846.7272033726344
 30
0.0
 10
831.9234670686092
 20
848.7589803670239
 30
0.0
 10
831.1240615835824
 20
849.6183256408316
 30
0.0
  0
SPLINE
  5
185
330
1F
100
AcDbEntity
  8
0
  6
Continuous
 62
     8
370
    18
100
AcDbSpline
210
0.0
220
0.0
230
1.0
 70
     8
 71
     3
 72
    10
 73
     6
 74
     0
 42
0.000000001
 43
0.00000001
 40
0.0
 40
0.0
 40
0.0
 40
0.0
 40
0.2479681796226279
 40
0.4972688069878474
 40
1.0
 40
1.0
 40
1.0
 40
1.0
 10
839.6928207364332
 20
858.680968881446
 30
0.0
 10
840.03752088421
 20
858.3744743114838
 30
0.0
 10
840.7287734131208
 20
857.7598382344459
 30
0.0
 10
842.2257802719374
 20
856.6537680163427
 30
0.0
 10
843.4013227870469
 20
855.8963169480631
 30
0.0
 10
844.1871697087381
 20
855.3899630028092
 30
0.0
  0
LINE
  5
186
330
1F
100
AcDbEntity
  8
0
  6
Continuous
 62
     8
370
    18
100
AcDbLine
 10
844.1871697087
 20
855.3899630028
 30
0.0
 11
837.2571935612
 21
844.3910798507
 31
0.0
  0
ARC
  5
187
330
1F
100
AcDbEntity
  8
0
  6
Continuous
 62
     8
370
    18
100
AcDbCircle
 10
850.6107245225
 20
865.5850816169
 30
0.0
 40
12.04999999999998
100
AcDbArc
 50
237.7865374201
 51
302.2134625799
  0
LINE
  5
188
330
1F
100
AcDbEntity
  8
0
  6
Continuous
 62
     8
370
    18
100
AcDbLine
 10
857.0342793362
 20
855.3899630028
 30
0.0
 11
863.9642554837
 21
844.3910798507
 31
0.0
  0
SPLINE
  5
189
330
1F
100
AcDbEntity
  8
0
  6
Continuous
 62
     8
370
    18
100
AcDbSpline
210
0.0
220
0.0
230
1.0
 70
     8
 71
     3
 72
    10
 73
     6
 74
     0
 42
0.000000001
 43
0.00000001
 40
0.0
 40
0.0
 40
0.0
 40
0.0
 40
0.3514670345888337
 40
0.7035972473579526
 40
0.9999999999999999
 40
0.9999999999999999
 40
0.9999999999999999
 40
0.9999999999999999
 10
857.0342793361715
 20
855.3899630028092
 30
0.0
 10
857.5841669413654
 20
855.7427980146794
 30
0.0
 10
858.6849797269042
 20
856.4491337978167
 30
0.0
 10
860.2079538629312
 20
857.5207691018377
 30
0.0
 10
861.1143656940733
 20
858.3170431648914
 30
0.0
 10
861.5286283084764
 20
858.680968881446
 30
0.0
  0
SPLINE
  5
18A
330
1F
100
AcDbEntity
  8
0
  6
Continuous
 62
     8
370
    18
100
AcDbSpline
210
0.0
220
0.0
230
1.0
 70
     8
 71
     3
 72
     9
 73
     5
 74
     0
 42
0.000000001
 43
0.00000001
 40
0.0
 40
0.0
 40
0.0
 40
0.0
 40
0.3490261811818373
 40
1.0
 40
1.0
 40
1.0
 40
1.0
 10
870.0973874613275
 20
849.6183256408316
 30
0.0
 10
869.441801503309
 20
848.9041828139068
 30
0.0
 10
867.5634726174969
 20
846.8580817893172
 30
0.0
 10
865.3834155549789
 20
845.363811007728
 30
0.0
 10
863.96425548375
 20
844.3910798506885
 30
0.0
  0
SPLINE
  5
18B
330
1F
100
AcDbEntity
  8
0
  6
Continuous
 62
     8
370
    18
100
AcDbSpline
210
0.0
220
0.0
230
1.0
 70
     8
 71
     3
 72
    18
 73
    14
 74
     0
 42
0.000000001
 43
0.00000001
 40
0.0
 40
0.0
 40
0.0
 40
0.0
 40
0.0987970799383282
 40
0.2002031521159842
 40
0.3040525078882594
 40
0.4120845877792444
 40
0.5047740734780928
 40
0.6005377868034535
 40
0.6921670882566419
 40
0.7863356247216272
 40
0.8914320327008244
 40
0.9999986785287139
 40
1.0
 40
1.0
 40
1.0
 40
1.0
 10
829.1188111438498
 20
848.8616356290308
 30
0.0
 10
828.2309697526704
 20
849.9499146293791
 30
0.0
 10
826.4318412237288
 20
852.1552114497647
 30
0.0
 10
824.4027472330432
 20
856.0818688746531
 30
0.0
 10
822.9886342802774
 20
860.4883214471346
 30
0.0
 10
822.4376843939885
 20
865.0422036293924
 30
0.0
 10
822.6990341230122
 20
869.5300329768689
 30
0.0
 10
823.6525808965786
 20
873.6832710125001
 30
0.0
 10
825.2649305399464
 20
877.6422531196512
 30
0.0
 10
827.5564307688414
 20
881.4051467561533
 30
0.0
 10
830.6078624616638
 20
884.9107386038011
 30
0.0
 10
833.1220562373311
 20
886.925477356771
 30
0.0
 10
834.4785642049818
 20
887.8225101153415
 30
0.0
 10
834.4785807161717
 20
887.8225210338755
 30
0.0
  0
SPLINE
  5
18C
330
1F
100
AcDbEntity
  8
0
  6
Continuous
 62
     8
370
    18
100
AcDbSpline
210
0.0
220
0.0
230
1.0
 70
     8
 71
     3
 72
    13
 73
     9
 74
     0
 42
0.000000001
 43
0.00000001
 40
0.0
 40
0.0
 40
0.0
 40
0.0
 40
0.0000034881331163
 40
0.2481902506141585
 40
0.502420529538757
 40
0.7482140500399477
 40
0.9999965118668842
 40
1.0
 40
1.0
 40
1.0
 40
1.0
 10
834.4785807161717
 20
887.8225210338755
 30
0.0
 10
834.4785970072343
 20
887.8225322655084
 30
0.0
 10
835.6377508517963
 20
888.6216937856925
 30
0.0
 10
838.1157032954252
 20
890.063349416025
 30
0.0
 10
842.1017960534544
 20
891.6224319476378
 30
0.0
 10
846.3095838046755
 20
892.5694006389298
 30
0.0
 10
849.167227366546
 20
892.773267330743
 30
0.0
 10
850.6107045251496
 20
892.7667730162746
 30
0.0
 10
850.6107245224548
 20
892.7667729263052
 30
0.0
  0
ARC
  5
18D
330
1F
100
AcDbEntity
  8
0
  6
Continuous
 62
     8
370
    18
100
AcDbCircle
 10
831.2547354208
 20
846.2367053211
 30
0.0
 40
3.384144151528978
100
AcDbArc
 50
92.2129439008
 51
129.1354920666
  0
SPLINE
  5
18E
330
1F
100
AcDbEntity
  8
0
  6
Continuous
 62
     8
370
    18
100
AcDbSpline
210
0.0
220
0.0
230
1.0
 70
     8
 71
     3
 72
    13
 73
     9
 74
     0
 42
0.000000001
 43
0.00000001
 40
0.0
 40
0.0
 40
0.0
 40
0.0
 40
0.000003488132369
 40
0.2457799679353323
 40
0.497579564476124
 40
0.7457645563596905
 40
0.9999965118676328
 40
1.0
 40
1.0
 40
1.0
 40
1.0
 10
850.6107245224548
 20
892.7667729263052
 30
0.0
 10
850.61074451976
 20
892.7667730162746
 30
0.0
 10
852.0197899649639
 20
892.7731124198376
 30
0.0
 10
854.8770254912474
 20
892.5745141220848
 30
0.0
 10
859.0539900163631
 20
891.6424449528474
 30
0.0
 10
863.074000373015
 20
890.0786050443394
 30
0.0
 10
865.5554643211452
 20
888.6411592119989
 30
0.0
 10
866.7428520376753
 20
887.822532265508
 30
0.0
 10
866.7428683287378
 20
887.8225210338753
 30
0.0
  0
SPLINE
  5
18F
330
1F
100
AcDbEntity
  8
0
  6
Continuous
 62
     8
370
    18
100
AcDbSpline
210
0.0
220
0.0
230
1.0
 70
     8
 71
     3
 72
    19
 73
    15
 74
     0
 42
0.000000001
 43
0.00000001
 40
0.0
 40
0.0
 40
0.0
 40
0.0
 40
0.0000013213841023
 40
0.0176852170218708
 40
0.1143733902378682
 40
0.2137145610419426
 40
0.3053523452007531
 40
0.3995000333270481
 40
0.4922123793434065
 40
0.5879403428335888
 40
0.69172000928225
 40
0.7998090016712736
 40
0.8985189583178735
 40
0.9999999999999999
 40
0.9999999999999999
 40
0.9999999999999999
 40
0.9999999999999999
 10
866.7428683287378
 20
887.8225210338753
 30
0.0
 10
866.742884839928
 20
887.8225101153413
 30
0.0
 10
866.9638682614926
 20
887.6763780070257
 30
0.0
 10
868.3788686547333
 20
886.7101347253026
 30
0.0
 10
870.8505543262033
 20
884.648480802317
 30
0.0
 10
873.6854567999627
 20
881.3595524208034
 30
0.0
 10
875.9388964980031
 20
877.6772188800561
 30
0.0
 10
877.5427731844902
 20
873.7631905734928
 30
0.0
 10
878.5156250975454
 20
869.5771243732328
 30
0.0
 10
878.7853143900833
 20
865.1515833392917
 30
0.0
 10
878.2468363668605
 20
860.5523386560868
 30
0.0
 10
876.8590195803266
 20
856.1741831972574
 30
0.0
 10
874.8107717641172
 20
852.1885770496074
 30
0.0
 10
873.0136412722304
 20
849.9808029239628
 30
0.0
 10
872.1026379010603
 20
848.861635629031
 30
0.0
  0
ARC
  5
190
330
1F
100
AcDbEntity
  8
0
  6
Continuous
 62
     8
370
    18
100
AcDbCircle
 10
869.9667136241
 20
846.2367053211
 30
0.0
 40
3.384144151530625
100
AcDbArc
 50
50.8645079334
 51
87.7870560992
  0
SPLINE
  5
191
330
1F
100
AcDbEntity
  8
0
  6
Continuous
 62
     8
370
    18
100
AcDbSpline
210
0.0
220
0.0
230
1.0
 70
     8
 71
     3
 72
    14
 73
    10
 74
     0
 42
0.000000001
 43
0.00000001
 40
0.0
 40
0.0
 40
0.0
 40
0.0
 40
0.0588507131428014
 40
0.1865507860318817
 40
0.3150706499745782
 40
0.5205160403891118
 40
0.7296050309949522
 40
0.9289213534635693
 40
1.0
 40
1.0
 40
1.0
 40
1.0
 10
815.0700344133129
 20
887.7443004184796
 30
0.0
 10
815.069706883797
 20
887.022432260906
 30
0.0
 10
815.0686686484829
 20
884.7341834867585
 30
0.0
 10
815.065497925298
 20
880.8080613004686
 30
0.0
 10
815.0640272350373
 20
875.0045887680634
 30
0.0
 10
815.0717974863265
 20
868.1352036496758
 30
0.0
 10
815.0729343758943
 20
860.4568816741788
 30
0.0
 10
815.0713951914383
 20
854.6241787390171
 30
0.0
 10
815.071343425009
 20
851.4728368647479
 30
0.0
 10
815.0713298171829
 20
850.6444445465742
 30
0.0
  0
ARC
  5
192
330
1F
100
AcDbEntity
  8
0
  6
Continuous
 62
     8
370
    18
100
AcDbCircle
 10
813.8828006863
 20
854.7262793309
 30
0.0
 40
4.251349985719593
100
AcDbArc
 50
269.1903220348
 51
286.2342508995
  0
SPLINE
  5
193
330
1F
100
AcDbEntity
  8
0
  6
Continuous
 62
     8
370
    18
100
AcDbSpline
210
0.0
220
0.0
230
1.0
 70
     8
 71
     3
 72
    14
 73
    10
 74
     0
 42
0.000000001
 43
0.00000001
 40
0.0
 40
0.0
 40
0.0
 40
0.0
 40
0.2078011624980567
 40
0.4196948388477433
 40
0.5443918098789505
 40
0.6699512654772791
 40
0.7982264655367453
 40
0.9274422558336559
 40
1.0
 40
1.0
 40
1.0
 40
1.0
 10
813.7183980202541
 20
887.892914045523
 30
0.0
 10
813.6882139630784
 20
885.3055188522541
 30
0.0
 10
813.6272513926103
 20
880.0797713365992
 30
0.0
 10
813.6389211514193
 20
873.1166279265125
 30
0.0
 10
813.6948965727005
 20
867.2404333336325
 30
0.0
 10
813.7494950960265
 20
862.4649806667228
 30
0.0
 10
813.8000093393623
 20
857.7120915045127
 30
0.0
 10
813.8274651290408
 20
853.7049336553733
 30
0.0
 10
813.823978373428
 20
851.3295438051514
 30
0.0
 10
813.8227245364351
 20
850.4753538366492
 30
0.0
  0
ARC
  5
194
330
1F
100
AcDbEntity
  8
0
  6
Continuous
 62
     8
370
    18
100
AcDbCircle
 10
813.7187008569
 20
881.6748156922
 30
0.0
 40
6.218098360742194
100
AcDbArc
 50
77.4481726938
 51
90.0027904447
  0
SPLINE
  5
195
330
1F
100
AcDbEntity
  8
0
  6
Continuous
 62
     8
370
    18
100
AcDbSpline
210
0.0
220
0.0
230
1.0
 70
     8
 71
     3
 72
    14
 73
    10
 74
     0
 42
0.000000001
 43
0.00000001
 40
0.0
 40
0.0
 40
0.0
 40
0.0
 40
0.0706469358108943
 40
0.2691496022583812
 40
0.4748299235320661
 40
0.6841240356853503
 40
0.812356376645141
 40
0.9412272031615687
 40
1.0
 40
1.0
 40
1.0
 40
1.0
 10
816.9613317059926
 20
850.9142375983416
 30
0.0
 10
816.9598553523732
 20
851.7266364684193
 30
0.0
 10
816.9542307632122
 20
854.8217011056439
 30
0.0
 10
817.03305806178
 20
860.545050380614
 30
0.0
 10
817.1587730835396
 20
868.1342444733771
 30
0.0
 10
817.2199189981355
 20
874.9155888892177
 30
0.0
 10
817.1976793062611
 20
880.7045597951579
 30
0.0
 10
817.1519438969375
 20
884.5979284138093
 30
0.0
 10
817.116548368784
 20
886.8778085357812
 30
0.0
 10
817.1054619585564
 20
887.5919011802791
 30
0.0
  0
ARC
  5
196
330
1F
100
AcDbEntity
  8
0
  6
Continuous
 62
     8
370
    18
100
AcDbCircle
 10
816.9002520442
 20
844.5871397433
 30
0.0
 40
6.327392669383355
100
AcDbArc
 50
89.4469031132
 51
106.8009889676
  0
ARC
  5
197
330
1F
100
AcDbEntity
  8
0
  6
Continuous
 62
     8
370
    18
100
AcDbCircle
 10
816.8439506026
 20
897.7678575095
 30
0.0
 40
10.17931605778721
100
AcDbArc
 50
259.964010462
 51
271.4721171423
  0
SPLINE
  5
198
330
1F
100
AcDbEntity
  8
0
  6
Continuous
 62
     8
370
    18
100
AcDbSpline
210
0.0
220
0.0
230
1.0
 70
     8
 71
     3
 72
    14
 73
    10
 74
     0
 42
0.000000001
 43
0.00000001
 40
0.0
 40
0.0
 40
0.0
 40
0.0
 40
0.2078011624980603
 40
0.4196948388477504
 40
0.5443918098789597
 40
0.6699512654772894
 40
0.7982264655367504
 40
0.9274422558336544
 40
1.0
 40
1.0
 40
1.0
 40
1.0
 10
887.5030510246556
 20
887.8929140455225
 30
0.0
 10
887.5332350818312
 20
885.3055188522535
 30
0.0
 10
887.5941976522987
 20
880.0797713365986
 30
0.0
 10
887.5825278934896
 20
873.1166279265119
 30
0.0
 10
887.5265524722092
 20
867.2404333336322
 30
0.0
 10
887.4719539488821
 20
862.4649806667222
 30
0.0
 10
887.4214397055482
 20
857.7120915045125
 30
0.0
 10
887.3939839158695
 20
853.7049336553731
 30
0.0
 10
887.3974706714822
 20
851.3295438051514
 30
0.0
 10
887.3987245084752
 20
850.4753538366492
 30
0.0
  0
ARC
  5
199
330
1F
100
AcDbEntity
  8
0
  6
Continuous
 62
     8
370
    18
100
AcDbCircle
 10
887.3386483586
 20
854.7262793309
 30
0.0
 40
4.251349985719592
100
AcDbArc
 50
253.7657491005
 51
270.8096779652
  0
SPLINE
  5
19A
330
1F
100
AcDbEntity
  8
0
  6
Continuous
 62
     8
370
    18
100
AcDbSpline
210
0.0
220
0.0
230
1.0
 70
     8
 71
     3
 72
    14
 73
    10
 74
     0
 42
0.000000001
 43
0.00000001
 40
0.0
 40
0.0
 40
0.0
 40
0.0
 40
0.0588507131428023
 40
0.1865507860318847
 40
0.3150706499745832
 40
0.5205160403891198
 40
0.729605030994964
 40
0.9289213534635677
 40
0.9999999999999999
 40
0.9999999999999999
 40
0.9999999999999999
 40
0.9999999999999999
 10
886.1514146315967
 20
887.744300418479
 30
0.0
 10
886.1517421611127
 20
887.0224322609055
 30
0.0
 10
886.1527803964269
 20
884.734183486758
 30
0.0
 10
886.155951119611
 20
880.808061300468
 30
0.0
 10
886.1574218098718
 20
875.004588768063
 30
0.0
 10
886.149651558582
 20
868.1352036496753
 30
0.0
 10
886.1485146690162
 20
860.4568816741784
 30
0.0
 10
886.150053853472
 20
854.6241787390169
 30
0.0
 10
886.1501056199013
 20
851.4728368647479
 30
0.0
 10
886.1501192277274
 20
850.6444445465742
 30
0.0
  0
ARC
  5
19B
330
1F
100
AcDbEntity
  8
0
  6
Continuous
 62
     8
370
    18
100
AcDbCircle
 10
887.502748188
 20
881.6748156921
 30
0.0
 40
6.218098360756645
100
AcDbArc
 50
89.9972095553
 51
102.5518273062
  0
ARC
  5
19C
330
1F
100
AcDbEntity
  8
0
  6
Continuous
 62
     8
370
    18
100
AcDbCircle
 10
884.3211970007
 20
844.5871397433
 30
0.0
 40
6.327392669384726
100
AcDbArc
 50
73.1990110324
 51
90.5530968868
  0
SPLINE
  5
19D
330
1F
100
AcDbEntity
  8
0
  6
Continuous
 62
     8
370
    18
100
AcDbSpline
210
0.0
220
0.0
230
1.0
 70
     8
 71
     3
 72
    14
 73
    10
 74
     0
 42
0.000000001
 43
0.00000001
 40
0.0
 40
0.0
 40
0.0
 40
0.0
 40
0.0706469358108947
 40
0.2691496022583691
 40
0.4748299235320582
 40
0.6841240356853453
 40
0.8123563766451382
 40
0.9412272031615683
 40
1.0
 40
1.0
 40
1.0
 40
1.0
 10
884.2601173389177
 20
850.9142375983416
 30
0.0
 10
884.261593692537
 20
851.7266364684193
 30
0.0
 10
884.2672182816981
 20
854.8217011056437
 30
0.0
 10
884.1883909831304
 20
860.5450503806136
 30
0.0
 10
884.06267596137
 20
868.1342444733765
 30
0.0
 10
884.0015300467742
 20
874.9155888892171
 30
0.0
 10
884.0237697386489
 20
880.7045597951574
 30
0.0
 10
884.0695051479718
 20
884.5979284138087
 30
0.0
 10
884.1049006761259
 20
886.8778085357807
 30
0.0
 10
884.1159870863539
 20
887.5919011802783
 30
0.0
  0
ARC
  5
19E
330
1F
100
AcDbEntity
  8
0
  6
Continuous
 62
     8
370
    18
100
AcDbCircle
 10
884.3774984423
 20
897.7678575095
 30
0.0
 40
10.17931605778716
100
AcDbArc
 50
268.5278828577
 51
280.035989538
  0
SPLINE
  5
19F
330
1F
100
AcDbEntity
  8
0
  6
Continuous
 62
     8
370
    18
100
AcDbSpline
210
0.0
220
0.0
230
1.0
 70
     8
 71
     3
 72
    14
 73
    10
 74
     0
 42
0.000000001
 43
0.00000001
 40
0.0
 40
0.0
 40
0.0
 40
0.0
 40
0.1272473860604718
 40
0.2554745767697396
 40
0.3810919869018191
 40
0.5075916090131556
 40
0.7089607368256291
 40
0.9137762176246998
 40
1.0
 40
1.0
 40
1.0
 40
1.0
 10
806.1371237105425
 20
850.6764254633581
 30
0.0
 10
806.1356786725634
 20
852.1663348272887
 30
0.0
 10
806.1327774698152
 20
855.1576258546312
 30
0.0
 10
806.1364791043128
 20
859.7963884659232
 30
0.0
 10
806.1421329060264
 20
864.5079644594023
 30
0.0
 10
806.1506815909572
 20
870.1995947853904
 30
0.0
 10
806.1591910777374
 20
876.9316619126862
 30
0.0
 10
806.1525613016956
 20
883.1144648388857
 30
0.0
 10
806.1476201014954
 20
886.6837417521078
 30
0.0
 10
806.1461562132004
 20
887.7411817430086
 30
0.0
  0
ARC
  5
1A0
330
1F
100
AcDbEntity
  8
0
  6
Continuous
 62
     8
370
    18
100
AcDbCircle
 10
807.49843465
 20
881.7960966888
 30
0.0
 40
6.096941304628534
100
AcDbArc
 50
89.6346559708
 51
102.8145546266
  0
SPLINE
  5
1A1
330
1F
100
AcDbEntity
  8
0
  6
Continuous
 62
     8
370
    18
100
AcDbSpline
210
0.0
220
0.0
230
1.0
 70
     8
 71
     3
 72
    14
 73
    10
 74
     0
 42
0.000000001
 43
0.00000001
 40
0.0
 40
0.0
 40
0.0
 40
0.0
 40
0.12969690086605
 40
0.2603671951156624
 40
0.3853421446376496
 40
0.5111847557259611
 40
0.6397642884787726
 40
0.7692911603858882
 40
1.0
 40
1.0
 40
1.0
 40
1.0
 10
807.4797220430161
 20
850.4753538366498
 30
0.0
 10
807.4786155424842
 20
852.0094048205975
 30
0.0
 10
807.4763942369797
 20
855.0890200557174
 30
0.0
 10
807.5017570438977
 20
859.8248834470859
 30
0.0
 10
807.5325311712379
 20
864.5962225185106
 30
0.0
 10
807.5628490228793
 20
869.4053692059682
 30
0.0
 10
807.5849053951878
 20
874.296749460867
 30
0.0
 10
807.5861702484524
 20
880.5257758728842
 30
0.0
 10
807.5563861505472
 20
885.0167323533135
 30
0.0
 10
807.5373112658347
 20
887.892914045523
 30
0.0
  0
ARC
  5
1A2
330
1F
100
AcDbEntity
  8
0
  6
Continuous
 62
     8
370
    18
100
AcDbCircle
 10
807.4088043949
 20
854.5847656822
 30
0.0
 40
4.110023726154446
100
AcDbArc
 50
251.9763477959
 51
270.9886764295
  0
ARC
  5
1A3
330
1F
100
AcDbEntity
  8
0
  6
Continuous
 62
     8
370
    18
100
AcDbCircle
 10
804.2260200115
 20
844.9052222996
 30
0.0
 40
6.079399913261589
100
AcDbArc
 50
71.6779814803
 51
90.2649234322
  0
SPLINE
  5
1A4
330
1F
100
AcDbEntity
  8
0
  6
Continuous
 62
     8
370
    18
100
AcDbSpline
210
0.0
220
0.0
230
1.0
 70
     8
 71
     3
 72
    15
 73
    11
 74
     0
 42
0.000000001
 43
0.00000001
 40
0.0
 40
0.0
 40
0.0
 40
0.0
 40
0.1214527241786875
 40
0.2436356162157024
 40
0.3679634748124441
 40
0.492999645184968
 40
0.618586543380512
 40
0.7450337263104021
 40
0.8719902588119044
 40
1.0
 40
1.0
 40
1.0
 40
1.0
 10
804.0966331372618
 20
887.5480433504722
 30
0.0
 10
804.0794214755794
 20
886.0746565955313
 30
0.0
 10
804.0448946765433
 20
883.1190251562897
 30
0.0
 10
804.0130159278667
 20
878.5740711620548
 30
0.0
 10
804.015617670415
 20
873.9603399542639
 30
0.0
 10
804.0481874722788
 20
869.2962319750666
 30
0.0
 10
804.0969682504967
 20
864.6272123257445
 30
0.0
 10
804.1495810902677
 20
859.9921877765132
 30
0.0
 10
804.1931860450658
 20
855.4066813262051
 30
0.0
 10
804.196331195411
 20
852.4626523013851
 30
0.0
 10
804.19791026654
 20
850.9845572260487
 30
0.0
  0
ARC
  5
1A5
330
1F
100
AcDbEntity
  8
0
  6
Continuous
 62
     8
370
    18
100
AcDbCircle
 10
804.237892266
 20
897.0200585762
 30
0.0
 40
9.473068488016413
100
AcDbArc
 50
269.1455934393
 51
281.6212347178
  0
SPLINE
  5
1A6
330
1F
100
AcDbEntity
  8
0
  6
Continuous
 62
     8
370
    18
100
AcDbSpline
210
0.0
220
0.0
230
1.0
 70
     8
 71
     3
 72
    15
 73
    11
 74
     0
 42
0.000000001
 43
0.00000001
 40
0.0
 40
0.0
 40
0.0
 40
0.0
 40
0.1214527241786881
 40
0.2436356162157035
 40
0.3679634748124449
 40
0.4929996451849684
 40
0.6185865433805128
 40
0.7450337263104022
 40
0.8719902588119044
 40
1.0
 40
1.0
 40
1.0
 40
1.0
 10
897.1248159076478
 20
887.5480433504716
 30
0.0
 10
897.1420275693304
 20
886.0746565955308
 30
0.0
 10
897.1765543683664
 20
883.1190251562891
 30
0.0
 10
897.208433117043
 20
878.5740711620542
 30
0.0
 10
897.2058313744944
 20
873.9603399542634
 30
0.0
 10
897.173261572631
 20
869.296231975066
 30
0.0
 10
897.1244807944128
 20
864.6272123257439
 30
0.0
 10
897.0718679546427
 20
859.9921877765127
 30
0.0
 10
897.0282629998445
 20
855.4066813262045
 30
0.0
 10
897.0251178494993
 20
852.4626523013845
 30
0.0
 10
897.0235387783703
 20
850.9845572260481
 30
0.0
  0
ARC
  5
1A7
330
1F
100
AcDbEntity
  8
0
  6
Continuous
 62
     8
370
    18
100
AcDbCircle
 10
896.9954290334
 20
844.9052222996
 30
0.0
 40
6.079399913262669
100
AcDbArc
 50
89.7350765678
 51
108.3220185197
  0
SPLINE
  5
1A8
330
1F
100
AcDbEntity
  8
0
  6
Continuous
 62
     8
370
    18
100
AcDbSpline
210
0.0
220
0.0
230
1.0
 70
     8
 71
     3
 72
    14
 73
    10
 74
     0
 42
0.000000001
 43
0.00000001
 40
0.0
 40
0.0
 40
0.0
 40
0.0
 40
0.1272473860604718
 40
0.2554745767697393
 40
0.3810919869018192
 40
0.5075916090131555
 40
0.7089607368256289
 40
0.9137762176247
 40
1.0
 40
1.0
 40
1.0
 40
1.0
 10
895.0843253343678
 20
850.6764254633575
 30
0.0
 10
895.0857703723469
 20
852.1663348272881
 30
0.0
 10
895.088671575095
 20
855.1576258546306
 30
0.0
 10
895.0849699405977
 20
859.7963884659226
 30
0.0
 10
895.0793161388823
 20
864.5079644594017
 30
0.0
 10
895.070767453952
 20
870.19959478539
 30
0.0
 10
895.0622579671716
 20
876.9316619126856
 30
0.0
 10
895.0688877432141
 20
883.1144648388852
 30
0.0
 10
895.0738289434144
 20
886.6837417521073
 30
0.0
 10
895.0752928317092
 20
887.741181743008
 30
0.0
  0
ARC
  5
1A9
330
1F
100
AcDbEntity
  8
0
  6
Continuous
 62
     8
370
    18
100
AcDbCircle
 10
896.983556779
 20
897.0200585763
 30
0.0
 40
9.47306848803253
100
AcDbArc
 50
258.3787652822
 51
270.8544065606
  0
SPLINE
  5
1AA
330
1F
100
AcDbEntity
  8
0
  6
Continuous
 62
     8
370
    18
100
AcDbSpline
210
0.0
220
0.0
230
1.0
 70
     8
 71
     3
 72
    14
 73
    10
 74
     0
 42
0.000000001
 43
0.00000001
 40
0.0
 40
0.0
 40
0.0
 40
0.0
 40
0.1296969008660503
 40
0.2603671951156624
 40
0.3853421446376501
 40
0.5111847557259613
 40
0.6397642884787726
 40
0.7692911603858882
 40
1.0
 40
1.0
 40
1.0
 40
1.0
 10
893.7417270018942
 20
850.4753538366492
 30
0.0
 10
893.7428335024259
 20
852.009404820597
 30
0.0
 10
893.7450548079305
 20
855.0890200557168
 30
0.0
 10
893.7196920010131
 20
859.8248834470853
 30
0.0
 10
893.6889178736709
 20
864.59622251851
 30
0.0
 10
893.65860002203
 20
869.4053692059676
 30
0.0
 10
893.6365436497214
 20
874.2967494608664
 30
0.0
 10
893.6352787964566
 20
880.5257758728836
 30
0.0
 10
893.6650628943622
 20
885.016732353313
 30
0.0
 10
893.6841377790751
 20
887.8929140455225
 30
0.0
  0
ARC
  5
1AB
330
1F
100
AcDbEntity
  8
0
  6
Continuous
 62
     8
370
    18
100
AcDbCircle
 10
893.7230143949
 20
881.7960966888
 30
0.0
 40
6.096941304635787
100
AcDbArc
 50
77.1854453734
 51
90.3653440292
  0
ARC
  5
1AC
330
1F
100
AcDbEntity
  8
0
  6
Continuous
 62
     8
370
    18
100
AcDbCircle
 10
893.81264465
 20
854.5847656822
 30
0.0
 40
4.110023726150585
100
AcDbArc
 50
269.0113235705
 51
288.0236522041
  0
LINE
  5
1AD
330
1F
100
AcDbEntity
  8
0
  6
Continuous
 62
     8
370
    18
100
AcDbLine
 10
813.8227245364
 20
850.4753538366
 30
0.0
 11
807.479722043
 21
850.4753538366
 31
0.0
  0
LINE
  5
1AE
330
1F
100
AcDbEntity
  8
0
  6
Continuous
 62
     8
370
    18
100
AcDbLine
 10
813.7183980203
 20
887.8929140455
 30
0.0
 11
807.5373112658
 21
887.8929140455
 31
0.0
  0
LINE
  5
1AF
330
1F
100
AcDbEntity
  8
0
  6
Continuous
 62
     8
370
    18
100
AcDbLine
 10
887.3987245085
 20
850.4753538366
 30
0.0
 11
893.7417270019
 21
850.4753538366
 31
0.0
  0
LINE
  5
1B0
330
1F
100
AcDbEntity
  8
0
  6
Continuous
 62
     8
370
    18
100
AcDbLine
 10
887.5030510247
 20
887.8929140455
 30
0.0
 11
893.6841377791
 21
887.8929140455
 31
0.0
  0
LINE
  5
1B1
330
1F
100
AcDbEntity
  8
0
  6
Continuous
 62
     8
370
    18
100
AcDbLine
 10
816.8789121142
 20
848.8568315682
 30
0.0
 11
816.961331706
 21
850.9142375983
 31
0.0
  0
SPLINE
  5
1B2
330
1F
100
AcDbEntity
  8
0
  6
Continuous
 62
     8
370
    18
100
AcDbSpline
210
0.0
220
0.0
230
1.0
 70
     8
 71
     3
 72
     9
 73
     5
 74
     0
 42
0.000000001
 43
0.00000001
 40
0.0
 40
0.0
 40
0.0
 40
0.0
 40
0.8892351459142923
 40
1.0
 40
1.0
 40
1.0
 40
1.0
 10
817.1054619585564
 20
887.5919011802791
 30
0.0
 10
817.0563994519375
 20
890.8188895366306
 30
0.0
 10
817.0012256243575
 20
894.4478378200834
 30
0.0
 10
816.989252676218
 20
897.9944228698332
 30
0.0
 10
816.9879264943644
 20
898.3872598453713
 30
0.0
  0
SPLINE
  5
1B3
330
1F
100
AcDbEntity
  8
0
  6
Continuous
 62
     8
370
    18
100
AcDbSpline
210
0.0
220
0.0
230
1.0
 70
     8
 71
     3
 72
    11
 73
     7
 74
     0
 42
0.000000001
 43
0.00000001
 40
0.0
 40
0.0
 40
0.0
 40
0.0
 40
0.5574252101166927
 40
0.8582360298869939
 40
0.9999887157360463
 40
1.0
 40
1.0
 40
1.0
 40
1.0
 10
816.9879264943644
 20
898.3872598453713
 30
0.0
 10
816.9465666550012
 20
899.3006528260014
 30
0.0
 10
816.8828872524775
 20
900.7069522742421
 30
0.0
 10
816.2708161503639
 20
902.2452440835478
 30
0.0
 10
815.7969634507426
 20
902.8120757210129
 30
0.0
 10
815.6207290015492
 20
902.9696526306985
 30
0.0
 10
815.6207149734711
 20
902.969665173656
 30
0.0
  0
SPLINE
  5
1B4
330
1F
100
AcDbEntity
  8
0
  6
Continuous
 62
     8
370
    18
100
AcDbSpline
210
0.0
220
0.0
230
1.0
 70
     8
 71
     3
 72
    11
 73
     7
 74
     0
 42
0.000000001
 43
0.00000001
 40
0.0
 40
0.0
 40
0.0
 40
0.0
 40
0.0000403578895606
 40
0.1670896913903658
 40
0.6133765181116565
 40
1.0
 40
1.0
 40
1.0
 40
1.0
 10
815.6207149734711
 20
902.969665173656
 30
0.0
 10
815.6206979003961
 20
902.9696747907772
 30
0.0
 10
815.550011973348
 20
903.0094915855819
 30
0.0
 10
815.285434597771
 20
903.1462238284175
 30
0.0
 10
814.8197028017887
 20
903.3174137779115
 30
0.0
 10
814.4065310150694
 20
903.3463332323735
 30
0.0
 10
814.2147433602065
 20
903.3597571749789
 30
0.0
  0
LINE
  5
1B5
330
1F
100
AcDbEntity
  8
0
  6
Continuous
 62
     8
370
    18
100
AcDbLine
 10
814.2147433602
 20
903.359757175
 30
0.0
 11
807.1083524969
 21
903.4826780951
 31
0.0
  0
SPLINE
  5
1B6
330
1F
100
AcDbEntity
  8
0
  6
Continuous
 62
     8
370
    18
100
AcDbSpline
210
0.0
220
0.0
230
1.0
 70
     8
 71
     3
 72
    11
 73
     7
 74
     0
 42
0.000000001
 43
0.00000001
 40
0.0
 40
0.0
 40
0.0
 40
0.0
 40
0.2986044395550129
 40
0.5785107697798492
 40
0.9999675635114517
 40
1.0
 40
1.0
 40
1.0
 40
1.0
 10
807.1083524969143
 20
903.4826780951278
 30
0.0
 10
806.923466570882
 20
903.4768420160265
 30
0.0
 10
806.5652719655045
 20
903.4655353033119
 30
0.0
 10
805.9719645431342
 20
903.2921013550983
 30
0.0
 10
805.5965928644837
 20
903.0863964502264
 30
0.0
 10
805.3877079052227
 20
902.941162398305
 30
0.0
 10
805.3876918300916
 20
902.9411512215479
 30
0.0
  0
SPLINE
  5
1B7
330
1F
100
AcDbEntity
  8
0
  6
Continuous
 62
     8
370
    18
100
AcDbSpline
210
0.0
220
0.0
230
1.0
 70
     8
 71
     3
 72
    12
 73
     8
 74
     0
 42
0.000000001
 43
0.00000001
 40
0.0
 40
0.0
 40
0.0
 40
0.0
 40
0.0000113964157658
 40
0.0165615426249112
 40
0.2254762501766455
 40
0.6569695733823875
 40
1.0
 40
1.0
 40
1.0
 40
1.0
 10
805.3876918300916
 20
902.9411512215479
 30
0.0
 10
805.3876790486096
 20
902.9411374128929
 30
0.0
 10
805.3691046947966
 20
902.9210703466714
 30
0.0
 10
805.1204945268477
 20
902.6443713677011
 30
0.0
 10
804.5685346026755
 20
901.7081356732504
 30
0.0
 10
804.2363412847947
 20
900.1331546262313
 30
0.0
 10
804.1972166482608
 20
898.8813902714564
 30
0.0
 10
804.1798886570089
 20
898.3269937655506
 30
0.0
  0
SPLINE
  5
1B8
330
1F
100
AcDbEntity
  8
0
  6
Continuous
 62
     8
370
    18
100
AcDbSpline
210
0.0
220
0.0
230
1.0
 70
     8
 71
     3
 72
    10
 73
     6
 74
     0
 42
0.000000001
 43
0.00000001
 40
0.0
 40
0.0
 40
0.0
 40
0.0
 40
0.0305940752880727
 40
0.8849546452569854
 40
1.0
 40
1.0
 40
1.0
 40
1.0
 10
804.1798886570089
 20
898.3269937655506
 30
0.0
 10
804.1796765200129
 20
898.2185555233744
 30
0.0
 10
804.1735403116762
 20
895.0819048734148
 30
0.0
 10
804.1330947434327
 20
891.4841184099789
 30
0.0
 10
804.1005012118319
 20
887.9656067395289
 30
0.0
 10
804.0966331372618
 20
887.5480433504722
 30
0.0
  0
LINE
  5
1B9
330
1F
100
AcDbEntity
  8
0
  6
Continuous
 62
     8
370
    18
100
AcDbLine
 10
804.1979102665
 20
850.984557226
 30
0.0
 11
804.2691074903
 21
848.9813231806
 31
0.0
  0
SPLINE
  5
1BA
330
1F
100
AcDbEntity
  8
0
  6
Continuous
 62
     8
370
    18
100
AcDbSpline
210
0.0
220
0.0
230
1.0
 70
     8
 71
     3
 72
    18
 73
    14
 74
     0
 42
0.000000001
 43
0.00000001
 40
0.0
 40
0.0
 40
0.0
 40
0.0
 40
0.0497884573626209
 40
0.1520626953526148
 40
0.254293167910549
 40
0.3525326664709002
 40
0.4508084200367268
 40
0.5543273934134136
 40
0.6578565275353676
 40
0.7740307271289459
 40
0.8901694733964514
 40
0.9999988953086805
 40
1.0
 40
1.0
 40
1.0
 40
1.0
 10
804.269107490325
 20
848.9813231806086
 30
0.0
 10
803.3680172152212
 20
848.9969840768026
 30
0.0
 10
800.6159292163835
 20
849.0448152050009
 30
0.0
 10
796.0134988082639
 20
849.1300231740312
 30
0.0
 10
790.7127887940447
 20
849.1855941138854
 30
0.0
 10
785.8220112427035
 20
849.2499878159317
 30
0.0
 10
781.3288388769031
 20
849.2750774685475
 30
0.0
 10
777.2971995288456
 20
849.2639266617169
 30
0.0
 10
773.6870022407358
 20
849.2170299978709
 30
0.0
 10
770.7749063952746
 20
849.1381486610898
 30
0.0
 10
768.7950906609742
 20
849.012877340928
 30
0.0
 10
768.2033843937658
 20
848.888517750011
 30
0.0
 10
768.0909666381759
 20
848.8210888203133
 30
0.0
 10
768.0909655074618
 20
848.8210881421035
 30
0.0
  0
SPLINE
  5
1BB
330
1F
100
AcDbEntity
  8
0
  6
Continuous
 62
     8
370
    18
100
AcDbSpline
210
0.0
220
0.0
230
1.0
 70
     8
 71
     3
 72
     9
 73
     5
 74
     0
 42
0.000000001
 43
0.00000001
 40
0.0
 40
0.0
 40
0.0
 40
0.0
 40
0.0843934950201082
 40
1.0
 40
1.0
 40
1.0
 40
1.0
 10
829.1188111438498
 20
848.8616356290308
 30
0.0
 10
828.774500750529
 20
848.8598310940504
 30
0.0
 10
824.6946792756779
 20
848.8384486998267
 30
0.0
 10
820.6146309248669
 20
848.8480450695903
 30
0.0
 10
816.8789121142316
 20
848.8568315681699
 30
0.0
  0
SPLINE
  5
1BC
330
1F
100
AcDbEntity
  8
0
  6
Continuous
 62
     8
370
    18
100
AcDbSpline
210
0.0
220
0.0
230
1.0
 70
     8
 71
     3
 72
    14
 73
    10
 74
     0
 42
0.000000001
 43
0.00000001
 40
0.0
 40
0.0
 40
0.0
 40
0.0
 40
0.0834734048384956
 40
0.252370172092494
 40
0.4264211392157427
 40
0.589116899602767
 40
0.7559016487235014
 40
0.8772249525218101
 40
1.0
 40
1.0
 40
1.0
 40
1.0
 10
896.952341554585
 20
848.9813231806079
 30
0.0
 10
897.8533205408457
 20
848.9975557311083
 30
0.0
 10
900.5773045720981
 20
849.0466325786525
 30
0.0
 10
905.18521794317
 20
849.1082375885691
 30
0.0
 10
910.4592071194145
 20
849.1903299476619
 30
0.0
 10
915.3841424399644
 20
849.2486878012851
 30
0.0
 10
919.403973839751
 20
849.272496181872
 30
0.0
 10
922.727255573051
 20
849.2686270755115
 30
0.0
 10
924.4402628677946
 20
849.2522581003553
 30
0.0
 10
925.3018604609074
 20
849.2440249365856
 30
0.0
  0
LINE
  5
1BD
330
1F
100
AcDbEntity
  8
0
  6
Continuous
 62
     8
370
    18
100
AcDbLine
 10
897.0235387784
 20
850.984557226
 30
0.0
 11
896.9523415546
 21
848.9813231806
 31
0.0
  0
SPLINE
  5
1BE
330
1F
100
AcDbEntity
  8
0
  6
Continuous
 62
     8
370
    18
100
AcDbSpline
210
0.0
220
0.0
230
1.0
 70
     8
 71
     3
 72
    10
 73
     6
 74
     0
 42
0.000000001
 43
0.00000001
 40
0.0
 40
0.0
 40
0.0
 40
0.0
 40
0.0305940752880738
 40
0.8849546452569846
 40
0.9999999999999999
 40
0.9999999999999999
 40
0.9999999999999999
 40
0.9999999999999999
 10
897.0415603879009
 20
898.32699376555
 30
0.0
 10
897.0417725248966
 20
898.2185555233739
 30
0.0
 10
897.0479087332334
 20
895.0819048734141
 30
0.0
 10
897.0883543014771
 20
891.4841184099784
 30
0.0
 10
897.1209478330778
 20
887.9656067395283
 30
0.0
 10
897.1248159076478
 20
887.5480433504716
 30
0.0
  0
SPLINE
  5
1BF
330
1F
100
AcDbEntity
  8
0
  6
Continuous
 62
     8
370
    18
100
AcDbSpline
210
0.0
220
0.0
230
1.0
 70
     8
 71
     3
 72
    12
 73
     8
 74
     0
 42
0.000000001
 43
0.00000001
 40
0.0
 40
0.0
 40
0.0
 40
0.0
 40
0.000011396415791
 40
0.016561542624936
 40
0.2254762501766656
 40
0.6569695733823978
 40
1.0
 40
1.0
 40
1.0
 40
1.0
 10
895.8337572148179
 20
902.9411512215474
 30
0.0
 10
895.8337699962999
 20
902.9411374128924
 30
0.0
 10
895.8523443501516
 20
902.9210703467024
 30
0.0
 10
896.100954517821
 20
902.6443713675039
 30
0.0
 10
896.6529144424605
 20
901.7081356734346
 30
0.0
 10
896.9851077600595
 20
900.1331546261854
 30
0.0
 10
897.0242323966318
 20
898.881390271442
 30
0.0
 10
897.0415603879009
 20
898.32699376555
 30
0.0
  0
SPLINE
  5
1C0
330
1F
100
AcDbEntity
  8
0
  6
Continuous
 62
     8
370
    18
100
AcDbSpline
210
0.0
220
0.0
230
1.0
 70
     8
 71
     3
 72
    11
 73
     7
 74
     0
 42
0.000000001
 43
0.00000001
 40
0.0
 40
0.0
 40
0.0
 40
0.0
 40
0.2986044395549579
 40
0.5785107697797426
 40
0.9999675635115336
 40
0.9999999999999999
 40
0.9999999999999999
 40
0.9999999999999999
 40
0.9999999999999999
 10
894.1130965479948
 20
903.4826780951272
 30
0.0
 10
894.2979824740296
 20
903.4768420160325
 30
0.0
 10
894.656177079412
 20
903.4655353033305
 30
0.0
 10
895.2494845017412
 20
903.2921013550115
 30
0.0
 10
895.6248561805382
 20
903.0863964505135
 30
0.0
 10
895.8337411396869
 20
902.9411623983044
 30
0.0
 10
895.8337572148179
 20
902.9411512215474
 30
0.0
  0
LINE
  5
1C1
330
1F
100
AcDbEntity
  8
0
  6
Continuous
 62
     8
370
    18
100
AcDbLine
 10
887.0067056847
 20
903.359757175
 30
0.0
 11
894.113096548
 21
903.4826780951
 31
0.0
  0
SPLINE
  5
1C2
330
1F
100
AcDbEntity
  8
0
  6
Continuous
 62
     8
370
    18
100
AcDbSpline
210
0.0
220
0.0
230
1.0
 70
     8
 71
     3
 72
    11
 73
     7
 74
     0
 42
0.000000001
 43
0.00000001
 40
0.0
 40
0.0
 40
0.0
 40
0.0
 40
0.0000403578891936
 40
0.1670896913899229
 40
0.613376518111449
 40
0.9999999999999999
 40
0.9999999999999999
 40
0.9999999999999999
 40
0.9999999999999999
 10
885.6007340714392
 20
902.9696651736555
 30
0.0
 10
885.6007511445141
 20
902.9696747907766
 30
0.0
 10
885.6714370713197
 20
903.0094915859614
 30
0.0
 10
885.9360144474489
 20
903.1462238279302
 30
0.0
 10
886.4017462430311
 20
903.3174137780516
 30
0.0
 10
886.8149180298115
 20
903.3463332324179
 30
0.0
 10
887.0067056847026
 20
903.3597571749789
 30
0.0
  0
SPLINE
  5
1C3
330
1F
100
AcDbEntity
  8
0
  6
Continuous
 62
     8
370
    18
100
AcDbSpline
210
0.0
220
0.0
230
1.0
 70
     8
 71
     3
 72
    11
 73
     7
 74
     0
 42
0.000000001
 43
0.00000001
 40
0.0
 40
0.0
 40
0.0
 40
0.0
 40
0.5574252101166455
 40
0.8582360298869189
 40
0.9999887157359582
 40
1.0
 40
1.0
 40
1.0
 40
1.0
 10
884.2335225505453
 20
898.3872598453707
 30
0.0
 10
884.2748823895643
 20
899.3006528263302
 30
0.0
 10
884.3385617915578
 20
900.7069522750779
 30
0.0
 10
884.9506328959067
 20
902.2452440822456
 30
0.0
 10
885.4244855928021
 20
902.8120757223184
 30
0.0
 10
885.6007200433609
 20
902.969652630698
 30
0.0
 10
885.6007340714392
 20
902.9696651736555
 30
0.0
  0
SPLINE
  5
1C4
330
1F
100
AcDbEntity
  8
0
  6
Continuous
 62
     8
370
    18
100
AcDbSpline
210
0.0
220
0.0
230
1.0
 70
     8
 71
     3
 72
     9
 73
     5
 74
     0
 42
0.000000001
 43
0.00000001
 40
0.0
 40
0.0
 40
0.0
 40
0.0
 40
0.8892351459142942
 40
1.0
 40
1.0
 40
1.0
 40
1.0
 10
884.1159870863539
 20
887.5919011802783
 30
0.0
 10
884.1650495929724
 20
890.81888953663
 30
0.0
 10
884.2202234205522
 20
894.4478378200828
 30
0.0
 10
884.2321963686917
 20
897.9944228698326
 30
0.0
 10
884.2335225505453
 20
898.3872598453707
 30
0.0
  0
LINE
  5
1C5
330
1F
100
AcDbEntity
  8
0
  6
Continuous
 62
     8
370
    18
100
AcDbLine
 10
884.3425369307
 20
848.8568315682
 30
0.0
 11
884.2601173389
 21
850.9142375983
 31
0.0
  0
SPLINE
  5
1C6
330
1F
100
AcDbEntity
  8
0
  6
Continuous
 62
     8
370
    18
100
AcDbSpline
210
0.0
220
0.0
230
1.0
 70
     8
 71
     3
 72
     9
 73
     5
 74
     0
 42
0.000000001
 43
0.00000001
 40
0.0
 40
0.0
 40
0.0
 40
0.0
 40
0.084393495020103
 40
1.0
 40
1.0
 40
1.0
 40
1.0
 10
872.1026379010603
 20
848.861635629031
 30
0.0
 10
872.4469482943812
 20
848.8598310940505
 30
0.0
 10
876.5267697692326
 20
848.8384486998262
 30
0.0
 10
880.6068181200441
 20
848.84804506959
 30
0.0
 10
884.3425369306796
 20
848.8568315681699
 30
0.0
  0
SPLINE
  5
1C7
330
1F
100
AcDbEntity
  8
0
  6
Continuous
 62
     8
370
    18
100
AcDbSpline
210
0.0
220
0.0
230
1.0
 70
     8
 71
     3
 72
    12
 73
     8
 74
     0
 42
0.000000001
 43
0.00000001
 40
0.0
 40
0.0
 40
0.0
 40
0.0
 40
0.3429907427795726
 40
0.6931111831538828
 40
0.8460382371952906
 40
0.9999906400284373
 40
1.0
 40
1.0
 40
1.0
 40
1.0
 10
937.0195671897666
 20
892.2610655177681
 30
0.0
 10
937.0602116072477
 20
892.6505942347985
 30
0.0
 10
937.1423453116753
 20
893.4377487444084
 30
0.0
 10
937.2255908941329
 20
894.1125910792648
 30
0.0
 10
937.2756778784334
 20
894.4760584975529
 30
0.0
 10
937.2941133605491
 20
894.5924917147065
 30
0.0
 10
937.3019682427624
 20
894.6367469102045
 30
0.0
 10
937.3019687202933
 20
894.6367496006607
 30
0.0
  0
SPLINE
  5
1C8
330
1F
100
AcDbEntity
  8
0
  6
Continuous
 62
     8
370
    18
100
AcDbSpline
210
0.0
220
0.0
230
1.0
 70
     8
 71
     3
 72
    20
 73
    16
 74
     0
 42
0.000000001
 43
0.00000001
 40
0.0
 40
0.0
 40
0.0
 40
0.0
 40
0.0777495206401193
 40
0.1580444463721847
 40
0.227967398837534
 40
0.2994604618770909
 40
0.3760581917562229
 40
0.4543933132980239
 40
0.5398335171527758
 40
0.6277318368777232
 40
0.7140713710304707
 40
0.8026163874373398
 40
0.8879068463690988
 40
0.9758355728947908
 40
1.0
 40
1.0
 40
1.0
 40
1.0
 10
925.3018604609074
 20
849.2440249365856
 30
0.0
 10
925.297229883702
 20
850.4088698742094
 30
0.0
 10
925.2878171309958
 20
852.7766950615612
 30
0.0
 10
925.7696829110416
 20
856.5957880739927
 30
0.0
 10
926.5388910551764
 20
860.4360202845576
 30
0.0
 10
927.5282150934713
 20
864.284735501867
 30
0.0
 10
928.7009009835441
 20
868.283094429086
 30
0.0
 10
929.9972748166514
 20
872.4636088967924
 30
0.0
 10
931.285180324022
 20
876.6872546003274
 30
0.0
 10
932.498133759284
 20
880.7630388237218
 30
0.0
 10
933.666168038638
 20
884.4547175391202
 30
0.0
 10
934.7897921681997
 20
887.6250250848832
 30
0.0
 10
935.9014447696634
 20
890.1847501530982
 30
0.0
 10
936.6299344418012
 20
891.5991237046804
 30
0.0
 10
936.9504682663515
 20
892.1436742900372
 30
0.0
 10
937.0195671897666
 20
892.2610655177681
 30
0.0
  0
SPLINE
  5
1C9
330
1F
100
AcDbEntity
  8
0
  6
Continuous
 62
     8
370
    18
100
AcDbSpline
210
0.0
220
0.0
230
1.0
 70
     8
 71
     3
 72
     9
 73
     5
 74
     0
 42
0.000000001
 43
0.00000001
 40
0.0
 40
0.0
 40
0.0
 40
0.0
 40
0.3531288107769716
 40
1.0
 40
1.0
 40
1.0
 40
1.0
 10
815.0717103072533
 20
898.6036875822018
 30
0.0
 10
815.0718337460784
 20
897.3386947723998
 30
0.0
 10
815.0721833035807
 20
893.7564529071194
 30
0.0
 10
815.0708784715563
 20
890.1058015823631
 30
0.0
 10
815.0700344133129
 20
887.7443004184796
 30
0.0
  0
LINE
  5
1CA
330
1F
100
AcDbEntity
  8
0
  6
Continuous
 62
     8
370
    18
100
AcDbLine
 10
813.8047311724
 20
898.7526130802
 30
0.0
 11
813.7183980203
 21
887.8929140455
 31
0.0
  0
ARC
  5
1CB
330
1F
100
AcDbEntity
  8
0
  6
Continuous
 62
     8
370
    18
100
AcDbCircle
 10
813.8520177951
 20
893.6910466476
 30
0.0
 40
5.061787310438786
100
AcDbArc
 50
76.056743273
 51
90.5352582304
  0
LINE
  5
1CC
330
1F
100
AcDbEntity
  8
0
  6
Continuous
 62
     8
370
    18
100
AcDbLine
 10
887.4167178725
 20
898.7526130802
 30
0.0
 11
887.5030510247
 21
887.8929140455
 31
0.0
  0
SPLINE
  5
1CD
330
1F
100
AcDbEntity
  8
0
  6
Continuous
 62
     8
370
    18
100
AcDbSpline
210
0.0
220
0.0
230
1.0
 70
     8
 71
     3
 72
     9
 73
     5
 74
     0
 42
0.000000001
 43
0.00000001
 40
0.0
 40
0.0
 40
0.0
 40
0.0
 40
0.3531288107769716
 40
1.0
 40
1.0
 40
1.0
 40
1.0
 10
886.1497387376564
 20
898.6036875822012
 30
0.0
 10
886.1496152988313
 20
897.3386947723992
 30
0.0
 10
886.149265741329
 20
893.7564529071188
 30
0.0
 10
886.1505705733534
 20
890.1058015823627
 30
0.0
 10
886.1514146315967
 20
887.744300418479
 30
0.0
  0
ARC
  5
1CE
330
1F
100
AcDbEntity
  8
0
  6
Continuous
 62
     8
370
    18
100
AcDbCircle
 10
887.3694312498
 20
893.6910466476
 30
0.0
 40
5.061787310430788
100
AcDbArc
 50
89.4647417695
 51
103.943256727
  0
SPLINE
  5
1CF
330
1F
100
AcDbEntity
  8
0
  6
Continuous
 62
     8
370
    18
100
AcDbSpline
210
0.0
220
0.0
230
1.0
 70
     8
 71
     3
 72
    10
 73
     6
 74
     0
 42
0.000000001
 43
0.00000001
 40
0.0
 40
0.0
 40
0.0
 40
0.0
 40
0.0049102993503908
 40
0.115164344171695
 40
1.0
 40
1.0
 40
1.0
 40
1.0
 10
806.1461562132004
 20
887.7411817430086
 30
0.0
 10
806.1461341153453
 20
887.7591173050942
 30
0.0
 10
806.1456158404264
 20
888.1797713421594
 30
0.0
 10
806.1403120169734
 20
891.8285609673325
 30
0.0
 10
806.1378981133882
 20
895.4025032575581
 30
0.0
 10
806.1357516657257
 20
898.5804595445139
 30
0.0
  0
ARC
  5
1D0
330
1F
100
AcDbEntity
  8
0
  6
Continuous
 62
     8
370
    18
100
AcDbCircle
 10
807.4239919552
 20
893.858106496
 30
0.0
 40
4.894913825385808
100
AcDbArc
 50
89.260915705
 51
105.2587981171
  0
SPLINE
  5
1D1
330
1F
100
AcDbEntity
  8
0
  6
Continuous
 62
     8
370
    18
100
AcDbSpline
210
0.0
220
0.0
230
1.0
 70
     8
 71
     3
 72
     9
 73
     5
 74
     0
 42
0.000000001
 43
0.00000001
 40
0.0
 40
0.0
 40
0.0
 40
0.0
 40
0.8536363424240552
 40
1.0
 40
1.0
 40
1.0
 40
1.0
 10
807.5373112658347
 20
887.892914045523
 30
0.0
 10
807.5166635133203
 20
891.0039949278226
 30
0.0
 10
807.4924755172287
 20
894.648498714371
 30
0.0
 10
807.4878141732031
 20
898.2286142725764
 30
0.0
 10
807.4871319218424
 20
898.7526130802199
 30
0.0
  0
SPLINE
  5
1D2
330
1F
100
AcDbEntity
  8
0
  6
Continuous
 62
     8
370
    18
100
AcDbSpline
210
0.0
220
0.0
230
1.0
 70
     8
 71
     3
 72
     9
 73
     5
 74
     0
 42
0.000000001
 43
0.00000001
 40
0.0
 40
0.0
 40
0.0
 40
0.0
 40
0.8536363424240552
 40
1.0
 40
1.0
 40
1.0
 40
1.0
 10
893.6841377790751
 20
887.8929140455225
 30
0.0
 10
893.7047855315894
 20
891.0039949278222
 30
0.0
 10
893.728973527681
 20
894.6484987143705
 30
0.0
 10
893.7336348717065
 20
898.2286142725758
 30
0.0
 10
893.7343171230673
 20
898.7526130802194
 30
0.0
  0
ARC
  5
1D3
330
1F
100
AcDbEntity
  8
0
  6
Continuous
 62
     8
370
    18
100
AcDbCircle
 10
893.7974570897
 20
893.858106496
 30
0.0
 40
4.894913825381601
100
AcDbArc
 50
74.7412018829
 51
90.739084295
  0
SPLINE
  5
1D4
330
1F
100
AcDbEntity
  8
0
  6
Continuous
 62
     8
370
    18
100
AcDbSpline
210
0.0
220
0.0
230
1.0
 70
     8
 71
     3
 72
    10
 73
     6
 74
     0
 42
0.000000001
 43
0.00000001
 40
0.0
 40
0.0
 40
0.0
 40
0.0
 40
0.0049102993503908
 40
0.115164344171695
 40
1.0
 40
1.0
 40
1.0
 40
1.0
 10
895.0752928317092
 20
887.741181743008
 30
0.0
 10
895.0753149295645
 20
887.7591173050936
 30
0.0
 10
895.075833204483
 20
888.1797713421588
 30
0.0
 10
895.0811370279363
 20
891.828560967332
 30
0.0
 10
895.0835509315215
 20
895.4025032575576
 30
0.0
 10
895.085697379184
 20
898.5804595445134
 30
0.0
  0
LINE
  5
1D5
330
1F
100
AcDbEntity
  8
0
  6
Continuous
 62
     8
370
    18
100
AcDbLine
 10
813.8047311724
 20
898.7526130802
 30
0.0
 11
807.4871319218
 21
898.7526130802
 31
0.0
  0
LINE
  5
1D6
330
1F
100
AcDbEntity
  8
0
  6
Continuous
 62
     8
370
    18
100
AcDbLine
 10
887.4167178725
 20
898.7526130802
 30
0.0
 11
893.7343171231
 21
898.7526130802
 31
0.0
  0
ARC
  5
1D7
330
1F
100
AcDbEntity
  8
0
  6
Continuous
 62
     8
370
    18
100
AcDbCircle
 10
816.8817572792
 20
906.0384027911
 30
0.0
 40
7.651879525869066
100
AcDbArc
 50
256.3170319392
 51
270.7949998579
  0
ARC
  5
1D8
330
1F
100
AcDbEntity
  8
0
  6
Continuous
 62
     8
370
    18
100
AcDbCircle
 10
884.3396917657
 20
906.0384027911
 30
0.0
 40
7.651879525870865
100
AcDbArc
 50
269.2050001421
 51
283.6829680608
  0
ARC
  5
1D9
330
1F
100
AcDbEntity
  8
0
  6
Continuous
 62
     8
370
    18
100
AcDbCircle
 10
804.2287712996
 20
905.6227113971
 30
0.0
 40
7.295881391063293
100
AcDbArc
 50
269.6161135418
 51
285.1518230015
  0
ARC
  5
1DA
330
1F
100
AcDbEntity
  8
0
  6
Continuous
 62
     8
370
    18
100
AcDbCircle
 10
896.9926777453
 20
905.6227113971
 30
0.0
 40
7.295881391047784
100
AcDbArc
 50
254.8481769985
 51
270.3838864582
  0
LINE
  5
1DB
330
1F
100
AcDbEntity
  8
0
  6
Continuous
 62
     8
370
    18
100
AcDbLine
 10
804.2691074903
 20
848.9813231806
 30
0.0
 11
804.2828944415
 21
848.8242113211
 31
0.0
  0
SPLINE
  5
1DC
330
1F
100
AcDbEntity
  8
0
  6
Continuous
 62
     8
370
    18
100
AcDbSpline
210
0.0
220
0.0
230
1.0
 70
     8
 71
     3
 72
    14
 73
    10
 74
     0
 42
0.000000001
 43
0.00000001
 40
0.0
 40
0.0
 40
0.0
 40
0.0
 40
0.213507205401368
 40
0.6517504153255504
 40
0.8731400298126194
 40
0.9340362681777978
 40
0.960743100577066
 40
0.9801118651181863
 40
1.0
 40
1.0
 40
1.0
 40
1.0
 10
804.282894441544
 20
848.8242113210937
 30
0.0
 10
804.3391416927157
 20
848.2303424525647
 30
0.0
 10
804.5108416090868
 20
846.4175030170762
 30
0.0
 10
804.8683275820556
 20
844.3634790549942
 30
0.0
 10
805.3200514665124
 20
843.0320226623647
 30
0.0
 10
805.8190905483199
 20
842.5814520919039
 30
0.0
 10
806.0892928813466
 20
842.4725727830573
 30
0.0
 10
806.2893611114018
 20
842.4331268445917
 30
0.0
 10
806.4152141098349
 20
842.4325071202538
 30
0.0
 10
806.4789731291388
 20
842.4321931585962
 30
0.0
  0
LINE
  5
1DD
330
1F
100
AcDbEntity
  8
0
  6
Continuous
 62
     8
370
    18
100
AcDbLine
 10
806.4789731291
 20
842.4321931586
 30
0.0
 11
814.7723227192
 21
842.6507112
 31
0.0
  0
SPLINE
  5
1DE
330
1F
100
AcDbEntity
  8
0
  6
Continuous
 62
     8
370
    18
100
AcDbSpline
210
0.0
220
0.0
230
1.0
 70
     8
 71
     3
 72
    16
 73
    12
 74
     0
 42
0.000000001
 43
0.00000001
 40
0.0
 40
0.0
 40
0.0
 40
0.0
 40
0.0145165189494738
 40
0.0410735504097994
 40
0.0660449149745878
 40
0.1244471088434506
 40
0.1776973916031347
 40
0.2535931192178172
 40
0.363355642201785
 40
0.5223716192680162
 40
1.0
 40
1.0
 40
1.0
 40
1.0
 10
814.7723227192305
 20
842.6507112000482
 30
0.0
 10
814.8149850128767
 20
842.6527783497514
 30
0.0
 10
814.9356952103271
 20
842.6586272159864
 30
0.0
 10
815.1148564900245
 20
842.703882596453
 30
0.0
 10
815.3541756567361
 20
842.8179404515733
 30
0.0
 10
815.5617503967476
 20
843.0063155634829
 30
0.0
 10
815.7670442014374
 20
843.2936983837167
 30
0.0
 10
815.9641102627429
 20
843.6932429770047
 30
0.0
 10
816.1790895066057
 20
844.3222380642447
 30
0.0
 10
816.5375346574654
 20
845.8139080538496
 30
0.0
 10
816.7183312306853
 20
847.4088900000302
 30
0.0
 10
816.8539698701412
 20
848.6054900089983
 30
0.0
  0
LINE
  5
1DF
330
1F
100
AcDbEntity
  8
0
  6
Continuous
 62
     8
370
    18
100
AcDbLine
 10
816.8539698701
 20
848.605490009
 30
0.0
 11
816.8789121142
 21
848.8568315682
 31
0.0
  0
SPLINE
  5
1E0
330
1F
100
AcDbEntity
  8
0
  6
Continuous
 62
     8
370
    18
100
AcDbSpline
210
0.0
220
0.0
230
1.0
 70
     8
 71
     3
 72
     9
 73
     5
 74
     0
 42
0.000000001
 43
0.00000001
 40
0.0
 40
0.0
 40
0.0
 40
0.0
 40
0.0094533958096539
 40
1.0
 40
1.0
 40
1.0
 40
1.0
 10
850.6107245224554
 20
840.5350816168898
 30
0.0
 10
850.6015164307771
 20
840.5350816398673
 30
0.0
 10
849.6274652153693
 20
840.5350840704679
 30
0.0
 10
848.6556066268927
 20
840.6604069716893
 30
0.0
 10
847.692935402324
 20
840.7845451459216
 30
0.0
  0
SPLINE
  5
1E1
330
1F
100
AcDbEntity
  8
0
  6
Continuous
 62
     8
370
    18
100
AcDbSpline
210
0.0
220
0.0
230
1.0
 70
     8
 71
     3
 72
    12
 73
     8
 74
     0
 42
0.000000001
 43
0.00000001
 40
0.0
 40
0.0
 40
0.0
 40
0.0
 40
0.098692700537782
 40
0.3626715646534763
 40
0.6320534788937539
 40
0.8140997464527835
 40
0.9999999999999999
 40
0.9999999999999999
 40
0.9999999999999999
 40
0.9999999999999999
 10
846.697368851514
 20
840.8704732237906
 30
0.0
 10
846.0830338775937
 20
840.9114532925703
 30
0.0
 10
843.825502925467
 20
841.0620450342393
 30
0.0
 10
839.9444294903017
 20
842.1702003165882
 30
0.0
 10
835.6671713803946
 20
843.9862336612439
 30
0.0
 10
832.0134515804693
 20
846.2458704857065
 30
0.0
 10
830.0904054831547
 20
847.983646579319
 30
0.0
 10
829.1188111438498
 20
848.8616356290308
 30
0.0
  0
LINE
  5
1E2
330
1F
100
AcDbEntity
  8
0
  6
Continuous
 62
     8
370
    18
100
AcDbLine
 10
806.1359792783
 20
848.6229365268
 30
0.0
 11
806.1364317302
 21
848.7864737035
 31
0.0
  0
LINE
  5
1E3
330
1F
100
AcDbEntity
  8
0
  6
Continuous
 62
     8
370
    18
100
AcDbLine
 10
806.1364317302
 20
848.7864737035
 30
0.0
 11
806.1371237105
 21
850.6764254634
 31
0.0
  0
LINE
  5
1E4
330
1F
100
AcDbEntity
  8
0
  6
Continuous
 62
     8
370
    18
100
AcDbLine
 10
807.4175419499
 20
848.3047207409
 30
0.0
 11
807.479722043
 21
850.4753538366
 31
0.0
  0
ARC
  5
1E5
330
1F
100
AcDbEntity
  8
0
  6
Continuous
 62
     8
370
    18
100
AcDbCircle
 10
807.5490858948
 20
851.5742439365
 30
0.0
 40
3.272168353919712
100
AcDbArc
 50
244.4145746888
 51
267.6960401779
  0
LINE
  5
1E6
330
1F
100
AcDbEntity
  8
0
  6
Continuous
 62
     8
370
    18
100
AcDbLine
 10
814.7578334156
 20
842.7941701737
 30
0.0
 11
806.4453755988
 21
842.5756521323
 31
0.0
  0
SPLINE
  5
1E7
330
1F
100
AcDbEntity
  8
0
  6
Continuous
 62
     8
370
    18
100
AcDbSpline
210
0.0
220
0.0
230
1.0
 70
     8
 71
     3
 72
    10
 73
     6
 74
     0
 42
0.000000001
 43
0.00000001
 40
0.0
 40
0.0
 40
0.0
 40
0.0
 40
0.4454896378197732
 40
0.7187778752024843
 40
1.0
 40
1.0
 40
1.0
 40
1.0
 10
806.4453755988072
 20
842.5756521322942
 30
0.0
 10
806.6704364336204
 20
843.1873128167728
 30
0.0
 10
807.033562160697
 20
844.1742003441369
 30
0.0
 10
807.2686266970915
 20
846.2509122130838
 30
0.0
 10
807.367432298207
 20
847.6136187350128
 30
0.0
 10
807.4175419498613
 20
848.3047207408714
 30
0.0
  0
LINE
  5
1E8
330
1F
100
AcDbEntity
  8
0
  6
Continuous
 62
     8
370
    18
100
AcDbLine
 10
813.8227245364
 20
850.4753538366
 30
0.0
 11
813.8900509117
 21
848.1774403064
 31
0.0
  0
SPLINE
  5
1E9
330
1F
100
AcDbEntity
  8
0
  6
Continuous
 62
     8
370
    18
100
AcDbSpline
210
0.0
220
0.0
230
1.0
 70
     8
 71
     3
 72
    10
 73
     6
 74
     0
 42
0.000000001
 43
0.00000001
 40
0.0
 40
0.0
 40
0.0
 40
0.0
 40
0.5085358280598823
 40
0.7966056673011309
 40
1.0
 40
1.0
 40
1.0
 40
1.0
 10
813.8900509117362
 20
848.1774403064072
 30
0.0
 10
813.9790934764075
 20
847.052618914921
 30
0.0
 10
814.1185759036705
 20
845.2906209479777
 30
0.0
 10
814.4204989151738
 20
843.658850632888
 30
0.0
 10
814.659091117496
 20
843.047273652815
 30
0.0
 10
814.7578334156108
 20
842.7941701737457
 30
0.0
  0
LINE
  5
1EA
330
1F
100
AcDbEntity
  8
0
  6
Continuous
 62
     8
370
    18
100
AcDbLine
 10
815.0713298172
 20
850.6444445466
 30
0.0
 11
815.0694735112
 21
848.711075354
 31
0.0
  0
LINE
  5
1EB
330
1F
100
AcDbEntity
  8
0
  6
Continuous
 62
     8
370
    18
100
AcDbLine
 10
815.0694735112
 20
848.711075354
 30
0.0
 11
815.0692787885
 21
848.4517644726
 31
0.0
  0
ARC
  5
1EC
330
1F
100
AcDbEntity
  8
0
  6
Continuous
 62
     8
370
    18
100
AcDbCircle
 10
813.7420890347
 20
851.4851942296
 30
0.0
 40
3.311061571936468
100
AcDbArc
 50
272.5612375306
 51
293.6303960838
  0
LINE
  5
1ED
330
1F
100
AcDbEntity
  8
0
  6
Continuous
 62
     8
370
    18
100
AcDbLine
 10
887.3987245085
 20
850.4753538366
 30
0.0
 11
887.3313981332
 21
848.1774403064
 31
0.0
  0
LINE
  5
1EE
330
1F
100
AcDbEntity
  8
0
  6
Continuous
 62
     8
370
    18
100
AcDbLine
 10
893.803907095
 20
848.3047207409
 30
0.0
 11
893.7417270019
 21
850.4753538366
 31
0.0
  0
SPLINE
  5
1EF
330
1F
100
AcDbEntity
  8
0
  6
Continuous
 62
     8
370
    18
100
AcDbSpline
210
0.0
220
0.0
230
1.0
 70
     8
 71
     3
 72
    10
 73
     6
 74
     0
 42
0.000000001
 43
0.00000001
 40
0.0
 40
0.0
 40
0.0
 40
0.0
 40
0.4454896378197903
 40
0.718777875202493
 40
1.0
 40
1.0
 40
1.0
 40
1.0
 10
894.7760734461029
 20
842.575652132293
 30
0.0
 10
894.5510126112899
 20
843.1873128167719
 30
0.0
 10
894.1878868842133
 20
844.1742003441364
 30
0.0
 10
893.9528223478187
 20
846.2509122130832
 30
0.0
 10
893.8540167467033
 20
847.6136187350122
 30
0.0
 10
893.803907095049
 20
848.3047207408711
 30
0.0
  0
LINE
  5
1F0
330
1F
100
AcDbEntity
  8
0
  6
Continuous
 62
     8
370
    18
100
AcDbLine
 10
886.4636156293
 20
842.7941701737
 30
0.0
 11
894.7760734461
 21
842.5756521323
 31
0.0
  0
SPLINE
  5
1F1
330
1F
100
AcDbEntity
  8
0
  6
Continuous
 62
     8
370
    18
100
AcDbSpline
210
0.0
220
0.0
230
1.0
 70
     8
 71
     3
 72
    10
 73
     6
 74
     0
 42
0.000000001
 43
0.00000001
 40
0.0
 40
0.0
 40
0.0
 40
0.0
 40
0.5085358280598549
 40
0.796605667301142
 40
1.0
 40
1.0
 40
1.0
 40
1.0
 10
887.331398133174
 20
848.1774403064072
 30
0.0
 10
887.2423555685028
 20
847.052618914921
 30
0.0
 10
887.1028731412398
 20
845.2906209479775
 30
0.0
 10
886.8009501297365
 20
843.6588506328881
 30
0.0
 10
886.5623579274143
 20
843.047273652815
 30
0.0
 10
886.4636156292995
 20
842.7941701737457
 30
0.0
  0
ARC
  5
1F2
330
1F
100
AcDbEntity
  8
0
  6
Continuous
 62
     8
370
    18
100
AcDbCircle
 10
887.4793600102
 20
851.4851942296
 30
0.0
 40
3.31106157193796
100
AcDbArc
 50
246.3696039162
 51
267.4387624694
  0
LINE
  5
1F3
330
1F
100
AcDbEntity
  8
0
  6
Continuous
 62
     8
370
    18
100
AcDbLine
 10
886.1519755338
 20
848.711075354
 30
0.0
 11
886.1521702564
 21
848.4517644726
 31
0.0
  0
LINE
  5
1F4
330
1F
100
AcDbEntity
  8
0
  6
Continuous
 62
     8
370
    18
100
AcDbLine
 10
886.1501192277
 20
850.6444445466
 30
0.0
 11
886.1519755338
 21
848.711075354
 31
0.0
  0
LINE
  5
1F5
330
1F
100
AcDbEntity
  8
0
  6
Continuous
 62
     8
370
    18
100
AcDbLine
 10
895.0850173147
 20
848.7864737035
 30
0.0
 11
895.0843253344
 21
850.6764254634
 31
0.0
  0
LINE
  5
1F6
330
1F
100
AcDbEntity
  8
0
  6
Continuous
 62
     8
370
    18
100
AcDbLine
 10
895.0854697666
 20
848.6229365268
 30
0.0
 11
895.0850173147
 21
848.7864737035
 31
0.0
  0
ARC
  5
1F7
330
1F
100
AcDbEntity
  8
0
  6
Continuous
 62
     8
370
    18
100
AcDbCircle
 10
893.6723631502
 20
851.5742439365
 30
0.0
 40
3.272168353912154
100
AcDbArc
 50
272.3039598221
 51
295.5854253112
  0
LINE
  5
1F8
330
1F
100
AcDbEntity
  8
0
  6
Continuous
 62
     8
370
    18
100
AcDbLine
 10
884.3674791748
 20
848.605490009
 30
0.0
 11
884.3425369307
 21
848.8568315682
 31
0.0
  0
SPLINE
  5
1F9
330
1F
100
AcDbEntity
  8
0
  6
Continuous
 62
     8
370
    18
100
AcDbSpline
210
0.0
220
0.0
230
1.0
 70
     8
 71
     3
 72
    16
 73
    12
 74
     0
 42
0.000000001
 43
0.00000001
 40
0.0
 40
0.0
 40
0.0
 40
0.0
 40
0.0145165189495135
 40
0.0410735504098394
 40
0.066044914974628
 40
0.1244471088434912
 40
0.1776973916031758
 40
0.2535931192178842
 40
0.3633556422018519
 40
0.5223716192680846
 40
0.9999999999999999
 40
0.9999999999999999
 40
0.9999999999999999
 40
0.9999999999999999
 10
886.4491263256801
 20
842.6507112000482
 30
0.0
 10
886.4064640320337
 20
842.6527783497513
 30
0.0
 10
886.2857538345833
 20
842.6586272159864
 30
0.0
 10
886.1065925548857
 20
842.703882596453
 30
0.0
 10
885.8672733881742
 20
842.8179404515733
 30
0.0
 10
885.6596986481627
 20
843.0063155634828
 30
0.0
 10
885.4544048434728
 20
843.2936983837167
 30
0.0
 10
885.2573387821673
 20
843.6932429770047
 30
0.0
 10
885.0423595383047
 20
844.3222380642449
 30
0.0
 10
884.6839143874427
 20
845.8139080538493
 30
0.0
 10
884.50311781424
 20
847.4088900000312
 30
0.0
 10
884.3674791747972
 20
848.6054900090005
 30
0.0
  0
LINE
  5
1FA
330
1F
100
AcDbEntity
  8
0
  6
Continuous
 62
     8
370
    18
100
AcDbLine
 10
894.7424759158
 20
842.4321931586
 30
0.0
 11
886.4491263257
 21
842.6507112
 31
0.0
  0
SPLINE
  5
1FB
330
1F
100
AcDbEntity
  8
0
  6
Continuous
 62
     8
370
    18
100
AcDbSpline
210
0.0
220
0.0
230
1.0
 70
     8
 71
     3
 72
    14
 73
    10
 74
     0
 42
0.000000001
 43
0.00000001
 40
0.0
 40
0.0
 40
0.0
 40
0.0
 40
0.2135072054014707
 40
0.6517504153255775
 40
0.8731400298126408
 40
0.9340362681778095
 40
0.9607431005770726
 40
0.9801118651181897
 40
1.0
 40
1.0
 40
1.0
 40
1.0
 10
896.9385546033466
 20
848.8242113210956
 30
0.0
 10
896.8823073521827
 20
848.2303424525659
 30
0.0
 10
896.7106074358354
 20
846.4175030170751
 30
0.0
 10
896.3531214628525
 20
844.363479054994
 30
0.0
 10
895.901397578398
 20
843.0320226623637
 30
0.0
 10
895.4023584965903
 20
842.5814520919026
 30
0.0
 10
895.1321561635636
 20
842.4725727830563
 30
0.0
 10
894.9320879335085
 20
842.4331268445906
 30
0.0
 10
894.8062349350752
 20
842.4325071202528
 30
0.0
 10
894.7424759157713
 20
842.4321931585952
 30
0.0
  0
LINE
  5
1FC
330
1F
100
AcDbEntity
  8
0
  6
Continuous
 62
     8
370
    18
100
AcDbLine
 10
896.9523415546
 20
848.9813231806
 30
0.0
 11
896.9385546033
 21
848.8242113211
 31
0.0
  0
SPLINE
  5
1FD
330
1F
100
AcDbEntity
  8
0
  6
Continuous
 62
     8
370
    18
100
AcDbSpline
210
0.0
220
0.0
230
1.0
 70
     8
 71
     3
 72
    15
 73
    11
 74
     0
 42
0.000000001
 43
0.00000001
 40
0.0
 40
0.0
 40
0.0
 40
0.0
 40
0.0014239395057858
 40
0.1351061085576227
 40
0.2892216052154399
 40
0.4462432513905977
 40
0.5840152296264958
 40
0.7248088485654182
 40
0.8605044118101063
 40
1.0
 40
1.0
 40
1.0
 40
1.0
 10
919.6575069295278
 20
840.5350816168892
 30
0.0
 10
919.6630069974425
 20
840.5350845363524
 30
0.0
 10
920.184863979249
 20
840.5353615406073
 30
0.0
 10
921.2348941737763
 20
840.6217159791987
 30
0.0
 10
922.6291379073964
 20
841.0875286188677
 30
0.0
 10
923.7802345010169
 20
841.9780679380702
 30
0.0
 10
924.6367662855587
 20
843.2618290131879
 30
0.0
 10
925.1801118958269
 20
844.8778494019659
 30
0.0
 10
925.4554008692246
 20
846.8583981177363
 30
0.0
 10
925.3535095914982
 20
848.441529017381
 30
0.0
 10
925.3018604609074
 20
849.2440249365856
 30
0.0
  0
SPLINE
  5
1FE
330
1F
100
AcDbEntity
  8
0
  6
Continuous
 62
     8
370
    18
100
AcDbSpline
210
0.0
220
0.0
230
1.0
 70
     8
 71
     3
 72
    12
 73
     8
 74
     0
 42
0.000000001
 43
0.00000001
 40
0.0
 40
0.0
 40
0.0
 40
0.0
 40
0.1729070209294601
 40
0.3500592529377197
 40
0.6008939024631809
 40
0.8574899875494004
 40
1.0
 40
1.0
 40
1.0
 40
1.0
 10
872.1026379010603
 20
848.861635629031
 30
0.0
 10
871.1534125286342
 20
848.0021718566804
 30
0.0
 10
869.2316564139616
 20
846.2621427678745
 30
0.0
 10
865.6117170959401
 20
844.0188310197428
 30
0.0
 10
861.313118754298
 20
842.1716947063171
 30
0.0
 10
857.1159952024572
 20
841.0034378880612
 30
0.0
 10
854.5037522884232
 20
840.844841776199
 30
0.0
 10
853.570990868589
 20
840.7882113863964
 30
0.0
  0
SPLINE
  5
1FF
330
1F
100
AcDbEntity
  8
0
  6
Continuous
 62
     8
370
    18
100
AcDbSpline
210
0.0
220
0.0
230
1.0
 70
     8
 71
     3
 72
     9
 73
     5
 74
     0
 42
0.000000001
 43
0.00000001
 40
0.0
 40
0.0
 40
0.0
 40
0.0
 40
0.980909945784298
 40
0.9999999999999999
 40
0.9999999999999999
 40
0.9999999999999999
 40
0.9999999999999999
 10
852.0556347685451
 20
840.6574198919881
 30
0.0
 10
851.5835542891707
 20
840.5967402526221
 30
0.0
 10
851.1022863793048
 20
840.534879691796
 30
0.0
 10
850.6199326807125
 20
840.535077834338
 30
0.0
 10
850.6107245224554
 20
840.5350816168898
 30
0.0
  0
ARC
  5
200
330
1F
100
AcDbEntity
  8
0
  6
Continuous
 62
     8
370
    18
100
AcDbCircle
 10
816.4216213192
 20
843.2295116395
 30
0.0
 40
5.645869680605204
100
AcDbArc
 50
85.3542029002
 51
103.8566348578
  0
ARC
  5
201
330
1F
100
AcDbEntity
  8
0
  6
Continuous
 62
     8
370
    18
100
AcDbCircle
 10
884.7998277257
 20
843.2295116395
 30
0.0
 40
5.645869680600322
100
AcDbArc
 50
76.1433651422
 51
94.6457970998
  0
ARC
  5
202
330
1F
100
AcDbEntity
  8
0
  6
Continuous
 62
     8
370
    18
100
AcDbCircle
 10
804.6371870791
 20
843.4636838945
 30
0.0
 40
5.529902881133644
100
AcDbArc
 50
74.2693192234
 51
93.8165246585
  0
ARC
  5
203
330
1F
100
AcDbEntity
  8
0
  6
Continuous
 62
     8
370
    18
100
AcDbCircle
 10
896.5842619658
 20
843.4636838945
 30
0.0
 40
5.529902881131076
100
AcDbArc
 50
86.1834753415
 51
105.7306807766
  0
SPLINE
  5
204
330
1F
100
AcDbEntity
  8
0
  6
Continuous
 62
     8
370
    18
100
AcDbSpline
210
0.0
220
0.0
230
1.0
 70
     8
 71
     3
 72
    15
 73
    11
 74
     0
 42
0.000000001
 43
0.00000001
 40
0.0
 40
0.0
 40
0.0
 40
0.0
 40
0.0247383799946503
 40
0.0492201071029635
 40
0.0751567027976501
 40
0.118695396431137
 40
0.2418825692051537
 40
0.4816368506398208
 40
0.8380569172748068
 40
1.0
 40
1.0
 40
1.0
 40
1.0
 10
814.1929520845164
 20
902.5987526820155
 30
0.0
 10
814.2330244060869
 20
902.5996523231265
 30
0.0
 10
814.3127533115365
 20
902.6014422718557
 30
0.0
 10
814.427265241147
 20
902.5610612448675
 30
0.0
 10
814.5464751367213
 20
902.4821976890015
 30
0.0
 10
814.7352986086577
 20
902.2722610131805
 30
0.0
 10
814.959105492045
 20
901.7365366843633
 30
0.0
 10
815.0541439111552
 20
900.7327425050064
 30
0.0
 10
815.0702478637331
 20
899.6307973257292
 30
0.0
 10
815.0713621807761
 20
898.8481852956124
 30
0.0
 10
815.0717103072533
 20
898.6036875822018
 30
0.0
  0
SPLINE
  5
205
330
1F
100
AcDbEntity
  8
0
  6
Continuous
 62
     8
370
    18
100
AcDbSpline
210
0.0
220
0.0
230
1.0
 70
     8
 71
     3
 72
     9
 73
     5
 74
     0
 42
0.000000001
 43
0.00000001
 40
0.0
 40
0.0
 40
0.0
 40
0.0
 40
0.3204572925054245
 40
1.0
 40
1.0
 40
1.0
 40
1.0
 10
814.1929520845164
 20
902.5987526820155
 30
0.0
 10
814.1177639188073
 20
902.2437523229286
 30
0.0
 10
813.8831361931556
 20
901.1359592803315
 30
0.0
 10
813.8364538310926
 20
899.7169145668647
 30
0.0
 10
813.804731172384
 20
898.7526130802199
 30
0.0
  0
SPLINE
  5
206
330
1F
100
AcDbEntity
  8
0
  6
Continuous
 62
     8
370
    18
100
AcDbSpline
210
0.0
220
0.0
230
1.0
 70
     8
 71
     3
 72
    15
 73
    11
 74
     0
 42
0.000000001
 43
0.00000001
 40
0.0
 40
0.0
 40
0.0
 40
0.0
 40
0.0247383799946503
 40
0.0492201071029635
 40
0.0751567027976501
 40
0.118695396431137
 40
0.2418825692051537
 40
0.4816368506398208
 40
0.8380569172748068
 40
1.0
 40
1.0
 40
1.0
 40
1.0
 10
887.0284969603933
 20
902.598752682015
 30
0.0
 10
886.9884246388226
 20
902.599652323126
 30
0.0
 10
886.908695733373
 20
902.6014422718553
 30
0.0
 10
886.7941838037625
 20
902.5610612448669
 30
0.0
 10
886.6749739081885
 20
902.482197689001
 30
0.0
 10
886.486150436252
 20
902.2722610131799
 30
0.0
 10
886.2623435528648
 20
901.7365366843627
 30
0.0
 10
886.1673051337546
 20
900.7327425050058
 30
0.0
 10
886.1512011811766
 20
899.6307973257286
 30
0.0
 10
886.1500868641335
 20
898.8481852956119
 30
0.0
 10
886.1497387376564
 20
898.6036875822012
 30
0.0
  0
SPLINE
  5
207
330
1F
100
AcDbEntity
  8
0
  6
Continuous
 62
     8
370
    18
100
AcDbSpline
210
0.0
220
0.0
230
1.0
 70
     8
 71
     3
 72
     9
 73
     5
 74
     0
 42
0.000000001
 43
0.00000001
 40
0.0
 40
0.0
 40
0.0
 40
0.0
 40
0.3204572925054245
 40
1.0
 40
1.0
 40
1.0
 40
1.0
 10
887.0284969603933
 20
902.598752682015
 30
0.0
 10
887.1036851261024
 20
902.243752322928
 30
0.0
 10
887.3383128517542
 20
901.1359592803309
 30
0.0
 10
887.3849952138171
 20
899.7169145668643
 30
0.0
 10
887.4167178725257
 20
898.7526130802194
 30
0.0
  0
SPLINE
  5
208
330
1F
100
AcDbEntity
  8
0
  6
Continuous
 62
     8
370
    18
100
AcDbSpline
210
0.0
220
0.0
230
1.0
 70
     8
 71
     3
 72
    15
 73
    11
 74
     0
 42
0.000000001
 43
0.00000001
 40
0.0
 40
0.0
 40
0.0
 40
0.0
 40
0.3092031051605585
 40
0.663838255257455
 40
0.803986173963673
 40
0.9077221477257735
 40
0.9361281220494168
 40
0.9546919441403823
 40
0.978908979412591
 40
1.0
 40
1.0
 40
1.0
 40
1.0
 10
806.1357516657257
 20
898.5804595445139
 30
0.0
 10
806.1364917159943
 20
899.068179054242
 30
0.0
 10
806.1380805541108
 20
900.1152800147092
 30
0.0
 10
806.1482712230661
 20
901.3164659173993
 30
0.0
 10
806.3452770205834
 20
902.1725435979437
 30
0.0
 10
806.5501305410122
 20
902.5346732669319
 30
0.0
 10
806.7362191767321
 20
902.6840159643855
 30
0.0
 10
806.8425828587915
 20
902.7333753078105
 30
0.0
 10
806.951253095271
 20
902.7541770290358
 30
0.0
 10
807.0265471577767
 20
902.74413619444
 30
0.0
 10
807.0615967442639
 20
902.7394621592125
 30
0.0
  0
SPLINE
  5
209
330
1F
100
AcDbEntity
  8
0
  6
Continuous
 62
     8
370
    18
100
AcDbSpline
210
0.0
220
0.0
230
1.0
 70
     8
 71
     3
 72
     9
 73
     5
 74
     0
 42
0.000000001
 43
0.00000001
 40
0.0
 40
0.0
 40
0.0
 40
0.0
 40
0.6310361367051674
 40
1.0
 40
1.0
 40
1.0
 40
1.0
 10
807.4871319218424
 20
898.7526130802199
 30
0.0
 10
807.4572261864915
 20
899.6890944583039
 30
0.0
 10
807.4098347082366
 20
901.1731320967402
 30
0.0
 10
807.1554540241954
 20
902.3173040536993
 30
0.0
 10
807.0615967442639
 20
902.7394621592125
 30
0.0
  0
SPLINE
  5
20A
330
1F
100
AcDbEntity
  8
0
  6
Continuous
 62
     8
370
    18
100
AcDbSpline
210
0.0
220
0.0
230
1.0
 70
     8
 71
     3
 72
     9
 73
     5
 74
     0
 42
0.000000001
 43
0.00000001
 40
0.0
 40
0.0
 40
0.0
 40
0.0
 40
0.6310361367051674
 40
1.0
 40
1.0
 40
1.0
 40
1.0
 10
893.7343171230673
 20
898.7526130802194
 30
0.0
 10
893.7642228584181
 20
899.6890944583033
 30
0.0
 10
893.8116143366731
 20
901.1731320967397
 30
0.0
 10
894.0659950207142
 20
902.3173040536988
 30
0.0
 10
894.1598523006459
 20
902.7394621592119
 30
0.0
  0
SPLINE
  5
20B
330
1F
100
AcDbEntity
  8
0
  6
Continuous
 62
     8
370
    18
100
AcDbSpline
210
0.0
220
0.0
230
1.0
 70
     8
 71
     3
 72
    15
 73
    11
 74
     0
 42
0.000000001
 43
0.00000001
 40
0.0
 40
0.0
 40
0.0
 40
0.0
 40
0.3092031051605585
 40
0.663838255257455
 40
0.803986173963673
 40
0.9077221477257735
 40
0.9361281220494168
 40
0.9546919441403823
 40
0.978908979412591
 40
1.0
 40
1.0
 40
1.0
 40
1.0
 10
895.085697379184
 20
898.5804595445134
 30
0.0
 10
895.0849573289152
 20
899.0681790542416
 30
0.0
 10
895.0833684907989
 20
900.1152800147087
 30
0.0
 10
895.0731778218436
 20
901.3164659173988
 30
0.0
 10
894.8761720243264
 20
902.1725435979431
 30
0.0
 10
894.6713185038974
 20
902.5346732669313
 30
0.0
 10
894.4852298681775
 20
902.6840159643849
 30
0.0
 10
894.3788661861182
 20
902.73337530781
 30
0.0
 10
894.2701959496387
 20
902.7541770290352
 30
0.0
 10
894.194901887133
 20
902.7441361944394
 30
0.0
 10
894.1598523006459
 20
902.7394621592119
 30
0.0
  0
LINE
  5
20C
330
1F
100
AcDbEntity
  8
0
  6
Continuous
 62
     8
370
    18
100
AcDbLine
 10
807.0615967443
 20
902.7394621592
 30
0.0
 11
814.1929520845
 21
902.598752682
 31
0.0
  0
LINE
  5
20D
330
1F
100
AcDbEntity
  8
0
  6
Continuous
 62
     8
370
    18
100
AcDbLine
 10
894.1598523006
 20
902.7394621592
 30
0.0
 11
887.0284969604
 21
902.598752682
 31
0.0
  0
ARC
  5
20E
330
1F
100
AcDbEntity
  8
0
  6
Continuous
 62
     8
370
    18
100
AcDbCircle
 10
720.4372724474
 20
905.6642499728
 30
0.0
 40
93.80578200649335
100
AcDbArc
 50
358.1272867192
 51
358.5922936385
  0
ARC
  5
20F
330
1F
100
AcDbEntity
  8
0
  6
Continuous
 62
     8
370
    18
100
AcDbCircle
 10
980.7841766383
 20
905.6642499741
 30
0.0
 40
93.8057820473782
100
AcDbArc
 50
181.4077063616
 51
181.8727132807
  0
ARC
  5
210
330
1F
100
AcDbEntity
  8
0
  6
Continuous
 62
     8
370
    18
100
AcDbCircle
 10
766.4891136327
 20
905.6649578242
 30
0.0
 40
40.67781841158628
100
AcDbArc
 50
355.8758017504
 51
356.9247251143
  0
ARC
  5
211
330
1F
100
AcDbEntity
  8
0
  6
Continuous
 62
     8
370
    18
100
AcDbCircle
 10
934.7323354195
 20
905.6649578247
 30
0.0
 40
40.67781841885257
100
AcDbArc
 50
183.0752748858
 51
184.1241982495
  0
SPLINE
  5
212
330
1F
100
AcDbEntity
  8
0
  6
Continuous
 62
     8
370
    18
100
AcDbSpline
210
0.0
220
0.0
230
1.0
 70
     8
 71
     3
 72
    19
 73
    15
 74
     0
 42
0.000000001
 43
0.00000001
 40
0.0
 40
0.0
 40
0.0
 40
0.0
 40
0.5108655809784887
 40
0.6773161886274506
 40
0.7897294814090526
 40
0.8649135704138747
 40
0.914998775964374
 40
0.9638937301973743
 40
0.9805048002912533
 40
0.9864047265890651
 40
0.9923573643452019
 40
0.9937773259466394
 40
0.9978992913798034
 40
1.0
 40
1.0
 40
1.0
 40
1.0
 10
815.0692787885295
 20
848.4517644725929
 30
0.0
 10
815.0702284265486
 20
847.2726670507992
 30
0.0
 10
815.0714874763411
 20
845.7093952206237
 30
0.0
 10
815.0732543195822
 20
844.2874941100281
 30
0.0
 10
815.0661642439859
 20
843.7055757992482
 30
0.0
 10
815.04906390203
 20
843.3442724477175
 30
0.0
 10
815.0158761956102
 20
843.0942824801778
 30
0.0
 10
814.97420203177
 20
842.9360945308124
 30
0.0
 10
814.9059670960253
 20
842.8452621900014
 30
0.0
 10
814.860679049408
 20
842.8139573482375
 30
0.0
 10
814.8317721301603
 20
842.8021540462047
 30
0.0
 10
814.8025617336608
 20
842.7956620769133
 30
0.0
 10
814.7810632644052
 20
842.7933470985473
 30
0.0
 10
814.7636963136082
 20
842.7939624407562
 30
0.0
 10
814.7578334156108
 20
842.7941701737457
 30
0.0
  0
ARC
  5
213
330
1F
100
AcDbEntity
  8
0
  6
Continuous
 62
     8
370
    18
100
AcDbCircle
 10
816.4261462276
 20
843.1357165478
 30
0.0
 40
5.486479270493937
100
AcDbArc
 50
85.5276603397
 51
104.3184561189
  0
ARC
  5
214
330
1F
100
AcDbEntity
  8
0
  6
Continuous
 62
     8
370
    18
100
AcDbCircle
 10
807.5769256786
 20
841.9964399374
 30
0.0
 40
7.225081968920912
100
AcDbArc
 50
5.1955682007
 51
6.339022105
  0
ARC
  5
215
330
1F
100
AcDbEntity
  8
0
  6
Continuous
 62
     8
370
    18
100
AcDbCircle
 10
884.7953028173
 20
843.1357165479
 30
0.0
 40
5.486479270455639
100
AcDbArc
 50
75.6815438811
 51
94.4723396601
  0
SPLINE
  5
216
330
1F
100
AcDbEntity
  8
0
  6
Continuous
 62
     8
370
    18
100
AcDbSpline
210
0.0
220
0.0
230
1.0
 70
     8
 71
     3
 72
    19
 73
    15
 74
     0
 42
0.000000001
 43
0.00000001
 40
0.0
 40
0.0
 40
0.0
 40
0.0
 40
0.5108655809785092
 40
0.6773161886274641
 40
0.7897294814090614
 40
0.8649135704138804
 40
0.9149987759643775
 40
0.9638937301973758
 40
0.9805048002912541
 40
0.9864047265890656
 40
0.9923573643452023
 40
0.9937773259466397
 40
0.9978992913798035
 40
1.0
 40
1.0
 40
1.0
 40
1.0
 10
886.1521702563807
 20
848.4517644725929
 30
0.0
 10
886.1512206183617
 20
847.2726670507992
 30
0.0
 10
886.1499615685692
 20
845.7093952206237
 30
0.0
 10
886.148194725328
 20
844.2874941100281
 30
0.0
 10
886.1552848009244
 20
843.7055757992482
 30
0.0
 10
886.1723851428801
 20
843.3442724477175
 30
0.0
 10
886.2055728493001
 20
843.094282480178
 30
0.0
 10
886.2472470131403
 20
842.9360945308124
 30
0.0
 10
886.315481948885
 20
842.8452621900014
 30
0.0
 10
886.3607699955023
 20
842.8139573482375
 30
0.0
 10
886.38967691475
 20
842.8021540462047
 30
0.0
 10
886.4188873112494
 20
842.7956620769133
 30
0.0
 10
886.440385780505
 20
842.7933470985474
 30
0.0
 10
886.4577527313021
 20
842.7939624407562
 30
0.0
 10
886.4636156292993
 20
842.7941701737457
 30
0.0
  0
ARC
  5
217
330
1F
100
AcDbEntity
  8
0
  6
Continuous
 62
     8
370
    18
100
AcDbCircle
 10
893.6445233716
 20
841.9964399369
 30
0.0
 40
7.225081974201913
100
AcDbArc
 50
173.6609778957
 51
174.8044317991
  0
SPLINE
  5
218
330
1F
100
AcDbEntity
  8
0
  6
Continuous
 62
     8
370
    18
100
AcDbSpline
210
0.0
220
0.0
230
1.0
 70
     8
 71
     3
 72
    17
 73
    13
 74
     0
 42
0.000000001
 43
0.00000001
 40
0.0
 40
0.0
 40
0.0
 40
0.0
 40
0.0045109817899508
 40
0.0089278415503381
 40
0.0130797684277637
 40
0.0177777921768911
 40
0.0339670776357914
 40
0.084060007251609
 40
0.3047425979556686
 40
0.7692822253148978
 40
0.8273200843747881
 40
1.0
 40
1.0
 40
1.0
 40
1.0
 10
806.4453755988072
 20
842.5756521322942
 30
0.0
 10
806.4324061077863
 20
842.5738883434832
 30
0.0
 10
806.4067377353089
 20
842.570397567469
 30
0.0
 10
806.3658617252154
 20
842.5721121032653
 30
0.0
 10
806.3285010351138
 20
842.5804330091154
 30
0.0
 10
806.2725710121939
 20
842.6051030605518
 30
0.0
 10
806.1880648813136
 20
842.6983152523632
 30
0.0
 10
806.0937898901744
 20
843.10225919369
 30
0.0
 10
806.1265899952715
 20
844.29337256294
 30
0.0
 10
806.1272473119813
 20
845.8904850895132
 30
0.0
 10
806.1331730075334
 20
847.577134926452
 30
0.0
 10
806.1347780155996
 20
848.175266804206
 30
0.0
 10
806.1359792783016
 20
848.6229365267675
 30
0.0
  0
ARC
  5
219
330
1F
100
AcDbEntity
  8
0
  6
Continuous
 62
     8
370
    18
100
AcDbCircle
 10
803.6804808703
 20
841.8524609131
 30
0.0
 40
2.857909795508052
100
AcDbArc
 50
11.7037763201
 51
14.6580100087
  0
ARC
  5
21A
330
1F
100
AcDbEntity
  8
0
  6
Continuous
 62
     8
370
    18
100
AcDbCircle
 10
804.6313808736
 20
843.4015623598
 30
0.0
 40
5.433835160390565
100
AcDbArc
 50
73.9250614362
 51
93.677055676
  0
ARC
  5
21B
330
1F
100
AcDbEntity
  8
0
  6
Continuous
 62
     8
370
    18
100
AcDbCircle
 10
897.5409681751
 20
841.852460913
 30
0.0
 40
2.857909796022644
100
AcDbArc
 50
165.3419899915
 51
168.2962236796
  0
SPLINE
  5
21C
330
1F
100
AcDbEntity
  8
0
  6
Continuous
 62
     8
370
    18
100
AcDbSpline
210
0.0
220
0.0
230
1.0
 70
     8
 71
     3
 72
    17
 73
    13
 74
     0
 42
0.000000001
 43
0.00000001
 40
0.0
 40
0.0
 40
0.0
 40
0.0
 40
0.0045109817899507
 40
0.0089278415503379
 40
0.0130797684277633
 40
0.0177777921768901
 40
0.0339670776357899
 40
0.0840600072516066
 40
0.3047425979556919
 40
0.7692822253149063
 40
0.8273200843747937
 40
1.0
 40
1.0
 40
1.0
 40
1.0
 10
894.7760734461029
 20
842.575652132293
 30
0.0
 10
894.789042937124
 20
842.573888343482
 30
0.0
 10
894.8147113096014
 20
842.5703975674678
 30
0.0
 10
894.8555873196949
 20
842.5721121032642
 30
0.0
 10
894.8929480097964
 20
842.5804330091142
 30
0.0
 10
894.9488780327164
 20
842.6051030605506
 30
0.0
 10
895.0333841635967
 20
842.698315252362
 30
0.0
 10
895.1276591547359
 20
843.1022591936888
 30
0.0
 10
895.0948590496388
 20
844.2933725629398
 30
0.0
 10
895.0942017329288
 20
845.8904850895126
 30
0.0
 10
895.0882760373767
 20
847.5771349264514
 30
0.0
 10
895.0866710293107
 20
848.1752668042054
 30
0.0
 10
895.0854697666085
 20
848.6229365267669
 30
0.0
  0
ARC
  5
21D
330
1F
100
AcDbEntity
  8
0
  6
Continuous
 62
     8
370
    18
100
AcDbCircle
 10
896.5900681713
 20
843.4015623599
 30
0.0
 40
5.433835160320049
100
AcDbArc
 50
86.3229443242
 51
106.074938564
  0
SPLINE
  5
21E
330
1F
100
AcDbEntity
  8
0
  6
Continuous
 62
     8
370
    18
100
AcDbSpline
210
0.0
220
0.0
230
1.0
 70
     8
 71
     3
 72
    20
 73
    16
 74
     0
 42
0.000000001
 43
0.00000001
 40
0.0
 40
0.0
 40
0.0
 40
0.0
 40
0.0177553498927668
 40
0.0895541770723953
 40
0.1635124813712788
 40
0.2505819007214752
 40
0.3150328805895235
 40
0.3805147797652293
 40
0.4675444081230328
 40
0.569441081332072
 40
0.6754503316775933
 40
0.7871440412594486
 40
0.8785532165774703
 40
0.9388623767392652
 40
1.0
 40
1.0
 40
1.0
 40
1.0
 10
926.7492716576924
 20
849.7971376572398
 30
0.0
 10
926.738567727492
 20
850.0462460163825
 30
0.0
 10
926.6845793991106
 20
851.3026951564792
 30
0.0
 10
926.7493617077914
 20
853.7858421137693
 30
0.0
 10
927.1923706497939
 20
857.5817235873053
 30
0.0
 10
927.9472334642935
 20
861.4348666874786
 30
0.0
 10
928.8575250522695
 20
865.18868176076
 30
0.0
 10
929.8544914173426
 20
868.9398329395433
 30
0.0
 10
931.0583890218534
 20
873.27656988099
 30
0.0
 10
932.3343343197485
 20
878.0940405308378
 30
0.0
 10
933.6055109761433
 20
882.8329508856967
 30
0.0
 10
934.7972069825737
 20
886.7494187952558
 30
0.0
 10
935.8028024179257
 20
889.4296295880781
 30
0.0
 10
936.5327824600324
 20
891.1813124923956
 30
0.0
 10
936.8565693634122
 20
891.8995147430935
 30
0.0
 10
937.0195671897666
 20
892.2610655177681
 30
0.0
  0
ARC
  5
21F
330
1F
100
AcDbEntity
  8
0
  6
Continuous
 62
     8
370
    18
100
AcDbCircle
 10
927.3790518572
 20
845.9787164556
 30
0.0
 40
3.870008213484431
100
AcDbArc
 50
99.3655973717
 51
122.4620469832
  0
ARC
  5
220
330
1F
100
AcDbEntity
  8
0
  6
Continuous
 62
     8
370
    18
100
AcDbCircle
 10
929.7694752925
 20
889.1858006837
 30
0.0
 40
7.87534674280134
100
AcDbArc
 50
22.4525517106
 51
22.9851555299
  0
SPLINE
  5
221
330
1F
100
AcDbEntity
  8
0
  6
Continuous
 62
     8
370
    18
100
AcDbSpline
210
0.0
220
0.0
230
1.0
 70
     8
 71
     3
 72
    19
 73
    15
 74
     0
 42
0.000000001
 43
0.00000001
 40
0.0
 40
0.0
 40
0.0
 40
0.0
 40
0.081284375528137
 40
0.1625926981205909
 40
0.2503967158277938
 40
0.3382767484838725
 40
0.4242704765567144
 40
0.5102462209491133
 40
0.5965701789596969
 40
0.6829065819723044
 40
0.765739874205403
 40
0.8485711078275135
 40
0.9243009273350646
 40
1.0
 40
1.0
 40
1.0
 40
1.0
 10
926.8153289583998
 20
849.8066564424454
 30
0.0
 10
926.8064584706094
 20
850.9846148624965
 30
0.0
 10
926.7887148817081
 20
853.3408787391095
 30
0.0
 10
927.2682909115924
 20
857.4362974436532
 30
0.0
 10
928.1240437400612
 20
861.8141014052885
 30
0.0
 10
929.247787811992
 20
866.3514635654199
 30
0.0
 10
930.4638044293254
 20
870.823115606816
 30
0.0
 10
931.6472263007694
 20
875.1480870486441
 30
0.0
 10
932.7200167144142
 20
879.24244256574
 30
0.0
 10
933.7207174252519
 20
882.9396812035621
 30
0.0
 10
934.6936431039485
 20
886.1487757453029
 30
0.0
 10
935.604365053532
 20
888.7536396426743
 30
0.0
 10
936.4418949962405
 20
890.8265574263016
 30
0.0
 10
936.8458858414713
 20
891.7379401686752
 30
0.0
 10
937.0478402499751
 20
892.1935390141183
 30
0.0
  0
ARC
  5
222
330
1F
100
AcDbEntity
  8
0
  6
Continuous
 62
     8
370
    18
100
AcDbCircle
 10
923.7110150338
 20
871.1156267471
 30
0.0
 40
21.53390304578348
100
AcDbArc
 50
278.1110275318
 51
278.2886032804
  0
SPLINE
  5
223
330
1F
100
AcDbEntity
  8
0
  6
Continuous
 62
     8
370
    18
100
AcDbSpline
210
0.0
220
0.0
230
1.0
 70
     8
 71
     3
 72
    20
 73
    16
 74
     0
 42
0.000000001
 43
0.00000001
 40
0.0
 40
0.0
 40
0.0
 40
0.0
 40
0.0734892725957272
 40
0.1488054069163635
 40
0.2291724603079961
 40
0.3115652575978909
 40
0.3969600311379816
 40
0.4847691432648291
 40
0.5707826311793048
 40
0.6591664434836094
 40
0.7461833123618618
 40
0.8361404262887481
 40
0.903526455737445
 40
0.972851405441462
 40
1.0
 40
1.0
 40
1.0
 40
1.0
 10
939.9272221915863
 20
889.8694153294083
 30
0.0
 10
939.6854795205259
 20
889.5285090637979
 30
0.0
 10
939.1959847239984
 20
888.8382219813069
 30
0.0
 10
938.1863410887765
 20
887.0961692372368
 30
0.0
 10
937.0590050510332
 20
884.80521788004
 30
0.0
 10
935.8895662070962
 20
881.8822554393961
 30
0.0
 10
934.6667337819925
 20
878.4088353334367
 30
0.0
 10
933.3740608051363
 20
874.5116042844081
 30
0.0
 10
931.946431525688
 20
870.3379179663115
 30
0.0
 10
930.4740577557031
 20
866.0499531393165
 30
0.0
 10
929.0985737082653
 20
861.6429724368365
 30
0.0
 10
928.1106738614188
 20
857.6099845601784
 30
0.0
 10
927.5674864726222
 20
854.0186299034731
 30
0.0
 10
927.4362462624199
 20
851.5712138623702
 30
0.0
 10
927.4875831960529
 20
850.2486069025849
 30
0.0
 10
927.5020299089598
 20
849.8764124280689
 30
0.0
  0
ARC
  5
224
330
1F
100
AcDbEntity
  8
0
  6
Continuous
 62
     8
370
    18
100
AcDbCircle
 10
927.6374105231
 20
845.1287475503
 30
0.0
 40
4.749594688240808
100
AcDbArc
 50
91.6333580123
 51
99.9672112785
  0
ARC
  5
225
330
1F
100
AcDbEntity
  8
0
  6
Continuous
 62
     8
370
    18
100
AcDbCircle
 10
940.0401375392
 20
892.9550179132
 30
0.0
 40
3.087667919413804
100
AcDbArc
 50
194.2775571615
 51
267.9042384386
  0
SPLINE
  5
226
330
1F
100
AcDbEntity
  8
0
  6
Continuous
 62
     8
370
    18
100
AcDbSpline
210
0.0
220
0.0
230
1.0
 70
     8
 71
     3
 72
     9
 73
     5
 74
     0
 42
0.000000001
 43
0.00000001
 40
0.0
 40
0.0
 40
0.0
 40
0.0
 40
0.4955319650024669
 40
0.9999999999999999
 40
0.9999999999999999
 40
0.9999999999999999
 40
0.9999999999999999
 10
940.508558948983
 20
890.5350816168896
 30
0.0
 10
940.4623038404064
 20
890.5069940980624
 30
0.0
 10
940.3689594916187
 20
890.4503125501282
 30
0.0
 10
940.075342552105
 20
890.0641978523036
 30
0.0
 10
939.9272221915863
 20
889.8694153294083
 30
0.0
  0
SPLINE
  5
227
330
1F
100
AcDbEntity
  8
0
  6
Continuous
 62
     8
370
    18
100
AcDbSpline
210
0.0
220
0.0
230
1.0
 70
     8
 71
     3
 72
     9
 73
     5
 74
     0
 42
0.000000001
 43
0.00000001
 40
0.0
 40
0.0
 40
0.0
 40
0.0
 40
0.8724809942930268
 40
1.0
 40
1.0
 40
1.0
 40
1.0
 10
923.8394263109064
 20
841.3056528372458
 30
0.0
 10
923.7729510192273
 20
840.9552415703439
 30
0.0
 10
923.6967599135023
 20
840.5536153238194
 30
0.0
 10
923.620454866217
 20
840.5371777233565
 30
0.0
 10
923.6107245224567
 20
840.5350816168892
 30
0.0
  0
SPLINE
  5
228
330
1F
100
AcDbEntity
  8
0
  6
Continuous
 62
     8
370
    18
100
AcDbSpline
210
0.0
220
0.0
230
1.0
 70
     8
 71
     3
 72
    13
 73
     9
 74
     0
 42
0.000000001
 43
0.00000001
 40
0.0
 40
0.0
 40
0.0
 40
0.0
 40
0.1645623234208169
 40
0.332800939901234
 40
0.5301300948724867
 40
0.7327153280276612
 40
0.9440961992823407
 40
1.0
 40
1.0
 40
1.0
 40
1.0
 10
927.5020299089598
 20
849.8764124280689
 30
0.0
 10
927.5125815830141
 20
849.1807162971099
 30
0.0
 10
927.533920653646
 20
847.7737823072637
 30
0.0
 10
927.2021925887217
 20
845.8288197170061
 30
0.0
 10
926.5385785511553
 20
844.0562736346367
 30
0.0
 10
925.5583102484294
 20
842.5616366495761
 30
0.0
 10
924.3689320930888
 20
841.7482344615222
 30
0.0
 10
923.9310180235674
 20
841.3822087698227
 30
0.0
 10
923.8394263109064
 20
841.3056528372458
 30
0.0
  0
SPLINE
  5
229
330
1F
100
AcDbEntity
  8
0
  6
Continuous
 62
     8
370
    18
100
AcDbSpline
210
0.0
220
0.0
230
1.0
 70
     8
 71
     3
 72
    12
 73
     8
 74
     0
 42
0.000000001
 43
0.00000001
 40
0.0
 40
0.0
 40
0.0
 40
0.0
 40
0.2584254149750773
 40
0.5253727836647177
 40
0.6325637335471962
 40
0.8141005554129506
 40
1.0
 40
1.0
 40
1.0
 40
1.0
 10
923.6107245224582
 20
841.3044859655421
 30
0.0
 10
924.1170301694144
 20
841.6867115426038
 30
0.0
 10
925.1463376280178
 20
842.4637671407468
 30
0.0
 10
925.9924486777862
 20
844.0788433457644
 30
0.0
 10
926.503667757627
 20
845.8051328136738
 30
0.0
 10
926.7858845484265
 20
847.4871552012536
 30
0.0
 10
926.761572176015
 20
849.0210726988321
 30
0.0
 10
926.7492716576924
 20
849.7971376572398
 30
0.0
  0
SPLINE
  5
22A
330
1F
100
AcDbEntity
  8
0
  6
Continuous
 62
     8
370
    18
100
AcDbSpline
210
0.0
220
0.0
230
1.0
 70
     8
 71
     3
 72
    10
 73
     6
 74
     0
 42
0.000000001
 43
0.00000001
 40
0.0
 40
0.0
 40
0.0
 40
0.0
 40
0.566071017969364
 40
0.9956845546965856
 40
1.0
 40
1.0
 40
1.0
 40
1.0
 10
923.6107245224582
 20
841.3044859655421
 30
0.0
 10
922.9365587164207
 20
841.0545660995941
 30
0.0
 10
921.7507419918969
 20
840.6149722279118
 30
0.0
 10
920.3139859599529
 20
840.5353978776329
 30
0.0
 10
919.6639713570753
 20
840.5350847311468
 30
0.0
 10
919.6575069295278
 20
840.5350816168892
 30
0.0
  0
SPLINE
  5
22B
330
1F
100
AcDbEntity
  8
0
  6
Continuous
 62
     8
370
    18
100
AcDbSpline
210
0.0
220
0.0
230
1.0
 70
     8
 71
     3
 72
    14
 73
    10
 74
     0
 42
0.000000001
 43
0.00000001
 40
0.0
 40
0.0
 40
0.0
 40
0.0
 40
0.0665232667018131
 40
0.1346138509585632
 40
0.2705263731886027
 40
0.4679094570369239
 40
0.6697252416072469
 40
0.8332896955030693
 40
1.0
 40
1.0
 40
1.0
 40
1.0
 10
923.7990671717686
 20
841.3057140000623
 30
0.0
 10
923.8862051199994
 20
841.3973707378933
 30
0.0
 10
924.0625340250208
 20
841.5828436867945
 30
0.0
 10
924.5971741485215
 20
842.0081613878475
 30
0.0
 10
925.2669939078797
 20
842.7654349873079
 30
0.0
 10
926.0255536973771
 20
844.0637004205988
 30
0.0
 10
926.5592238462067
 20
845.8014491949758
 30
0.0
 10
926.8409934032048
 20
847.7290146512618
 30
0.0
 10
926.8239379241971
 20
849.1097254449023
 30
0.0
 10
926.8153289583998
 20
849.8066564424454
 30
0.0
  0
ARC
  5
22C
330
1F
100
AcDbEntity
  8
0
  6
Continuous
 62
     8
370
    18
100
AcDbCircle
 10
923.610724726
 20
855.7480477631
 30
0.0
 40
14.44356179756744
100
AcDbArc
 50
269.9999991928
 51
270.7471517929
  0
ARC
  5
22D
330
1F
100
AcDbEntity
  8
0
  6
Continuous
 62
     8
370
    18
100
AcDbCircle
 10
923.8145611645
 20
838.2138400571
 30
0.0
 40
3.091912764466361
100
AcDbArc
 50
89.5392226715
 51
90.287118096
  0
LINE
  5
22E
330
1F
100
AcDbEntity
  8
0
  6
Continuous
 62
     8
370
    18
100
AcDbLine
 10
923.6107245225
 20
840.5350816169
 30
0.0
 11
923.6107245225
 21
841.3044859655
 31
0.0
  0
SPLINE
  5
22F
330
1F
100
AcDbEntity
  8
0
  6
Continuous
 62
     8
370
    18
100
AcDbSpline
210
0.0
220
0.0
230
1.0
 70
     8
 71
     3
 72
     9
 73
     5
 74
     0
 42
0.000000001
 43
0.00000001
 40
0.0
 40
0.0
 40
0.0
 40
0.0
 40
0.4953932977280084
 40
0.9999999999999999
 40
0.9999999999999999
 40
0.9999999999999999
 40
0.9999999999999999
 10
937.0478402499751
 20
892.1935390141183
 30
0.0
 10
937.1671152020728
 20
892.4530121128231
 30
0.0
 10
937.407883401087
 20
892.9767840328204
 30
0.0
 10
937.485075604897
 20
893.1359605659621
 30
0.0
 10
937.5240273083027
 20
893.2162821114298
 30
0.0
  0
LINE
  5
230
330
1F
100
AcDbEntity
  8
0
  6
Continuous
 62
     8
370
    18
100
AcDbLine
 10
1290.6107245225
 20
915.2588221385
 30
0.0
 11
1292.6107245225
 21
915.2588221385
 31
0.0
  0
LINE
  5
231
330
1F
100
AcDbEntity
  8
0
  6
Continuous
 62
     8
370
    18
100
AcDbLine
 10
1292.6107245225
 20
913.4462065644
 30
0.0
 11
1290.6107245225
 21
913.4462065644
 31
0.0
  0
LINE
  5
232
330
1F
100
AcDbEntity
  8
0
  6
Continuous
 62
     8
370
    18
100
AcDbLine
 10
1290.6107245225
 20
906.1879072798
 30
0.0
 11
1292.6107245225
 21
906.1879072798
 31
0.0
  0
LINE
  5
233
330
1F
100
AcDbEntity
  8
0
  6
Continuous
 62
     8
370
    18
100
AcDbLine
 10
1292.6107245225
 20
904.3752917058
 30
0.0
 11
1290.6107245225
 21
904.3752917058
 31
0.0
  0
LINE
  5
234
330
1F
100
AcDbEntity
  8
0
  6
Continuous
 62
     8
370
    18
100
AcDbLine
 10
1290.6107245225
 20
870.0846816169
 30
0.0
 11
1292.6107245225
 21
870.0846816169
 31
0.0
  0
LINE
  5
235
330
1F
100
AcDbEntity
  8
0
  6
Continuous
 62
     8
370
    18
100
AcDbLine
 10
408.6107245225
 20
915.2588221385
 30
0.0
 11
410.6107245225
 21
915.2588221385
 31
0.0
  0
LINE
  5
236
330
1F
100
AcDbEntity
  8
0
  6
Continuous
 62
     8
370
    18
100
AcDbLine
 10
410.6107245225
 20
913.4462065644
 30
0.0
 11
408.6107245225
 21
913.4462065644
 31
0.0
  0
LINE
  5
237
330
1F
100
AcDbEntity
  8
0
  6
Continuous
 62
     8
370
    18
100
AcDbLine
 10
408.6107245225
 20
906.1879072798
 30
0.0
 11
410.6107245225
 21
906.1879072798
 31
0.0
  0
LINE
  5
238
330
1F
100
AcDbEntity
  8
0
  6
Continuous
 62
     8
370
    18
100
AcDbLine
 10
410.6107245225
 20
904.3752917058
 30
0.0
 11
408.6107245225
 21
904.3752917058
 31
0.0
  0
LINE
  5
239
330
1F
100
AcDbEntity
  8
0
  6
Continuous
 62
     8
370
    18
100
AcDbLine
 10
408.6107245225
 20
870.0846816169
 30
0.0
 11
410.6107245225
 21
870.0846816169
 31
0.0
  0
LINE
  5
23A
330
1F
100
AcDbEntity
  8
0
  6
Continuous
 62
     8
370
    18
100
AcDbLine
 10
388.1107245225
 20
921.9846816169
 30
0.0
 11
388.1107245225
 21
920.9846816169
 31
0.0
  0
LINE
  5
23B
330
1F
100
AcDbEntity
  8
0
  6
Continuous
 62
     8
370
    18
100
AcDbLine
 10
408.6107245225
 20
922.9846816169
 30
0.0
 11
378.1107245225
 21
922.9846816169
 31
0.0
  0
LINE
  5
23C
330
1F
100
AcDbEntity
  8
0
  6
Continuous
 62
     8
370
    18
100
AcDbLine
 10
1313.1107245225
 20
920.9846816169
 30
0.0
 11
1313.1107245225
 21
921.9846816169
 31
0.0
  0
LINE
  5
23D
330
1F
100
AcDbEntity
  8
0
  6
Continuous
 62
     8
370
    18
100
AcDbLine
 10
1323.1107245225
 20
922.9846816169
 30
0.0
 11
1292.6107245225
 21
922.9846816169
 31
0.0
  0
SPLINE
  5
23E
330
1F
100
AcDbEntity
  8
0
  6
Continuous
 62
     7
370
    35
100
AcDbSpline
210
0.0
220
0.0
230
1.0
 70
     8
 71
     3
 72
    21
 73
    17
 74
     0
 42
0.000000001
 43
0.00000001
 40
0.0
 40
0.0
 40
0.0
 40
0.0
 40
0.019429744641851
 40
0.1063134160557616
 40
0.1971827435476192
 40
0.2431269965632401
 40
0.287760106294321
 40
0.3091647742163148
 40
0.3297204036295111
 40
0.3691429066057426
 40
0.4450527365661092
 40
0.5209828835692919
 40
0.600699112503842
 40
0.7803290563725702
 40
0.9937101053113225
 40
1.0
 40
1.0
 40
1.0
 40
1.0
 10
1600.490006040824
 20
903.2260398626578
 30
0.0
 10
1600.452992545022
 20
903.3151616504026
 30
0.0
 10
1600.250466405254
 20
903.802807879151
 30
0.0
 10
1599.61858084742
 20
904.5772410440773
 30
0.0
 10
1598.756721375486
 20
905.28599837
 30
0.0
 10
1597.978572887602
 20
905.7312143297252
 30
0.0
 10
1597.446841463809
 20
905.9460655670838
 30
0.0
 10
1597.184979318567
 20
906.2922185892901
 30
0.0
 10
1597.059620441834
 20
906.6669995063273
 30
0.0
 10
1597.108243893976
 20
907.2946812657322
 30
0.0
 10
1597.081892914564
 20
908.0916851558198
 30
0.0
 10
1597.090327371666
 20
908.8747547374497
 30
0.0
 10
1597.087276433416
 20
909.7166916123142
 30
0.0
 10
1597.089042276109
 20
910.3025880923229
 30
0.0
 10
1597.08849176756
 20
910.4971637520025
 30
0.0
 10
1597.088494169818
 20
910.4386409280106
 30
0.0
 10
1597.088494238603
 20
910.4369652289231
 30
0.0
  0
ARC
  5
23F
330
1F
100
AcDbEntity
  8
0
  6
Continuous
 62
     7
370
    35
100
AcDbCircle
 10
1548.6519183147
 20
855.5350370489
 30
0.0
 40
14.9999554324657
100
AcDbArc
 50
235.2278938985
 51
269.9820874844
  0
ARC
  5
240
330
1F
100
AcDbEntity
  8
0
  6
Continuous
 62
     7
370
    35
100
AcDbCircle
 10
1588.5250621366
 20
855.5350364391
 30
0.0
 40
14.999954822603
100
AcDbArc
 50
270.017911725
 51
305.1236860193
  0
SPLINE
  5
241
330
1F
100
AcDbEntity
  8
0
  6
Continuous
 62
     7
370
    35
100
AcDbSpline
210
0.0
220
0.0
230
1.0
 70
     8
 71
     3
 72
    14
 73
    10
 74
     0
 42
0.000000001
 43
0.00000001
 40
0.0
 40
0.0
 40
0.0
 40
0.0
 40
0.1910307360020933
 40
0.510095634406726
 40
0.6698730214011371
 40
0.7584351360316937
 40
0.8292863577654063
 40
0.9200950248298144
 40
1.0
 40
1.0
 40
1.0
 40
1.0
 10
1600.946570087549
 20
902.6394226478611
 30
0.0
 10
1600.900105699698
 20
902.684204153071
 30
0.0
 10
1600.776035186784
 20
902.8037809855109
 30
0.0
 10
1600.642476139602
 20
902.9863717654413
 30
0.0
 10
1600.540361859581
 20
903.1431034231676
 30
0.0
 10
1600.499253137666
 20
903.2127445415157
 30
0.0
 10
1600.48066738393
 20
903.2454641991693
 30
0.0
 10
1600.471448976225
 20
903.2623457288064
 30
0.0
 10
1600.472124013888
 20
903.2610944050864
 30
0.0
 10
1600.472439974974
 20
903.2605087050248
 30
0.0
  0
SPLINE
  5
242
330
1F
100
AcDbEntity
  8
0
  6
Continuous
 62
     7
370
    35
100
AcDbSpline
210
0.0
220
0.0
230
1.0
 70
     8
 71
     3
 72
    14
 73
    10
 74
     0
 42
0.000000001
 43
0.00000001
 40
0.0
 40
0.0
 40
0.0
 40
0.0
 40
0.0318510699574643
 40
0.1445183584995883
 40
0.2397810598284332
 40
0.3260834741504019
 40
0.5119178317015174
 40
0.8180500484191506
 40
0.9999999999999999
 40
0.9999999999999999
 40
0.9999999999999999
 40
0.9999999999999999
 10
1536.703775630965
 20
903.2588830975798
 30
0.0
 10
1536.704619174373
 20
903.2605316581396
 30
0.0
 10
1536.708446597082
 20
903.2680116977841
 30
0.0
 10
1536.699383521404
 20
903.2508289576723
 30
0.0
 10
1536.678318777411
 20
903.2136346446747
 30
0.0
 10
1536.62579963002
 20
903.1251964346935
 30
0.0
 10
1536.512658746289
 20
902.955995902313
 30
0.0
 10
1536.370254476078
 20
902.7652907920324
 30
0.0
 10
1536.24153737583
 20
902.6497339277498
 30
0.0
 10
1536.193553508197
 20
902.6066560051647
 30
0.0
  0
SPLINE
  5
243
330
1F
100
AcDbEntity
  8
0
  6
Continuous
 62
     7
370
    35
100
AcDbSpline
210
0.0
220
0.0
230
1.0
 70
     8
 71
     3
 72
    12
 73
     8
 74
     0
 42
0.000000001
 43
0.00000001
 40
0.0
 40
0.0
 40
0.0
 40
0.0
 40
0.1423628141254219
 40
0.2495218665637602
 40
0.3688819399927181
 40
0.6085285389992726
 40
0.9999999999999999
 40
0.9999999999999999
 40
0.9999999999999999
 40
0.9999999999999999
 10
1596.235892443992
 20
842.6834045262556
 30
0.0
 10
1596.236337407456
 20
842.683663796464
 30
0.0
 10
1596.237117302927
 20
842.6841182240247
 30
0.0
 10
1596.252567992268
 20
842.6929404305803
 30
0.0
 10
1596.285375693297
 20
842.7110450395577
 30
0.0
 10
1596.352830578417
 20
842.7484900561408
 30
0.0
 10
1596.414472807487
 20
842.7728981148057
 30
0.0
 10
1596.452708400797
 20
842.7880380054081
 30
0.0
  0
SPLINE
  5
244
330
1F
100
AcDbEntity
  8
0
  6
Continuous
 62
     7
370
    35
100
AcDbSpline
210
0.0
220
0.0
230
1.0
 70
     8
 71
     3
 72
    13
 73
     9
 74
     0
 42
0.000000001
 43
0.00000001
 40
0.0
 40
0.0
 40
0.0
 40
0.0
 40
0.2312645381078001
 40
0.5779681622188402
 40
0.7146434851214215
 40
0.8157376923625268
 40
0.9213272834866227
 40
1.0
 40
1.0
 40
1.0
 40
1.0
 10
1540.741088016346
 20
842.7848993144318
 30
0.0
 10
1540.762092792304
 20
842.7757951954928
 30
0.0
 10
1540.814587186204
 20
842.7530425031224
 30
0.0
 10
1540.877333304628
 20
842.718876323587
 30
0.0
 10
1540.919516816261
 20
842.6956809728982
 30
0.0
 10
1540.934885661206
 20
842.6869677374003
 30
0.0
 10
1540.941506410813
 20
842.6831672102012
 30
0.0
 10
1540.941096195519
 20
842.6834036247668
 30
0.0
 10
1540.940921049815
 20
842.6835045644344
 30
0.0
  0
LINE
  5
245
330
1F
100
AcDbEntity
  8
0
  6
Continuous
 62
     7
370
    35
100
AcDbLine
 10
1540.7522977812
 20
842.7976146582
 30
0.0
 11
1540.6260099444
 21
842.8763162245
 31
0.0
  0
ARC
  5
246
330
1F
100
AcDbEntity
  8
0
  6
Continuous
 62
     7
370
    35
100
AcDbCircle
 10
1600.0884901221
 20
853.5350816169
 30
0.0
 40
13.00000000000011
100
AcDbArc
 50
270.0
 51
360.0
  0
LINE
  5
247
330
1F
100
AcDbEntity
  8
0
  6
Continuous
 62
     7
370
    35
100
AcDbLine
 10
1588.0871896708
 20
840.5350816169
 30
0.0
 11
1600.0884901221
 21
840.5350816169
 31
0.0
  0
SPLINE
  5
248
330
1F
100
AcDbEntity
  8
0
  6
Continuous
 62
     7
370
    35
100
AcDbSpline
210
0.0
220
0.0
230
1.0
 70
     8
 71
     3
 72
    10
 73
     6
 74
     0
 42
0.000000001
 43
0.00000001
 40
0.0
 40
0.0
 40
0.0
 40
0.0
 40
0.2436274804764304
 40
0.6116704234590354
 40
1.0
 40
1.0
 40
1.0
 40
1.0
 10
1597.088509761469
 20
907.1200496038427
 30
0.0
 10
1597.088508342079
 20
907.5983183177743
 30
0.0
 10
1597.088504778444
 20
908.7990975821074
 30
0.0
 10
1597.088498502039
 20
910.1663659930257
 30
0.0
 10
1597.088497047915
 20
910.707339929672
 30
0.0
 10
1597.088496301352
 20
910.9850816168897
 30
0.0
  0
LINE
  5
249
330
1F
100
AcDbEntity
  8
0
  6
Continuous
 62
     7
370
    35
100
AcDbLine
 10
1634.0884901221
 20
920.9846816169
 30
0.0
 11
1634.0634901221
 21
920.9846816169
 31
0.0
  0
LINE
  5
24A
330
1F
100
AcDbEntity
  8
0
  6
Continuous
 62
     7
370
    35
100
AcDbLine
 10
1634.0884901221
 20
921.9846816169
 30
0.0
 11
1634.0634901221
 21
921.9846816169
 31
0.0
  0
LINE
  5
24B
330
1F
100
AcDbEntity
  8
0
  6
Continuous
 62
     7
370
    35
100
AcDbLine
 10
1634.0884901221
 20
920.9846816169
 30
0.0
 11
1634.0884901221
 21
921.9846816169
 31
0.0
  0
ARC
  5
24C
330
1F
100
AcDbEntity
  8
0
  6
Continuous
 62
     7
370
    35
100
AcDbCircle
 10
1604.5884901221
 20
922.9846816169
 30
0.0
 40
1.000000000000227
100
AcDbArc
 50
180.0
 51
270.0
  0
LINE
  5
24D
330
1F
100
AcDbEntity
  8
0
  6
Continuous
 62
     7
370
    35
100
AcDbLine
 10
1601.5884901221
 20
919.6466001062
 30
0.0
 11
1601.5884901221
 21
920.9846816169
 31
0.0
  0
LINE
  5
24E
330
1F
100
AcDbEntity
  8
0
  6
Continuous
 62
     7
370
    35
100
AcDbLine
 10
1519.0634901221
 20
964.4846816169
 30
0.0
 11
1519.0884901221
 21
964.4846816169
 31
0.0
  0
LINE
  5
24F
330
1F
100
AcDbEntity
  8
0
  6
Continuous
 62
     7
370
    35
100
AcDbLine
 10
1519.0884901221
 20
934.9846816169
 30
0.0
 11
1519.0884901221
 21
964.4846816169
 31
0.0
  0
ARC
  5
250
330
1F
100
AcDbEntity
  8
0
  6
Continuous
 62
     7
370
    35
100
AcDbCircle
 10
1520.0884901221
 20
934.9846816169
 30
0.0
 40
0.9999999999998863
100
AcDbArc
 50
180.0
 51
270.0
  0
LINE
  5
251
330
1F
100
AcDbEntity
  8
0
  6
Continuous
 62
     7
370
    35
100
AcDbLine
 10
1535.5884901221
 20
920.9846816169
 30
0.0
 11
1535.5884901221
 21
919.6466001062
 31
0.0
  0
LWPOLYLINE
  5
252
330
1F
100
AcDbEntity
  8
0
  6
Continuous
 62
     7
370
    35
100
AcDbPolyline
 90
        3
 70
   128
 43
0.0
 10
1535.5884901221
 20
919.6466001062
 10
1535.6242023551
 20
919.2703374736
 10
1535.6884901221
 20
919.0221003063
  0
ARC
  5
253
330
1F
100
AcDbEntity
  8
0
  6
Continuous
 62
     7
370
    35
100
AcDbCircle
 10
1599.5884901221
 20
919.6466001062
 30
0.0
 40
1.999999999999859
100
AcDbArc
 50
337.6683549908
 51
0.0
  0
LINE
  5
254
330
1F
100
AcDbEntity
  8
0
  6
Continuous
 62
     7
370
    35
100
AcDbLine
 10
1596.5884901221
 20
911.7230894748
 30
0.0
 11
1596.5884901221
 21
910.9850816169
 31
0.0
  0
LINE
  5
255
330
1F
100
AcDbEntity
  8
0
  6
Continuous
 62
     7
370
    35
100
AcDbLine
 10
1540.5884901221
 20
911.6997740919
 30
0.0
 11
1540.5884901221
 21
910.9850816169
 31
0.0
  0
LINE
  5
256
330
1F
100
AcDbEntity
  8
0
  6
Continuous
 62
     7
370
    35
100
AcDbLine
 10
1540.5884901221
 20
910.9850816169
 30
0.0
 11
1542.1211530809
 21
910.9850816169
 31
0.0
  0
LINE
  5
257
330
1F
100
AcDbEntity
  8
0
  6
Continuous
 62
     7
370
    35
100
AcDbLine
 10
1595.0058271633
 20
910.9850816169
 30
0.0
 11
1596.587235998
 21
910.9850816169
 31
0.0
  0
SPLINE
  5
258
330
1F
100
AcDbEntity
  8
0
  6
Continuous
 62
     7
370
    35
100
AcDbSpline
210
0.0
220
0.0
230
1.0
 70
     8
 71
     3
 72
    12
 73
     8
 74
     0
 42
0.000000001
 43
0.00000001
 40
0.0
 40
0.0
 40
0.0
 40
0.0
 40
0.0000113964157658
 40
0.0165615426249112
 40
0.2254762501766455
 40
0.6569695733823875
 40
1.0
 40
1.0
 40
1.0
 40
1.0
 10
1600.481117373465
 20
902.9411512215479
 30
0.0
 10
1600.481122564772
 20
902.9411374128929
 30
0.0
 10
1600.488666695009
 20
902.9210703466706
 30
0.0
 10
1600.592723661062
 20
902.6443713677064
 30
0.0
 10
1600.945061454358
 20
901.7081356732454
 30
0.0
 10
1601.524920276864
 20
900.1331546262325
 30
0.0
 10
1601.959702338373
 20
898.8813902714568
 30
0.0
 10
1602.152263865478
 20
898.3269937655506
 30
0.0
  0
SPLINE
  5
259
330
1F
100
AcDbEntity
  8
0
  6
Continuous
 62
     7
370
    35
100
AcDbSpline
210
0.0
220
0.0
230
1.0
 70
     8
 71
     3
 72
    15
 73
    11
 74
     0
 42
0.000000001
 43
0.00000001
 40
0.0
 40
0.0
 40
0.0
 40
0.0
 40
0.1214527241786875
 40
0.2436356162157024
 40
0.3679634748124441
 40
0.492999645184968
 40
0.618586543380512
 40
0.7450337263104021
 40
0.8719902588119044
 40
1.0
 40
1.0
 40
1.0
 40
1.0
 10
1605.326844170672
 20
887.5480433504722
 30
0.0
 10
1605.65829036893
 20
886.0746565955313
 30
0.0
 10
1606.323175403836
 20
883.1190251562897
 30
0.0
 10
1606.887880382885
 20
878.5740711620548
 30
0.0
 10
1607.149495062812
 20
873.9603399542639
 30
0.0
 10
1607.055528624142
 20
869.2962319750666
 30
0.0
 10
1606.592379041826
 20
864.6272123257445
 30
0.0
 10
1605.730904556503
 20
859.9921877765133
 30
0.0
 10
1604.490710934783
 20
855.4066813262051
 30
0.0
 10
1603.311821042467
 20
852.4626523013851
 30
0.0
 10
1602.719941230989
 20
850.9845572260487
 30
0.0
  0
SPLINE
  5
25A
330
1F
100
AcDbEntity
  8
0
  6
Continuous
 62
     7
370
    35
100
AcDbSpline
210
0.0
220
0.0
230
1.0
 70
    24
 71
     3
 72
    10
 73
     6
 74
     0
 42
0.000000001
 43
0.00000001
 40
0.0
 40
0.0
 40
0.0
 40
0.0
 40
0.1892744005188116
 40
0.5530594203474267
 40
1.0
 40
1.0
 40
1.0
 40
1.0
 10
1568.58849012207
 20
880.3137335435312
 30
0.0
 10
1568.58849012207
 20
879.7834802846985
 30
0.0
 10
1568.58849012207
 20
878.23408132127
 30
0.0
 10
1568.58849012207
 20
875.4217401668528
 30
0.0
 10
1568.58849012207
 20
873.1511320041594
 30
0.0
 10
1568.58849012207
 20
871.8993805742707
 30
0.0
  0
SPLINE
  5
25B
330
1F
100
AcDbEntity
  8
0
  6
Continuous
 62
     7
370
    35
100
AcDbSpline
210
0.0
220
0.0
230
1.0
 70
    24
 71
     3
 72
    10
 73
     6
 74
     0
 42
0.000000001
 43
0.00000001
 40
0.0
 40
0.0
 40
0.0
 40
0.0
 40
0.3006654806480856
 40
0.6482485604421757
 40
0.9999999999999999
 40
0.9999999999999999
 40
0.9999999999999999
 40
0.9999999999999999
 10
1568.58849012207
 20
868.0846816168901
 30
0.0
 10
1568.58849012207
 20
866.0798998382155
 30
0.0
 10
1568.58849012207
 20
861.7574984131322
 30
0.0
 10
1568.58849012207
 20
855.2696373114002
 30
0.0
 10
1568.58849012207
 20
850.9791290084398
 30
0.0
 10
1568.58849012207
 20
848.8210881421035
 30
0.0
  0
SPLINE
  5
25C
330
1F
100
AcDbEntity
  8
0
  6
Continuous
 62
     7
370
    35
100
AcDbSpline
210
0.0
220
0.0
230
1.0
 70
    24
 71
     3
 72
    13
 73
     9
 74
     0
 42
0.000000001
 43
0.00000001
 40
0.0
 40
0.0
 40
0.0
 40
0.0
 40
0.3691963150658386
 40
0.7482499823834035
 40
0.8262738878666142
 40
0.9040766895823271
 40
0.9808985752244046
 40
1.0
 40
1.0
 40
1.0
 40
1.0
 10
1597.088490122069
 20
910.9850816168899
 30
0.0
 10
1597.100316544022
 20
910.98508161689
 30
0.0
 10
1597.124285147331
 20
910.98508161689
 30
0.0
 10
1596.989850610328
 20
910.9850816168897
 30
0.0
 10
1597.154051934055
 20
910.98508161689
 30
0.0
 10
1596.83903323442
 20
910.9850816168895
 30
0.0
 10
1596.038997302372
 20
910.9850816168897
 30
0.0
 10
1595.177399144401
 20
910.98508161689
 30
0.0
 10
1595.005827163309
 20
910.98508161689
 30
0.0
  0
SPLINE
  5
25D
330
1F
100
AcDbEntity
  8
0
  6
Continuous
 62
     7
370
    35
100
AcDbSpline
210
0.0
220
0.0
230
1.0
 70
     8
 71
     3
 72
    12
 73
     8
 74
     0
 42
0.000000001
 43
0.00000001
 40
0.0
 40
0.0
 40
0.0
 40
0.0
 40
0.000011396415745
 40
0.0165615426248907
 40
0.2254762501766299
 40
0.6569695733823796
 40
1.0
 40
1.0
 40
1.0
 40
1.0
 10
1536.695862870673
 20
902.9411512215474
 30
0.0
 10
1536.695857679367
 20
902.9411374128923
 30
0.0
 10
1536.688313549121
 20
902.9210703466416
 30
0.0
 10
1536.584256583134
 20
902.6443713678826
 30
0.0
 10
1536.231918789727
 20
901.7081356730788
 30
0.0
 10
1535.652059967288
 20
900.1331546262725
 30
0.0
 10
1535.21727790577
 20
898.8813902714686
 30
0.0
 10
1535.02471637866
 20
898.32699376555
 30
0.0
  0
SPLINE
  5
25E
330
1F
100
AcDbEntity
  8
0
  6
Continuous
 62
     7
370
    35
100
AcDbSpline
210
0.0
220
0.0
230
1.0
 70
     8
 71
     3
 72
     9
 73
     5
 74
     0
 42
0.000000001
 43
0.00000001
 40
0.0
 40
0.0
 40
0.0
 40
0.0
 40
0.1562903953766455
 40
1.0
 40
1.0
 40
1.0
 40
1.0
 10
1536.705158657424
 20
903.2607519199157
 30
0.0
 10
1536.710954011289
 20
903.2727449580747
 30
0.0
 10
1536.74803468954
 20
903.3494805638048
 30
0.0
 10
1536.753935306676
 20
903.3550544411381
 30
0.0
 10
1536.758913714026
 20
903.3597571749791
 30
0.0
  0
SPLINE
  5
25F
330
1F
100
AcDbEntity
  8
0
  6
Continuous
 62
     7
370
    35
100
AcDbSpline
210
0.0
220
0.0
230
1.0
 70
     8
 71
     3
 72
    11
 73
     7
 74
     0
 42
0.000000001
 43
0.00000001
 40
0.0
 40
0.0
 40
0.0
 40
0.0
 40
0.040299924921764
 40
0.2187640754571676
 40
0.4992077406776825
 40
1.0
 40
1.0
 40
1.0
 40
1.0
 10
1540.067839016778
 20
906.8780367249814
 30
0.0
 10
1540.075414843078
 20
906.9327509733446
 30
0.0
 10
1540.116539451612
 20
907.2297617489418
 30
0.0
 10
1540.070761418245
 20
907.9162659195796
 30
0.0
 10
1540.098593255968
 20
909.2287807568507
 30
0.0
 10
1540.092436658748
 20
910.2990265934371
 30
0.0
 10
1540.088490122069
 20
910.9850816168899
 30
0.0
  0
SPLINE
  5
260
330
1F
100
AcDbEntity
  8
0
  6
Continuous
 62
     7
370
    35
100
AcDbSpline
210
0.0
220
0.0
230
1.0
 70
    24
 71
     3
 72
    13
 73
     9
 74
     0
 42
0.000000001
 43
0.00000001
 40
0.0
 40
0.0
 40
0.0
 40
0.0
 40
0.3699056295798923
 40
0.7496875497452301
 40
0.8278613578313221
 40
0.9058136373566421
 40
0.9827831162336977
 40
1.0
 40
1.0
 40
1.0
 40
1.0
 10
1540.088490122069
 20
910.9850816168899
 30
0.0
 10
1540.076585894737
 20
910.98508161689
 30
0.0
 10
1540.052459603308
 20
910.9850816168902
 30
0.0
 10
1540.187778743338
 20
910.9850816168902
 30
0.0
 10
1540.022497188608
 20
910.9850816168906
 30
0.0
 10
1540.339616055178
 20
910.9850816168896
 30
0.0
 10
1541.125008541251
 20
910.9850816168897
 30
0.0
 10
1541.96720330553
 20
910.98508161689
 30
0.0
 10
1542.121153080828
 20
910.98508161689
 30
0.0
  0
SPLINE
  5
261
330
1F
100
AcDbEntity
  8
0
  6
Continuous
 62
     7
370
    35
100
AcDbSpline
210
0.0
220
0.0
230
1.0
 70
     8
 71
     3
 72
    15
 73
    11
 74
     0
 42
0.000000001
 43
0.00000001
 40
0.0
 40
0.0
 40
0.0
 40
0.0
 40
0.1214527241786881
 40
0.2436356162157029
 40
0.3679634748124445
 40
0.4929996451849683
 40
0.6185865433805124
 40
0.7450337263104025
 40
0.871990258811905
 40
1.0
 40
1.0
 40
1.0
 40
1.0
 10
1531.850136073466
 20
887.5480433504716
 30
0.0
 10
1531.518689875208
 20
886.0746565955308
 30
0.0
 10
1530.853804840302
 20
883.1190251562891
 30
0.0
 10
1530.289099861253
 20
878.5740711620542
 30
0.0
 10
1530.027485181326
 20
873.9603399542634
 30
0.0
 10
1530.121451619996
 20
869.296231975066
 30
0.0
 10
1530.584601202313
 20
864.6272123257439
 30
0.0
 10
1531.446075687635
 20
859.9921877765127
 30
0.0
 10
1532.686269309355
 20
855.4066813262045
 30
0.0
 10
1533.865159201671
 20
852.4626523013845
 30
0.0
 10
1534.457039013149
 20
850.9845572260481
 30
0.0
  0
LINE
  5
262
330
1F
100
AcDbEntity
  8
0
  6
Continuous
 62
     7
370
    35
100
AcDbLine
 10
1541.5130774953
 20
842.4321931586
 30
0.0
 11
1540.997639855
 21
842.6507112
 31
0.0
  0
SPLINE
  5
263
330
1F
100
AcDbEntity
  8
0
  6
Continuous
 62
     7
370
    35
100
AcDbSpline
210
0.0
220
0.0
230
1.0
 70
    24
 71
     3
 72
    14
 73
    10
 74
     0
 42
0.000000001
 43
0.00000001
 40
0.0
 40
0.0
 40
0.0
 40
0.0
 40
0.1497838616746357
 40
0.3039198677007078
 40
0.4537011775423317
 40
0.6078081864720632
 40
0.757933700022959
 40
0.9123691506710973
 40
1.0
 40
1.0
 40
1.0
 40
1.0
 10
1568.58849012207
 20
848.8210881421035
 30
0.0
 10
1568.58849012207
 20
848.0959736292624
 30
0.0
 10
1568.58849012207
 20
846.6246755578508
 30
0.0
 10
1568.58849012207
 20
844.730236761101
 30
0.0
 10
1568.58849012207
 20
843.1137576321565
 30
0.0
 10
1568.58849012207
 20
841.8636859754611
 30
0.0
 10
1568.58849012207
 20
840.9957883651782
 30
0.0
 10
1568.58849012207
 20
840.5876669513677
 30
0.0
 10
1568.588490122069
 20
840.5490583756589
 30
0.0
 10
1568.588490122069
 20
840.5350816168904
 30
0.0
  0
SPLINE
  5
264
330
1F
100
AcDbEntity
  8
0
  6
Continuous
 62
     7
370
    35
100
AcDbSpline
210
0.0
220
0.0
230
1.0
 70
    24
 71
     3
 72
    18
 73
    14
 74
     0
 42
0.000000001
 43
0.00000001
 40
0.0
 40
0.0
 40
0.0
 40
0.0
 40
0.0528858667102705
 40
0.1296739535442344
 40
0.2088264841310121
 40
0.2780198271462979
 40
0.3488116530585326
 40
0.4119722453844716
 40
0.4765946606108314
 40
0.539579498573003
 40
0.6046207084834262
 40
0.8595628981179259
 40
1.0
 40
1.0
 40
1.0
 40
1.0
 10
1568.588490122069
 20
840.5350816168904
 30
0.0
 10
1567.701395413352
 20
840.5350816168904
 30
0.0
 10
1565.526275949438
 20
840.5350816168904
 30
0.0
 10
1562.162680271029
 20
840.5350816168904
 30
0.0
 10
1558.800712677998
 20
840.5350816168904
 30
0.0
 10
1555.861610446417
 20
840.5350816168904
 30
0.0
 10
1553.485264806242
 20
840.5350816168905
 30
0.0
 10
1551.550370874573
 20
840.5350816168902
 30
0.0
 10
1550.124311428136
 20
840.5350816168904
 30
0.0
 10
1549.158959802268
 20
840.5350816168904
 30
0.0
 10
1548.682359978388
 20
840.5350816168905
 30
0.0
 10
1548.673210700839
 20
840.5350816168897
 30
0.0
 10
1548.679253947358
 20
840.5350816168898
 30
0.0
 10
1548.681400483722
 20
840.5350816168898
 30
0.0
  0
SPLINE
  5
265
330
1F
100
AcDbEntity
  8
0
  6
Continuous
 62
     7
370
    35
100
AcDbSpline
210
0.0
220
0.0
230
1.0
 70
     8
 71
     3
 72
     9
 73
     5
 74
     0
 42
0.000000001
 43
0.00000001
 40
0.0
 40
0.0
 40
0.0
 40
0.0
 40
0.4409399556719172
 40
1.0
 40
1.0
 40
1.0
 40
1.0
 10
1540.626774467296
 20
842.8774246909712
 30
0.0
 10
1540.554307643042
 20
842.9227499166873
 30
0.0
 10
1540.38996140197
 20
843.0255422019706
 30
0.0
 10
1540.205739197327
 20
843.1525523357577
 30
0.0
 10
1540.102747923434
 20
843.223558626783
 30
0.0
  0
LINE
  5
266
330
1F
100
AcDbEntity
  8
0
  6
Continuous
 62
     7
370
    35
100
AcDbLine
 10
1595.6639027489
 20
842.4321931586
 30
0.0
 11
1596.1793403891
 21
842.6507112
 31
0.0
  0
SPLINE
  5
267
330
1F
100
AcDbEntity
  8
0
  6
Continuous
 62
     7
370
    35
100
AcDbSpline
210
0.0
220
0.0
230
1.0
 70
     8
 71
     3
 72
    10
 73
     6
 74
     0
 42
0.000000001
 43
0.00000001
 40
0.0
 40
0.0
 40
0.0
 40
0.0
 40
0.3651912706399292
 40
0.9388408861848648
 40
1.0
 40
1.0
 40
1.0
 40
1.0
 10
1596.559396986982
 20
842.8832686315077
 30
0.0
 10
1596.628901314236
 20
842.9271547031115
 30
0.0
 10
1596.807584402902
 20
843.0399778773441
 30
0.0
 10
1597.022973753117
 20
843.1825519510869
 30
0.0
 10
1597.156804237976
 20
843.2809625851546
 30
0.0
 10
1597.169697812807
 20
843.2904437200086
 30
0.0
  0
SPLINE
  5
268
330
1F
100
AcDbEntity
  8
0
  6
Continuous
 62
     7
370
    35
100
AcDbSpline
210
0.0
220
0.0
230
1.0
 70
    24
 71
     3
 72
    18
 73
    14
 74
     0
 42
0.000000001
 43
0.00000001
 40
0.0
 40
0.0
 40
0.0
 40
0.0
 40
0.0528900501225385
 40
0.1308503043354518
 40
0.2088349706568545
 40
0.2788361590001405
 40
0.3488290097785821
 40
0.4127449371310012
 40
0.4766197031471391
 40
0.540564108872812
 40
0.6045882679846258
 40
0.8596063559736877
 40
1.0
 40
1.0
 40
1.0
 40
1.0
 10
1568.588490122069
 20
840.5350816168904
 30
0.0
 10
1569.47564406801
 20
840.5350816168904
 30
0.0
 10
1571.670468303376
 20
840.5350816168904
 30
0.0
 10
1575.031180836623
 20
840.5350816168904
 30
0.0
 10
1578.404680504077
 20
840.5350816168904
 30
0.0
 10
1581.324384227726
 20
840.5350816168905
 30
0.0
 10
1583.709591317874
 20
840.5350816168904
 30
0.0
 10
1585.629622381503
 20
840.5350816168904
 30
0.0
 10
1587.072420730969
 20
840.5350816168904
 30
0.0
 10
1587.989326278392
 20
840.5350816168904
 30
0.0
 10
1588.531500291924
 20
840.5350816168905
 30
0.0
 10
1588.501769374606
 20
840.5350816168902
 30
0.0
 10
1588.498291112857
 20
840.5350816168901
 30
0.0
 10
1588.497056132198
 20
840.5350816168899
 30
0.0
  0
SPLINE
  5
269
330
1F
100
AcDbEntity
  8
0
  6
Continuous
 62
     7
370
    35
100
AcDbSpline
210
0.0
220
0.0
230
1.0
 70
     8
 71
     3
 72
    14
 73
    10
 74
     0
 42
0.000000001
 43
0.00000001
 40
0.0
 40
0.0
 40
0.0
 40
0.0
 40
0.12969690086605
 40
0.2603671951156624
 40
0.3853421446376495
 40
0.5111847557259611
 40
0.6397642884787726
 40
0.7692911603858882
 40
1.0
 40
1.0
 40
1.0
 40
1.0
 10
1603.908605011515
 20
850.4753538366498
 30
0.0
 10
1604.522921734177
 20
852.0094048205978
 30
0.0
 10
1605.756165712437
 20
855.0890200557174
 30
0.0
 10
1607.07503972011
 20
859.8248834470859
 30
0.0
 10
1608.006815011206
 20
864.5962225185106
 30
0.0
 10
1608.531469208964
 20
869.4053692059682
 30
0.0
 10
1608.642780187116
 20
874.296749460867
 30
0.0
 10
1608.298110608573
 20
880.5257758728842
 30
0.0
 10
1607.318655146005
 20
885.0167323533135
 30
0.0
 10
1606.691374101968
 20
887.892914045523
 30
0.0
  0
SPLINE
  5
26A
330
1F
100
AcDbEntity
  8
0
  6
Continuous
 62
     7
370
    35
100
AcDbSpline
210
0.0
220
0.0
230
1.0
 70
     8
 71
     3
 72
    14
 73
    10
 74
     0
 42
0.000000001
 43
0.00000001
 40
0.0
 40
0.0
 40
0.0
 40
0.0
 40
0.12969690086605
 40
0.2603671951156623
 40
0.3853421446376495
 40
0.5111847557259608
 40
0.6397642884787725
 40
0.7692911603858877
 40
1.0
 40
1.0
 40
1.0
 40
1.0
 10
1533.268375232623
 20
850.4753538366492
 30
0.0
 10
1532.654058509961
 20
852.009404820597
 30
0.0
 10
1531.420814531701
 20
855.0890200557168
 30
0.0
 10
1530.101940524027
 20
859.8248834470853
 30
0.0
 10
1529.170165232932
 20
864.59622251851
 30
0.0
 10
1528.645511035174
 20
869.4053692059676
 30
0.0
 10
1528.534200057022
 20
874.2967494608664
 30
0.0
 10
1528.878869635565
 20
880.5257758728835
 30
0.0
 10
1529.858325098133
 20
885.016732353313
 30
0.0
 10
1530.48560614217
 20
887.8929140455225
 30
0.0
  0
SPLINE
  5
26B
330
1F
100
AcDbEntity
  8
0
  6
Continuous
 62
     7
370
    35
100
AcDbSpline
210
0.0
220
0.0
230
1.0
 70
     8
 71
     3
 72
    10
 73
     6
 74
     0
 42
0.000000001
 43
0.00000001
 40
0.0
 40
0.0
 40
0.0
 40
0.0
 40
0.3422812336044874
 40
0.6664353245308162
 40
1.0
 40
1.0
 40
1.0
 40
1.0
 10
1597.169697812807
 20
843.2904437200086
 30
0.0
 10
1597.934598436863
 20
843.6933576979858
 30
0.0
 10
1599.423890707604
 20
844.4778474137777
 30
0.0
 10
1601.284857667144
 20
846.2565273385972
 30
0.0
 10
1602.261705572245
 20
847.6155082122708
 30
0.0
 10
1602.757117853444
 20
848.3047207408715
 30
0.0
  0
SPLINE
  5
26C
330
1F
100
AcDbEntity
  8
0
  6
Continuous
 62
     7
370
    35
100
AcDbSpline
210
0.0
220
0.0
230
1.0
 70
     8
 71
     3
 72
    10
 73
     6
 74
     0
 42
0.000000001
 43
0.00000001
 40
0.0
 40
0.0
 40
0.0
 40
0.0
 40
0.3422812336046022
 40
0.6664353245308751
 40
0.9999999999999999
 40
0.9999999999999999
 40
0.9999999999999999
 40
0.9999999999999999
 10
1540.007282431332
 20
843.2904437200076
 30
0.0
 10
1539.242381807276
 20
843.6933576979849
 30
0.0
 10
1537.753089536535
 20
844.4778474137768
 30
0.0
 10
1535.892122576995
 20
846.2565273385968
 30
0.0
 10
1534.915274671893
 20
847.6155082122702
 30
0.0
 10
1534.419862390694
 20
848.3047207408708
 30
0.0
  0
SPLINE
  5
26D
330
1F
100
AcDbEntity
  8
0
  6
Continuous
 62
     7
370
    35
100
AcDbSpline
210
0.0
220
0.0
230
1.0
 70
     8
 71
     3
 72
     9
 73
     5
 74
     0
 42
0.000000001
 43
0.00000001
 40
0.0
 40
0.0
 40
0.0
 40
0.0
 40
0.8536363424240552
 40
1.0
 40
1.0
 40
1.0
 40
1.0
 10
1606.691374101968
 20
887.892914045523
 30
0.0
 10
1605.819385178413
 20
891.0039949278226
 30
0.0
 10
1604.79788588156
 20
894.6484987143712
 30
0.0
 10
1603.573770425139
 20
898.2286142725764
 30
0.0
 10
1603.394604409642
 20
898.7526130802199
 30
0.0
  0
SPLINE
  5
26E
330
1F
100
AcDbEntity
  8
0
  6
Continuous
 62
     7
370
    35
100
AcDbSpline
210
0.0
220
0.0
230
1.0
 70
     8
 71
     3
 72
     9
 73
     5
 74
     0
 42
0.000000001
 43
0.00000001
 40
0.0
 40
0.0
 40
0.0
 40
0.0
 40
0.853636342424056
 40
0.9999999999999999
 40
0.9999999999999999
 40
0.9999999999999999
 40
0.9999999999999999
 10
1530.48560614217
 20
887.8929140455225
 30
0.0
 10
1531.357595065725
 20
891.0039949278222
 30
0.0
 10
1532.379094362579
 20
894.6484987143705
 30
0.0
 10
1533.603209819
 20
898.2286142725758
 30
0.0
 10
1533.782375834496
 20
898.7526130802194
 30
0.0
  0
SPLINE
  5
26F
330
1F
100
AcDbEntity
  8
0
  6
Continuous
 62
     7
370
    35
100
AcDbSpline
210
0.0
220
0.0
230
1.0
 70
     8
 71
     3
 72
     9
 73
     5
 74
     0
 42
0.000000001
 43
0.00000001
 40
0.0
 40
0.0
 40
0.0
 40
0.0
 40
0.6310361367051674
 40
1.0
 40
1.0
 40
1.0
 40
1.0
 10
1603.394604409642
 20
898.7526130802199
 30
0.0
 10
1602.986822813069
 20
899.6890944583039
 30
0.0
 10
1602.340613233533
 20
901.1731320967402
 30
0.0
 10
1601.237748259625
 20
902.3173040536993
 30
0.0
 10
1600.830830938159
 20
902.7394621592125
 30
0.0
  0
SPLINE
  5
270
330
1F
100
AcDbEntity
  8
0
  6
Continuous
 62
     7
370
    35
100
AcDbSpline
210
0.0
220
0.0
230
1.0
 70
     8
 71
     3
 72
     9
 73
     5
 74
     0
 42
0.000000001
 43
0.00000001
 40
0.0
 40
0.0
 40
0.0
 40
0.0
 40
0.6310361367051666
 40
1.0
 40
1.0
 40
1.0
 40
1.0
 10
1533.782375834496
 20
898.7526130802194
 30
0.0
 10
1534.190157431069
 20
899.6890944583033
 30
0.0
 10
1534.836367010605
 20
901.1731320967397
 30
0.0
 10
1535.939231984514
 20
902.3173040536988
 30
0.0
 10
1536.34614930598
 20
902.7394621592119
 30
0.0
  0
LINE
  5
271
330
1F
100
AcDbEntity
  8
0
  6
Continuous
 62
     7
370
    35
100
AcDbLine
 10
1602.7571178534
 20
848.3047207409
 30
0.0
 11
1603.9086050115
 21
850.4753538366
 31
0.0
  0
LINE
  5
272
330
1F
100
AcDbEntity
  8
0
  6
Continuous
 62
     7
370
    35
100
AcDbLine
 10
1534.4198623907
 20
848.3047207409
 30
0.0
 11
1533.2683752326
 21
850.4753538366
 31
0.0
  0
LINE
  5
273
330
1F
100
AcDbEntity
  8
0
  6
Continuous
 62
     7
370
    35
100
AcDbLine
 10
1596.4505827709
 20
842.7941701737
 30
0.0
 11
1595.9576154282
 21
842.5756521323
 31
0.0
  0
LINE
  5
274
330
1F
100
AcDbEntity
  8
0
  6
Continuous
 62
     7
370
    35
100
AcDbLine
 10
1540.7263974732
 20
842.7941701737
 30
0.0
 11
1541.2193648159
 21
842.5756521323
 31
0.0
  0
LINE
  5
275
330
1F
100
AcDbEntity
  8
0
  6
Continuous
 62
     7
370
    35
100
AcDbLine
 10
1600.8308309382
 20
902.7394621592
 30
0.0
 11
1600.9759001082
 21
902.598752682
 31
0.0
  0
LINE
  5
276
330
1F
100
AcDbEntity
  8
0
  6
Continuous
 62
     7
370
    35
100
AcDbLine
 10
1536.346149306
 20
902.7394621592
 30
0.0
 11
1536.201080136
 21
902.598752682
 31
0.0
  0
SPLINE
  5
277
330
1F
100
AcDbEntity
  8
0
  6
Continuous
 62
     7
370
    35
100
AcDbSpline
210
0.0
220
0.0
230
1.0
 70
     8
 71
     3
 72
    21
 73
    17
 74
     0
 42
0.000000001
 43
0.00000001
 40
0.0
 40
0.0
 40
0.0
 40
0.0
 40
0.0385875042305096
 40
0.113755585959737
 40
0.1905584151145975
 40
0.2679261122717627
 40
0.3425758673548958
 40
0.4177439138170735
 40
0.494546585997878
 40
0.5719140750339161
 40
0.6465659329143845
 40
0.7217360672759291
 40
0.7985407486308741
 40
0.8759102056376796
 40
0.9905374157361692
 40
0.9999999999999999
 40
0.9999999999999999
 40
0.9999999999999999
 40
0.9999999999999999
 10
1605.866384187624
 20
890.6650552176715
 30
0.0
 10
1606.033476835705
 20
890.5842937735118
 30
0.0
 10
1606.526064331867
 20
890.3462098241466
 30
0.0
 10
1607.305067433566
 20
889.8600817209743
 30
0.0
 10
1608.198821459418
 20
889.2131524966821
 30
0.0
 10
1609.029780795695
 20
888.4897585080411
 30
0.0
 10
1609.791912683041
 20
887.7057398892599
 30
0.0
 10
1610.484435303982
 20
886.8629406843828
 30
0.0
 10
1611.111012651215
 20
885.9540669939307
 30
0.0
 10
1611.656409906793
 20
884.997093349368
 30
0.0
 10
1612.115902528537
 20
884.0048032580966
 30
0.0
 10
1612.490469542014
 20
882.9803272490967
 30
0.0
 10
1612.780970676224
 20
881.9151854611107
 30
0.0
 10
1613.013134787716
 20
880.6426063216722
 30
0.0
 10
1613.08629740311
 20
879.6734441695479
 30
0.0
 10
1613.088334761392
 20
879.0768710180091
 30
0.0
 10
1613.088490122069
 20
879.0313787698756
 30
0.0
  0
SPLINE
  5
278
330
1F
100
AcDbEntity
  8
0
  6
Continuous
 62
     7
370
    35
100
AcDbSpline
210
0.0
220
0.0
230
1.0
 70
    24
 71
     3
 72
    20
 73
    16
 74
     0
 42
0.000000001
 43
0.00000001
 40
0.0
 40
0.0
 40
0.0
 40
0.0
 40
0.0031848875244884
 40
0.0996872166702684
 40
0.1961928561586086
 40
0.2929138960264296
 40
0.3894614585497548
 40
0.4531459406897286
 40
0.5167654851003721
 40
0.6214864979190164
 40
0.7268808125404135
 40
0.8182687157727472
 40
0.8939620144270489
 40
0.9698304221395909
 40
0.9999999999999999
 40
0.9999999999999999
 40
0.9999999999999999
 40
0.9999999999999999
 10
1613.088490122069
 20
879.0313787698757
 30
0.0
 10
1613.088490122069
 20
879.0317814167522
 30
0.0
 10
1613.088490122069
 20
879.0443842939685
 30
0.0
 10
1613.088490122069
 20
878.8836466837282
 30
0.0
 10
1613.088490122069
 20
878.1481225028709
 30
0.0
 10
1613.088490122069
 20
876.9384783807823
 30
0.0
 10
1613.088490122069
 20
875.4454723529834
 30
0.0
 10
1613.088490122069
 20
873.8176085426496
 30
0.0
 10
1613.088490122069
 20
871.8753556679645
 30
0.0
 10
1613.088490122069
 20
869.207886365613
 30
0.0
 10
1613.088490122069
 20
865.9832877533966
 30
0.0
 10
1613.088490122069
 20
863.2624568370114
 30
0.0
 10
1613.088490122069
 20
861.111658198849
 30
0.0
 10
1613.088490122069
 20
859.6691386790898
 30
0.0
 10
1613.088490122069
 20
858.8998456082434
 30
0.0
 10
1613.088490122069
 20
858.680968881446
 30
0.0
  0
SPLINE
  5
279
330
1F
100
AcDbEntity
  8
0
  6
Continuous
 62
     7
370
    35
100
AcDbSpline
210
0.0
220
0.0
230
1.0
 70
    24
 71
     3
 72
    10
 73
     6
 74
     0
 42
0.000000001
 43
0.00000001
 40
0.0
 40
0.0
 40
0.0
 40
0.0
 40
0.2479681796226278
 40
0.4972688069878471
 40
1.0
 40
1.0
 40
1.0
 40
1.0
 10
1613.088490122069
 20
858.680968881446
 30
0.0
 10
1613.088490122069
 20
858.3744743114838
 30
0.0
 10
1613.088490122069
 20
857.7598382344459
 30
0.0
 10
1613.088490122069
 20
856.6537680163427
 30
0.0
 10
1613.088490122069
 20
855.8963169480631
 30
0.0
 10
1613.088490122069
 20
855.3899630028092
 30
0.0
  0
LINE
  5
27A
330
1F
100
AcDbEntity
  8
0
  6
Continuous
 62
     7
370
    35
100
AcDbLine
 10
1613.0884901221
 20
855.3899630028
 30
0.0
 11
1613.0884901221
 21
853.5350816169
 31
0.0
  0
LINE
  5
27B
330
1F
100
AcDbEntity
  8
0
  6
Continuous
 62
     7
370
    35
100
AcDbLine
 10
1519.0884901221
 20
922.9846816169
 30
0.0
 11
1519.0884901221
 21
932.9846816169
 31
0.0
  0
ARC
  5
27C
330
1F
100
AcDbEntity
  8
0
  6
Continuous
 62
     7
370
    35
100
AcDbCircle
 10
1581.5634901221
 20
870.0846816169
 30
0.0
 40
2.000000000000114
100
AcDbArc
 50
270.0
 51
0.0
  0
ARC
  5
27D
330
1F
100
AcDbEntity
  8
0
  6
Continuous
 62
     7
370
    35
100
AcDbCircle
 10
1555.5634901221
 20
870.0846816169
 30
0.0
 40
2.000000000000114
100
AcDbArc
 50
180.0
 51
270.0
  0
LINE
  5
27E
330
1F
100
AcDbEntity
  8
0
  6
Continuous
 62
     7
370
    35
100
AcDbLine
 10
1553.5634901221
 20
870.0846816169
 30
0.0
 11
1553.5634901221
 21
904.3752917058
 31
0.0
  0
ARC
  5
27F
330
1F
100
AcDbEntity
  8
0
  6
Continuous
 62
     7
370
    35
100
AcDbCircle
 10
1551.5634901221
 20
904.3752917058
 30
0.0
 40
2.0
100
AcDbArc
 50
0.0
 51
65.0
  0
ARC
  5
280
330
1F
100
AcDbEntity
  8
0
  6
Continuous
 62
     7
370
    35
100
AcDbCircle
 10
1537.6884901221
 20
915.2588221385
 30
0.0
 40
2.0
100
AcDbArc
 50
180.0
 51
245.0
  0
LINE
  5
281
330
1F
100
AcDbEntity
  8
0
  6
Continuous
 62
     7
370
    35
100
AcDbLine
 10
1535.6884901221
 20
915.2588221385
 30
0.0
 11
1535.6884901221
 21
920.9846816169
 31
0.0
  0
LINE
  5
282
330
1F
100
AcDbEntity
  8
0
  6
Continuous
 62
     7
370
    35
100
AcDbLine
 10
1600.2837266455
 20
913.4462065644
 30
0.0
 11
1584.7182535986
 21
906.1879072798
 31
0.0
  0
LINE
  5
283
330
1F
100
AcDbEntity
  8
0
  6
Continuous
 62
     7
370
    35
100
AcDbLine
 10
1583.5634901221
 20
904.3752917058
 30
0.0
 11
1583.5634901221
 21
870.0846816169
 31
0.0
  0
LINE
  5
284
330
1F
100
AcDbEntity
  8
0
  6
Continuous
 62
     7
370
    35
100
AcDbLine
 10
1581.5634901221
 20
868.0846816169
 30
0.0
 11
1555.5634901221
 21
868.0846816169
 31
0.0
  0
LINE
  5
285
330
1F
100
AcDbEntity
  8
0
  6
Continuous
 62
     7
370
    35
100
AcDbLine
 10
1552.4087266455
 20
906.1879072798
 30
0.0
 11
1536.8432535986
 21
913.4462065644
 31
0.0
  0
LINE
  5
286
330
1F
100
AcDbEntity
  8
0
  6
Continuous
 62
     7
370
    35
100
AcDbLine
 10
1569.5634901221
 20
888.0846816169
 30
0.0
 11
1569.5634901221
 21
898.0846816169
 31
0.0
  0
ARC
  5
287
330
1F
100
AcDbEntity
  8
0
  6
Continuous
 62
     7
370
    35
100
AcDbCircle
 10
1576.0634901221
 20
898.0846816169
 30
0.0
 40
6.500000000000227
100
AcDbArc
 50
0.0
 51
180.0
  0
LINE
  5
288
330
1F
100
AcDbEntity
  8
0
  6
Continuous
 62
     7
370
    35
100
AcDbLine
 10
1567.5634901221
 20
898.0846816169
 30
0.0
 11
1567.5634901221
 21
888.0846816169
 31
0.0
  0
ARC
  5
289
330
1F
100
AcDbEntity
  8
0
  6
Continuous
 62
     7
370
    35
100
AcDbCircle
 10
1561.0634901221
 20
888.0846816169
 30
0.0
 40
6.500000000000227
100
AcDbArc
 50
180.0
 51
0.0
  0
CIRCLE
  5
28A
330
1F
100
AcDbEntity
  8
0
  6
Continuous
 62
     7
370
    35
100
AcDbCircle
 10
1568.5634901221
 20
876.0846816169
 30
0.0
 40
4.25
  0
LINE
  5
28B
330
1F
100
AcDbEntity
  8
0
  6
Continuous
 62
     7
370
    35
100
AcDbLine
 10
1582.5634901221
 20
898.0846816169
 30
0.0
 11
1582.5634901221
 21
888.0846816169
 31
0.0
  0
ARC
  5
28C
330
1F
100
AcDbEntity
  8
0
  6
Continuous
 62
     7
370
    35
100
AcDbCircle
 10
1576.0634901221
 20
888.0846816169
 30
0.0
 40
6.500000000000227
100
AcDbArc
 50
180.0
 51
0.0
  0
ARC
  5
28D
330
1F
100
AcDbEntity
  8
0
  6
Continuous
 62
     7
370
    35
100
AcDbCircle
 10
1585.5634901221
 20
904.3752917058
 30
0.0
 40
2.0
100
AcDbArc
 50
115.0
 51
180.0
  0
LINE
  5
28E
330
1F
100
AcDbEntity
  8
0
  6
Continuous
 62
     7
370
    35
100
AcDbLine
 10
1554.5634901221
 20
888.0846816169
 30
0.0
 11
1554.5634901221
 21
898.0846816169
 31
0.0
  0
ARC
  5
28F
330
1F
100
AcDbEntity
  8
0
  6
Continuous
 62
     7
370
    35
100
AcDbCircle
 10
1561.0634901221
 20
898.0846816169
 30
0.0
 40
6.500000000000227
100
AcDbArc
 50
0.0
 51
180.0
  0
LINE
  5
290
330
1F
100
AcDbEntity
  8
0
  6
Continuous
 62
     7
370
    35
100
AcDbLine
 10
1603.5884901221
 20
932.9846816169
 30
0.0
 11
1603.5884901221
 21
921.9846816169
 31
0.0
  0
LINE
  5
291
330
1F
100
AcDbEntity
  8
0
  6
Continuous
 62
     7
370
    35
100
AcDbLine
 10
1601.4384901221
 20
920.9846816169
 30
0.0
 11
1601.4384901221
 21
915.2588221385
 31
0.0
  0
ARC
  5
292
330
1F
100
AcDbEntity
  8
0
  6
Continuous
 62
     7
370
    35
100
AcDbCircle
 10
1599.4384901221
 20
915.2588221385
 30
0.0
 40
2.000000000000027
100
AcDbArc
 50
295.0
 51
0.0
  0
ARC
  5
293
330
1F
100
AcDbEntity
  8
0
  6
Continuous
 62
     7
370
    35
100
AcDbCircle
 10
1520.0884901221
 20
922.9846816169
 30
0.0
 40
1.0
100
AcDbArc
 50
180.0
 51
270.0
  0
LINE
  5
294
330
1F
100
AcDbEntity
  8
0
  6
Continuous
 62
     7
370
    35
100
AcDbLine
 10
1603.5884901221
 20
933.9846816169
 30
0.0
 11
1519.0884901221
 21
933.9846816169
 31
0.0
  0
LINE
  5
295
330
1F
100
AcDbEntity
  8
0
  6
Continuous
 62
     7
370
    35
100
AcDbLine
 10
1519.0884901221
 20
932.9846816169
 30
0.0
 11
1519.0884901221
 21
933.9846816169
 31
0.0
  0
LINE
  5
296
330
1F
100
AcDbEntity
  8
0
  6
Continuous
 62
     7
370
    35
100
AcDbLine
 10
1603.5884901221
 20
933.9846816169
 30
0.0
 11
1603.5884901221
 21
932.9846816169
 31
0.0
  0
LINE
  5
297
330
1F
100
AcDbEntity
  8
0
  6
Continuous
 62
     7
370
    35
100
AcDbLine
 10
1518.0634901221
 20
954.4846816169
 30
0.0
 11
1518.0634901221
 21
922.9846816169
 31
0.0
  0
LINE
  5
298
330
1F
100
AcDbEntity
  8
0
  6
Continuous
 62
     7
370
    35
100
AcDbLine
 10
1519.0634901221
 20
954.4846816169
 30
0.0
 11
1519.0634901221
 21
922.9846816169
 31
0.0
  0
ARC
  5
299
330
1F
100
AcDbEntity
  8
0
  6
Continuous
 62
     7
370
    35
100
AcDbCircle
 10
1520.0634901221
 20
922.9846816169
 30
0.0
 40
0.9999999999998863
100
AcDbArc
 50
180.0
 51
270.0
  0
ARC
  5
29A
330
1F
100
AcDbEntity
  8
0
  6
Continuous
 62
     7
370
    35
100
AcDbCircle
 10
1520.0634901221
 20
922.9846816169
 30
0.0
 40
2.0
100
AcDbArc
 50
180.0
 51
270.0
  0
LINE
  5
29B
330
1F
100
AcDbEntity
  8
0
  6
Continuous
 62
     7
370
    35
100
AcDbLine
 10
1634.0634901221
 20
921.9846816169
 30
0.0
 11
1634.0634901221
 21
920.9846816169
 31
0.0
  0
LINE
  5
29C
330
1F
100
AcDbEntity
  8
0
  6
Continuous
 62
     7
370
    35
100
AcDbLine
 10
1634.0634901221
 20
920.9846816169
 30
0.0
 11
1624.0634901221
 21
920.9846816169
 31
0.0
  0
LINE
  5
29D
330
1F
100
AcDbEntity
  8
0
  6
Continuous
 62
     7
370
    35
100
AcDbLine
 10
1624.0634901221
 20
921.9846816169
 30
0.0
 11
1634.0634901221
 21
921.9846816169
 31
0.0
  0
LINE
  5
29E
330
1F
100
AcDbEntity
  8
0
  6
Continuous
 62
     7
370
    35
100
AcDbLine
 10
1624.0634901221
 20
920.9846816169
 30
0.0
 11
1520.0634901221
 21
920.9846816169
 31
0.0
  0
LINE
  5
29F
330
1F
100
AcDbEntity
  8
0
  6
Continuous
 62
     7
370
    35
100
AcDbLine
 10
1624.0634901221
 20
921.9846816169
 30
0.0
 11
1520.0634901221
 21
921.9846816169
 31
0.0
  0
LINE
  5
2A0
330
1F
100
AcDbEntity
  8
0
  6
Continuous
 62
     7
370
    35
100
AcDbLine
 10
1518.0634901221
 20
964.4846816169
 30
0.0
 11
1519.0634901221
 21
964.4846816169
 31
0.0
  0
LINE
  5
2A1
330
1F
100
AcDbEntity
  8
0
  6
Continuous
 62
     7
370
    35
100
AcDbLine
 10
1518.0634901221
 20
954.4846816169
 30
0.0
 11
1518.0634901221
 21
964.4846816169
 31
0.0
  0
LINE
  5
2A2
330
1F
100
AcDbEntity
  8
0
  6
Continuous
 62
     7
370
    35
100
AcDbLine
 10
1519.0634901221
 20
964.4846816169
 30
0.0
 11
1519.0634901221
 21
954.4846816169
 31
0.0
  0
LINE
  5
2A3
330
1F
100
AcDbEntity
  8
0
  6
Continuous
 62
     8
370
    18
100
AcDbLine
 10
1601.5884901221
 20
919.6466001062
 30
0.0
 11
1601.4384901221
 21
919.6466001062
 31
0.0
  0
LINE
  5
2A4
330
1F
100
AcDbEntity
  8
0
  6
Continuous
 62
     8
370
    18
100
AcDbLine
 10
1519.0634901221
 20
934.9846816169
 30
0.0
 11
1519.0884901221
 21
934.9846816169
 31
0.0
  0
LINE
  5
2A5
330
1F
100
AcDbEntity
  8
0
  6
Continuous
 62
     8
370
    18
100
AcDbLine
 10
1535.5884901221
 20
919.6466001062
 30
0.0
 11
1535.6884901221
 21
919.6466001062
 31
0.0
  0
SPLINE
  5
2A6
330
1F
100
AcDbEntity
  8
0
  6
Continuous
 62
     8
370
    18
100
AcDbSpline
210
0.0
220
0.0
230
1.0
 70
     8
 71
     3
 72
     9
 73
     5
 74
     0
 42
0.000000001
 43
0.00000001
 40
0.0
 40
0.0
 40
0.0
 40
0.0
 40
0.4639726887643066
 40
1.0
 40
1.0
 40
1.0
 40
1.0
 10
1600.532877849225
 20
903.1349961048744
 30
0.0
 10
1600.503462629614
 20
903.1963657432989
 30
0.0
 10
1600.440064028094
 20
903.3286356805402
 30
0.0
 10
1600.425742994984
 20
903.3488967098925
 30
0.0
 10
1600.418066530112
 20
903.3597571749789
 30
0.0
  0
LINE
  5
2A7
330
1F
100
AcDbEntity
  8
0
  6
Continuous
 62
     8
370
    18
100
AcDbLine
 10
1600.4180665301
 20
903.359757175
 30
0.0
 11
1600.2614992839
 21
903.4826780951
 31
0.0
  0
SPLINE
  5
2A8
330
1F
100
AcDbEntity
  8
0
  6
Continuous
 62
     8
370
    18
100
AcDbSpline
210
0.0
220
0.0
230
1.0
 70
     8
 71
     3
 72
    11
 73
     7
 74
     0
 42
0.000000001
 43
0.00000001
 40
0.0
 40
0.0
 40
0.0
 40
0.0
 40
0.298604439555015
 40
0.578510769779853
 40
0.9999675635114516
 40
1.0
 40
1.0
 40
1.0
 40
1.0
 10
1600.261499283861
 20
903.4826780951278
 30
0.0
 10
1600.261432701803
 20
903.4768420160276
 30
0.0
 10
1600.261303706945
 20
903.4655353033149
 30
0.0
 10
1600.340984915336
 20
903.2921013550841
 30
0.0
 10
1600.428058650353
 20
903.0863964502737
 30
0.0
 10
1600.481113290547
 20
902.941162398305
 30
0.0
 10
1600.481117373465
 20
902.9411512215479
 30
0.0
  0
SPLINE
  5
2A9
330
1F
100
AcDbEntity
  8
0
  6
Continuous
 62
     8
370
    18
100
AcDbSpline
210
0.0
220
0.0
230
1.0
 70
     8
 71
     3
 72
    10
 73
     6
 74
     0
 42
0.000000001
 43
0.00000001
 40
0.0
 40
0.0
 40
0.0
 40
0.0
 40
0.0305940752880727
 40
0.8849546452569854
 40
1.0
 40
1.0
 40
1.0
 40
1.0
 10
1602.152263865478
 20
898.3269937655506
 30
0.0
 10
1602.189356098962
 20
898.2185555233744
 30
0.0
 10
1603.262274434144
 20
895.0819048734147
 30
0.0
 10
1604.322674183933
 20
891.4841184099789
 30
0.0
 10
1605.220315556123
 20
887.9656067395289
 30
0.0
 10
1605.326844170672
 20
887.5480433504722
 30
0.0
  0
LINE
  5
2AA
330
1F
100
AcDbEntity
  8
0
  6
Continuous
 62
     8
370
    18
100
AcDbLine
 10
1602.719941231
 20
850.984557226
 30
0.0
 11
1601.8025877088
 21
848.9813231806
 31
0.0
  0
SPLINE
  5
2AB
330
1F
100
AcDbEntity
  8
0
  6
Continuous
 62
     8
370
    18
100
AcDbSpline
210
0.0
220
0.0
230
1.0
 70
     8
 71
     3
 72
    18
 73
    14
 74
     0
 42
0.000000001
 43
0.00000001
 40
0.0
 40
0.0
 40
0.0
 40
0.0
 40
0.0497884573626212
 40
0.1520626953526153
 40
0.2542931679105493
 40
0.3525326664709006
 40
0.4508084200367271
 40
0.5543273934134136
 40
0.6578565275353678
 40
0.774030727128946
 40
0.8901694733964514
 40
0.9999988953086805
 40
1.0
 40
1.0
 40
1.0
 40
1.0
 10
1601.802587708774
 20
848.9813231806086
 30
0.0
 10
1601.793393051183
 20
848.9969840768026
 30
0.0
 10
1601.765310951633
 20
849.0448152050009
 30
0.0
 10
1601.33151786227
 20
849.1300231740312
 30
0.0
 10
1599.815574293552
 20
849.1855941138854
 30
0.0
 10
1597.455603258066
 20
849.2499878159317
 30
0.0
 10
1594.366134929834
 20
849.2750774685475
 30
0.0
 10
1590.551605503587
 20
849.2639266617169
 30
0.0
 10
1585.918126876196
 20
849.217029997871
 30
0.0
 10
1580.545360862424
 20
849.1381486610898
 30
0.0
 10
1574.644002250534
 20
849.012877340928
 30
0.0
 10
1570.57262257772
 20
848.888517750011
 30
0.0
 10
1568.58851007856
 20
848.8210888203133
 30
0.0
 10
1568.58849012207
 20
848.8210881421035
 30
0.0
  0
SPLINE
  5
2AC
330
1F
100
AcDbEntity
  8
0
  6
Continuous
 62
     8
370
    18
100
AcDbSpline
210
0.0
220
0.0
230
1.0
 70
     8
 71
     3
 72
    10
 73
     6
 74
     0
 42
0.000000001
 43
0.00000001
 40
0.0
 40
0.0
 40
0.0
 40
0.0
 40
0.0305940752880734
 40
0.8849546452569866
 40
1.0
 40
1.0
 40
1.0
 40
1.0
 10
1535.02471637866
 20
898.32699376555
 30
0.0
 10
1534.987624145177
 20
898.2185555233739
 30
0.0
 10
1533.914705809995
 20
895.0819048734141
 30
0.0
 10
1532.854306060205
 20
891.4841184099784
 30
0.0
 10
1531.956664688015
 20
887.9656067395283
 30
0.0
 10
1531.850136073466
 20
887.5480433504716
 30
0.0
  0
SPLINE
  5
2AD
330
1F
100
AcDbEntity
  8
0
  6
Continuous
 62
     8
370
    18
100
AcDbSpline
210
0.0
220
0.0
230
1.0
 70
     8
 71
     3
 72
    11
 73
     7
 74
     0
 42
0.000000001
 43
0.00000001
 40
0.0
 40
0.0
 40
0.0
 40
0.0
 40
0.2986044395547215
 40
0.578510769779534
 40
0.9999675635113832
 40
0.9999999999999999
 40
0.9999999999999999
 40
0.9999999999999999
 40
0.9999999999999999
 10
1536.915480960278
 20
903.4826780951282
 30
0.0
 10
1536.915547542331
 20
903.4768420160216
 30
0.0
 10
1536.915676537182
 20
903.4655353032965
 30
0.0
 10
1536.835995328858
 20
903.2921013551701
 30
0.0
 10
1536.7489215936
 20
903.0863964499895
 30
0.0
 10
1536.695866953592
 20
902.9411623983043
 30
0.0
 10
1536.695862870673
 20
902.9411512215474
 30
0.0
  0
LINE
  5
2AE
330
1F
100
AcDbEntity
  8
0
  6
Continuous
 62
     8
370
    18
100
AcDbLine
 10
1536.758913714
 20
903.359757175
 30
0.0
 11
1536.9154809603
 21
903.4826780951
 31
0.0
  0
SPLINE
  5
2AF
330
1F
100
AcDbEntity
  8
0
  6
Continuous
 62
     8
370
    18
100
AcDbSpline
210
0.0
220
0.0
230
1.0
 70
     8
 71
     3
 72
    18
 73
    14
 74
     0
 42
0.000000001
 43
0.00000001
 40
0.0
 40
0.0
 40
0.0
 40
0.0
 40
0.0497848687598478
 40
0.1505175920502419
 40
0.2543243622726987
 40
0.3513587062571542
 40
0.450831788278736
 40
0.5531105266318749
 40
0.6578696705688374
 40
0.7722222945756152
 40
0.8901773896516059
 40
0.9999988953883032
 40
0.9999999999999999
 40
0.9999999999999999
 40
0.9999999999999999
 40
0.9999999999999999
 10
1535.374392535364
 20
848.9813231806079
 30
0.0
 10
1535.384372017996
 20
848.9975558901846
 30
0.0
 10
1535.414543588859
 20
849.0466332186738
 30
0.0
 10
1535.812162429067
 20
849.1082316705504
 30
0.0
 10
1537.350765701138
 20
849.1903517467882
 30
0.0
 10
1539.704923533887
 20
849.2486117019604
 30
0.0
 10
1542.785154362044
 20
849.2754416676555
 30
0.0
 10
1546.605880635475
 20
849.2635869636161
 30
0.0
 10
1551.214599744346
 20
849.2179791703417
 30
0.0
 10
1556.59769838854
 20
849.1374667230857
 30
0.0
 10
1562.500895052299
 20
849.0141984920688
 30
0.0
 10
1566.604357665088
 20
848.8885177520518
 30
0.0
 10
1568.588470165579
 20
848.8210888203133
 30
0.0
 10
1568.58849012207
 20
848.8210881421035
 30
0.0
  0
LINE
  5
2B0
330
1F
100
AcDbEntity
  8
0
  6
Continuous
 62
     8
370
    18
100
AcDbLine
 10
1534.4570390131
 20
850.984557226
 30
0.0
 11
1535.3743925354
 21
848.9813231806
 31
0.0
  0
SPLINE
  5
2B1
330
1F
100
AcDbEntity
  8
0
  6
Continuous
 62
     8
370
    18
100
AcDbSpline
210
0.0
220
0.0
230
1.0
 70
     8
 71
     3
 72
    14
 73
    10
 74
     0
 42
0.000000001
 43
0.00000001
 40
0.0
 40
0.0
 40
0.0
 40
0.0
 40
0.2135072054014846
 40
0.6517504153256206
 40
0.8731400298126327
 40
0.9340362681778052
 40
0.9607431005770698
 40
0.9801118651181884
 40
1.0
 40
1.0
 40
1.0
 40
1.0
 10
1535.451513618086
 20
848.8242113210956
 30
0.0
 10
1535.778398750036
 20
848.2303424525659
 30
0.0
 10
1536.776245731879
 20
846.4175030170752
 30
0.0
 10
1538.677571943536
 20
844.3634790549934
 30
0.0
 10
1540.519708022808
 20
843.0320226623647
 30
0.0
 10
1541.264720638955
 20
842.5814520919039
 30
0.0
 10
1541.449865454874
 20
842.4725727830574
 30
0.0
 10
1541.515754876622
 20
842.4331268445917
 30
0.0
 10
1541.513977792674
 20
842.4325071202541
 30
0.0
 10
1541.513077495254
 20
842.4321931585962
 30
0.0
  0
LINE
  5
2B2
330
1F
100
AcDbEntity
  8
0
  6
Continuous
 62
     8
370
    18
100
AcDbLine
 10
1535.3743925354
 20
848.9813231806
 30
0.0
 11
1535.4515136181
 21
848.8242113211
 31
0.0
  0
SPLINE
  5
2B3
330
1F
100
AcDbEntity
  8
0
  6
Continuous
 62
     8
370
    18
100
AcDbSpline
210
0.0
220
0.0
230
1.0
 70
     8
 71
     3
 72
     9
 73
     5
 74
     0
 42
0.000000001
 43
0.00000001
 40
0.0
 40
0.0
 40
0.0
 40
0.0
 40
0.4374209949235314
 40
1.0
 40
1.0
 40
1.0
 40
1.0
 10
1540.997639854994
 20
842.6507112000477
 30
0.0
 10
1540.994435492742
 20
842.652365560408
 30
0.0
 10
1540.987109913292
 20
842.6561476384963
 30
0.0
 10
1540.94515926377
 20
842.6809571721
 30
0.0
 10
1540.921558709099
 20
842.6949144948312
 30
0.0
  0
LINE
  5
2B4
330
1F
100
AcDbEntity
  8
0
  6
Continuous
 62
     8
370
    18
100
AcDbLine
 10
1540.7522977812
 20
842.7976146582
 30
0.0
 11
1540.6267744673
 21
842.877424691
 31
0.0
  0
LINE
  5
2B5
330
1F
100
AcDbEntity
  8
0
  6
Continuous
 62
     8
370
    18
100
AcDbLine
 10
1601.8025877088
 20
848.9813231806
 30
0.0
 11
1601.725466626
 21
848.8242113211
 31
0.0
  0
SPLINE
  5
2B6
330
1F
100
AcDbEntity
  8
0
  6
Continuous
 62
     8
370
    18
100
AcDbSpline
210
0.0
220
0.0
230
1.0
 70
     8
 71
     3
 72
    14
 73
    10
 74
     0
 42
0.000000001
 43
0.00000001
 40
0.0
 40
0.0
 40
0.0
 40
0.0
 40
0.213507205401368
 40
0.6517504153255504
 40
0.8731400298126194
 40
0.9340362681777978
 40
0.960743100577066
 40
0.9801118651181863
 40
1.0
 40
1.0
 40
1.0
 40
1.0
 10
1601.72546662605
 20
848.8242113210937
 30
0.0
 10
1601.398581494102
 20
848.2303424525647
 30
0.0
 10
1600.400734512259
 20
846.4175030170762
 30
0.0
 10
1598.499408300601
 20
844.3634790549942
 30
0.0
 10
1596.65727222133
 20
843.0320226623647
 30
0.0
 10
1595.912259605183
 20
842.5814520919039
 30
0.0
 10
1595.727114789263
 20
842.4725727830574
 30
0.0
 10
1595.661225367516
 20
842.4331268445917
 30
0.0
 10
1595.663002451464
 20
842.4325071202541
 30
0.0
 10
1595.663902748884
 20
842.4321931585962
 30
0.0
  0
SPLINE
  5
2B7
330
1F
100
AcDbEntity
  8
0
  6
Continuous
 62
     8
370
    18
100
AcDbSpline
210
0.0
220
0.0
230
1.0
 70
     8
 71
     3
 72
    11
 73
     7
 74
     0
 42
0.000000001
 43
0.00000001
 40
0.0
 40
0.0
 40
0.0
 40
0.0
 40
0.1603195048336122
 40
0.4536136580937088
 40
0.7293958077936964
 40
1.0
 40
1.0
 40
1.0
 40
1.0
 10
1596.179340389145
 20
842.6507112000482
 30
0.0
 10
1596.183182801142
 20
842.652755092656
 30
0.0
 10
1596.194054657087
 20
842.6585381544458
 30
0.0
 10
1596.272179381403
 20
842.7045858828682
 30
0.0
 10
1596.399036677115
 20
842.7803710969254
 30
0.0
 10
1596.506282329833
 20
842.8491868361097
 30
0.0
 10
1596.559396986982
 20
842.8832686315077
 30
0.0
  0
SPLINE
  5
2B8
330
1F
100
AcDbEntity
  8
0
  6
Continuous
 62
     8
370
    18
100
AcDbSpline
210
0.0
220
0.0
230
1.0
 70
     8
 71
     3
 72
    14
 73
    10
 74
     0
 42
0.000000001
 43
0.00000001
 40
0.0
 40
0.0
 40
0.0
 40
0.0
 40
0.1272473860604718
 40
0.2554745767697396
 40
0.3810919869018191
 40
0.5075916090131556
 40
0.7089607368256291
 40
0.9137762176246998
 40
1.0
 40
1.0
 40
1.0
 40
1.0
 10
1603.431609567926
 20
850.6764254633581
 30
0.0
 10
1604.028925422193
 20
852.1663348272889
 30
0.0
 10
1605.228156461756
 20
855.1576258546313
 30
0.0
 10
1606.513787346312
 20
859.7963884659232
 30
0.0
 10
1607.42586724245
 20
864.5079644594023
 30
0.0
 10
1608.034854908565
 20
870.1995947853904
 30
0.0
 10
1608.025406854163
 20
876.9316619126862
 30
0.0
 10
1607.254523840646
 20
883.1144648388857
 30
0.0
 10
1606.401673271821
 20
886.683741752108
 30
0.0
 10
1606.14900632564
 20
887.7411817430086
 30
0.0
  0
LWPOLYLINE
  5
2B9
330
1F
100
AcDbEntity
  8
0
  6
Continuous
 62
     8
370
    18
100
AcDbPolyline
 90
        9
 70
   128
 43
0.0
 10
1602.719941231
 20
850.984557226
 10
1602.7368765935
 20
850.9771905182
 10
1602.7754099874
 20
850.9604820617
 10
1602.8352371929
 20
850.9345637694
 10
1602.9158858764
 20
850.8996402651
 10
1603.0167193193
 20
850.8559872688
 10
1603.1369414451
 20
850.8039494193
 10
1603.2756031043
 20
850.7439375536
 10
1603.4316095679
 20
850.6764254634
  0
ARC
  5
2BA
330
1F
100
AcDbEntity
  8
0
  6
Continuous
 62
     8
370
    18
100
AcDbCircle
 10
1600.7933843922
 20
908.6928066013
 30
0.0
 40
21.62529237945767
100
AcDbArc
 50
282.1010759283
 51
284.3388181969
  0
LWPOLYLINE
  5
2BB
330
1F
100
AcDbEntity
  8
0
  6
Continuous
 62
     8
370
    18
100
AcDbPolyline
 90
        9
 70
   128
 43
0.0
 10
1534.4570390131
 20
850.984557226
 10
1534.4401036507
 20
850.9771905182
 10
1534.4015702568
 20
850.9604820617
 10
1534.3417430512
 20
850.9345637694
 10
1534.2610943677
 20
850.8996402651
 10
1534.1602609248
 20
850.8559872688
 10
1534.040038799
 20
850.8039494193
 10
1533.9013771398
 20
850.7439375536
 10
1533.7453706762
 20
850.6764254634
  0
SPLINE
  5
2BC
330
1F
100
AcDbEntity
  8
0
  6
Continuous
 62
     8
370
    18
100
AcDbSpline
210
0.0
220
0.0
230
1.0
 70
     8
 71
     3
 72
    14
 73
    10
 74
     0
 42
0.000000001
 43
0.00000001
 40
0.0
 40
0.0
 40
0.0
 40
0.0
 40
0.1272473860604716
 40
0.2554745767697392
 40
0.3810919869018187
 40
0.5075916090131551
 40
0.7089607368256288
 40
0.9137762176246995
 40
1.0
 40
1.0
 40
1.0
 40
1.0
 10
1533.745370676213
 20
850.6764254633575
 30
0.0
 10
1533.148054821945
 20
852.1663348272881
 30
0.0
 10
1531.948823782382
 20
855.1576258546307
 30
0.0
 10
1530.663192897827
 20
859.7963884659226
 30
0.0
 10
1529.751113001688
 20
864.5079644594017
 30
0.0
 10
1529.142125335574
 20
870.19959478539
 30
0.0
 10
1529.151573389975
 20
876.9316619126856
 30
0.0
 10
1529.922456403492
 20
883.1144648388852
 30
0.0
 10
1530.775306972317
 20
886.6837417521073
 30
0.0
 10
1531.027973918498
 20
887.741181743008
 30
0.0
  0
ARC
  5
2BD
330
1F
100
AcDbEntity
  8
0
  6
Continuous
 62
     8
370
    18
100
AcDbCircle
 10
1536.3835958521
 20
908.692806602
 30
0.0
 40
21.62529238014035
100
AcDbArc
 50
255.6611818031
 51
257.8989240717
  0
SPLINE
  5
2BE
330
1F
100
AcDbEntity
  8
0
  6
Continuous
 62
     8
370
    18
100
AcDbSpline
210
0.0
220
0.0
230
1.0
 70
     8
 71
     3
 72
    17
 73
    13
 74
     0
 42
0.000000001
 43
0.00000001
 40
0.0
 40
0.0
 40
0.0
 40
0.0
 40
0.0045109817899508
 40
0.0089278415503381
 40
0.0130797684277637
 40
0.0177777921768911
 40
0.0339670776357914
 40
0.084060007251609
 40
0.3047425979556686
 40
0.7692822253148978
 40
0.8273200843747881
 40
1.0
 40
1.0
 40
1.0
 40
1.0
 10
1595.957615428209
 20
842.5756521322943
 30
0.0
 10
1595.95329614027
 20
842.5738883434832
 30
0.0
 10
1595.944747686713
 20
842.570397567469
 30
0.0
 10
1595.945940145462
 20
842.5721121032653
 30
0.0
 10
1595.960789241757
 20
842.5804330091154
 30
0.0
 10
1596.007727853329
 20
842.6051030605518
 30
0.0
 10
1596.190072379204
 20
842.6983152523632
 30
0.0
 10
1596.958079435465
 20
843.10225919369
 30
0.0
 10
1598.854995218612
 20
844.29337256294
 30
0.0
 10
1600.498970331938
 20
845.8904850895132
 30
0.0
 10
1601.767628187245
 20
847.5771349264521
 30
0.0
 10
1602.133223454702
 20
848.175266804206
 30
0.0
 10
1602.406851960454
 20
848.6229365267675
 30
0.0
  0
ARC
  5
2BF
330
1F
100
AcDbEntity
  8
0
  6
Continuous
 62
     8
370
    18
100
AcDbCircle
 10
1597.1116901072
 20
839.8404438455
 30
0.0
 40
2.968712302793329
100
AcDbArc
 50
112.8764869258
 51
119.1883353828
  0
ARC
  5
2C0
330
1F
100
AcDbEntity
  8
0
  6
Continuous
 62
     8
370
    18
100
AcDbCircle
 10
1601.5942807327
 20
847.1261005202
 30
0.0
 40
1.703170581842957
100
AcDbArc
 50
61.5042694372
 51
85.582444766
  0
ARC
  5
2C1
330
1F
100
AcDbEntity
  8
0
  6
Continuous
 62
     8
370
    18
100
AcDbCircle
 10
1540.065290137
 20
839.8404438455
 30
0.0
 40
2.968712302772758
100
AcDbArc
 50
60.8116646172
 51
67.1235130743
  0
SPLINE
  5
2C2
330
1F
100
AcDbEntity
  8
0
  6
Continuous
 62
     8
370
    18
100
AcDbSpline
210
0.0
220
0.0
230
1.0
 70
     8
 71
     3
 72
    17
 73
    13
 74
     0
 42
0.000000001
 43
0.00000001
 40
0.0
 40
0.0
 40
0.0
 40
0.0
 40
0.0045109817899509
 40
0.0089278415503384
 40
0.0130797684277643
 40
0.0177777921768912
 40
0.033967077635792
 40
0.084060007251612
 40
0.3047425979556461
 40
0.7692822253148914
 40
0.8273200843747825
 40
1.0
 40
1.0
 40
1.0
 40
1.0
 10
1541.21936481593
 20
842.5756521322942
 30
0.0
 10
1541.223684103868
 20
842.5738883434832
 30
0.0
 10
1541.232232557425
 20
842.570397567469
 30
0.0
 10
1541.231040098676
 20
842.5721121032653
 30
0.0
 10
1541.216191002382
 20
842.5804330091154
 30
0.0
 10
1541.169252390809
 20
842.6051030605518
 30
0.0
 10
1540.986907864934
 20
842.6983152523632
 30
0.0
 10
1540.218900808673
 20
843.10225919369
 30
0.0
 10
1538.321985025525
 20
844.2933725629391
 30
0.0
 10
1536.6780099122
 20
845.8904850895127
 30
0.0
 10
1535.409352056893
 20
847.5771349264514
 30
0.0
 10
1535.043756789436
 20
848.1752668042054
 30
0.0
 10
1534.770128283684
 20
848.6229365267669
 30
0.0
  0
ARC
  5
2C3
330
1F
100
AcDbEntity
  8
0
  6
Continuous
 62
     8
370
    18
100
AcDbCircle
 10
1535.5826995115
 20
847.1261005201
 30
0.0
 40
1.703170581860403
100
AcDbArc
 50
94.4175552344
 51
118.4957305629
  0
ARC
  5
2C4
330
1F
100
AcDbEntity
  8
0
  6
Continuous
 62
     8
370
    18
100
AcDbCircle
 10
1568.5516520765
 20
998.4044940082
 30
0.0
 40
105.5675478895445
100
AcDbArc
 50
288.5592662705
 51
288.9867308474
  0
SPLINE
  5
2C5
330
1F
100
AcDbEntity
  8
0
  6
Continuous
 62
     8
370
    18
100
AcDbSpline
210
0.0
220
0.0
230
1.0
 70
     8
 71
     3
 72
    10
 73
     6
 74
     0
 42
0.000000001
 43
0.00000001
 40
0.0
 40
0.0
 40
0.0
 40
0.0
 40
0.0049102993503908
 40
0.115164344171695
 40
1.0
 40
1.0
 40
1.0
 40
1.0
 10
1606.14900632564
 20
887.7411817430086
 30
0.0
 10
1606.144376245613
 20
887.7591173050943
 30
0.0
 10
1606.035784061769
 20
888.1797713421594
 30
0.0
 10
1605.077038465258
 20
891.8285609673325
 30
0.0
 10
1603.92360324223
 20
895.4025032575581
 30
0.0
 10
1602.897966446515
 20
898.5804595445139
 30
0.0
  0
SPLINE
  5
2C6
330
1F
100
AcDbEntity
  8
0
  6
Continuous
 62
     8
370
    18
100
AcDbSpline
210
0.0
220
0.0
230
1.0
 70
     8
 71
     3
 72
    10
 73
     6
 74
     0
 42
0.000000001
 43
0.00000001
 40
0.0
 40
0.0
 40
0.0
 40
0.0
 40
0.0049102993503896
 40
0.1151643441716923
 40
1.0
 40
1.0
 40
1.0
 40
1.0
 10
1531.027973918498
 20
887.741181743008
 30
0.0
 10
1531.032603998525
 20
887.7591173050936
 30
0.0
 10
1531.141196182369
 20
888.1797713421588
 30
0.0
 10
1532.09994177888
 20
891.8285609673318
 30
0.0
 10
1533.253377001909
 20
895.4025032575574
 30
0.0
 10
1534.279013797624
 20
898.5804595445134
 30
0.0
  0
ARC
  5
2C7
330
1F
100
AcDbEntity
  8
0
  6
Continuous
 62
     8
370
    18
100
AcDbCircle
 10
1568.6253281618
 20
998.404493991
 30
0.0
 40
105.5675478714022
100
AcDbArc
 50
251.0132691525
 51
251.4407337296
  0
ARC
  5
2C8
330
1F
100
AcDbEntity
  8
0
  6
Continuous
 62
     8
370
    18
100
AcDbCircle
 10
1602.8926542162
 20
904.9085699647
 30
0.0
 40
2.99268172411873
100
AcDbArc
 50
208.4544255778
 51
226.4525487524
  0
SPLINE
  5
2C9
330
1F
100
AcDbEntity
  8
0
  6
Continuous
 62
     8
370
    18
100
AcDbSpline
210
0.0
220
0.0
230
1.0
 70
     8
 71
     3
 72
    15
 73
    11
 74
     0
 42
0.000000001
 43
0.00000001
 40
0.0
 40
0.0
 40
0.0
 40
0.0
 40
0.3092031051605585
 40
0.663838255257455
 40
0.803986173963673
 40
0.9077221477257735
 40
0.9361281220494168
 40
0.9546919441403823
 40
0.978908979412591
 40
1.0
 40
1.0
 40
1.0
 40
1.0
 10
1602.897966446515
 20
898.5804595445139
 30
0.0
 10
1602.714006977799
 20
899.068179054242
 30
0.0
 10
1602.31905838022
 20
900.1152800147092
 30
0.0
 10
1601.669520716944
 20
901.3164659173993
 30
0.0
 10
1601.169039879379
 20
902.1725435979437
 30
0.0
 10
1600.946343378781
 20
902.5346732669319
 30
0.0
 10
1600.85117505452
 20
902.6840159643855
 30
0.0
 10
1600.82190150767
 20
902.7333753078105
 30
0.0
 10
1600.813267033954
 20
902.7541770290358
 30
0.0
 10
1600.82525193488
 20
902.74413619444
 30
0.0
 10
1600.830830938159
 20
902.7394621592125
 30
0.0
  0
SPLINE
  5
2CA
330
1F
100
AcDbEntity
  8
0
  6
Continuous
 62
     8
370
    18
100
AcDbSpline
210
0.0
220
0.0
230
1.0
 70
     8
 71
     3
 72
    15
 73
    11
 74
     0
 42
0.000000001
 43
0.00000001
 40
0.0
 40
0.0
 40
0.0
 40
0.0
 40
0.3092031051605585
 40
0.663838255257455
 40
0.803986173963673
 40
0.9077221477257735
 40
0.9361281220494168
 40
0.9546919441403823
 40
0.978908979412591
 40
1.0
 40
1.0
 40
1.0
 40
1.0
 10
1534.279013797624
 20
898.5804595445134
 30
0.0
 10
1534.46297326634
 20
899.0681790542416
 30
0.0
 10
1534.857921863919
 20
900.1152800147087
 30
0.0
 10
1535.507459527195
 20
901.3164659173988
 30
0.0
 10
1536.007940364759
 20
902.1725435979431
 30
0.0
 10
1536.230636865358
 20
902.5346732669313
 30
0.0
 10
1536.325805189618
 20
902.6840159643849
 30
0.0
 10
1536.355078736469
 20
902.73337530781
 30
0.0
 10
1536.363713210185
 20
902.7541770290352
 30
0.0
 10
1536.351728309259
 20
902.7441361944392
 30
0.0
 10
1536.34614930598
 20
902.7394621592119
 30
0.0
  0
ARC
  5
2CB
330
1F
100
AcDbEntity
  8
0
  6
Continuous
 62
     8
370
    18
100
AcDbCircle
 10
1534.2843260279
 20
904.9085699647
 30
0.0
 40
2.992681724091216
100
AcDbArc
 50
313.5474512476
 51
331.5455744223
  0
LINE
  5
2CC
330
1F
100
AcDbEntity
  8
0
  6
Continuous
 62
     8
370
    18
100
AcDbLine
 10
1602.49951853
 20
848.7864737035
 30
0.0
 11
1603.4316095679
 21
850.6764254634
 31
0.0
  0
ARC
  5
2CD
330
1F
100
AcDbEntity
  8
0
  6
Continuous
 62
     8
370
    18
100
AcDbCircle
 10
1601.7020834652
 20
847.2780394248
 30
0.0
 40
1.706246364313917
100
AcDbArc
 50
62.1367925984
 51
86.6231112419
  0
ARC
  5
2CE
330
1F
100
AcDbEntity
  8
0
  6
Continuous
 62
     8
370
    18
100
AcDbCircle
 10
1535.4748967789
 20
847.2780394248
 30
0.0
 40
1.706246364310069
100
AcDbArc
 50
93.3768887581
 51
117.8632074016
  0
LINE
  5
2CF
330
1F
100
AcDbEntity
  8
0
  6
Continuous
 62
     8
370
    18
100
AcDbLine
 10
1534.6774617142
 20
848.7864737035
 30
0.0
 11
1533.7453706762
 21
850.6764254634
 31
0.0
  0
ARC
  5
2D0
330
1F
100
AcDbEntity
  8
0
  6
Continuous
 62
     8
370
    18
100
AcDbCircle
 10
1602.9204191801
 20
900.3269947004
 30
0.0
 40
12.99332377631813
100
AcDbArc
 50
284.3876121928
 51
286.8712772965
  0
ARC
  5
2D1
330
1F
100
AcDbEntity
  8
0
  6
Continuous
 62
     8
370
    18
100
AcDbCircle
 10
1614.3332573412
 20
875.8717211511
 30
0.0
 40
27.4526656076556
100
AcDbArc
 50
246.6025480368
 51
247.6829243032
  0
ARC
  5
2D2
330
1F
100
AcDbEntity
  8
0
  6
Continuous
 62
     8
370
    18
100
AcDbCircle
 10
1534.2565610639
 20
900.3269946997
 30
0.0
 40
12.99332377556733
100
AcDbArc
 50
253.1287227034
 51
255.6123878072
  0
ARC
  5
2D3
330
1F
100
AcDbEntity
  8
0
  6
Continuous
 62
     8
370
    18
100
AcDbCircle
 10
1522.8437229024
 20
875.8717211525
 30
0.0
 40
27.4526656091966
100
AcDbArc
 50
292.3170756969
 51
293.3974519632
  0
LINE
  5
2D4
330
1F
100
AcDbEntity
  8
0
  6
Continuous
 62
     8
370
    18
100
AcDbLine
 10
1602.4068519605
 20
848.6229365268
 30
0.0
 11
1602.49951853
 21
848.7864737035
 31
0.0
  0
LINE
  5
2D5
330
1F
100
AcDbEntity
  8
0
  6
Continuous
 62
     8
370
    18
100
AcDbLine
 10
1534.7701282837
 20
848.6229365268
 30
0.0
 11
1534.6774617142
 21
848.7864737035
 31
0.0
  0
ARC
  5
2D6
330
1F
100
AcDbEntity
  8
0
  6
Continuous
 62
     8
370
    18
100
AcDbCircle
 10
1601.8728942037
 20
847.6833196227
 30
0.0
 40
1.080736236295281
100
AcDbArc
 50
35.0981925256
 51
60.3916535262
  0
ARC
  5
2D7
330
1F
100
AcDbEntity
  8
0
  6
Continuous
 62
     8
370
    18
100
AcDbCircle
 10
1535.3040860404
 20
847.6833196227
 30
0.0
 40
1.080736236287015
100
AcDbArc
 50
119.6083464738
 51
144.9018074746
  0
ARC
  5
2D8
330
1F
100
AcDbEntity
  8
0
  6
Continuous
 62
     8
370
    18
100
AcDbCircle
 10
1561.1049281011
 20
1019.949750069
 30
0.0
 40
128.3634010789225
100
AcDbArc
 50
289.0009454546
 51
289.2355634087
  0
ARC
  5
2D9
330
1F
100
AcDbEntity
  8
0
  6
Continuous
 62
     8
370
    18
100
AcDbCircle
 10
1576.0720521707
 20
1019.9497501488
 30
0.0
 40
128.3634011634549
100
AcDbArc
 50
250.7644365914
 51
250.9990545453
  0
ARC
  5
2DA
330
1F
100
AcDbEntity
  8
0
  6
Continuous
 62
     8
370
    18
100
AcDbCircle
 10
1597.7126025374
 20
840.0798770856
 30
0.0
 40
2.993339415941433
100
AcDbArc
 50
114.9362317311
 51
120.8121245743
  0
ARC
  5
2DB
330
1F
100
AcDbEntity
  8
0
  6
Continuous
 62
     8
370
    18
100
AcDbCircle
 10
1539.4643777068
 20
840.0798770856
 30
0.0
 40
2.993339415988181
100
AcDbArc
 50
59.1878754258
 51
65.0637682689
  0
ARC
  5
2DC
330
1F
100
AcDbEntity
  8
0
  6
Continuous
 62
     8
370
    18
100
AcDbCircle
 10
1603.0851701661
 20
904.7298501302
 30
0.0
 40
2.998432342295149
100
AcDbArc
 50
207.1895966033
 51
225.2949287513
  0
ARC
  5
2DD
330
1F
100
AcDbEntity
  8
0
  6
Continuous
 62
     8
370
    18
100
AcDbCircle
 10
1534.091810078
 20
904.7298501302
 30
0.0
 40
2.998432342250804
100
AcDbArc
 50
314.7050712486
 51
332.8104033969
  0
SPLINE
  5
2DE
330
1F
100
AcDbEntity
  8
0
  6
Continuous
 62
     8
370
    18
100
AcDbSpline
210
0.0
220
0.0
230
1.0
 70
     8
 71
     3
 72
    14
 73
    10
 74
     0
 42
0.000000001
 43
0.00000001
 40
0.0
 40
0.0
 40
0.0
 40
0.0
 40
0.1092374782649491
 40
0.2581253635232379
 40
0.407930196903456
 40
0.5608445870786939
 40
0.7149451852853647
 40
0.9256729043336412
 40
1.0
 40
1.0
 40
1.0
 40
1.0
 10
1603.755214010472
 20
849.6183256408316
 30
0.0
 10
1603.925117131909
 20
850.0029168559472
 30
0.0
 10
1604.326593856576
 20
850.9116960477264
 30
0.0
 10
1604.936918017435
 20
852.451040921947
 30
0.0
 10
1605.574154147909
 20
854.2504771871364
 30
0.0
 10
1606.168839813414
 20
856.16926475057
 30
0.0
 10
1606.764286551732
 20
858.4478136056844
 30
0.0
 10
1607.215396258253
 20
860.4548244685756
 30
0.0
 10
1607.414961293355
 20
861.8117712169436
 30
0.0
 10
1607.46699721308
 20
862.1655905722879
 30
0.0
  0
LWPOLYLINE
  5
2DF
330
1F
100
AcDbEntity
  8
0
  6
Continuous
 62
     8
370
    18
100
AcDbPolyline
 90
        3
 70
   128
 43
0.0
 10
1603.7552140105
 20
849.6183256408
 10
1603.4355173398
 20
849.6277404497
 10
1603.4163889427
 20
849.6272899347
  0
LWPOLYLINE
  5
2E0
330
1F
100
AcDbEntity
  8
0
  6
Continuous
 62
     8
370
    18
100
AcDbPolyline
 90
        9
 70
   128
 43
0.0
 10
1603.7552140105
 20
849.6183256408
 10
1605.7025489083
 20
850.1610360584
 10
1607.5053814273
 20
850.9230442439
 10
1609.1173077805
 20
851.8847365809
 10
1610.4968379869
 20
853.0213597072
 10
1611.6084637976
 20
854.303657651
 10
1612.4235726561
 20
855.6986248614
 10
1612.9211841678
 20
857.1703557505
 10
1613.0884901221
 20
858.6809688814
  0
SPLINE
  5
2E1
330
1F
100
AcDbEntity
  8
0
  6
Continuous
 62
     8
370
    18
100
AcDbSpline
210
0.0
220
0.0
230
1.0
 70
     8
 71
     3
 72
     9
 73
     5
 74
     0
 42
0.000000001
 43
0.00000001
 40
0.0
 40
0.0
 40
0.0
 40
0.0
 40
0.5770474436019436
 40
1.0
 40
1.0
 40
1.0
 40
1.0
 10
1600.088490122069
 20
844.3910798506885
 30
0.0
 10
1600.879779642845
 20
845.2458760153482
 30
0.0
 10
1602.25105254172
 20
846.7272033726344
 30
0.0
 10
1603.308123251484
 20
848.7589803670239
 30
0.0
 10
1603.755214010472
 20
849.6183256408316
 30
0.0
  0
SPLINE
  5
2E2
330
1F
100
AcDbEntity
  8
0
  6
Continuous
 62
     8
370
    18
100
AcDbSpline
210
0.0
220
0.0
230
1.0
 70
     8
 71
     3
 72
    10
 73
     6
 74
     0
 42
0.000000001
 43
0.00000001
 40
0.0
 40
0.0
 40
0.0
 40
0.0
 40
0.394708216760174
 40
0.7987089853917805
 40
1.0
 40
1.0
 40
1.0
 40
1.0
 10
1600.088490122069
 20
844.3910798506885
 30
0.0
 10
1598.945119581595
 20
843.6610131368585
 30
0.0
 10
1596.631460312464
 20
842.1836918663322
 30
0.0
 10
1593.461591751859
 20
841.0632348040639
 30
0.0
 10
1591.492751725029
 20
840.8983120253358
 30
0.0
 10
1590.838009966466
 20
840.843466619564
 30
0.0
  0
LWPOLYLINE
  5
2E3
330
1F
100
AcDbEntity
  8
0
  6
Continuous
 62
     8
370
    18
100
AcDbPolyline
 90
       10
 70
   128
 43
0.0
 10
1613.0884901221
 20
855.3899630028
 10
1612.8909909112
 20
853.4800269871
 10
1612.3044941923
 20
851.6281234107
 10
1611.3468203713
 20
849.8905214267
 10
1610.0470678826
 20
848.3200171922
 10
1608.444729048
 20
846.9643296836
 10
1606.5884901221
 20
845.8646507798
 10
1604.5347519853
 20
845.0543936679
 10
1602.3459164317
 20
844.5581776001
 10
1600.0884901221
 20
844.3910798507
  0
LINE
  5
2E4
330
1F
100
AcDbEntity
  8
0
  6
Continuous
 62
     8
370
    18
100
AcDbLine
 10
1600.0884901221
 20
840.5350816169
 30
0.0
 11
1600.0884901221
 21
844.3910798507
 31
0.0
  0
SPLINE
  5
2E5
330
1F
100
AcDbEntity
  8
0
  6
Continuous
 62
     8
370
    18
100
AcDbSpline
210
0.0
220
0.0
230
1.0
 70
     8
 71
     3
 72
    17
 73
    13
 74
     0
 42
0.000000001
 43
0.00000001
 40
0.0
 40
0.0
 40
0.0
 40
0.0
 40
0.2229912195123282
 40
0.5008176009812381
 40
0.6858965399882523
 40
0.8665771651903624
 40
0.9279597470317501
 40
0.9497616361807834
 40
0.9717583090124088
 40
0.9770054670051969
 40
0.9922372900676851
 40
1.0
 40
1.0
 40
1.0
 40
1.0
 10
1538.889531570068
 20
843.9496059378112
 30
0.0
 10
1539.025274859183
 20
843.8491924793891
 30
0.0
 10
1539.330141699018
 20
843.6236731631436
 30
0.0
 10
1539.768673208944
 20
843.3447886216884
 30
0.0
 10
1540.184915837859
 20
843.0941676618784
 30
0.0
 10
1540.465502231649
 20
842.9361042756464
 30
0.0
 10
1540.632614387446
 20
842.8452617498176
 30
0.0
 10
1540.69060061011
 20
842.8139574180539
 30
0.0
 10
1540.712416541011
 20
842.8021540425791
 30
0.0
 10
1540.724239641268
 20
842.7956620783395
 30
0.0
 10
1540.728296790537
 20
842.7933470983187
 30
0.0
 10
1540.726876835064
 20
842.7939624406987
 30
0.0
 10
1540.726397473189
 20
842.7941701737457
 30
0.0
  0
LINE
  5
2E6
330
1F
100
AcDbEntity
  8
0
  6
Continuous
 62
     8
370
    18
100
AcDbLine
 10
1603.5884901221
 20
932.9846816169
 30
0.0
 11
1519.0884901221
 21
932.9846816169
 31
0.0
  0
LINE
  5
2E7
330
1F
100
AcDbEntity
  8
0
  6
Continuous
 62
     8
370
    18
100
AcDbLine
 10
1519.0634901221
 20
922.9846816169
 30
0.0
 11
1518.0634901221
 21
922.9846816169
 31
0.0
  0
LINE
  5
2E8
330
1F
100
AcDbEntity
  8
0
  6
Continuous
 62
     8
370
    18
100
AcDbLine
 10
1519.0634901221
 20
954.4846816169
 30
0.0
 11
1518.0634901221
 21
954.4846816169
 31
0.0
  0
LINE
  5
2E9
330
1F
100
AcDbEntity
  8
0
  6
Continuous
 62
     8
370
    18
100
AcDbLine
 10
1520.0634901221
 20
921.9846816169
 30
0.0
 11
1520.0634901221
 21
920.9846816169
 31
0.0
  0
LINE
  5
2EA
330
1F
100
AcDbEntity
  8
0
  6
Continuous
 62
     8
370
    18
100
AcDbLine
 10
1624.0634901221
 20
920.9846816169
 30
0.0
 11
1624.0634901221
 21
921.9846816169
 31
0.0
  0
LINE
  5
2EB
330
1F
100
AcDbEntity
  8
0
  6
Continuous
 62
     7
370
    35
100
AcDbLine
 10
410.6107245225
 20
699.2803727514
 30
0.0
 11
1290.6107245225
 21
699.2803727514
 31
0.0
  0
LINE
  5
2EC
330
1F
100
AcDbEntity
  8
0
  6
Continuous
 62
     7
370
    35
100
AcDbLine
 10
410.6107245225
 20
700.2803727514
 30
0.0
 11
410.6107245225
 21
699.2803727514
 31
0.0
  0
LINE
  5
2ED
330
1F
100
AcDbEntity
  8
0
  6
Continuous
 62
     7
370
    35
100
AcDbLine
 10
410.6107245225
 20
700.2803727514
 30
0.0
 11
1290.6107245225
 21
700.2803727514
 31
0.0
  0
LINE
  5
2EE
330
1F
100
AcDbEntity
  8
0
  6
Continuous
 62
     7
370
    35
100
AcDbLine
 10
1290.6107245225
 20
700.2803727514
 30
0.0
 11
1290.6107245225
 21
699.2803727514
 31
0.0
  0
LINE
  5
2EF
330
1F
100
AcDbEntity
  8
0
  6
Continuous
 62
     7
370
    35
100
AcDbLine
 10
1290.6107245225
 20
698.2803727514
 30
0.0
 11
1290.6107245225
 21
699.2803727514
 31
0.0
  0
LINE
  5
2F0
330
1F
100
AcDbEntity
  8
0
  6
Continuous
 62
     7
370
    35
100
AcDbLine
 10
410.6107245225
 20
699.2803727514
 30
0.0
 11
410.6107245225
 21
698.2803727514
 31
0.0
  0
LINE
  5
2F1
330
1F
100
AcDbEntity
  8
0
  6
Continuous
 62
     7
370
    35
100
AcDbLine
 10
1290.6107245225
 20
683.7803727514
 30
0.0
 11
1290.6107245225
 21
698.2803727514
 31
0.0
  0
LINE
  5
2F2
330
1F
100
AcDbEntity
  8
0
  6
Continuous
 62
     7
370
    35
100
AcDbLine
 10
410.6107245225
 20
698.2803727514
 30
0.0
 11
410.6107245225
 21
683.7803727514
 31
0.0
  0
LINE
  5
2F3
330
1F
100
AcDbEntity
  8
0
  6
Continuous
 62
     7
370
    35
100
AcDbLine
 10
410.6107245225
 20
682.0483219438
 30
0.0
 11
410.6107245225
 21
683.7803727514
 31
0.0
  0
LINE
  5
2F4
330
1F
100
AcDbEntity
  8
0
  6
Continuous
 62
     7
370
    35
100
AcDbLine
 10
1290.6107245225
 20
683.7803727514
 30
0.0
 11
1290.6107245225
 21
682.0483219438
 31
0.0
  0
LINE
  5
2F5
330
1F
100
AcDbEntity
  8
0
  6
Continuous
 62
     7
370
    35
100
AcDbLine
 10
1290.6107245225
 20
681.7803727514
 30
0.0
 11
410.6107245225
 21
681.7803727514
 31
0.0
  0
LINE
  5
2F6
330
1F
100
AcDbEntity
  8
0
  6
Continuous
 62
     7
370
    35
100
AcDbLine
 10
1290.6107245225
 20
617.6945863137
 30
0.0
 11
1290.6107245225
 21
614.866159189
 31
0.0
  0
LINE
  5
2F7
330
1F
100
AcDbEntity
  8
0
  6
Continuous
 62
     7
370
    35
100
AcDbLine
 10
410.6107245225
 20
614.7803727514
 30
0.0
 11
1290.6107245225
 21
614.7803727514
 31
0.0
  0
LINE
  5
2F8
330
1F
100
AcDbEntity
  8
0
  6
Continuous
 62
     7
370
    35
100
AcDbLine
 10
410.6107245225
 20
614.866159189
 30
0.0
 11
410.6107245225
 21
617.6945863137
 31
0.0
  0
LINE
  5
2F9
330
1F
100
AcDbEntity
  8
0
  6
Continuous
 62
     7
370
    35
100
AcDbLine
 10
410.6107245225
 20
617.7803727514
 30
0.0
 11
1290.6107245225
 21
617.7803727514
 31
0.0
  0
LINE
  5
2FA
330
1F
100
AcDbEntity
  8
0
  6
Continuous
 62
     7
370
    35
100
AcDbLine
 10
410.6107245225
 20
614.7803727514
 30
0.0
 11
410.6107245225
 21
613.7803727514
 31
0.0
  0
LINE
  5
2FB
330
1F
100
AcDbEntity
  8
0
  6
Continuous
 62
     7
370
    35
100
AcDbLine
 10
1290.6107245225
 20
613.7803727514
 30
0.0
 11
1290.6107245225
 21
614.7803727514
 31
0.0
  0
LINE
  5
2FC
330
1F
100
AcDbEntity
  8
0
  6
Continuous
 62
     7
370
    35
100
AcDbLine
 10
1290.6107245225
 20
584.2803727514
 30
0.0
 11
410.6107245225
 21
584.2803727514
 31
0.0
  0
LINE
  5
2FD
330
1F
100
AcDbEntity
  8
0
  6
Continuous
 62
     7
370
    35
100
AcDbLine
 10
410.6107245225
 20
584.2803727514
 30
0.0
 11
410.6107245225
 21
613.7803727514
 31
0.0
  0
LINE
  5
2FE
330
1F
100
AcDbEntity
  8
0
  6
Continuous
 62
     7
370
    35
100
AcDbLine
 10
1290.6107245225
 20
613.7803727514
 30
0.0
 11
1290.6107245225
 21
584.2803727514
 31
0.0
  0
LINE
  5
2FF
330
1F
100
AcDbEntity
  8
0
  6
Continuous
 62
     7
370
    35
100
AcDbLine
 10
797.6107245225
 20
679.0353524493
 30
0.0
 11
903.6107245225
 21
679.0353524493
 31
0.0
  0
SPLINE
  5
300
330
1F
100
AcDbEntity
  8
0
  6
Continuous
 62
     7
370
    35
100
AcDbSpline
210
0.0
220
0.0
230
1.0
 70
     8
 71
     3
 72
     8
 73
     4
 74
     0
 42
0.000000001
 43
0.00000001
 40
0.0
 40
0.0
 40
0.0
 40
0.0
 40
1.0
 40
1.0
 40
1.0
 40
1.0
 10
790.8434615505678
 20
678.8370881795698
 30
0.0
 10
793.096788541677
 20
678.9675759603707
 30
0.0
 10
795.353605990175
 20
679.0353524493211
 30
0.0
 10
797.6107245224555
 20
679.0353524493211
 30
0.0
  0
SPLINE
  5
301
330
1F
100
AcDbEntity
  8
0
  6
Continuous
 62
     7
370
    35
100
AcDbSpline
210
0.0
220
0.0
230
1.0
 70
     8
 71
     3
 72
     8
 73
     4
 74
     0
 42
0.000000001
 43
0.00000001
 40
0.0
 40
0.0
 40
0.0
 40
0.0
 40
1.0
 40
1.0
 40
1.0
 40
1.0
 10
903.6107245224555
 20
679.0353524493211
 30
0.0
 10
905.867838192201
 20
679.0353524493211
 30
0.0
 10
908.1246601969731
 20
678.9675759781302
 30
0.0
 10
910.3779874943432
 20
678.83708817957
 30
0.0
  0
SPLINE
  5
302
330
1F
100
AcDbEntity
  8
0
  6
Continuous
 62
     7
370
    35
100
AcDbSpline
210
0.0
220
0.0
230
1.0
 70
     8
 71
     3
 72
     8
 73
     4
 74
     0
 42
0.000000001
 43
0.00000001
 40
0.0
 40
0.0
 40
0.0
 40
0.0
 40
1.0
 40
1.0
 40
1.0
 40
1.0
 10
797.6107245224555
 20
620.5253930534066
 30
0.0
 10
795.35361085271
 20
620.5253930534066
 30
0.0
 10
793.0967888479378
 20
620.5931695245974
 30
0.0
 10
790.8434615505676
 20
620.7236573231577
 30
0.0
  0
LINE
  5
303
330
1F
100
AcDbEntity
  8
0
  6
Continuous
 62
     7
370
    35
100
AcDbLine
 10
903.6107245225
 20
620.5253930534
 30
0.0
 11
797.6107245225
 21
620.5253930534
 31
0.0
  0
SPLINE
  5
304
330
1F
100
AcDbEntity
  8
0
  6
Continuous
 62
     7
370
    35
100
AcDbSpline
210
0.0
220
0.0
230
1.0
 70
     8
 71
     3
 72
     8
 73
     4
 74
     0
 42
0.000000001
 43
0.00000001
 40
0.0
 40
0.0
 40
0.0
 40
0.0
 40
1.0
 40
1.0
 40
1.0
 40
1.0
 10
910.3779874943434
 20
620.7236573231578
 30
0.0
 10
908.1246605032339
 20
620.5931695423569
 30
0.0
 10
905.867843054736
 20
620.5253930534066
 30
0.0
 10
903.6107245224555
 20
620.5253930534066
 30
0.0
  0
SPLINE
  5
305
330
1F
100
AcDbEntity
  8
0
  6
Continuous
 62
     7
370
    35
100
AcDbSpline
210
0.0
220
0.0
230
1.0
 70
     8
 71
     3
 72
    10
 73
     6
 74
     0
 42
0.000000001
 43
0.00000001
 40
0.0
 40
0.0
 40
0.0
 40
0.0
 40
0.5
 40
0.5
 40
1.0
 40
1.0
 40
1.0
 40
1.0
 10
903.6107245224555
 20
679.0303727513639
 30
0.0
 10
904.7536846704128
 20
679.0303727513639
 30
0.0
 10
905.8888781481562
 20
679.0140987325353
 30
0.0
 10
908.1444044805272
 20
678.9496643405263
 30
0.0
 10
909.264740426583
 20
678.9015067632204
 30
0.0
 10
910.3779874943434
 20
678.8370655389273
 30
0.0
  0
SPLINE
  5
306
330
1F
100
AcDbEntity
  8
0
  6
Continuous
 62
     7
370
    35
100
AcDbSpline
210
0.0
220
0.0
230
1.0
 70
     8
 71
     3
 72
    10
 73
     6
 74
     0
 42
0.000000001
 43
0.00000001
 40
0.0
 40
0.0
 40
0.0
 40
0.0
 40
0.5
 40
0.5
 40
1.0
 40
1.0
 40
1.0
 40
1.0
 10
903.6107245224555
 20
676.7803727513639
 30
0.0
 10
904.6394642555443
 20
676.7803727513639
 30
0.0
 10
905.6611437318402
 20
676.7217792143548
 30
0.0
 10
907.6910693144869
 20
676.4898165403393
 30
0.0
 10
908.6993188312529
 20
676.3164598260519
 30
0.0
 10
909.7012611971544
 20
676.0844667865924
 30
0.0
  0
SPLINE
  5
307
330
1F
100
AcDbEntity
  8
0
  6
Continuous
 62
     7
370
    35
100
AcDbSpline
210
0.0
220
0.0
230
1.0
 70
     8
 71
     3
 72
    10
 73
     6
 74
     0
 42
0.000000001
 43
0.00000001
 40
0.0
 40
0.0
 40
0.0
 40
0.0
 40
0.5
 40
0.5
 40
1.0
 40
1.0
 40
1.0
 40
1.0
 10
790.8434615505676
 20
678.8370655389273
 30
0.0
 10
791.956708618328
 20
678.9015067632204
 30
0.0
 10
793.0770445643838
 20
678.9496643405263
 30
0.0
 10
795.3325708967548
 20
679.0140987325353
 30
0.0
 10
796.4677643744982
 20
679.0303727513639
 30
0.0
 10
797.6107245224555
 20
679.0303727513639
 30
0.0
  0
SPLINE
  5
308
330
1F
100
AcDbEntity
  8
0
  6
Continuous
 62
     7
370
    35
100
AcDbSpline
210
0.0
220
0.0
230
1.0
 70
     8
 71
     3
 72
    10
 73
     6
 74
     0
 42
0.000000001
 43
0.00000001
 40
0.0
 40
0.0
 40
0.0
 40
0.0
 40
0.5
 40
0.5
 40
1.0
 40
1.0
 40
1.0
 40
1.0
 10
791.5201878477566
 20
676.0844667865923
 30
0.0
 10
792.5221302136581
 20
676.3164598260519
 30
0.0
 10
793.5303797304241
 20
676.4898165403393
 30
0.0
 10
795.5603053130708
 20
676.7217792143548
 30
0.0
 10
796.5819847893666
 20
676.7803727513639
 30
0.0
 10
797.6107245224555
 20
676.7803727513639
 30
0.0
  0
SPLINE
  5
309
330
1F
100
AcDbEntity
  8
0
  6
Continuous
 62
     7
370
    35
100
AcDbSpline
210
0.0
220
0.0
230
1.0
 70
     8
 71
     3
 72
    10
 73
     6
 74
     0
 42
0.000000001
 43
0.00000001
 40
0.0
 40
0.0
 40
0.0
 40
0.0
 40
0.5
 40
0.5
 40
1.0
 40
1.0
 40
1.0
 40
1.0
 10
797.6107245224555
 20
620.5303727513638
 30
0.0
 10
796.4677643744982
 20
620.5303727513638
 30
0.0
 10
795.3325708967548
 20
620.5466467701922
 30
0.0
 10
793.0770445643836
 20
620.6110811622012
 30
0.0
 10
791.9567086183279
 20
620.6592387395074
 30
0.0
 10
790.8434615505674
 20
620.7236799638004
 30
0.0
  0
SPLINE
  5
30A
330
1F
100
AcDbEntity
  8
0
  6
Continuous
 62
     7
370
    35
100
AcDbSpline
210
0.0
220
0.0
230
1.0
 70
     8
 71
     3
 72
    10
 73
     6
 74
     0
 42
0.000000001
 43
0.00000001
 40
0.0
 40
0.0
 40
0.0
 40
0.0
 40
0.5
 40
0.5
 40
1.0
 40
1.0
 40
1.0
 40
1.0
 10
797.6107245224555
 20
622.7803727513638
 30
0.0
 10
796.5819847893666
 20
622.7803727513638
 30
0.0
 10
795.5603053130708
 20
622.8389662883728
 30
0.0
 10
793.530379730424
 20
623.0709289623882
 30
0.0
 10
792.522130213658
 20
623.2442856766758
 30
0.0
 10
791.5201878477563
 20
623.4762787161353
 30
0.0
  0
SPLINE
  5
30B
330
1F
100
AcDbEntity
  8
0
  6
Continuous
 62
     7
370
    35
100
AcDbSpline
210
0.0
220
0.0
230
1.0
 70
     8
 71
     3
 72
    10
 73
     6
 74
     0
 42
0.000000001
 43
0.00000001
 40
0.0
 40
0.0
 40
0.0
 40
0.0
 40
0.5
 40
0.5
 40
1.0
 40
1.0
 40
1.0
 40
1.0
 10
910.3779874943435
 20
620.7236799638004
 30
0.0
 10
909.2647404265831
 20
620.6592387395074
 30
0.0
 10
908.1444044805273
 20
620.6110811622012
 30
0.0
 10
905.8888781481562
 20
620.5466467701922
 30
0.0
 10
904.7536846704128
 20
620.5303727513638
 30
0.0
 10
903.6107245224555
 20
620.5303727513638
 30
0.0
  0
SPLINE
  5
30C
330
1F
100
AcDbEntity
  8
0
  6
Continuous
 62
     7
370
    35
100
AcDbSpline
210
0.0
220
0.0
230
1.0
 70
     8
 71
     3
 72
    10
 73
     6
 74
     0
 42
0.000000001
 43
0.00000001
 40
0.0
 40
0.0
 40
0.0
 40
0.0
 40
0.5
 40
0.5
 40
1.0
 40
1.0
 40
1.0
 40
1.0
 10
909.7012611971546
 20
623.4762787161353
 30
0.0
 10
908.6993188312529
 20
623.2442856766759
 30
0.0
 10
907.691069314487
 20
623.0709289623882
 30
0.0
 10
905.6611437318402
 20
622.8389662883728
 30
0.0
 10
904.6394642555443
 20
622.7803727513638
 30
0.0
 10
903.6107245224555
 20
622.7803727513638
 30
0.0
  0
LINE
  5
30D
330
1F
100
AcDbEntity
  8
0
  6
Continuous
 62
     7
370
    35
100
AcDbLine
 10
903.6107245225
 20
679.0303727514
 30
0.0
 11
797.6107245225
 21
679.0303727514
 31
0.0
  0
LINE
  5
30E
330
1F
100
AcDbEntity
  8
0
  6
Continuous
 62
     7
370
    35
100
AcDbLine
 10
797.6107245225
 20
676.7803727514
 30
0.0
 11
903.6107245225
 21
676.7803727514
 31
0.0
  0
LINE
  5
30F
330
1F
100
AcDbEntity
  8
0
  6
Continuous
 62
     7
370
    35
100
AcDbLine
 10
797.6107245225
 20
620.5303727514
 30
0.0
 11
903.6107245225
 21
620.5303727514
 31
0.0
  0
LINE
  5
310
330
1F
100
AcDbEntity
  8
0
  6
Continuous
 62
     7
370
    35
100
AcDbLine
 10
903.6107245225
 20
622.7803727514
 30
0.0
 11
797.6107245225
 21
622.7803727514
 31
0.0
  0
ARC
  5
311
330
1F
100
AcDbEntity
  8
0
  6
Continuous
 62
     7
370
    35
100
AcDbCircle
 10
903.6107245225
 20
649.7803727514
 30
0.0
 40
27.0000000000001
100
AcDbArc
 50
0.4331051188
 51
76.9632820449
  0
ARC
  5
312
330
1F
100
AcDbEntity
  8
0
  6
Continuous
 62
     7
370
    35
100
AcDbCircle
 10
797.6107245225
 20
649.7803727514
 30
0.0
 40
27.0000000000001
100
AcDbArc
 50
103.0367179551
 51
179.5668948812
  0
ARC
  5
313
330
1F
100
AcDbEntity
  8
0
  6
Continuous
 62
     7
370
    35
100
AcDbCircle
 10
797.6107245225
 20
649.7803727514
 30
0.0
 40
27.0000000000001
100
AcDbArc
 50
180.4331051188
 51
256.9632820449
  0
ARC
  5
314
330
1F
100
AcDbEntity
  8
0
  6
Continuous
 62
     7
370
    35
100
AcDbCircle
 10
903.6107245225
 20
649.7803727514
 30
0.0
 40
27.0000000000001
100
AcDbArc
 50
283.0367179551
 51
359.5668948812
  0
LINE
  5
315
330
1F
100
AcDbEntity
  8
0
  6
Continuous
 62
     7
370
    35
100
AcDbLine
 10
893.6107245225
 20
654.713547254
 30
0.0
 11
894.030325607
 21
657.5798962592
 31
0.0
  0
SPLINE
  5
316
330
1F
100
AcDbEntity
  8
0
  6
Continuous
 62
     7
370
    35
100
AcDbSpline
210
0.0
220
0.0
230
1.0
 70
     8
 71
     3
 72
    11
 73
     7
 74
     0
 42
0.000000001
 43
0.00000001
 40
0.0
 40
0.0
 40
0.0
 40
0.0
 40
0.2606216717109328
 40
0.4632004480822265
 40
0.6713667795608116
 40
1.0
 40
1.0
 40
1.0
 40
1.0
 10
894.030325606957
 20
657.5798962592454
 30
0.0
 10
894.3972069776185
 20
658.5816144390558
 30
0.0
 10
895.0492617901278
 20
660.3619587469341
 30
0.0
 10
896.5866266519506
 20
662.6169583689968
 30
0.0
 10
898.6013924364468
 20
664.8315925493489
 30
0.0
 10
900.4467205222842
 20
665.9520546473209
 30
0.0
 10
901.5764459653274
 20
666.6380110090971
 30
0.0
  0
SPLINE
  5
317
330
1F
100
AcDbEntity
  8
0
  6
Continuous
 62
     7
370
    35
100
AcDbSpline
210
0.0
220
0.0
230
1.0
 70
     8
 71
     3
 72
    16
 73
    12
 74
     0
 42
0.000000001
 43
0.00000001
 40
0.0
 40
0.0
 40
0.0
 40
0.0
 40
0.609364260452155
 40
0.7233750503883669
 40
0.8172213162021763
 40
0.8496365726798809
 40
0.8823612341657188
 40
0.9067814804504398
 40
0.9311421346358156
 40
0.9706402276081939
 40
1.0
 40
1.0
 40
1.0
 40
1.0
 10
901.5764459653274
 20
666.6380110090971
 30
0.0
 10
902.1532802349167
 20
666.9356660850468
 30
0.0
 10
902.8380390005854
 20
667.2890118086765
 30
0.0
 10
903.5052819717691
 20
667.8147501323341
 30
0.0
 10
903.6755353697473
 20
667.9999031423883
 30
0.0
 10
903.7438088304241
 20
668.1485594425601
 30
0.0
 10
903.7554479714181
 20
668.2421601079419
 30
0.0
 10
903.7309225232045
 20
668.32612279295
 30
0.0
 10
903.6746598155613
 20
668.4042617801232
 30
0.0
 10
903.5915876528971
 20
668.4664589759584
 30
0.0
 10
903.5231667844517
 20
668.4983489051878
 30
0.0
 10
903.4939933397948
 20
668.5119462053482
 30
0.0
  0
SPLINE
  5
318
330
1F
100
AcDbEntity
  8
0
  6
Continuous
 62
     7
370
    35
100
AcDbSpline
210
0.0
220
0.0
230
1.0
 70
     8
 71
     3
 72
    13
 73
     9
 74
     0
 42
0.000000001
 43
0.00000001
 40
0.0
 40
0.0
 40
0.0
 40
0.0
 40
0.158507776389369
 40
0.3168380823633751
 40
0.4791716695217883
 40
0.6493085002788196
 40
0.8235953482372531
 40
1.0
 40
1.0
 40
1.0
 40
1.0
 10
916.1383367596148
 20
654.1015254118388
 30
0.0
 10
915.8457616058556
 20
655.1118508636454
 30
0.0
 10
915.2609388749091
 20
657.1313705743188
 30
0.0
 10
913.7649123232221
 20
659.9519733258804
 30
0.0
 10
911.8382336535163
 20
662.5820241338648
 30
0.0
 10
909.4391592557374
 20
664.9449567301133
 30
0.0
 10
906.6468329830033
 20
667.0008490751895
 30
0.0
 10
904.549162454117
 20
668.0062233646961
 30
0.0
 10
903.4939933397948
 20
668.5119462053482
 30
0.0
  0
SPLINE
  5
319
330
1F
100
AcDbEntity
  8
0
  6
Continuous
 62
     7
370
    35
100
AcDbSpline
210
0.0
220
0.0
230
1.0
 70
     8
 71
     3
 72
     9
 73
     5
 74
     0
 42
0.000000001
 43
0.00000001
 40
0.0
 40
0.0
 40
0.0
 40
0.0
 40
0.4230848072461902
 40
1.0
 40
1.0
 40
1.0
 40
1.0
 10
916.1383367596148
 20
645.4592200908887
 30
0.0
 10
916.3644571658728
 20
646.6739357150437
 30
0.0
 10
916.8989136209026
 20
649.5450282320771
 30
0.0
 10
916.4165941754544
 20
652.4345286951961
 30
0.0
 10
916.1383367596148
 20
654.1015254118388
 30
0.0
  0
SPLINE
  5
31A
330
1F
100
AcDbEntity
  8
0
  6
Continuous
 62
     7
370
    35
100
AcDbSpline
210
0.0
220
0.0
230
1.0
 70
     8
 71
     3
 72
    13
 73
     9
 74
     0
 42
0.000000001
 43
0.00000001
 40
0.0
 40
0.0
 40
0.0
 40
0.0
 40
0.158507776389368
 40
0.3168380823633727
 40
0.479171669521785
 40
0.6493085002788154
 40
0.8235953482372542
 40
1.0
 40
1.0
 40
1.0
 40
1.0
 10
916.1383367596148
 20
645.4592200908887
 30
0.0
 10
915.8457616058556
 20
644.4488946390821
 30
0.0
 10
915.2609388749091
 20
642.4293749284088
 30
0.0
 10
913.7649123232221
 20
639.6087721768472
 30
0.0
 10
911.8382336535163
 20
636.9787213688628
 30
0.0
 10
909.4391592557374
 20
634.6157887726143
 30
0.0
 10
906.6468329830033
 20
632.5598964275378
 30
0.0
 10
904.549162454117
 20
631.5545221380314
 30
0.0
 10
903.4939933397947
 20
631.0487992973791
 30
0.0
  0
SPLINE
  5
31B
330
1F
100
AcDbEntity
  8
0
  6
Continuous
 62
     7
370
    35
100
AcDbSpline
210
0.0
220
0.0
230
1.0
 70
     8
 71
     3
 72
    16
 73
    12
 74
     0
 42
0.000000001
 43
0.00000001
 40
0.0
 40
0.0
 40
0.0
 40
0.0
 40
0.6093642604521567
 40
0.723375050388367
 40
0.8172213162021764
 40
0.849636572679881
 40
0.8823612341657189
 40
0.9067814804504399
 40
0.9311421346358156
 40
0.9706402276081939
 40
1.0
 40
1.0
 40
1.0
 40
1.0
 10
901.5764459653274
 20
632.9227344936303
 30
0.0
 10
902.1532802349167
 20
632.6250794176806
 30
0.0
 10
902.8380390005854
 20
632.271733694051
 30
0.0
 10
903.5052819717693
 20
631.7459953703933
 30
0.0
 10
903.6755353697473
 20
631.560842360339
 30
0.0
 10
903.7438088304241
 20
631.4121860601672
 30
0.0
 10
903.7554479714181
 20
631.3185853947856
 30
0.0
 10
903.7309225232045
 20
631.2346227097775
 30
0.0
 10
903.6746598155613
 20
631.1564837226043
 30
0.0
 10
903.5915876528971
 20
631.0942865267689
 30
0.0
 10
903.5231667844517
 20
631.0623965975395
 30
0.0
 10
903.4939933397947
 20
631.0487992973791
 30
0.0
  0
SPLINE
  5
31C
330
1F
100
AcDbEntity
  8
0
  6
Continuous
 62
     7
370
    35
100
AcDbSpline
210
0.0
220
0.0
230
1.0
 70
     8
 71
     3
 72
    11
 73
     7
 74
     0
 42
0.000000001
 43
0.00000001
 40
0.0
 40
0.0
 40
0.0
 40
0.0
 40
0.2606216717109334
 40
0.4632004480822243
 40
0.6713667795608066
 40
0.9999999999999999
 40
0.9999999999999999
 40
0.9999999999999999
 40
0.9999999999999999
 10
894.030325606957
 20
641.9808492434822
 30
0.0
 10
894.3972069776185
 20
640.9791310636718
 30
0.0
 10
895.0492617901278
 20
639.1987867557935
 30
0.0
 10
896.5866266519506
 20
636.9437871337308
 30
0.0
 10
898.6013924364468
 20
634.7291529533787
 30
0.0
 10
900.4467205222842
 20
633.6086908554066
 30
0.0
 10
901.5764459653274
 20
632.9227344936303
 30
0.0
  0
LINE
  5
31D
330
1F
100
AcDbEntity
  8
0
  6
Continuous
 62
     7
370
    35
100
AcDbLine
 10
893.6107245225
 20
644.8471982487
 30
0.0
 11
894.030325607
 21
641.9808492435
 31
0.0
  0
LINE
  5
31E
330
1F
100
AcDbEntity
  8
0
  6
Continuous
 62
     7
370
    35
100
AcDbLine
 10
893.6107245225
 20
644.8471982487
 30
0.0
 11
893.6107245225
 21
654.713547254
 31
0.0
  0
LINE
  5
31F
330
1F
100
AcDbEntity
  8
0
  6
Continuous
 62
     7
370
    35
100
AcDbLine
 10
807.6107245225
 20
644.8471982487
 30
0.0
 11
807.191123438
 21
641.9808492435
 31
0.0
  0
SPLINE
  5
320
330
1F
100
AcDbEntity
  8
0
  6
Continuous
 62
     7
370
    35
100
AcDbSpline
210
0.0
220
0.0
230
1.0
 70
     8
 71
     3
 72
    11
 73
     7
 74
     0
 42
0.000000001
 43
0.00000001
 40
0.0
 40
0.0
 40
0.0
 40
0.0
 40
0.2606216717109318
 40
0.4632004480822236
 40
0.6713667795608061
 40
1.0
 40
1.0
 40
1.0
 40
1.0
 10
807.1911234379533
 20
641.9808492434822
 30
0.0
 10
806.824242067292
 20
640.9791310636718
 30
0.0
 10
806.1721872547823
 20
639.1987867557935
 30
0.0
 10
804.6348223929598
 20
636.9437871337308
 30
0.0
 10
802.6200566084635
 20
634.7291529533787
 30
0.0
 10
800.774728522626
 20
633.6086908554066
 30
0.0
 10
799.6450030795829
 20
632.9227344936303
 30
0.0
  0
SPLINE
  5
321
330
1F
100
AcDbEntity
  8
0
  6
Continuous
 62
     7
370
    35
100
AcDbSpline
210
0.0
220
0.0
230
1.0
 70
     8
 71
     3
 72
    16
 73
    12
 74
     0
 42
0.000000001
 43
0.00000001
 40
0.0
 40
0.0
 40
0.0
 40
0.0
 40
0.6093642604521554
 40
0.7233750503883671
 40
0.8172213162021764
 40
0.8496365726798809
 40
0.8823612341657188
 40
0.9067814804504398
 40
0.9311421346358156
 40
0.9706402276081939
 40
0.9999999999999999
 40
0.9999999999999999
 40
0.9999999999999999
 40
0.9999999999999999
 10
799.6450030795829
 20
632.9227344936303
 30
0.0
 10
799.0681688099936
 20
632.6250794176806
 30
0.0
 10
798.3834100443249
 20
632.271733694051
 30
0.0
 10
797.7161670731412
 20
631.7459953703933
 30
0.0
 10
797.545913675163
 20
631.560842360339
 30
0.0
 10
797.4776402144863
 20
631.4121860601672
 30
0.0
 10
797.4660010734922
 20
631.3185853947856
 30
0.0
 10
797.4905265217056
 20
631.2346227097775
 30
0.0
 10
797.5467892293489
 20
631.1564837226043
 30
0.0
 10
797.6298613920131
 20
631.0942865267689
 30
0.0
 10
797.6982822604585
 20
631.0623965975395
 30
0.0
 10
797.7274557051156
 20
631.0487992973791
 30
0.0
  0
SPLINE
  5
322
330
1F
100
AcDbEntity
  8
0
  6
Continuous
 62
     7
370
    35
100
AcDbSpline
210
0.0
220
0.0
230
1.0
 70
     8
 71
     3
 72
    13
 73
     9
 74
     0
 42
0.000000001
 43
0.00000001
 40
0.0
 40
0.0
 40
0.0
 40
0.0
 40
0.1585077763893679
 40
0.3168380823633724
 40
0.4791716695217858
 40
0.6493085002788158
 40
0.8235953482372544
 40
1.0
 40
1.0
 40
1.0
 40
1.0
 10
785.0831122852954
 20
645.4592200908887
 30
0.0
 10
785.3756874390547
 20
644.4488946390821
 30
0.0
 10
785.960510170001
 20
642.4293749284088
 30
0.0
 10
787.4565367216882
 20
639.6087721768472
 30
0.0
 10
789.383215391394
 20
636.9787213688628
 30
0.0
 10
791.782289789173
 20
634.6157887726143
 30
0.0
 10
794.574616061907
 20
632.5598964275378
 30
0.0
 10
796.6722865907933
 20
631.5545221380314
 30
0.0
 10
797.7274557051156
 20
631.0487992973791
 30
0.0
  0
SPLINE
  5
323
330
1F
100
AcDbEntity
  8
0
  6
Continuous
 62
     7
370
    35
100
AcDbSpline
210
0.0
220
0.0
230
1.0
 70
     8
 71
     3
 72
     9
 73
     5
 74
     0
 42
0.000000001
 43
0.00000001
 40
0.0
 40
0.0
 40
0.0
 40
0.0
 40
0.4230848072461901
 40
1.0
 40
1.0
 40
1.0
 40
1.0
 10
785.0831122852954
 20
645.4592200908887
 30
0.0
 10
784.8569918790375
 20
646.6739357150439
 30
0.0
 10
784.3225354240077
 20
649.5450282320772
 30
0.0
 10
784.8048548694559
 20
652.4345286951963
 30
0.0
 10
785.0831122852954
 20
654.1015254118389
 30
0.0
  0
SPLINE
  5
324
330
1F
100
AcDbEntity
  8
0
  6
Continuous
 62
     7
370
    35
100
AcDbSpline
210
0.0
220
0.0
230
1.0
 70
     8
 71
     3
 72
    13
 73
     9
 74
     0
 42
0.000000001
 43
0.00000001
 40
0.0
 40
0.0
 40
0.0
 40
0.0
 40
0.1585077763893687
 40
0.3168380823633747
 40
0.4791716695217889
 40
0.6493085002788201
 40
0.8235953482372533
 40
1.0
 40
1.0
 40
1.0
 40
1.0
 10
785.0831122852954
 20
654.1015254118389
 30
0.0
 10
785.3756874390547
 20
655.1118508636455
 30
0.0
 10
785.960510170001
 20
657.1313705743188
 30
0.0
 10
787.4565367216882
 20
659.9519733258804
 30
0.0
 10
789.3832153913941
 20
662.5820241338648
 30
0.0
 10
791.782289789173
 20
664.9449567301133
 30
0.0
 10
794.574616061907
 20
667.0008490751895
 30
0.0
 10
796.6722865907933
 20
668.0062233646961
 30
0.0
 10
797.7274557051156
 20
668.5119462053482
 30
0.0
  0
SPLINE
  5
325
330
1F
100
AcDbEntity
  8
0
  6
Continuous
 62
     7
370
    35
100
AcDbSpline
210
0.0
220
0.0
230
1.0
 70
     8
 71
     3
 72
    16
 73
    12
 74
     0
 42
0.000000001
 43
0.00000001
 40
0.0
 40
0.0
 40
0.0
 40
0.0
 40
0.6093642604521535
 40
0.723375050388367
 40
0.8172213162021763
 40
0.8496365726798809
 40
0.8823612341657187
 40
0.9067814804504397
 40
0.9311421346358155
 40
0.9706402276081938
 40
0.9999999999999999
 40
0.9999999999999999
 40
0.9999999999999999
 40
0.9999999999999999
 10
799.6450030795829
 20
666.6380110090971
 30
0.0
 10
799.0681688099936
 20
666.9356660850468
 30
0.0
 10
798.3834100443249
 20
667.2890118086765
 30
0.0
 10
797.7161670731412
 20
667.8147501323341
 30
0.0
 10
797.5459136751631
 20
667.9999031423883
 30
0.0
 10
797.4776402144863
 20
668.1485594425602
 30
0.0
 10
797.4660010734922
 20
668.2421601079419
 30
0.0
 10
797.4905265217056
 20
668.32612279295
 30
0.0
 10
797.5467892293489
 20
668.4042617801232
 30
0.0
 10
797.6298613920131
 20
668.4664589759584
 30
0.0
 10
797.6982822604585
 20
668.4983489051878
 30
0.0
 10
797.7274557051156
 20
668.5119462053482
 30
0.0
  0
SPLINE
  5
326
330
1F
100
AcDbEntity
  8
0
  6
Continuous
 62
     7
370
    35
100
AcDbSpline
210
0.0
220
0.0
230
1.0
 70
     8
 71
     3
 72
    11
 73
     7
 74
     0
 42
0.000000001
 43
0.00000001
 40
0.0
 40
0.0
 40
0.0
 40
0.0
 40
0.2606216717109345
 40
0.4632004480822275
 40
0.6713667795608124
 40
1.0
 40
1.0
 40
1.0
 40
1.0
 10
807.1911234379533
 20
657.5798962592454
 30
0.0
 10
806.824242067292
 20
658.5816144390558
 30
0.0
 10
806.1721872547826
 20
660.3619587469341
 30
0.0
 10
804.6348223929598
 20
662.6169583689968
 30
0.0
 10
802.6200566084636
 20
664.8315925493489
 30
0.0
 10
800.774728522626
 20
665.9520546473209
 30
0.0
 10
799.6450030795829
 20
666.6380110090971
 30
0.0
  0
LINE
  5
327
330
1F
100
AcDbEntity
  8
0
  6
Continuous
 62
     7
370
    35
100
AcDbLine
 10
807.6107245225
 20
654.713547254
 30
0.0
 11
807.191123438
 21
657.5798962592
 31
0.0
  0
LINE
  5
328
330
1F
100
AcDbEntity
  8
0
  6
Continuous
 62
     7
370
    35
100
AcDbLine
 10
807.6107245225
 20
644.8471982487
 30
0.0
 11
807.6107245225
 21
654.713547254
 31
0.0
  0
SPLINE
  5
329
330
1F
100
AcDbEntity
  8
0
  6
Continuous
 62
     7
370
    35
100
AcDbSpline
210
0.0
220
0.0
230
1.0
 70
     8
 71
     3
 72
    17
 73
    13
 74
     0
 42
0.000000001
 43
0.00000001
 40
0.0
 40
0.0
 40
0.0
 40
0.0
 40
0.0364925733413331
 40
0.1833587448077186
 40
0.2877156143828465
 40
0.393483730490557
 40
0.4992474923956525
 40
0.6063189697897159
 40
0.7133499989193074
 40
0.8177518468878906
 40
0.9088657685707867
 40
1.0
 40
1.0
 40
1.0
 40
1.0
 10
903.6107245224551
 20
671.5216452188994
 30
0.0
 10
904.025530158455
 20
671.5138405559564
 30
0.0
 10
906.1097416511523
 20
671.4746256398835
 30
0.0
 10
909.3653199712458
 20
670.8864419011096
 30
0.0
 10
913.165967859037
 20
669.4215114503522
 30
0.0
 10
916.2633976569302
 20
667.5704685761634
 30
0.0
 10
919.0520123589991
 20
665.2337320854165
 30
0.0
 10
921.4056315091422
 20
662.4384489014418
 30
0.0
 10
923.2600619147975
 20
659.308652654655
 30
0.0
 10
924.5034861508603
 20
656.0872046857406
 30
0.0
 10
925.2153339319995
 20
652.8903285407413
 30
0.0
 10
925.3045594715467
 20
650.8171016946688
 30
0.0
 10
925.3491772129703
 20
649.7803727513638
 30
0.0
  0
SPLINE
  5
32A
330
1F
100
AcDbEntity
  8
0
  6
Continuous
 62
     7
370
    35
100
AcDbSpline
210
0.0
220
0.0
230
1.0
 70
     8
 71
     3
 72
    17
 73
    13
 74
     0
 42
0.000000001
 43
0.00000001
 40
0.0
 40
0.0
 40
0.0
 40
0.0
 40
0.036492573341333
 40
0.1833587448077184
 40
0.2877156143828462
 40
0.3934837304905568
 40
0.4992474923956529
 40
0.6063189697897161
 40
0.7133499989193075
 40
0.8177518468878905
 40
0.9088657685707868
 40
1.0
 40
1.0
 40
1.0
 40
1.0
 10
797.6107245224553
 20
671.5216452188994
 30
0.0
 10
797.1959188864553
 20
671.5138405559564
 30
0.0
 10
795.1117073937581
 20
671.4746256398836
 30
0.0
 10
791.8561290736646
 20
670.8864419011096
 30
0.0
 10
788.0554811858734
 20
669.4215114503522
 30
0.0
 10
784.95805138798
 20
667.5704685761634
 30
0.0
 10
782.1694366859111
 20
665.2337320854165
 30
0.0
 10
779.815817535768
 20
662.4384489014418
 30
0.0
 10
777.9613871301127
 20
659.3086526546551
 30
0.0
 10
776.7179628940498
 20
656.0872046857406
 30
0.0
 10
776.0061151129108
 20
652.8903285407414
 30
0.0
 10
775.9168895733637
 20
650.8171016946688
 30
0.0
 10
775.87227183194
 20
649.7803727513638
 30
0.0
  0
SPLINE
  5
32B
330
1F
100
AcDbEntity
  8
0
  6
Continuous
 62
     7
370
    35
100
AcDbSpline
210
0.0
220
0.0
230
1.0
 70
     8
 71
     3
 72
    17
 73
    13
 74
     0
 42
0.000000001
 43
0.00000001
 40
0.0
 40
0.0
 40
0.0
 40
0.0
 40
0.0364925733413329
 40
0.1833587448077177
 40
0.2877156143828452
 40
0.3934837304905571
 40
0.4992474923956548
 40
0.6063189697897177
 40
0.7133499989193087
 40
0.8177518468878912
 40
0.908865768570787
 40
1.0
 40
1.0
 40
1.0
 40
1.0
 10
797.6107245224553
 20
628.039100283828
 30
0.0
 10
797.1959188864553
 20
628.0469049467711
 30
0.0
 10
795.1117073937581
 20
628.0861198628439
 30
0.0
 10
791.8561290736645
 20
628.6743036016178
 30
0.0
 10
788.0554811858732
 20
630.1392340523753
 30
0.0
 10
784.95805138798
 20
631.9902769265641
 30
0.0
 10
782.1694366859113
 20
634.3270134173112
 30
0.0
 10
779.815817535768
 20
637.1222966012858
 30
0.0
 10
777.9613871301127
 20
640.2520928480725
 30
0.0
 10
776.7179628940498
 20
643.473540816987
 30
0.0
 10
776.0061151129108
 20
646.6704169619862
 30
0.0
 10
775.9168895733637
 20
648.7436438080588
 30
0.0
 10
775.87227183194
 20
649.7803727513638
 30
0.0
  0
SPLINE
  5
32C
330
1F
100
AcDbEntity
  8
0
  6
Continuous
 62
     7
370
    35
100
AcDbSpline
210
0.0
220
0.0
230
1.0
 70
     8
 71
     3
 72
    17
 73
    13
 74
     0
 42
0.000000001
 43
0.00000001
 40
0.0
 40
0.0
 40
0.0
 40
0.0
 40
0.0364925733413329
 40
0.1833587448077179
 40
0.2877156143828454
 40
0.3934837304905569
 40
0.4992474923956543
 40
0.6063189697897172
 40
0.7133499989193084
 40
0.8177518468878908
 40
0.9088657685707869
 40
1.0
 40
1.0
 40
1.0
 40
1.0
 10
903.6107245224551
 20
628.039100283828
 30
0.0
 10
904.025530158455
 20
628.0469049467711
 30
0.0
 10
906.1097416511521
 20
628.0861198628439
 30
0.0
 10
909.3653199712458
 20
628.6743036016178
 30
0.0
 10
913.165967859037
 20
630.1392340523751
 30
0.0
 10
916.2633976569302
 20
631.9902769265641
 30
0.0
 10
919.052012358999
 20
634.3270134173112
 30
0.0
 10
921.4056315091422
 20
637.1222966012858
 30
0.0
 10
923.2600619147975
 20
640.2520928480725
 30
0.0
 10
924.5034861508603
 20
643.473540816987
 30
0.0
 10
925.2153339319995
 20
646.6704169619862
 30
0.0
 10
925.3045594715467
 20
648.7436438080587
 30
0.0
 10
925.3491772129703
 20
649.7803727513638
 30
0.0
  0
LINE
  5
32D
330
1F
100
AcDbEntity
  8
0
  6
Continuous
 62
     7
370
    35
100
AcDbLine
 10
807.4545533323
 20
643.7803727514
 30
0.0
 11
893.7668957127
 21
643.7803727514
 31
0.0
  0
LINE
  5
32E
330
1F
100
AcDbEntity
  8
0
  6
Continuous
 62
     7
370
    35
100
AcDbLine
 10
903.6107245225
 20
671.5216452189
 30
0.0
 11
797.6107245225
 21
671.5216452189
 31
0.0
  0
LINE
  5
32F
330
1F
100
AcDbEntity
  8
0
  6
Continuous
 62
     7
370
    35
100
AcDbLine
 10
903.6107245225
 20
628.0391002838
 30
0.0
 11
797.6107245225
 21
628.0391002838
 31
0.0
  0
LINE
  5
330
330
1F
100
AcDbEntity
  8
0
  6
Continuous
 62
     7
370
    35
100
AcDbLine
 10
807.4545533323
 20
655.7803727514
 30
0.0
 11
893.7668957127
 21
655.7803727514
 31
0.0
  0
LINE
  5
331
330
1F
100
AcDbEntity
  8
0
  6
Continuous
 62
     7
370
    35
100
AcDbLine
 10
903.6107245225
 20
671.5303727514
 30
0.0
 11
797.6107245225
 21
671.5303727514
 31
0.0
  0
ARC
  5
332
330
1F
100
AcDbEntity
  8
0
  6
Continuous
 62
     7
370
    35
100
AcDbCircle
 10
903.6107245225
 20
649.7803727514
 30
0.0
 40
21.75000000000011
100
AcDbArc
 50
270.0
 51
90.0
  0
ARC
  5
333
330
1F
100
AcDbEntity
  8
0
  6
Continuous
 62
     7
370
    35
100
AcDbCircle
 10
797.6107245225
 20
649.7803727514
 30
0.0
 40
21.75000000000011
100
AcDbArc
 50
90.0
 51
270.0
  0
LINE
  5
334
330
1F
100
AcDbEntity
  8
0
  6
Continuous
 62
     7
370
    35
100
AcDbLine
 10
903.6107245225
 20
628.0303727514
 30
0.0
 11
797.6107245225
 21
628.0303727514
 31
0.0
  0
LINE
  5
335
330
1F
100
AcDbEntity
  8
0
  6
Continuous
 62
     7
370
    35
100
AcDbLine
 10
1292.6107245225
 20
614.7803727514
 30
0.0
 11
1291.6107245225
 21
614.7803727514
 31
0.0
  0
LINE
  5
336
330
1F
100
AcDbEntity
  8
0
  6
Continuous
 62
     7
370
    35
100
AcDbLine
 10
1291.6107245225
 20
699.2803727514
 30
0.0
 11
1292.6107245225
 21
699.2803727514
 31
0.0
  0
LINE
  5
337
330
1F
100
AcDbEntity
  8
0
  6
Continuous
 62
     7
370
    35
100
AcDbLine
 10
1292.6107245225
 20
699.2803727514
 30
0.0
 11
1292.6107245225
 21
614.7803727514
 31
0.0
  0
LINE
  5
338
330
1F
100
AcDbEntity
  8
0
  6
Continuous
 62
     7
370
    35
100
AcDbLine
 10
1291.6107245225
 20
614.7803727514
 30
0.0
 11
1290.6107245225
 21
614.7803727514
 31
0.0
  0
LINE
  5
339
330
1F
100
AcDbEntity
  8
0
  6
Continuous
 62
     7
370
    35
100
AcDbLine
 10
1290.6107245225
 20
614.7803727514
 30
0.0
 11
1290.6107245225
 21
614.866159189
 31
0.0
  0
LINE
  5
33A
330
1F
100
AcDbEntity
  8
0
  6
Continuous
 62
     7
370
    35
100
AcDbLine
 10
1290.6107245225
 20
617.6945863137
 30
0.0
 11
1290.6107245225
 21
682.0483219438
 31
0.0
  0
LINE
  5
33B
330
1F
100
AcDbEntity
  8
0
  6
Continuous
 62
     7
370
    35
100
AcDbLine
 10
1290.6107245225
 20
699.2803727514
 30
0.0
 11
1291.6107245225
 21
699.2803727514
 31
0.0
  0
LINE
  5
33C
330
1F
100
AcDbEntity
  8
0
  6
Continuous
 62
     7
370
    35
100
AcDbLine
 10
409.6107245225
 20
614.7803727514
 30
0.0
 11
408.6107245225
 21
614.7803727514
 31
0.0
  0
LINE
  5
33D
330
1F
100
AcDbEntity
  8
0
  6
Continuous
 62
     7
370
    35
100
AcDbLine
 10
408.6107245225
 20
614.7803727514
 30
0.0
 11
408.6107245225
 21
699.2803727514
 31
0.0
  0
LINE
  5
33E
330
1F
100
AcDbEntity
  8
0
  6
Continuous
 62
     7
370
    35
100
AcDbLine
 10
408.6107245225
 20
699.2803727514
 30
0.0
 11
409.6107245225
 21
699.2803727514
 31
0.0
  0
LINE
  5
33F
330
1F
100
AcDbEntity
  8
0
  6
Continuous
 62
     7
370
    35
100
AcDbLine
 10
410.6107245225
 20
614.7803727514
 30
0.0
 11
409.6107245225
 21
614.7803727514
 31
0.0
  0
LINE
  5
340
330
1F
100
AcDbEntity
  8
0
  6
Continuous
 62
     7
370
    35
100
AcDbLine
 10
410.6107245225
 20
682.0483219438
 30
0.0
 11
410.6107245225
 21
617.6945863137
 31
0.0
  0
LINE
  5
341
330
1F
100
AcDbEntity
  8
0
  6
Continuous
 62
     7
370
    35
100
AcDbLine
 10
410.6107245225
 20
614.866159189
 30
0.0
 11
410.6107245225
 21
614.7803727514
 31
0.0
  0
LINE
  5
342
330
1F
100
AcDbEntity
  8
0
  6
Continuous
 62
     7
370
    35
100
AcDbLine
 10
409.6107245225
 20
699.2803727514
 30
0.0
 11
410.6107245225
 21
699.2803727514
 31
0.0
  0
LINE
  5
343
330
1F
100
AcDbEntity
  8
0
  6
Continuous
 62
     7
370
    35
100
AcDbLine
 10
410.6107245225
 20
700.3053727514
 30
0.0
 11
410.6107245225
 21
699.3053727514
 31
0.0
  0
LINE
  5
344
330
1F
100
AcDbEntity
  8
0
  6
Continuous
 62
     7
370
    35
100
AcDbLine
 10
410.6107245225
 20
699.3053727514
 30
0.0
 11
388.1107245225
 21
699.3053727514
 31
0.0
  0
LINE
  5
345
330
1F
100
AcDbEntity
  8
0
  6
Continuous
 62
     7
370
    35
100
AcDbLine
 10
410.6107245225
 20
700.3053727514
 30
0.0
 11
388.1107245225
 21
700.3053727514
 31
0.0
  0
LINE
  5
346
330
1F
100
AcDbEntity
  8
0
  6
Continuous
 62
     7
370
    35
100
AcDbLine
 10
378.1107245225
 20
699.3053727514
 30
0.0
 11
378.1107245225
 21
700.3053727514
 31
0.0
  0
LINE
  5
347
330
1F
100
AcDbEntity
  8
0
  6
Continuous
 62
     7
370
    35
100
AcDbLine
 10
378.1107245225
 20
700.3053727514
 30
0.0
 11
388.1107245225
 21
700.3053727514
 31
0.0
  0
LINE
  5
348
330
1F
100
AcDbEntity
  8
0
  6
Continuous
 62
     7
370
    35
100
AcDbLine
 10
388.1107245225
 20
699.3053727514
 30
0.0
 11
378.1107245225
 21
699.3053727514
 31
0.0
  0
LINE
  5
349
330
1F
100
AcDbEntity
  8
0
  6
Continuous
 62
     7
370
    35
100
AcDbLine
 10
378.1107245225
 20
699.3053727514
 30
0.0
 11
378.1107245225
 21
698.3053727514
 31
0.0
  0
LINE
  5
34A
330
1F
100
AcDbEntity
  8
0
  6
Continuous
 62
     7
370
    35
100
AcDbLine
 10
410.6107245225
 20
613.7803727514
 30
0.0
 11
410.6107245225
 21
584.3053727514
 31
0.0
  0
LINE
  5
34B
330
1F
100
AcDbEntity
  8
0
  6
Continuous
 62
     7
370
    35
100
AcDbLine
 10
410.6107245225
 20
584.3053727514
 30
0.0
 11
388.1107245225
 21
584.3053727514
 31
0.0
  0
ARC
  5
34C
330
1F
100
AcDbEntity
  8
0
  6
Continuous
 62
     7
370
    35
100
AcDbCircle
 10
388.1107245225
 20
594.3053727514
 30
0.0
 40
10.0
100
AcDbArc
 50
180.0
 51
270.0
  0
LINE
  5
34D
330
1F
100
AcDbEntity
  8
0
  6
Continuous
 62
     7
370
    35
100
AcDbLine
 10
378.1107245225
 20
594.3053727514
 30
0.0
 11
378.1107245225
 21
698.3053727514
 31
0.0
  0
LINE
  5
34E
330
1F
100
AcDbEntity
  8
0
  6
Continuous
 62
     7
370
    35
100
AcDbLine
 10
1323.1107245225
 20
700.3053727514
 30
0.0
 11
1323.1107245225
 21
699.3053727514
 31
0.0
  0
LINE
  5
34F
330
1F
100
AcDbEntity
  8
0
  6
Continuous
 62
     7
370
    35
100
AcDbLine
 10
1323.1107245225
 20
699.3053727514
 30
0.0
 11
1313.1107245225
 21
699.3053727514
 31
0.0
  0
LINE
  5
350
330
1F
100
AcDbEntity
  8
0
  6
Continuous
 62
     7
370
    35
100
AcDbLine
 10
1313.1107245225
 20
700.3053727514
 30
0.0
 11
1323.1107245225
 21
700.3053727514
 31
0.0
  0
LINE
  5
351
330
1F
100
AcDbEntity
  8
0
  6
Continuous
 62
     7
370
    35
100
AcDbLine
 10
1290.6107245225
 20
700.3053727514
 30
0.0
 11
1290.6107245225
 21
699.3053727514
 31
0.0
  0
LINE
  5
352
330
1F
100
AcDbEntity
  8
0
  6
Continuous
 62
     7
370
    35
100
AcDbLine
 10
1290.6107245225
 20
700.3053727514
 30
0.0
 11
1313.1107245225
 21
700.3053727514
 31
0.0
  0
LINE
  5
353
330
1F
100
AcDbEntity
  8
0
  6
Continuous
 62
     7
370
    35
100
AcDbLine
 10
1290.6107245225
 20
699.3053727514
 30
0.0
 11
1313.1107245225
 21
699.3053727514
 31
0.0
  0
LINE
  5
354
330
1F
100
AcDbEntity
  8
0
  6
Continuous
 62
     7
370
    35
100
AcDbLine
 10
1323.1107245225
 20
698.3053727514
 30
0.0
 11
1323.1107245225
 21
699.3053727514
 31
0.0
  0
ARC
  5
355
330
1F
100
AcDbEntity
  8
0
  6
Continuous
 62
     7
370
    35
100
AcDbCircle
 10
1313.1107245225
 20
594.3053727514
 30
0.0
 40
10.0
100
AcDbArc
 50
270.0
 51
0.0
  0
LINE
  5
356
330
1F
100
AcDbEntity
  8
0
  6
Continuous
 62
     7
370
    35
100
AcDbLine
 10
1290.6107245225
 20
584.3053727514
 30
0.0
 11
1313.1107245225
 21
584.3053727514
 31
0.0
  0
LINE
  5
357
330
1F
100
AcDbEntity
  8
0
  6
Continuous
 62
     7
370
    35
100
AcDbLine
 10
1290.6107245225
 20
613.7803727514
 30
0.0
 11
1290.6107245225
 21
584.3053727514
 31
0.0
  0
LINE
  5
358
330
1F
100
AcDbEntity
  8
0
  6
Continuous
 62
     7
370
    35
100
AcDbLine
 10
1323.1107245225
 20
594.3053727514
 30
0.0
 11
1323.1107245225
 21
698.3053727514
 31
0.0
  0
LINE
  5
359
330
1F
100
AcDbEntity
  8
0
  6
Continuous
 62
     8
370
    18
100
AcDbLine
 10
410.6107245225
 20
698.2803727514
 30
0.0
 11
1290.6107245225
 21
698.2803727514
 31
0.0
  0
LINE
  5
35A
330
1F
100
AcDbEntity
  8
0
  6
Continuous
 62
     8
370
    18
100
AcDbLine
 10
1290.6107245225
 20
683.7803727514
 30
0.0
 11
410.6107245225
 21
683.7803727514
 31
0.0
  0
LINE
  5
35B
330
1F
100
AcDbEntity
  8
0
  6
Continuous
 62
     8
370
    18
100
AcDbLine
 10
410.6107245225
 20
613.7803727514
 30
0.0
 11
1290.6107245225
 21
613.7803727514
 31
0.0
  0
LINE
  5
35C
330
1F
100
AcDbEntity
  8
0
  6
Continuous
 62
     8
370
    18
100
AcDbLine
 10
410.6107245225
 20
680.8370655389
 30
0.0
 11
1290.6107245225
 21
680.8370655389
 31
0.0
  0
LINE
  5
35D
330
1F
100
AcDbEntity
  8
0
  6
Continuous
 62
     8
370
    18
100
AcDbLine
 10
410.6107245225
 20
618.7236799638
 30
0.0
 11
1290.6107245225
 21
618.7236799638
 31
0.0
  0
SPLINE
  5
35E
330
1F
100
AcDbEntity
  8
0
  6
Continuous
 62
     8
370
    18
100
AcDbSpline
210
0.0
220
0.0
230
1.0
 70
     8
 71
     3
 72
    14
 73
    10
 74
     0
 42
0.000000001
 43
0.00000001
 40
0.0
 40
0.0
 40
0.0
 40
0.0
 40
0.2500000000000001
 40
0.2500000000000001
 40
0.5000000000000001
 40
0.5000000000000001
 40
0.7500000000000001
 40
0.7500000000000001
 40
1.0
 40
1.0
 40
1.0
 40
1.0
 10
767.6115816206088
 20
649.8370655389273
 30
0.0
 10
767.6368232067521
 20
653.1762290477425
 30
0.0
 10
768.2246991499399
 20
656.5104511174834
 30
0.0
 10
770.4612460510356
 20
662.8033406178873
 30
0.0
 10
772.1094559883379
 20
665.7607108918814
 30
0.0
 10
776.284985882591
 20
670.9729609249571
 30
0.0
 10
778.8114451353373
 20
673.2267662801593
 30
0.0
 10
784.464669686919
 20
676.7825576793405
 30
0.0
 10
787.5902696835623
 20
678.0838107661419
 30
0.0
 10
790.8434615505678
 20
678.8370655389272
 30
0.0
  0
LINE
  5
35F
330
1F
100
AcDbEntity
  8
0
  6
Continuous
 62
     8
370
    18
100
AcDbLine
 10
410.6107245225
 20
649.8370655389
 30
0.0
 11
767.6115816206
 21
649.8370655389
 31
0.0
  0
LINE
  5
360
330
1F
100
AcDbEntity
  8
0
  6
Continuous
 62
     8
370
    18
100
AcDbLine
 10
933.6098674243
 20
649.8370655389
 30
0.0
 11
1290.6107245225
 21
649.8370655389
 31
0.0
  0
SPLINE
  5
361
330
1F
100
AcDbEntity
  8
0
  6
Continuous
 62
     8
370
    18
100
AcDbSpline
210
0.0
220
0.0
230
1.0
 70
     8
 71
     3
 72
    14
 73
    10
 74
     0
 42
0.000000001
 43
0.00000001
 40
0.0
 40
0.0
 40
0.0
 40
0.0
 40
0.25
 40
0.25
 40
0.5
 40
0.5
 40
0.75
 40
0.75
 40
1.0
 40
1.0
 40
1.0
 40
1.0
 10
910.3779874943432
 20
678.8370655389273
 30
0.0
 10
913.6311793613487
 20
678.0838107661419
 30
0.0
 10
916.756779357992
 20
676.7825576793405
 30
0.0
 10
922.4100039095736
 20
673.2267662801593
 30
0.0
 10
924.93646316232
 20
670.9729609249571
 30
0.0
 10
929.111993056573
 20
665.7607108918814
 30
0.0
 10
930.7602029938754
 20
662.8033406178873
 30
0.0
 10
932.9967498949711
 20
656.5104511174833
 30
0.0
 10
933.5846258381589
 20
653.1762290477424
 30
0.0
 10
933.609867424302
 20
649.8370655389272
 30
0.0
  0
LINE
  5
362
330
1F
100
AcDbEntity
  8
0
  6
Continuous
 62
     8
370
    18
100
AcDbLine
 10
410.6107245225
 20
649.7236799638
 30
0.0
 11
767.6115816206
 21
649.7236799638
 31
0.0
  0
SPLINE
  5
363
330
1F
100
AcDbEntity
  8
0
  6
Continuous
 62
     8
370
    18
100
AcDbSpline
210
0.0
220
0.0
230
1.0
 70
     8
 71
     3
 72
    14
 73
    10
 74
     0
 42
0.000000001
 43
0.00000001
 40
0.0
 40
0.0
 40
0.0
 40
0.0
 40
0.2500000000000002
 40
0.2500000000000002
 40
0.5000000000000003
 40
0.5000000000000003
 40
0.7500000000000002
 40
0.7500000000000002
 40
1.0
 40
1.0
 40
1.0
 40
1.0
 10
790.8434615505676
 20
620.7236799638005
 30
0.0
 10
787.5902696835622
 20
621.4769347365857
 30
0.0
 10
784.464669686919
 20
622.7781878233872
 30
0.0
 10
778.8114451353373
 20
626.3339792225684
 30
0.0
 10
776.2849858825908
 20
628.5877845777705
 30
0.0
 10
772.1094559883379
 20
633.8000346108462
 30
0.0
 10
770.4612460510356
 20
636.7574048848403
 30
0.0
 10
768.2246991499397
 20
643.0502943852442
 30
0.0
 10
767.6368232067521
 20
646.3845164549851
 30
0.0
 10
767.6115816206088
 20
649.7236799638004
 30
0.0
  0
SPLINE
  5
364
330
1F
100
AcDbEntity
  8
0
  6
Continuous
 62
     8
370
    18
100
AcDbSpline
210
0.0
220
0.0
230
1.0
 70
     8
 71
     3
 72
    14
 73
    10
 74
     0
 42
0.000000001
 43
0.00000001
 40
0.0
 40
0.0
 40
0.0
 40
0.0
 40
0.25
 40
0.25
 40
0.5
 40
0.5
 40
0.75
 40
0.75
 40
1.0
 40
1.0
 40
1.0
 40
1.0
 10
933.609867424302
 20
649.7236799638004
 30
0.0
 10
933.5846258381589
 20
646.3845164549851
 30
0.0
 10
932.9967498949711
 20
643.0502943852443
 30
0.0
 10
930.7602029938754
 20
636.7574048848403
 30
0.0
 10
929.111993056573
 20
633.8000346108462
 30
0.0
 10
924.9364631623201
 20
628.5877845777705
 30
0.0
 10
922.4100039095737
 20
626.3339792225684
 30
0.0
 10
916.756779357992
 20
622.7781878233872
 30
0.0
 10
913.6311793613487
 20
621.4769347365857
 30
0.0
 10
910.3779874943434
 20
620.7236799638005
 30
0.0
  0
LINE
  5
365
330
1F
100
AcDbEntity
  8
0
  6
Continuous
 62
     8
370
    18
100
AcDbLine
 10
933.6098674243
 20
649.7236799638
 30
0.0
 11
1290.6107245225
 21
649.7236799638
 31
0.0
  0
LINE
  5
366
330
1F
100
AcDbEntity
  8
0
  6
Continuous
 62
     8
370
    18
100
AcDbLine
 10
903.6107245225
 20
679.0353524493
 30
0.0
 11
903.6107245225
 21
679.0303727514
 31
0.0
  0
ARC
  5
367
330
1F
100
AcDbEntity
  8
0
  6
Continuous
 62
     8
370
    18
100
AcDbCircle
 10
857.3610139226
 20
690.4118005053
 30
0.0
 40
54.2657716820375
100
AcDbArc
 50
344.6911781266
 51
347.6843554441
  0
LINE
  5
368
330
1F
100
AcDbEntity
  8
0
  6
Continuous
 62
     8
370
    18
100
AcDbLine
 10
903.6107245225
 20
679.0303727514
 30
0.0
 11
903.6107245225
 21
676.7803727514
 31
0.0
  0
LINE
  5
369
330
1F
100
AcDbEntity
  8
0
  6
Continuous
 62
     8
370
    18
100
AcDbLine
 10
797.6107245225
 20
679.0353524493
 30
0.0
 11
797.6107245225
 21
679.0303727514
 31
0.0
  0
LINE
  5
36A
330
1F
100
AcDbEntity
  8
0
  6
Continuous
 62
     8
370
    18
100
AcDbLine
 10
797.6107245225
 20
679.0303727514
 30
0.0
 11
797.6107245225
 21
676.7803727514
 31
0.0
  0
ARC
  5
36B
330
1F
100
AcDbEntity
  8
0
  6
Continuous
 62
     8
370
    18
100
AcDbCircle
 10
843.8604351222
 20
690.4118005053
 30
0.0
 40
54.26577168195826
100
AcDbArc
 50
192.3156445558
 51
195.3088218734
  0
ARC
  5
36C
330
1F
100
AcDbEntity
  8
0
  6
Continuous
 62
     8
370
    18
100
AcDbCircle
 10
843.8604351229
 20
609.1489449973
 30
0.0
 40
54.26577168265401
100
AcDbArc
 50
164.6911781266
 51
167.6843554441
  0
LINE
  5
36D
330
1F
100
AcDbEntity
  8
0
  6
Continuous
 62
     8
370
    18
100
AcDbLine
 10
797.6107245225
 20
622.7803727514
 30
0.0
 11
797.6107245225
 21
620.5303727514
 31
0.0
  0
LINE
  5
36E
330
1F
100
AcDbEntity
  8
0
  6
Continuous
 62
     8
370
    18
100
AcDbLine
 10
903.6107245225
 20
622.7803727514
 30
0.0
 11
903.6107245225
 21
620.5303727514
 31
0.0
  0
ARC
  5
36F
330
1F
100
AcDbEntity
  8
0
  6
Continuous
 62
     8
370
    18
100
AcDbCircle
 10
857.3610139216
 20
609.1489449972
 30
0.0
 40
54.26577168305669
100
AcDbArc
 50
12.3156445559
 51
15.3088218734
  0
LINE
  5
370
330
1F
100
AcDbEntity
  8
0
  6
Continuous
 62
     8
370
    18
100
AcDbLine
 10
797.6107245225
 20
620.5253930534
 30
0.0
 11
797.6107245225
 21
620.5303727514
 31
0.0
  0
LINE
  5
371
330
1F
100
AcDbEntity
  8
0
  6
Continuous
 62
     8
370
    18
100
AcDbLine
 10
903.6107245225
 20
620.5253930534
 30
0.0
 11
903.6107245225
 21
620.5303727514
 31
0.0
  0
ARC
  5
372
330
1F
100
AcDbEntity
  8
0
  6
Continuous
 62
     8
370
    18
100
AcDbCircle
 10
932.7780302899
 20
664.2349376635
 30
0.0
 40
14.42188180276891
100
AcDbArc
 50
261.3675974434
 51
273.306588142
  0
ARC
  5
373
330
1F
100
AcDbEntity
  8
0
  6
Continuous
 62
     8
370
    18
100
AcDbCircle
 10
768.443418755
 20
664.2349376635
 30
0.0
 40
14.42188180276818
100
AcDbArc
 50
266.693411858
 51
278.6324025566
  0
ARC
  5
374
330
1F
100
AcDbEntity
  8
0
  6
Continuous
 62
     8
370
    18
100
AcDbCircle
 10
768.443418755
 20
635.3258078393
 30
0.0
 40
14.42188180275372
100
AcDbArc
 50
81.3675974434
 51
93.306588142
  0
ARC
  5
375
330
1F
100
AcDbEntity
  8
0
  6
Continuous
 62
     8
370
    18
100
AcDbCircle
 10
932.7780302899
 20
635.3258078393
 30
0.0
 40
14.42188180275329
100
AcDbArc
 50
86.693411858
 51
98.6324025566
  0
SPLINE
  5
376
330
1F
100
AcDbEntity
  8
0
  6
Continuous
 62
     8
370
    18
100
AcDbSpline
210
0.0
220
0.0
230
1.0
 70
     8
 71
     3
 72
     8
 73
     4
 74
     0
 42
0.000000001
 43
0.00000001
 40
0.0
 40
0.0
 40
0.0
 40
0.0
 40
1.0
 40
1.0
 40
1.0
 40
1.0
 10
933.609867424302
 20
649.8370655389272
 30
0.0
 10
933.6110102381654
 20
649.7992703472183
 30
0.0
 10
933.6110102381654
 20
649.7614751555093
 30
0.0
 10
933.609867424302
 20
649.7236799638004
 30
0.0
  0
SPLINE
  5
377
330
1F
100
AcDbEntity
  8
0
  6
Continuous
 62
     8
370
    18
100
AcDbSpline
210
0.0
220
0.0
230
1.0
 70
     8
 71
     3
 72
     8
 73
     4
 74
     0
 42
0.000000001
 43
0.00000001
 40
0.0
 40
0.0
 40
0.0
 40
0.0
 40
1.0
 40
1.0
 40
1.0
 40
1.0
 10
767.6115816206088
 20
649.7236799638004
 30
0.0
 10
767.6104388067457
 20
649.7614751555093
 30
0.0
 10
767.6104388067457
 20
649.7992703472183
 30
0.0
 10
767.6115816206088
 20
649.8370655389272
 30
0.0
  0
ARC
  5
378
330
1F
100
AcDbEntity
  8
0
  6
Continuous
 62
     8
370
    18
100
AcDbCircle
 10
897.5953572699
 20
665.0168463931
 30
0.0
 40
2.05256424081594
100
AcDbArc
 50
11.6472091993
 51
44.8009049348
  0
SPLINE
  5
379
330
1F
100
AcDbEntity
  8
0
  6
Continuous
 62
     8
370
    18
100
AcDbSpline
210
0.0
220
0.0
230
1.0
 70
     8
 71
     3
 72
     9
 73
     5
 74
     0
 42
0.000000001
 43
0.00000001
 40
0.0
 40
0.0
 40
0.0
 40
0.0
 40
0.1546895589938839
 40
1.0
 40
1.0
 40
1.0
 40
1.0
 10
903.4939933397948
 20
668.5119462053482
 30
0.0
 10
903.2509408832168
 20
668.4392716703461
 30
0.0
 10
901.6797135931605
 20
667.9694627480444
 30
0.0
 10
900.2555956843345
 20
667.1531847189947
 30
0.0
 10
899.0517739467799
 20
666.4631763782752
 30
0.0
  0
SPLINE
  5
37A
330
1F
100
AcDbEntity
  8
0
  6
Continuous
 62
     8
370
    18
100
AcDbSpline
210
0.0
220
0.0
230
1.0
 70
     8
 71
     3
 72
     9
 73
     5
 74
     0
 42
0.000000001
 43
0.00000001
 40
0.0
 40
0.0
 40
0.0
 40
0.0
 40
0.1546895589938838
 40
1.0
 40
1.0
 40
1.0
 40
1.0
 10
797.7274557051156
 20
668.5119462053482
 30
0.0
 10
797.9705081616935
 20
668.4392716703461
 30
0.0
 10
799.5417354517499
 20
667.9694627480444
 30
0.0
 10
800.9658533605759
 20
667.1531847189947
 30
0.0
 10
802.1696750981304
 20
666.4631763782752
 30
0.0
  0
ARC
  5
37B
330
1F
100
AcDbEntity
  8
0
  6
Continuous
 62
     8
370
    18
100
AcDbCircle
 10
803.626091775
 20
665.0168463931
 30
0.0
 40
2.052564240816915
100
AcDbArc
 50
135.1990950652
 51
168.3527908007
  0
SPLINE
  5
37C
330
1F
100
AcDbEntity
  8
0
  6
Continuous
 62
     8
370
    18
100
AcDbSpline
210
0.0
220
0.0
230
1.0
 70
     8
 71
     3
 72
     9
 73
     5
 74
     0
 42
0.000000001
 43
0.00000001
 40
0.0
 40
0.0
 40
0.0
 40
0.0
 40
0.1546895589938838
 40
0.9999999999999999
 40
0.9999999999999999
 40
0.9999999999999999
 40
0.9999999999999999
 10
903.4939933397947
 20
631.0487992973791
 30
0.0
 10
903.2509408832168
 20
631.1214738323814
 30
0.0
 10
901.6797135931604
 20
631.5912827546831
 30
0.0
 10
900.2555956843343
 20
632.4075607837326
 30
0.0
 10
899.0517739467799
 20
633.0975691244521
 30
0.0
  0
ARC
  5
37D
330
1F
100
AcDbEntity
  8
0
  6
Continuous
 62
     8
370
    18
100
AcDbCircle
 10
897.5953572699
 20
634.5438991096
 30
0.0
 40
2.052564240816263
100
AcDbArc
 50
315.1990950652
 51
348.3527908007
  0
ARC
  5
37E
330
1F
100
AcDbEntity
  8
0
  6
Continuous
 62
     8
370
    18
100
AcDbCircle
 10
803.626091775
 20
634.5438991096
 30
0.0
 40
2.052564240817309
100
AcDbArc
 50
191.6472091993
 51
224.8009049348
  0
SPLINE
  5
37F
330
1F
100
AcDbEntity
  8
0
  6
Continuous
 62
     8
370
    18
100
AcDbSpline
210
0.0
220
0.0
230
1.0
 70
     8
 71
     3
 72
     9
 73
     5
 74
     0
 42
0.000000001
 43
0.00000001
 40
0.0
 40
0.0
 40
0.0
 40
0.0
 40
0.1546895589938838
 40
1.0
 40
1.0
 40
1.0
 40
1.0
 10
797.7274557051156
 20
631.0487992973791
 30
0.0
 10
797.9705081616935
 20
631.1214738323814
 30
0.0
 10
799.5417354517499
 20
631.5912827546831
 30
0.0
 10
800.9658533605759
 20
632.4075607837326
 30
0.0
 10
802.1696750981304
 20
633.0975691244521
 30
0.0
  0
ARC
  5
380
330
1F
100
AcDbEntity
  8
0
  6
Continuous
 62
     8
370
    18
100
AcDbCircle
 10
804.6107245225
 20
649.7803727514
 30
0.0
 40
20.00000000000002
100
AcDbArc
 50
90.0
 51
167.5224163016
  0
LINE
  5
381
330
1F
100
AcDbEntity
  8
0
  6
Continuous
 62
     8
370
    18
100
AcDbLine
 10
804.6107245225
 20
662.4930235383
 30
0.0
 11
804.6107245225
 21
669.7803727514
 31
0.0
  0
LINE
  5
382
330
1F
100
AcDbEntity
  8
0
  6
Continuous
 62
     8
370
    18
100
AcDbLine
 10
804.6107245225
 20
637.0677219645
 30
0.0
 11
804.6107245225
 21
629.7803727514
 31
0.0
  0
ARC
  5
383
330
1F
100
AcDbEntity
  8
0
  6
Continuous
 62
     8
370
    18
100
AcDbCircle
 10
804.6107245225
 20
649.7803727514
 30
0.0
 40
20.00000000000011
100
AcDbArc
 50
192.4775836984
 51
270.0
  0
SPLINE
  5
384
330
1F
100
AcDbEntity
  8
0
  6
Continuous
 62
     8
370
    18
100
AcDbSpline
210
0.0
220
0.0
230
1.0
 70
     8
 71
     3
 72
    14
 73
    10
 74
     0
 42
0.000000001
 43
0.00000001
 40
0.0
 40
0.0
 40
0.0
 40
0.0
 40
0.1114289230413291
 40
0.4958785649680197
 40
0.7046555305618414
 40
0.8301760374257577
 40
0.9121018798659114
 40
0.994279708213752
 40
1.0
 40
1.0
 40
1.0
 40
1.0
 10
802.1696750981304
 20
633.0975691244521
 30
0.0
 10
802.2890661437663
 20
633.1799014897014
 30
0.0
 10
802.8203775731873
 20
633.5462951872786
 30
0.0
 10
803.4946690965418
 20
634.1790663379976
 30
0.0
 10
803.9525328843038
 20
634.9700508526979
 30
0.0
 10
804.0369906346373
 20
635.4802455865606
 30
0.0
 10
803.954526341785
 20
635.8245741922249
 30
0.0
 10
803.8348193981628
 20
636.0022739129575
 30
0.0
 10
803.7541081249566
 20
636.0776564823806
 30
0.0
 10
803.7488555435307
 20
636.08256227891
 30
0.0
  0
SPLINE
  5
385
330
1F
100
AcDbEntity
  8
0
  6
Continuous
 62
     8
370
    18
100
AcDbSpline
210
0.0
220
0.0
230
1.0
 70
     8
 71
     3
 72
    14
 73
    10
 74
     0
 42
0.000000001
 43
0.00000001
 40
0.0
 40
0.0
 40
0.0
 40
0.0
 40
0.1114289230413318
 40
0.4958785649679994
 40
0.7046555305618287
 40
0.8301760374257521
 40
0.9121018798659081
 40
0.9942797082137481
 40
1.0
 40
1.0
 40
1.0
 40
1.0
 10
802.1696750981304
 20
666.4631763782752
 30
0.0
 10
802.2890661437663
 20
666.3808440130261
 30
0.0
 10
802.8203775731872
 20
666.0144503154487
 30
0.0
 10
803.4946690965418
 20
665.38167916473
 30
0.0
 10
803.9525328843038
 20
664.5906946500297
 30
0.0
 10
804.0369906346373
 20
664.080499916167
 30
0.0
 10
803.954526341785
 20
663.7361713105028
 30
0.0
 10
803.8348193981627
 20
663.5584715897701
 30
0.0
 10
803.7541081249566
 20
663.483089020347
 30
0.0
 10
803.7488555435307
 20
663.4781832238176
 30
0.0
  0
SPLINE
  5
386
330
1F
100
AcDbEntity
  8
0
  6
Continuous
 62
     8
370
    18
100
AcDbSpline
210
0.0
220
0.0
230
1.0
 70
     8
 71
     3
 72
    14
 73
    10
 74
     0
 42
0.000000001
 43
0.00000001
 40
0.0
 40
0.0
 40
0.0
 40
0.0
 40
0.1114289230413322
 40
0.4958785649679971
 40
0.7046555305618275
 40
0.830176037425754
 40
0.9121018798659094
 40
0.9942797082137462
 40
1.0
 40
1.0
 40
1.0
 40
1.0
 10
899.0517739467799
 20
666.4631763782752
 30
0.0
 10
898.932382901144
 20
666.3808440130261
 30
0.0
 10
898.4010714717231
 20
666.0144503154487
 30
0.0
 10
897.7267799483685
 20
665.38167916473
 30
0.0
 10
897.2689161606065
 20
664.5906946500297
 30
0.0
 10
897.184458410273
 20
664.080499916167
 30
0.0
 10
897.2669227031251
 20
663.7361713105028
 30
0.0
 10
897.3866296467476
 20
663.55847158977
 30
0.0
 10
897.4673409199538
 20
663.483089020347
 30
0.0
 10
897.4725935013796
 20
663.4781832238176
 30
0.0
  0
SPLINE
  5
387
330
1F
100
AcDbEntity
  8
0
  6
Continuous
 62
     8
370
    18
100
AcDbSpline
210
0.0
220
0.0
230
1.0
 70
     8
 71
     3
 72
    14
 73
    10
 74
     0
 42
0.000000001
 43
0.00000001
 40
0.0
 40
0.0
 40
0.0
 40
0.0
 40
0.1114289230413297
 40
0.4958785649680183
 40
0.7046555305618412
 40
0.8301760374257607
 40
0.9121018798659145
 40
0.994279708213752
 40
1.0
 40
1.0
 40
1.0
 40
1.0
 10
899.0517739467799
 20
633.0975691244521
 30
0.0
 10
898.932382901144
 20
633.1799014897014
 30
0.0
 10
898.4010714717231
 20
633.5462951872786
 30
0.0
 10
897.7267799483685
 20
634.1790663379976
 30
0.0
 10
897.2689161606065
 20
634.9700508526979
 30
0.0
 10
897.184458410273
 20
635.4802455865606
 30
0.0
 10
897.2669227031251
 20
635.8245741922249
 30
0.0
 10
897.3866296467476
 20
636.0022739129575
 30
0.0
 10
897.4673409199538
 20
636.0776564823806
 30
0.0
 10
897.4725935013796
 20
636.08256227891
 30
0.0
  0
ARC
  5
388
330
1F
100
AcDbEntity
  8
0
  6
Continuous
 62
     8
370
    18
100
AcDbCircle
 10
896.6107245225
 20
649.7803727514
 30
0.0
 40
20.0
100
AcDbArc
 50
270.0
 51
347.5224163016
  0
LINE
  5
389
330
1F
100
AcDbEntity
  8
0
  6
Continuous
 62
     8
370
    18
100
AcDbLine
 10
896.6107245225
 20
637.0677219645
 30
0.0
 11
896.6107245225
 21
629.7803727514
 31
0.0
  0
LINE
  5
38A
330
1F
100
AcDbEntity
  8
0
  6
Continuous
 62
     8
370
    18
100
AcDbLine
 10
896.6107245225
 20
662.4930235383
 30
0.0
 11
896.6107245225
 21
669.7803727514
 31
0.0
  0
ARC
  5
38B
330
1F
100
AcDbEntity
  8
0
  6
Continuous
 62
     8
370
    18
100
AcDbCircle
 10
896.6107245225
 20
649.7803727514
 30
0.0
 40
20.0
100
AcDbArc
 50
12.4775836984
 51
90.0
  0
SPLINE
  5
38C
330
1F
100
AcDbEntity
  8
0
  6
Continuous
 62
     8
370
    18
100
AcDbSpline
210
0.0
220
0.0
230
1.0
 70
     8
 71
     3
 72
    18
 73
    14
 74
     0
 42
0.000000001
 43
0.00000001
 40
0.0
 40
0.0
 40
0.0
 40
0.0
 40
0.0000017576874324
 40
0.0364929107765217
 40
0.183419733804977
 40
0.2877695105078331
 40
0.3921441025453801
 40
0.4993591877198503
 40
0.6063886859551816
 40
0.713428438380988
 40
0.8178270444226948
 40
0.9079734932070053
 40
1.0
 40
1.0
 40
1.0
 40
1.0
 10
903.6107245224551
 20
671.5260851433533
 30
0.0
 10
903.6107445089493
 20
671.5260851431451
 30
0.0
 10
904.0257018741327
 20
671.5260808215319
 30
0.0
 10
906.1109106982343
 20
671.4636964193596
 30
0.0
 10
909.3678596454695
 20
670.8945311107632
 30
0.0
 10
913.1551799975839
 20
669.4295907799548
 30
0.0
 10
916.2544170381387
 20
667.5812952569289
 30
0.0
 10
919.047414942352
 20
665.2470031962349
 30
0.0
 10
921.4109839934717
 20
662.4381104139954
 30
0.0
 10
923.2662208893587
 20
659.3079582093683
 30
0.0
 10
924.5021518013398
 20
656.0951679892036
 30
0.0
 10
925.2265352044581
 20
652.901244948429
 30
0.0
 10
925.3109660582559
 20
650.8277962727689
 30
0.0
 10
925.3536171560326
 20
649.7803727513638
 30
0.0
  0
LINE
  5
38D
330
1F
100
AcDbEntity
  8
0
  6
Continuous
 62
     8
370
    18
100
AcDbLine
 10
903.6107245225
 20
671.5260851434
 30
0.0
 11
903.6107249195
 21
671.5303727514
 31
0.0
  0
LINE
  5
38E
330
1F
100
AcDbEntity
  8
0
  6
Continuous
 62
     8
370
    18
100
AcDbLine
 10
925.353617156
 20
649.7803727514
 30
0.0
 11
925.349177213
 21
649.7803727514
 31
0.0
  0
LINE
  5
38F
330
1F
100
AcDbEntity
  8
0
  6
Continuous
 62
     8
370
    18
100
AcDbLine
 10
903.6107245225
 20
671.5216452189
 30
0.0
 11
903.6107245225
 21
671.5260851434
 31
0.0
  0
SPLINE
  5
390
330
1F
100
AcDbEntity
  8
0
  6
Continuous
 62
     8
370
    18
100
AcDbSpline
210
0.0
220
0.0
230
1.0
 70
     8
 71
     3
 72
    18
 73
    14
 74
     0
 42
0.000000001
 43
0.00000001
 40
0.0
 40
0.0
 40
0.0
 40
0.0
 40
0.0000017576874324
 40
0.0364929107765216
 40
0.1834197338049766
 40
0.2877695105078326
 40
0.3921441025453812
 40
0.4993591877198514
 40
0.6063886859551825
 40
0.7134284383809887
 40
0.8178270444226953
 40
0.9079734932070056
 40
1.0
 40
1.0
 40
1.0
 40
1.0
 10
797.6107245224553
 20
671.5260851433533
 30
0.0
 10
797.6107045359611
 20
671.5260851431451
 30
0.0
 10
797.1957471706343
 20
671.526080821604
 30
0.0
 10
795.1105383469583
 20
671.4636964192181
 30
0.0
 10
791.853589399364
 20
670.8945311108018
 30
0.0
 10
788.0662690473439
 20
669.4295907799462
 30
0.0
 10
784.9670320067667
 20
667.5812952569313
 30
0.0
 10
782.1740341025594
 20
665.2470031962343
 30
0.0
 10
779.8104650514381
 20
662.4381104139957
 30
0.0
 10
777.9552281555517
 20
659.3079582093683
 30
0.0
 10
776.7192972435705
 20
656.0951679892037
 30
0.0
 10
775.9949138404522
 20
652.901244948429
 30
0.0
 10
775.9104829866542
 20
650.8277962727689
 30
0.0
 10
775.8678318888777
 20
649.7803727513639
 30
0.0
  0
LINE
  5
391
330
1F
100
AcDbEntity
  8
0
  6
Continuous
 62
     8
370
    18
100
AcDbLine
 10
797.6107245225
 20
671.5260851434
 30
0.0
 11
797.6107241254
 21
671.5303727514
 31
0.0
  0
LINE
  5
392
330
1F
100
AcDbEntity
  8
0
  6
Continuous
 62
     8
370
    18
100
AcDbLine
 10
775.8678318889
 20
649.7803727514
 30
0.0
 11
775.8722718319
 21
649.7803727514
 31
0.0
  0
LINE
  5
393
330
1F
100
AcDbEntity
  8
0
  6
Continuous
 62
     8
370
    18
100
AcDbLine
 10
797.6107245225
 20
671.5216452189
 30
0.0
 11
797.6107245225
 21
671.5260851434
 31
0.0
  0
SPLINE
  5
394
330
1F
100
AcDbEntity
  8
0
  6
Continuous
 62
     8
370
    18
100
AcDbSpline
210
0.0
220
0.0
230
1.0
 70
     8
 71
     3
 72
    18
 73
    14
 74
     0
 42
0.000000001
 43
0.00000001
 40
0.0
 40
0.0
 40
0.0
 40
0.0
 40
0.0000017576874324
 40
0.0364929107765215
 40
0.1834197338049759
 40
0.2877695105078312
 40
0.3921441025453795
 40
0.4993591877198531
 40
0.6063886859551837
 40
0.7134284383809895
 40
0.8178270444226953
 40
0.9079734932070063
 40
1.0
 40
1.0
 40
1.0
 40
1.0
 10
797.6107245224553
 20
628.0346603593741
 30
0.0
 10
797.6107045359611
 20
628.0346603595823
 30
0.0
 10
797.1957471707303
 20
628.0346646811477
 30
0.0
 10
795.1105383467692
 20
628.0970490834618
 30
0.0
 10
791.8535893994153
 20
628.6662143919386
 30
0.0
 10
788.0662690473321
 20
630.1311547227782
 30
0.0
 10
784.96703200677
 20
631.9794502457969
 30
0.0
 10
782.1740341025586
 20
634.3137423064932
 30
0.0
 10
779.8104650514383
 20
637.122635088732
 30
0.0
 10
777.9552281555516
 20
640.2527872933593
 30
0.0
 10
776.7192972435705
 20
643.465577513524
 30
0.0
 10
775.9949138404522
 20
646.6595005542986
 30
0.0
 10
775.9104829866542
 20
648.7329492299588
 30
0.0
 10
775.8678318888777
 20
649.7803727513639
 30
0.0
  0
LINE
  5
395
330
1F
100
AcDbEntity
  8
0
  6
Continuous
 62
     8
370
    18
100
AcDbLine
 10
797.6107245225
 20
628.0346603594
 30
0.0
 11
797.6107241254
 21
628.0303727514
 31
0.0
  0
LINE
  5
396
330
1F
100
AcDbEntity
  8
0
  6
Continuous
 62
     8
370
    18
100
AcDbLine
 10
797.6107245225
 20
628.0391002838
 30
0.0
 11
797.6107245225
 21
628.0346603594
 31
0.0
  0
SPLINE
  5
397
330
1F
100
AcDbEntity
  8
0
  6
Continuous
 62
     8
370
    18
100
AcDbSpline
210
0.0
220
0.0
230
1.0
 70
     8
 71
     3
 72
    18
 73
    14
 74
     0
 42
0.000000001
 43
0.00000001
 40
0.0
 40
0.0
 40
0.0
 40
0.0
 40
0.0000017576874324
 40
0.0364929107765215
 40
0.1834197338049759
 40
0.287769510507829
 40
0.3921441025453795
 40
0.4993591877198529
 40
0.6063886859551835
 40
0.7134284383809892
 40
0.8178270444226952
 40
0.9079734932070058
 40
1.0
 40
1.0
 40
1.0
 40
1.0
 10
903.6107245224551
 20
628.0346603593741
 30
0.0
 10
903.6107445089492
 20
628.0346603595823
 30
0.0
 10
904.0257018742767
 20
628.0346646811237
 30
0.0
 10
906.1109106979508
 20
628.097049083509
 30
0.0
 10
909.3678596455467
 20
628.6662143919258
 30
0.0
 10
913.1551799975664
 20
630.131154722781
 30
0.0
 10
916.2544170381435
 20
631.9794502457961
 30
0.0
 10
919.0474149423507
 20
634.3137423064933
 30
0.0
 10
921.4109839934723
 20
637.1226350887318
 30
0.0
 10
923.2662208893586
 20
640.2527872933593
 30
0.0
 10
924.5021518013399
 20
643.465577513524
 30
0.0
 10
925.2265352044581
 20
646.6595005542986
 30
0.0
 10
925.3109660582559
 20
648.7329492299588
 30
0.0
 10
925.3536171560326
 20
649.7803727513638
 30
0.0
  0
LINE
  5
398
330
1F
100
AcDbEntity
  8
0
  6
Continuous
 62
     8
370
    18
100
AcDbLine
 10
903.6107245225
 20
628.0391002838
 30
0.0
 11
903.6107245225
 21
628.0346603594
 31
0.0
  0
LINE
  5
399
330
1F
100
AcDbEntity
  8
0
  6
Continuous
 62
     8
370
    18
100
AcDbLine
 10
903.6107245225
 20
628.0346603594
 30
0.0
 11
903.6107249195
 21
628.0303727514
 31
0.0
  0
LINE
  5
39A
330
1F
100
AcDbEntity
  8
0
  6
Continuous
 62
     8
370
    18
100
AcDbLine
 10
896.6107245225
 20
629.7803727514
 30
0.0
 11
804.6107245225
 21
629.7803727514
 31
0.0
  0
LINE
  5
39B
330
1F
100
AcDbEntity
  8
0
  6
Continuous
 62
     8
370
    18
100
AcDbLine
 10
896.6107245225
 20
669.7803727514
 30
0.0
 11
804.6107245225
 21
669.7803727514
 31
0.0
  0
LINE
  5
39C
330
1F
100
AcDbEntity
  8
0
  6
Continuous
 62
     8
370
    18
100
AcDbLine
 10
903.6107245225
 20
671.5260851434
 30
0.0
 11
797.6107245225
 21
671.5260851434
 31
0.0
  0
LINE
  5
39D
330
1F
100
AcDbEntity
  8
0
  6
Continuous
 62
     8
370
    18
100
AcDbLine
 10
903.6107245225
 20
628.0346603594
 30
0.0
 11
797.6107245225
 21
628.0346603594
 31
0.0
  0
LINE
  5
39E
330
1F
100
AcDbEntity
  8
0
  6
Continuous
 62
     8
370
    18
100
AcDbLine
 10
903.6107245225
 20
671.5303727514
 30
0.0
 11
903.6107245225
 21
676.0303727514
 31
0.0
  0
LINE
  5
39F
330
1F
100
AcDbEntity
  8
0
  6
Continuous
 62
     8
370
    18
100
AcDbLine
 10
797.6107245225
 20
671.5303727514
 30
0.0
 11
797.6107245225
 21
676.0303727514
 31
0.0
  0
LINE
  5
3A0
330
1F
100
AcDbEntity
  8
0
  6
Continuous
 62
     8
370
    18
100
AcDbLine
 10
903.6107245225
 20
676.0303727514
 30
0.0
 11
797.6107245225
 21
676.0303727514
 31
0.0
  0
LINE
  5
3A1
330
1F
100
AcDbEntity
  8
0
  6
Continuous
 62
     8
370
    18
100
AcDbLine
 10
903.6107245225
 20
676.0303727514
 30
0.0
 11
903.6107245225
 21
676.7803727514
 31
0.0
  0
LINE
  5
3A2
330
1F
100
AcDbEntity
  8
0
  6
Continuous
 62
     8
370
    18
100
AcDbLine
 10
797.6107245225
 20
676.0303727514
 30
0.0
 11
797.6107245225
 21
676.7803727514
 31
0.0
  0
LINE
  5
3A3
330
1F
100
AcDbEntity
  8
0
  6
Continuous
 62
     8
370
    18
100
AcDbLine
 10
903.6107245225
 20
628.0303727514
 30
0.0
 11
903.6107245225
 21
623.5303727514
 31
0.0
  0
ARC
  5
3A4
330
1F
100
AcDbEntity
  8
0
  6
Continuous
 62
     8
370
    18
100
AcDbCircle
 10
903.6107245225
 20
649.7803727514
 30
0.0
 40
26.25000000000011
100
AcDbArc
 50
270.0
 51
90.0
  0
LINE
  5
3A5
330
1F
100
AcDbEntity
  8
0
  6
Continuous
 62
     8
370
    18
100
AcDbLine
 10
903.6107245225
 20
623.5303727514
 30
0.0
 11
903.6107245225
 21
622.7803727514
 31
0.0
  0
LINE
  5
3A6
330
1F
100
AcDbEntity
  8
0
  6
Continuous
 62
     8
370
    18
100
AcDbLine
 10
797.6107245225
 20
628.0303727514
 30
0.0
 11
797.6107245225
 21
623.5303727514
 31
0.0
  0
ARC
  5
3A7
330
1F
100
AcDbEntity
  8
0
  6
Continuous
 62
     8
370
    18
100
AcDbCircle
 10
797.6107245225
 20
649.7803727514
 30
0.0
 40
26.25000000000011
100
AcDbArc
 50
90.0
 51
270.0
  0
LINE
  5
3A8
330
1F
100
AcDbEntity
  8
0
  6
Continuous
 62
     8
370
    18
100
AcDbLine
 10
797.6107245225
 20
623.5303727514
 30
0.0
 11
797.6107245225
 21
622.7803727514
 31
0.0
  0
LINE
  5
3A9
330
1F
100
AcDbEntity
  8
0
  6
Continuous
 62
     8
370
    18
100
AcDbLine
 10
903.6107245225
 20
623.5303727514
 30
0.0
 11
797.6107245225
 21
623.5303727514
 31
0.0
  0
CIRCLE
  5
3AA
330
1F
100
AcDbEntity
  8
0
  6
Continuous
 62
     8
370
    18
100
AcDbCircle
 10
850.6107245225
 20
649.7803727514
 30
0.0
 40
3.548336454629748
  0
CIRCLE
  5
3AB
330
1F
100
AcDbEntity
  8
0
  6
Continuous
 62
     8
370
    18
100
AcDbCircle
 10
850.6107245225
 20
649.7803727514
 30
0.0
 40
5.61470943354675
  0
ARC
  5
3AC
330
1F
100
AcDbEntity
  8
0
  6
Continuous
 62
     8
370
    18
100
AcDbCircle
 10
850.6107245225
 20
649.7803727514
 30
0.0
 40
7.463480267439774
100
AcDbArc
 50
306.49444767
 51
53.5055523299
  0
ARC
  5
3AD
330
1F
100
AcDbEntity
  8
0
  6
Continuous
 62
     8
370
    18
100
AcDbCircle
 10
850.6107245225
 20
649.7803727514
 30
0.0
 40
7.463480267439913
100
AcDbArc
 50
126.4944476701
 51
233.50555233
  0
ARC
  5
3AE
330
1F
100
AcDbEntity
  8
0
  6
Continuous
 62
     8
370
    18
100
AcDbCircle
 10
850.6107245225
 20
649.7803727514
 30
0.0
 40
8.284968901367034
100
AcDbArc
 50
313.5974061618
 51
46.4025938382
  0
ARC
  5
3AF
330
1F
100
AcDbEntity
  8
0
  6
Continuous
 62
     8
370
    18
100
AcDbCircle
 10
850.6107245225
 20
649.7803727514
 30
0.0
 40
8.28496890136719
100
AcDbArc
 50
133.5974061618
 51
226.4025938382
  0
LINE
  5
3B0
330
1F
100
AcDbEntity
  8
0
  6
Continuous
 62
     8
370
    18
100
AcDbLine
 10
1291.6107245225
 20
614.7803727514
 30
0.0
 11
1291.6107245225
 21
699.2803727514
 31
0.0
  0
LINE
  5
3B1
330
1F
100
AcDbEntity
  8
0
  6
Continuous
 62
     8
370
    18
100
AcDbLine
 10
409.6107245225
 20
614.7803727514
 30
0.0
 11
409.6107245225
 21
699.2803727514
 31
0.0
  0
LINE
  5
3B2
330
1F
100
AcDbEntity
  8
0
  6
Continuous
 62
     8
370
    18
100
AcDbLine
 10
388.1107245225
 20
700.3053727514
 30
0.0
 11
388.1107245225
 21
699.3053727514
 31
0.0
  0
LINE
  5
3B3
330
1F
100
AcDbEntity
  8
0
  6
Continuous
 62
     8
370
    18
100
AcDbLine
 10
378.1107245225
 20
698.3053727514
 30
0.0
 11
408.6107245225
 21
698.3053727514
 31
0.0
  0
LINE
  5
3B4
330
1F
100
AcDbEntity
  8
0
  6
Continuous
 62
     8
370
    18
100
AcDbLine
 10
1313.1107245225
 20
699.3053727514
 30
0.0
 11
1313.1107245225
 21
700.3053727514
 31
0.0
  0
LINE
  5
3B5
330
1F
100
AcDbEntity
  8
0
  6
Continuous
 62
     8
370
    18
100
AcDbLine
 10
1292.6107245225
 20
698.3053727514
 30
0.0
 11
1323.1107245225
 21
698.3053727514
 31
0.0
  0
ENDSEC
  0
SECTION
  2
OBJECTS
  0
DICTIONARY
  5
C
330
0
100
AcDbDictionary
281
     1
  3
ACAD_GROUP
350
D
  3
ACAD_LAYOUT
350
1A
  3
ACAD_MLINESTYLE
350
17
  3
ACAD_PLOTSETTINGS
350
19
  3
ACAD_PLOTSTYLENAME
350
E
  3
ACAD_SCALELIST
350
47
  0
DICTIONARY
  5
D
102
{ACAD_REACTORS
330
C
102
}
330
C
100
AcDbDictionary
281
     1
  0
DICTIONARY
  5
1A
102
{ACAD_REACTORS
330
C
102
}
330
C
100
AcDbDictionary
281
     1
  3
Layout1
350
1E
  3
Layout2
350
26
  3
Model
350
22
  0
DICTIONARY
  5
17
102
{ACAD_REACTORS
330
C
102
}
330
C
100
AcDbDictionary
281
     1
  3
Standard
350
18
  0
DICTIONARY
  5
19
102
{ACAD_REACTORS
330
C
102
}
330
C
100
AcDbDictionary
281
     1
  0
ACDBDICTIONARYWDFLT
  5
E
102
{ACAD_REACTORS
330
C
102
}
330
C
100
AcDbDictionary
281
     1
  3
Normal
350
F
100
AcDbDictionaryWithDefault
340
F
  0
DICTIONARY
  5
47
102
{ACAD_REACTORS
330
C
102
}
330
C
100
AcDbDictionary
281
     1
  3
A0
350
48
  3
A1
350
49
  3
A2
350
4A
  3
A3
350
4B
  3
A4
350
4C
  3
A5
350
4D
  3
A6
350
4E
  3
A7
350
4F
  3
A8
350
50
  3
A9
350
51
  3
B0
350
52
  3
B1
350
53
  3
B2
350
54
  3
B3
350
55
  3
B4
350
56
  3
B5
350
57
  3
B6
350
58
  3
B7
350
59
  3
B8
350
5A
  3
B9
350
5B
  3
C0
350
5C
  3
C1
350
5D
  3
C2
350
5E
  3
C3
350
5F
  3
C4
350
60
  3
C5
350
61
  3
C6
350
62
  3
C7
350
63
  3
C8
350
64
  3
C9
350
65
  3
D0
350
66
  3
D1
350
67
  3
D2
350
68
  0
LAYOUT
  5
1E
102
{ACAD_REACTORS
330
1A
102
}
330
1A
100
AcDbPlotSettings
  1

  2
none_device
  4

  6

 40
0.0
 41
0.0
 42
0.0
 43
0.0
 44
0.0
 45
0.0
 46
0.0
 47
0.0
 48
0.0
 49
0.0
140
0.0
141
0.0
142
1.0
143
1.0
 70
   688
 72
     1
 73
     0
 74
     5
  7

 75
    16
147
1.0
148
0.0
149
0.0
100
AcDbLayout
  1
Layout1
 70
     1
 71
     1
 10
0.0
 20
0.0
 11
420.0
 21
297.0
 12
0.0
 22
0.0
 32
0.0
 14
1.0000000000E+20
 24
1.0000000000E+20
 34
1.0000000000E+20
 15
-1.0000000000E+20
 25
-1.0000000000E+20
 35
-1.0000000000E+20
146
0.0
 13
0.0
 23
0.0
 33
0.0
 16
1.0
 26
0.0
 36
0.0
 17
0.0
 27
1.0
 37
0.0
 76
     0
330
1B
  0
LAYOUT
  5
26
102
{ACAD_REACTORS
330
1A
102
}
330
1A
100
AcDbPlotSettings
  1

  2
none_device
  4

  6

 40
0.0
 41
0.0
 42
0.0
 43
0.0
 44
0.0
 45
0.0
 46
0.0
 47
0.0
 48
0.0
 49
0.0
140
0.0
141
0.0
142
1.0
143
1.0
 70
   688
 72
     1
 73
     0
 74
     5
  7

 75
    16
147
1.0
148
0.0
149
0.0
100
AcDbLayout
  1
Layout2
 70
     1
 71
     2
 10
0.0
 20
0.0
 11
0.0
 21
0.0
 12
0.0
 22
0.0
 32
0.0
 14
0.0
 24
0.0
 34
0.0
 15
0.0
 25
0.0
 35
0.0
146
0.0
 13
0.0
 23
0.0
 33
0.0
 16
1.0
 26
0.0
 36
0.0
 17
0.0
 27
1.0
 37
0.0
 76
     0
330
23
  0
LAYOUT
  5
22
102
{ACAD_REACTORS
330
1A
102
}
330
1A
100
AcDbPlotSettings
  1

  2
none_device
  4
Letter_(8.50_x_11.00_Inches)
  6

 40
6.35
 41
6.35
 42
6.35000508
 43
6.35000508
 44
215.9
 45
279.4
 46
0.0
 47
0.0
 48
0.0
 49
0.0
140
0.0
141
0.0
142
1.0
143
1.0
 70
  1712
 72
     1
 73
     0
 74
     0
  7

 75
     0
147
1.0
148
0.0
149
0.0
100
AcDbLayout
  1
Model
 70
     1
 71
     0
 10
0.0
 20
0.0
 11
2100.0
 21
1485.0
 12
0.0
 22
0.0
 32
0.0
 14
0.0
 24
0.0
 34
0.0
 15
2100.0
 25
1485.0
 35
0.0
146
0.0
 13
0.0
 23
0.0
 33
0.0
 16
1.0
 26
0.0
 36
0.0
 17
0.0
 27
1.0
 37
0.0
 76
     0
330
1F
331
29
  0
MLINESTYLE
  5
18
102
{ACAD_REACTORS
330
17
102
}
330
17
100
AcDbMlineStyle
  2
Standard
 70
     0
  3

 62
   256
 51
90.0
 52
90.0
 71
     2
 49
0.5
 62
   256
  6
BYLAYER
 49
-0.5
 62
   256
  6
BYLAYER
  0
ACDBPLACEHOLDER
  5
F
102
{ACAD_REACTORS
330
E
102
}
330
E
  0
SCALE
  5
48
102
{ACAD_REACTORS
330
47
102
}
330
47
100
AcDbScale
 70
     0
300
1:1
140
1.0
141
1.0
290
     1
  0
SCALE
  5
49
102
{ACAD_REACTORS
330
47
102
}
330
47
100
AcDbScale
 70
     0
300
1:2
140
1.0
141
2.0
290
     0
  0
SCALE
  5
4A
102
{ACAD_REACTORS
330
47
102
}
330
47
100
AcDbScale
 70
     0
300
1:4
140
1.0
141
4.0
290
     0
  0
SCALE
  5
4B
102
{ACAD_REACTORS
330
47
102
}
330
47
100
AcDbScale
 70
     0
300
1:5
140
1.0
141
5.0
290
     0
  0
SCALE
  5
4C
102
{ACAD_REACTORS
330
47
102
}
330
47
100
AcDbScale
 70
     0
300
1:8
140
1.0
141
8.0
290
     0
  0
SCALE
  5
4D
102
{ACAD_REACTORS
330
47
102
}
330
47
100
AcDbScale
 70
     0
300
1:10
140
1.0
141
10.0
290
     0
  0
SCALE
  5
4E
102
{ACAD_REACTORS
330
47
102
}
330
47
100
AcDbScale
 70
     0
300
1:16
140
1.0
141
16.0
290
     0
  0
SCALE
  5
4F
102
{ACAD_REACTORS
330
47
102
}
330
47
100
AcDbScale
 70
     0
300
1:20
140
1.0
141
20.0
290
     0
  0
SCALE
  5
50
102
{ACAD_REACTORS
330
47
102
}
330
47
100
AcDbScale
 70
     0
300
1:30
140
1.0
141
30.0
290
     0
  0
SCALE
  5
51
102
{ACAD_REACTORS
330
47
102
}
330
47
100
AcDbScale
 70
     0
300
1:40
140
1.0
141
40.0
290
     0
  0
SCALE
  5
52
102
{ACAD_REACTORS
330
47
102
}
330
47
100
AcDbScale
 70
     0
300
1:50
140
1.0
141
50.0
290
     0
  0
SCALE
  5
53
102
{ACAD_REACTORS
330
47
102
}
330
47
100
AcDbScale
 70
     0
300
1:100
140
1.0
141
100.0
290
     0
  0
SCALE
  5
54
102
{ACAD_REACTORS
330
47
102
}
330
47
100
AcDbScale
 70
     0
300
2:1
140
2.0
141
1.0
290
     0
  0
SCALE
  5
55
102
{ACAD_REACTORS
330
47
102
}
330
47
100
AcDbScale
 70
     0
300
4:1
140
4.0
141
1.0
290
     0
  0
SCALE
  5
56
102
{ACAD_REACTORS
330
47
102
}
330
47
100
AcDbScale
 70
     0
300
8:1
140
8.0
141
1.0
290
     0
  0
SCALE
  5
57
102
{ACAD_REACTORS
330
47
102
}
330
47
100
AcDbScale
 70
     0
300
10:1
140
10.0
141
1.0
290
     0
  0
SCALE
  5
58
102
{ACAD_REACTORS
330
47
102
}
330
47
100
AcDbScale
 70
     0
300
100:1
140
100.0
141
1.0
290
     0
  0
SCALE
  5
59
102
{ACAD_REACTORS
330
47
102
}
330
47
100
AcDbScale
 70
     0
300
1/128" = 1'-0"
140
0.0078125
141
12.0
290
     0
  0
SCALE
  5
5A
102
{ACAD_REACTORS
330
47
102
}
330
47
100
AcDbScale
 70
     0
300
1/64" = 1'-0"
140
0.015625
141
12.0
290
     0
  0
SCALE
  5
5B
102
{ACAD_REACTORS
330
47
102
}
330
47
100
AcDbScale
 70
     0
300
1/32" = 1'-0"
140
0.03125
141
12.0
290
     0
  0
SCALE
  5
5C
102
{ACAD_REACTORS
330
47
102
}
330
47
100
AcDbScale
 70
     0
300
1/16" = 1'-0"
140
0.0625
141
12.0
290
     0
  0
SCALE
  5
5D
102
{ACAD_REACTORS
330
47
102
}
330
47
100
AcDbScale
 70
     0
300
3/32" = 1'-0"
140
0.09375
141
12.0
290
     0
  0
SCALE
  5
5E
102
{ACAD_REACTORS
330
47
102
}
330
47
100
AcDbScale
 70
     0
300
1/8" = 1'-0"
140
0.125
141
12.0
290
     0
  0
SCALE
  5
5F
102
{ACAD_REACTORS
330
47
102
}
330
47
100
AcDbScale
 70
     0
300
3/16" = 1'-0"
140
0.1875
141
12.0
290
     0
  0
SCALE
  5
60
102
{ACAD_REACTORS
330
47
102
}
330
47
100
AcDbScale
 70
     0
300
1/4" = 1'-0"
140
0.25
141
12.0
290
     0
  0
SCALE
  5
61
102
{ACAD_REACTORS
330
47
102
}
330
47
100
AcDbScale
 70
     0
300
3/8" = 1'-0"
140
0.375
141
12.0
290
     0
  0
SCALE
  5
62
102
{ACAD_REACTORS
330
47
102
}
330
47
100
AcDbScale
 70
     0
300
1/2" = 1'-0"
140
0.5
141
12.0
290
     0
  0
SCALE
  5
63
102
{ACAD_REACTORS
330
47
102
}
330
47
100
AcDbScale
 70
     0
300
3/4" = 1'-0"
140
0.75
141
12.0
290
     0
  0
SCALE
  5
64
102
{ACAD_REACTORS
330
47
102
}
330
47
100
AcDbScale
 70
     0
300
1" = 1'-0"
140
1.0
141
12.0
290
     0
  0
SCALE
  5
65
102
{ACAD_REACTORS
330
47
102
}
330
47
100
AcDbScale
 70
     0
300
1-1/2" = 1'-0"
140
1.5
141
12.0
290
     0
  0
SCALE
  5
66
102
{ACAD_REACTORS
330
47
102
}
330
47
100
AcDbScale
 70
     0
300
3" = 1'-0"
140
3.0
141
12.0
290
     0
  0
SCALE
  5
67
102
{ACAD_REACTORS
330
47
102
}
330
47
100
AcDbScale
 70
     0
300
6" = 1'-0"
140
6.0
141
12.0
290
     0
  0
SCALE
  5
68
102
{ACAD_REACTORS
330
47
102
}
330
47
100
AcDbScale
 70
     0
300
1'-0" = 1'-0"
140
12.0
141
12.0
290
     0
  0
ENDSEC
  0
EOF
