  0
SECTION
  2
HEADER
  9
$ACADVER
  1
AC1015
  9
$ACADMAINTVER
 70
     6
  9
$DWGCODEPAGE
  3
ANSI_1252
  9
$INSBASE
 10
0.0
 20
0.0
 30
0.0
  9
$EXTMIN
 10
0.0
 20
0.0
 30
0.0
  9
$EXTMAX
 10
2100.0
 20
1485.0
 30
0.0
  9
$LIMMIN
 10
0.0
 20
0.0
  9
$LIMMAX
 10
2100.0
 20
1485.0
  9
$ORTHOMODE
 70
     0
  9
$REGENMODE
 70
     1
  9
$FILLMODE
 70
     1
  9
$QTEXTMODE
 70
     0
  9
$MIRRTEXT
 70
     1
  9
$LTSCALE
 40
5.0
  9
$ATTMODE
 70
     1
  9
$TEXTSIZE
 40
12.5
  9
$TRACEWID
 40
1.0
  9
$TEXTSTYLE
  7
Standard
  9
$CLAYER
  8
0
  9
$CELTYPE
  6
ByLayer
  9
$CECOLOR
 62
   256
  9
$CELTSCALE
 40
1.0
  9
$DISPSILH
 70
     0
  9
$DIMSCALE
 40
1.0
  9
$DIMASZ
 40
12.5
  9
$DIMEXO
 40
0.0
  9
$DIMDLI
 40
3.75
  9
$DIMRND
 40
0.0
  9
$DIMDLE
 40
0.0
  9
$DIMEXE
 40
5.0
  9
$DIMTP
 40
0.0
  9
$DIMTM
 40
0.0
  9
$DIMTXT
 40
12.5
  9
$DIMCEN
 40
2.5
  9
$DIMTSZ
 40
0.0
  9
$DIMTOL
 70
     0
  9
$DIMLIM
 70
     0
  9
$DIMTIH
 70
     1
  9
$DIMTOH
 70
     1
  9
$DIMSE1
 70
     0
  9
$DIMSE2
 70
     0
  9
$DIMTAD
 70
     1
  9
$DIMZIN
 70
     0
  9
$DIMBLK
  1

  9
$DIMASO
 70
     1
  9
$DIMSHO
 70
     1
  9
$DIMPOST
  1

  9
$DIMAPOST
  1

  9
$DIMALT
 70
     0
  9
$DIMALTD
 70
     3
  9
$DIMALTF
 40
0.0393700787
  9
$DIMLFAC
 40
1.0
  9
$DIMTOFL
 70
     1
  9
$DIMTVP
 40
0.0
  9
$DIMTIX
 70
     0
  9
$DIMSOXD
 70
     0
  9
$DIMSAH
 70
     0
  9
$DIMBLK1
  1

  9
$DIMBLK2
  1

  9
$DIMSTYLE
  2
ISO-25
  9
$DIMCLRD
 70
     0
  9
$DIMCLRE
 70
     0
  9
$DIMCLRT
 70
     0
  9
$DIMTFAC
 40
1.0
  9
$DIMGAP
 40
7.62
  9
$DIMJUST
 70
     0
  9
$DIMSD1
 70
     0
  9
$DIMSD2
 70
     0
  9
$DIMTOLJ
 70
     0
  9
$DIMTZIN
 70
     0
  9
$DIMALTZ
 70
     0
  9
$DIMALTTZ
 70
     0
  9
$DIMUPT
 70
     0
  9
$DIMDEC
 70
     2
  9
$DIMTDEC
 70
     2
  9
$DIMALTU
 70
     2
  9
$DIMALTTD
 70
     3
  9
$DIMTXSTY
  7
Standard
  9
$DIMAUNIT
 70
     0
  9
$DIMADEC
 70
     2
  9
$DIMALTRND
 40
0.0
  9
$DIMAZIN
 70
     0
  9
$DIMDSEP
 70
    44
  9
$DIMATFIT
 70
     3
  9
$DIMFRAC
 70
     0
  9
$DIMLDRBLK
  1

  9
$DIMLUNIT
 70
     2
  9
$DIMLWD
 70
    -2
  9
$DIMLWE
 70
    -2
  9
$DIMTMOVE
 70
     0
  9
$LUNITS
 70
     2
  9
$LUPREC
 70
     1
  9
$SKETCHINC
 40
1.0
  9
$FILLETRAD
 40
10.0
  9
$AUNITS
 70
     0
  9
$AUPREC
 70
     2
  9
$MENU
  1
.
  9
$ELEVATION
 40
0.0
  9
$PELEVATION
 40
0.0
  9
$THICKNESS
 40
0.0
  9
$LIMCHECK
 70
     0
  9
$CHAMFERA
 40
0.0
  9
$CHAMFERB
 40
0.0
  9
$CHAMFERC
 40
0.0
  9
$CHAMFERD
 40
0.0
  9
$SKPOLY
 70
     0
  9
$TDCREATE
 40
2458907.633876979
  9
$TDUCREATE
 40
2458907.404710312
  9
$TDUPDATE
 40
2458907.633880567
  9
$TDUUPDATE
 40
2458907.4047139
  9
$TDINDWG
 40
0.0000000116
  9
$TDUSRTIMER
 40
0.0000000116
  9
$USRTIMER
 70
     1
  9
$ANGBASE
 50
0.0
  9
$ANGDIR
 70
     0
  9
$PDMODE
 70
     0
  9
$PDSIZE
 40
-1.0
  9
$PLINEWID
 40
0.0
  9
$SPLFRAME
 70
     0
  9
$SPLINETYPE
 70
     6
  9
$SPLINESEGS
 70
     8
  9
$HANDSEED
  5
3B6
  9
$SURFTAB1
 70
     6
  9
$SURFTAB2
 70
     6
  9
$SURFTYPE
 70
     6
  9
$SURFU
 70
     6
  9
$SURFV
 70
     6
  9
$UCSBASE
  2

  9
$UCSNAME
  2

  9
$UCSORG
 10
0.0
 20
0.0
 30
0.0
  9
$UCSXDIR
 10
1.0
 20
0.0
 30
0.0
  9
$UCSYDIR
 10
0.0
 20
1.0
 30
0.0
  9
$UCSORTHOREF
  2

  9
$UCSORTHOVIEW
 70
     0
  9
$UCSORGTOP
 10
0.0
 20
0.0
 30
0.0
  9
$UCSORGBOTTOM
 10
0.0
 20
0.0
 30
0.0
  9
$UCSORGLEFT
 10
0.0
 20
0.0
 30
0.0
  9
$UCSORGRIGHT
 10
0.0
 20
0.0
 30
0.0
  9
$UCSORGFRONT
 10
0.0
 20
0.0
 30
0.0
  9
$UCSORGBACK
 10
0.0
 20
0.0
 30
0.0
  9
$PUCSBASE
  2

  9
$PUCSNAME
  2

  9
$PUCSORG
 10
0.0
 20
0.0
 30
0.0
  9
$PUCSXDIR
 10
1.0
 20
0.0
 30
0.0
  9
$PUCSYDIR
 10
0.0
 20
1.0
 30
0.0
  9
$PUCSORTHOREF
  2

  9
$PUCSORTHOVIEW
 70
     0
  9
$PUCSORGTOP
 10
0.0
 20
0.0
 30
0.0
  9
$PUCSORGBOTTOM
 10
0.0
 20
0.0
 30
0.0
  9
$PUCSORGLEFT
 10
0.0
 20
0.0
 30
0.0
  9
$PUCSORGRIGHT
 10
0.0
 20
0.0
 30
0.0
  9
$PUCSORGFRONT
 10
0.0
 20
0.0
 30
0.0
  9
$PUCSORGBACK
 10
0.0
 20
0.0
 30
0.0
  9
$USERI1
 70
     0
  9
$USERI2
 70
     0
  9
$USERI3
 70
     0
  9
$USERI4
 70
     0
  9
$USERI5
 70
     0
  9
$USERR1
 40
0.0
  9
$USERR2
 40
0.0
  9
$USERR3
 40
0.0
  9
$USERR4
 40
0.0
  9
$USERR5
 40
0.0
  9
$WORLDVIEW
 70
     1
  9
$SHADEDGE
 70
     3
  9
$SHADEDIF
 70
    70
  9
$TILEMODE
 70
     1
  9
$MAXACTVP
 70
    64
  9
$PINSBASE
 10
0.0
 20
0.0
 30
0.0
  9
$PLIMCHECK
 70
     0
  9
$PEXTMIN
 10
1.0000000000E+20
 20
1.0000000000E+20
 30
1.0000000000E+20
  9
$PEXTMAX
 10
-1.0000000000E+20
 20
-1.0000000000E+20
 30
-1.0000000000E+20
  9
$PLIMMIN
 10
0.0
 20
0.0
  9
$PLIMMAX
 10
420.0
 20
297.0
  9
$UNITMODE
 70
     0
  9
$VISRETAIN
 70
     1
  9
$PLINEGEN
 70
     0
  9
$PSLTSCALE
 70
     1
  9
$TREEDEPTH
 70
  3020
  9
$CMLSTYLE
  2
Standard
  9
$CMLJUST
 70
     0
  9
$CMLSCALE
 40
20.0
  9
$PROXYGRAPHICS
 70
     1
  9
$MEASUREMENT
 70
     1
  9
$CELWEIGHT
370
    -1
  9
$ENDCAPS
280
     0
  9
$JOINSTYLE
280
     0
  9
$LWDISPLAY
290
     1
  9
$INSUNITS
 70
     4
  9
$HYPERLINKBASE
  1

  9
$STYLESHEET
  1

  9
$XEDIT
290
     1
  9
$CEPSNTYPE
380
     0
  9
$PSTYLEMODE
290
     1
  9
$FINGERPRINTGUID
  2
{6f014b5d-e343-4e73-aaff-3ff2e3053140}
  9
$VERSIONGUID
  2
{FAEB1C32-E019-11D5-929B-00C0DF256EC4}
  9
$EXTNAMES
290
     1
  9
$PSVPSCALE
 40
0.0
  9
$OLESTARTUP
290
     0
  0
ENDSEC
  0
SECTION
  2
CLASSES
  0
CLASS
  1
ACDBDICTIONARYWDFLT
  2
AcDbDictionaryWithDefault
  3
ObjectDBX Classes
 90
        0
280
     0
281
     0
  0
CLASS
  1
VISUALSTYLE
  2
AcDbVisualStyle
  3
ObjectDBX Classes
 90
     4095
280
     0
281
     0
  0
CLASS
  1
MATERIAL
  2
AcDbMaterial
  3
ObjectDBX Classes
 90
     1153
280
     0
281
     0
  0
CLASS
  1
SCALE
  2
AcDbScale
  3
ObjectDBX Classes
 90
     1153
280
     0
281
     0
  0
CLASS
  1
TABLESTYLE
  2
AcDbTableStyle
  3
ObjectDBX Classes
 90
     4095
280
     0
281
     0
  0
CLASS
  1
MLEADERSTYLE
  2
AcDbMLeaderStyle
  3
ACDB_MLEADERSTYLE_CLASS
 90
     4095
280
     0
281
     0
  0
CLASS
  1
SUN
  2
AcDbSun
  3
SCENEOE
 90
     1153
280
     0
281
     0
  0
CLASS
  1
ACDBPLACEHOLDER
  2
AcDbPlaceHolder
  3
ObjectDBX Classes
 90
        0
280
     0
281
     0
  0
CLASS
  1
LAYOUT
  2
AcDbLayout
  3
ObjectDBX Classes
 90
        0
280
     0
281
     0
  0
ENDSEC
  0
SECTION
  2
TABLES
  0
TABLE
  2
VPORT
  5
8
330
0
100
AcDbSymbolTable
 70
     1
  0
VPORT
  5
29
330
8
100
AcDbSymbolTableRecord
100
AcDbViewportTableRecord
  2
*Active
 70
     0
 10
0.0
 20
0.0
 11
1.0
 21
1.0
 12
1050.0
 22
742.5
 13
0.0
 23
0.0
 14
10.0
 24
10.0
 15
10.0
 25
10.0
 16
0.0
 26
0.0
 36
1.0
 17
0.0
 27
0.0
 37
0.0
 40
1485.0
 41
1.4141414141
 42
50.0
 43
0.0
 44
0.0
 50
0.0
 51
0.0
 71
     0
 72
  2000
 73
     1
 74
     3
 75
     0
 76
     0
 77
     0
 78
     0
281
     0
 65
     1
110
0.0
120
0.0
130
0.0
111
1.0
121
0.0
131
0.0
112
0.0
122
1.0
132
0.0
 79
     0
146
0.0
  0
ENDTAB
  0
TABLE
  2
LTYPE
  5
5
330
0
100
AcDbSymbolTable
 70
     6
  0
LTYPE
  5
14
330
5
100
AcDbSymbolTableRecord
100
AcDbLinetypeTableRecord
  2
ByBlock
 70
     0
  3

 72
    65
 73
     0
 40
0.0
  0
LTYPE
  5
15
330
5
100
AcDbSymbolTableRecord
100
AcDbLinetypeTableRecord
  2
ByLayer
 70
     0
  3

 72
    65
 73
     0
 40
0.0
  0
LTYPE
  5
16
330
5
100
AcDbSymbolTableRecord
100
AcDbLinetypeTableRecord
  2
Continuous
 70
     0
  3
Solid line
 72
    65
 73
     0
 40
0.0
  0
LTYPE
  5
6E
330
5
100
AcDbSymbolTableRecord
100
AcDbLinetypeTableRecord
  2
HIDDEN
 70
     0
  3
Hidden __ __ __ __ __ __ __ __ __ __ __ __ __ __
 72
    65
 73
     2
 40
1.905
 49
1.27
 74
     0
 49
-0.635
 74
     0
  0
LTYPE
  5
6F
330
5
100
AcDbSymbolTableRecord
100
AcDbLinetypeTableRecord
  2
PHANTOM
 70
     0
  3
Phantom ______  __  __  ______  __  __  ______
 72
    65
 73
     6
 40
12.7
 49
6.35
 74
     0
 49
-1.27
 74
     0
 49
1.27
 74
     0
 49
-1.27
 74
     0
 49
1.27
 74
     0
 49
-1.27
 74
     0
  0
LTYPE
  5
70
330
5
100
AcDbSymbolTableRecord
100
AcDbLinetypeTableRecord
  2
CENTER
 70
     0
  3
Center ____ _ ____ _ ____ _ ____ _ ____ _ ____
 72
    65
 73
     4
 40
10.16
 49
6.35
 74
     0
 49
-1.27
 74
     0
 49
1.27
 74
     0
 49
-1.27
 74
     0
  0
LTYPE
  5
71
330
5
100
AcDbSymbolTableRecord
100
AcDbLinetypeTableRecord
  2
CENTERX2
 70
     0
  3
Center (2x) ________  __  ________  __  _____
 72
    65
 73
     4
 40
20.32
 49
12.7
 74
     0
 49
-2.54
 74
     0
 49
2.54
 74
     0
 49
-2.54
 74
     0
  0
LTYPE
  5
72
330
5
100
AcDbSymbolTableRecord
100
AcDbLinetypeTableRecord
  2
DOT2
 70
     0
  3
Dot (.5x) ........................................
 72
    65
 73
     2
 40
0.635
 49
0.0
 74
     0
 49
-0.635
 74
     0
  0
ENDTAB
  0
TABLE
  2
LAYER
  5
2
330
0
100
AcDbSymbolTable
 70
    10
  0
LAYER
  5
10
330
2
100
AcDbSymbolTableRecord
100
AcDbLayerTableRecord
  2
0
 70
     0
 62
     7
  6
Continuous
370
    -3
390
F
  0
LAYER
  5
73
330
2
100
AcDbSymbolTableRecord
100
AcDbLayerTableRecord
  2
DIMENSION
 70
     0
 62
     7
  6
Continuous
370
    -3
390
F
  0
LAYER
  5
74
330
2
100
AcDbSymbolTableRecord
100
AcDbLayerTableRecord
  2
NOTES
 70
     0
 62
     7
  6
Continuous
370
    -3
390
F
  0
LAYER
  5
75
330
2
100
AcDbSymbolTableRecord
100
AcDbLayerTableRecord
  2
TABLES
 70
     0
 62
     7
  6
Continuous
370
    -3
390
F
  0
LAYER
  5
76
330
2
100
AcDbSymbolTableRecord
100
AcDbLayerTableRecord
  2
INVISIBLE
 70
     0
 62
    -7
  6
Continuous
290
     0
370
    -3
390
F
  0
LAYER
  5
77
330
2
100
AcDbSymbolTableRecord
100
AcDbLayerTableRecord
  2
WEP
 70
     0
 62
  -150
  6
Continuous
290
     0
370
    -3
390
F
  0
LAYER
  5
78
330
2
100
AcDbSymbolTableRecord
100
AcDbLayerTableRecord
  2
EMP
 70
     0
 62
     1
  6
Continuous
370
    -3
390
F
  0
LAYER
  5
79
330
2
100
AcDbSymbolTableRecord
100
AcDbLayerTableRecord
  2
MARKETING_DRW
 70
     0
 62
    -7
  6
Continuous
290
     0
370
    -3
390
F
  0
LAYER
  5
7A
330
2
100
AcDbSymbolTableRecord
100
AcDbLayerTableRecord
  2
SINGLE_ARTICLE_DRW
 70
     0
 62
     7
  6
Continuous
370
    -3
390
F
  0
LAYER
  5
7B
330
2
100
AcDbSymbolTableRecord
100
AcDbLayerTableRecord
  2
TABLE_DRW
 70
     0
 62
    -7
  6
Continuous
290
     0
370
    -3
390
F
  0
ENDTAB
  0
TABLE
  2
STYLE
  5
3
330
0
100
AcDbSymbolTable
 70
     2
  0
STYLE
  5
11
330
3
100
AcDbSymbolTableRecord
100
AcDbTextStyleTableRecord
  2
Standard
 70
     0
 40
0.0
 41
1.0
 50
0.0
 71
     0
 42
12.5
  3
txt
  4

  0
STYLE
  5
B5
330
3
100
AcDbSymbolTableRecord
100
AcDbTextStyleTableRecord
  2
SLDTEXTSTYLE0
 70
     0
 40
0.0
 41
0.605
 50
0.0
 71
     0
 42
12.5
  3
TXT
  4

  0
ENDTAB
  0
TABLE
  2
VIEW
  5
6
330
0
100
AcDbSymbolTable
 70
     0
  0
ENDTAB
  0
TABLE
  2
UCS
  5
7
330
0
100
AcDbSymbolTable
 70
     0
  0
ENDTAB
  0
TABLE
  2
APPID
  5
9
330
0
100
AcDbSymbolTable
 70
     1
  0
APPID
  5
12
330
9
100
AcDbSymbolTableRecord
100
AcDbRegAppTableRecord
  2
ACAD
 70
     0
  0
ENDTAB
  0
TABLE
  2
DIMSTYLE
  5
A
330
0
100
AcDbSymbolTable
 70
     1
100
AcDbDimStyleTable
  0
DIMSTYLE
105
27
330
A
100
AcDbSymbolTableRecord
100
AcDbDimStyleTableRecord
  2
ISO-25
 70
     0
 41
2.5
 42
0.625
 43
3.75
 44
1.25
 73
     0
 74
     0
 77
     1
 78
     8
140
2.5
141
2.5
143
0.0393700787
147
0.625
171
     3
172
     1
178
     0
271
     2
272
     2
274
     3
278
    44
283
     0
284
     8
340
11
  0
ENDTAB
  0
TABLE
  2
BLOCK_RECORD
  5
1
330
0
100
AcDbSymbolTable
 70
     3
  0
BLOCK_RECORD
  5
1F
330
1
100
AcDbSymbolTableRecord
100
AcDbBlockTableRecord
  2
*Model_Space
340
22
  0
BLOCK_RECORD
  5
1B
330
1
100
AcDbSymbolTableRecord
100
AcDbBlockTableRecord
  2
*Paper_Space
340
1E
  0
BLOCK_RECORD
  5
23
330
1
100
AcDbSymbolTableRecord
100
AcDbBlockTableRecord
  2
*Paper_Space0
340
26
  0
BLOCK_RECORD
  5
BF
330
1
100
AcDbSymbolTableRecord
100
AcDbBlockTableRecord
  2
SW_NOTE_0
340
0
102
{BLKREFS
331
C5
102
}
  0
BLOCK_RECORD
  5
E8
330
1
100
AcDbSymbolTableRecord
100
AcDbBlockTableRecord
  2
SW_NOTE_0_1
340
0
102
{BLKREFS
331
EE
102
}
  0
ENDTAB
  0
ENDSEC
  0
SECTION
  2
BLOCKS
  0
BLOCK
  5
20
330
1F
100
AcDbEntity
  8
0
100
AcDbBlockBegin
  2
*Model_Space
 70
     0
 10
0.0
 20
0.0
 30
0.0
  3
*Model_Space
  1

  0
ENDBLK
  5
21
330
1F
100
AcDbEntity
  8
0
100
AcDbBlockEnd
  0
BLOCK
  5
1C
330
1B
100
AcDbEntity
 67
     1
  8
0
100
AcDbBlockBegin
  2
*Paper_Space
 70
     0
 10
0.0
 20
0.0
 30
0.0
  3
*Paper_Space
  1

  0
ENDBLK
  5
1D
330
1B
100
AcDbEntity
 67
     1
  8
0
100
AcDbBlockEnd
  0
BLOCK
  5
24
330
23
100
AcDbEntity
  8
0
100
AcDbBlockBegin
  2
*Paper_Space0
 70
     0
 10
0.0
 20
0.0
 30
0.0
  3
*Paper_Space0
  1

  0
ENDBLK
  5
25
330
23
100
AcDbEntity
  8
0
100
AcDbBlockEnd
  0
BLOCK
  5
C0
330
BF
100
AcDbEntity
  8
0
100
AcDbBlockBegin
  2
SW_NOTE_0
 70
     0
 10
0.0
 20
0.0
 30
0.0
  3
SW_NOTE_0
  1

  0
MTEXT
  5
C2
330
BF
100
AcDbEntity
  8
TABLE_DRW
 62
     0
100
AcDbMText
 10
0.0
 20
11.6016096579
 30
0.0
 40
9.0
 41
0.0
 71
     1
 72
     1
  1
The reproduction, distribution and utilization of this document as well as the communication of its contents to
  7
SLDTEXTSTYLE0
 73
     1
 44
1.0
  0
MTEXT
  5
C3
330
BF
100
AcDbEntity
  8
TABLE_DRW
 62
     0
100
AcDbMText
 10
0.0
 20
0.0016098055
 30
0.0
 40
9.0
 41
0.0
 71
     1
 72
     1
  1
others without express authorization is prohibited. Offenders will be held liable for the payment of damages.
  7
SLDTEXTSTYLE0
 73
     1
 44
1.0
  0
MTEXT
  5
C4
330
BF
100
AcDbEntity
  8
TABLE_DRW
 62
     0
100
AcDbMText
 10
0.0
 20
-11.598390047
 30
0.0
 40
9.0
 41
0.0
 71
     1
 72
     1
  1
All rights reserved in the event of the grant of a patent, utility model or design. Observe copyright by ISO 16016
  7
SLDTEXTSTYLE0
 73
     1
 44
1.0
  0
ENDBLK
  5
C1
330
BF
100
AcDbEntity
  8
0
100
AcDbBlockEnd
  0
BLOCK
  5
E9
330
E8
100
AcDbEntity
  8
0
100
AcDbBlockBegin
  2
SW_NOTE_0_1
 70
     0
 10
0.0
 20
0.0
 30
0.0
  3
SW_NOTE_0_1
  1

  0
MTEXT
  5
EB
330
E8
100
AcDbEntity
  8
MARKETING_DRW
 62
     0
100
AcDbMText
 10
0.0
 20
11.6016096579
 30
0.0
 40
9.0
 41
0.0
 71
     1
 72
     1
  1
The reproduction, distribution and utilization of this document as well as the communication of its contents to
  7
SLDTEXTSTYLE0
 73
     1
 44
1.0
  0
MTEXT
  5
EC
330
E8
100
AcDbEntity
  8
MARKETING_DRW
 62
     0
100
AcDbMText
 10
0.0
 20
-0.0233903849
 30
0.0
 40
9.0
 41
0.0
 71
     1
 72
     1
  1
others without express authorization is prohibited. Offenders will be held liable for the payment of damages.
  7
SLDTEXTSTYLE0
 73
     1
 44
1.0
  0
MTEXT
  5
ED
330
E8
100
AcDbEntity
  8
MARKETING_DRW
 62
     0
100
AcDbMText
 10
0.0
 20
-11.6483904277
 30
0.0
 40
9.0
 41
0.0
 71
     1
 72
     1
  1
All rights reserved in the event of the grant of a patent, utility model or design. Observe copyright by ISO 16016
  7
SLDTEXTSTYLE0
 73
     1
 44
1.0
  0
ENDBLK
  5
EA
330
E8
100
AcDbEntity
  8
0
100
AcDbBlockEnd
  0
ENDSEC
  0
SECTION
  2
ENTITIES
  0
LINE
  5
7C
330
1F
100
AcDbEntity
  8
TABLE_DRW
  6
CENTERX2
 62
     7
100
AcDbLine
 10
1955.0
 20
200.0
 30
0.0
 11
1980.0
 21
200.0
 31
0.0
  0
LINE
  5
7D
330
1F
100
AcDbEntity
  8
TABLE_DRW
  6
CENTERX2
 62
     7
100
AcDbLine
 10
1967.5
 20
212.5
 30
0.0
 11
1967.5
 21
187.5
 31
0.0
  0
LINE
  5
7E
330
1F
100
AcDbEntity
  8
TABLE_DRW
  6
CENTERX2
 62
     7
100
AcDbLine
 10
1915.0
 20
200.0
 30
0.0
 11
1950.0
 21
200.0
 31
0.0
  0
LINE
  5
7F
330
1F
100
AcDbEntity
  8
TABLE_DRW
 62
     7
100
AcDbLine
 10
1920.0
 20
194.95
 30
0.0
 11
1945.0
 21
190.0
 31
0.0
  0
LINE
  5
80
330
1F
100
AcDbEntity
  8
TABLE_DRW
 62
     7
100
AcDbLine
 10
1920.0
 20
205.05
 30
0.0
 11
1920.0
 21
194.95
 31
0.0
  0
LINE
  5
81
330
1F
100
AcDbEntity
  8
TABLE_DRW
 62
     7
100
AcDbLine
 10
1945.0
 20
210.0
 30
0.0
 11
1920.0
 21
205.05
 31
0.0
  0
LINE
  5
82
330
1F
100
AcDbEntity
  8
TABLE_DRW
 62
     7
100
AcDbLine
 10
1945.0
 20
190.0
 30
0.0
 11
1945.0
 21
210.0
 31
0.0
  0
LINE
  5
83
330
1F
100
AcDbEntity
  8
TABLE_DRW
 62
     7
100
AcDbLine
 10
2050.0
 20
50.0
 30
0.0
 11
2050.0
 21
340.0
 31
0.0
  0
LINE
  5
84
330
1F
100
AcDbEntity
  8
TABLE_DRW
 62
     7
100
AcDbLine
 10
1150.0
 20
340.0
 30
0.0
 11
1150.0
 21
50.0
 31
0.0
  0
LINE
  5
85
330
1F
100
AcDbEntity
  8
TABLE_DRW
 62
     7
100
AcDbLine
 10
1700.0
 20
95.0
 30
0.0
 11
1700.0
 21
50.0
 31
0.0
  0
LINE
  5
86
330
1F
100
AcDbEntity
  8
TABLE_DRW
 62
     7
100
AcDbLine
 10
1850.0
 20
50.0
 30
0.0
 11
1850.0
 21
95.0
 31
0.0
  0
LINE
  5
87
330
1F
100
AcDbEntity
  8
TABLE_DRW
 62
     7
100
AcDbLine
 10
2000.0
 20
95.0
 30
0.0
 11
2000.0
 21
50.0
 31
0.0
  0
LINE
  5
88
330
1F
100
AcDbEntity
  8
TABLE_DRW
 62
     7
100
AcDbLine
 10
1900.0
 20
320.0
 30
0.0
 11
1900.0
 21
185.0
 31
0.0
  0
LINE
  5
89
330
1F
100
AcDbEntity
  8
TABLE_DRW
 62
     7
100
AcDbLine
 10
2050.0
 20
320.0
 30
0.0
 11
1150.0
 21
320.0
 31
0.0
  0
LINE
  5
8A
330
1F
100
AcDbEntity
  8
TABLE_DRW
 62
     7
100
AcDbLine
 10
1800.0
 20
95.0
 30
0.0
 11
1800.0
 21
50.0
 31
0.0
  0
LINE
  5
8B
330
1F
100
AcDbEntity
  8
TABLE_DRW
 62
     7
100
AcDbLine
 10
2050.0
 20
275.0
 30
0.0
 11
1400.0
 21
275.0
 31
0.0
  0
LINE
  5
8C
330
1F
100
AcDbEntity
  8
TABLE_DRW
 62
     7
100
AcDbLine
 10
1650.0
 20
230.0
 30
0.0
 11
1650.0
 21
185.0
 31
0.0
  0
LINE
  5
8D
330
1F
100
AcDbEntity
  8
TABLE_DRW
 62
     7
100
AcDbLine
 10
2050.0
 20
230.0
 30
0.0
 11
1400.0
 21
230.0
 31
0.0
  0
LINE
  5
8E
330
1F
100
AcDbEntity
  8
TABLE_DRW
 62
     7
100
AcDbLine
 10
1400.0
 20
320.0
 30
0.0
 11
1400.0
 21
185.0
 31
0.0
  0
LINE
  5
8F
330
1F
100
AcDbEntity
  8
TABLE_DRW
 62
     7
100
AcDbLine
 10
2000.0
 20
230.0
 30
0.0
 11
2000.0
 21
185.0
 31
0.0
  0
LINE
  5
90
330
1F
100
AcDbEntity
  8
TABLE_DRW
 62
     7
100
AcDbLine
 10
2050.0
 20
95.0
 30
0.0
 11
1150.0
 21
95.0
 31
0.0
  0
LINE
  5
91
330
1F
100
AcDbEntity
  8
TABLE_DRW
 62
     7
100
AcDbLine
 10
1650.0
 20
275.0
 30
0.0
 11
1650.0
 21
320.0
 31
0.0
  0
LINE
  5
92
330
1F
100
AcDbEntity
  8
TABLE_DRW
 62
     7
100
AcDbLine
 10
1150.0
 20
340.0
 30
0.0
 11
2050.0
 21
340.0
 31
0.0
  0
LINE
  5
93
330
1F
100
AcDbEntity
  8
TABLE_DRW
 62
     7
100
AcDbLine
 10
1150.0
 20
185.0
 30
0.0
 11
2050.0
 21
185.0
 31
0.0
  0
LINE
  5
94
330
1F
100
AcDbEntity
  8
TABLE_DRW
 62
     7
100
AcDbLine
 10
1150.0
 20
50.0
 30
0.0
 11
2050.0
 21
50.0
 31
0.0
  0
LINE
  5
95
330
1F
100
AcDbEntity
  8
TABLE_DRW
 62
     7
100
AcDbLine
 10
1400.0
 20
275.0
 30
0.0
 11
1150.0
 21
275.0
 31
0.0
  0
LINE
  5
96
330
1F
100
AcDbEntity
  8
MARKETING_DRW
  6
CENTERX2
100
AcDbLine
 10
1955.0
 20
200.0
 30
0.0
 11
1980.0
 21
200.0
 31
0.0
  0
LINE
  5
97
330
1F
100
AcDbEntity
  8
MARKETING_DRW
  6
CENTERX2
100
AcDbLine
 10
1967.5
 20
212.5
 30
0.0
 11
1967.5
 21
187.5
 31
0.0
  0
LINE
  5
98
330
1F
100
AcDbEntity
  8
MARKETING_DRW
  6
CENTERX2
100
AcDbLine
 10
1915.0
 20
200.0
 30
0.0
 11
1950.0
 21
200.0
 31
0.0
  0
LINE
  5
99
330
1F
100
AcDbEntity
  8
MARKETING_DRW
100
AcDbLine
 10
1920.0
 20
194.95
 30
0.0
 11
1945.0
 21
190.0
 31
0.0
  0
LINE
  5
9A
330
1F
100
AcDbEntity
  8
MARKETING_DRW
100
AcDbLine
 10
1920.0
 20
205.05
 30
0.0
 11
1920.0
 21
194.95
 31
0.0
  0
LINE
  5
9B
330
1F
100
AcDbEntity
  8
MARKETING_DRW
100
AcDbLine
 10
1945.0
 20
210.0
 30
0.0
 11
1920.0
 21
205.05
 31
0.0
  0
LINE
  5
9C
330
1F
100
AcDbEntity
  8
MARKETING_DRW
100
AcDbLine
 10
1945.0
 20
190.0
 30
0.0
 11
1945.0
 21
210.0
 31
0.0
  0
LINE
  5
9D
330
1F
100
AcDbEntity
  8
MARKETING_DRW
100
AcDbLine
 10
2050.0
 20
50.0
 30
0.0
 11
2050.0
 21
230.0
 31
0.0
  0
LINE
  5
9E
330
1F
100
AcDbEntity
  8
MARKETING_DRW
100
AcDbLine
 10
1150.0
 20
50.0
 30
0.0
 11
2050.0
 21
50.0
 31
0.0
  0
LINE
  5
9F
330
1F
100
AcDbEntity
  8
MARKETING_DRW
100
AcDbLine
 10
1150.0
 20
275.0
 30
0.0
 11
1150.0
 21
50.0
 31
0.0
  0
LINE
  5
A0
330
1F
100
AcDbEntity
  8
MARKETING_DRW
100
AcDbLine
 10
1150.0
 20
275.0
 30
0.0
 11
1650.0
 21
275.0
 31
0.0
  0
LINE
  5
A1
330
1F
100
AcDbEntity
  8
MARKETING_DRW
 62
     7
100
AcDbLine
 10
1850.0
 20
50.0
 30
0.0
 11
1850.0
 21
95.0
 31
0.0
  0
LINE
  5
A2
330
1F
100
AcDbEntity
  8
MARKETING_DRW
100
AcDbLine
 10
2000.0
 20
95.0
 30
0.0
 11
2000.0
 21
50.0
 31
0.0
  0
LINE
  5
A3
330
1F
100
AcDbEntity
  8
MARKETING_DRW
100
AcDbLine
 10
1650.0
 20
275.0
 30
0.0
 11
1650.0
 21
230.0
 31
0.0
  0
LINE
  5
A4
330
1F
100
AcDbEntity
  8
MARKETING_DRW
100
AcDbLine
 10
2050.0
 20
230.0
 30
0.0
 11
1400.0
 21
230.0
 31
0.0
  0
LINE
  5
A5
330
1F
100
AcDbEntity
  8
MARKETING_DRW
100
AcDbLine
 10
1400.0
 20
275.0
 30
0.0
 11
1400.0
 21
185.0
 31
0.0
  0
LINE
  5
A6
330
1F
100
AcDbEntity
  8
MARKETING_DRW
100
AcDbLine
 10
2000.0
 20
230.0
 30
0.0
 11
2000.0
 21
185.0
 31
0.0
  0
LINE
  5
A7
330
1F
100
AcDbEntity
  8
MARKETING_DRW
100
AcDbLine
 10
2050.0
 20
95.0
 30
0.0
 11
1150.0
 21
95.0
 31
0.0
  0
LINE
  5
A8
330
1F
100
AcDbEntity
  8
MARKETING_DRW
100
AcDbLine
 10
1150.0
 20
185.0
 30
0.0
 11
2050.0
 21
185.0
 31
0.0
  0
LINE
  5
A9
330
1F
100
AcDbEntity
  8
MARKETING_DRW
100
AcDbLine
 10
1150.0
 20
50.0
 30
0.0
 11
2050.0
 21
50.0
 31
0.0
  0
LINE
  5
AA
330
1F
100
AcDbEntity
  8
MARKETING_DRW
100
AcDbLine
 10
1900.0
 20
230.0
 30
0.0
 11
1900.0
 21
185.0
 31
0.0
  0
LINE
  5
AB
330
1F
100
AcDbEntity
  8
MARKETING_DRW
100
AcDbLine
 10
1650.0
 20
275.0
 30
0.0
 11
1900.0
 21
275.0
 31
0.0
  0
LINE
  5
AC
330
1F
100
AcDbEntity
  8
MARKETING_DRW
100
AcDbLine
 10
1900.0
 20
275.0
 30
0.0
 11
1900.0
 21
230.0
 31
0.0
  0
LINE
  5
AD
330
1F
100
AcDbEntity
  8
MARKETING_DRW
100
AcDbLine
 10
1900.0
 20
275.0
 30
0.0
 11
2050.0
 21
275.0
 31
0.0
  0
LINE
  5
AE
330
1F
100
AcDbEntity
  8
MARKETING_DRW
100
AcDbLine
 10
2050.0
 20
275.0
 30
0.0
 11
2050.0
 21
230.0
 31
0.0
  0
LINE
  5
AF
330
1F
100
AcDbEntity
  8
MARKETING_DRW
100
AcDbLine
 10
1825.0
 20
275.0
 30
0.0
 11
1825.0
 21
230.0
 31
0.0
  0
LINE
  5
B0
330
1F
100
AcDbEntity
  8
MARKETING_DRW
100
AcDbLine
 10
1650.0
 20
230.0
 30
0.0
 11
1650.0
 21
185.0
 31
0.0
  0
CIRCLE
  5
B1
330
1F
100
AcDbEntity
  8
TABLE_DRW
 62
     7
100
AcDbCircle
 10
1967.5
 20
200.0
 30
0.0
 40
5.000000000000224
  0
CIRCLE
  5
B2
330
1F
100
AcDbEntity
  8
TABLE_DRW
 62
     7
100
AcDbCircle
 10
1967.5
 20
200.0
 30
0.0
 40
10.00000000000024
  0
CIRCLE
  5
B3
330
1F
100
AcDbEntity
  8
MARKETING_DRW
100
AcDbCircle
 10
1967.5
 20
200.0
 30
0.0
 40
5.000000000000224
  0
CIRCLE
  5
B4
330
1F
100
AcDbEntity
  8
MARKETING_DRW
100
AcDbCircle
 10
1967.5
 20
200.0
 30
0.0
 40
10.00000000000024
  0
MTEXT
  5
B6
330
1F
100
AcDbEntity
  8
TABLE_DRW
100
AcDbMText
 10
1905.0
 20
294.9675136777
 30
0.0
 40
12.5
 41
0.0
 71
     1
 72
     1
  1
see table
  7
SLDTEXTSTYLE0
 73
     1
 44
1.0
  0
MTEXT
  5
B7
330
1F
100
AcDbEntity
  8
TABLE_DRW
100
AcDbMText
 10
1155.0
 20
334.9766099061
 30
0.0
 40
9.0
 41
0.0
 71
     1
 72
     1
  1
modification:
  7
SLDTEXTSTYLE0
 73
     1
 44
1.0
  0
MTEXT
  5
B8
330
1F
100
AcDbEntity
  8
TABLE_DRW
100
AcDbMText
 10
1405.0
 20
249.9675136777
 30
0.0
 40
12.5
 41
0.0
 71
     1
 72
     1
  1
see table
  7
SLDTEXTSTYLE0
 73
     1
 44
1.0
  0
MTEXT
  5
B9
330
1F
100
AcDbEntity
  8
TABLE_DRW
100
AcDbMText
 10
1155.0
 20
159.9675136777
 30
0.0
 40
12.5
 41
0.0
 71
     1
 72
     1
  1
ACO ShowerDrain
  7
SLDTEXTSTYLE0
 73
     1
 44
1.0
  0
MTEXT
  5
BA
330
1F
100
AcDbEntity
  8
TABLE_DRW
100
AcDbMText
 10
1824.7395830229
 20
69.9675136777
 30
0.0
 40
12.5
 41
0.0
 71
     2
 72
     1
  1
001
  7
SLDTEXTSTYLE0
 73
     1
 44
1.0
  0
MTEXT
  5
BB
330
1F
100
AcDbEntity
  8
TABLE_DRW
100
AcDbMText
 10
1749.0407964215
 20
69.9675136777
 30
0.0
 40
12.5
 41
0.0
 71
     2
 72
     1
  1
1076931-O
  7
SLDTEXTSTYLE0
 73
     1
 44
1.0
  0
MTEXT
  5
BC
330
1F
100
AcDbEntity
  8
TABLE_DRW
100
AcDbMText
 10
1155.0
 20
295.0022357116
 30
0.0
 40
12.5
 41
0.0
 71
     1
 72
     1
  1
Tittmar, Alexander
  7
SLDTEXTSTYLE0
 73
     1
 44
1.0
  0
MTEXT
  5
BD
330
1F
100
AcDbEntity
  8
TABLE_DRW
100
AcDbMText
 10
1155.0
 20
137.4675136777
 30
0.0
 40
12.5
 41
0.0
 71
     1
 72
     1
  1
ASM Shower Channel C with WA and gap, with side outlet, with FAT GV50 L680, International
  7
SLDTEXTSTYLE0
 73
     1
 44
1.0
  0
MTEXT
  5
BE
330
1F
100
AcDbEntity
  8
TABLE_DRW
100
AcDbMText
 10
1155.0
 20
114.9675136777
 30
0.0
 40
12.5
 41
0.0
 71
     1
 72
     1
  1
ZB Duschrinne C mit Spalt, mit Wandaufkantung, mit Seite Auslass, mit FAT GV50 L680, International
  7
SLDTEXTSTYLE0
 73
     1
 44
1.0
  0
INSERT
  5
C5
330
1F
100
AcDbEntity
  8
TABLE_DRW
100
AcDbBlockReference
  2
SW_NOTE_0
 10
1155.0
 20
78.4000001475
 30
0.0
  0
MTEXT
  5
C6
330
1F
100
AcDbEntity
  8
TABLE_DRW
100
AcDbMText
 10
1405.0
 20
224.9766099061
 30
0.0
 40
9.0
 41
0.0
 71
     1
 72
     1
  1
created by:
  7
SLDTEXTSTYLE0
 73
     1
 44
1.0
  0
MTEXT
  5
C7
330
1F
100
AcDbEntity
  8
TABLE_DRW
100
AcDbMText
 10
1655.0
 20
314.9766099061
 30
0.0
 40
9.0
 41
0.0
 71
     1
 72
     1
  1
surface:
  7
SLDTEXTSTYLE0
 73
     1
 44
1.0
  0
MTEXT
  5
C8
330
1F
100
AcDbEntity
  8
TABLE_DRW
100
AcDbMText
 10
2024.8750000875
 20
224.9766099061
 30
0.0
 40
9.0
 41
0.0
 71
     2
 72
     1
  1
scale:
  7
SLDTEXTSTYLE0
 73
     1
 44
1.0
  0
MTEXT
  5
C9
330
1F
100
AcDbEntity
  8
TABLE_DRW
100
AcDbMText
 10
1905.0
 20
314.9766099061
 30
0.0
 40
9.0
 41
0.0
 71
     1
 72
     1
  1
weight:
  7
SLDTEXTSTYLE0
 73
     1
 44
1.0
  0
MTEXT
  5
CA
330
1F
100
AcDbEntity
  8
TABLE_DRW
100
AcDbMText
 10
1749.034373872
 20
89.9766099061
 30
0.0
 40
9.0
 41
0.0
 71
     2
 72
     1
  1
drawing-no.:
  7
SLDTEXTSTYLE0
 73
     1
 44
1.0
  0
MTEXT
  5
CB
330
1F
100
AcDbEntity
  8
TABLE_DRW
100
AcDbMText
 10
1905.0
 20
269.9766099061
 30
0.0
 40
9.0
 41
0.0
 71
     1
 72
     1
  1
documenttype:
  7
SLDTEXTSTYLE0
 73
     1
 44
1.0
  0
MTEXT
  5
CC
330
1F
100
AcDbEntity
  8
TABLE_DRW
100
AcDbMText
 10
1824.8125000894
 20
89.9766099061
 30
0.0
 40
9.0
 41
0.0
 71
     2
 72
     1
  1
index:
  7
SLDTEXTSTYLE0
 73
     1
 44
1.0
  0
MTEXT
  5
CD
330
1F
100
AcDbEntity
  8
TABLE_DRW
100
AcDbMText
 10
1655.0
 20
224.9766099061
 30
0.0
 40
9.0
 41
0.0
 71
     1
 72
     1
  1
reviewed by:
  7
SLDTEXTSTYLE0
 73
     1
 44
1.0
  0
MTEXT
  5
CE
330
1F
100
AcDbEntity
  8
TABLE_DRW
100
AcDbMText
 10
1855.0
 20
89.9766099061
 30
0.0
 40
9.0
 41
0.0
 71
     1
 72
     1
  1
release date:
  7
SLDTEXTSTYLE0
 73
     1
 44
1.0
  0
MTEXT
  5
CF
330
1F
100
AcDbEntity
  8
TABLE_DRW
100
AcDbMText
 10
2024.7500000913
 20
89.9766099061
 30
0.0
 40
9.0
 41
0.0
 71
     2
 72
     1
  1
sheet:
  7
SLDTEXTSTYLE0
 73
     1
 44
1.0
  0
MTEXT
  5
D0
330
1F
100
AcDbEntity
  8
TABLE_DRW
100
AcDbMText
 10
1905.0
 20
224.9766099061
 30
0.0
 40
9.0
 41
0.0
 71
     1
 72
     1
  1
projection:ISO-E
  7
SLDTEXTSTYLE0
 73
     1
 44
1.0
  0
MTEXT
  5
D1
330
1F
100
AcDbEntity
  8
TABLE_DRW
100
AcDbMText
 10
1405.0
 20
269.9766099061
 30
0.0
 40
9.0
 41
0.0
 71
     1
 72
     1
  1
material:
  7
SLDTEXTSTYLE0
 73
     1
 44
1.0
  0
MTEXT
  5
D2
330
1F
100
AcDbEntity
  8
TABLE_DRW
100
AcDbMText
 10
1905.0
 20
249.9675136777
 30
0.0
 40
12.5
 41
0.0
 71
     1
 72
     1
  1
production drw.
  7
SLDTEXTSTYLE0
 73
     1
 44
1.0
  0
MTEXT
  5
D3
330
1F
100
AcDbEntity
  8
TABLE_DRW
100
AcDbMText
 10
1405.0
 20
314.9766099061
 30
0.0
 40
9.0
 41
0.0
 71
     1
 72
     1
  1
general tolerance:
  7
SLDTEXTSTYLE0
 73
     1
 44
1.0
  0
MTEXT
  5
D4
330
1F
100
AcDbEntity
  8
TABLE_DRW
100
AcDbMText
 10
2024.7829862405
 20
204.9675136777
 30
0.0
 40
12.5
 41
0.0
 71
     2
 72
     1
  1
1:5
  7
SLDTEXTSTYLE0
 73
     1
 44
1.0
  0
MTEXT
  5
D5
330
1F
100
AcDbEntity
  8
TABLE_DRW
100
AcDbMText
 10
2024.7829862405
 20
69.9675136777
 30
0.0
 40
12.5
 41
0.0
 71
     2
 72
     1
  1
1/1
  7
SLDTEXTSTYLE0
 73
     1
 44
1.0
  0
MTEXT
  5
D6
330
1F
100
AcDbEntity
  8
TABLE_DRW
100
AcDbMText
 10
1155.0
 20
314.9766099061
 30
0.0
 40
9.0
 41
0.0
 71
     1
 72
     1
  1
technical reference:
  7
SLDTEXTSTYLE0
 73
     1
 44
1.0
  0
MTEXT
  5
D7
330
1F
100
AcDbEntity
  8
TABLE_DRW
100
AcDbMText
 10
1155.0
 20
179.9766099061
 30
0.0
 40
9.0
 41
0.0
 71
     1
 72
     1
  1
title:
  7
SLDTEXTSTYLE0
 73
     1
 44
1.0
  0
MTEXT
  5
D8
330
1F
100
AcDbEntity
  8
MARKETING_DRW
100
AcDbMText
 10
1155.0
 20
114.9675136777
 30
0.0
 40
12.5
 41
0.0
 71
     1
 72
     1
  1
ZB Duschrinne C mit Spalt, mit Wandaufkantung, mit Seite Auslass, mit FAT GV50 L680, International
  7
SLDTEXTSTYLE0
 73
     1
 44
1.0
  0
MTEXT
  5
D9
330
1F
100
AcDbEntity
  8
MARKETING_DRW
100
AcDbMText
 10
1155.0
 20
137.4675136777
 30
0.0
 40
12.5
 41
0.0
 71
     1
 72
     1
  1
ASM Shower Channel C with WA and gap, with side outlet, with FAT GV50 L680, International
  7
SLDTEXTSTYLE0
 73
     1
 44
1.0
  0
MTEXT
  5
DA
330
1F
100
AcDbEntity
  8
MARKETING_DRW
100
AcDbMText
 10
1736.5407964215
 20
249.9675136777
 30
0.0
 40
12.5
 41
0.0
 71
     2
 72
     1
  1
1076931-O
  7
SLDTEXTSTYLE0
 73
     1
 44
1.0
  0
MTEXT
  5
DB
330
1F
100
AcDbEntity
  8
MARKETING_DRW
100
AcDbMText
 10
1862.2395830229
 20
252.0971433073
 30
0.0
 40
12.5
 41
0.0
 71
     2
 72
     1
  1
001
  7
SLDTEXTSTYLE0
 73
     1
 44
1.0
  0
MTEXT
  5
DC
330
1F
100
AcDbEntity
  8
MARKETING_DRW
100
AcDbMText
 10
1155.0
 20
159.9675136777
 30
0.0
 40
12.5
 41
0.0
 71
     1
 72
     1
  1
ACO ShowerDrain
  7
SLDTEXTSTYLE0
 73
     1
 44
1.0
  0
MTEXT
  5
DD
330
1F
100
AcDbEntity
  8
MARKETING_DRW
100
AcDbMText
 10
1905.0
 20
269.9766099061
 30
0.0
 40
9.0
 41
0.0
 71
     1
 72
     1
  1
documenttype:
  7
SLDTEXTSTYLE0
 73
     1
 44
1.0
  0
MTEXT
  5
DE
330
1F
100
AcDbEntity
  8
MARKETING_DRW
100
AcDbMText
 10
1655.0
 20
224.9766099061
 30
0.0
 40
9.0
 41
0.0
 71
     1
 72
     1
  1
reviewed by:
  7
SLDTEXTSTYLE0
 73
     1
 44
1.0
  0
MTEXT
  5
DF
330
1F
100
AcDbEntity
  8
MARKETING_DRW
100
AcDbMText
 10
1736.534373872
 20
270.0578764559
 30
0.0
 40
9.0
 41
0.0
 71
     2
 72
     1
  1
drawing-no.:
  7
SLDTEXTSTYLE0
 73
     1
 44
1.0
  0
MTEXT
  5
E0
330
1F
100
AcDbEntity
  8
MARKETING_DRW
100
AcDbMText
 10
1905.0
 20
224.9766099061
 30
0.0
 40
9.0
 41
0.0
 71
     1
 72
     1
  1
projection:ISO-E
  7
SLDTEXTSTYLE0
 73
     1
 44
1.0
  0
MTEXT
  5
E1
330
1F
100
AcDbEntity
  8
MARKETING_DRW
100
AcDbMText
 10
2024.7500000913
 20
89.9766099061
 30
0.0
 40
9.0
 41
0.0
 71
     2
 72
     1
  1
sheet:
  7
SLDTEXTSTYLE0
 73
     1
 44
1.0
  0
MTEXT
  5
E2
330
1F
100
AcDbEntity
  8
MARKETING_DRW
100
AcDbMText
 10
2024.7829862405
 20
69.9675136777
 30
0.0
 40
12.5
 41
0.0
 71
     2
 72
     1
  1
1/1
  7
SLDTEXTSTYLE0
 73
     1
 44
1.0
  0
MTEXT
  5
E3
330
1F
100
AcDbEntity
  8
MARKETING_DRW
100
AcDbMText
 10
1855.0
 20
89.9766099061
 30
0.0
 40
9.0
 41
0.0
 71
     1
 72
     1
  1
release date:
  7
SLDTEXTSTYLE0
 73
     1
 44
1.0
  0
MTEXT
  5
E4
330
1F
100
AcDbEntity
  8
MARKETING_DRW
100
AcDbMText
 10
1862.3125000894
 20
269.9766099061
 30
0.0
 40
9.0
 41
0.0
 71
     2
 72
     1
  1
index:
  7
SLDTEXTSTYLE0
 73
     1
 44
1.0
  0
MTEXT
  5
E5
330
1F
100
AcDbEntity
  8
MARKETING_DRW
100
AcDbMText
 10
1155.0
 20
179.9766099061
 30
0.0
 40
9.0
 41
0.0
 71
     1
 72
     1
  1
title:
  7
SLDTEXTSTYLE0
 73
     1
 44
1.0
  0
MTEXT
  5
E6
330
1F
100
AcDbEntity
  8
MARKETING_DRW
100
AcDbMText
 10
2024.8750000875
 20
224.9766099061
 30
0.0
 40
9.0
 41
0.0
 71
     2
 72
     1
  1
scale:
  7
SLDTEXTSTYLE0
 73
     1
 44
1.0
  0
MTEXT
  5
E7
330
1F
100
AcDbEntity
  8
MARKETING_DRW
100
AcDbMText
 10
2024.7829862405
 20
204.9675136777
 30
0.0
 40
12.5
 41
0.0
 71
     2
 72
     1
  1
1:5
  7
SLDTEXTSTYLE0
 73
     1
 44
1.0
  0
INSERT
  5
EE
330
1F
100
AcDbEntity
  8
MARKETING_DRW
100
AcDbBlockReference
  2
SW_NOTE_0_1
 10
1155.0
 20
78.3750002482
 30
0.0
  0
MTEXT
  5
EF
330
1F
100
AcDbEntity
  8
MARKETING_DRW
100
AcDbMText
 10
1905.0
 20
249.9675136777
 30
0.0
 40
12.5
 41
0.0
 71
     1
 72
     1
  1
marketing drw.
  7
SLDTEXTSTYLE0
 73
     1
 44
1.0
  0
MTEXT
  5
F0
330
1F
100
AcDbEntity
  8
MARKETING_DRW
100
AcDbMText
 10
1405.0
 20
224.9766099061
 30
0.0
 40
9.0
 41
0.0
 71
     1
 72
     1
  1
created by:
  7
SLDTEXTSTYLE0
 73
     1
 44
1.0
  0
LINE
  5
F1
330
1F
100
AcDbEntity
  8
0
  6
Continuous
 62
     7
370
    35
100
AcDbLine
 10
1190.6107245225
 20
933.9846816169
 30
0.0
 11
510.6107245225
 21
933.9846816169
 31
0.0
  0
LINE
  5
F2
330
1F
100
AcDbEntity
  8
0
  6
Continuous
 62
     7
370
    35
100
AcDbLine
 10
769.6107245225
 20
913.893125855
 30
0.0
 11
769.6107245225
 21
910.9850816169
 31
0.0
  0
LINE
  5
F3
330
1F
100
AcDbEntity
  8
0
  6
Continuous
 62
     7
370
    35
100
AcDbLine
 10
931.6107245225
 20
910.9850816169
 30
0.0
 11
931.6107245225
 21
913.893125855
 31
0.0
  0
ARC
  5
F4
330
1F
100
AcDbEntity
  8
0
  6
Continuous
 62
     7
370
    35
100
AcDbCircle
 10
767.6107245225
 20
913.8866925372
 30
0.0
 40
2.00000000000007
100
AcDbArc
 50
0.1603835477
 51
88.7916387136
  0
ARC
  5
F5
330
1F
100
AcDbEntity
  8
0
  6
Continuous
 62
     7
370
    35
100
AcDbCircle
 10
933.6107245225
 20
913.8866925372
 30
0.0
 40
1.999999999999986
100
AcDbArc
 50
91.1928878275
 51
179.8251412338
  0
LINE
  5
F6
330
1F
100
AcDbEntity
  8
0
  6
Continuous
 62
     7
370
    35
100
AcDbLine
 10
510.6107245225
 20
915.8862925372
 30
0.0
 11
767.6515453343
 21
915.8862925372
 31
0.0
  0
LINE
  5
F7
330
1F
100
AcDbEntity
  8
0
  6
Continuous
 62
     7
370
    35
100
AcDbLine
 10
933.5699037104
 20
915.8862925372
 30
0.0
 11
1190.6107245225
 21
915.8862925372
 31
0.0
  0
LINE
  5
F8
330
1F
100
AcDbEntity
  8
0
  6
Continuous
 62
     7
370
    35
100
AcDbLine
 10
942.1107245225
 20
840.4850816169
 30
0.0
 11
985.2991228681
 21
840.4850816169
 31
0.0
  0
LINE
  5
F9
330
1F
100
AcDbEntity
  8
0
  6
Continuous
 62
     7
370
    35
100
AcDbLine
 10
985.2991228681
 20
890.5850816169
 30
0.0
 11
942.1107245225
 21
890.5850816169
 31
0.0
  0
ARC
  5
FA
330
1F
100
AcDbEntity
  8
0
  6
Continuous
 62
     7
370
    35
100
AcDbCircle
 10
985.2991228681
 20
887.5850816169
 30
0.0
 40
3.000000000000114
100
AcDbArc
 50
78.1402208791
 51
90.0
  0
ARC
  5
FB
330
1F
100
AcDbEntity
  8
0
  6
Continuous
 62
     7
370
    35
100
AcDbCircle
 10
985.2991228681
 20
843.4850816169
 30
0.0
 40
3.0
100
AcDbArc
 50
270.0
 51
281.8597791209
  0
LINE
  5
FC
330
1F
100
AcDbEntity
  8
0
  6
Continuous
 62
     7
370
    35
100
AcDbLine
 10
985.915674571
 20
840.5491211271
 30
0.0
 11
990.6107245225
 21
841.5350816169
 31
0.0
  0
LINE
  5
FD
330
1F
100
AcDbEntity
  8
0
  6
Continuous
 62
     7
370
    35
100
AcDbLine
 10
990.6107245225
 20
889.5350816169
 30
0.0
 11
985.915674571
 21
890.5210421067
 31
0.0
  0
LINE
  5
FE
330
1F
100
AcDbEntity
  8
0
  6
Continuous
 62
     7
370
    35
100
AcDbLine
 10
942.1107245472
 20
890.5350816169
 30
0.0
 11
940.508558949
 21
890.5350816169
 31
0.0
  0
LINE
  5
FF
330
1F
100
AcDbEntity
  8
0
  6
Continuous
 62
     7
370
    35
100
AcDbLine
 10
923.6107245224
 20
840.5350816169
 30
0.0
 11
942.1107245472
 21
840.5350816169
 31
0.0
  0
LINE
  5
100
330
1F
100
AcDbEntity
  8
0
  6
Continuous
 62
     7
370
    35
100
AcDbLine
 10
919.6575069295
 20
840.5350816169
 30
0.0
 11
923.6107245225
 21
840.5350816169
 31
0.0
  0
LINE
  5
101
330
1F
100
AcDbEntity
  8
0
  6
Continuous
 62
     7
370
    35
100
AcDbLine
 10
1190.6107245225
 20
921.9846816169
 30
0.0
 11
510.6107245225
 21
921.9846816169
 31
0.0
  0
LINE
  5
102
330
1F
100
AcDbEntity
  8
0
  6
Continuous
 62
     7
370
    35
100
AcDbLine
 10
1190.6107245225
 20
920.9846816169
 30
0.0
 11
1190.6107245225
 21
921.9846816169
 31
0.0
  0
LINE
  5
103
330
1F
100
AcDbEntity
  8
0
  6
Continuous
 62
     7
370
    35
100
AcDbLine
 10
1190.6107245225
 20
920.9846816169
 30
0.0
 11
510.6107245225
 21
920.9846816169
 31
0.0
  0
LINE
  5
104
330
1F
100
AcDbEntity
  8
0
  6
Continuous
 62
     7
370
    35
100
AcDbLine
 10
510.6107245225
 20
920.9846816169
 30
0.0
 11
510.6107245225
 21
921.9846816169
 31
0.0
  0
LINE
  5
105
330
1F
100
AcDbEntity
  8
0
  6
Continuous
 62
     7
370
    35
100
AcDbLine
 10
1190.6107245225
 20
921.9846816169
 30
0.0
 11
1190.6107245225
 21
922.9846816169
 31
0.0
  0
LINE
  5
106
330
1F
100
AcDbEntity
  8
0
  6
Continuous
 62
     7
370
    35
100
AcDbLine
 10
510.6107245225
 20
922.9846816169
 30
0.0
 11
510.6107245225
 21
921.9846816169
 31
0.0
  0
LINE
  5
107
330
1F
100
AcDbEntity
  8
0
  6
Continuous
 62
     7
370
    35
100
AcDbLine
 10
510.6107245225
 20
932.9846816169
 30
0.0
 11
510.6107245225
 21
933.9846816169
 31
0.0
  0
LINE
  5
108
330
1F
100
AcDbEntity
  8
0
  6
Continuous
 62
     7
370
    35
100
AcDbLine
 10
1190.6107245225
 20
933.9846816169
 30
0.0
 11
1190.6107245225
 21
932.9846816169
 31
0.0
  0
LINE
  5
109
330
1F
100
AcDbEntity
  8
0
  6
Continuous
 62
     7
370
    35
100
AcDbLine
 10
1190.6107245225
 20
932.4846816169
 30
0.0
 11
1190.6107245225
 21
922.9846816169
 31
0.0
  0
LINE
  5
10A
330
1F
100
AcDbEntity
  8
0
  6
Continuous
 62
     7
370
    35
100
AcDbLine
 10
510.6107245225
 20
922.9846816169
 30
0.0
 11
510.6107245225
 21
932.4846816169
 31
0.0
  0
LINE
  5
10B
330
1F
100
AcDbEntity
  8
0
  6
Continuous
 62
     7
370
    35
100
AcDbLine
 10
510.6107245225
 20
918.8866658985
 30
0.0
 11
510.6107245225
 21
919.6466001062
 31
0.0
  0
LINE
  5
10C
330
1F
100
AcDbEntity
  8
0
  6
Continuous
 62
     7
370
    35
100
AcDbLine
 10
1190.6107245225
 20
918.8866658985
 30
0.0
 11
1190.6107245225
 21
919.6466001062
 31
0.0
  0
LINE
  5
10D
330
1F
100
AcDbEntity
  8
0
  6
Continuous
 62
     7
370
    35
100
AcDbLine
 10
510.6107245225
 20
919.6466001062
 30
0.0
 11
510.6107245225
 21
920.9846816169
 31
0.0
  0
LINE
  5
10E
330
1F
100
AcDbEntity
  8
0
  6
Continuous
 62
     7
370
    35
100
AcDbLine
 10
1190.6107245225
 20
919.6466001062
 30
0.0
 11
1190.6107245225
 21
920.9846816169
 31
0.0
  0
SPLINE
  5
10F
330
1F
100
AcDbEntity
  8
0
  6
Continuous
 62
     7
370
    35
100
AcDbSpline
210
0.0
220
0.0
230
1.0
 70
     8
 71
     3
 72
    14
 73
    10
 74
     0
 42
0.000000001
 43
0.00000001
 40
0.0
 40
0.0
 40
0.0
 40
0.0
 40
0.2499999999999999
 40
0.2499999999999999
 40
0.4999999999999999
 40
0.4999999999999999
 40
0.7499999999999999
 40
0.7499999999999999
 40
1.0
 40
1.0
 40
1.0
 40
1.0
 10
933.5699006311411
 20
915.8895091961086
 30
0.0
 10
933.5446765355915
 20
916.0787565222579
 30
0.0
 10
932.9585000552069
 20
916.267676136266
 30
0.0
 10
930.7271087171628
 20
916.624413185393
 30
0.0
 10
929.0828511342747
 20
916.7920685235907
 30
0.0
 10
924.9143225496142
 20
917.0877254115665
 30
0.0
 10
922.3918216722311
 20
917.2155945938612
 30
0.0
 10
916.7438593029437
 20
917.4174206584349
 30
0.0
 10
913.6208681473724
 20
917.491286577801
 30
0.0
 10
910.3689584038314
 20
917.534042626204
 30
0.0
  0
SPLINE
  5
110
330
1F
100
AcDbEntity
  8
0
  6
Continuous
 62
     7
370
    35
100
AcDbSpline
210
0.0
220
0.0
230
1.0
 70
     8
 71
     3
 72
    16
 73
    12
 74
     0
 42
0.000000001
 43
0.00000001
 40
0.0
 40
0.0
 40
0.0
 40
0.0
 40
0.0624999999999983
 40
0.0624999999999983
 40
0.1249999999999966
 40
0.1249999999999966
 40
0.2499999999999962
 40
0.2499999999999962
 40
0.4999999999999986
 40
0.4999999999999986
 40
1.0
 40
1.0
 40
1.0
 40
1.0
 10
910.3689584037752
 20
917.5340426261894
 30
0.0
 10
910.2304932348145
 20
917.5358631636375
 30
0.0
 10
910.0900733997549
 20
917.5365378820645
 30
0.0
 10
909.809236171098
 20
917.5378887500958
 30
0.0
 10
909.6685997114894
 20
917.5384364839044
 30
0.0
 10
909.2465605193398
 20
917.5400035891747
 30
0.0
 10
908.9650109054486
 20
917.5409095484476
 30
0.0
 10
908.1203434532249
 20
917.5434254842812
 30
0.0
 10
907.5570254944432
 20
917.5448015546108
 30
0.0
 10
905.8665230984943
 20
917.5481289609118
 30
0.0
 10
904.7386370309325
 20
917.5492539362532
 30
0.0
 10
903.6107245224555
 20
917.5492539362532
 30
0.0
  0
LINE
  5
111
330
1F
100
AcDbEntity
  8
0
  6
Continuous
 62
     7
370
    35
100
AcDbLine
 10
903.6107245225
 20
917.5492539363
 30
0.0
 11
797.6107245225
 21
917.5492539363
 31
0.0
  0
SPLINE
  5
112
330
1F
100
AcDbEntity
  8
0
  6
Continuous
 62
     7
370
    35
100
AcDbSpline
210
0.0
220
0.0
230
1.0
 70
     8
 71
     3
 72
    16
 73
    12
 74
     0
 42
0.000000001
 43
0.00000001
 40
0.0
 40
0.0
 40
0.0
 40
0.0
 40
0.500000000000003
 40
0.500000000000003
 40
0.7500000000000029
 40
0.7500000000000029
 40
0.8750000000000014
 40
0.8750000000000014
 40
0.9375000000000008
 40
0.9375000000000008
 40
1.0
 40
1.0
 40
1.0
 40
1.0
 10
797.6107245224555
 20
917.5492539362532
 30
0.0
 10
796.4827745007907
 20
917.5492539362532
 30
0.0
 10
795.3552327706383
 20
917.5481294584007
 30
0.0
 10
793.6645159956925
 20
917.5448017897721
 30
0.0
 10
793.1010288387845
 20
917.5434253126222
 30
0.0
 10
792.2562477367019
 20
917.5409089528214
 30
0.0
 10
791.9747084024388
 20
917.5400029979992
 30
0.0
 10
791.5526348127232
 20
917.538435648488
 30
0.0
 10
791.411955825901
 20
917.53788770206
 30
0.0
 10
791.1311173099314
 20
917.5365364506862
 30
0.0
 10
790.9907000348161
 20
917.535859800709
 30
0.0
 10
790.8524906411358
 20
917.5340426261894
 30
0.0
  0
SPLINE
  5
113
330
1F
100
AcDbEntity
  8
0
  6
Continuous
 62
     7
370
    35
100
AcDbSpline
210
0.0
220
0.0
230
1.0
 70
     8
 71
     3
 72
    14
 73
    10
 74
     0
 42
0.000000001
 43
0.00000001
 40
0.0
 40
0.0
 40
0.0
 40
0.0
 40
0.25
 40
0.25
 40
0.5
 40
0.5
 40
0.75
 40
0.75
 40
1.0
 40
1.0
 40
1.0
 40
1.0
 10
790.8524906410487
 20
917.5340426262106
 30
0.0
 10
787.6005809064877
 20
917.4912865779257
 30
0.0
 10
784.4776134445688
 20
917.4174216037302
 30
0.0
 10
778.829581400645
 20
917.2155928527735
 30
0.0
 10
776.3071171314051
 20
917.0877248808266
 30
0.0
 10
772.1385907863674
 20
916.792067884891
 30
0.0
 10
770.4943206082742
 20
916.6244102797027
 30
0.0
 10
768.2629599536374
 20
916.2676776422126
 30
0.0
 10
767.6767725094036
 20
916.0787565218502
 30
0.0
 10
767.651548413909
 20
915.8895091961081
 30
0.0
  0
LINE
  5
114
330
1F
100
AcDbEntity
  8
0
  6
Continuous
 62
     7
370
    35
100
AcDbLine
 10
769.6107245225
 20
910.9850816169
 30
0.0
 11
797.6107245225
 21
910.9850816169
 31
0.0
  0
LINE
  5
115
330
1F
100
AcDbEntity
  8
0
  6
Continuous
 62
     7
370
    35
100
AcDbLine
 10
903.6107245225
 20
910.9850816169
 30
0.0
 11
924.7648808718
 21
910.9850816169
 31
0.0
  0
LINE
  5
116
330
1F
100
AcDbEntity
  8
0
  6
Continuous
 62
     7
370
    35
100
AcDbLine
 10
925.3999307893
 20
910.9850816169
 30
0.0
 11
931.6107245225
 21
910.9850816169
 31
0.0
  0
LINE
  5
117
330
1F
100
AcDbEntity
  8
0
  6
Continuous
 62
     7
370
    35
100
AcDbLine
 10
797.6107245225
 20
910.9850816169
 30
0.0
 11
903.6107245225
 21
910.9850816169
 31
0.0
  0
LINE
  5
118
330
1F
100
AcDbEntity
  8
0
  6
Continuous
 62
     7
370
    35
100
AcDbLine
 10
1190.6107245225
 20
933.9846816169
 30
0.0
 11
510.6107245225
 21
933.9846816169
 31
0.0
  0
LINE
  5
119
330
1F
100
AcDbEntity
  8
0
  6
Continuous
 62
     7
370
    35
100
AcDbLine
 10
510.6107245225
 20
934.9846816169
 30
0.0
 11
510.6107245225
 21
933.9846816169
 31
0.0
  0
LINE
  5
11A
330
1F
100
AcDbEntity
  8
0
  6
Continuous
 62
     7
370
    35
100
AcDbLine
 10
1190.6107245225
 20
933.9846816169
 30
0.0
 11
1190.6107245225
 21
934.9846816169
 31
0.0
  0
LINE
  5
11B
330
1F
100
AcDbEntity
  8
0
  6
Continuous
 62
     7
370
    35
100
AcDbLine
 10
510.6107245225
 20
964.4846816169
 30
0.0
 11
1190.6107245225
 21
964.4846816169
 31
0.0
  0
LINE
  5
11C
330
1F
100
AcDbEntity
  8
0
  6
Continuous
 62
     7
370
    35
100
AcDbLine
 10
1190.6107245225
 20
964.4846816169
 30
0.0
 11
1190.6107245225
 21
934.9846816169
 31
0.0
  0
LINE
  5
11D
330
1F
100
AcDbEntity
  8
0
  6
Continuous
 62
     7
370
    35
100
AcDbLine
 10
510.6107245225
 20
934.9846816169
 30
0.0
 11
510.6107245225
 21
964.4846816169
 31
0.0
  0
LINE
  5
11E
330
1F
100
AcDbEntity
  8
0
  6
Continuous
 62
     7
370
    35
100
AcDbLine
 10
769.8107245225
 20
914.0350816169
 30
0.0
 11
797.6107245225
 21
914.0350816169
 31
0.0
  0
LINE
  5
11F
330
1F
100
AcDbEntity
  8
0
  6
Continuous
 62
     7
370
    35
100
AcDbLine
 10
931.4107245225
 20
914.0350816169
 30
0.0
 11
903.6107245225
 21
914.0350816169
 31
0.0
  0
LINE
  5
120
330
1F
100
AcDbEntity
  8
0
  6
Continuous
 62
     7
370
    35
100
AcDbLine
 10
942.1107245225
 20
865.5350816169
 30
0.0
 11
942.1107245225
 21
890.5850816169
 31
0.0
  0
LINE
  5
121
330
1F
100
AcDbEntity
  8
0
  6
Continuous
 62
     7
370
    35
100
AcDbLine
 10
942.1107245225
 20
840.4850816169
 30
0.0
 11
942.1107245225
 21
865.5350816169
 31
0.0
  0
LINE
  5
122
330
1F
100
AcDbEntity
  8
0
  6
Continuous
 62
     7
370
    35
100
AcDbLine
 10
990.6107245225
 20
865.5350816169
 30
0.0
 11
990.6107245225
 21
889.5350816169
 31
0.0
  0
LINE
  5
123
330
1F
100
AcDbEntity
  8
0
  6
Continuous
 62
     7
370
    35
100
AcDbLine
 10
990.6107245225
 20
841.5350816169
 30
0.0
 11
990.6107245225
 21
865.5350816169
 31
0.0
  0
ARC
  5
124
330
1F
100
AcDbEntity
  8
0
  6
Continuous
 62
     7
370
    35
100
AcDbCircle
 10
850.6107245225
 20
865.5850816169
 30
0.0
 40
25.0500000000002
100
AcDbArc
 50
237.7865374201
 51
302.2134625799
  0
SPLINE
  5
125
330
1F
100
AcDbEntity
  8
0
  6
Continuous
 62
     7
370
    35
100
AcDbSpline
210
0.0
220
0.0
230
1.0
 70
    24
 71
     3
 72
    10
 73
     6
 74
     0
 42
0.000000001
 43
0.00000001
 40
0.0
 40
0.0
 40
0.0
 40
0.0
 40
0.2125176675661961
 40
0.6062581077227494
 40
1.0
 40
1.0
 40
1.0
 40
1.0
 10
850.6107245224566
 20
890.8970881438581
 30
0.0
 10
850.6107245224557
 20
890.9803716525716
 30
0.0
 10
850.6107245224532
 20
891.2179580282144
 30
0.0
 10
850.6107245224567
 20
891.8294225926247
 30
0.0
 10
850.6107245224556
 20
892.4543224309726
 30
0.0
 10
850.610724522455
 20
892.7667729263055
 30
0.0
  0
SPLINE
  5
126
330
1F
100
AcDbEntity
  8
0
  6
Continuous
 62
     7
370
    35
100
AcDbSpline
210
0.0
220
0.0
230
1.0
 70
     8
 71
     3
 72
    25
 73
    21
 74
     0
 42
0.000000001
 43
0.00000001
 40
0.0
 40
0.0
 40
0.0
 40
0.0
 40
0.0403772850825328
 40
0.0581432905171141
 40
0.0718747463632703
 40
0.0830985540815628
 40
0.0953185813390223
 40
0.1147179721021837
 40
0.1492959713349576
 40
0.2292797835274561
 40
0.3102091618275148
 40
0.3726852819819021
 40
0.4313870265629181
 40
0.480459028285237
 40
0.5235520429457741
 40
0.5708166295125247
 40
0.6751808706738796
 40
0.7818081507417537
 40
0.8902538127997788
 40
1.0
 40
1.0
 40
1.0
 40
1.0
 10
769.1107245224543
 20
910.9850816168903
 30
0.0
 10
769.1173955279843
 20
910.1060289413173
 30
0.0
 10
769.1270017759472
 20
908.8401930885296
 30
0.0
 10
769.0875770579704
 20
907.3231355548304
 30
0.0
 10
769.1722615558748
 20
906.320834295323
 30
0.0
 10
768.4928104465422
 20
905.7738323272625
 30
0.0
 10
767.6850532203414
 20
905.3544443360511
 30
0.0
 10
766.6126683731519
 20
904.3554583259778
 30
0.0
 10
765.2853794539528
 20
901.7277804205827
 30
0.0
 10
764.6111609901916
 20
897.5241291362184
 30
0.0
 10
763.5121598148866
 20
892.8285927110572
 30
0.0
 10
762.7736350672845
 20
888.5193181350878
 30
0.0
 10
762.2118549727805
 20
884.8824538391314
 30
0.0
 10
761.8293138304673
 20
881.6422515701968
 30
0.0
 10
761.6371804282471
 20
878.6330136554315
 30
0.0
 10
761.5665967110735
 20
874.4230916493738
 30
0.0
 10
761.9227351354198
 20
868.8378598916461
 30
0.0
 10
763.1474584178583
 20
862.0308435039278
 30
0.0
 10
765.1230863869557
 20
855.2679109591973
 30
0.0
 10
767.0977491637154
 20
850.9785512756031
 30
0.0
 10
768.0909655074621
 20
848.8210881421032
 30
0.0
  0
SPLINE
  5
127
330
1F
100
AcDbEntity
  8
0
  6
Continuous
 62
     7
370
    35
100
AcDbSpline
210
0.0
220
0.0
230
1.0
 70
    24
 71
     3
 72
    19
 73
    15
 74
     0
 42
0.000000001
 43
0.00000001
 40
0.0
 40
0.0
 40
0.0
 40
0.0
 40
0.2409130132110059
 40
0.4882582803106288
 40
0.5391715029117232
 40
0.589940447867873
 40
0.6400693120936277
 40
0.6899887491764619
 40
0.7400419496428614
 40
0.7904190820051387
 40
0.8413201884464394
 40
0.8929676784851892
 40
0.9456873805534206
 40
1.0
 40
1.0
 40
1.0
 40
1.0
 10
850.610724522455
 20
910.9850816168899
 30
0.0
 10
842.7646814241733
 20
910.98508161689
 30
0.0
 10
826.863109901116
 20
910.98508161689
 30
0.0
 10
809.2976853158153
 20
910.9850816168897
 30
0.0
 10
797.9357985128125
 20
910.98508161689
 30
0.0
 10
792.9800259185679
 20
910.9850816168895
 30
0.0
 10
788.1956651551579
 20
910.9850816168896
 30
0.0
 10
783.7120872110273
 20
910.9850816168902
 30
0.0
 10
779.6338369204498
 20
910.9850816168905
 30
0.0
 10
776.0605849789547
 20
910.9850816168903
 30
0.0
 10
773.0941792341348
 20
910.9850816168902
 30
0.0
 10
770.8641530147701
 20
910.98508161689
 30
0.0
 10
769.3908429177477
 20
910.9850816168902
 30
0.0
 10
769.2050191666676
 20
910.9850816168902
 30
0.0
 10
769.1107245224543
 20
910.9850816168903
 30
0.0
  0
SPLINE
  5
128
330
1F
100
AcDbEntity
  8
0
  6
Continuous
 62
     7
370
    35
100
AcDbSpline
210
0.0
220
0.0
230
1.0
 70
    24
 71
     3
 72
    18
 73
    14
 74
     0
 42
0.000000001
 43
0.00000001
 40
0.0
 40
0.0
 40
0.0
 40
0.0
 40
0.1056000872447466
 40
0.3249463313005447
 40
0.5456095245813438
 40
0.668613274694841
 40
0.7011918426142496
 40
0.7339487647370307
 40
0.7672437697818045
 40
0.8035947759165849
 40
0.8401179485066307
 40
0.8975115054529706
 40
1.0
 40
1.0
 40
1.0
 40
1.0
 10
850.610724522455
 20
892.7667729263052
 30
0.0
 10
850.610724522455
 20
893.4429815354353
 30
0.0
 10
850.610724522455
 20
895.5237705997604
 30
0.0
 10
850.610724522455
 20
898.9557606432871
 30
0.0
 10
850.610724522455
 20
902.6019250792488
 30
0.0
 10
850.610724522455
 20
904.7460868256719
 30
0.0
 10
850.610724522455
 20
905.5281955554563
 30
0.0
 10
850.610724522455
 20
905.809814556729
 30
0.0
 10
850.610724522455
 20
906.294024159434
 30
0.0
 10
850.610724522455
 20
907.0541740864869
 30
0.0
 10
850.610724522455
 20
907.9104829431135
 30
0.0
 10
850.610724522455
 20
909.2320763269133
 30
0.0
 10
850.610724522455
 20
910.3003139254927
 30
0.0
 10
850.610724522455
 20
910.9850816168899
 30
0.0
  0
SPLINE
  5
129
330
1F
100
AcDbEntity
  8
0
  6
Continuous
 62
     7
370
    35
100
AcDbSpline
210
0.0
220
0.0
230
1.0
 70
    24
 71
     3
 72
    19
 73
    15
 74
     0
 42
0.000000001
 43
0.00000001
 40
0.0
 40
0.0
 40
0.0
 40
0.0
 40
0.2409130132110046
 40
0.4882582803106249
 40
0.5391715029117192
 40
0.589940447867869
 40
0.6400693120936229
 40
0.6899887491764568
 40
0.7400419496428565
 40
0.7904190820051348
 40
0.8413201884464375
 40
0.8929676784851887
 40
0.9456873805534204
 40
1.0
 40
1.0
 40
1.0
 40
1.0
 10
850.610724522455
 20
910.9850816168899
 30
0.0
 10
858.4567676207366
 20
910.9850816168899
 30
0.0
 10
874.358339143794
 20
910.98508161689
 30
0.0
 10
891.9237637290944
 20
910.9850816168894
 30
0.0
 10
903.2856505320972
 20
910.9850816168896
 30
0.0
 10
908.2414231263416
 20
910.9850816168888
 30
0.0
 10
913.0257838897517
 20
910.9850816168889
 30
0.0
 10
917.5093618338823
 20
910.9850816168895
 30
0.0
 10
921.5876121244597
 20
910.9850816168896
 30
0.0
 10
925.1608640659549
 20
910.9850816168895
 30
0.0
 10
928.1272698107751
 20
910.9850816168895
 30
0.0
 10
930.3572960301402
 20
910.9850816168894
 30
0.0
 10
931.8306061271625
 20
910.9850816168895
 30
0.0
 10
932.0164298782427
 20
910.9850816168895
 30
0.0
 10
932.1107245224559
 20
910.9850816168895
 30
0.0
  0
SPLINE
  5
12A
330
1F
100
AcDbEntity
  8
0
  6
Continuous
 62
     7
370
    35
100
AcDbSpline
210
0.0
220
0.0
230
1.0
 70
     8
 71
     3
 72
    16
 73
    12
 74
     0
 42
0.000000001
 43
0.00000001
 40
0.0
 40
0.0
 40
0.0
 40
0.0
 40
0.1465768179208906
 40
0.2110706177997909
 40
0.2609182759381905
 40
0.3016627196753184
 40
0.3460236197864512
 40
0.4164469026261932
 40
0.5419712682998742
 40
0.768848938960303
 40
1.0
 40
1.0
 40
1.0
 40
1.0
 10
932.1107245224559
 20
910.9850816168895
 30
0.0
 10
932.1040546769267
 20
910.1060292882826
 30
0.0
 10
932.094450099365
 20
908.8401939351263
 30
0.0
 10
932.1338679618982
 20
907.3231343509051
 30
0.0
 10
932.0491981895218
 20
906.3208374959295
 30
0.0
 10
932.728605211324
 20
905.7738223409107
 30
0.0
 10
933.5365684084575
 20
905.3544959573708
 30
0.0
 10
934.6073362135267
 20
904.3550262761383
 30
0.0
 10
935.7764634709769
 20
902.0748575375927
 30
0.0
 10
936.3792764716407
 20
898.631632730794
 30
0.0
 10
936.9924975278177
 20
895.9766343215822
 30
0.0
 10
937.3019687202931
 20
894.6367496006607
 30
0.0
  0
SPLINE
  5
12B
330
1F
100
AcDbEntity
  8
0
  6
Continuous
 62
     7
370
    35
100
AcDbSpline
210
0.0
220
0.0
230
1.0
 70
     8
 71
     3
 72
    14
 73
    10
 74
     0
 42
0.000000001
 43
0.00000001
 40
0.0
 40
0.0
 40
0.0
 40
0.0
 40
0.1497838616746357
 40
0.3039198677007078
 40
0.4537011775423317
 40
0.6078081864720632
 40
0.757933700022959
 40
0.9123691506710973
 40
1.0
 40
1.0
 40
1.0
 40
1.0
 10
768.0909655074621
 20
848.8210881421033
 30
0.0
 10
768.4998122205737
 20
848.0959736292623
 30
0.0
 10
769.3293851636768
 20
846.6246755578507
 30
0.0
 10
771.0129204086126
 20
844.7302367611006
 30
0.0
 10
772.9830275807402
 20
843.1137576321562
 30
0.0
 10
775.1843416226283
 20
841.8636859754608
 30
0.0
 10
777.5849013868741
 20
840.995788365178
 30
0.0
 10
779.7354135670265
 20
840.5876669513676
 30
0.0
 10
781.0779339407543
 20
840.5490583756587
 30
0.0
 10
781.5639421153837
 20
840.5350816168902
 30
0.0
  0
SPLINE
  5
12C
330
1F
100
AcDbEntity
  8
0
  6
Continuous
 62
     7
370
    35
100
AcDbSpline
210
0.0
220
0.0
230
1.0
 70
    24
 71
     3
 72
    19
 73
    15
 74
     0
 42
0.000000001
 43
0.00000001
 40
0.0
 40
0.0
 40
0.0
 40
0.0
 40
0.0339082014123465
 40
0.0838890956615412
 40
0.1338856406936268
 40
0.1787639190833893
 40
0.2236368521988066
 40
0.2646138248638255
 40
0.3055644086924226
 40
0.3465596390526781
 40
0.3876059998972934
 40
0.5510999779005326
 40
0.714601507120344
 40
1.0
 40
1.0
 40
1.0
 40
1.0
 10
781.5639421153837
 20
840.5350816168902
 30
0.0
 10
781.7043719688133
 20
840.5350816168902
 30
0.0
 10
782.0517962767218
 20
840.5350816168902
 30
0.0
 10
783.2496724435191
 20
840.5350816168902
 30
0.0
 10
785.0998672639885
 20
840.5350816168902
 30
0.0
 10
787.3922196844678
 20
840.5350816168902
 30
0.0
 10
789.9151112157178
 20
840.5350816168902
 30
0.0
 10
792.6807289190665
 20
840.5350816168902
 30
0.0
 10
795.6095199263731
 20
840.5350816168902
 30
0.0
 10
798.7559625071251
 20
840.5350816168902
 30
0.0
 10
805.2468190581136
 20
840.5350816168902
 30
0.0
 10
814.9844281721271
 20
840.5350816168901
 30
0.0
 10
831.1872343895494
 20
840.5350816168897
 30
0.0
 10
843.0614312891008
 20
840.5350816168898
 30
0.0
 10
850.6107245224554
 20
840.5350816168898
 30
0.0
  0
SPLINE
  5
12D
330
1F
100
AcDbEntity
  8
0
  6
Continuous
 62
     7
370
    35
100
AcDbSpline
210
0.0
220
0.0
230
1.0
 70
    24
 71
     3
 72
    19
 73
    15
 74
     0
 42
0.000000001
 43
0.00000001
 40
0.0
 40
0.0
 40
0.0
 40
0.0
 40
0.0339064855174939
 40
0.0831372973791095
 40
0.1338840147717988
 40
0.1782456415880443
 40
0.2236320967859882
 40
0.2641259724126845
 40
0.3055570601923708
 40
0.345938255188865
 40
0.3876378429813768
 40
0.5510878192859415
 40
0.7146159494612718
 40
1.0
 40
1.0
 40
1.0
 40
1.0
 10
919.6575069295274
 20
840.5350816168896
 30
0.0
 10
919.516920996727
 20
840.5350816168896
 30
0.0
 10
919.1722101154854
 20
840.5350816168896
 30
0.0
 10
917.9839389113778
 20
840.5350816168896
 30
0.0
 10
916.1392246328342
 20
840.5350816168896
 30
0.0
 10
913.8399518485504
 20
840.5350816168896
 30
0.0
 10
911.3260906377266
 20
840.5350816168896
 30
0.0
 10
908.5533832087594
 20
840.5350816168896
 30
0.0
 10
905.6363426591527
 20
840.5350816168896
 30
0.0
 10
902.4889334419601
 20
840.5350816168896
 30
0.0
 10
895.986885761414
 20
840.5350816168894
 30
0.0
 10
886.2402002294708
 20
840.5350816168901
 30
0.0
 10
870.0340526793693
 20
840.5350816168898
 30
0.0
 10
858.1595962562866
 20
840.5350816168898
 30
0.0
 10
850.6107245224554
 20
840.5350816168898
 30
0.0
  0
SPLINE
  5
12E
330
1F
100
AcDbEntity
  8
0
  6
Continuous
 62
     7
370
    35
100
AcDbSpline
210
0.0
220
0.0
230
1.0
 70
     8
 71
     3
 72
    10
 73
     6
 74
     0
 42
0.000000001
 43
0.00000001
 40
0.0
 40
0.0
 40
0.0
 40
0.0
 40
0.0149525925089902
 40
0.5037698573839637
 40
1.0
 40
1.0
 40
1.0
 40
1.0
 10
923.6107245224563
 20
840.5350816168896
 30
0.0
 10
923.6116651008125
 20
840.5351222800292
 30
0.0
 10
923.6433542559888
 20
840.5364922674798
 30
0.0
 10
923.7063543107088
 20
840.6540946045592
 30
0.0
 10
923.768008227911
 20
841.0874205509119
 30
0.0
 10
923.7990671717681
 20
841.3057140000624
 30
0.0
  0
LINE
  5
12F
330
1F
100
AcDbEntity
  8
0
  6
Continuous
 62
     7
370
    35
100
AcDbLine
 10
937.3019687203
 20
894.6367496007
 30
0.0
 11
937.5240273083
 21
893.2162821114
 31
0.0
  0
SPLINE
  5
130
330
1F
100
AcDbEntity
  8
0
  6
Continuous
 62
     7
370
    35
100
AcDbSpline
210
0.0
220
0.0
230
1.0
 70
     8
 71
     3
 72
    13
 73
     9
 74
     0
 42
0.000000001
 43
0.00000001
 40
0.0
 40
0.0
 40
0.0
 40
0.0
 40
0.0095081972613442
 40
0.0791116948017535
 40
0.3094644223199435
 40
0.5396843471459984
 40
0.7698410895023555
 40
1.0
 40
1.0
 40
1.0
 40
1.0
 10
940.5085589489827
 20
890.5350816168897
 30
0.0
 10
940.4946927191686
 20
890.5351437808215
 30
0.0
 10
940.3793205922603
 20
890.5356610075747
 30
0.0
 10
939.9285422521264
 20
890.5651961522749
 30
0.0
 10
939.169068186091
 20
890.7853078393362
 30
0.0
 10
938.3400760529614
 20
891.3833485983876
 30
0.0
 10
937.7304199956609
 20
892.2209295234877
 30
0.0
 10
937.5928250867847
 20
892.8844968736222
 30
0.0
 10
937.5240273083024
 20
893.2162821114299
 30
0.0
  0
LINE
  5
131
330
1F
100
AcDbEntity
  8
0
  6
Continuous
 62
     7
370
    35
100
AcDbLine
 10
510.6107245225
 20
932.9846816169
 30
0.0
 11
510.6107245225
 21
922.9846816169
 31
0.0
  0
LINE
  5
132
330
1F
100
AcDbEntity
  8
0
  6
Continuous
 62
     7
370
    35
100
AcDbLine
 10
508.6107245225
 20
932.9846816169
 30
0.0
 11
508.6107245225
 21
921.9846816169
 31
0.0
  0
ARC
  5
133
330
1F
100
AcDbEntity
  8
0
  6
Continuous
 62
     7
370
    35
100
AcDbCircle
 10
509.6107245225
 20
932.9846816169
 30
0.0
 40
1.0
100
AcDbArc
 50
90.0
 51
180.0
  0
ARC
  5
134
330
1F
100
AcDbEntity
  8
0
  6
Continuous
 62
     7
370
    35
100
AcDbCircle
 10
509.6107245225
 20
932.9846816169
 30
0.0
 40
1.000000000000057
100
AcDbArc
 50
0.0
 51
90.0
  0
LINE
  5
135
330
1F
100
AcDbEntity
  8
0
  6
Continuous
 62
     7
370
    35
100
AcDbLine
 10
510.6107245225
 20
918.8866658985
 30
0.0
 11
510.6107245225
 21
915.2588221385
 31
0.0
  0
LINE
  5
136
330
1F
100
AcDbEntity
  8
0
  6
Continuous
 62
     7
370
    35
100
AcDbLine
 10
508.6107245225
 20
920.9846816169
 30
0.0
 11
508.6107245225
 21
915.2588221385
 31
0.0
  0
LINE
  5
137
330
1F
100
AcDbEntity
  8
0
  6
Continuous
 62
     7
370
    35
100
AcDbLine
 10
510.6107245225
 20
915.2588221385
 30
0.0
 11
510.6107245225
 21
913.4462065644
 31
0.0
  0
LINE
  5
138
330
1F
100
AcDbEntity
  8
0
  6
Continuous
 62
     7
370
    35
100
AcDbLine
 10
508.6107245225
 20
913.4462065644
 30
0.0
 11
508.6107245225
 21
915.2588221385
 31
0.0
  0
LINE
  5
139
330
1F
100
AcDbEntity
  8
0
  6
Continuous
 62
     7
370
    35
100
AcDbLine
 10
510.6107245225
 20
913.4462065644
 30
0.0
 11
510.6107245225
 21
906.1879072798
 31
0.0
  0
LINE
  5
13A
330
1F
100
AcDbEntity
  8
0
  6
Continuous
 62
     7
370
    35
100
AcDbLine
 10
508.6107245225
 20
913.4462065644
 30
0.0
 11
508.6107245225
 21
906.1879072798
 31
0.0
  0
LINE
  5
13B
330
1F
100
AcDbEntity
  8
0
  6
Continuous
 62
     7
370
    35
100
AcDbLine
 10
510.6107245225
 20
906.1879072798
 30
0.0
 11
510.6107245225
 21
904.3752917058
 31
0.0
  0
LINE
  5
13C
330
1F
100
AcDbEntity
  8
0
  6
Continuous
 62
     7
370
    35
100
AcDbLine
 10
508.6107245225
 20
904.3752917058
 30
0.0
 11
508.6107245225
 21
906.1879072798
 31
0.0
  0
LINE
  5
13D
330
1F
100
AcDbEntity
  8
0
  6
Continuous
 62
     7
370
    35
100
AcDbLine
 10
510.6107245225
 20
904.3752917058
 30
0.0
 11
510.6107245225
 21
870.0846816169
 31
0.0
  0
LINE
  5
13E
330
1F
100
AcDbEntity
  8
0
  6
Continuous
 62
     7
370
    35
100
AcDbLine
 10
508.6107245225
 20
904.3752917058
 30
0.0
 11
508.6107245225
 21
870.0846816169
 31
0.0
  0
LINE
  5
13F
330
1F
100
AcDbEntity
  8
0
  6
Continuous
 62
     7
370
    35
100
AcDbLine
 10
510.6107245225
 20
868.0846816169
 30
0.0
 11
508.6107245225
 21
868.0846816169
 31
0.0
  0
LINE
  5
140
330
1F
100
AcDbEntity
  8
0
  6
Continuous
 62
     7
370
    35
100
AcDbLine
 10
510.6107245225
 20
870.0846816169
 30
0.0
 11
510.6107245225
 21
868.0846816169
 31
0.0
  0
LINE
  5
141
330
1F
100
AcDbEntity
  8
0
  6
Continuous
 62
     7
370
    35
100
AcDbLine
 10
508.6107245225
 20
868.0846816169
 30
0.0
 11
508.6107245225
 21
870.0846816169
 31
0.0
  0
ARC
  5
142
330
1F
100
AcDbEntity
  8
0
  6
Continuous
 62
     7
370
    35
100
AcDbCircle
 10
1191.6107245225
 20
932.9846816169
 30
0.0
 40
1.0
100
AcDbArc
 50
90.0
 51
180.0
  0
ARC
  5
143
330
1F
100
AcDbEntity
  8
0
  6
Continuous
 62
     7
370
    35
100
AcDbCircle
 10
1191.6107245225
 20
932.9846816169
 30
0.0
 40
1.0
100
AcDbArc
 50
0.0
 51
90.0
  0
LINE
  5
144
330
1F
100
AcDbEntity
  8
0
  6
Continuous
 62
     7
370
    35
100
AcDbLine
 10
1190.6107245225
 20
932.9846816169
 30
0.0
 11
1190.6107245225
 21
922.9846816169
 31
0.0
  0
LINE
  5
145
330
1F
100
AcDbEntity
  8
0
  6
Continuous
 62
     7
370
    35
100
AcDbLine
 10
1192.6107245225
 20
932.9846816169
 30
0.0
 11
1192.6107245225
 21
921.9846816169
 31
0.0
  0
LINE
  5
146
330
1F
100
AcDbEntity
  8
0
  6
Continuous
 62
     7
370
    35
100
AcDbLine
 10
1190.6107245225
 20
918.8866658985
 30
0.0
 11
1190.6107245225
 21
915.2588221385
 31
0.0
  0
LINE
  5
147
330
1F
100
AcDbEntity
  8
0
  6
Continuous
 62
     7
370
    35
100
AcDbLine
 10
1192.6107245225
 20
920.9846816169
 30
0.0
 11
1192.6107245225
 21
915.2588221385
 31
0.0
  0
LINE
  5
148
330
1F
100
AcDbEntity
  8
0
  6
Continuous
 62
     7
370
    35
100
AcDbLine
 10
1190.6107245225
 20
913.4462065644
 30
0.0
 11
1190.6107245225
 21
915.2588221385
 31
0.0
  0
LINE
  5
149
330
1F
100
AcDbEntity
  8
0
  6
Continuous
 62
     7
370
    35
100
AcDbLine
 10
1192.6107245225
 20
915.2588221385
 30
0.0
 11
1192.6107245225
 21
913.4462065644
 31
0.0
  0
LINE
  5
14A
330
1F
100
AcDbEntity
  8
0
  6
Continuous
 62
     7
370
    35
100
AcDbLine
 10
1190.6107245225
 20
913.4462065644
 30
0.0
 11
1190.6107245225
 21
906.1879072798
 31
0.0
  0
LINE
  5
14B
330
1F
100
AcDbEntity
  8
0
  6
Continuous
 62
     7
370
    35
100
AcDbLine
 10
1192.6107245225
 20
913.4462065644
 30
0.0
 11
1192.6107245225
 21
906.1879072798
 31
0.0
  0
LINE
  5
14C
330
1F
100
AcDbEntity
  8
0
  6
Continuous
 62
     7
370
    35
100
AcDbLine
 10
1190.6107245225
 20
904.3752917058
 30
0.0
 11
1190.6107245225
 21
906.1879072798
 31
0.0
  0
LINE
  5
14D
330
1F
100
AcDbEntity
  8
0
  6
Continuous
 62
     7
370
    35
100
AcDbLine
 10
1192.6107245225
 20
906.1879072798
 30
0.0
 11
1192.6107245225
 21
904.3752917058
 31
0.0
  0
LINE
  5
14E
330
1F
100
AcDbEntity
  8
0
  6
Continuous
 62
     7
370
    35
100
AcDbLine
 10
1190.6107245225
 20
904.3752917058
 30
0.0
 11
1190.6107245225
 21
870.0846816169
 31
0.0
  0
LINE
  5
14F
330
1F
100
AcDbEntity
  8
0
  6
Continuous
 62
     7
370
    35
100
AcDbLine
 10
1192.6107245225
 20
904.3752917058
 30
0.0
 11
1192.6107245225
 21
870.0846816169
 31
0.0
  0
LINE
  5
150
330
1F
100
AcDbEntity
  8
0
  6
Continuous
 62
     7
370
    35
100
AcDbLine
 10
1192.6107245225
 20
868.0846816169
 30
0.0
 11
1190.6107245225
 21
868.0846816169
 31
0.0
  0
LINE
  5
151
330
1F
100
AcDbEntity
  8
0
  6
Continuous
 62
     7
370
    35
100
AcDbLine
 10
1190.6107245225
 20
868.0846816169
 30
0.0
 11
1190.6107245225
 21
870.0846816169
 31
0.0
  0
LINE
  5
152
330
1F
100
AcDbEntity
  8
0
  6
Continuous
 62
     7
370
    35
100
AcDbLine
 10
1192.6107245225
 20
870.0846816169
 30
0.0
 11
1192.6107245225
 21
868.0846816169
 31
0.0
  0
LINE
  5
153
330
1F
100
AcDbEntity
  8
0
  6
Continuous
 62
     7
370
    35
100
AcDbLine
 10
488.1107245225
 20
920.9846816169
 30
0.0
 11
478.1107245225
 21
920.9846816169
 31
0.0
  0
LINE
  5
154
330
1F
100
AcDbEntity
  8
0
  6
Continuous
 62
     7
370
    35
100
AcDbLine
 10
478.1107245225
 20
920.9846816169
 30
0.0
 11
478.1107245225
 21
921.9846816169
 31
0.0
  0
LINE
  5
155
330
1F
100
AcDbEntity
  8
0
  6
Continuous
 62
     7
370
    35
100
AcDbLine
 10
478.1107245225
 20
921.9846816169
 30
0.0
 11
488.1107245225
 21
921.9846816169
 31
0.0
  0
LINE
  5
156
330
1F
100
AcDbEntity
  8
0
  6
Continuous
 62
     7
370
    35
100
AcDbLine
 10
510.6107245225
 20
921.9846816169
 30
0.0
 11
488.1107245225
 21
921.9846816169
 31
0.0
  0
LINE
  5
157
330
1F
100
AcDbEntity
  8
0
  6
Continuous
 62
     7
370
    35
100
AcDbLine
 10
510.6107245225
 20
920.9846816169
 30
0.0
 11
488.1107245225
 21
920.9846816169
 31
0.0
  0
LINE
  5
158
330
1F
100
AcDbEntity
  8
0
  6
Continuous
 62
     7
370
    35
100
AcDbLine
 10
478.1107245225
 20
922.9846816169
 30
0.0
 11
478.1107245225
 21
921.9846816169
 31
0.0
  0
ARC
  5
159
330
1F
100
AcDbEntity
  8
0
  6
Continuous
 62
     7
370
    35
100
AcDbCircle
 10
488.1107245225
 20
954.4846816169
 30
0.0
 40
10.0
100
AcDbArc
 50
90.0
 51
180.0
  0
LINE
  5
15A
330
1F
100
AcDbEntity
  8
0
  6
Continuous
 62
     7
370
    35
100
AcDbLine
 10
510.6107245225
 20
964.4846816169
 30
0.0
 11
488.1107245225
 21
964.4846816169
 31
0.0
  0
LINE
  5
15B
330
1F
100
AcDbEntity
  8
0
  6
Continuous
 62
     7
370
    35
100
AcDbLine
 10
478.1107245225
 20
954.4846816169
 30
0.0
 11
478.1107245225
 21
922.9846816169
 31
0.0
  0
LINE
  5
15C
330
1F
100
AcDbEntity
  8
0
  6
Continuous
 62
     7
370
    35
100
AcDbLine
 10
1190.6107245225
 20
920.9846816169
 30
0.0
 11
1213.1107245225
 21
920.9846816169
 31
0.0
  0
LINE
  5
15D
330
1F
100
AcDbEntity
  8
0
  6
Continuous
 62
     7
370
    35
100
AcDbLine
 10
1190.6107245225
 20
921.9846816169
 30
0.0
 11
1213.1107245225
 21
921.9846816169
 31
0.0
  0
LINE
  5
15E
330
1F
100
AcDbEntity
  8
0
  6
Continuous
 62
     7
370
    35
100
AcDbLine
 10
1223.1107245225
 20
921.9846816169
 30
0.0
 11
1223.1107245225
 21
920.9846816169
 31
0.0
  0
LINE
  5
15F
330
1F
100
AcDbEntity
  8
0
  6
Continuous
 62
     7
370
    35
100
AcDbLine
 10
1223.1107245225
 20
920.9846816169
 30
0.0
 11
1213.1107245225
 21
920.9846816169
 31
0.0
  0
LINE
  5
160
330
1F
100
AcDbEntity
  8
0
  6
Continuous
 62
     7
370
    35
100
AcDbLine
 10
1213.1107245225
 20
921.9846816169
 30
0.0
 11
1223.1107245225
 21
921.9846816169
 31
0.0
  0
LINE
  5
161
330
1F
100
AcDbEntity
  8
0
  6
Continuous
 62
     7
370
    35
100
AcDbLine
 10
1223.1107245225
 20
921.9846816169
 30
0.0
 11
1223.1107245225
 21
922.9846816169
 31
0.0
  0
LINE
  5
162
330
1F
100
AcDbEntity
  8
0
  6
Continuous
 62
     7
370
    35
100
AcDbLine
 10
1190.6107245225
 20
964.4846816169
 30
0.0
 11
1213.1107245225
 21
964.4846816169
 31
0.0
  0
ARC
  5
163
330
1F
100
AcDbEntity
  8
0
  6
Continuous
 62
     7
370
    35
100
AcDbCircle
 10
1213.1107245225
 20
954.4846816169
 30
0.0
 40
10.0
100
AcDbArc
 50
0.0
 51
90.0
  0
LINE
  5
164
330
1F
100
AcDbEntity
  8
0
  6
Continuous
 62
     7
370
    35
100
AcDbLine
 10
1223.1107245225
 20
954.4846816169
 30
0.0
 11
1223.1107245225
 21
922.9846816169
 31
0.0
  0
LINE
  5
165
330
1F
100
AcDbEntity
  8
0
  6
Continuous
 62
     8
370
    18
100
AcDbLine
 10
1190.6107245225
 20
922.9846816169
 30
0.0
 11
510.6107245225
 21
922.9846816169
 31
0.0
  0
LINE
  5
166
330
1F
100
AcDbEntity
  8
0
  6
Continuous
 62
     8
370
    18
100
AcDbLine
 10
510.6107245225
 20
932.4846816169
 30
0.0
 11
1190.6107245225
 21
932.4846816169
 31
0.0
  0
LINE
  5
167
330
1F
100
AcDbEntity
  8
0
  6
Continuous
 62
     8
370
    18
100
AcDbLine
 10
510.6107245225
 20
917.6498167651
 30
0.0
 11
1190.6107245225
 21
917.6498167651
 31
0.0
  0
LINE
  5
168
330
1F
100
AcDbEntity
  8
0
  6
Continuous
 62
     8
370
    18
100
AcDbLine
 10
510.6107245225
 20
919.6466001062
 30
0.0
 11
1190.6107245225
 21
919.6466001062
 31
0.0
  0
LINE
  5
169
330
1F
100
AcDbEntity
  8
0
  6
Continuous
 62
     8
370
    18
100
AcDbLine
 10
510.6107245225
 20
915.8895091961
 30
0.0
 11
767.6515484138
 21
915.8895091961
 31
0.0
  0
LINE
  5
16A
330
1F
100
AcDbEntity
  8
0
  6
Continuous
 62
     8
370
    18
100
AcDbLine
 10
933.5699006311
 20
915.8895091961
 30
0.0
 11
1190.6107245225
 21
915.8895091961
 31
0.0
  0
SPLINE
  5
16B
330
1F
100
AcDbEntity
  8
0
  6
Continuous
 62
     8
370
    18
100
AcDbSpline
210
0.0
220
0.0
230
1.0
 70
     8
 71
     3
 72
    10
 73
     6
 74
     0
 42
0.000000001
 43
0.00000001
 40
0.0
 40
0.0
 40
0.0
 40
0.0
 40
0.5
 40
0.5
 40
1.0
 40
1.0
 40
1.0
 40
1.0
 10
909.9268366295508
 20
915.5398651936623
 30
0.0
 10
908.8877929467926
 20
915.554502329606
 30
0.0
 10
907.8421806260882
 20
915.5889723067584
 30
0.0
 10
905.7370541912617
 20
915.6419959131547
 30
0.0
 10
904.6775367798003
 20
915.6604485297164
 30
0.0
 10
903.610724522456
 20
915.6604485297164
 30
0.0
  0
LINE
  5
16C
330
1F
100
AcDbEntity
  8
0
  6
Continuous
 62
     8
370
    18
100
AcDbLine
 10
903.6107245225
 20
915.6604485297
 30
0.0
 11
903.6107245225
 21
917.5492539363
 31
0.0
  0
ARC
  5
16D
330
1F
100
AcDbEntity
  8
0
  6
Continuous
 62
     8
370
    18
100
AcDbCircle
 10
912.8909515315
 20
915.9288014516
 30
0.0
 40
2.989523133340462
100
AcDbArc
 50
147.5233674626
 51
187.4753574051
  0
SPLINE
  5
16E
330
1F
100
AcDbEntity
  8
0
  6
Continuous
 62
     8
370
    18
100
AcDbSpline
210
0.0
220
0.0
230
1.0
 70
     8
 71
     3
 72
    10
 73
     6
 74
     0
 42
0.000000001
 43
0.00000001
 40
0.0
 40
0.0
 40
0.0
 40
0.0
 40
0.5
 40
0.5
 40
1.0
 40
1.0
 40
1.0
 40
1.0
 10
797.6107245224555
 20
915.6604485296756
 30
0.0
 10
796.5439122651114
 20
915.6604485296756
 30
0.0
 10
795.4843948536495
 20
915.6419959131547
 30
0.0
 10
793.3792684188229
 20
915.5889723067584
 30
0.0
 10
792.3336560981184
 20
915.5545023296378
 30
0.0
 10
791.2946124153601
 20
915.5398651936944
 30
0.0
  0
ARC
  5
16F
330
1F
100
AcDbEntity
  8
0
  6
Continuous
 62
     8
370
    18
100
AcDbCircle
 10
788.3304975124
 20
915.9288014514
 30
0.0
 40
2.989523134309749
100
AcDbArc
 50
352.5246425999
 51
32.476632528
  0
LINE
  5
170
330
1F
100
AcDbEntity
  8
0
  6
Continuous
 62
     8
370
    18
100
AcDbLine
 10
797.6107245225
 20
915.6604485297
 30
0.0
 11
797.6107245225
 21
917.5492539363
 31
0.0
  0
LINE
  5
171
330
1F
100
AcDbEntity
  8
0
  6
Continuous
 62
     8
370
    18
100
AcDbLine
 10
903.6107245225
 20
915.6604485297
 30
0.0
 11
797.6107245225
 21
915.6604485297
 31
0.0
  0
ELLIPSE
  5
172
330
1F
100
AcDbEntity
  8
0
  6
Continuous
 62
     8
370
    18
100
AcDbEllipse
 10
903.6107245225
 20
913.8802488559
 30
0.0
 11
28.0
 21
0.0
 31
0.0
210
0.0
220
0.0
230
1.0
 40
0.0608401234
 41
0.0075591103181333
 42
1.34326267482132
  0
ARC
  5
173
330
1F
100
AcDbEntity
  8
0
  6
Continuous
 62
     8
370
    18
100
AcDbCircle
 10
933.6092233685
 20
913.8905796579
 30
0.0
 40
1.999300425703758
100
AcDbArc
 50
91.1268920303
 51
179.9270312827
  0
ELLIPSE
  5
174
330
1F
100
AcDbEntity
  8
0
  6
Continuous
 62
     8
370
    18
100
AcDbEllipse
 10
797.6107245225
 20
913.8802488559
 30
0.0
 11
28.0
 21
0.0
 31
0.0
210
0.0
220
0.0
230
1.0
 40
0.0608401234
 41
1.798329978768473
 42
3.134033543271658
  0
ARC
  5
175
330
1F
100
AcDbEntity
  8
0
  6
Continuous
 62
     8
370
    18
100
AcDbCircle
 10
767.6122256764
 20
913.8905796579
 30
0.0
 40
1.999300425704554
100
AcDbArc
 50
0.0729687173
 51
88.8731079807
  0
LINE
  5
176
330
1F
100
AcDbEntity
  8
0
  6
Continuous
 62
     8
370
    18
100
AcDbLine
 10
797.6107245225
 20
915.6604485297
 30
0.0
 11
797.6107245225
 21
910.9850816169
 31
0.0
  0
LINE
  5
177
330
1F
100
AcDbEntity
  8
0
  6
Continuous
 62
     8
370
    18
100
AcDbLine
 10
903.6107245225
 20
915.6604485297
 30
0.0
 11
903.6107245225
 21
910.9850816169
 31
0.0
  0
LINE
  5
178
330
1F
100
AcDbEntity
  8
0
  6
Continuous
 62
     8
370
    18
100
AcDbLine
 10
1190.6107245225
 20
934.9846816169
 30
0.0
 11
510.6107245225
 21
934.9846816169
 31
0.0
  0
LINE
  5
179
330
1F
100
AcDbEntity
  8
0
  6
Continuous
 62
     8
370
    18
100
AcDbLine
 10
769.6706969412
 20
913.6922800886
 30
0.0
 11
797.6107245225
 21
913.6922800886
 31
0.0
  0
LINE
  5
17A
330
1F
100
AcDbEntity
  8
0
  6
Continuous
 62
     8
370
    18
100
AcDbLine
 10
931.5507521037
 20
913.6922800886
 30
0.0
 11
903.6107245225
 21
913.6922800886
 31
0.0
  0
LINE
  5
17B
330
1F
100
AcDbEntity
  8
0
  6
Continuous
 62
     8
370
    18
100
AcDbLine
 10
985.2991228681
 20
840.4850816169
 30
0.0
 11
985.2991228681
 21
890.5850816169
 31
0.0
  0
LINE
  5
17C
330
1F
100
AcDbEntity
  8
0
  6
Continuous
 62
     8
370
    18
100
AcDbLine
 10
985.915674571
 20
890.5210421067
 30
0.0
 11
985.915674571
 21
840.5491211271
 31
0.0
  0
SPLINE
  5
17D
330
1F
100
AcDbEntity
  8
0
  6
Continuous
 62
     8
370
    18
100
AcDbSpline
210
0.0
220
0.0
230
1.0
 70
     8
 71
     3
 72
    33
 73
    29
 74
     0
 42
0.000000001
 43
0.00000001
 40
0.0
 40
0.0
 40
0.0
 40
0.0
 40
0.0272519121761634
 40
0.0643955705395718
 40
0.1017679836315397
 40
0.1399161503387519
 40
0.1783602451249452
 40
0.2309313350457342
 40
0.284075135045446
 40
0.3463079719325297
 40
0.3778605917353971
 40
0.4098349893637271
 40
0.4664493290388095
 40
0.5237708874937634
 40
0.5552660258970199
 40
0.5869395080180232
 40
0.6191572696364603
 40
0.651555958429215
 40
0.6730472716079224
 40
0.7163558120329113
 40
0.7603800963832655
 40
0.8051322093176811
 40
0.8276949767825306
 40
0.8487242154456173
 40
0.891091575844497
 40
0.9341506962041375
 40
0.9779263650739449
 40
0.9999999999999999
 40
0.9999999999999999
 40
0.9999999999999999
 40
0.9999999999999999
 10
831.1240615835827
 20
849.6183256408316
 30
0.0
 10
830.8025908097463
 20
850.0029148578764
 30
0.0
 10
830.0429636041702
 20
850.9116893282646
 30
0.0
 10
828.9598440984261
 20
852.4510796348774
 30
0.0
 10
827.8873226876474
 20
854.2503312468244
 30
0.0
 10
826.9528273174427
 20
856.1698234990521
 30
0.0
 10
826.0778967331262
 20
858.4453851270201
 30
0.0
 10
825.3645704966216
 20
861.1015849019041
 30
0.0
 10
824.9196342999453
 20
864.3039339762282
 30
0.0
 10
824.9189803996602
 20
867.1582980601556
 30
0.0
 10
825.1935900502885
 20
869.5840974087693
 30
0.0
 10
825.6320168971168
 20
871.8773252328751
 30
0.0
 10
826.4590794517734
 20
874.5969662615294
 30
0.0
 10
827.6399818522315
 20
877.1679667738058
 30
0.0
 10
828.8293974917717
 20
879.1764992153995
 30
0.0
 10
829.8842826210846
 20
880.6912677947223
 30
0.0
 10
831.0578536490603
 20
882.1352815297234
 30
0.0
 10
832.1991116356185
 20
883.3438461462874
 30
0.0
 10
833.566750880518
 20
884.624383061952
 30
0.0
 10
835.2002427100181
 20
885.942455406734
 30
0.0
 10
837.3305175054431
 20
887.338044090039
 30
0.0
 10
839.2363263822261
 20
888.3353805938381
 30
0.0
 10
840.8030085816944
 20
889.0114261486211
 30
0.0
 10
842.3586159078305
 20
889.5951590667061
 30
0.0
 10
844.3362743255962
 20
890.182911545836
 30
0.0
 10
846.7968064659772
 20
890.6623830582743
 30
0.0
 10
848.9037168391826
 20
890.8744804099773
 30
0.0
 10
850.1821689604559
 20
890.891412322833
 30
0.0
 10
850.6107245224542
 20
890.8970881438581
 30
0.0
  0
SPLINE
  5
17E
330
1F
100
AcDbEntity
  8
0
  6
Continuous
 62
     8
370
    18
100
AcDbSpline
210
0.0
220
0.0
230
1.0
 70
    24
 71
     3
 72
    21
 73
    17
 74
     0
 42
0.000000001
 43
0.00000001
 40
0.0
 40
0.0
 40
0.0
 40
0.0
 40
0.0720514219264892
 40
0.1446031256583216
 40
0.2187326761061064
 40
0.293407433176277
 40
0.3654588516753531
 40
0.4380105213676772
 40
0.5121399203052073
 40
0.5868144764983353
 40
0.6588679246026078
 40
0.731421609520714
 40
0.8055529476989914
 40
0.8802294033636555
 40
0.9908667802310032
 40
1.0
 40
1.0
 40
1.0
 40
1.0
 10
850.610724522454
 20
890.8970881438581
 30
0.0
 10
850.6107245224497
 20
890.7425353018878
 30
0.0
 10
850.6107245224412
 20
890.4323564958246
 30
0.0
 10
850.6107245224566
 20
889.8616918430965
 30
0.0
 10
850.6107245224563
 20
889.2127130739478
 30
0.0
 10
850.6107245224616
 20
888.4898719737255
 30
0.0
 10
850.6107245224453
 20
887.705709736954
 30
0.0
 10
850.6107245224593
 20
886.8629489823147
 30
0.0
 10
850.6107245224524
 20
885.954064729326
 30
0.0
 10
850.6107245224488
 20
884.9970939341412
 30
0.0
 10
850.6107245224557
 20
884.0048031027053
 30
0.0
 10
850.6107245224516
 20
882.9803272918293
 30
0.0
 10
850.6107245224589
 20
881.9151854495676
 30
0.0
 10
850.6107245224398
 20
880.6426063266707
 30
0.0
 10
850.6107245224945
 20
879.6734441694598
 30
0.0
 10
850.610724522446
 20
879.0768710180029
 30
0.0
 10
850.6107245224424
 20
879.0313787698755
 30
0.0
  0
SPLINE
  5
17F
330
1F
100
AcDbEntity
  8
0
  6
Continuous
 62
     8
370
    18
100
AcDbSpline
210
0.0
220
0.0
230
1.0
 70
     8
 71
     3
 72
    20
 73
    16
 74
     0
 42
0.000000001
 43
0.00000001
 40
0.0
 40
0.0
 40
0.0
 40
0.0
 40
0.0031848875244884
 40
0.099687216670268
 40
0.1961928561586078
 40
0.2929138960264291
 40
0.3894614585497546
 40
0.453145940689728
 40
0.5167654851003712
 40
0.6214864979190159
 40
0.7268808125404134
 40
0.8182687157727473
 40
0.8939620144270488
 40
0.9698304221395909
 40
1.0
 40
1.0
 40
1.0
 40
1.0
 10
850.6107245224573
 20
879.0313787698756
 30
0.0
 10
850.577560526872
 20
879.0317814167521
 30
0.0
 10
849.5395249955891
 20
879.0443842939684
 30
0.0
 10
847.4909883310481
 20
878.8836466837281
 30
0.0
 10
844.5513081987524
 20
878.1481225028707
 30
0.0
 10
841.7716919916135
 20
876.938478380782
 30
0.0
 10
839.528985268252
 20
875.4454723529834
 30
0.0
 10
837.8471780657115
 20
873.8176085426495
 30
0.0
 10
836.395631434712
 20
871.8753556679645
 30
0.0
 10
835.2415920674486
 20
869.207886365613
 30
0.0
 10
835.1417903030882
 20
865.9832877533966
 30
0.0
 10
836.0878102376338
 20
863.2624568370114
 30
0.0
 10
837.4396744760647
 20
861.1116581988489
 30
0.0
 10
838.6751634136747
 20
859.6691386790895
 30
0.0
 10
839.4674126088648
 20
858.8998456082433
 30
0.0
 10
839.6928207364335
 20
858.6809688814459
 30
0.0
  0
LINE
  5
180
330
1F
100
AcDbEntity
  8
0
  6
Continuous
 62
     8
370
    18
100
AcDbLine
 10
831.1240615836
 20
849.6183256408
 30
0.0
 11
839.6928207364
 21
858.6809688814
 31
0.0
  0
SPLINE
  5
181
330
1F
100
AcDbEntity
  8
0
  6
Continuous
 62
     8
370
    18
100
AcDbSpline
210
0.0
220
0.0
230
1.0
 70
     8
 71
     3
 72
    33
 73
    29
 74
     0
 42
0.000000001
 43
0.00000001
 40
0.0
 40
0.0
 40
0.0
 40
0.0
 40
0.0420694805196966
 40
0.0843884430381629
 40
0.1054254118363572
 40
0.147808418088579
 40
0.1908708294596766
 40
0.2346249844283177
 40
0.2566774230954371
 40
0.2919631051304076
 40
0.3274716165362365
 40
0.3636903997735287
 40
0.4001608597630008
 40
0.4308871503519145
 40
0.4617758629698887
 40
0.4929198210567771
 40
0.5244145950467554
 40
0.5762252118466528
 40
0.6285929245268338
 40
0.683370124792253
 40
0.7388451995033102
 40
0.7691720205739117
 40
0.815060367563026
 40
0.8615324906874948
 40
0.8956623911437309
 40
0.9301881902968949
 40
0.9649049432978527
 40
1.0
 40
1.0
 40
1.0
 40
1.0
 10
850.6107245224575
 20
890.8970881438581
 30
0.0
 10
851.427754086937
 20
890.8763304072286
 30
0.0
 10
853.0666583950202
 20
890.8346918356668
 30
0.0
 10
855.0945952296081
 20
890.5378743770303
 30
0.0
 10
857.0984201140078
 20
890.1121451568874
 30
0.0
 10
859.0814770742627
 20
889.5393733506228
 30
0.0
 10
861.4065652828886
 20
888.6221280911068
 30
0.0
 10
863.2798429252053
 20
887.6653896773078
 30
0.0
 10
864.9460510599368
 20
886.6556177533934
 30
0.0
 10
866.4139318905325
 20
885.6328230449577
 30
0.0
 10
868.0063687386953
 20
884.3212530891999
 30
0.0
 10
869.5045596067187
 20
882.8672062560395
 30
0.0
 10
870.8176692673965
 20
881.3612497169353
 30
0.0
 10
871.9494381387461
 20
879.8390280129317
 30
0.0
 10
872.9152895918061
 20
878.3245326112369
 30
0.0
 10
873.7767257864749
 20
876.7287091250877
 30
0.0
 10
874.6854056617806
 20
874.7018354075634
 30
0.0
 10
875.5234646230008
 20
872.1970702475743
 30
0.0
 10
876.1322203494402
 20
869.162281713384
 30
0.0
 10
876.3505942683369
 20
866.0083113372242
 30
0.0
 10
876.1784786189276
 20
863.2934795404223
 30
0.0
 10
875.7637824549026
 20
860.8023691601766
 30
0.0
 10
875.1742687701177
 20
858.5371159543722
 30
0.0
 10
874.3289729592026
 20
856.3008819836888
 30
0.0
 10
873.3876882849431
 20
854.3608978217318
 30
0.0
 10
872.4174076616148
 20
852.7005129252871
 30
0.0
 10
871.3289839201693
 20
851.104741907637
 30
0.0
 10
870.5094000305548
 20
850.1155844471809
 30
0.0
 10
870.0973874613276
 20
849.6183256408316
 30
0.0
  0
LINE
  5
182
330
1F
100
AcDbEntity
  8
0
  6
Continuous
 62
     8
370
    18
100
AcDbLine
 10
870.0973874613
 20
849.6183256408
 30
0.0
 11
861.5286283085
 21
858.6809688814
 31
0.0
  0
SPLINE
  5
183
330
1F
100
AcDbEntity
  8
0
  6
Continuous
 62
     8
370
    18
100
AcDbSpline
210
0.0
220
0.0
230
1.0
 70
     8
 71
     3
 72
    19
 73
    15
 74
     0
 42
0.000000001
 43
0.00000001
 40
0.0
 40
0.0
 40
0.0
 40
0.0
 40
0.0723119353046654
 40
0.1445206361806458
 40
0.2538055534572528
 40
0.3457400466261745
 40
0.4376020288244572
 40
0.5576187311953651
 40
0.6329165099067158
 40
0.7083141187347108
 40
0.8053610917388587
 40
0.9023999691423432
 40
0.9968144251432691
 40
1.0
 40
1.0
 40
1.0
 40
1.0
 10
861.5286283084765
 20
858.6809688814459
 30
0.0
 10
862.0612494029956
 20
859.2145421421186
 30
0.0
 10
863.1257312080917
 20
860.2809269201848
 30
0.0
 10
864.6885431324954
 20
862.4218294761508
 30
0.0
 10
865.889856049777
 20
865.0587673233159
 30
0.0
 10
866.1095835141434
 20
868.1672098312239
 30
0.0
 10
865.2300249873556
 20
871.2596047793983
 30
0.0
 10
863.5100037950933
 20
873.777596989204
 30
0.0
 10
861.3933116519454
 20
875.6563004629684
 30
0.0
 10
859.20680937534
 20
877.042624876944
 30
0.0
 10
856.6197792786339
 20
878.1632721949671
 30
0.0
 10
853.692098362647
 20
878.8925211378707
 30
0.0
 10
851.6599689275613
 20
879.0440951835426
 30
0.0
 10
850.6438884506965
 20
879.0317807031414
 30
0.0
 10
850.6107245224573
 20
879.0313787698756
 30
0.0
  0
SPLINE
  5
184
330
1F
100
AcDbEntity
  8
0
  6
Continuous
 62
     8
370
    18
100
AcDbSpline
210
0.0
220
0.0
230
1.0
 70
     8
 71
     3
 72
     9
 73
     5
 74
     0
 42
0.000000001
 43
0.00000001
 40
0.0
 40
0.0
 40
0.0
 40
0.0
 40
0.5770474436019457
 40
1.0
 40
1.0
 40
1.0
 40
1.0
 10
837.2571935611604
 20
844.3910798506885
 30
0.0
 10
835.9971431679825
 20
845.2458760153482
 30
0.0
 10
833.8135265396636
 20
846.7272033726344
 30
0.0
 10
831.9234670686094
 20
848.7589803670239
 30
0.0
 10
831.1240615835827
 20
849.6183256408316
 30
0.0
  0
SPLINE
  5
185
330
1F
100
AcDbEntity
  8
0
  6
Continuous
 62
     8
370
    18
100
AcDbSpline
210
0.0
220
0.0
230
1.0
 70
     8
 71
     3
 72
    10
 73
     6
 74
     0
 42
0.000000001
 43
0.00000001
 40
0.0
 40
0.0
 40
0.0
 40
0.0
 40
0.247968179622629
 40
0.4972688069878494
 40
1.0
 40
1.0
 40
1.0
 40
1.0
 10
839.6928207364335
 20
858.6809688814459
 30
0.0
 10
840.0375208842104
 20
858.3744743114836
 30
0.0
 10
840.7287734131211
 20
857.7598382344459
 30
0.0
 10
842.2257802719377
 20
856.6537680163427
 30
0.0
 10
843.4013227870471
 20
855.8963169480629
 30
0.0
 10
844.1871697087385
 20
855.3899630028092
 30
0.0
  0
LINE
  5
186
330
1F
100
AcDbEntity
  8
0
  6
Continuous
 62
     8
370
    18
100
AcDbLine
 10
844.1871697087
 20
855.3899630028
 30
0.0
 11
837.2571935612
 21
844.3910798507
 31
0.0
  0
ARC
  5
187
330
1F
100
AcDbEntity
  8
0
  6
Continuous
 62
     8
370
    18
100
AcDbCircle
 10
850.6107245225
 20
865.5850816169
 30
0.0
 40
12.04999999999998
100
AcDbArc
 50
237.7865374201
 51
302.2134625799
  0
LINE
  5
188
330
1F
100
AcDbEntity
  8
0
  6
Continuous
 62
     8
370
    18
100
AcDbLine
 10
857.0342793362
 20
855.3899630028
 30
0.0
 11
863.9642554837
 21
844.3910798507
 31
0.0
  0
SPLINE
  5
189
330
1F
100
AcDbEntity
  8
0
  6
Continuous
 62
     8
370
    18
100
AcDbSpline
210
0.0
220
0.0
230
1.0
 70
     8
 71
     3
 72
    10
 73
     6
 74
     0
 42
0.000000001
 43
0.00000001
 40
0.0
 40
0.0
 40
0.0
 40
0.0
 40
0.3514670345888366
 40
0.7035972473579539
 40
1.0
 40
1.0
 40
1.0
 40
1.0
 10
857.0342793361717
 20
855.3899630028092
 30
0.0
 10
857.5841669413658
 20
855.7427980146792
 30
0.0
 10
858.6849797269043
 20
856.4491337978167
 30
0.0
 10
860.2079538629314
 20
857.5207691018376
 30
0.0
 10
861.1143656940734
 20
858.3170431648914
 30
0.0
 10
861.5286283084765
 20
858.6809688814459
 30
0.0
  0
SPLINE
  5
18A
330
1F
100
AcDbEntity
  8
0
  6
Continuous
 62
     8
370
    18
100
AcDbSpline
210
0.0
220
0.0
230
1.0
 70
     8
 71
     3
 72
     9
 73
     5
 74
     0
 42
0.000000001
 43
0.00000001
 40
0.0
 40
0.0
 40
0.0
 40
0.0
 40
0.3490261811818394
 40
0.9999999999999999
 40
0.9999999999999999
 40
0.9999999999999999
 40
0.9999999999999999
 10
870.0973874613276
 20
849.6183256408316
 30
0.0
 10
869.441801503309
 20
848.9041828139068
 30
0.0
 10
867.5634726174969
 20
846.8580817893173
 30
0.0
 10
865.3834155549789
 20
845.363811007728
 30
0.0
 10
863.96425548375
 20
844.3910798506885
 30
0.0
  0
SPLINE
  5
18B
330
1F
100
AcDbEntity
  8
0
  6
Continuous
 62
     8
370
    18
100
AcDbSpline
210
0.0
220
0.0
230
1.0
 70
     8
 71
     3
 72
    18
 73
    14
 74
     0
 42
0.000000001
 43
0.00000001
 40
0.0
 40
0.0
 40
0.0
 40
0.0
 40
0.0987970799383266
 40
0.2002031521159799
 40
0.3040525078882556
 40
0.4120845877792412
 40
0.50477407347809
 40
0.6005377868034514
 40
0.6921670882566401
 40
0.7863356247216248
 40
0.8914320327008238
 40
0.9999986785287139
 40
0.9999999999999999
 40
0.9999999999999999
 40
0.9999999999999999
 40
0.9999999999999999
 10
829.1188111438499
 20
848.8616356290308
 30
0.0
 10
828.2309697526706
 20
849.9499146293791
 30
0.0
 10
826.4318412237293
 20
852.1552114497647
 30
0.0
 10
824.4027472330436
 20
856.081868874653
 30
0.0
 10
822.9886342802777
 20
860.4883214471346
 30
0.0
 10
822.4376843939889
 20
865.0422036293921
 30
0.0
 10
822.6990341230127
 20
869.5300329768689
 30
0.0
 10
823.6525808965786
 20
873.6832710124993
 30
0.0
 10
825.2649305399478
 20
877.6422531196534
 30
0.0
 10
827.556430768837
 20
881.4051467561433
 30
0.0
 10
830.607862461684
 20
884.9107386038434
 30
0.0
 10
833.122056237287
 20
886.9254773566769
 30
0.0
 10
834.478564204982
 20
887.8225101153415
 30
0.0
 10
834.478580716172
 20
887.8225210338754
 30
0.0
  0
SPLINE
  5
18C
330
1F
100
AcDbEntity
  8
0
  6
Continuous
 62
     8
370
    18
100
AcDbSpline
210
0.0
220
0.0
230
1.0
 70
     8
 71
     3
 72
    13
 73
     9
 74
     0
 42
0.000000001
 43
0.00000001
 40
0.0
 40
0.0
 40
0.0
 40
0.0
 40
0.0000034881331163
 40
0.2481902506141591
 40
0.5024205295387578
 40
0.7482140500399479
 40
0.9999965118668843
 40
1.0
 40
1.0
 40
1.0
 40
1.0
 10
834.478580716172
 20
887.8225210338754
 30
0.0
 10
834.4785970072345
 20
887.8225322655082
 30
0.0
 10
835.6377508516317
 20
888.6216937853633
 30
0.0
 10
838.1157032955057
 20
890.0633494161779
 30
0.0
 10
842.1017960534284
 20
891.6224319476106
 30
0.0
 10
846.3095838047025
 20
892.5694006388921
 30
0.0
 10
849.1672273665002
 20
892.7732673308523
 30
0.0
 10
850.6107045251499
 20
892.7667730162746
 30
0.0
 10
850.610724522455
 20
892.7667729263052
 30
0.0
  0
ARC
  5
18D
330
1F
100
AcDbEntity
  8
0
  6
Continuous
 62
     8
370
    18
100
AcDbCircle
 10
831.2547354208
 20
846.2367053211
 30
0.0
 40
3.384144151529253
100
AcDbArc
 50
92.2129439007
 51
129.1354920666
  0
SPLINE
  5
18E
330
1F
100
AcDbEntity
  8
0
  6
Continuous
 62
     8
370
    18
100
AcDbSpline
210
0.0
220
0.0
230
1.0
 70
     8
 71
     3
 72
    13
 73
     9
 74
     0
 42
0.000000001
 43
0.00000001
 40
0.0
 40
0.0
 40
0.0
 40
0.0
 40
0.000003488132369
 40
0.2457799679353319
 40
0.4975795644761241
 40
0.7457645563596895
 40
0.9999965118676328
 40
1.0
 40
1.0
 40
1.0
 40
1.0
 10
850.610724522455
 20
892.7667729263052
 30
0.0
 10
850.6107445197601
 20
892.7667730162746
 30
0.0
 10
852.0197899649642
 20
892.7731124199191
 30
0.0
 10
854.8770254912433
 20
892.5745141220416
 30
0.0
 10
859.0539900163786
 20
891.6424449528736
 30
0.0
 10
863.0740003729578
 20
890.0786050442791
 30
0.0
 10
865.5554643212718
 20
888.6411592121252
 30
0.0
 10
866.7428520376754
 20
887.822532265508
 30
0.0
 10
866.742868328738
 20
887.8225210338753
 30
0.0
  0
SPLINE
  5
18F
330
1F
100
AcDbEntity
  8
0
  6
Continuous
 62
     8
370
    18
100
AcDbSpline
210
0.0
220
0.0
230
1.0
 70
     8
 71
     3
 72
    19
 73
    15
 74
     0
 42
0.000000001
 43
0.00000001
 40
0.0
 40
0.0
 40
0.0
 40
0.0
 40
0.0000013213841023
 40
0.0176852170218708
 40
0.1143733902378695
 40
0.2137145610419426
 40
0.3053523452007524
 40
0.3995000333270475
 40
0.4922123793434057
 40
0.5879403428335881
 40
0.6917200092822492
 40
0.7998090016712729
 40
0.898518958317873
 40
1.0
 40
1.0
 40
1.0
 40
1.0
 10
866.742868328738
 20
887.8225210338753
 30
0.0
 10
866.742884839928
 20
887.8225101153413
 30
0.0
 10
866.9638682614926
 20
887.6763780070102
 30
0.0
 10
868.3788686547337
 20
886.7101347253441
 30
0.0
 10
870.8505543262033
 20
884.6484808022994
 30
0.0
 10
873.685456799963
 20
881.3595524208077
 30
0.0
 10
875.9388964980031
 20
877.6772188800549
 30
0.0
 10
877.5427731844903
 20
873.7631905734931
 30
0.0
 10
878.5156250975452
 20
869.5771243732327
 30
0.0
 10
878.7853143900833
 20
865.1515833392917
 30
0.0
 10
878.2468363668606
 20
860.5523386560868
 30
0.0
 10
876.8590195803266
 20
856.1741831972574
 30
0.0
 10
874.8107717641172
 20
852.1885770496074
 30
0.0
 10
873.0136412722304
 20
849.9808029239628
 30
0.0
 10
872.1026379010603
 20
848.861635629031
 30
0.0
  0
ARC
  5
190
330
1F
100
AcDbEntity
  8
0
  6
Continuous
 62
     8
370
    18
100
AcDbCircle
 10
869.9667136241
 20
846.2367053211
 30
0.0
 40
3.384144151530676
100
AcDbArc
 50
50.8645079334
 51
87.7870560992
  0
SPLINE
  5
191
330
1F
100
AcDbEntity
  8
0
  6
Continuous
 62
     8
370
    18
100
AcDbSpline
210
0.0
220
0.0
230
1.0
 70
     8
 71
     3
 72
    14
 73
    10
 74
     0
 42
0.000000001
 43
0.00000001
 40
0.0
 40
0.0
 40
0.0
 40
0.0
 40
0.0588507131428016
 40
0.1865507860318825
 40
0.3150706499745796
 40
0.520516040389114
 40
0.7296050309949554
 40
0.9289213534635691
 40
1.0
 40
1.0
 40
1.0
 40
1.0
 10
815.0700344133132
 20
887.7443004184793
 30
0.0
 10
815.0697068837974
 20
887.0224322609059
 30
0.0
 10
815.0686686484831
 20
884.7341834867582
 30
0.0
 10
815.0654979252985
 20
880.8080613004685
 30
0.0
 10
815.0640272350379
 20
875.0045887680633
 30
0.0
 10
815.0717974863271
 20
868.1352036496756
 30
0.0
 10
815.0729343758946
 20
860.4568816741787
 30
0.0
 10
815.0713951914386
 20
854.6241787390171
 30
0.0
 10
815.0713434250092
 20
851.4728368647479
 30
0.0
 10
815.0713298171831
 20
850.6444445465742
 30
0.0
  0
ARC
  5
192
330
1F
100
AcDbEntity
  8
0
  6
Continuous
 62
     8
370
    18
100
AcDbCircle
 10
813.8828006863
 20
854.7262793309
 30
0.0
 40
4.251349985718233
100
AcDbArc
 50
269.1903220348
 51
286.2342508995
  0
SPLINE
  5
193
330
1F
100
AcDbEntity
  8
0
  6
Continuous
 62
     8
370
    18
100
AcDbSpline
210
0.0
220
0.0
230
1.0
 70
     8
 71
     3
 72
    14
 73
    10
 74
     0
 42
0.000000001
 43
0.00000001
 40
0.0
 40
0.0
 40
0.0
 40
0.0
 40
0.2078014900616844
 40
0.4196955004261595
 40
0.5448234159852132
 40
0.669951586673449
 40
0.7986972210351352
 40
0.92744214145856
 40
1.0
 40
1.0
 40
1.0
 40
1.0
 10
813.7183980202544
 20
887.8929140455227
 30
0.0
 10
813.6882162383049
 20
885.3055202202175
 30
0.0
 10
813.6272582630983
 20
880.0797754674314
 30
0.0
 10
813.6389070766397
 20
873.1111043602431
 30
0.0
 10
813.6950132944041
 20
867.2350071762717
 30
0.0
 10
813.7495816079847
 20
862.4536397009163
 30
0.0
 10
813.8001709473502
 20
857.7064689787716
 30
0.0
 10
813.8274451987585
 20
853.6993601431246
 30
0.0
 10
813.8239752497623
 20
851.3295364444604
 30
0.0
 10
813.8227245364353
 20
850.4753538366492
 30
0.0
  0
ARC
  5
194
330
1F
100
AcDbEntity
  8
0
  6
Continuous
 62
     8
370
    18
100
AcDbCircle
 10
813.7187008569
 20
881.6748156922
 30
0.0
 40
6.218098360700797
100
AcDbArc
 50
77.4481726937
 51
90.0027904448
  0
SPLINE
  5
195
330
1F
100
AcDbEntity
  8
0
  6
Continuous
 62
     8
370
    18
100
AcDbSpline
210
0.0
220
0.0
230
1.0
 70
     8
 71
     3
 72
    14
 73
    10
 74
     0
 42
0.000000001
 43
0.00000001
 40
0.0
 40
0.0
 40
0.0
 40
0.0
 40
0.0706469358108946
 40
0.2691496022583781
 40
0.4748299235320639
 40
0.684124035685349
 40
0.8123563766451404
 40
0.9412272031615686
 40
1.0
 40
1.0
 40
1.0
 40
1.0
 10
816.9613317059928
 20
850.9142375983416
 30
0.0
 10
816.9598553523736
 20
851.7266364684193
 30
0.0
 10
816.9542307632124
 20
854.8217011056439
 30
0.0
 10
817.0330580617804
 20
860.5450503806138
 30
0.0
 10
817.1587730835399
 20
868.1342444733768
 30
0.0
 10
817.2199189981359
 20
874.9155888892174
 30
0.0
 10
817.1976793062614
 20
880.7045597951578
 30
0.0
 10
817.1519438969378
 20
884.5979284138092
 30
0.0
 10
817.1165483687845
 20
886.877808535781
 30
0.0
 10
817.1054619585567
 20
887.5919011802789
 30
0.0
  0
ARC
  5
196
330
1F
100
AcDbEntity
  8
0
  6
Continuous
 62
     8
370
    18
100
AcDbCircle
 10
816.9002520442
 20
844.5871397433
 30
0.0
 40
6.327392669385488
100
AcDbArc
 50
89.4469031132
 51
106.8009889676
  0
ARC
  5
197
330
1F
100
AcDbEntity
  8
0
  6
Continuous
 62
     8
370
    18
100
AcDbCircle
 10
816.8439506026
 20
897.7678575095
 30
0.0
 40
10.17931605778245
100
AcDbArc
 50
259.964010462
 51
271.4721171423
  0
SPLINE
  5
198
330
1F
100
AcDbEntity
  8
0
  6
Continuous
 62
     8
370
    18
100
AcDbSpline
210
0.0
220
0.0
230
1.0
 70
     8
 71
     3
 72
    14
 73
    10
 74
     0
 42
0.000000001
 43
0.00000001
 40
0.0
 40
0.0
 40
0.0
 40
0.0
 40
0.2078011624980602
 40
0.4196948388477502
 40
0.5443918098789594
 40
0.6699512654772891
 40
0.7982264655367505
 40
0.9274422558336544
 40
1.0
 40
1.0
 40
1.0
 40
1.0
 10
887.5030510246556
 20
887.8929140455225
 30
0.0
 10
887.5332350818312
 20
885.3055188522535
 30
0.0
 10
887.5941976522988
 20
880.0797713365986
 30
0.0
 10
887.5825278934896
 20
873.1166279265119
 30
0.0
 10
887.5265524722093
 20
867.2404333336322
 30
0.0
 10
887.4719539488822
 20
862.4649806667222
 30
0.0
 10
887.4214397055481
 20
857.7120915045125
 30
0.0
 10
887.3939839158695
 20
853.7049336553731
 30
0.0
 10
887.3974706714822
 20
851.3295438051514
 30
0.0
 10
887.3987245084752
 20
850.4753538366492
 30
0.0
  0
ARC
  5
199
330
1F
100
AcDbEntity
  8
0
  6
Continuous
 62
     8
370
    18
100
AcDbCircle
 10
887.3386483586
 20
854.7262793309
 30
0.0
 40
4.251349985719024
100
AcDbArc
 50
253.7657491005
 51
270.8096779652
  0
SPLINE
  5
19A
330
1F
100
AcDbEntity
  8
0
  6
Continuous
 62
     8
370
    18
100
AcDbSpline
210
0.0
220
0.0
230
1.0
 70
     8
 71
     3
 72
    14
 73
    10
 74
     0
 42
0.000000001
 43
0.00000001
 40
0.0
 40
0.0
 40
0.0
 40
0.0
 40
0.0588507131428023
 40
0.1865507860318845
 40
0.3150706499745831
 40
0.5205160403891195
 40
0.7296050309949637
 40
0.9289213534635679
 40
1.0
 40
1.0
 40
1.0
 40
1.0
 10
886.1514146315968
 20
887.744300418479
 30
0.0
 10
886.1517421611127
 20
887.0224322609055
 30
0.0
 10
886.1527803964269
 20
884.734183486758
 30
0.0
 10
886.1559511196111
 20
880.808061300468
 30
0.0
 10
886.157421809872
 20
875.004588768063
 30
0.0
 10
886.1496515585824
 20
868.1352036496752
 30
0.0
 10
886.1485146690162
 20
860.4568816741784
 30
0.0
 10
886.150053853472
 20
854.624178739017
 30
0.0
 10
886.1501056199013
 20
851.4728368647479
 30
0.0
 10
886.1501192277274
 20
850.6444445465742
 30
0.0
  0
ARC
  5
19B
330
1F
100
AcDbEntity
  8
0
  6
Continuous
 62
     8
370
    18
100
AcDbCircle
 10
887.502748188
 20
881.6748156921
 30
0.0
 40
6.218098360754684
100
AcDbArc
 50
89.9972095553
 51
102.5518273062
  0
ARC
  5
19C
330
1F
100
AcDbEntity
  8
0
  6
Continuous
 62
     8
370
    18
100
AcDbCircle
 10
884.3211970007
 20
844.5871397433
 30
0.0
 40
6.327392669384726
100
AcDbArc
 50
73.1990110324
 51
90.5530968868
  0
SPLINE
  5
19D
330
1F
100
AcDbEntity
  8
0
  6
Continuous
 62
     8
370
    18
100
AcDbSpline
210
0.0
220
0.0
230
1.0
 70
     8
 71
     3
 72
    14
 73
    10
 74
     0
 42
0.000000001
 43
0.00000001
 40
0.0
 40
0.0
 40
0.0
 40
0.0
 40
0.0706469358108947
 40
0.2691496022583696
 40
0.4748299235320586
 40
0.6841240356853454
 40
0.8123563766451383
 40
0.9412272031615683
 40
1.0
 40
1.0
 40
1.0
 40
1.0
 10
884.2601173389177
 20
850.9142375983416
 30
0.0
 10
884.2615936925368
 20
851.7266364684193
 30
0.0
 10
884.2672182816981
 20
854.8217011056437
 30
0.0
 10
884.1883909831303
 20
860.5450503806136
 30
0.0
 10
884.06267596137
 20
868.1342444733765
 30
0.0
 10
884.0015300467742
 20
874.9155888892171
 30
0.0
 10
884.0237697386489
 20
880.7045597951574
 30
0.0
 10
884.0695051479719
 20
884.5979284138087
 30
0.0
 10
884.1049006761259
 20
886.8778085357807
 30
0.0
 10
884.115987086354
 20
887.5919011802783
 30
0.0
  0
ARC
  5
19E
330
1F
100
AcDbEntity
  8
0
  6
Continuous
 62
     8
370
    18
100
AcDbCircle
 10
884.3774984423
 20
897.7678575095
 30
0.0
 40
10.1793160577968
100
AcDbArc
 50
268.5278828577
 51
280.035989538
  0
SPLINE
  5
19F
330
1F
100
AcDbEntity
  8
0
  6
Continuous
 62
     8
370
    18
100
AcDbSpline
210
0.0
220
0.0
230
1.0
 70
     8
 71
     3
 72
    14
 73
    10
 74
     0
 42
0.000000001
 43
0.00000001
 40
0.0
 40
0.0
 40
0.0
 40
0.0
 40
0.1272473860604718
 40
0.2554745767697396
 40
0.3810919869018191
 40
0.5075916090131556
 40
0.7089607368256291
 40
0.9137762176246998
 40
1.0
 40
1.0
 40
1.0
 40
1.0
 10
806.1371237105427
 20
850.676425463358
 30
0.0
 10
806.1356786725636
 20
852.1663348272887
 30
0.0
 10
806.1327774698156
 20
855.1576258546311
 30
0.0
 10
806.1364791043131
 20
859.7963884659231
 30
0.0
 10
806.142132906027
 20
864.5079644594019
 30
0.0
 10
806.1506815909577
 20
870.1995947853902
 30
0.0
 10
806.1591910777379
 20
876.931661912686
 30
0.0
 10
806.152561301696
 20
883.1144648388854
 30
0.0
 10
806.1476201014958
 20
886.6837417521077
 30
0.0
 10
806.1461562132008
 20
887.7411817430085
 30
0.0
  0
ARC
  5
1A0
330
1F
100
AcDbEntity
  8
0
  6
Continuous
 62
     8
370
    18
100
AcDbCircle
 10
807.49843465
 20
881.7960966889
 30
0.0
 40
6.096941304603305
100
AcDbArc
 50
89.6346559708
 51
102.8145546266
  0
SPLINE
  5
1A1
330
1F
100
AcDbEntity
  8
0
  6
Continuous
 62
     8
370
    18
100
AcDbSpline
210
0.0
220
0.0
230
1.0
 70
     8
 71
     3
 72
    14
 73
    10
 74
     0
 42
0.000000001
 43
0.00000001
 40
0.0
 40
0.0
 40
0.0
 40
0.0
 40
0.1296971135924894
 40
0.260367622165083
 40
0.3857762422390049
 40
0.511184851083585
 40
0.6402379667715732
 40
0.7692907819815495
 40
1.0
 40
1.0
 40
1.0
 40
1.0
 10
807.4797220430163
 20
850.4753538366497
 30
0.0
 10
807.4786151825986
 20
852.0094078982131
 30
0.0
 10
807.4763931546207
 20
855.0890293116622
 30
0.0
 10
807.5017898681301
 20
859.8301740186184
 30
0.0
 10
807.5325538702353
 20
864.6018124822813
 30
0.0
 10
807.5630585747467
 20
869.4168698347212
 30
0.0
 10
807.584337978574
 20
874.3028174993439
 30
0.0
 10
807.5864161757846
 20
880.5317049883819
 30
0.0
 10
807.5564975604284
 20
885.0167388182666
 30
0.0
 10
807.5373112658349
 20
887.8929140455227
 30
0.0
  0
ARC
  5
1A2
330
1F
100
AcDbEntity
  8
0
  6
Continuous
 62
     8
370
    18
100
AcDbCircle
 10
807.4088043949
 20
854.5847656822
 30
0.0
 40
4.110023726145934
100
AcDbArc
 50
251.9763477959
 51
270.9886764295
  0
ARC
  5
1A3
330
1F
100
AcDbEntity
  8
0
  6
Continuous
 62
     8
370
    18
100
AcDbCircle
 10
804.2260200115
 20
844.9052222996
 30
0.0
 40
6.079399913268317
100
AcDbArc
 50
71.6779814803
 51
90.2649234322
  0
SPLINE
  5
1A4
330
1F
100
AcDbEntity
  8
0
  6
Continuous
 62
     8
370
    18
100
AcDbSpline
210
0.0
220
0.0
230
1.0
 70
     8
 71
     3
 72
    15
 73
    11
 74
     0
 42
0.000000001
 43
0.00000001
 40
0.0
 40
0.0
 40
0.0
 40
0.0
 40
0.1214527241786875
 40
0.2436356162157024
 40
0.3679634748124442
 40
0.492999645184968
 40
0.6185865433805121
 40
0.7450337263104021
 40
0.8719902588119044
 40
1.0
 40
1.0
 40
1.0
 40
1.0
 10
804.0966331372622
 20
887.5480433504719
 30
0.0
 10
804.0794214755798
 20
886.0746565955312
 30
0.0
 10
804.0448946765437
 20
883.1190251562896
 30
0.0
 10
804.0130159278672
 20
878.5740711620546
 30
0.0
 10
804.0156176704155
 20
873.9603399542636
 30
0.0
 10
804.0481874722792
 20
869.2962319750663
 30
0.0
 10
804.0969682504971
 20
864.6272123257444
 30
0.0
 10
804.1495810902679
 20
859.9921877765131
 30
0.0
 10
804.193186045066
 20
855.406681326205
 30
0.0
 10
804.1963311954112
 20
852.4626523013848
 30
0.0
 10
804.1979102665404
 20
850.9845572260485
 30
0.0
  0
ARC
  5
1A5
330
1F
100
AcDbEntity
  8
0
  6
Continuous
 62
     8
370
    18
100
AcDbCircle
 10
804.237892266
 20
897.0200585762
 30
0.0
 40
9.473068488023664
100
AcDbArc
 50
269.1455934394
 51
281.6212347178
  0
SPLINE
  5
1A6
330
1F
100
AcDbEntity
  8
0
  6
Continuous
 62
     8
370
    18
100
AcDbSpline
210
0.0
220
0.0
230
1.0
 70
     8
 71
     3
 72
    15
 73
    11
 74
     0
 42
0.000000001
 43
0.00000001
 40
0.0
 40
0.0
 40
0.0
 40
0.0
 40
0.1214527241786877
 40
0.2436356162157031
 40
0.3679634748124446
 40
0.4929996451849681
 40
0.6185865433805126
 40
0.745033726310402
 40
0.8719902588119043
 40
1.0
 40
1.0
 40
1.0
 40
1.0
 10
897.124815907648
 20
887.5480433504716
 30
0.0
 10
897.1420275693304
 20
886.0746565955308
 30
0.0
 10
897.1765543683664
 20
883.1190251562891
 30
0.0
 10
897.208433117043
 20
878.5740711620542
 30
0.0
 10
897.2058313744947
 20
873.9603399542634
 30
0.0
 10
897.173261572631
 20
869.296231975066
 30
0.0
 10
897.1244807944129
 20
864.6272123257439
 30
0.0
 10
897.0718679546427
 20
859.9921877765127
 30
0.0
 10
897.0282629998444
 20
855.4066813262045
 30
0.0
 10
897.0251178494992
 20
852.4626523013845
 30
0.0
 10
897.0235387783703
 20
850.9845572260481
 30
0.0
  0
ARC
  5
1A7
330
1F
100
AcDbEntity
  8
0
  6
Continuous
 62
     8
370
    18
100
AcDbCircle
 10
896.9954290334
 20
844.9052222996
 30
0.0
 40
6.079399913263861
100
AcDbArc
 50
89.7350765678
 51
108.3220185197
  0
SPLINE
  5
1A8
330
1F
100
AcDbEntity
  8
0
  6
Continuous
 62
     8
370
    18
100
AcDbSpline
210
0.0
220
0.0
230
1.0
 70
     8
 71
     3
 72
    14
 73
    10
 74
     0
 42
0.000000001
 43
0.00000001
 40
0.0
 40
0.0
 40
0.0
 40
0.0
 40
0.1272473860604719
 40
0.2554745767697394
 40
0.3810919869018193
 40
0.5075916090131556
 40
0.7089607368256291
 40
0.9137762176247
 40
1.0
 40
1.0
 40
1.0
 40
1.0
 10
895.0843253343677
 20
850.6764254633575
 30
0.0
 10
895.0857703723468
 20
852.1663348272881
 30
0.0
 10
895.088671575095
 20
855.1576258546307
 30
0.0
 10
895.0849699405977
 20
859.7963884659226
 30
0.0
 10
895.0793161388826
 20
864.5079644594017
 30
0.0
 10
895.070767453952
 20
870.19959478539
 30
0.0
 10
895.0622579671717
 20
876.9316619126856
 30
0.0
 10
895.0688877432142
 20
883.1144648388852
 30
0.0
 10
895.0738289434144
 20
886.6837417521073
 30
0.0
 10
895.0752928317094
 20
887.741181743008
 30
0.0
  0
ARC
  5
1A9
330
1F
100
AcDbEntity
  8
0
  6
Continuous
 62
     8
370
    18
100
AcDbCircle
 10
896.983556779
 20
897.0200585763
 30
0.0
 40
9.473068488031624
100
AcDbArc
 50
258.3787652822
 51
270.8544065606
  0
SPLINE
  5
1AA
330
1F
100
AcDbEntity
  8
0
  6
Continuous
 62
     8
370
    18
100
AcDbSpline
210
0.0
220
0.0
230
1.0
 70
     8
 71
     3
 72
    14
 73
    10
 74
     0
 42
0.000000001
 43
0.00000001
 40
0.0
 40
0.0
 40
0.0
 40
0.0
 40
0.1296969008660503
 40
0.2603671951156624
 40
0.3853421446376502
 40
0.5111847557259614
 40
0.6397642884787729
 40
0.7692911603858882
 40
1.0
 40
1.0
 40
1.0
 40
1.0
 10
893.7417270018942
 20
850.4753538366492
 30
0.0
 10
893.7428335024258
 20
852.009404820597
 30
0.0
 10
893.7450548079305
 20
855.0890200557168
 30
0.0
 10
893.719692001013
 20
859.8248834470853
 30
0.0
 10
893.6889178736712
 20
864.59622251851
 30
0.0
 10
893.65860002203
 20
869.4053692059676
 30
0.0
 10
893.6365436497215
 20
874.2967494608664
 30
0.0
 10
893.6352787964568
 20
880.5257758728836
 30
0.0
 10
893.6650628943622
 20
885.016732353313
 30
0.0
 10
893.6841377790753
 20
887.8929140455225
 30
0.0
  0
ARC
  5
1AB
330
1F
100
AcDbEntity
  8
0
  6
Continuous
 62
     8
370
    18
100
AcDbCircle
 10
893.7230143949
 20
881.7960966888
 30
0.0
 40
6.096941304638058
100
AcDbArc
 50
77.1854453734
 51
90.3653440292
  0
ARC
  5
1AC
330
1F
100
AcDbEntity
  8
0
  6
Continuous
 62
     8
370
    18
100
AcDbCircle
 10
893.81264465
 20
854.5847656822
 30
0.0
 40
4.11002372614937
100
AcDbArc
 50
269.0113235705
 51
288.0236522041
  0
LINE
  5
1AD
330
1F
100
AcDbEntity
  8
0
  6
Continuous
 62
     8
370
    18
100
AcDbLine
 10
813.8227245364
 20
850.4753538366
 30
0.0
 11
807.479722043
 21
850.4753538366
 31
0.0
  0
LINE
  5
1AE
330
1F
100
AcDbEntity
  8
0
  6
Continuous
 62
     8
370
    18
100
AcDbLine
 10
813.7183980203
 20
887.8929140455
 30
0.0
 11
807.5373112658
 21
887.8929140455
 31
0.0
  0
LINE
  5
1AF
330
1F
100
AcDbEntity
  8
0
  6
Continuous
 62
     8
370
    18
100
AcDbLine
 10
887.3987245085
 20
850.4753538366
 30
0.0
 11
893.7417270019
 21
850.4753538366
 31
0.0
  0
LINE
  5
1B0
330
1F
100
AcDbEntity
  8
0
  6
Continuous
 62
     8
370
    18
100
AcDbLine
 10
887.5030510247
 20
887.8929140455
 30
0.0
 11
893.6841377791
 21
887.8929140455
 31
0.0
  0
LINE
  5
1B1
330
1F
100
AcDbEntity
  8
0
  6
Continuous
 62
     8
370
    18
100
AcDbLine
 10
816.8789121142
 20
848.8568315682
 30
0.0
 11
816.961331706
 21
850.9142375983
 31
0.0
  0
SPLINE
  5
1B2
330
1F
100
AcDbEntity
  8
0
  6
Continuous
 62
     8
370
    18
100
AcDbSpline
210
0.0
220
0.0
230
1.0
 70
     8
 71
     3
 72
     9
 73
     5
 74
     0
 42
0.000000001
 43
0.00000001
 40
0.0
 40
0.0
 40
0.0
 40
0.0
 40
0.8892351459142925
 40
0.9999999999999999
 40
0.9999999999999999
 40
0.9999999999999999
 40
0.9999999999999999
 10
817.1054619585567
 20
887.5919011802789
 30
0.0
 10
817.056399451938
 20
890.8188895366303
 30
0.0
 10
817.001225624358
 20
894.447837820083
 30
0.0
 10
816.9892526762185
 20
897.9944228698331
 30
0.0
 10
816.9879264943648
 20
898.3872598453711
 30
0.0
  0
SPLINE
  5
1B3
330
1F
100
AcDbEntity
  8
0
  6
Continuous
 62
     8
370
    18
100
AcDbSpline
210
0.0
220
0.0
230
1.0
 70
     8
 71
     3
 72
    11
 73
     7
 74
     0
 42
0.000000001
 43
0.00000001
 40
0.0
 40
0.0
 40
0.0
 40
0.0
 40
0.5574252101166927
 40
0.8582360298869939
 40
0.9999887157360463
 40
1.0
 40
1.0
 40
1.0
 40
1.0
 10
816.9879264943648
 20
898.3872598453711
 30
0.0
 10
816.9465666550014
 20
899.3006528259986
 30
0.0
 10
816.8828872524778
 20
900.706952274235
 30
0.0
 10
816.2708161503646
 20
902.2452440835583
 30
0.0
 10
815.7969634507426
 20
902.812075721002
 30
0.0
 10
815.6207290015496
 20
902.9696526306984
 30
0.0
 10
815.6207149734715
 20
902.9696651736557
 30
0.0
  0
SPLINE
  5
1B4
330
1F
100
AcDbEntity
  8
0
  6
Continuous
 62
     8
370
    18
100
AcDbSpline
210
0.0
220
0.0
230
1.0
 70
     8
 71
     3
 72
    11
 73
     7
 74
     0
 42
0.000000001
 43
0.00000001
 40
0.0
 40
0.0
 40
0.0
 40
0.0
 40
0.0000403578895606
 40
0.1670896913903673
 40
0.6133765181116573
 40
1.0
 40
1.0
 40
1.0
 40
1.0
 10
815.6207149734715
 20
902.9696651736557
 30
0.0
 10
815.6206979003964
 20
902.969674790777
 30
0.0
 10
815.5500119733572
 20
903.0094915855842
 30
0.0
 10
815.2854345977602
 20
903.1462238284147
 30
0.0
 10
814.8197028017922
 20
903.3174137779124
 30
0.0
 10
814.4065310150709
 20
903.3463332323737
 30
0.0
 10
814.214743360207
 20
903.3597571749789
 30
0.0
  0
LINE
  5
1B5
330
1F
100
AcDbEntity
  8
0
  6
Continuous
 62
     8
370
    18
100
AcDbLine
 10
814.2147433602
 20
903.359757175
 30
0.0
 11
807.1083524969
 21
903.4826780951
 31
0.0
  0
SPLINE
  5
1B6
330
1F
100
AcDbEntity
  8
0
  6
Continuous
 62
     8
370
    18
100
AcDbSpline
210
0.0
220
0.0
230
1.0
 70
     8
 71
     3
 72
    11
 73
     7
 74
     0
 42
0.000000001
 43
0.00000001
 40
0.0
 40
0.0
 40
0.0
 40
0.0
 40
0.2986044395549888
 40
0.5785107697798024
 40
0.9999675635114517
 40
1.0
 40
1.0
 40
1.0
 40
1.0
 10
807.1083524969147
 20
903.4826780951278
 30
0.0
 10
806.9234665708834
 20
903.4768420160266
 30
0.0
 10
806.5652719655077
 20
903.4655353033124
 30
0.0
 10
805.9719645431227
 20
903.2921013550953
 30
0.0
 10
805.5965928645238
 20
903.0863964502362
 30
0.0
 10
805.387707905223
 20
902.9411623983046
 30
0.0
 10
805.387691830092
 20
902.9411512215478
 30
0.0
  0
SPLINE
  5
1B7
330
1F
100
AcDbEntity
  8
0
  6
Continuous
 62
     8
370
    18
100
AcDbSpline
210
0.0
220
0.0
230
1.0
 70
     8
 71
     3
 72
    12
 73
     8
 74
     0
 42
0.000000001
 43
0.00000001
 40
0.0
 40
0.0
 40
0.0
 40
0.0
 40
0.0000113964157658
 40
0.0165615426249112
 40
0.2254762501766455
 40
0.6569695733823875
 40
1.0
 40
1.0
 40
1.0
 40
1.0
 10
805.387691830092
 20
902.9411512215478
 30
0.0
 10
805.38767904861
 20
902.9411374128928
 30
0.0
 10
805.3691046947966
 20
902.9210703466706
 30
0.0
 10
805.1204945268504
 20
902.6443713677052
 30
0.0
 10
804.5685346026737
 20
901.7081356732464
 30
0.0
 10
804.2363412847956
 20
900.133154626232
 30
0.0
 10
804.1972166482614
 20
898.8813902714564
 30
0.0
 10
804.1798886570091
 20
898.3269937655504
 30
0.0
  0
SPLINE
  5
1B8
330
1F
100
AcDbEntity
  8
0
  6
Continuous
 62
     8
370
    18
100
AcDbSpline
210
0.0
220
0.0
230
1.0
 70
     8
 71
     3
 72
    10
 73
     6
 74
     0
 42
0.000000001
 43
0.00000001
 40
0.0
 40
0.0
 40
0.0
 40
0.0
 40
0.0305940752880726
 40
0.8849546452569856
 40
0.9999999999999999
 40
0.9999999999999999
 40
0.9999999999999999
 40
0.9999999999999999
 10
804.1798886570091
 20
898.3269937655504
 30
0.0
 10
804.1796765200133
 20
898.2185555233743
 30
0.0
 10
804.1735403116768
 20
895.0819048734147
 30
0.0
 10
804.133094743433
 20
891.4841184099787
 30
0.0
 10
804.1005012118321
 20
887.9656067395287
 30
0.0
 10
804.0966331372622
 20
887.5480433504719
 30
0.0
  0
LINE
  5
1B9
330
1F
100
AcDbEntity
  8
0
  6
Continuous
 62
     8
370
    18
100
AcDbLine
 10
804.1979102665
 20
850.984557226
 30
0.0
 11
804.2691074903
 21
848.9813231806
 31
0.0
  0
SPLINE
  5
1BA
330
1F
100
AcDbEntity
  8
0
  6
Continuous
 62
     8
370
    18
100
AcDbSpline
210
0.0
220
0.0
230
1.0
 70
     8
 71
     3
 72
    18
 73
    14
 74
     0
 42
0.000000001
 43
0.00000001
 40
0.0
 40
0.0
 40
0.0
 40
0.0
 40
0.0497884573626178
 40
0.1520626953526119
 40
0.2542931679105462
 40
0.3525326664708976
 40
0.4508084200367244
 40
0.5543273934134115
 40
0.6578565275353658
 40
0.7740307271289449
 40
0.8901694733964511
 40
0.9999988953086805
 40
1.0
 40
1.0
 40
1.0
 40
1.0
 10
804.2691074903254
 20
848.9813231806085
 30
0.0
 10
803.3680172152216
 20
848.9969840768025
 30
0.0
 10
800.615929216384
 20
849.0448152050006
 30
0.0
 10
796.0134988082644
 20
849.1300231740311
 30
0.0
 10
790.7127887940452
 20
849.1855941138851
 30
0.0
 10
785.8220112427041
 20
849.2499878159315
 30
0.0
 10
781.3288388769035
 20
849.2750774685474
 30
0.0
 10
777.2971995288459
 20
849.2639266617168
 30
0.0
 10
773.6870022407362
 20
849.2170299978708
 30
0.0
 10
770.7749063952748
 20
849.1381486610896
 30
0.0
 10
768.7950906609746
 20
849.0128773409277
 30
0.0
 10
768.2033843937656
 20
848.8885177500109
 30
0.0
 10
768.090966638176
 20
848.8210888203132
 30
0.0
 10
768.0909655074621
 20
848.8210881421033
 30
0.0
  0
SPLINE
  5
1BB
330
1F
100
AcDbEntity
  8
0
  6
Continuous
 62
     8
370
    18
100
AcDbSpline
210
0.0
220
0.0
230
1.0
 70
     8
 71
     3
 72
     9
 73
     5
 74
     0
 42
0.000000001
 43
0.00000001
 40
0.0
 40
0.0
 40
0.0
 40
0.0
 40
0.084393495020109
 40
1.0
 40
1.0
 40
1.0
 40
1.0
 10
829.1188111438499
 20
848.8616356290308
 30
0.0
 10
828.7745007505292
 20
848.8598310940504
 30
0.0
 10
824.694679275678
 20
848.8384486998267
 30
0.0
 10
820.6146309248671
 20
848.8480450695903
 30
0.0
 10
816.878912114232
 20
848.8568315681699
 30
0.0
  0
SPLINE
  5
1BC
330
1F
100
AcDbEntity
  8
0
  6
Continuous
 62
     8
370
    18
100
AcDbSpline
210
0.0
220
0.0
230
1.0
 70
     8
 71
     3
 72
    14
 73
    10
 74
     0
 42
0.000000001
 43
0.00000001
 40
0.0
 40
0.0
 40
0.0
 40
0.0
 40
0.083473404838491
 40
0.2523701720924904
 40
0.4264211392157402
 40
0.5891168996027649
 40
0.7559016487234997
 40
0.8772249525218093
 40
1.0
 40
1.0
 40
1.0
 40
1.0
 10
896.952341554585
 20
848.9813231806079
 30
0.0
 10
897.8533205408456
 20
848.9975557311083
 30
0.0
 10
900.5773045720979
 20
849.0466325786525
 30
0.0
 10
905.1852179431696
 20
849.1082375885691
 30
0.0
 10
910.4592071194144
 20
849.1903299476619
 30
0.0
 10
915.3841424399643
 20
849.2486878012851
 30
0.0
 10
919.4039738397508
 20
849.272496181872
 30
0.0
 10
922.7272555730508
 20
849.2686270755115
 30
0.0
 10
924.4402628677944
 20
849.2522581003553
 30
0.0
 10
925.3018604609072
 20
849.2440249365856
 30
0.0
  0
LINE
  5
1BD
330
1F
100
AcDbEntity
  8
0
  6
Continuous
 62
     8
370
    18
100
AcDbLine
 10
897.0235387784
 20
850.984557226
 30
0.0
 11
896.9523415546
 21
848.9813231806
 31
0.0
  0
SPLINE
  5
1BE
330
1F
100
AcDbEntity
  8
0
  6
Continuous
 62
     8
370
    18
100
AcDbSpline
210
0.0
220
0.0
230
1.0
 70
     8
 71
     3
 72
    10
 73
     6
 74
     0
 42
0.000000001
 43
0.00000001
 40
0.0
 40
0.0
 40
0.0
 40
0.0
 40
0.0305940752880737
 40
0.884954645256985
 40
1.0
 40
1.0
 40
1.0
 40
1.0
 10
897.0415603879009
 20
898.32699376555
 30
0.0
 10
897.0417725248968
 20
898.2185555233739
 30
0.0
 10
897.0479087332334
 20
895.0819048734141
 30
0.0
 10
897.0883543014771
 20
891.4841184099784
 30
0.0
 10
897.1209478330778
 20
887.9656067395283
 30
0.0
 10
897.124815907648
 20
887.5480433504716
 30
0.0
  0
SPLINE
  5
1BF
330
1F
100
AcDbEntity
  8
0
  6
Continuous
 62
     8
370
    18
100
AcDbSpline
210
0.0
220
0.0
230
1.0
 70
     8
 71
     3
 72
    12
 73
     8
 74
     0
 42
0.000000001
 43
0.00000001
 40
0.0
 40
0.0
 40
0.0
 40
0.0
 40
0.000011396415791
 40
0.016561542624936
 40
0.2254762501766656
 40
0.6569695733823978
 40
1.0
 40
1.0
 40
1.0
 40
1.0
 10
895.833757214818
 20
902.9411512215474
 30
0.0
 10
895.8337699962999
 20
902.9411374128924
 30
0.0
 10
895.8523443501516
 20
902.9210703467024
 30
0.0
 10
896.1009545178213
 20
902.6443713675039
 30
0.0
 10
896.6529144424602
 20
901.7081356734346
 30
0.0
 10
896.9851077600596
 20
900.1331546261854
 30
0.0
 10
897.0242323966318
 20
898.881390271442
 30
0.0
 10
897.0415603879009
 20
898.32699376555
 30
0.0
  0
SPLINE
  5
1C0
330
1F
100
AcDbEntity
  8
0
  6
Continuous
 62
     8
370
    18
100
AcDbSpline
210
0.0
220
0.0
230
1.0
 70
     8
 71
     3
 72
    11
 73
     7
 74
     0
 42
0.000000001
 43
0.00000001
 40
0.0
 40
0.0
 40
0.0
 40
0.0
 40
0.2986044395549571
 40
0.5785107697797409
 40
0.9999675635115337
 40
1.0
 40
1.0
 40
1.0
 40
1.0
 10
894.113096547995
 20
903.4826780951273
 30
0.0
 10
894.2979824740298
 20
903.4768420160326
 30
0.0
 10
894.6561770794121
 20
903.4655353033306
 30
0.0
 10
895.2494845017414
 20
903.2921013550116
 30
0.0
 10
895.6248561805384
 20
903.0863964505132
 30
0.0
 10
895.833741139687
 20
902.9411623983044
 30
0.0
 10
895.833757214818
 20
902.9411512215474
 30
0.0
  0
LINE
  5
1C1
330
1F
100
AcDbEntity
  8
0
  6
Continuous
 62
     8
370
    18
100
AcDbLine
 10
887.0067056847
 20
903.359757175
 30
0.0
 11
894.113096548
 21
903.4826780951
 31
0.0
  0
SPLINE
  5
1C2
330
1F
100
AcDbEntity
  8
0
  6
Continuous
 62
     8
370
    18
100
AcDbSpline
210
0.0
220
0.0
230
1.0
 70
     8
 71
     3
 72
    11
 73
     7
 74
     0
 42
0.000000001
 43
0.00000001
 40
0.0
 40
0.0
 40
0.0
 40
0.0
 40
0.0000403578891936
 40
0.1670896913899636
 40
0.613376518111468
 40
1.0
 40
1.0
 40
1.0
 40
1.0
 10
885.6007340714392
 20
902.9696651736555
 30
0.0
 10
885.6007511445141
 20
902.9696747907766
 30
0.0
 10
885.6714370713202
 20
903.0094915859646
 30
0.0
 10
885.9360144474482
 20
903.1462238279262
 30
0.0
 10
886.4017462430315
 20
903.3174137780528
 30
0.0
 10
886.8149180298116
 20
903.3463332324181
 30
0.0
 10
887.0067056847028
 20
903.3597571749789
 30
0.0
  0
SPLINE
  5
1C3
330
1F
100
AcDbEntity
  8
0
  6
Continuous
 62
     8
370
    18
100
AcDbSpline
210
0.0
220
0.0
230
1.0
 70
     8
 71
     3
 72
    11
 73
     7
 74
     0
 42
0.000000001
 43
0.00000001
 40
0.0
 40
0.0
 40
0.0
 40
0.0
 40
0.5574252101166455
 40
0.8582360298869189
 40
0.9999887157359582
 40
1.0
 40
1.0
 40
1.0
 40
1.0
 10
884.2335225505453
 20
898.3872598453707
 30
0.0
 10
884.2748823895643
 20
899.3006528263302
 30
0.0
 10
884.3385617915578
 20
900.7069522750779
 30
0.0
 10
884.9506328959067
 20
902.2452440822456
 30
0.0
 10
885.4244855928021
 20
902.8120757223184
 30
0.0
 10
885.6007200433609
 20
902.969652630698
 30
0.0
 10
885.6007340714392
 20
902.9696651736555
 30
0.0
  0
SPLINE
  5
1C4
330
1F
100
AcDbEntity
  8
0
  6
Continuous
 62
     8
370
    18
100
AcDbSpline
210
0.0
220
0.0
230
1.0
 70
     8
 71
     3
 72
     9
 73
     5
 74
     0
 42
0.000000001
 43
0.00000001
 40
0.0
 40
0.0
 40
0.0
 40
0.0
 40
0.8892351459142944
 40
1.0
 40
1.0
 40
1.0
 40
1.0
 10
884.115987086354
 20
887.5919011802783
 30
0.0
 10
884.1650495929727
 20
890.81888953663
 30
0.0
 10
884.2202234205522
 20
894.4478378200828
 30
0.0
 10
884.2321963686917
 20
897.9944228698326
 30
0.0
 10
884.2335225505453
 20
898.3872598453707
 30
0.0
  0
LINE
  5
1C5
330
1F
100
AcDbEntity
  8
0
  6
Continuous
 62
     8
370
    18
100
AcDbLine
 10
884.3425369307
 20
848.8568315682
 30
0.0
 11
884.2601173389
 21
850.9142375983
 31
0.0
  0
SPLINE
  5
1C6
330
1F
100
AcDbEntity
  8
0
  6
Continuous
 62
     8
370
    18
100
AcDbSpline
210
0.0
220
0.0
230
1.0
 70
     8
 71
     3
 72
     9
 73
     5
 74
     0
 42
0.000000001
 43
0.00000001
 40
0.0
 40
0.0
 40
0.0
 40
0.0
 40
0.0843934950201034
 40
1.0
 40
1.0
 40
1.0
 40
1.0
 10
872.1026379010603
 20
848.861635629031
 30
0.0
 10
872.4469482943812
 20
848.8598310940505
 30
0.0
 10
876.5267697692326
 20
848.8384486998262
 30
0.0
 10
880.6068181200441
 20
848.84804506959
 30
0.0
 10
884.3425369306794
 20
848.8568315681699
 30
0.0
  0
SPLINE
  5
1C7
330
1F
100
AcDbEntity
  8
0
  6
Continuous
 62
     8
370
    18
100
AcDbSpline
210
0.0
220
0.0
230
1.0
 70
     8
 71
     3
 72
    12
 73
     8
 74
     0
 42
0.000000001
 43
0.00000001
 40
0.0
 40
0.0
 40
0.0
 40
0.0
 40
0.3429907427795721
 40
0.6931111831538834
 40
0.8460382371952909
 40
0.9999906400284373
 40
1.0
 40
1.0
 40
1.0
 40
1.0
 10
937.0195671897663
 20
892.2610655177682
 30
0.0
 10
937.060211607251
 20
892.6505942347985
 30
0.0
 10
937.1423453116859
 20
893.4377487444084
 30
0.0
 10
937.2255908940988
 20
894.1125910792649
 30
0.0
 10
937.2756778784842
 20
894.476058497553
 30
0.0
 10
937.2941133604347
 20
894.5924917147066
 30
0.0
 10
937.3019682427623
 20
894.6367469102045
 30
0.0
 10
937.301968720293
 20
894.6367496006607
 30
0.0
  0
SPLINE
  5
1C8
330
1F
100
AcDbEntity
  8
0
  6
Continuous
 62
     8
370
    18
100
AcDbSpline
210
0.0
220
0.0
230
1.0
 70
     8
 71
     3
 72
    20
 73
    16
 74
     0
 42
0.000000001
 43
0.00000001
 40
0.0
 40
0.0
 40
0.0
 40
0.0
 40
0.0777495206401191
 40
0.1580444463721858
 40
0.2279673988375351
 40
0.2994604618770919
 40
0.3760581917562237
 40
0.4543933132980232
 40
0.5398335171527764
 40
0.6277318368777236
 40
0.7140713710304719
 40
0.8026163874373404
 40
0.8879068463690993
 40
0.9758355728947908
 40
1.0
 40
1.0
 40
1.0
 40
1.0
 10
925.3018604609072
 20
849.2440249365856
 30
0.0
 10
925.2972298837017
 20
850.4088698742094
 30
0.0
 10
925.2878171309956
 20
852.7766950615612
 30
0.0
 10
925.7696829110415
 20
856.5957880739928
 30
0.0
 10
926.5388910551762
 20
860.4360202845576
 30
0.0
 10
927.5282150934711
 20
864.2847355018671
 30
0.0
 10
928.700900983544
 20
868.2830944290861
 30
0.0
 10
929.9972748166512
 20
872.4636088967926
 30
0.0
 10
931.2851803240217
 20
876.6872546003275
 30
0.0
 10
932.4981337592836
 20
880.7630388237218
 30
0.0
 10
933.666168038638
 20
884.4547175391202
 30
0.0
 10
934.7897921681994
 20
887.6250250848833
 30
0.0
 10
935.9014447696633
 20
890.1847501530982
 30
0.0
 10
936.6299344418011
 20
891.5991237046804
 30
0.0
 10
936.9504682663512
 20
892.1436742900372
 30
0.0
 10
937.0195671897663
 20
892.2610655177682
 30
0.0
  0
SPLINE
  5
1C9
330
1F
100
AcDbEntity
  8
0
  6
Continuous
 62
     8
370
    18
100
AcDbSpline
210
0.0
220
0.0
230
1.0
 70
     8
 71
     3
 72
     9
 73
     5
 74
     0
 42
0.000000001
 43
0.00000001
 40
0.0
 40
0.0
 40
0.0
 40
0.0
 40
0.3531288107769709
 40
1.0
 40
1.0
 40
1.0
 40
1.0
 10
815.0717103072537
 20
898.6036875822016
 30
0.0
 10
815.0718337460788
 20
897.3386947723997
 30
0.0
 10
815.072183303581
 20
893.7564529071193
 30
0.0
 10
815.0708784715567
 20
890.105801582363
 30
0.0
 10
815.0700344133132
 20
887.7443004184793
 30
0.0
  0
LINE
  5
1CA
330
1F
100
AcDbEntity
  8
0
  6
Continuous
 62
     8
370
    18
100
AcDbLine
 10
813.8047311724
 20
898.7526130802
 30
0.0
 11
813.7183980203
 21
887.8929140455
 31
0.0
  0
ARC
  5
1CB
330
1F
100
AcDbEntity
  8
0
  6
Continuous
 62
     8
370
    18
100
AcDbCircle
 10
813.8520177951
 20
893.6910466476
 30
0.0
 40
5.061787310433392
100
AcDbArc
 50
76.056743273
 51
90.5352582305
  0
LINE
  5
1CC
330
1F
100
AcDbEntity
  8
0
  6
Continuous
 62
     8
370
    18
100
AcDbLine
 10
887.4167178725
 20
898.7526130802
 30
0.0
 11
887.5030510247
 21
887.8929140455
 31
0.0
  0
SPLINE
  5
1CD
330
1F
100
AcDbEntity
  8
0
  6
Continuous
 62
     8
370
    18
100
AcDbSpline
210
0.0
220
0.0
230
1.0
 70
     8
 71
     3
 72
     9
 73
     5
 74
     0
 42
0.000000001
 43
0.00000001
 40
0.0
 40
0.0
 40
0.0
 40
0.0
 40
0.3531288107769709
 40
1.0
 40
1.0
 40
1.0
 40
1.0
 10
886.1497387376564
 20
898.6036875822012
 30
0.0
 10
886.1496152988313
 20
897.3386947723992
 30
0.0
 10
886.149265741329
 20
893.7564529071188
 30
0.0
 10
886.1505705733534
 20
890.1058015823627
 30
0.0
 10
886.1514146315968
 20
887.744300418479
 30
0.0
  0
ARC
  5
1CE
330
1F
100
AcDbEntity
  8
0
  6
Continuous
 62
     8
370
    18
100
AcDbCircle
 10
887.3694312498
 20
893.6910466476
 30
0.0
 40
5.061787310432581
100
AcDbArc
 50
89.4647417695
 51
103.943256727
  0
SPLINE
  5
1CF
330
1F
100
AcDbEntity
  8
0
  6
Continuous
 62
     8
370
    18
100
AcDbSpline
210
0.0
220
0.0
230
1.0
 70
     8
 71
     3
 72
    10
 73
     6
 74
     0
 42
0.000000001
 43
0.00000001
 40
0.0
 40
0.0
 40
0.0
 40
0.0
 40
0.0049102993503908
 40
0.1151643441716947
 40
1.0
 40
1.0
 40
1.0
 40
1.0
 10
806.1461562132008
 20
887.7411817430085
 30
0.0
 10
806.1461341153456
 20
887.759117305094
 30
0.0
 10
806.1456158404268
 20
888.1797713421589
 30
0.0
 10
806.1403120169741
 20
891.8285609673327
 30
0.0
 10
806.1378981133888
 20
895.4025032575581
 30
0.0
 10
806.135751665726
 20
898.5804595445136
 30
0.0
  0
ARC
  5
1D0
330
1F
100
AcDbEntity
  8
0
  6
Continuous
 62
     8
370
    18
100
AcDbCircle
 10
807.4239919552
 20
893.8581064961
 30
0.0
 40
4.894913825361823
100
AcDbArc
 50
89.2609157049
 51
105.2587981172
  0
SPLINE
  5
1D1
330
1F
100
AcDbEntity
  8
0
  6
Continuous
 62
     8
370
    18
100
AcDbSpline
210
0.0
220
0.0
230
1.0
 70
     8
 71
     3
 72
     9
 73
     5
 74
     0
 42
0.000000001
 43
0.00000001
 40
0.0
 40
0.0
 40
0.0
 40
0.0
 40
0.8536363424240554
 40
1.0
 40
1.0
 40
1.0
 40
1.0
 10
807.5373112658349
 20
887.8929140455227
 30
0.0
 10
807.5166635133207
 20
891.0039949278224
 30
0.0
 10
807.4924755172291
 20
894.6484987143709
 30
0.0
 10
807.4878141732036
 20
898.2286142725764
 30
0.0
 10
807.4871319218427
 20
898.7526130802197
 30
0.0
  0
SPLINE
  5
1D2
330
1F
100
AcDbEntity
  8
0
  6
Continuous
 62
     8
370
    18
100
AcDbSpline
210
0.0
220
0.0
230
1.0
 70
     8
 71
     3
 72
     9
 73
     5
 74
     0
 42
0.000000001
 43
0.00000001
 40
0.0
 40
0.0
 40
0.0
 40
0.0
 40
0.8536363424240554
 40
1.0
 40
1.0
 40
1.0
 40
1.0
 10
893.6841377790753
 20
887.8929140455225
 30
0.0
 10
893.7047855315894
 20
891.0039949278222
 30
0.0
 10
893.728973527681
 20
894.6484987143705
 30
0.0
 10
893.7336348717066
 20
898.2286142725758
 30
0.0
 10
893.7343171230673
 20
898.7526130802194
 30
0.0
  0
ARC
  5
1D3
330
1F
100
AcDbEntity
  8
0
  6
Continuous
 62
     8
370
    18
100
AcDbCircle
 10
893.7974570897
 20
893.858106496
 30
0.0
 40
4.894913825381352
100
AcDbArc
 50
74.7412018829
 51
90.739084295
  0
SPLINE
  5
1D4
330
1F
100
AcDbEntity
  8
0
  6
Continuous
 62
     8
370
    18
100
AcDbSpline
210
0.0
220
0.0
230
1.0
 70
     8
 71
     3
 72
    10
 73
     6
 74
     0
 42
0.000000001
 43
0.00000001
 40
0.0
 40
0.0
 40
0.0
 40
0.0
 40
0.0049102993503908
 40
0.1151643441716947
 40
1.0
 40
1.0
 40
1.0
 40
1.0
 10
895.0752928317094
 20
887.741181743008
 30
0.0
 10
895.0753149295645
 20
887.7591173050936
 30
0.0
 10
895.0758332044834
 20
888.1797713421587
 30
0.0
 10
895.0811370279358
 20
891.8285609673322
 30
0.0
 10
895.0835509315214
 20
895.4025032575577
 30
0.0
 10
895.085697379184
 20
898.5804595445134
 30
0.0
  0
LINE
  5
1D5
330
1F
100
AcDbEntity
  8
0
  6
Continuous
 62
     8
370
    18
100
AcDbLine
 10
813.8047311724
 20
898.7526130802
 30
0.0
 11
807.4871319218
 21
898.7526130802
 31
0.0
  0
LINE
  5
1D6
330
1F
100
AcDbEntity
  8
0
  6
Continuous
 62
     8
370
    18
100
AcDbLine
 10
887.4167178725
 20
898.7526130802
 30
0.0
 11
893.7343171231
 21
898.7526130802
 31
0.0
  0
ARC
  5
1D7
330
1F
100
AcDbEntity
  8
0
  6
Continuous
 62
     8
370
    18
100
AcDbCircle
 10
816.8817572792
 20
906.0384027911
 30
0.0
 40
7.651879525863036
100
AcDbArc
 50
256.3170319392
 51
270.7949998579
  0
ARC
  5
1D8
330
1F
100
AcDbEntity
  8
0
  6
Continuous
 62
     8
370
    18
100
AcDbCircle
 10
884.3396917657
 20
906.0384027911
 30
0.0
 40
7.65187952586905
100
AcDbArc
 50
269.2050001421
 51
283.6829680608
  0
ARC
  5
1D9
330
1F
100
AcDbEntity
  8
0
  6
Continuous
 62
     8
370
    18
100
AcDbCircle
 10
804.2287712996
 20
905.6227113971
 30
0.0
 40
7.295881391073435
100
AcDbArc
 50
269.6161135418
 51
285.1518230015
  0
ARC
  5
1DA
330
1F
100
AcDbEntity
  8
0
  6
Continuous
 62
     8
370
    18
100
AcDbCircle
 10
896.9926777453
 20
905.6227113971
 30
0.0
 40
7.295881391047784
100
AcDbArc
 50
254.8481769985
 51
270.3838864582
  0
LINE
  5
1DB
330
1F
100
AcDbEntity
  8
0
  6
Continuous
 62
     8
370
    18
100
AcDbLine
 10
804.2691074903
 20
848.9813231806
 30
0.0
 11
804.2828944415
 21
848.8242113211
 31
0.0
  0
SPLINE
  5
1DC
330
1F
100
AcDbEntity
  8
0
  6
Continuous
 62
     8
370
    18
100
AcDbSpline
210
0.0
220
0.0
230
1.0
 70
     8
 71
     3
 72
    14
 73
    10
 74
     0
 42
0.000000001
 43
0.00000001
 40
0.0
 40
0.0
 40
0.0
 40
0.0
 40
0.213507205401368
 40
0.6517504153255504
 40
0.8731400298126194
 40
0.9340362681777978
 40
0.960743100577066
 40
0.9801118651181863
 40
1.0
 40
1.0
 40
1.0
 40
1.0
 10
804.2828944415444
 20
848.8242113210933
 30
0.0
 10
804.3391416927161
 20
848.2303424525647
 30
0.0
 10
804.510841609087
 20
846.4175030170759
 30
0.0
 10
804.8683275820559
 20
844.363479054994
 30
0.0
 10
805.3200514665126
 20
843.0320226623646
 30
0.0
 10
805.8190905483202
 20
842.5814520919038
 30
0.0
 10
806.089292881347
 20
842.4725727830572
 30
0.0
 10
806.2893611114021
 20
842.4331268445915
 30
0.0
 10
806.4152141098352
 20
842.4325071202537
 30
0.0
 10
806.4789731291393
 20
842.432193158596
 30
0.0
  0
LINE
  5
1DD
330
1F
100
AcDbEntity
  8
0
  6
Continuous
 62
     8
370
    18
100
AcDbLine
 10
806.4789731291
 20
842.4321931586
 30
0.0
 11
814.7723227192
 21
842.6507112
 31
0.0
  0
SPLINE
  5
1DE
330
1F
100
AcDbEntity
  8
0
  6
Continuous
 62
     8
370
    18
100
AcDbSpline
210
0.0
220
0.0
230
1.0
 70
     8
 71
     3
 72
    16
 73
    12
 74
     0
 42
0.000000001
 43
0.00000001
 40
0.0
 40
0.0
 40
0.0
 40
0.0
 40
0.0145165189494737
 40
0.0410735504097991
 40
0.0660449149745874
 40
0.1244471088434497
 40
0.1776973916031335
 40
0.2535931192178192
 40
0.3633556422017863
 40
0.5223716192680166
 40
1.0
 40
1.0
 40
1.0
 40
1.0
 10
814.7723227192308
 20
842.6507112000482
 30
0.0
 10
814.8149850128771
 20
842.6527783497514
 30
0.0
 10
814.9356952103275
 20
842.6586272159864
 30
0.0
 10
815.1148564900249
 20
842.703882596453
 30
0.0
 10
815.3541756567363
 20
842.8179404515733
 30
0.0
 10
815.5617503967478
 20
843.0063155634829
 30
0.0
 10
815.7670442014377
 20
843.2936983837167
 30
0.0
 10
815.9641102627432
 20
843.6932429770047
 30
0.0
 10
816.179089506606
 20
844.3222380642447
 30
0.0
 10
816.5375346574656
 20
845.8139080538496
 30
0.0
 10
816.7183312306856
 20
847.4088900000302
 30
0.0
 10
816.8539698701414
 20
848.6054900089983
 30
0.0
  0
LINE
  5
1DF
330
1F
100
AcDbEntity
  8
0
  6
Continuous
 62
     8
370
    18
100
AcDbLine
 10
816.8539698701
 20
848.605490009
 30
0.0
 11
816.8789121142
 21
848.8568315682
 31
0.0
  0
SPLINE
  5
1E0
330
1F
100
AcDbEntity
  8
0
  6
Continuous
 62
     8
370
    18
100
AcDbSpline
210
0.0
220
0.0
230
1.0
 70
     8
 71
     3
 72
     9
 73
     5
 74
     0
 42
0.000000001
 43
0.00000001
 40
0.0
 40
0.0
 40
0.0
 40
0.0
 40
0.0094533958096462
 40
1.0
 40
1.0
 40
1.0
 40
1.0
 10
850.6107245224554
 20
840.5350816168898
 30
0.0
 10
850.6015164307771
 20
840.5350816398673
 30
0.0
 10
849.6274652153685
 20
840.5350840704672
 30
0.0
 10
848.6556066268912
 20
840.6604069716891
 30
0.0
 10
847.6929354023216
 20
840.7845451459218
 30
0.0
  0
SPLINE
  5
1E1
330
1F
100
AcDbEntity
  8
0
  6
Continuous
 62
     8
370
    18
100
AcDbSpline
210
0.0
220
0.0
230
1.0
 70
     8
 71
     3
 72
    12
 73
     8
 74
     0
 42
0.000000001
 43
0.00000001
 40
0.0
 40
0.0
 40
0.0
 40
0.0
 40
0.0986927005378169
 40
0.3626715646535013
 40
0.6320534788937674
 40
0.81409974645279
 40
1.0
 40
1.0
 40
1.0
 40
1.0
 10
846.6973688515149
 20
840.8704732237903
 30
0.0
 10
846.0830338775943
 20
840.9114532925702
 30
0.0
 10
843.8255029254674
 20
841.0620450342392
 30
0.0
 10
839.9444294903018
 20
842.1702003165882
 30
0.0
 10
835.6671713803948
 20
843.9862336612439
 30
0.0
 10
832.0134515804695
 20
846.2458704857065
 30
0.0
 10
830.090405483155
 20
847.983646579319
 30
0.0
 10
829.1188111438499
 20
848.8616356290308
 30
0.0
  0
LINE
  5
1E2
330
1F
100
AcDbEntity
  8
0
  6
Continuous
 62
     8
370
    18
100
AcDbLine
 10
806.1359792783
 20
848.6229365268
 30
0.0
 11
806.1364317302
 21
848.7864737035
 31
0.0
  0
LINE
  5
1E3
330
1F
100
AcDbEntity
  8
0
  6
Continuous
 62
     8
370
    18
100
AcDbLine
 10
806.1364317302
 20
848.7864737035
 30
0.0
 11
806.1371237105
 21
850.6764254634
 31
0.0
  0
LINE
  5
1E4
330
1F
100
AcDbEntity
  8
0
  6
Continuous
 62
     8
370
    18
100
AcDbLine
 10
807.4175419499
 20
848.3047207409
 30
0.0
 11
807.479722043
 21
850.4753538366
 31
0.0
  0
ARC
  5
1E5
330
1F
100
AcDbEntity
  8
0
  6
Continuous
 62
     8
370
    18
100
AcDbCircle
 10
807.5490858948
 20
851.5742439365
 30
0.0
 40
3.272168353913632
100
AcDbArc
 50
244.4145746888
 51
267.6960401779
  0
LINE
  5
1E6
330
1F
100
AcDbEntity
  8
0
  6
Continuous
 62
     8
370
    18
100
AcDbLine
 10
814.7578334156
 20
842.7941701737
 30
0.0
 11
806.4453755988
 21
842.5756521323
 31
0.0
  0
SPLINE
  5
1E7
330
1F
100
AcDbEntity
  8
0
  6
Continuous
 62
     8
370
    18
100
AcDbSpline
210
0.0
220
0.0
230
1.0
 70
     8
 71
     3
 72
    10
 73
     6
 74
     0
 42
0.000000001
 43
0.00000001
 40
0.0
 40
0.0
 40
0.0
 40
0.0
 40
0.4454896378197732
 40
0.7187778752024843
 40
1.0
 40
1.0
 40
1.0
 40
1.0
 10
806.4453755988076
 20
842.575652132294
 30
0.0
 10
806.6704364336207
 20
843.1873128167724
 30
0.0
 10
807.0335621606972
 20
844.1742003441367
 30
0.0
 10
807.2686266970919
 20
846.2509122130836
 30
0.0
 10
807.3674322982072
 20
847.6136187350126
 30
0.0
 10
807.4175419498615
 20
848.3047207408714
 30
0.0
  0
LINE
  5
1E8
330
1F
100
AcDbEntity
  8
0
  6
Continuous
 62
     8
370
    18
100
AcDbLine
 10
813.8227245364
 20
850.4753538366
 30
0.0
 11
813.8900509117
 21
848.1774403064
 31
0.0
  0
SPLINE
  5
1E9
330
1F
100
AcDbEntity
  8
0
  6
Continuous
 62
     8
370
    18
100
AcDbSpline
210
0.0
220
0.0
230
1.0
 70
     8
 71
     3
 72
    10
 73
     6
 74
     0
 42
0.000000001
 43
0.00000001
 40
0.0
 40
0.0
 40
0.0
 40
0.0
 40
0.5085358280598782
 40
0.7966056673011326
 40
1.0
 40
1.0
 40
1.0
 40
1.0
 10
813.8900509117366
 20
848.1774403064072
 30
0.0
 10
813.9790934764077
 20
847.052618914921
 30
0.0
 10
814.1185759036708
 20
845.2906209479777
 30
0.0
 10
814.420498915174
 20
843.658850632888
 30
0.0
 10
814.6590911174962
 20
843.047273652815
 30
0.0
 10
814.7578334156111
 20
842.7941701737457
 30
0.0
  0
LINE
  5
1EA
330
1F
100
AcDbEntity
  8
0
  6
Continuous
 62
     8
370
    18
100
AcDbLine
 10
815.0713298172
 20
850.6444445466
 30
0.0
 11
815.0694735112
 21
848.711075354
 31
0.0
  0
LINE
  5
1EB
330
1F
100
AcDbEntity
  8
0
  6
Continuous
 62
     8
370
    18
100
AcDbLine
 10
815.0694735112
 20
848.711075354
 30
0.0
 11
815.0692787885
 21
848.4517644726
 31
0.0
  0
ARC
  5
1EC
330
1F
100
AcDbEntity
  8
0
  6
Continuous
 62
     8
370
    18
100
AcDbCircle
 10
813.7420890347
 20
851.4851942296
 30
0.0
 40
3.311061571938263
100
AcDbArc
 50
272.5612375306
 51
293.6303960838
  0
LINE
  5
1ED
330
1F
100
AcDbEntity
  8
0
  6
Continuous
 62
     8
370
    18
100
AcDbLine
 10
887.3987245085
 20
850.4753538366
 30
0.0
 11
887.3313981332
 21
848.1774403064
 31
0.0
  0
LINE
  5
1EE
330
1F
100
AcDbEntity
  8
0
  6
Continuous
 62
     8
370
    18
100
AcDbLine
 10
893.803907095
 20
848.3047207409
 30
0.0
 11
893.7417270019
 21
850.4753538366
 31
0.0
  0
SPLINE
  5
1EF
330
1F
100
AcDbEntity
  8
0
  6
Continuous
 62
     8
370
    18
100
AcDbSpline
210
0.0
220
0.0
230
1.0
 70
     8
 71
     3
 72
    10
 73
     6
 74
     0
 42
0.000000001
 43
0.00000001
 40
0.0
 40
0.0
 40
0.0
 40
0.0
 40
0.4454896378197852
 40
0.7187778752024904
 40
1.0
 40
1.0
 40
1.0
 40
1.0
 10
894.7760734461029
 20
842.5756521322933
 30
0.0
 10
894.5510126112897
 20
843.1873128167719
 30
0.0
 10
894.1878868842133
 20
844.1742003441364
 30
0.0
 10
893.9528223478187
 20
846.2509122130832
 30
0.0
 10
893.8540167467033
 20
847.6136187350121
 30
0.0
 10
893.803907095049
 20
848.3047207408711
 30
0.0
  0
LINE
  5
1F0
330
1F
100
AcDbEntity
  8
0
  6
Continuous
 62
     8
370
    18
100
AcDbLine
 10
886.4636156293
 20
842.7941701737
 30
0.0
 11
894.7760734461
 21
842.5756521323
 31
0.0
  0
SPLINE
  5
1F1
330
1F
100
AcDbEntity
  8
0
  6
Continuous
 62
     8
370
    18
100
AcDbSpline
210
0.0
220
0.0
230
1.0
 70
     8
 71
     3
 72
    10
 73
     6
 74
     0
 42
0.000000001
 43
0.00000001
 40
0.0
 40
0.0
 40
0.0
 40
0.0
 40
0.508535828059859
 40
0.7966056673011402
 40
0.9999999999999999
 40
0.9999999999999999
 40
0.9999999999999999
 40
0.9999999999999999
 10
887.3313981331739
 20
848.1774403064072
 30
0.0
 10
887.2423555685028
 20
847.052618914921
 30
0.0
 10
887.1028731412396
 20
845.2906209479775
 30
0.0
 10
886.8009501297364
 20
843.6588506328881
 30
0.0
 10
886.5623579274142
 20
843.047273652815
 30
0.0
 10
886.4636156292993
 20
842.7941701737457
 30
0.0
  0
ARC
  5
1F2
330
1F
100
AcDbEntity
  8
0
  6
Continuous
 62
     8
370
    18
100
AcDbCircle
 10
887.4793600102
 20
851.4851942296
 30
0.0
 40
3.311061571938272
100
AcDbArc
 50
246.3696039162
 51
267.4387624694
  0
LINE
  5
1F3
330
1F
100
AcDbEntity
  8
0
  6
Continuous
 62
     8
370
    18
100
AcDbLine
 10
886.1519755338
 20
848.711075354
 30
0.0
 11
886.1521702564
 21
848.4517644726
 31
0.0
  0
LINE
  5
1F4
330
1F
100
AcDbEntity
  8
0
  6
Continuous
 62
     8
370
    18
100
AcDbLine
 10
886.1501192277
 20
850.6444445466
 30
0.0
 11
886.1519755338
 21
848.711075354
 31
0.0
  0
LINE
  5
1F5
330
1F
100
AcDbEntity
  8
0
  6
Continuous
 62
     8
370
    18
100
AcDbLine
 10
895.0850173147
 20
848.7864737035
 30
0.0
 11
895.0843253344
 21
850.6764254634
 31
0.0
  0
LINE
  5
1F6
330
1F
100
AcDbEntity
  8
0
  6
Continuous
 62
     8
370
    18
100
AcDbLine
 10
895.0854697666
 20
848.6229365268
 30
0.0
 11
895.0850173147
 21
848.7864737035
 31
0.0
  0
ARC
  5
1F7
330
1F
100
AcDbEntity
  8
0
  6
Continuous
 62
     8
370
    18
100
AcDbCircle
 10
893.6723631502
 20
851.5742439365
 30
0.0
 40
3.272168353910474
100
AcDbArc
 50
272.3039598221
 51
295.5854253112
  0
LINE
  5
1F8
330
1F
100
AcDbEntity
  8
0
  6
Continuous
 62
     8
370
    18
100
AcDbLine
 10
884.3674791748
 20
848.605490009
 30
0.0
 11
884.3425369307
 21
848.8568315682
 31
0.0
  0
SPLINE
  5
1F9
330
1F
100
AcDbEntity
  8
0
  6
Continuous
 62
     8
370
    18
100
AcDbSpline
210
0.0
220
0.0
230
1.0
 70
     8
 71
     3
 72
    16
 73
    12
 74
     0
 42
0.000000001
 43
0.00000001
 40
0.0
 40
0.0
 40
0.0
 40
0.0
 40
0.0145165189495136
 40
0.0410735504098396
 40
0.0660449149746284
 40
0.124447108843492
 40
0.177697391603177
 40
0.2535931192178822
 40
0.3633556422018506
 40
0.5223716192680844
 40
1.0
 40
1.0
 40
1.0
 40
1.0
 10
886.4491263256801
 20
842.6507112000482
 30
0.0
 10
886.4064640320337
 20
842.6527783497514
 30
0.0
 10
886.2857538345833
 20
842.6586272159864
 30
0.0
 10
886.1065925548857
 20
842.703882596453
 30
0.0
 10
885.8672733881742
 20
842.8179404515733
 30
0.0
 10
885.6596986481626
 20
843.0063155634829
 30
0.0
 10
885.4544048434727
 20
843.2936983837167
 30
0.0
 10
885.2573387821672
 20
843.6932429770047
 30
0.0
 10
885.0423595383047
 20
844.3222380642447
 30
0.0
 10
884.6839143874427
 20
845.8139080538493
 30
0.0
 10
884.50311781424
 20
847.4088900000312
 30
0.0
 10
884.3674791747972
 20
848.6054900090005
 30
0.0
  0
LINE
  5
1FA
330
1F
100
AcDbEntity
  8
0
  6
Continuous
 62
     8
370
    18
100
AcDbLine
 10
894.7424759158
 20
842.4321931586
 30
0.0
 11
886.4491263257
 21
842.6507112
 31
0.0
  0
SPLINE
  5
1FB
330
1F
100
AcDbEntity
  8
0
  6
Continuous
 62
     8
370
    18
100
AcDbSpline
210
0.0
220
0.0
230
1.0
 70
     8
 71
     3
 72
    14
 73
    10
 74
     0
 42
0.000000001
 43
0.00000001
 40
0.0
 40
0.0
 40
0.0
 40
0.0
 40
0.2135072054014728
 40
0.6517504153255839
 40
0.8731400298126395
 40
0.9340362681778088
 40
0.9607431005770721
 40
0.9801118651181895
 40
0.9999999999999999
 40
0.9999999999999999
 40
0.9999999999999999
 40
0.9999999999999999
 10
896.9385546033465
 20
848.8242113210956
 30
0.0
 10
896.8823073521827
 20
848.2303424525659
 30
0.0
 10
896.7106074358354
 20
846.4175030170751
 30
0.0
 10
896.3531214628525
 20
844.363479054994
 30
0.0
 10
895.9013975783979
 20
843.0320226623638
 30
0.0
 10
895.4023584965903
 20
842.581452091903
 30
0.0
 10
895.1321561635635
 20
842.4725727830565
 30
0.0
 10
894.9320879335085
 20
842.4331268445908
 30
0.0
 10
894.8062349350752
 20
842.4325071202529
 30
0.0
 10
894.7424759157713
 20
842.4321931585953
 30
0.0
  0
LINE
  5
1FC
330
1F
100
AcDbEntity
  8
0
  6
Continuous
 62
     8
370
    18
100
AcDbLine
 10
896.9523415546
 20
848.9813231806
 30
0.0
 11
896.9385546033
 21
848.8242113211
 31
0.0
  0
SPLINE
  5
1FD
330
1F
100
AcDbEntity
  8
0
  6
Continuous
 62
     8
370
    18
100
AcDbSpline
210
0.0
220
0.0
230
1.0
 70
     8
 71
     3
 72
    15
 73
    11
 74
     0
 42
0.000000001
 43
0.00000001
 40
0.0
 40
0.0
 40
0.0
 40
0.0
 40
0.0014239395057858
 40
0.1351061085576233
 40
0.2892216052154409
 40
0.4462432513905997
 40
0.5840152296264982
 40
0.724808848565421
 40
0.8605044118101057
 40
1.0
 40
1.0
 40
1.0
 40
1.0
 10
919.6575069295274
 20
840.5350816168896
 30
0.0
 10
919.663006997442
 20
840.5350845363527
 30
0.0
 10
920.1848639792485
 20
840.5353615406074
 30
0.0
 10
921.2348941737761
 20
840.6217159791988
 30
0.0
 10
922.6291379073961
 20
841.0875286188681
 30
0.0
 10
923.7802345010166
 20
841.9780679380704
 30
0.0
 10
924.6367662855582
 20
843.2618290131882
 30
0.0
 10
925.1801118958264
 20
844.8778494019662
 30
0.0
 10
925.4554008692245
 20
846.8583981177363
 30
0.0
 10
925.353509591498
 20
848.4415290173808
 30
0.0
 10
925.3018604609072
 20
849.2440249365856
 30
0.0
  0
SPLINE
  5
1FE
330
1F
100
AcDbEntity
  8
0
  6
Continuous
 62
     8
370
    18
100
AcDbSpline
210
0.0
220
0.0
230
1.0
 70
     8
 71
     3
 72
    12
 73
     8
 74
     0
 42
0.000000001
 43
0.00000001
 40
0.0
 40
0.0
 40
0.0
 40
0.0
 40
0.1729070209294511
 40
0.3500592529377022
 40
0.6008939024631498
 40
0.8574899875493556
 40
1.0
 40
1.0
 40
1.0
 40
1.0
 10
872.1026379010603
 20
848.861635629031
 30
0.0
 10
871.1534125286342
 20
848.0021718566804
 30
0.0
 10
869.2316564139616
 20
846.2621427678745
 30
0.0
 10
865.6117170959401
 20
844.0188310197428
 30
0.0
 10
861.3131187542981
 20
842.1716947063171
 30
0.0
 10
857.1159952024569
 20
841.0034378880612
 30
0.0
 10
854.5037522884228
 20
840.8448417761989
 30
0.0
 10
853.5709908685881
 20
840.7882113863964
 30
0.0
  0
SPLINE
  5
1FF
330
1F
100
AcDbEntity
  8
0
  6
Continuous
 62
     8
370
    18
100
AcDbSpline
210
0.0
220
0.0
230
1.0
 70
     8
 71
     3
 72
     9
 73
     5
 74
     0
 42
0.000000001
 43
0.00000001
 40
0.0
 40
0.0
 40
0.0
 40
0.0
 40
0.9809099457843126
 40
0.9999999999999999
 40
0.9999999999999999
 40
0.9999999999999999
 40
0.9999999999999999
 10
852.0556347685463
 20
840.6574198919882
 30
0.0
 10
851.5835542891716
 20
840.5967402526222
 30
0.0
 10
851.1022863793053
 20
840.5348796917964
 30
0.0
 10
850.6199326807126
 20
840.535077834338
 30
0.0
 10
850.6107245224554
 20
840.5350816168898
 30
0.0
  0
ARC
  5
200
330
1F
100
AcDbEntity
  8
0
  6
Continuous
 62
     8
370
    18
100
AcDbCircle
 10
816.4216213192
 20
843.2295116395
 30
0.0
 40
5.645869680606446
100
AcDbArc
 50
85.3542029002
 51
103.8566348578
  0
ARC
  5
201
330
1F
100
AcDbEntity
  8
0
  6
Continuous
 62
     8
370
    18
100
AcDbCircle
 10
884.7998277257
 20
843.2295116395
 30
0.0
 40
5.645869680600635
100
AcDbArc
 50
76.1433651422
 51
94.6457970998
  0
ARC
  5
202
330
1F
100
AcDbEntity
  8
0
  6
Continuous
 62
     8
370
    18
100
AcDbCircle
 10
804.6371870791
 20
843.4636838946
 30
0.0
 40
5.529902881126536
100
AcDbArc
 50
74.2693192234
 51
93.8165246585
  0
ARC
  5
203
330
1F
100
AcDbEntity
  8
0
  6
Continuous
 62
     8
370
    18
100
AcDbCircle
 10
896.5842619658
 20
843.4636838945
 30
0.0
 40
5.529902881132201
100
AcDbArc
 50
86.1834753415
 51
105.7306807766
  0
SPLINE
  5
204
330
1F
100
AcDbEntity
  8
0
  6
Continuous
 62
     8
370
    18
100
AcDbSpline
210
0.0
220
0.0
230
1.0
 70
     8
 71
     3
 72
    15
 73
    11
 74
     0
 42
0.000000001
 43
0.00000001
 40
0.0
 40
0.0
 40
0.0
 40
0.0
 40
0.0247383799946503
 40
0.0492201071029635
 40
0.0751567027976501
 40
0.118695396431137
 40
0.2418825692051537
 40
0.4816368506398208
 40
0.8380569172748068
 40
1.0
 40
1.0
 40
1.0
 40
1.0
 10
814.1929520845166
 20
902.5987526820155
 30
0.0
 10
814.2330244060873
 20
902.5996523231264
 30
0.0
 10
814.312753311537
 20
902.6014422718556
 30
0.0
 10
814.4272652411474
 20
902.5610612448675
 30
0.0
 10
814.5464751367217
 20
902.4821976890014
 30
0.0
 10
814.7352986086581
 20
902.2722610131801
 30
0.0
 10
814.9591054920452
 20
901.7365366843632
 30
0.0
 10
815.0541439111554
 20
900.7327425050062
 30
0.0
 10
815.0702478637334
 20
899.6307973257291
 30
0.0
 10
815.0713621807764
 20
898.8481852956123
 30
0.0
 10
815.0717103072537
 20
898.6036875822016
 30
0.0
  0
SPLINE
  5
205
330
1F
100
AcDbEntity
  8
0
  6
Continuous
 62
     8
370
    18
100
AcDbSpline
210
0.0
220
0.0
230
1.0
 70
     8
 71
     3
 72
     9
 73
     5
 74
     0
 42
0.000000001
 43
0.00000001
 40
0.0
 40
0.0
 40
0.0
 40
0.0
 40
0.3204572925054245
 40
1.0
 40
1.0
 40
1.0
 40
1.0
 10
814.1929520845166
 20
902.5987526820155
 30
0.0
 10
814.1177639188077
 20
902.2437523229283
 30
0.0
 10
813.8831361931559
 20
901.1359592803312
 30
0.0
 10
813.8364538310929
 20
899.7169145668647
 30
0.0
 10
813.8047311723843
 20
898.7526130802197
 30
0.0
  0
SPLINE
  5
206
330
1F
100
AcDbEntity
  8
0
  6
Continuous
 62
     8
370
    18
100
AcDbSpline
210
0.0
220
0.0
230
1.0
 70
     8
 71
     3
 72
    15
 73
    11
 74
     0
 42
0.000000001
 43
0.00000001
 40
0.0
 40
0.0
 40
0.0
 40
0.0
 40
0.0247383799946503
 40
0.0492201071029635
 40
0.0751567027976501
 40
0.118695396431137
 40
0.2418825692051537
 40
0.4816368506398208
 40
0.8380569172748068
 40
1.0
 40
1.0
 40
1.0
 40
1.0
 10
887.0284969603933
 20
902.598752682015
 30
0.0
 10
886.9884246388228
 20
902.599652323126
 30
0.0
 10
886.9086957333732
 20
902.6014422718553
 30
0.0
 10
886.7941838037627
 20
902.5610612448669
 30
0.0
 10
886.6749739081885
 20
902.482197689001
 30
0.0
 10
886.486150436252
 20
902.2722610131799
 30
0.0
 10
886.2623435528649
 20
901.7365366843627
 30
0.0
 10
886.1673051337546
 20
900.7327425050058
 30
0.0
 10
886.1512011811767
 20
899.6307973257286
 30
0.0
 10
886.1500868641336
 20
898.8481852956119
 30
0.0
 10
886.1497387376564
 20
898.6036875822012
 30
0.0
  0
SPLINE
  5
207
330
1F
100
AcDbEntity
  8
0
  6
Continuous
 62
     8
370
    18
100
AcDbSpline
210
0.0
220
0.0
230
1.0
 70
     8
 71
     3
 72
     9
 73
     5
 74
     0
 42
0.000000001
 43
0.00000001
 40
0.0
 40
0.0
 40
0.0
 40
0.0
 40
0.3204572925054245
 40
1.0
 40
1.0
 40
1.0
 40
1.0
 10
887.0284969603933
 20
902.598752682015
 30
0.0
 10
887.1036851261024
 20
902.243752322928
 30
0.0
 10
887.3383128517542
 20
901.1359592803309
 30
0.0
 10
887.3849952138173
 20
899.7169145668643
 30
0.0
 10
887.4167178725257
 20
898.7526130802194
 30
0.0
  0
SPLINE
  5
208
330
1F
100
AcDbEntity
  8
0
  6
Continuous
 62
     8
370
    18
100
AcDbSpline
210
0.0
220
0.0
230
1.0
 70
     8
 71
     3
 72
    15
 73
    11
 74
     0
 42
0.000000001
 43
0.00000001
 40
0.0
 40
0.0
 40
0.0
 40
0.0
 40
0.3092031051605585
 40
0.663838255257455
 40
0.803986173963673
 40
0.9077221477257735
 40
0.9361281220494168
 40
0.9546919441403823
 40
0.978908979412591
 40
1.0
 40
1.0
 40
1.0
 40
1.0
 10
806.135751665726
 20
898.5804595445136
 30
0.0
 10
806.1364917159948
 20
899.0681790542419
 30
0.0
 10
806.1380805541113
 20
900.115280014709
 30
0.0
 10
806.1482712230666
 20
901.3164659173991
 30
0.0
 10
806.3452770205838
 20
902.1725435979436
 30
0.0
 10
806.5501305410127
 20
902.5346732669318
 30
0.0
 10
806.7362191767324
 20
902.6840159643855
 30
0.0
 10
806.8425828587917
 20
902.7333753078104
 30
0.0
 10
806.9512530952715
 20
902.7541770290356
 30
0.0
 10
807.0265471577771
 20
902.7441361944398
 30
0.0
 10
807.0615967442643
 20
902.7394621592123
 30
0.0
  0
SPLINE
  5
209
330
1F
100
AcDbEntity
  8
0
  6
Continuous
 62
     8
370
    18
100
AcDbSpline
210
0.0
220
0.0
230
1.0
 70
     8
 71
     3
 72
     9
 73
     5
 74
     0
 42
0.000000001
 43
0.00000001
 40
0.0
 40
0.0
 40
0.0
 40
0.0
 40
0.6310361367051674
 40
1.0
 40
1.0
 40
1.0
 40
1.0
 10
807.4871319218427
 20
898.7526130802197
 30
0.0
 10
807.4572261864919
 20
899.6890944583038
 30
0.0
 10
807.409834708237
 20
901.1731320967402
 30
0.0
 10
807.1554540241957
 20
902.317304053699
 30
0.0
 10
807.0615967442643
 20
902.7394621592123
 30
0.0
  0
SPLINE
  5
20A
330
1F
100
AcDbEntity
  8
0
  6
Continuous
 62
     8
370
    18
100
AcDbSpline
210
0.0
220
0.0
230
1.0
 70
     8
 71
     3
 72
     9
 73
     5
 74
     0
 42
0.000000001
 43
0.00000001
 40
0.0
 40
0.0
 40
0.0
 40
0.0
 40
0.6310361367051674
 40
1.0
 40
1.0
 40
1.0
 40
1.0
 10
893.7343171230673
 20
898.7526130802194
 30
0.0
 10
893.7642228584182
 20
899.6890944583033
 30
0.0
 10
893.8116143366731
 20
901.1731320967397
 30
0.0
 10
894.0659950207145
 20
902.3173040536988
 30
0.0
 10
894.1598523006459
 20
902.7394621592119
 30
0.0
  0
SPLINE
  5
20B
330
1F
100
AcDbEntity
  8
0
  6
Continuous
 62
     8
370
    18
100
AcDbSpline
210
0.0
220
0.0
230
1.0
 70
     8
 71
     3
 72
    15
 73
    11
 74
     0
 42
0.000000001
 43
0.00000001
 40
0.0
 40
0.0
 40
0.0
 40
0.0
 40
0.3092031051605585
 40
0.663838255257455
 40
0.803986173963673
 40
0.9077221477257735
 40
0.9361281220494168
 40
0.9546919441403823
 40
0.978908979412591
 40
1.0
 40
1.0
 40
1.0
 40
1.0
 10
895.085697379184
 20
898.5804595445134
 30
0.0
 10
895.0849573289154
 20
899.0681790542416
 30
0.0
 10
895.0833684907989
 20
900.1152800147087
 30
0.0
 10
895.0731778218436
 20
901.3164659173988
 30
0.0
 10
894.8761720243264
 20
902.1725435979431
 30
0.0
 10
894.6713185038975
 20
902.5346732669313
 30
0.0
 10
894.4852298681775
 20
902.6840159643849
 30
0.0
 10
894.3788661861183
 20
902.73337530781
 30
0.0
 10
894.2701959496387
 20
902.7541770290352
 30
0.0
 10
894.194901887133
 20
902.7441361944394
 30
0.0
 10
894.1598523006459
 20
902.7394621592119
 30
0.0
  0
LINE
  5
20C
330
1F
100
AcDbEntity
  8
0
  6
Continuous
 62
     8
370
    18
100
AcDbLine
 10
807.0615967443
 20
902.7394621592
 30
0.0
 11
814.1929520845
 21
902.598752682
 31
0.0
  0
LINE
  5
20D
330
1F
100
AcDbEntity
  8
0
  6
Continuous
 62
     8
370
    18
100
AcDbLine
 10
894.1598523006
 20
902.7394621592
 30
0.0
 11
887.0284969604
 21
902.598752682
 31
0.0
  0
ARC
  5
20E
330
1F
100
AcDbEntity
  8
0
  6
Continuous
 62
     8
370
    18
100
AcDbCircle
 10
720.4372724656
 20
905.6642499724
 30
0.0
 40
93.80578198831128
100
AcDbArc
 50
358.1272867192
 51
358.5922936386
  0
ARC
  5
20F
330
1F
100
AcDbEntity
  8
0
  6
Continuous
 62
     8
370
    18
100
AcDbCircle
 10
980.7841766301
 20
905.6642499738
 30
0.0
 40
93.80578203912837
100
AcDbArc
 50
181.4077063616
 51
181.8727132807
  0
ARC
  5
210
330
1F
100
AcDbEntity
  8
0
  6
Continuous
 62
     8
370
    18
100
AcDbCircle
 10
766.4891136297
 20
905.6649578244
 30
0.0
 40
40.67781841453916
100
AcDbArc
 50
355.8758017505
 51
356.9247251143
  0
ARC
  5
211
330
1F
100
AcDbEntity
  8
0
  6
Continuous
 62
     8
370
    18
100
AcDbCircle
 10
934.7323354171
 20
905.6649578245
 30
0.0
 40
40.67781841650859
100
AcDbArc
 50
183.0752748857
 51
184.1241982495
  0
SPLINE
  5
212
330
1F
100
AcDbEntity
  8
0
  6
Continuous
 62
     8
370
    18
100
AcDbSpline
210
0.0
220
0.0
230
1.0
 70
     8
 71
     3
 72
    19
 73
    15
 74
     0
 42
0.000000001
 43
0.00000001
 40
0.0
 40
0.0
 40
0.0
 40
0.0
 40
0.5108655809784917
 40
0.6773161886274526
 40
0.7897294814090539
 40
0.8649135704138755
 40
0.9149987759643745
 40
0.9638937301973746
 40
0.9805048002912534
 40
0.9864047265890652
 40
0.9923573643452019
 40
0.9937773259466395
 40
0.9978992913798035
 40
1.0
 40
1.0
 40
1.0
 40
1.0
 10
815.0692787885298
 20
848.4517644725929
 30
0.0
 10
815.0702284265489
 20
847.2726670507992
 30
0.0
 10
815.0714874763414
 20
845.7093952206237
 30
0.0
 10
815.0732543195825
 20
844.2874941100283
 30
0.0
 10
815.066164243986
 20
843.7055757992482
 30
0.0
 10
815.0490639020304
 20
843.3442724477175
 30
0.0
 10
815.0158761956104
 20
843.094282480178
 30
0.0
 10
814.9742020317703
 20
842.9360945308123
 30
0.0
 10
814.9059670960255
 20
842.8452621900014
 30
0.0
 10
814.8606790494083
 20
842.8139573482375
 30
0.0
 10
814.8317721301606
 20
842.8021540462047
 30
0.0
 10
814.8025617336612
 20
842.7956620769133
 30
0.0
 10
814.7810632644055
 20
842.7933470985473
 30
0.0
 10
814.7636963136084
 20
842.7939624407562
 30
0.0
 10
814.7578334156111
 20
842.7941701737457
 30
0.0
  0
ARC
  5
213
330
1F
100
AcDbEntity
  8
0
  6
Continuous
 62
     8
370
    18
100
AcDbCircle
 10
816.4261462276
 20
843.1357165478
 30
0.0
 40
5.48647927049473
100
AcDbArc
 50
85.5276603397
 51
104.3184561189
  0
ARC
  5
214
330
1F
100
AcDbEntity
  8
0
  6
Continuous
 62
     8
370
    18
100
AcDbCircle
 10
807.5769256778
 20
841.9964399373
 30
0.0
 40
7.225081969680855
100
AcDbArc
 50
5.1955682007
 51
6.3390221049
  0
ARC
  5
215
330
1F
100
AcDbEntity
  8
0
  6
Continuous
 62
     8
370
    18
100
AcDbCircle
 10
884.7953028173
 20
843.1357165479
 30
0.0
 40
5.486479270457226
100
AcDbArc
 50
75.6815438811
 51
94.47233966
  0
SPLINE
  5
216
330
1F
100
AcDbEntity
  8
0
  6
Continuous
 62
     8
370
    18
100
AcDbSpline
210
0.0
220
0.0
230
1.0
 70
     8
 71
     3
 72
    19
 73
    15
 74
     0
 42
0.000000001
 43
0.00000001
 40
0.0
 40
0.0
 40
0.0
 40
0.0
 40
0.5108655809785061
 40
0.6773161886274621
 40
0.7897294814090601
 40
0.8649135704138795
 40
0.914998775964377
 40
0.9638937301973756
 40
0.980504800291254
 40
0.9864047265890655
 40
0.9923573643452022
 40
0.9937773259466396
 40
0.9978992913798035
 40
1.0
 40
1.0
 40
1.0
 40
1.0
 10
886.1521702563807
 20
848.4517644725929
 30
0.0
 10
886.1512206183615
 20
847.2726670507992
 30
0.0
 10
886.149961568569
 20
845.7093952206237
 30
0.0
 10
886.1481947253279
 20
844.2874941100283
 30
0.0
 10
886.1552848009244
 20
843.7055757992482
 30
0.0
 10
886.1723851428801
 20
843.3442724477175
 30
0.0
 10
886.2055728493001
 20
843.094282480178
 30
0.0
 10
886.24724701314
 20
842.9360945308123
 30
0.0
 10
886.315481948885
 20
842.8452621900014
 30
0.0
 10
886.3607699955021
 20
842.8139573482375
 30
0.0
 10
886.3896769147499
 20
842.8021540462047
 30
0.0
 10
886.4188873112494
 20
842.7956620769133
 30
0.0
 10
886.440385780505
 20
842.7933470985473
 30
0.0
 10
886.457752731302
 20
842.7939624407562
 30
0.0
 10
886.4636156292993
 20
842.7941701737457
 30
0.0
  0
ARC
  5
217
330
1F
100
AcDbEntity
  8
0
  6
Continuous
 62
     8
370
    18
100
AcDbCircle
 10
893.6445233706
 20
841.996439937
 30
0.0
 40
7.225081973238833
100
AcDbArc
 50
173.6609778956
 51
174.8044317992
  0
SPLINE
  5
218
330
1F
100
AcDbEntity
  8
0
  6
Continuous
 62
     8
370
    18
100
AcDbSpline
210
0.0
220
0.0
230
1.0
 70
     8
 71
     3
 72
    17
 73
    13
 74
     0
 42
0.000000001
 43
0.00000001
 40
0.0
 40
0.0
 40
0.0
 40
0.0
 40
0.0045109817899508
 40
0.0089278415503381
 40
0.0130797684277637
 40
0.0177777921768911
 40
0.0339670776357914
 40
0.084060007251609
 40
0.3047425979556686
 40
0.7692822253148978
 40
0.8273200843747881
 40
1.0
 40
1.0
 40
1.0
 40
1.0
 10
806.4453755988076
 20
842.575652132294
 30
0.0
 10
806.4324061077865
 20
842.573888343483
 30
0.0
 10
806.4067377353092
 20
842.5703975674688
 30
0.0
 10
806.3658617252156
 20
842.5721121032652
 30
0.0
 10
806.3285010351142
 20
842.580433009115
 30
0.0
 10
806.2725710121941
 20
842.6051030605516
 30
0.0
 10
806.1880648813138
 20
842.6983152523629
 30
0.0
 10
806.0937898901748
 20
843.1022591936899
 30
0.0
 10
806.1265899952717
 20
844.2933725629398
 30
0.0
 10
806.1272473119816
 20
845.8904850895129
 30
0.0
 10
806.1331730075339
 20
847.5771349264519
 30
0.0
 10
806.1347780155999
 20
848.1752668042059
 30
0.0
 10
806.135979278302
 20
848.6229365267674
 30
0.0
  0
ARC
  5
219
330
1F
100
AcDbEntity
  8
0
  6
Continuous
 62
     8
370
    18
100
AcDbCircle
 10
803.6804808698
 20
841.852460913
 30
0.0
 40
2.857909796008058
100
AcDbArc
 50
11.7037763204
 51
14.6580100085
  0
ARC
  5
21A
330
1F
100
AcDbEntity
  8
0
  6
Continuous
 62
     8
370
    18
100
AcDbCircle
 10
804.6313808736
 20
843.4015623598
 30
0.0
 40
5.433835160386667
100
AcDbArc
 50
73.9250614362
 51
93.677055676
  0
ARC
  5
21B
330
1F
100
AcDbEntity
  8
0
  6
Continuous
 62
     8
370
    18
100
AcDbCircle
 10
897.540968175
 20
841.852460913
 30
0.0
 40
2.857909795910446
100
AcDbArc
 50
165.3419899914
 51
168.2962236796
  0
SPLINE
  5
21C
330
1F
100
AcDbEntity
  8
0
  6
Continuous
 62
     8
370
    18
100
AcDbSpline
210
0.0
220
0.0
230
1.0
 70
     8
 71
     3
 72
    17
 73
    13
 74
     0
 42
0.000000001
 43
0.00000001
 40
0.0
 40
0.0
 40
0.0
 40
0.0
 40
0.0045109817899507
 40
0.0089278415503379
 40
0.0130797684277634
 40
0.0177777921768903
 40
0.0339670776357902
 40
0.0840600072516074
 40
0.304742597955685
 40
0.769282225314904
 40
0.8273200843747919
 40
1.0
 40
1.0
 40
1.0
 40
1.0
 10
894.7760734461029
 20
842.5756521322933
 30
0.0
 10
894.7890429371239
 20
842.5738883434822
 30
0.0
 10
894.8147113096014
 20
842.5703975674679
 30
0.0
 10
894.8555873196948
 20
842.5721121032645
 30
0.0
 10
894.8929480097964
 20
842.5804330091144
 30
0.0
 10
894.9488780327164
 20
842.605103060551
 30
0.0
 10
895.0333841635967
 20
842.6983152523621
 30
0.0
 10
895.1276591547359
 20
843.1022591936891
 30
0.0
 10
895.0948590496388
 20
844.2933725629397
 30
0.0
 10
895.0942017329288
 20
845.8904850895126
 30
0.0
 10
895.0882760373767
 20
847.5771349264514
 30
0.0
 10
895.0866710293105
 20
848.1752668042054
 30
0.0
 10
895.0854697666084
 20
848.6229365267669
 30
0.0
  0
ARC
  5
21D
330
1F
100
AcDbEntity
  8
0
  6
Continuous
 62
     8
370
    18
100
AcDbCircle
 10
896.5900681713
 20
843.4015623599
 30
0.0
 40
5.433835160320495
100
AcDbArc
 50
86.3229443242
 51
106.074938564
  0
SPLINE
  5
21E
330
1F
100
AcDbEntity
  8
0
  6
Continuous
 62
     8
370
    18
100
AcDbSpline
210
0.0
220
0.0
230
1.0
 70
     8
 71
     3
 72
    20
 73
    16
 74
     0
 42
0.000000001
 43
0.00000001
 40
0.0
 40
0.0
 40
0.0
 40
0.0
 40
0.0177553498927668
 40
0.0895541770723952
 40
0.1635124813712797
 40
0.2505819007214761
 40
0.3150328805895244
 40
0.3805147797652302
 40
0.4675444081230335
 40
0.5694410813320723
 40
0.6754503316775945
 40
0.7871440412594498
 40
0.8785532165774708
 40
0.9388623767392656
 40
0.9999999999999999
 40
0.9999999999999999
 40
0.9999999999999999
 40
0.9999999999999999
 10
926.7492716576922
 20
849.7971376572398
 30
0.0
 10
926.7385677274917
 20
850.0462460163825
 30
0.0
 10
926.6845793991105
 20
851.3026951564792
 30
0.0
 10
926.7493617077911
 20
853.7858421137693
 30
0.0
 10
927.1923706497937
 20
857.5817235873053
 30
0.0
 10
927.9472334642933
 20
861.4348666874787
 30
0.0
 10
928.8575250522694
 20
865.1886817607601
 30
0.0
 10
929.8544914173424
 20
868.9398329395434
 30
0.0
 10
931.0583890218531
 20
873.27656988099
 30
0.0
 10
932.3343343197482
 20
878.0940405308379
 30
0.0
 10
933.6055109761433
 20
882.832950885697
 30
0.0
 10
934.7972069825736
 20
886.7494187952558
 30
0.0
 10
935.8028024179255
 20
889.4296295880781
 30
0.0
 10
936.5327824600321
 20
891.1813124923958
 30
0.0
 10
936.8565693634121
 20
891.8995147430935
 30
0.0
 10
937.0195671897663
 20
892.2610655177682
 30
0.0
  0
ARC
  5
21F
330
1F
100
AcDbEntity
  8
0
  6
Continuous
 62
     8
370
    18
100
AcDbCircle
 10
927.3790518572
 20
845.9787164556
 30
0.0
 40
3.870008213482975
100
AcDbArc
 50
99.3655973717
 51
122.4620469832
  0
ARC
  5
220
330
1F
100
AcDbEntity
  8
0
  6
Continuous
 62
     8
370
    18
100
AcDbCircle
 10
929.7694752844
 20
889.1858006803
 30
0.0
 40
7.875346751496663
100
AcDbArc
 50
22.4525517109
 51
22.9851555296
  0
SPLINE
  5
221
330
1F
100
AcDbEntity
  8
0
  6
Continuous
 62
     8
370
    18
100
AcDbSpline
210
0.0
220
0.0
230
1.0
 70
     8
 71
     3
 72
    19
 73
    15
 74
     0
 42
0.000000001
 43
0.00000001
 40
0.0
 40
0.0
 40
0.0
 40
0.0
 40
0.0812843755281373
 40
0.1625926981205917
 40
0.2503967158277945
 40
0.3382767484838732
 40
0.424270476556715
 40
0.5102462209491139
 40
0.5965701789596977
 40
0.6829065819723054
 40
0.7657398742054037
 40
0.848571107827514
 40
0.9243009273350647
 40
0.9999999999999999
 40
0.9999999999999999
 40
0.9999999999999999
 40
0.9999999999999999
 10
926.8153289583995
 20
849.8066564424454
 30
0.0
 10
926.8064584706093
 20
850.9846148624966
 30
0.0
 10
926.7887148817077
 20
853.3408787391096
 30
0.0
 10
927.2682909115922
 20
857.4362974436532
 30
0.0
 10
928.1240437400609
 20
861.8141014052886
 30
0.0
 10
929.2477878119918
 20
866.3514635654199
 30
0.0
 10
930.4638044293253
 20
870.8231156068163
 30
0.0
 10
931.6472263007693
 20
875.1480870486441
 30
0.0
 10
932.720016714414
 20
879.2424425657401
 30
0.0
 10
933.7207174252519
 20
882.9396812035623
 30
0.0
 10
934.6936431039484
 20
886.148775745303
 30
0.0
 10
935.6043650535319
 20
888.7536396426744
 30
0.0
 10
936.4418949962403
 20
890.8265574263017
 30
0.0
 10
936.845885841471
 20
891.7379401686753
 30
0.0
 10
937.0478402499749
 20
892.1935390141183
 30
0.0
  0
ARC
  5
222
330
1F
100
AcDbEntity
  8
0
  6
Continuous
 62
     8
370
    18
100
AcDbCircle
 10
923.7110150323
 20
871.1156267573
 30
0.0
 40
21.53390305610133
100
AcDbArc
 50
278.1110275319
 51
278.2886032804
  0
SPLINE
  5
223
330
1F
100
AcDbEntity
  8
0
  6
Continuous
 62
     8
370
    18
100
AcDbSpline
210
0.0
220
0.0
230
1.0
 70
     8
 71
     3
 72
    20
 73
    16
 74
     0
 42
0.000000001
 43
0.00000001
 40
0.0
 40
0.0
 40
0.0
 40
0.0
 40
0.0734892725957271
 40
0.1488054069163632
 40
0.2291724603079949
 40
0.3115652575978904
 40
0.3969600311379815
 40
0.4847691432648288
 40
0.5707826311793045
 40
0.6591664434836088
 40
0.7461833123618609
 40
0.8361404262887471
 40
0.9035264557374451
 40
0.9728514054414621
 40
1.0
 40
1.0
 40
1.0
 40
1.0
 10
939.9272221915861
 20
889.8694153294083
 30
0.0
 10
939.6854795205257
 20
889.5285090637979
 30
0.0
 10
939.1959847239982
 20
888.8382219813071
 30
0.0
 10
938.1863410887763
 20
887.0961692372368
 30
0.0
 10
937.0590050510332
 20
884.8052178800401
 30
0.0
 10
935.889566207096
 20
881.8822554393961
 30
0.0
 10
934.6667337819923
 20
878.4088353334369
 30
0.0
 10
933.3740608051362
 20
874.5116042844082
 30
0.0
 10
931.9464315256877
 20
870.3379179663115
 30
0.0
 10
930.4740577557029
 20
866.0499531393165
 30
0.0
 10
929.0985737082652
 20
861.6429724368365
 30
0.0
 10
928.1106738614185
 20
857.6099845601784
 30
0.0
 10
927.567486472622
 20
854.0186299034731
 30
0.0
 10
927.4362462624196
 20
851.5712138623702
 30
0.0
 10
927.4875831960526
 20
850.2486069025849
 30
0.0
 10
927.5020299089597
 20
849.8764124280689
 30
0.0
  0
ARC
  5
224
330
1F
100
AcDbEntity
  8
0
  6
Continuous
 62
     8
370
    18
100
AcDbCircle
 10
927.6374105231
 20
845.1287475503
 30
0.0
 40
4.749594688242639
100
AcDbArc
 50
91.6333580123
 51
99.9672112785
  0
ARC
  5
225
330
1F
100
AcDbEntity
  8
0
  6
Continuous
 62
     8
370
    18
100
AcDbCircle
 10
940.0401375392
 20
892.9550179132
 30
0.0
 40
3.087667919414043
100
AcDbArc
 50
194.2775571615
 51
267.9042384386
  0
SPLINE
  5
226
330
1F
100
AcDbEntity
  8
0
  6
Continuous
 62
     8
370
    18
100
AcDbSpline
210
0.0
220
0.0
230
1.0
 70
     8
 71
     3
 72
     9
 73
     5
 74
     0
 42
0.000000001
 43
0.00000001
 40
0.0
 40
0.0
 40
0.0
 40
0.0
 40
0.4955319650024674
 40
1.0
 40
1.0
 40
1.0
 40
1.0
 10
940.5085589489827
 20
890.5350816168897
 30
0.0
 10
940.4623038404061
 20
890.5069940980624
 30
0.0
 10
940.3689594916184
 20
890.4503125501283
 30
0.0
 10
940.0753425521046
 20
890.0641978523036
 30
0.0
 10
939.9272221915861
 20
889.8694153294083
 30
0.0
  0
SPLINE
  5
227
330
1F
100
AcDbEntity
  8
0
  6
Continuous
 62
     8
370
    18
100
AcDbSpline
210
0.0
220
0.0
230
1.0
 70
     8
 71
     3
 72
     9
 73
     5
 74
     0
 42
0.000000001
 43
0.00000001
 40
0.0
 40
0.0
 40
0.0
 40
0.0
 40
0.872480994293027
 40
1.0
 40
1.0
 40
1.0
 40
1.0
 10
923.8394263109061
 20
841.305652837246
 30
0.0
 10
923.7729510192269
 20
840.955241570344
 30
0.0
 10
923.696759913502
 20
840.5536153238195
 30
0.0
 10
923.6204548662166
 20
840.5371777233566
 30
0.0
 10
923.6107245224563
 20
840.5350816168896
 30
0.0
  0
SPLINE
  5
228
330
1F
100
AcDbEntity
  8
0
  6
Continuous
 62
     8
370
    18
100
AcDbSpline
210
0.0
220
0.0
230
1.0
 70
     8
 71
     3
 72
    13
 73
     9
 74
     0
 42
0.000000001
 43
0.00000001
 40
0.0
 40
0.0
 40
0.0
 40
0.0
 40
0.1645623234208173
 40
0.3328009399012341
 40
0.5301300948724837
 40
0.7327153280276598
 40
0.9440961992823405
 40
1.0
 40
1.0
 40
1.0
 40
1.0
 10
927.5020299089597
 20
849.8764124280689
 30
0.0
 10
927.5125815830139
 20
849.1807162971099
 30
0.0
 10
927.5339206536456
 20
847.7737823072637
 30
0.0
 10
927.2021925887216
 20
845.8288197170061
 30
0.0
 10
926.5385785511548
 20
844.056273634637
 30
0.0
 10
925.558310248429
 20
842.5616366495761
 30
0.0
 10
924.3689320930883
 20
841.7482344615223
 30
0.0
 10
923.9310180235672
 20
841.3822087698228
 30
0.0
 10
923.8394263109061
 20
841.305652837246
 30
0.0
  0
SPLINE
  5
229
330
1F
100
AcDbEntity
  8
0
  6
Continuous
 62
     8
370
    18
100
AcDbSpline
210
0.0
220
0.0
230
1.0
 70
     8
 71
     3
 72
    12
 73
     8
 74
     0
 42
0.000000001
 43
0.00000001
 40
0.0
 40
0.0
 40
0.0
 40
0.0
 40
0.2584254149750791
 40
0.5253727836647218
 40
0.6325637335472007
 40
0.8141005554129497
 40
1.0
 40
1.0
 40
1.0
 40
1.0
 10
923.6107245224579
 20
841.3044859655422
 30
0.0
 10
924.1170301694141
 20
841.6867115426039
 30
0.0
 10
925.1463376280175
 20
842.4637671407469
 30
0.0
 10
925.9924486777858
 20
844.0788433457645
 30
0.0
 10
926.5036677576267
 20
845.8051328136742
 30
0.0
 10
926.7858845484262
 20
847.4871552012536
 30
0.0
 10
926.7615721760147
 20
849.0210726988321
 30
0.0
 10
926.7492716576922
 20
849.7971376572398
 30
0.0
  0
SPLINE
  5
22A
330
1F
100
AcDbEntity
  8
0
  6
Continuous
 62
     8
370
    18
100
AcDbSpline
210
0.0
220
0.0
230
1.0
 70
     8
 71
     3
 72
    10
 73
     6
 74
     0
 42
0.000000001
 43
0.00000001
 40
0.0
 40
0.0
 40
0.0
 40
0.0
 40
0.5660710179693641
 40
0.9956845546965855
 40
0.9999999999999999
 40
0.9999999999999999
 40
0.9999999999999999
 40
0.9999999999999999
 10
923.6107245224579
 20
841.3044859655422
 30
0.0
 10
922.9365587164202
 20
841.0545660995944
 30
0.0
 10
921.7507419918966
 20
840.6149722279124
 30
0.0
 10
920.3139859599521
 20
840.5353978776322
 30
0.0
 10
919.663971357075
 20
840.5350847311469
 30
0.0
 10
919.6575069295274
 20
840.5350816168896
 30
0.0
  0
SPLINE
  5
22B
330
1F
100
AcDbEntity
  8
0
  6
Continuous
 62
     8
370
    18
100
AcDbSpline
210
0.0
220
0.0
230
1.0
 70
     8
 71
     3
 72
    14
 73
    10
 74
     0
 42
0.000000001
 43
0.00000001
 40
0.0
 40
0.0
 40
0.0
 40
0.0
 40
0.0665232667018134
 40
0.1346138509585642
 40
0.2705263731886042
 40
0.467909457036926
 40
0.6697252416072458
 40
0.8332896955030689
 40
1.0
 40
1.0
 40
1.0
 40
1.0
 10
923.7990671717681
 20
841.3057140000624
 30
0.0
 10
923.8862051199991
 20
841.3973707378933
 30
0.0
 10
924.0625340250203
 20
841.5828436867946
 30
0.0
 10
924.597174148521
 20
842.0081613878477
 30
0.0
 10
925.2669939078795
 20
842.7654349873079
 30
0.0
 10
926.0255536973766
 20
844.0637004205989
 30
0.0
 10
926.5592238462066
 20
845.8014491949758
 30
0.0
 10
926.8409934032046
 20
847.7290146512619
 30
0.0
 10
926.8239379241969
 20
849.1097254449023
 30
0.0
 10
926.8153289583995
 20
849.8066564424454
 30
0.0
  0
ARC
  5
22C
330
1F
100
AcDbEntity
  8
0
  6
Continuous
 62
     8
370
    18
100
AcDbCircle
 10
923.6107247259
 20
855.7480477679
 30
0.0
 40
14.44356180231864
100
AcDbArc
 50
269.9999991929
 51
270.7471517928
  0
ARC
  5
22D
330
1F
100
AcDbEntity
  8
0
  6
Continuous
 62
     8
370
    18
100
AcDbCircle
 10
923.8145611645
 20
838.2138400598
 30
0.0
 40
3.091912761796524
100
AcDbArc
 50
89.5392226713
 51
90.2871180965
  0
LINE
  5
22E
330
1F
100
AcDbEntity
  8
0
  6
Continuous
 62
     8
370
    18
100
AcDbLine
 10
923.6107245225
 20
840.5350816169
 30
0.0
 11
923.6107245225
 21
841.3044859655
 31
0.0
  0
SPLINE
  5
22F
330
1F
100
AcDbEntity
  8
0
  6
Continuous
 62
     8
370
    18
100
AcDbSpline
210
0.0
220
0.0
230
1.0
 70
     8
 71
     3
 72
     9
 73
     5
 74
     0
 42
0.000000001
 43
0.00000001
 40
0.0
 40
0.0
 40
0.0
 40
0.0
 40
0.4953932977280094
 40
1.0
 40
1.0
 40
1.0
 40
1.0
 10
937.0478402499749
 20
892.1935390141183
 30
0.0
 10
937.1671152020726
 20
892.4530121128231
 30
0.0
 10
937.4078834010867
 20
892.9767840328205
 30
0.0
 10
937.4850756048968
 20
893.1359605659621
 30
0.0
 10
937.5240273083024
 20
893.2162821114299
 30
0.0
  0
LINE
  5
230
330
1F
100
AcDbEntity
  8
0
  6
Continuous
 62
     8
370
    18
100
AcDbLine
 10
508.6107245225
 20
915.2588221385
 30
0.0
 11
510.6107245225
 21
915.2588221385
 31
0.0
  0
LINE
  5
231
330
1F
100
AcDbEntity
  8
0
  6
Continuous
 62
     8
370
    18
100
AcDbLine
 10
510.6107245225
 20
913.4462065644
 30
0.0
 11
508.6107245225
 21
913.4462065644
 31
0.0
  0
LINE
  5
232
330
1F
100
AcDbEntity
  8
0
  6
Continuous
 62
     8
370
    18
100
AcDbLine
 10
508.6107245225
 20
906.1879072798
 30
0.0
 11
510.6107245225
 21
906.1879072798
 31
0.0
  0
LINE
  5
233
330
1F
100
AcDbEntity
  8
0
  6
Continuous
 62
     8
370
    18
100
AcDbLine
 10
510.6107245225
 20
904.3752917058
 30
0.0
 11
508.6107245225
 21
904.3752917058
 31
0.0
  0
LINE
  5
234
330
1F
100
AcDbEntity
  8
0
  6
Continuous
 62
     8
370
    18
100
AcDbLine
 10
508.6107245225
 20
870.0846816169
 30
0.0
 11
510.6107245225
 21
870.0846816169
 31
0.0
  0
LINE
  5
235
330
1F
100
AcDbEntity
  8
0
  6
Continuous
 62
     8
370
    18
100
AcDbLine
 10
1190.6107245225
 20
915.2588221385
 30
0.0
 11
1192.6107245225
 21
915.2588221385
 31
0.0
  0
LINE
  5
236
330
1F
100
AcDbEntity
  8
0
  6
Continuous
 62
     8
370
    18
100
AcDbLine
 10
1192.6107245225
 20
913.4462065644
 30
0.0
 11
1190.6107245225
 21
913.4462065644
 31
0.0
  0
LINE
  5
237
330
1F
100
AcDbEntity
  8
0
  6
Continuous
 62
     8
370
    18
100
AcDbLine
 10
1190.6107245225
 20
906.1879072798
 30
0.0
 11
1192.6107245225
 21
906.1879072798
 31
0.0
  0
LINE
  5
238
330
1F
100
AcDbEntity
  8
0
  6
Continuous
 62
     8
370
    18
100
AcDbLine
 10
1192.6107245225
 20
904.3752917058
 30
0.0
 11
1190.6107245225
 21
904.3752917058
 31
0.0
  0
LINE
  5
239
330
1F
100
AcDbEntity
  8
0
  6
Continuous
 62
     8
370
    18
100
AcDbLine
 10
1190.6107245225
 20
870.0846816169
 30
0.0
 11
1192.6107245225
 21
870.0846816169
 31
0.0
  0
LINE
  5
23A
330
1F
100
AcDbEntity
  8
0
  6
Continuous
 62
     8
370
    18
100
AcDbLine
 10
488.1107245225
 20
921.9846816169
 30
0.0
 11
488.1107245225
 21
920.9846816169
 31
0.0
  0
LINE
  5
23B
330
1F
100
AcDbEntity
  8
0
  6
Continuous
 62
     8
370
    18
100
AcDbLine
 10
508.6107245225
 20
922.9846816169
 30
0.0
 11
478.1107245225
 21
922.9846816169
 31
0.0
  0
LINE
  5
23C
330
1F
100
AcDbEntity
  8
0
  6
Continuous
 62
     8
370
    18
100
AcDbLine
 10
1213.1107245225
 20
920.9846816169
 30
0.0
 11
1213.1107245225
 21
921.9846816169
 31
0.0
  0
LINE
  5
23D
330
1F
100
AcDbEntity
  8
0
  6
Continuous
 62
     8
370
    18
100
AcDbLine
 10
1223.1107245225
 20
922.9846816169
 30
0.0
 11
1192.6107245225
 21
922.9846816169
 31
0.0
  0
SPLINE
  5
23E
330
1F
100
AcDbEntity
  8
0
  6
Continuous
 62
     7
370
    35
100
AcDbSpline
210
0.0
220
0.0
230
1.0
 70
     8
 71
     3
 72
    21
 73
    17
 74
     0
 42
0.000000001
 43
0.00000001
 40
0.0
 40
0.0
 40
0.0
 40
0.0
 40
0.0194297446421293
 40
0.1063134160552489
 40
0.197182743546189
 40
0.2431269965614358
 40
0.2877601062923902
 40
0.3091647742144121
 40
0.3297204036276903
 40
0.3691429066040944
 40
0.4450527365649733
 40
0.5209828835686705
 40
0.6006991125035629
 40
0.7803290563721121
 40
0.9937101053094338
 40
1.0
 40
1.0
 40
1.0
 40
1.0
 10
1491.708504408631
 20
903.2260398626256
 30
0.0
 10
1491.671490912828
 20
903.3151616503724
 30
0.0
 10
1491.468964773062
 20
903.8028078791217
 30
0.0
 10
1490.837079215236
 20
904.5772410440528
 30
0.0
 10
1489.975219743307
 20
905.2859983699764
 30
0.0
 10
1489.197071255429
 20
905.7312143297111
 30
0.0
 10
1488.665339831634
 20
905.9460655670596
 30
0.0
 10
1488.403477686378
 20
906.292218589255
 30
0.0
 10
1488.278118809625
 20
906.6669995062887
 30
0.0
 10
1488.326742261767
 20
907.2946812656979
 30
0.0
 10
1488.300391282355
 20
908.091685155785
 30
0.0
 10
1488.308825739457
 20
908.8747547374162
 30
0.0
 10
1488.305774801208
 20
909.7166916122817
 30
0.0
 10
1488.3075406439
 20
910.3025880922951
 30
0.0
 10
1488.306990135351
 20
910.497163751978
 30
0.0
 10
1488.30699253761
 20
910.4386409279857
 30
0.0
 10
1488.306992606394
 20
910.4369652288977
 30
0.0
  0
ARC
  5
23F
330
1F
100
AcDbEntity
  8
0
  6
Continuous
 62
     7
370
    35
100
AcDbCircle
 10
1439.8704166825
 20
855.5350370489
 30
0.0
 40
14.99995543245744
100
AcDbArc
 50
235.2278938985
 51
269.9820874844
  0
ARC
  5
240
330
1F
100
AcDbEntity
  8
0
  6
Continuous
 62
     7
370
    35
100
AcDbCircle
 10
1479.7435605044
 20
855.5350364391
 30
0.0
 40
14.99995482259777
100
AcDbArc
 50
270.017911725
 51
305.1236860193
  0
SPLINE
  5
241
330
1F
100
AcDbEntity
  8
0
  6
Continuous
 62
     7
370
    35
100
AcDbSpline
210
0.0
220
0.0
230
1.0
 70
     8
 71
     3
 72
    14
 73
    10
 74
     0
 42
0.000000001
 43
0.00000001
 40
0.0
 40
0.0
 40
0.0
 40
0.0
 40
0.1910307361510483
 40
0.5100956345003345
 40
0.669873021439179
 40
0.7584351360501681
 40
0.8292863577870271
 40
0.9200950248581374
 40
1.0
 40
1.0
 40
1.0
 40
1.0
 10
1492.165068455339
 20
902.6394226478636
 30
0.0
 10
1492.118604067454
 20
902.6842041531103
 30
0.0
 10
1491.994533554522
 20
902.803780985577
 30
0.0
 10
1491.860974507337
 20
902.9863717655203
 30
0.0
 10
1491.758860227349
 20
903.1431034232061
 30
0.0
 10
1491.71775150545
 20
903.2127445415288
 30
0.0
 10
1491.699165751717
 20
903.2454641991759
 30
0.0
 10
1491.689947344015
 20
903.2623457288076
 30
0.0
 10
1491.69062238168
 20
903.2610944050855
 30
0.0
 10
1491.690938342766
 20
903.2605087050229
 30
0.0
  0
SPLINE
  5
242
330
1F
100
AcDbEntity
  8
0
  6
Continuous
 62
     7
370
    35
100
AcDbSpline
210
0.0
220
0.0
230
1.0
 70
     8
 71
     3
 72
    14
 73
    10
 74
     0
 42
0.000000001
 43
0.00000001
 40
0.0
 40
0.0
 40
0.0
 40
0.0
 40
0.0318510699591944
 40
0.1445183584999385
 40
0.2397810598294021
 40
0.3260834741512539
 40
0.5119178316875413
 40
0.8180500484565885
 40
1.0
 40
1.0
 40
1.0
 40
1.0
 10
1427.922273998756
 20
903.2588830975793
 30
0.0
 10
1427.923117542163
 20
903.2605316581394
 30
0.0
 10
1427.926944964873
 20
903.268011697784
 30
0.0
 10
1427.917881889195
 20
903.2508289576726
 30
0.0
 10
1427.896817145204
 20
903.2136346446769
 30
0.0
 10
1427.844297997813
 20
903.1251964346964
 30
0.0
 10
1427.731157114076
 20
902.9559959023074
 30
0.0
 10
1427.588752843866
 20
902.7652907920238
 30
0.0
 10
1427.460035743611
 20
902.6497339277411
 30
0.0
 10
1427.412051875987
 20
902.606656005166
 30
0.0
  0
SPLINE
  5
243
330
1F
100
AcDbEntity
  8
0
  6
Continuous
 62
     7
370
    35
100
AcDbSpline
210
0.0
220
0.0
230
1.0
 70
     8
 71
     3
 72
    12
 73
     8
 74
     0
 42
0.000000001
 43
0.00000001
 40
0.0
 40
0.0
 40
0.0
 40
0.0
 40
0.1423628141124792
 40
0.249521866555137
 40
0.3688819399812098
 40
0.608528538941825
 40
1.0
 40
1.0
 40
1.0
 40
1.0
 10
1487.454390811783
 20
842.6834045262553
 30
0.0
 10
1487.454835775247
 20
842.6836637964639
 30
0.0
 10
1487.455615670717
 20
842.6841182240246
 30
0.0
 10
1487.471066360057
 20
842.6929404305788
 30
0.0
 10
1487.503874061083
 20
842.7110450395545
 30
0.0
 10
1487.571328946201
 20
842.7484900561363
 30
0.0
 10
1487.632971175271
 20
842.7728981148042
 30
0.0
 10
1487.671206768587
 20
842.7880380054104
 30
0.0
  0
SPLINE
  5
244
330
1F
100
AcDbEntity
  8
0
  6
Continuous
 62
     7
370
    35
100
AcDbSpline
210
0.0
220
0.0
230
1.0
 70
     8
 71
     3
 72
    13
 73
     9
 74
     0
 42
0.000000001
 43
0.00000001
 40
0.0
 40
0.0
 40
0.0
 40
0.0
 40
0.2312645381806155
 40
0.5779681622294806
 40
0.7146434851338702
 40
0.8157376923708022
 40
0.9213272834968018
 40
1.0
 40
1.0
 40
1.0
 40
1.0
 10
1431.95958638413
 20
842.7848993144347
 30
0.0
 10
1431.980591160095
 20
842.7757951954927
 30
0.0
 10
1432.033085553997
 20
842.753042503121
 30
0.0
 10
1432.095831672422
 20
842.7188763235857
 30
0.0
 10
1432.138015184052
 20
842.6956809728982
 30
0.0
 10
1432.153384028999
 20
842.6869677373994
 30
0.0
 10
1432.160004778604
 20
842.6831672102013
 30
0.0
 10
1432.15959456331
 20
842.6834036247667
 30
0.0
 10
1432.159419417607
 20
842.6835045644342
 30
0.0
  0
LINE
  5
245
330
1F
100
AcDbEntity
  8
0
  6
Continuous
 62
     7
370
    35
100
AcDbLine
 10
1431.970796149
 20
842.7976146582
 30
0.0
 11
1431.8445083122
 21
842.8763162245
 31
0.0
  0
ARC
  5
246
330
1F
100
AcDbEntity
  8
0
  6
Continuous
 62
     7
370
    35
100
AcDbCircle
 10
1491.3069884899
 20
853.5350816169
 30
0.0
 40
13.00000000000011
100
AcDbArc
 50
270.0
 51
360.0
  0
LINE
  5
247
330
1F
100
AcDbEntity
  8
0
  6
Continuous
 62
     7
370
    35
100
AcDbLine
 10
1479.3056880386
 20
840.5350816169
 30
0.0
 11
1491.3069884899
 21
840.5350816169
 31
0.0
  0
LINE
  5
248
330
1F
100
AcDbEntity
  8
0
  6
Continuous
 62
     7
370
    35
100
AcDbLine
 10
1525.3069884899
 20
920.9846816169
 30
0.0
 11
1525.2819884899
 21
920.9846816169
 31
0.0
  0
LINE
  5
249
330
1F
100
AcDbEntity
  8
0
  6
Continuous
 62
     7
370
    35
100
AcDbLine
 10
1525.3069884899
 20
921.9846816169
 30
0.0
 11
1525.2819884899
 21
921.9846816169
 31
0.0
  0
LINE
  5
24A
330
1F
100
AcDbEntity
  8
0
  6
Continuous
 62
     7
370
    35
100
AcDbLine
 10
1525.3069884899
 20
920.9846816169
 30
0.0
 11
1525.3069884899
 21
921.9846816169
 31
0.0
  0
ARC
  5
24B
330
1F
100
AcDbEntity
  8
0
  6
Continuous
 62
     7
370
    35
100
AcDbCircle
 10
1495.8069884899
 20
922.9846816169
 30
0.0
 40
1.000000000000114
100
AcDbArc
 50
180.0
 51
270.0
  0
LINE
  5
24C
330
1F
100
AcDbEntity
  8
0
  6
Continuous
 62
     7
370
    35
100
AcDbLine
 10
1492.8069884899
 20
919.6466001062
 30
0.0
 11
1492.8069884899
 21
920.9846816169
 31
0.0
  0
LINE
  5
24D
330
1F
100
AcDbEntity
  8
0
  6
Continuous
 62
     7
370
    35
100
AcDbLine
 10
1410.3069884899
 20
934.9846816169
 30
0.0
 11
1410.3069884899
 21
964.4846816169
 31
0.0
  0
LINE
  5
24E
330
1F
100
AcDbEntity
  8
0
  6
Continuous
 62
     7
370
    35
100
AcDbLine
 10
1410.2819884899
 20
964.4846816169
 30
0.0
 11
1410.3069884899
 21
964.4846816169
 31
0.0
  0
ARC
  5
24F
330
1F
100
AcDbEntity
  8
0
  6
Continuous
 62
     7
370
    35
100
AcDbCircle
 10
1411.3069884899
 20
934.9846816169
 30
0.0
 40
1.0
100
AcDbArc
 50
180.0
 51
270.0
  0
LINE
  5
250
330
1F
100
AcDbEntity
  8
0
  6
Continuous
 62
     7
370
    35
100
AcDbLine
 10
1426.8069884899
 20
920.9846816169
 30
0.0
 11
1426.8069884899
 21
919.6466001062
 31
0.0
  0
LWPOLYLINE
  5
251
330
1F
100
AcDbEntity
  8
0
  6
Continuous
 62
     7
370
    35
100
AcDbPolyline
 90
        3
 70
   128
 43
0.0
 10
1426.8069884899
 20
919.6466001062
 10
1426.8427007229
 20
919.2703374736
 10
1426.9069884899
 20
919.0221003063
  0
ARC
  5
252
330
1F
100
AcDbEntity
  8
0
  6
Continuous
 62
     7
370
    35
100
AcDbCircle
 10
1490.8069884899
 20
919.6466001062
 30
0.0
 40
2.000000000000069
100
AcDbArc
 50
337.6683549908
 51
0.0
  0
LINE
  5
253
330
1F
100
AcDbEntity
  8
0
  6
Continuous
 62
     7
370
    35
100
AcDbLine
 10
1487.8069884899
 20
911.7230894748
 30
0.0
 11
1487.8069884899
 21
910.9850816169
 31
0.0
  0
LINE
  5
254
330
1F
100
AcDbEntity
  8
0
  6
Continuous
 62
     7
370
    35
100
AcDbLine
 10
1431.8069884899
 20
911.6997740919
 30
0.0
 11
1431.8069884899
 21
910.9850816169
 31
0.0
  0
LINE
  5
255
330
1F
100
AcDbEntity
  8
0
  6
Continuous
 62
     7
370
    35
100
AcDbLine
 10
1431.8069884899
 20
910.9850816169
 30
0.0
 11
1433.3396514487
 21
910.9850816169
 31
0.0
  0
LINE
  5
256
330
1F
100
AcDbEntity
  8
0
  6
Continuous
 62
     7
370
    35
100
AcDbLine
 10
1486.2243255311
 20
910.9850816169
 30
0.0
 11
1487.8057343658
 21
910.9850816169
 31
0.0
  0
SPLINE
  5
257
330
1F
100
AcDbEntity
  8
0
  6
Continuous
 62
     7
370
    35
100
AcDbSpline
210
0.0
220
0.0
230
1.0
 70
     8
 71
     3
 72
    12
 73
     8
 74
     0
 42
0.000000001
 43
0.00000001
 40
0.0
 40
0.0
 40
0.0
 40
0.0
 40
0.0000113964157658
 40
0.0165615426249112
 40
0.2254762501766455
 40
0.6569695733823875
 40
1.0
 40
1.0
 40
1.0
 40
1.0
 10
1491.699615741256
 20
902.9411512215478
 30
0.0
 10
1491.699620932563
 20
902.9411374128928
 30
0.0
 10
1491.707165062796
 20
902.9210703466706
 30
0.0
 10
1491.811222028873
 20
902.6443713677053
 30
0.0
 10
1492.16355982213
 20
901.7081356732464
 30
0.0
 10
1492.743418644659
 20
900.133154626232
 30
0.0
 10
1493.178200706165
 20
898.8813902714566
 30
0.0
 10
1493.370762233269
 20
898.3269937655504
 30
0.0
  0
SPLINE
  5
258
330
1F
100
AcDbEntity
  8
0
  6
Continuous
 62
     7
370
    35
100
AcDbSpline
210
0.0
220
0.0
230
1.0
 70
     8
 71
     3
 72
    15
 73
    11
 74
     0
 42
0.000000001
 43
0.00000001
 40
0.0
 40
0.0
 40
0.0
 40
0.0
 40
0.1214527241786875
 40
0.2436356162157024
 40
0.3679634748124442
 40
0.492999645184968
 40
0.6185865433805121
 40
0.7450337263104021
 40
0.8719902588119044
 40
1.0
 40
1.0
 40
1.0
 40
1.0
 10
1496.545342538463
 20
887.5480433504721
 30
0.0
 10
1496.876788736721
 20
886.0746565955312
 30
0.0
 10
1497.541673771627
 20
883.1190251562896
 30
0.0
 10
1498.106378750676
 20
878.5740711620546
 30
0.0
 10
1498.367993430603
 20
873.9603399542638
 30
0.0
 10
1498.274026991933
 20
869.2962319750663
 30
0.0
 10
1497.810877409617
 20
864.6272123257445
 30
0.0
 10
1496.949402924294
 20
859.9921877765131
 30
0.0
 10
1495.709209302574
 20
855.406681326205
 30
0.0
 10
1494.530319410258
 20
852.4626523013849
 30
0.0
 10
1493.93843959878
 20
850.9845572260485
 30
0.0
  0
SPLINE
  5
259
330
1F
100
AcDbEntity
  8
0
  6
Continuous
 62
     7
370
    35
100
AcDbSpline
210
0.0
220
0.0
230
1.0
 70
    24
 71
     3
 72
    10
 73
     6
 74
     0
 42
0.000000001
 43
0.00000001
 40
0.0
 40
0.0
 40
0.0
 40
0.0
 40
0.1892744005187875
 40
0.5530594203474042
 40
1.0
 40
1.0
 40
1.0
 40
1.0
 10
1459.806988489861
 20
880.3137335435309
 30
0.0
 10
1459.806988489861
 20
879.7834802846983
 30
0.0
 10
1459.806988489861
 20
878.2340813212699
 30
0.0
 10
1459.80698848986
 20
875.4217401668526
 30
0.0
 10
1459.80698848986
 20
873.1511320041593
 30
0.0
 10
1459.80698848986
 20
871.8993805742705
 30
0.0
  0
SPLINE
  5
25A
330
1F
100
AcDbEntity
  8
0
  6
Continuous
 62
     7
370
    35
100
AcDbSpline
210
0.0
220
0.0
230
1.0
 70
    24
 71
     3
 72
    10
 73
     6
 74
     0
 42
0.000000001
 43
0.00000001
 40
0.0
 40
0.0
 40
0.0
 40
0.0
 40
0.3006654806480871
 40
0.6482485604421762
 40
1.0
 40
1.0
 40
1.0
 40
1.0
 10
1459.80698848986
 20
868.08468161689
 30
0.0
 10
1459.80698848986
 20
866.0798998382152
 30
0.0
 10
1459.80698848986
 20
861.7574984131321
 30
0.0
 10
1459.80698848986
 20
855.2696373114001
 30
0.0
 10
1459.80698848986
 20
850.9791290084397
 30
0.0
 10
1459.80698848986
 20
848.8210881421033
 30
0.0
  0
SPLINE
  5
25B
330
1F
100
AcDbEntity
  8
0
  6
Continuous
 62
     7
370
    35
100
AcDbSpline
210
0.0
220
0.0
230
1.0
 70
    24
 71
     3
 72
    13
 73
     9
 74
     0
 42
0.000000001
 43
0.00000001
 40
0.0
 40
0.0
 40
0.0
 40
0.0
 40
0.3691963150658398
 40
0.7482499823834043
 40
0.8262738878666146
 40
0.9040766895823282
 40
0.9808985752244064
 40
1.0
 40
1.0
 40
1.0
 40
1.0
 10
1488.30698848986
 20
910.9850816168899
 30
0.0
 10
1488.318814911814
 20
910.98508161689
 30
0.0
 10
1488.342783515122
 20
910.98508161689
 30
0.0
 10
1488.208348978119
 20
910.9850816168897
 30
0.0
 10
1488.372550301846
 20
910.98508161689
 30
0.0
 10
1488.057531602211
 20
910.9850816168895
 30
0.0
 10
1487.257495670162
 20
910.9850816168896
 30
0.0
 10
1486.395897512192
 20
910.9850816168899
 30
0.0
 10
1486.2243255311
 20
910.9850816168899
 30
0.0
  0
SPLINE
  5
25C
330
1F
100
AcDbEntity
  8
0
  6
Continuous
 62
     7
370
    35
100
AcDbSpline
210
0.0
220
0.0
230
1.0
 70
     8
 71
     3
 72
    12
 73
     8
 74
     0
 42
0.000000001
 43
0.00000001
 40
0.0
 40
0.0
 40
0.0
 40
0.0
 40
0.000011396415745
 40
0.0165615426248907
 40
0.2254762501766299
 40
0.6569695733823796
 40
1.0
 40
1.0
 40
1.0
 40
1.0
 10
1427.914361238464
 20
902.9411512215474
 30
0.0
 10
1427.914356047158
 20
902.9411374128923
 30
0.0
 10
1427.906811916915
 20
902.9210703466416
 30
0.0
 10
1427.802754950902
 20
902.6443713678826
 30
0.0
 10
1427.45041715754
 20
901.7081356730788
 30
0.0
 10
1426.870558335074
 20
900.1331546262725
 30
0.0
 10
1426.435776273559
 20
898.8813902714686
 30
0.0
 10
1426.243214746451
 20
898.32699376555
 30
0.0
  0
SPLINE
  5
25D
330
1F
100
AcDbEntity
  8
0
  6
Continuous
 62
     7
370
    35
100
AcDbSpline
210
0.0
220
0.0
230
1.0
 70
     8
 71
     3
 72
     9
 73
     5
 74
     0
 42
0.000000001
 43
0.00000001
 40
0.0
 40
0.0
 40
0.0
 40
0.0
 40
0.1562903953778146
 40
0.9999999999999999
 40
0.9999999999999999
 40
0.9999999999999999
 40
0.9999999999999999
 10
1427.923657025215
 20
903.2607519199153
 30
0.0
 10
1427.92945237908
 20
903.2727449580744
 30
0.0
 10
1427.966533057331
 20
903.3494805638048
 30
0.0
 10
1427.972433674466
 20
903.3550544411381
 30
0.0
 10
1427.977412081817
 20
903.3597571749791
 30
0.0
  0
SPLINE
  5
25E
330
1F
100
AcDbEntity
  8
0
  6
Continuous
 62
     7
370
    35
100
AcDbSpline
210
0.0
220
0.0
230
1.0
 70
     8
 71
     3
 72
    11
 73
     7
 74
     0
 42
0.000000001
 43
0.00000001
 40
0.0
 40
0.0
 40
0.0
 40
0.0
 40
0.0402999249195682
 40
0.2187640754553801
 40
0.4992077406765367
 40
1.0
 40
1.0
 40
1.0
 40
1.0
 10
1431.286337384571
 20
906.8780367249907
 30
0.0
 10
1431.29391321087
 20
906.9327509733508
 30
0.0
 10
1431.335037819403
 20
907.2297617489448
 30
0.0
 10
1431.289259786035
 20
907.9162659195796
 30
0.0
 10
1431.317091623759
 20
909.2287807568507
 30
0.0
 10
1431.310935026539
 20
910.2990265934371
 30
0.0
 10
1431.30698848986
 20
910.9850816168899
 30
0.0
  0
SPLINE
  5
25F
330
1F
100
AcDbEntity
  8
0
  6
Continuous
 62
     7
370
    35
100
AcDbSpline
210
0.0
220
0.0
230
1.0
 70
    24
 71
     3
 72
    13
 73
     9
 74
     0
 42
0.000000001
 43
0.00000001
 40
0.0
 40
0.0
 40
0.0
 40
0.0
 40
0.3699056295798857
 40
0.7496875497452151
 40
0.8278613578313047
 40
0.9058136373566237
 40
0.9827831162336788
 40
1.0
 40
1.0
 40
1.0
 40
1.0
 10
1431.30698848986
 20
910.9850816168899
 30
0.0
 10
1431.295084262528
 20
910.98508161689
 30
0.0
 10
1431.270957971099
 20
910.98508161689
 30
0.0
 10
1431.406277111128
 20
910.98508161689
 30
0.0
 10
1431.240995556399
 20
910.9850816168905
 30
0.0
 10
1431.558114422969
 20
910.9850816168895
 30
0.0
 10
1432.343506909042
 20
910.9850816168896
 30
0.0
 10
1433.185701673321
 20
910.9850816168899
 30
0.0
 10
1433.33965144862
 20
910.9850816168899
 30
0.0
  0
SPLINE
  5
260
330
1F
100
AcDbEntity
  8
0
  6
Continuous
 62
     7
370
    35
100
AcDbSpline
210
0.0
220
0.0
230
1.0
 70
     8
 71
     3
 72
    15
 73
    11
 74
     0
 42
0.000000001
 43
0.00000001
 40
0.0
 40
0.0
 40
0.0
 40
0.0
 40
0.1214527241786881
 40
0.243635616215703
 40
0.3679634748124446
 40
0.4929996451849684
 40
0.6185865433805126
 40
0.7450337263104027
 40
0.871990258811905
 40
1.0
 40
1.0
 40
1.0
 40
1.0
 10
1423.068634441257
 20
887.5480433504716
 30
0.0
 10
1422.737188242999
 20
886.0746565955307
 30
0.0
 10
1422.072303208093
 20
883.1190251562891
 30
0.0
 10
1421.507598229044
 20
878.5740711620542
 30
0.0
 10
1421.245983549117
 20
873.9603399542634
 30
0.0
 10
1421.339949987787
 20
869.296231975066
 30
0.0
 10
1421.803099570103
 20
864.6272123257439
 30
0.0
 10
1422.664574055426
 20
859.9921877765127
 30
0.0
 10
1423.904767677146
 20
855.4066813262045
 30
0.0
 10
1425.083657569462
 20
852.4626523013845
 30
0.0
 10
1425.67553738094
 20
850.9845572260481
 30
0.0
  0
LINE
  5
261
330
1F
100
AcDbEntity
  8
0
  6
Continuous
 62
     7
370
    35
100
AcDbLine
 10
1432.731575863
 20
842.4321931586
 30
0.0
 11
1432.2161382228
 21
842.6507112
 31
0.0
  0
SPLINE
  5
262
330
1F
100
AcDbEntity
  8
0
  6
Continuous
 62
     7
370
    35
100
AcDbSpline
210
0.0
220
0.0
230
1.0
 70
    24
 71
     3
 72
    14
 73
    10
 74
     0
 42
0.000000001
 43
0.00000001
 40
0.0
 40
0.0
 40
0.0
 40
0.0
 40
0.1497838616746357
 40
0.3039198677007078
 40
0.4537011775423317
 40
0.6078081864720632
 40
0.757933700022959
 40
0.9123691506710973
 40
1.0
 40
1.0
 40
1.0
 40
1.0
 10
1459.80698848986
 20
848.8210881421033
 30
0.0
 10
1459.80698848986
 20
848.0959736292623
 30
0.0
 10
1459.80698848986
 20
846.6246755578507
 30
0.0
 10
1459.80698848986
 20
844.7302367611006
 30
0.0
 10
1459.80698848986
 20
843.1137576321562
 30
0.0
 10
1459.80698848986
 20
841.8636859754608
 30
0.0
 10
1459.80698848986
 20
840.9957883651781
 30
0.0
 10
1459.80698848986
 20
840.5876669513676
 30
0.0
 10
1459.80698848986
 20
840.5490583756588
 30
0.0
 10
1459.80698848986
 20
840.5350816168902
 30
0.0
  0
SPLINE
  5
263
330
1F
100
AcDbEntity
  8
0
  6
Continuous
 62
     7
370
    35
100
AcDbSpline
210
0.0
220
0.0
230
1.0
 70
    24
 71
     3
 72
    18
 73
    14
 74
     0
 42
0.000000001
 43
0.00000001
 40
0.0
 40
0.0
 40
0.0
 40
0.0
 40
0.052885866710272
 40
0.129673953544238
 40
0.2088264841310178
 40
0.2780198271463052
 40
0.3488116530585426
 40
0.4119722453844828
 40
0.4765946606108445
 40
0.5395794985730179
 40
0.6046207084834428
 40
0.8595628981179465
 40
0.9999999999999999
 40
0.9999999999999999
 40
0.9999999999999999
 40
0.9999999999999999
 10
1459.80698848986
 20
840.5350816168902
 30
0.0
 10
1458.919893781143
 20
840.5350816168902
 30
0.0
 10
1456.744774317229
 20
840.5350816168902
 30
0.0
 10
1453.38117863882
 20
840.5350816168902
 30
0.0
 10
1450.019211045789
 20
840.5350816168902
 30
0.0
 10
1447.080108814208
 20
840.5350816168902
 30
0.0
 10
1444.703763174032
 20
840.5350816168902
 30
0.0
 10
1442.768869242364
 20
840.5350816168902
 30
0.0
 10
1441.342809795927
 20
840.5350816168902
 30
0.0
 10
1440.377458170058
 20
840.5350816168902
 30
0.0
 10
1439.900858346179
 20
840.5350816168904
 30
0.0
 10
1439.89170906863
 20
840.5350816168897
 30
0.0
 10
1439.897752315149
 20
840.5350816168898
 30
0.0
 10
1439.899898851513
 20
840.5350816168898
 30
0.0
  0
SPLINE
  5
264
330
1F
100
AcDbEntity
  8
0
  6
Continuous
 62
     7
370
    35
100
AcDbSpline
210
0.0
220
0.0
230
1.0
 70
     8
 71
     3
 72
     9
 73
     5
 74
     0
 42
0.000000001
 43
0.00000001
 40
0.0
 40
0.0
 40
0.0
 40
0.0
 40
0.4409399556865262
 40
1.0
 40
1.0
 40
1.0
 40
1.0
 10
1431.8452728351
 20
842.8774246909629
 30
0.0
 10
1431.772806010842
 20
842.9227499166816
 30
0.0
 10
1431.608459769765
 20
843.0255422019674
 30
0.0
 10
1431.424237565118
 20
843.1525523357577
 30
0.0
 10
1431.321246291225
 20
843.2235586267827
 30
0.0
  0
LINE
  5
265
330
1F
100
AcDbEntity
  8
0
  6
Continuous
 62
     7
370
    35
100
AcDbLine
 10
1486.8824011167
 20
842.4321931586
 30
0.0
 11
1487.3978387569
 21
842.6507112
 31
0.0
  0
SPLINE
  5
266
330
1F
100
AcDbEntity
  8
0
  6
Continuous
 62
     7
370
    35
100
AcDbSpline
210
0.0
220
0.0
230
1.0
 70
     8
 71
     3
 72
    10
 73
     6
 74
     0
 42
0.000000001
 43
0.00000001
 40
0.0
 40
0.0
 40
0.0
 40
0.0
 40
0.3651912706405471
 40
0.9388408861865674
 40
1.0
 40
1.0
 40
1.0
 40
1.0
 10
1487.777895354774
 20
842.8832686315077
 30
0.0
 10
1487.847399682027
 20
842.9271547031115
 30
0.0
 10
1488.026082770693
 20
843.0399778773441
 30
0.0
 10
1488.241472120908
 20
843.1825519510868
 30
0.0
 10
1488.375302605766
 20
843.280962585154
 30
0.0
 10
1488.388196180597
 20
843.2904437200078
 30
0.0
  0
SPLINE
  5
267
330
1F
100
AcDbEntity
  8
0
  6
Continuous
 62
     7
370
    35
100
AcDbSpline
210
0.0
220
0.0
230
1.0
 70
    24
 71
     3
 72
    18
 73
    14
 74
     0
 42
0.000000001
 43
0.00000001
 40
0.0
 40
0.0
 40
0.0
 40
0.0
 40
0.0528900501225394
 40
0.130850304335454
 40
0.208834970656858
 40
0.2788361590001459
 40
0.3488290097785893
 40
0.4127449371310096
 40
0.4766197031471487
 40
0.5405641088728228
 40
0.6045882679846376
 40
0.859606355973701
 40
0.9999999999999999
 40
0.9999999999999999
 40
0.9999999999999999
 40
0.9999999999999999
 10
1459.80698848986
 20
840.5350816168902
 30
0.0
 10
1460.694142435801
 20
840.5350816168902
 30
0.0
 10
1462.888966671167
 20
840.5350816168902
 30
0.0
 10
1466.249679204413
 20
840.5350816168902
 30
0.0
 10
1469.623178871868
 20
840.5350816168902
 30
0.0
 10
1472.542882595517
 20
840.5350816168902
 30
0.0
 10
1474.928089685665
 20
840.5350816168902
 30
0.0
 10
1476.848120749294
 20
840.5350816168902
 30
0.0
 10
1478.290919098761
 20
840.5350816168902
 30
0.0
 10
1479.207824646183
 20
840.5350816168902
 30
0.0
 10
1479.749998659715
 20
840.5350816168902
 30
0.0
 10
1479.720267742397
 20
840.5350816168901
 30
0.0
 10
1479.716789480648
 20
840.5350816168899
 30
0.0
 10
1479.715554499988
 20
840.5350816168899
 30
0.0
  0
SPLINE
  5
268
330
1F
100
AcDbEntity
  8
0
  6
Continuous
 62
     7
370
    35
100
AcDbSpline
210
0.0
220
0.0
230
1.0
 70
     8
 71
     3
 72
    14
 73
    10
 74
     0
 42
0.000000001
 43
0.00000001
 40
0.0
 40
0.0
 40
0.0
 40
0.0
 40
0.1296971135924894
 40
0.260367622165083
 40
0.3857762422390048
 40
0.5111848510835849
 40
0.6402379667715731
 40
0.7692907819815495
 40
1.0
 40
1.0
 40
1.0
 40
1.0
 10
1495.127103379306
 20
850.4753538366497
 30
0.0
 10
1495.741404869622
 20
852.0094078982131
 30
0.0
 10
1496.974618268869
 20
855.0890293116622
 30
0.0
 10
1498.295203414195
 20
859.8301740186184
 30
0.0
 10
1499.225510333992
 20
864.6018124822812
 30
0.0
 10
1499.751080416052
 20
869.4168698347212
 30
0.0
 10
1499.860455600846
 20
874.3028174993439
 30
0.0
 10
1499.515724780555
 20
880.5317049883819
 30
0.0
 10
1498.537311875309
 20
885.0167388182666
 30
0.0
 10
1497.909872469759
 20
887.8929140455227
 30
0.0
  0
SPLINE
  5
269
330
1F
100
AcDbEntity
  8
0
  6
Continuous
 62
     7
370
    35
100
AcDbSpline
210
0.0
220
0.0
230
1.0
 70
     8
 71
     3
 72
    14
 73
    10
 74
     0
 42
0.000000001
 43
0.00000001
 40
0.0
 40
0.0
 40
0.0
 40
0.0
 40
0.12969690086605
 40
0.2603671951156623
 40
0.3853421446376495
 40
0.5111847557259608
 40
0.6397642884787725
 40
0.7692911603858877
 40
1.0
 40
1.0
 40
1.0
 40
1.0
 10
1424.486873600414
 20
850.4753538366492
 30
0.0
 10
1423.872556877752
 20
852.009404820597
 30
0.0
 10
1422.639312899492
 20
855.0890200557168
 30
0.0
 10
1421.320438891819
 20
859.8248834470853
 30
0.0
 10
1420.388663600723
 20
864.59622251851
 30
0.0
 10
1419.864009402965
 20
869.4053692059676
 30
0.0
 10
1419.752698424813
 20
874.2967494608664
 30
0.0
 10
1420.097368003356
 20
880.5257758728835
 30
0.0
 10
1421.076823465924
 20
885.016732353313
 30
0.0
 10
1421.704104509961
 20
887.8929140455225
 30
0.0
  0
SPLINE
  5
26A
330
1F
100
AcDbEntity
  8
0
  6
Continuous
 62
     7
370
    35
100
AcDbSpline
210
0.0
220
0.0
230
1.0
 70
     8
 71
     3
 72
    10
 73
     6
 74
     0
 42
0.000000001
 43
0.00000001
 40
0.0
 40
0.0
 40
0.0
 40
0.0
 40
0.3422812336046027
 40
0.6664353245308746
 40
0.9999999999999999
 40
0.9999999999999999
 40
0.9999999999999999
 40
0.9999999999999999
 10
1488.388196180597
 20
843.2904437200078
 30
0.0
 10
1489.153096804653
 20
843.6933576979852
 30
0.0
 10
1490.642389075394
 20
844.4778474137772
 30
0.0
 10
1492.503356034935
 20
846.2565273385972
 30
0.0
 10
1493.480203940036
 20
847.6155082122705
 30
0.0
 10
1493.975616221235
 20
848.3047207408714
 30
0.0
  0
SPLINE
  5
26B
330
1F
100
AcDbEntity
  8
0
  6
Continuous
 62
     7
370
    35
100
AcDbSpline
210
0.0
220
0.0
230
1.0
 70
     8
 71
     3
 72
    10
 73
     6
 74
     0
 42
0.000000001
 43
0.00000001
 40
0.0
 40
0.0
 40
0.0
 40
0.0
 40
0.342281233604685
 40
0.6664353245309171
 40
1.0
 40
1.0
 40
1.0
 40
1.0
 10
1431.225780799124
 20
843.290443720007
 30
0.0
 10
1430.460880175067
 20
843.6933576979847
 30
0.0
 10
1428.971587904326
 20
844.4778474137765
 30
0.0
 10
1427.110620944785
 20
846.2565273385966
 30
0.0
 10
1426.133773039684
 20
847.6155082122701
 30
0.0
 10
1425.638360758485
 20
848.3047207408708
 30
0.0
  0
SPLINE
  5
26C
330
1F
100
AcDbEntity
  8
0
  6
Continuous
 62
     7
370
    35
100
AcDbSpline
210
0.0
220
0.0
230
1.0
 70
     8
 71
     3
 72
     9
 73
     5
 74
     0
 42
0.000000001
 43
0.00000001
 40
0.0
 40
0.0
 40
0.0
 40
0.0
 40
0.8536363424240554
 40
1.0
 40
1.0
 40
1.0
 40
1.0
 10
1497.909872469759
 20
887.8929140455227
 30
0.0
 10
1497.037883546204
 20
891.0039949278225
 30
0.0
 10
1496.016384249351
 20
894.6484987143709
 30
0.0
 10
1494.79226879293
 20
898.2286142725764
 30
0.0
 10
1494.613102777433
 20
898.7526130802197
 30
0.0
  0
SPLINE
  5
26D
330
1F
100
AcDbEntity
  8
0
  6
Continuous
 62
     7
370
    35
100
AcDbSpline
210
0.0
220
0.0
230
1.0
 70
     8
 71
     3
 72
     9
 73
     5
 74
     0
 42
0.000000001
 43
0.00000001
 40
0.0
 40
0.0
 40
0.0
 40
0.0
 40
0.8536363424240557
 40
1.0
 40
1.0
 40
1.0
 40
1.0
 10
1421.704104509961
 20
887.8929140455225
 30
0.0
 10
1422.576093433516
 20
891.0039949278222
 30
0.0
 10
1423.59759273037
 20
894.6484987143705
 30
0.0
 10
1424.821708186791
 20
898.2286142725758
 30
0.0
 10
1425.000874202287
 20
898.7526130802194
 30
0.0
  0
SPLINE
  5
26E
330
1F
100
AcDbEntity
  8
0
  6
Continuous
 62
     7
370
    35
100
AcDbSpline
210
0.0
220
0.0
230
1.0
 70
     8
 71
     3
 72
     9
 73
     5
 74
     0
 42
0.000000001
 43
0.00000001
 40
0.0
 40
0.0
 40
0.0
 40
0.0
 40
0.6310361367051674
 40
1.0
 40
1.0
 40
1.0
 40
1.0
 10
1494.613102777433
 20
898.7526130802197
 30
0.0
 10
1494.205321180861
 20
899.6890944583038
 30
0.0
 10
1493.559111601324
 20
901.1731320967402
 30
0.0
 10
1492.456246627416
 20
902.317304053699
 30
0.0
 10
1492.049329305949
 20
902.7394621592123
 30
0.0
  0
SPLINE
  5
26F
330
1F
100
AcDbEntity
  8
0
  6
Continuous
 62
     7
370
    35
100
AcDbSpline
210
0.0
220
0.0
230
1.0
 70
     8
 71
     3
 72
     9
 73
     5
 74
     0
 42
0.000000001
 43
0.00000001
 40
0.0
 40
0.0
 40
0.0
 40
0.0
 40
0.6310361367051666
 40
1.0
 40
1.0
 40
1.0
 40
1.0
 10
1425.000874202287
 20
898.7526130802194
 30
0.0
 10
1425.40865579886
 20
899.6890944583033
 30
0.0
 10
1426.054865378396
 20
901.1731320967397
 30
0.0
 10
1427.157730352305
 20
902.3173040536988
 30
0.0
 10
1427.564647673771
 20
902.7394621592119
 30
0.0
  0
LINE
  5
270
330
1F
100
AcDbEntity
  8
0
  6
Continuous
 62
     7
370
    35
100
AcDbLine
 10
1493.9756162212
 20
848.3047207409
 30
0.0
 11
1495.1271033793
 21
850.4753538366
 31
0.0
  0
LINE
  5
271
330
1F
100
AcDbEntity
  8
0
  6
Continuous
 62
     7
370
    35
100
AcDbLine
 10
1425.6383607585
 20
848.3047207409
 30
0.0
 11
1424.4868736004
 21
850.4753538366
 31
0.0
  0
LINE
  5
272
330
1F
100
AcDbEntity
  8
0
  6
Continuous
 62
     7
370
    35
100
AcDbLine
 10
1487.6690811387
 20
842.7941701737
 30
0.0
 11
1487.176113796
 21
842.5756521323
 31
0.0
  0
LINE
  5
273
330
1F
100
AcDbEntity
  8
0
  6
Continuous
 62
     7
370
    35
100
AcDbLine
 10
1431.944895841
 20
842.7941701737
 30
0.0
 11
1432.4378631837
 21
842.5756521323
 31
0.0
  0
LINE
  5
274
330
1F
100
AcDbEntity
  8
0
  6
Continuous
 62
     7
370
    35
100
AcDbLine
 10
1492.0493293059
 20
902.7394621592
 30
0.0
 11
1492.1943984759
 21
902.598752682
 31
0.0
  0
LINE
  5
275
330
1F
100
AcDbEntity
  8
0
  6
Continuous
 62
     7
370
    35
100
AcDbLine
 10
1427.5646476738
 20
902.7394621592
 30
0.0
 11
1427.4195785038
 21
902.598752682
 31
0.0
  0
SPLINE
  5
276
330
1F
100
AcDbEntity
  8
0
  6
Continuous
 62
     7
370
    35
100
AcDbSpline
210
0.0
220
0.0
230
1.0
 70
     8
 71
     3
 72
    21
 73
    17
 74
     0
 42
0.000000001
 43
0.00000001
 40
0.0
 40
0.0
 40
0.0
 40
0.0
 40
0.0385875042305305
 40
0.1137555859597559
 40
0.1905584151146143
 40
0.2679261122717775
 40
0.3425758673549085
 40
0.4177439138170842
 40
0.4945465859978866
 40
0.5719140750339277
 40
0.6465659329143941
 40
0.7217360672759366
 40
0.7985407486308796
 40
0.8759102056376831
 40
0.9905374157361695
 40
1.0
 40
1.0
 40
1.0
 40
1.0
 10
1497.084882555414
 20
890.6650552176716
 30
0.0
 10
1497.251975203496
 20
890.5842937735118
 30
0.0
 10
1497.744562699658
 20
890.3462098241466
 30
0.0
 10
1498.523565801357
 20
889.8600817209743
 30
0.0
 10
1499.417319827209
 20
889.2131524966821
 30
0.0
 10
1500.248279163486
 20
888.4897585080411
 30
0.0
 10
1501.010411050832
 20
887.7057398892599
 30
0.0
 10
1501.702933671773
 20
886.8629406843828
 30
0.0
 10
1502.329511019006
 20
885.9540669939307
 30
0.0
 10
1502.874908274584
 20
884.9970933493678
 30
0.0
 10
1503.334400896328
 20
884.0048032580964
 30
0.0
 10
1503.708967909805
 20
882.9803272490966
 30
0.0
 10
1503.999469044016
 20
881.9151854611106
 30
0.0
 10
1504.231633155507
 20
880.6426063216721
 30
0.0
 10
1504.304795770902
 20
879.6734441695479
 30
0.0
 10
1504.306833129183
 20
879.076871018009
 30
0.0
 10
1504.30698848986
 20
879.0313787698755
 30
0.0
  0
SPLINE
  5
277
330
1F
100
AcDbEntity
  8
0
  6
Continuous
 62
     7
370
    35
100
AcDbSpline
210
0.0
220
0.0
230
1.0
 70
    24
 71
     3
 72
    20
 73
    16
 74
     0
 42
0.000000001
 43
0.00000001
 40
0.0
 40
0.0
 40
0.0
 40
0.0
 40
0.0031848875244884
 40
0.099687216670268
 40
0.1961928561586079
 40
0.2929138960264291
 40
0.3894614585497544
 40
0.4531459406897279
 40
0.5167654851003712
 40
0.6214864979190158
 40
0.7268808125404133
 40
0.8182687157727472
 40
0.8939620144270489
 40
0.9698304221395908
 40
0.9999999999999999
 40
0.9999999999999999
 40
0.9999999999999999
 40
0.9999999999999999
 10
1504.30698848986
 20
879.0313787698756
 30
0.0
 10
1504.30698848986
 20
879.0317814167521
 30
0.0
 10
1504.30698848986
 20
879.0443842939684
 30
0.0
 10
1504.30698848986
 20
878.8836466837282
 30
0.0
 10
1504.30698848986
 20
878.1481225028709
 30
0.0
 10
1504.30698848986
 20
876.938478380782
 30
0.0
 10
1504.30698848986
 20
875.4454723529834
 30
0.0
 10
1504.30698848986
 20
873.8176085426495
 30
0.0
 10
1504.30698848986
 20
871.8753556679645
 30
0.0
 10
1504.30698848986
 20
869.207886365613
 30
0.0
 10
1504.30698848986
 20
865.9832877533966
 30
0.0
 10
1504.30698848986
 20
863.2624568370114
 30
0.0
 10
1504.30698848986
 20
861.1116581988489
 30
0.0
 10
1504.30698848986
 20
859.6691386790895
 30
0.0
 10
1504.30698848986
 20
858.8998456082433
 30
0.0
 10
1504.30698848986
 20
858.6809688814459
 30
0.0
  0
SPLINE
  5
278
330
1F
100
AcDbEntity
  8
0
  6
Continuous
 62
     7
370
    35
100
AcDbSpline
210
0.0
220
0.0
230
1.0
 70
    24
 71
     3
 72
    10
 73
     6
 74
     0
 42
0.000000001
 43
0.00000001
 40
0.0
 40
0.0
 40
0.0
 40
0.0
 40
0.2479681796226288
 40
0.4972688069878491
 40
1.0
 40
1.0
 40
1.0
 40
1.0
 10
1504.30698848986
 20
858.6809688814459
 30
0.0
 10
1504.30698848986
 20
858.3744743114836
 30
0.0
 10
1504.30698848986
 20
857.7598382344459
 30
0.0
 10
1504.30698848986
 20
856.6537680163427
 30
0.0
 10
1504.30698848986
 20
855.8963169480629
 30
0.0
 10
1504.30698848986
 20
855.3899630028092
 30
0.0
  0
LINE
  5
279
330
1F
100
AcDbEntity
  8
0
  6
Continuous
 62
     7
370
    35
100
AcDbLine
 10
1504.3069884899
 20
855.3899630028
 30
0.0
 11
1504.3069884899
 21
853.5350816169
 31
0.0
  0
LINE
  5
27A
330
1F
100
AcDbEntity
  8
0
  6
Continuous
 62
     7
370
    35
100
AcDbLine
 10
1410.3069884899
 20
922.9846816169
 30
0.0
 11
1410.3069884899
 21
932.9846816169
 31
0.0
  0
ARC
  5
27B
330
1F
100
AcDbEntity
  8
0
  6
Continuous
 62
     7
370
    35
100
AcDbCircle
 10
1472.7819884899
 20
870.0846816169
 30
0.0
 40
2.000000000000114
100
AcDbArc
 50
270.0
 51
0.0
  0
ARC
  5
27C
330
1F
100
AcDbEntity
  8
0
  6
Continuous
 62
     7
370
    35
100
AcDbCircle
 10
1446.7819884899
 20
870.0846816169
 30
0.0
 40
2.000000000000114
100
AcDbArc
 50
180.0
 51
270.0
  0
LINE
  5
27D
330
1F
100
AcDbEntity
  8
0
  6
Continuous
 62
     7
370
    35
100
AcDbLine
 10
1444.7819884899
 20
870.0846816169
 30
0.0
 11
1444.7819884899
 21
904.3752917058
 31
0.0
  0
ARC
  5
27E
330
1F
100
AcDbEntity
  8
0
  6
Continuous
 62
     7
370
    35
100
AcDbCircle
 10
1442.7819884899
 20
904.3752917058
 30
0.0
 40
2.0
100
AcDbArc
 50
0.0
 51
65.0
  0
ARC
  5
27F
330
1F
100
AcDbEntity
  8
0
  6
Continuous
 62
     7
370
    35
100
AcDbCircle
 10
1428.9069884899
 20
915.2588221385
 30
0.0
 40
2.0
100
AcDbArc
 50
180.0
 51
245.0
  0
LINE
  5
280
330
1F
100
AcDbEntity
  8
0
  6
Continuous
 62
     7
370
    35
100
AcDbLine
 10
1426.9069884899
 20
915.2588221385
 30
0.0
 11
1426.9069884899
 21
920.9846816169
 31
0.0
  0
LINE
  5
281
330
1F
100
AcDbEntity
  8
0
  6
Continuous
 62
     7
370
    35
100
AcDbLine
 10
1491.5022250133
 20
913.4462065644
 30
0.0
 11
1475.9367519664
 21
906.1879072798
 31
0.0
  0
LINE
  5
282
330
1F
100
AcDbEntity
  8
0
  6
Continuous
 62
     7
370
    35
100
AcDbLine
 10
1474.7819884899
 20
904.3752917058
 30
0.0
 11
1474.7819884899
 21
870.0846816169
 31
0.0
  0
LINE
  5
283
330
1F
100
AcDbEntity
  8
0
  6
Continuous
 62
     7
370
    35
100
AcDbLine
 10
1472.7819884899
 20
868.0846816169
 30
0.0
 11
1446.7819884899
 21
868.0846816169
 31
0.0
  0
LINE
  5
284
330
1F
100
AcDbEntity
  8
0
  6
Continuous
 62
     7
370
    35
100
AcDbLine
 10
1443.6272250133
 20
906.1879072798
 30
0.0
 11
1428.0617519664
 21
913.4462065644
 31
0.0
  0
LINE
  5
285
330
1F
100
AcDbEntity
  8
0
  6
Continuous
 62
     7
370
    35
100
AcDbLine
 10
1460.7819884899
 20
888.0846816169
 30
0.0
 11
1460.7819884899
 21
898.0846816169
 31
0.0
  0
ARC
  5
286
330
1F
100
AcDbEntity
  8
0
  6
Continuous
 62
     7
370
    35
100
AcDbCircle
 10
1467.2819884899
 20
898.0846816169
 30
0.0
 40
6.500000000000227
100
AcDbArc
 50
0.0
 51
180.0
  0
LINE
  5
287
330
1F
100
AcDbEntity
  8
0
  6
Continuous
 62
     7
370
    35
100
AcDbLine
 10
1458.7819884899
 20
898.0846816169
 30
0.0
 11
1458.7819884899
 21
888.0846816169
 31
0.0
  0
ARC
  5
288
330
1F
100
AcDbEntity
  8
0
  6
Continuous
 62
     7
370
    35
100
AcDbCircle
 10
1452.2819884899
 20
888.0846816169
 30
0.0
 40
6.500000000000227
100
AcDbArc
 50
180.0
 51
0.0
  0
CIRCLE
  5
289
330
1F
100
AcDbEntity
  8
0
  6
Continuous
 62
     7
370
    35
100
AcDbCircle
 10
1459.7819884899
 20
876.0846816169
 30
0.0
 40
4.250000000000227
  0
LINE
  5
28A
330
1F
100
AcDbEntity
  8
0
  6
Continuous
 62
     7
370
    35
100
AcDbLine
 10
1473.7819884899
 20
898.0846816169
 30
0.0
 11
1473.7819884899
 21
888.0846816169
 31
0.0
  0
ARC
  5
28B
330
1F
100
AcDbEntity
  8
0
  6
Continuous
 62
     7
370
    35
100
AcDbCircle
 10
1467.2819884899
 20
888.0846816169
 30
0.0
 40
6.500000000000227
100
AcDbArc
 50
180.0
 51
0.0
  0
ARC
  5
28C
330
1F
100
AcDbEntity
  8
0
  6
Continuous
 62
     7
370
    35
100
AcDbCircle
 10
1476.7819884899
 20
904.3752917058
 30
0.0
 40
2.0
100
AcDbArc
 50
115.0
 51
180.0
  0
LINE
  5
28D
330
1F
100
AcDbEntity
  8
0
  6
Continuous
 62
     7
370
    35
100
AcDbLine
 10
1445.7819884899
 20
888.0846816169
 30
0.0
 11
1445.7819884899
 21
898.0846816169
 31
0.0
  0
ARC
  5
28E
330
1F
100
AcDbEntity
  8
0
  6
Continuous
 62
     7
370
    35
100
AcDbCircle
 10
1452.2819884899
 20
898.0846816169
 30
0.0
 40
6.5
100
AcDbArc
 50
0.0
 51
180.0
  0
LINE
  5
28F
330
1F
100
AcDbEntity
  8
0
  6
Continuous
 62
     7
370
    35
100
AcDbLine
 10
1494.8069884899
 20
932.9846816169
 30
0.0
 11
1494.8069884899
 21
921.9846816169
 31
0.0
  0
LINE
  5
290
330
1F
100
AcDbEntity
  8
0
  6
Continuous
 62
     7
370
    35
100
AcDbLine
 10
1492.6569884899
 20
920.9846816169
 30
0.0
 11
1492.6569884899
 21
915.2588221385
 31
0.0
  0
ARC
  5
291
330
1F
100
AcDbEntity
  8
0
  6
Continuous
 62
     7
370
    35
100
AcDbCircle
 10
1490.6569884899
 20
915.2588221385
 30
0.0
 40
2.000000000000027
100
AcDbArc
 50
295.0
 51
0.0
  0
ARC
  5
292
330
1F
100
AcDbEntity
  8
0
  6
Continuous
 62
     7
370
    35
100
AcDbCircle
 10
1411.3069884899
 20
922.9846816169
 30
0.0
 40
1.0
100
AcDbArc
 50
180.0
 51
270.0
  0
LINE
  5
293
330
1F
100
AcDbEntity
  8
0
  6
Continuous
 62
     7
370
    35
100
AcDbLine
 10
1494.8069884899
 20
933.9846816169
 30
0.0
 11
1410.3069884899
 21
933.9846816169
 31
0.0
  0
LINE
  5
294
330
1F
100
AcDbEntity
  8
0
  6
Continuous
 62
     7
370
    35
100
AcDbLine
 10
1410.3069884899
 20
932.9846816169
 30
0.0
 11
1410.3069884899
 21
933.9846816169
 31
0.0
  0
LINE
  5
295
330
1F
100
AcDbEntity
  8
0
  6
Continuous
 62
     7
370
    35
100
AcDbLine
 10
1494.8069884899
 20
933.9846816169
 30
0.0
 11
1494.8069884899
 21
932.9846816169
 31
0.0
  0
LINE
  5
296
330
1F
100
AcDbEntity
  8
0
  6
Continuous
 62
     7
370
    35
100
AcDbLine
 10
1409.2819884899
 20
964.4846816169
 30
0.0
 11
1410.2819884899
 21
964.4846816169
 31
0.0
  0
LINE
  5
297
330
1F
100
AcDbEntity
  8
0
  6
Continuous
 62
     7
370
    35
100
AcDbLine
 10
1410.2819884899
 20
964.4846816169
 30
0.0
 11
1410.2819884899
 21
954.4846816169
 31
0.0
  0
LINE
  5
298
330
1F
100
AcDbEntity
  8
0
  6
Continuous
 62
     7
370
    35
100
AcDbLine
 10
1409.2819884899
 20
954.4846816169
 30
0.0
 11
1409.2819884899
 21
964.4846816169
 31
0.0
  0
LINE
  5
299
330
1F
100
AcDbEntity
  8
0
  6
Continuous
 62
     7
370
    35
100
AcDbLine
 10
1410.2819884899
 20
954.4846816169
 30
0.0
 11
1410.2819884899
 21
922.9846816169
 31
0.0
  0
LINE
  5
29A
330
1F
100
AcDbEntity
  8
0
  6
Continuous
 62
     7
370
    35
100
AcDbLine
 10
1409.2819884899
 20
954.4846816169
 30
0.0
 11
1409.2819884899
 21
922.9846816169
 31
0.0
  0
ARC
  5
29B
330
1F
100
AcDbEntity
  8
0
  6
Continuous
 62
     7
370
    35
100
AcDbCircle
 10
1411.2819884899
 20
922.9846816169
 30
0.0
 40
2.0
100
AcDbArc
 50
180.0
 51
270.0
  0
ARC
  5
29C
330
1F
100
AcDbEntity
  8
0
  6
Continuous
 62
     7
370
    35
100
AcDbCircle
 10
1411.2819884899
 20
922.9846816169
 30
0.0
 40
0.9999999999998863
100
AcDbArc
 50
180.0
 51
270.0
  0
LINE
  5
29D
330
1F
100
AcDbEntity
  8
0
  6
Continuous
 62
     7
370
    35
100
AcDbLine
 10
1515.2819884899
 20
920.9846816169
 30
0.0
 11
1411.2819884899
 21
920.9846816169
 31
0.0
  0
LINE
  5
29E
330
1F
100
AcDbEntity
  8
0
  6
Continuous
 62
     7
370
    35
100
AcDbLine
 10
1515.2819884899
 20
921.9846816169
 30
0.0
 11
1411.2819884899
 21
921.9846816169
 31
0.0
  0
LINE
  5
29F
330
1F
100
AcDbEntity
  8
0
  6
Continuous
 62
     7
370
    35
100
AcDbLine
 10
1525.2819884899
 20
921.9846816169
 30
0.0
 11
1525.2819884899
 21
920.9846816169
 31
0.0
  0
LINE
  5
2A0
330
1F
100
AcDbEntity
  8
0
  6
Continuous
 62
     7
370
    35
100
AcDbLine
 10
1525.2819884899
 20
920.9846816169
 30
0.0
 11
1515.2819884899
 21
920.9846816169
 31
0.0
  0
LINE
  5
2A1
330
1F
100
AcDbEntity
  8
0
  6
Continuous
 62
     7
370
    35
100
AcDbLine
 10
1515.2819884899
 20
921.9846816169
 30
0.0
 11
1525.2819884899
 21
921.9846816169
 31
0.0
  0
LINE
  5
2A2
330
1F
100
AcDbEntity
  8
0
  6
Continuous
 62
     8
370
    18
100
AcDbLine
 10
1492.8069884899
 20
919.6466001062
 30
0.0
 11
1492.6569884899
 21
919.6466001062
 31
0.0
  0
LINE
  5
2A3
330
1F
100
AcDbEntity
  8
0
  6
Continuous
 62
     8
370
    18
100
AcDbLine
 10
1410.2819884899
 20
934.9846816169
 30
0.0
 11
1410.3069884899
 21
934.9846816169
 31
0.0
  0
LINE
  5
2A4
330
1F
100
AcDbEntity
  8
0
  6
Continuous
 62
     8
370
    18
100
AcDbLine
 10
1426.8069884899
 20
919.6466001062
 30
0.0
 11
1426.9069884899
 21
919.6466001062
 31
0.0
  0
SPLINE
  5
2A5
330
1F
100
AcDbEntity
  8
0
  6
Continuous
 62
     8
370
    18
100
AcDbSpline
210
0.0
220
0.0
230
1.0
 70
     8
 71
     3
 72
     9
 73
     5
 74
     0
 42
0.000000001
 43
0.00000001
 40
0.0
 40
0.0
 40
0.0
 40
0.0
 40
0.4639726887003793
 40
1.0
 40
1.0
 40
1.0
 40
1.0
 10
1491.751376216996
 20
903.1349961049156
 30
0.0
 10
1491.721960997393
 20
903.1963657433232
 30
0.0
 10
1491.658562395882
 20
903.3286356805463
 30
0.0
 10
1491.644241362775
 20
903.3488967098938
 30
0.0
 10
1491.636564897904
 20
903.3597571749789
 30
0.0
  0
LINE
  5
2A6
330
1F
100
AcDbEntity
  8
0
  6
Continuous
 62
     8
370
    18
100
AcDbLine
 10
1491.6365648979
 20
903.359757175
 30
0.0
 11
1491.4799976517
 21
903.4826780951
 31
0.0
  0
SPLINE
  5
2A7
330
1F
100
AcDbEntity
  8
0
  6
Continuous
 62
     8
370
    18
100
AcDbSpline
210
0.0
220
0.0
230
1.0
 70
     8
 71
     3
 72
    11
 73
     7
 74
     0
 42
0.000000001
 43
0.00000001
 40
0.0
 40
0.0
 40
0.0
 40
0.0
 40
0.2986044395549908
 40
0.5785107697798062
 40
0.9999675635114514
 40
0.9999999999999999
 40
0.9999999999999999
 40
0.9999999999999999
 40
0.9999999999999999
 10
1491.479997651652
 20
903.4826780951278
 30
0.0
 10
1491.479931069595
 20
903.476842016027
 30
0.0
 10
1491.479802074738
 20
903.4655353033135
 30
0.0
 10
1491.559483283113
 20
903.2921013550913
 30
0.0
 10
1491.646557018192
 20
903.0863964502497
 30
0.0
 10
1491.699611658338
 20
902.9411623983046
 30
0.0
 10
1491.699615741256
 20
902.9411512215478
 30
0.0
  0
SPLINE
  5
2A8
330
1F
100
AcDbEntity
  8
0
  6
Continuous
 62
     8
370
    18
100
AcDbSpline
210
0.0
220
0.0
230
1.0
 70
     8
 71
     3
 72
    10
 73
     6
 74
     0
 42
0.000000001
 43
0.00000001
 40
0.0
 40
0.0
 40
0.0
 40
0.0
 40
0.0305940752880726
 40
0.8849546452569856
 40
0.9999999999999999
 40
0.9999999999999999
 40
0.9999999999999999
 40
0.9999999999999999
 10
1493.370762233269
 20
898.3269937655504
 30
0.0
 10
1493.407854466753
 20
898.2185555233743
 30
0.0
 10
1494.480772801935
 20
895.0819048734147
 30
0.0
 10
1495.541172551724
 20
891.4841184099787
 30
0.0
 10
1496.438813923914
 20
887.9656067395287
 30
0.0
 10
1496.545342538463
 20
887.5480433504721
 30
0.0
  0
LINE
  5
2A9
330
1F
100
AcDbEntity
  8
0
  6
Continuous
 62
     8
370
    18
100
AcDbLine
 10
1493.9384395988
 20
850.984557226
 30
0.0
 11
1493.0210860766
 21
848.9813231806
 31
0.0
  0
SPLINE
  5
2AA
330
1F
100
AcDbEntity
  8
0
  6
Continuous
 62
     8
370
    18
100
AcDbSpline
210
0.0
220
0.0
230
1.0
 70
     8
 71
     3
 72
    18
 73
    14
 74
     0
 42
0.000000001
 43
0.00000001
 40
0.0
 40
0.0
 40
0.0
 40
0.0
 40
0.0497884573626181
 40
0.1520626953526124
 40
0.2542931679105466
 40
0.3525326664708979
 40
0.4508084200367247
 40
0.5543273934134115
 40
0.6578565275353659
 40
0.774030727128945
 40
0.8901694733964511
 40
0.9999988953086805
 40
1.0
 40
1.0
 40
1.0
 40
1.0
 10
1493.021086076565
 20
848.9813231806085
 30
0.0
 10
1493.011891418974
 20
848.9969840768025
 30
0.0
 10
1492.983809319424
 20
849.0448152050006
 30
0.0
 10
1492.550016230061
 20
849.1300231740311
 30
0.0
 10
1491.034072661343
 20
849.1855941138851
 30
0.0
 10
1488.674101625856
 20
849.2499878159315
 30
0.0
 10
1485.584633297625
 20
849.2750774685474
 30
0.0
 10
1481.770103871378
 20
849.2639266617168
 30
0.0
 10
1477.136625243987
 20
849.2170299978708
 30
0.0
 10
1471.763859230215
 20
849.1381486610896
 30
0.0
 10
1465.862500618324
 20
849.0128773409277
 30
0.0
 10
1461.791120945511
 20
848.8885177500109
 30
0.0
 10
1459.807008446351
 20
848.8210888203132
 30
0.0
 10
1459.80698848986
 20
848.8210881421033
 30
0.0
  0
SPLINE
  5
2AB
330
1F
100
AcDbEntity
  8
0
  6
Continuous
 62
     8
370
    18
100
AcDbSpline
210
0.0
220
0.0
230
1.0
 70
     8
 71
     3
 72
    10
 73
     6
 74
     0
 42
0.000000001
 43
0.00000001
 40
0.0
 40
0.0
 40
0.0
 40
0.0
 40
0.0305940752880734
 40
0.8849546452569864
 40
1.0
 40
1.0
 40
1.0
 40
1.0
 10
1426.243214746451
 20
898.32699376555
 30
0.0
 10
1426.206122512967
 20
898.2185555233739
 30
0.0
 10
1425.133204177786
 20
895.0819048734141
 30
0.0
 10
1424.072804427997
 20
891.4841184099784
 30
0.0
 10
1423.175163055806
 20
887.9656067395283
 30
0.0
 10
1423.068634441257
 20
887.5480433504716
 30
0.0
  0
SPLINE
  5
2AC
330
1F
100
AcDbEntity
  8
0
  6
Continuous
 62
     8
370
    18
100
AcDbSpline
210
0.0
220
0.0
230
1.0
 70
     8
 71
     3
 72
    11
 73
     7
 74
     0
 42
0.000000001
 43
0.00000001
 40
0.0
 40
0.0
 40
0.0
 40
0.0
 40
0.2986044395547224
 40
0.5785107697795356
 40
0.9999675635113832
 40
0.9999999999999999
 40
0.9999999999999999
 40
0.9999999999999999
 40
0.9999999999999999
 10
1428.133979328069
 20
903.4826780951281
 30
0.0
 10
1428.134045910123
 20
903.4768420160215
 30
0.0
 10
1428.134174904976
 20
903.4655353032964
 30
0.0
 10
1428.054493696636
 20
903.2921013551696
 30
0.0
 10
1427.967419961436
 20
903.0863964499895
 30
0.0
 10
1427.914365321383
 20
902.9411623983043
 30
0.0
 10
1427.914361238464
 20
902.9411512215474
 30
0.0
  0
LINE
  5
2AD
330
1F
100
AcDbEntity
  8
0
  6
Continuous
 62
     8
370
    18
100
AcDbLine
 10
1427.9774120818
 20
903.359757175
 30
0.0
 11
1428.1339793281
 21
903.4826780951
 31
0.0
  0
SPLINE
  5
2AE
330
1F
100
AcDbEntity
  8
0
  6
Continuous
 62
     8
370
    18
100
AcDbSpline
210
0.0
220
0.0
230
1.0
 70
     8
 71
     3
 72
    18
 73
    14
 74
     0
 42
0.000000001
 43
0.00000001
 40
0.0
 40
0.0
 40
0.0
 40
0.0
 40
0.049784868759845
 40
0.1505175920502394
 40
0.2543243622726967
 40
0.3513587062571521
 40
0.4508317882787339
 40
0.5531105266318755
 40
0.6578696705688378
 40
0.7722222945756144
 40
0.8901773896516058
 40
0.9999988953883033
 40
1.0
 40
1.0
 40
1.0
 40
1.0
 10
1426.592890903155
 20
848.9813231806079
 30
0.0
 10
1426.602870385787
 20
848.9975558901846
 30
0.0
 10
1426.63304195665
 20
849.0466332186738
 30
0.0
 10
1427.030660796858
 20
849.1082316705504
 30
0.0
 10
1428.569264068929
 20
849.1903517467882
 30
0.0
 10
1430.923421901678
 20
849.2486117019602
 30
0.0
 10
1434.003652729835
 20
849.2754416676569
 30
0.0
 10
1437.824379003265
 20
849.2635869636106
 30
0.0
 10
1442.433098112137
 20
849.2179791703636
 30
0.0
 10
1447.816196756331
 20
849.1374667229934
 30
0.0
 10
1453.71939342009
 20
849.0141984924139
 30
0.0
 10
1457.822856032879
 20
848.8885177513617
 30
0.0
 10
1459.80696853337
 20
848.8210888203132
 30
0.0
 10
1459.80698848986
 20
848.8210881421032
 30
0.0
  0
LINE
  5
2AF
330
1F
100
AcDbEntity
  8
0
  6
Continuous
 62
     8
370
    18
100
AcDbLine
 10
1425.6755373809
 20
850.984557226
 30
0.0
 11
1426.5928909032
 21
848.9813231806
 31
0.0
  0
SPLINE
  5
2B0
330
1F
100
AcDbEntity
  8
0
  6
Continuous
 62
     8
370
    18
100
AcDbSpline
210
0.0
220
0.0
230
1.0
 70
     8
 71
     3
 72
    14
 73
    10
 74
     0
 42
0.000000001
 43
0.00000001
 40
0.0
 40
0.0
 40
0.0
 40
0.0
 40
0.2135072054014825
 40
0.6517504153256141
 40
0.8731400298126339
 40
0.9340362681778058
 40
0.9607431005770701
 40
0.9801118651181885
 40
0.9999999999999999
 40
0.9999999999999999
 40
0.9999999999999999
 40
0.9999999999999999
 10
1426.670011985877
 20
848.8242113210956
 30
0.0
 10
1426.996897117827
 20
848.2303424525659
 30
0.0
 10
1427.994744099671
 20
846.4175030170752
 30
0.0
 10
1429.896070311328
 20
844.3634790549935
 30
0.0
 10
1431.7382063906
 20
843.0320226623646
 30
0.0
 10
1432.483219006746
 20
842.5814520919038
 30
0.0
 10
1432.668363822666
 20
842.4725727830572
 30
0.0
 10
1432.734253244413
 20
842.4331268445915
 30
0.0
 10
1432.732476160465
 20
842.4325071202537
 30
0.0
 10
1432.731575863045
 20
842.432193158596
 30
0.0
  0
LINE
  5
2B1
330
1F
100
AcDbEntity
  8
0
  6
Continuous
 62
     8
370
    18
100
AcDbLine
 10
1426.5928909032
 20
848.9813231806
 30
0.0
 11
1426.6700119859
 21
848.8242113211
 31
0.0
  0
SPLINE
  5
2B2
330
1F
100
AcDbEntity
  8
0
  6
Continuous
 62
     8
370
    18
100
AcDbSpline
210
0.0
220
0.0
230
1.0
 70
     8
 71
     3
 72
     9
 73
     5
 74
     0
 42
0.000000001
 43
0.00000001
 40
0.0
 40
0.0
 40
0.0
 40
0.0
 40
0.4374209949372736
 40
1.0
 40
1.0
 40
1.0
 40
1.0
 10
1432.216138222785
 20
842.6507112000477
 30
0.0
 10
1432.212933860534
 20
842.652365560408
 30
0.0
 10
1432.205608281083
 20
842.6561476384961
 30
0.0
 10
1432.163657631563
 20
842.6809571720989
 30
0.0
 10
1432.140057076894
 20
842.6949144948293
 30
0.0
  0
LINE
  5
2B3
330
1F
100
AcDbEntity
  8
0
  6
Continuous
 62
     8
370
    18
100
AcDbLine
 10
1431.970796149
 20
842.7976146582
 30
0.0
 11
1431.8452728351
 21
842.877424691
 31
0.0
  0
LINE
  5
2B4
330
1F
100
AcDbEntity
  8
0
  6
Continuous
 62
     8
370
    18
100
AcDbLine
 10
1493.0210860766
 20
848.9813231806
 30
0.0
 11
1492.9439649938
 21
848.8242113211
 31
0.0
  0
SPLINE
  5
2B5
330
1F
100
AcDbEntity
  8
0
  6
Continuous
 62
     8
370
    18
100
AcDbSpline
210
0.0
220
0.0
230
1.0
 70
     8
 71
     3
 72
    14
 73
    10
 74
     0
 42
0.000000001
 43
0.00000001
 40
0.0
 40
0.0
 40
0.0
 40
0.0
 40
0.213507205401368
 40
0.6517504153255504
 40
0.8731400298126194
 40
0.9340362681777978
 40
0.960743100577066
 40
0.9801118651181863
 40
1.0
 40
1.0
 40
1.0
 40
1.0
 10
1492.943964993841
 20
848.8242113210935
 30
0.0
 10
1492.617079861892
 20
848.2303424525647
 30
0.0
 10
1491.61923288005
 20
846.4175030170759
 30
0.0
 10
1489.717906668392
 20
844.363479054994
 30
0.0
 10
1487.875770589121
 20
843.0320226623646
 30
0.0
 10
1487.130757972974
 20
842.5814520919038
 30
0.0
 10
1486.945613157055
 20
842.4725727830572
 30
0.0
 10
1486.879723735307
 20
842.4331268445916
 30
0.0
 10
1486.881500819255
 20
842.4325071202537
 30
0.0
 10
1486.882401116675
 20
842.4321931585961
 30
0.0
  0
SPLINE
  5
2B6
330
1F
100
AcDbEntity
  8
0
  6
Continuous
 62
     8
370
    18
100
AcDbSpline
210
0.0
220
0.0
230
1.0
 70
     8
 71
     3
 72
     9
 73
     5
 74
     0
 42
0.000000001
 43
0.00000001
 40
0.0
 40
0.0
 40
0.0
 40
0.0
 40
0.5224329713475375
 40
1.0
 40
1.0
 40
1.0
 40
1.0
 10
1487.397838756936
 20
842.6507112000482
 30
0.0
 10
1487.400613929633
 20
842.6521049179246
 30
0.0
 10
1487.405925946388
 20
842.6547726627895
 30
0.0
 10
1487.440228730248
 20
842.675046207856
 30
0.0
 10
1487.45661060881
 20
842.6847281845337
 30
0.0
  0
SPLINE
  5
2B7
330
1F
100
AcDbEntity
  8
0
  6
Continuous
 62
     8
370
    18
100
AcDbSpline
210
0.0
220
0.0
230
1.0
 70
     8
 71
     3
 72
     9
 73
     5
 74
     0
 42
0.000000001
 43
0.00000001
 40
0.0
 40
0.0
 40
0.0
 40
0.0
 40
0.3615544521738323
 40
0.9999999999999999
 40
0.9999999999999999
 40
0.9999999999999999
 40
0.9999999999999999
 10
1487.554922932114
 20
842.7435671711435
 30
0.0
 10
1487.577120191944
 20
842.7568664479918
 30
0.0
 10
1487.638514152651
 20
842.7936500549098
 30
0.0
 10
1487.723583322211
 20
842.8483473725697
 30
0.0
 10
1487.777895354774
 20
842.8832686315077
 30
0.0
  0
SPLINE
  5
2B8
330
1F
100
AcDbEntity
  8
0
  6
Continuous
 62
     8
370
    18
100
AcDbSpline
210
0.0
220
0.0
230
1.0
 70
     8
 71
     3
 72
    14
 73
    10
 74
     0
 42
0.000000001
 43
0.00000001
 40
0.0
 40
0.0
 40
0.0
 40
0.0
 40
0.1272473860604718
 40
0.2554745767697396
 40
0.3810919869018191
 40
0.5075916090131556
 40
0.7089607368256291
 40
0.9137762176246998
 40
1.0
 40
1.0
 40
1.0
 40
1.0
 10
1494.650107935716
 20
850.676425463358
 30
0.0
 10
1495.247423789984
 20
852.1663348272887
 30
0.0
 10
1496.446654829547
 20
855.1576258546311
 30
0.0
 10
1497.732285714103
 20
859.7963884659231
 30
0.0
 10
1498.644365610241
 20
864.5079644594022
 30
0.0
 10
1499.253353276355
 20
870.1995947853902
 30
0.0
 10
1499.243905221954
 20
876.931661912686
 30
0.0
 10
1498.473022208437
 20
883.1144648388855
 30
0.0
 10
1497.620171639612
 20
886.6837417521077
 30
0.0
 10
1497.367504693431
 20
887.7411817430085
 30
0.0
  0
LWPOLYLINE
  5
2B9
330
1F
100
AcDbEntity
  8
0
  6
Continuous
 62
     8
370
    18
100
AcDbPolyline
 90
        9
 70
   128
 43
0.0
 10
1493.9384395988
 20
850.984557226
 10
1493.9553749612
 20
850.9771905182
 10
1493.9939083552
 20
850.9604820617
 10
1494.0537355607
 20
850.9345637694
 10
1494.1343842442
 20
850.8996402651
 10
1494.2352176871
 20
850.8559872688
 10
1494.3554398129
 20
850.8039494193
 10
1494.4941014721
 20
850.7439375536
 10
1494.6501079357
 20
850.6764254634
  0
ARC
  5
2BA
330
1F
100
AcDbEntity
  8
0
  6
Continuous
 62
     8
370
    18
100
AcDbCircle
 10
1492.01188276
 20
908.6928066011
 30
0.0
 40
21.62529237929141
100
AcDbArc
 50
282.1010759283
 51
284.3388181969
  0
LWPOLYLINE
  5
2BB
330
1F
100
AcDbEntity
  8
0
  6
Continuous
 62
     8
370
    18
100
AcDbPolyline
 90
        9
 70
   128
 43
0.0
 10
1425.6755373809
 20
850.984557226
 10
1425.6586020185
 20
850.9771905182
 10
1425.6200686246
 20
850.9604820617
 10
1425.560241419
 20
850.9345637694
 10
1425.4795927355
 20
850.8996402651
 10
1425.3787592926
 20
850.8559872688
 10
1425.2585371668
 20
850.8039494193
 10
1425.1198755076
 20
850.7439375536
 10
1424.963869044
 20
850.6764254634
  0
SPLINE
  5
2BC
330
1F
100
AcDbEntity
  8
0
  6
Continuous
 62
     8
370
    18
100
AcDbSpline
210
0.0
220
0.0
230
1.0
 70
     8
 71
     3
 72
    14
 73
    10
 74
     0
 42
0.000000001
 43
0.00000001
 40
0.0
 40
0.0
 40
0.0
 40
0.0
 40
0.1272473860604716
 40
0.2554745767697392
 40
0.3810919869018187
 40
0.5075916090131551
 40
0.7089607368256288
 40
0.9137762176246995
 40
1.0
 40
1.0
 40
1.0
 40
1.0
 10
1424.963869044004
 20
850.6764254633575
 30
0.0
 10
1424.366553189736
 20
852.1663348272881
 30
0.0
 10
1423.167322150173
 20
855.1576258546307
 30
0.0
 10
1421.881691265617
 20
859.7963884659226
 30
0.0
 10
1420.969611369479
 20
864.5079644594017
 30
0.0
 10
1420.360623703364
 20
870.19959478539
 30
0.0
 10
1420.370071757766
 20
876.9316619126856
 30
0.0
 10
1421.140954771283
 20
883.1144648388852
 30
0.0
 10
1421.993805340108
 20
886.6837417521073
 30
0.0
 10
1422.246472286289
 20
887.741181743008
 30
0.0
  0
ARC
  5
2BD
330
1F
100
AcDbEntity
  8
0
  6
Continuous
 62
     8
370
    18
100
AcDbCircle
 10
1427.60209422
 20
908.6928066023
 30
0.0
 40
21.62529238046725
100
AcDbArc
 50
255.6611818031
 51
257.8989240716
  0
SPLINE
  5
2BE
330
1F
100
AcDbEntity
  8
0
  6
Continuous
 62
     8
370
    18
100
AcDbSpline
210
0.0
220
0.0
230
1.0
 70
     8
 71
     3
 72
    17
 73
    13
 74
     0
 42
0.000000001
 43
0.00000001
 40
0.0
 40
0.0
 40
0.0
 40
0.0
 40
0.0045109817899508
 40
0.0089278415503381
 40
0.0130797684277637
 40
0.0177777921768911
 40
0.0339670776357914
 40
0.084060007251609
 40
0.3047425979556686
 40
0.7692822253148978
 40
0.8273200843747881
 40
1.0
 40
1.0
 40
1.0
 40
1.0
 10
1487.176113796
 20
842.575652132294
 30
0.0
 10
1487.171794508061
 20
842.573888343483
 30
0.0
 10
1487.163246054504
 20
842.5703975674688
 30
0.0
 10
1487.164438513253
 20
842.5721121032652
 30
0.0
 10
1487.179287609547
 20
842.580433009115
 30
0.0
 10
1487.22622622112
 20
842.6051030605516
 30
0.0
 10
1487.408570746995
 20
842.6983152523629
 30
0.0
 10
1488.176577803256
 20
843.1022591936899
 30
0.0
 10
1490.073493586403
 20
844.2933725629398
 30
0.0
 10
1491.717468699729
 20
845.8904850895129
 30
0.0
 10
1492.986126555035
 20
847.5771349264519
 30
0.0
 10
1493.351721822493
 20
848.1752668042059
 30
0.0
 10
1493.625350328245
 20
848.6229365267674
 30
0.0
  0
ARC
  5
2BF
330
1F
100
AcDbEntity
  8
0
  6
Continuous
 62
     8
370
    18
100
AcDbCircle
 10
1488.330188475
 20
839.8404438456
 30
0.0
 40
2.968712302744201
100
AcDbArc
 50
112.8764869257
 51
119.1883353828
  0
ARC
  5
2C0
330
1F
100
AcDbEntity
  8
0
  6
Continuous
 62
     8
370
    18
100
AcDbCircle
 10
1492.8127791005
 20
847.1261005202
 30
0.0
 40
1.70317058183817
100
AcDbArc
 50
61.5042694372
 51
85.582444766
  0
ARC
  5
2C1
330
1F
100
AcDbEntity
  8
0
  6
Continuous
 62
     8
370
    18
100
AcDbCircle
 10
1431.2837885048
 20
839.8404438456
 30
0.0
 40
2.968712302716892
100
AcDbArc
 50
60.8116646172
 51
67.1235130743
  0
SPLINE
  5
2C2
330
1F
100
AcDbEntity
  8
0
  6
Continuous
 62
     8
370
    18
100
AcDbSpline
210
0.0
220
0.0
230
1.0
 70
     8
 71
     3
 72
    17
 73
    13
 74
     0
 42
0.000000001
 43
0.00000001
 40
0.0
 40
0.0
 40
0.0
 40
0.0
 40
0.0045109817899509
 40
0.0089278415503383
 40
0.0130797684277642
 40
0.017777792176891
 40
0.0339670776357916
 40
0.0840600072516111
 40
0.3047425979556528
 40
0.7692822253148937
 40
0.8273200843747842
 40
1.0
 40
1.0
 40
1.0
 40
1.0
 10
1432.43786318372
 20
842.575652132294
 30
0.0
 10
1432.442182471659
 20
842.573888343483
 30
0.0
 10
1432.450730925216
 20
842.5703975674688
 30
0.0
 10
1432.449538466467
 20
842.5721121032652
 30
0.0
 10
1432.434689370172
 20
842.5804330091153
 30
0.0
 10
1432.3877507586
 20
842.6051030605516
 30
0.0
 10
1432.205406232725
 20
842.698315252363
 30
0.0
 10
1431.437399176464
 20
843.1022591936897
 30
0.0
 10
1429.540483393316
 20
844.2933725629392
 30
0.0
 10
1427.896508279991
 20
845.8904850895126
 30
0.0
 10
1426.627850424685
 20
847.5771349264515
 30
0.0
 10
1426.262255157227
 20
848.1752668042054
 30
0.0
 10
1425.988626651475
 20
848.6229365267669
 30
0.0
  0
ARC
  5
2C3
330
1F
100
AcDbEntity
  8
0
  6
Continuous
 62
     8
370
    18
100
AcDbCircle
 10
1426.8011978792
 20
847.1261005202
 30
0.0
 40
1.703170581857714
100
AcDbArc
 50
94.4175552344
 51
118.4957305629
  0
ARC
  5
2C4
330
1F
100
AcDbEntity
  8
0
  6
Continuous
 62
     8
370
    18
100
AcDbCircle
 10
1459.7701504495
 20
998.4044939925
 30
0.0
 40
105.5675478730165
100
AcDbArc
 50
288.5592662705
 51
288.9867308475
  0
SPLINE
  5
2C5
330
1F
100
AcDbEntity
  8
0
  6
Continuous
 62
     8
370
    18
100
AcDbSpline
210
0.0
220
0.0
230
1.0
 70
     8
 71
     3
 72
    10
 73
     6
 74
     0
 42
0.000000001
 43
0.00000001
 40
0.0
 40
0.0
 40
0.0
 40
0.0
 40
0.0049102993503908
 40
0.1151643441716948
 40
1.0
 40
1.0
 40
1.0
 40
1.0
 10
1497.367504693431
 20
887.7411817430085
 30
0.0
 10
1497.362874613404
 20
887.759117305094
 30
0.0
 10
1497.25428242956
 20
888.179771342159
 30
0.0
 10
1496.295536833049
 20
891.8285609673325
 30
0.0
 10
1495.142101610021
 20
895.402503257558
 30
0.0
 10
1494.116464814305
 20
898.5804595445138
 30
0.0
  0
SPLINE
  5
2C6
330
1F
100
AcDbEntity
  8
0
  6
Continuous
 62
     8
370
    18
100
AcDbSpline
210
0.0
220
0.0
230
1.0
 70
     8
 71
     3
 72
    10
 73
     6
 74
     0
 42
0.000000001
 43
0.00000001
 40
0.0
 40
0.0
 40
0.0
 40
0.0
 40
0.0049102993503896
 40
0.1151643441716925
 40
1.0
 40
1.0
 40
1.0
 40
1.0
 10
1422.246472286289
 20
887.741181743008
 30
0.0
 10
1422.251102366316
 20
887.7591173050936
 30
0.0
 10
1422.35969455016
 20
888.1797713421588
 30
0.0
 10
1423.318440146671
 20
891.8285609673318
 30
0.0
 10
1424.4718753697
 20
895.4025032575574
 30
0.0
 10
1425.497512165415
 20
898.5804595445134
 30
0.0
  0
ARC
  5
2C7
330
1F
100
AcDbEntity
  8
0
  6
Continuous
 62
     8
370
    18
100
AcDbCircle
 10
1459.8438265288
 20
998.4044939886
 30
0.0
 40
105.5675478688783
100
AcDbArc
 50
251.0132691525
 51
251.4407337296
  0
ARC
  5
2C8
330
1F
100
AcDbEntity
  8
0
  6
Continuous
 62
     8
370
    18
100
AcDbCircle
 10
1494.111152584
 20
904.9085699647
 30
0.0
 40
2.992681724125761
100
AcDbArc
 50
208.4544255778
 51
226.4525487523
  0
SPLINE
  5
2C9
330
1F
100
AcDbEntity
  8
0
  6
Continuous
 62
     8
370
    18
100
AcDbSpline
210
0.0
220
0.0
230
1.0
 70
     8
 71
     3
 72
    15
 73
    11
 74
     0
 42
0.000000001
 43
0.00000001
 40
0.0
 40
0.0
 40
0.0
 40
0.0
 40
0.3092031051605585
 40
0.663838255257455
 40
0.803986173963673
 40
0.9077221477257735
 40
0.9361281220494168
 40
0.9546919441403823
 40
0.978908979412591
 40
1.0
 40
1.0
 40
1.0
 40
1.0
 10
1494.116464814305
 20
898.5804595445138
 30
0.0
 10
1493.93250534559
 20
899.0681790542419
 30
0.0
 10
1493.537556748011
 20
900.1152800147091
 30
0.0
 10
1492.888019084735
 20
901.3164659173991
 30
0.0
 10
1492.38753824717
 20
902.1725435979436
 30
0.0
 10
1492.164841746571
 20
902.5346732669318
 30
0.0
 10
1492.069673422311
 20
902.6840159643855
 30
0.0
 10
1492.04039987546
 20
902.7333753078104
 30
0.0
 10
1492.031765401744
 20
902.7541770290356
 30
0.0
 10
1492.043750302671
 20
902.7441361944398
 30
0.0
 10
1492.049329305949
 20
902.7394621592123
 30
0.0
  0
SPLINE
  5
2CA
330
1F
100
AcDbEntity
  8
0
  6
Continuous
 62
     8
370
    18
100
AcDbSpline
210
0.0
220
0.0
230
1.0
 70
     8
 71
     3
 72
    15
 73
    11
 74
     0
 42
0.000000001
 43
0.00000001
 40
0.0
 40
0.0
 40
0.0
 40
0.0
 40
0.3092031051605585
 40
0.663838255257455
 40
0.803986173963673
 40
0.9077221477257735
 40
0.9361281220494168
 40
0.9546919441403823
 40
0.978908979412591
 40
1.0
 40
1.0
 40
1.0
 40
1.0
 10
1425.497512165415
 20
898.5804595445134
 30
0.0
 10
1425.681471634131
 20
899.0681790542416
 30
0.0
 10
1426.07642023171
 20
900.1152800147087
 30
0.0
 10
1426.725957894986
 20
901.3164659173988
 30
0.0
 10
1427.22643873255
 20
902.1725435979431
 30
0.0
 10
1427.449135233149
 20
902.5346732669313
 30
0.0
 10
1427.544303557409
 20
902.6840159643849
 30
0.0
 10
1427.57357710426
 20
902.73337530781
 30
0.0
 10
1427.582211577976
 20
902.7541770290352
 30
0.0
 10
1427.570226677049
 20
902.7441361944392
 30
0.0
 10
1427.564647673771
 20
902.7394621592119
 30
0.0
  0
ARC
  5
2CB
330
1F
100
AcDbEntity
  8
0
  6
Continuous
 62
     8
370
    18
100
AcDbCircle
 10
1425.5028243957
 20
904.9085699647
 30
0.0
 40
2.992681724112606
100
AcDbArc
 50
313.5474512476
 51
331.5455744222
  0
LINE
  5
2CC
330
1F
100
AcDbEntity
  8
0
  6
Continuous
 62
     8
370
    18
100
AcDbLine
 10
1493.7180168977
 20
848.7864737035
 30
0.0
 11
1494.6501079357
 21
850.6764254634
 31
0.0
  0
ARC
  5
2CD
330
1F
100
AcDbEntity
  8
0
  6
Continuous
 62
     8
370
    18
100
AcDbCircle
 10
1492.920581833
 20
847.2780394248
 30
0.0
 40
1.706246364308062
100
AcDbArc
 50
62.1367925984
 51
86.6231112419
  0
ARC
  5
2CE
330
1F
100
AcDbEntity
  8
0
  6
Continuous
 62
     8
370
    18
100
AcDbCircle
 10
1426.6933951467
 20
847.2780394248
 30
0.0
 40
1.706246364312528
100
AcDbArc
 50
93.3768887581
 51
117.8632074016
  0
LINE
  5
2CF
330
1F
100
AcDbEntity
  8
0
  6
Continuous
 62
     8
370
    18
100
AcDbLine
 10
1425.895960082
 20
848.7864737035
 30
0.0
 11
1424.963869044
 21
850.6764254634
 31
0.0
  0
ARC
  5
2D0
330
1F
100
AcDbEntity
  8
0
  6
Continuous
 62
     8
370
    18
100
AcDbCircle
 10
1494.1389175475
 20
900.3269947016
 30
0.0
 40
12.99332377748255
100
AcDbArc
 50
284.387612193
 51
286.8712772964
  0
ARC
  5
2D1
330
1F
100
AcDbEntity
  8
0
  6
Continuous
 62
     8
370
    18
100
AcDbCircle
 10
1505.5517557082
 20
875.8717211493
 30
0.0
 40
27.45266560569166
100
AcDbArc
 50
246.6025480367
 51
247.6829243032
  0
ARC
  5
2D2
330
1F
100
AcDbEntity
  8
0
  6
Continuous
 62
     8
370
    18
100
AcDbCircle
 10
1425.4750594317
 20
900.3269946998
 30
0.0
 40
12.99332377560836
100
AcDbArc
 50
253.1287227035
 51
255.6123878072
  0
ARC
  5
2D3
330
1F
100
AcDbEntity
  8
0
  6
Continuous
 62
     8
370
    18
100
AcDbCircle
 10
1414.0622212709
 20
875.8717211506
 30
0.0
 40
27.45266560710774
100
AcDbArc
 50
292.3170756968
 51
293.3974519632
  0
LINE
  5
2D4
330
1F
100
AcDbEntity
  8
0
  6
Continuous
 62
     8
370
    18
100
AcDbLine
 10
1493.6253503282
 20
848.6229365268
 30
0.0
 11
1493.7180168977
 21
848.7864737035
 31
0.0
  0
LINE
  5
2D5
330
1F
100
AcDbEntity
  8
0
  6
Continuous
 62
     8
370
    18
100
AcDbLine
 10
1425.9886266515
 20
848.6229365268
 30
0.0
 11
1425.895960082
 21
848.7864737035
 31
0.0
  0
ARC
  5
2D6
330
1F
100
AcDbEntity
  8
0
  6
Continuous
 62
     8
370
    18
100
AcDbCircle
 10
1493.0913925715
 20
847.6833196227
 30
0.0
 40
1.080736236290826
100
AcDbArc
 50
35.0981925255
 51
60.3916535262
  0
ARC
  5
2D7
330
1F
100
AcDbEntity
  8
0
  6
Continuous
 62
     8
370
    18
100
AcDbCircle
 10
1426.5225844082
 20
847.6833196227
 30
0.0
 40
1.08073623629324
100
AcDbArc
 50
119.6083464738
 51
144.9018074745
  0
ARC
  5
2D8
330
1F
100
AcDbEntity
  8
0
  6
Continuous
 62
     8
370
    18
100
AcDbCircle
 10
1452.3234264501
 20
1019.9497501233
 30
0.0
 40
128.3634011364456
100
AcDbArc
 50
289.0009454547
 51
289.2355634086
  0
ARC
  5
2D9
330
1F
100
AcDbEntity
  8
0
  6
Continuous
 62
     8
370
    18
100
AcDbCircle
 10
1467.2905505233
 20
1019.9497501049
 30
0.0
 40
128.3634011169293
100
AcDbArc
 50
250.7644365914
 51
250.9990545453
  0
ARC
  5
2DA
330
1F
100
AcDbEntity
  8
0
  6
Continuous
 62
     8
370
    18
100
AcDbCircle
 10
1488.9311009051
 20
840.0798770857
 30
0.0
 40
2.993339415864352
100
AcDbArc
 50
114.936231731
 51
120.8121245743
  0
ARC
  5
2DB
330
1F
100
AcDbEntity
  8
0
  6
Continuous
 62
     8
370
    18
100
AcDbCircle
 10
1430.6828760745
 20
840.0798770855
 30
0.0
 40
2.993339416054472
100
AcDbArc
 50
59.1878754259
 51
65.0637682688
  0
ARC
  5
2DC
330
1F
100
AcDbEntity
  8
0
  6
Continuous
 62
     8
370
    18
100
AcDbCircle
 10
1494.3036685339
 20
904.7298501302
 30
0.0
 40
2.998432342262748
100
AcDbArc
 50
207.1895966032
 51
225.2949287514
  0
ARC
  5
2DD
330
1F
100
AcDbEntity
  8
0
  6
Continuous
 62
     8
370
    18
100
AcDbCircle
 10
1425.3103084458
 20
904.7298501302
 30
0.0
 40
2.998432342273057
100
AcDbArc
 50
314.7050712487
 51
332.8104033968
  0
SPLINE
  5
2DE
330
1F
100
AcDbEntity
  8
0
  6
Continuous
 62
     8
370
    18
100
AcDbSpline
210
0.0
220
0.0
230
1.0
 70
     8
 71
     3
 72
    14
 73
    10
 74
     0
 42
0.000000001
 43
0.00000001
 40
0.0
 40
0.0
 40
0.0
 40
0.0
 40
0.1091415029136121
 40
0.2578985762259953
 40
0.4075717920355423
 40
0.5603518326033361
 40
0.7143170390077698
 40
0.9248596140267876
 40
1.0
 40
1.0
 40
1.0
 40
1.0
 10
1494.973712378263
 20
849.6183256408316
 30
0.0
 10
1495.143615527201
 20
850.0029168399628
 30
0.0
 10
1495.545092316851
 20
850.9116959939711
 30
0.0
 10
1496.1554158524
 20
852.4510412316475
 30
0.0
 10
1496.792654524349
 20
854.2504760196251
 30
0.0
 10
1497.387330490872
 20
856.169269220515
 30
0.0
 10
1497.982818343885
 20
858.4477941780408
 30
0.0
 10
1498.43467073861
 20
860.4589172423802
 30
0.0
 10
1498.634783744147
 20
861.820089370343
 30
0.0
 10
1498.68741750439
 20
862.1781051186953
 30
0.0
  0
LWPOLYLINE
  5
2DF
330
1F
100
AcDbEntity
  8
0
  6
Continuous
 62
     8
370
    18
100
AcDbPolyline
 90
        3
 70
   128
 43
0.0
 10
1494.9737123783
 20
849.6183256408
 10
1494.6540157076
 20
849.6277404497
 10
1494.6348873105
 20
849.6272899347
  0
LWPOLYLINE
  5
2E0
330
1F
100
AcDbEntity
  8
0
  6
Continuous
 62
     8
370
    18
100
AcDbPolyline
 90
        9
 70
   128
 43
0.0
 10
1494.9737123783
 20
849.6183256408
 10
1496.9210472761
 20
850.1610360584
 10
1498.7238797951
 20
850.9230442439
 10
1500.3358061483
 20
851.8847365809
 10
1501.7153363547
 20
853.0213597072
 10
1502.8269621653
 20
854.303657651
 10
1503.6420710239
 20
855.6986248614
 10
1504.1396825356
 20
857.1703557505
 10
1504.3069884899
 20
858.6809688814
  0
SPLINE
  5
2E1
330
1F
100
AcDbEntity
  8
0
  6
Continuous
 62
     8
370
    18
100
AcDbSpline
210
0.0
220
0.0
230
1.0
 70
     8
 71
     3
 72
     9
 73
     5
 74
     0
 42
0.000000001
 43
0.00000001
 40
0.0
 40
0.0
 40
0.0
 40
0.0
 40
0.5770474436019455
 40
1.0
 40
1.0
 40
1.0
 40
1.0
 10
1491.30698848986
 20
844.3910798506885
 30
0.0
 10
1492.098278010636
 20
845.2458760153482
 30
0.0
 10
1493.469550909511
 20
846.7272033726344
 30
0.0
 10
1494.526621619275
 20
848.7589803670239
 30
0.0
 10
1494.973712378263
 20
849.6183256408316
 30
0.0
  0
SPLINE
  5
2E2
330
1F
100
AcDbEntity
  8
0
  6
Continuous
 62
     8
370
    18
100
AcDbSpline
210
0.0
220
0.0
230
1.0
 70
     8
 71
     3
 72
    10
 73
     6
 74
     0
 42
0.000000001
 43
0.00000001
 40
0.0
 40
0.0
 40
0.0
 40
0.0
 40
0.3947082167601896
 40
0.7987089853918159
 40
0.9999999999999999
 40
0.9999999999999999
 40
0.9999999999999999
 40
0.9999999999999999
 10
1491.30698848986
 20
844.3910798506885
 30
0.0
 10
1490.163617949386
 20
843.6610131368585
 30
0.0
 10
1487.849958680256
 20
842.1836918663322
 30
0.0
 10
1484.68009011965
 20
841.0632348040639
 30
0.0
 10
1482.711250092821
 20
840.8983120253358
 30
0.0
 10
1482.056508334258
 20
840.843466619564
 30
0.0
  0
LWPOLYLINE
  5
2E3
330
1F
100
AcDbEntity
  8
0
  6
Continuous
 62
     8
370
    18
100
AcDbPolyline
 90
       10
 70
   128
 43
0.0
 10
1504.3069884899
 20
855.3899630028
 10
1504.109489279
 20
853.4800269871
 10
1503.5229925601
 20
851.6281234107
 10
1502.5653187391
 20
849.8905214267
 10
1501.2655662504
 20
848.3200171922
 10
1499.6632274158
 20
846.9643296836
 10
1497.8069884899
 20
845.8646507798
 10
1495.7532503531
 20
845.0543936679
 10
1493.5644147995
 20
844.5581776001
 10
1491.3069884899
 20
844.3910798507
  0
LINE
  5
2E4
330
1F
100
AcDbEntity
  8
0
  6
Continuous
 62
     8
370
    18
100
AcDbLine
 10
1491.3069884899
 20
840.5350816169
 30
0.0
 11
1491.3069884899
 21
844.3910798507
 31
0.0
  0
SPLINE
  5
2E5
330
1F
100
AcDbEntity
  8
0
  6
Continuous
 62
     8
370
    18
100
AcDbSpline
210
0.0
220
0.0
230
1.0
 70
     8
 71
     3
 72
    17
 73
    13
 74
     0
 42
0.000000001
 43
0.00000001
 40
0.0
 40
0.0
 40
0.0
 40
0.0
 40
0.2229912195115408
 40
0.5008176009807322
 40
0.685896539987934
 40
0.8665771651902272
 40
0.9279597470316772
 40
0.9497616361807324
 40
0.9717583090123801
 40
0.9770054670051735
 40
0.9922372900676771
 40
1.0
 40
1.0
 40
1.0
 40
1.0
 10
1430.108029937861
 20
843.9496059378098
 30
0.0
 10
1430.243773226975
 20
843.8491924793881
 30
0.0
 10
1430.54864006681
 20
843.6236731631432
 30
0.0
 10
1430.987171576735
 20
843.3447886216884
 30
0.0
 10
1431.40341420565
 20
843.0941676618784
 30
0.0
 10
1431.68400059944
 20
842.9361042756464
 30
0.0
 10
1431.851112755237
 20
842.8452617498175
 30
0.0
 10
1431.909098977901
 20
842.8139574180539
 30
0.0
 10
1431.930914908802
 20
842.8021540425791
 30
0.0
 10
1431.942738009059
 20
842.7956620783395
 30
0.0
 10
1431.946795158328
 20
842.7933470983187
 30
0.0
 10
1431.945375202856
 20
842.7939624406987
 30
0.0
 10
1431.94489584098
 20
842.7941701737457
 30
0.0
  0
LINE
  5
2E6
330
1F
100
AcDbEntity
  8
0
  6
Continuous
 62
     8
370
    18
100
AcDbLine
 10
1494.8069884899
 20
932.9846816169
 30
0.0
 11
1410.3069884899
 21
932.9846816169
 31
0.0
  0
LINE
  5
2E7
330
1F
100
AcDbEntity
  8
0
  6
Continuous
 62
     8
370
    18
100
AcDbLine
 10
1410.2819884899
 20
954.4846816169
 30
0.0
 11
1409.2819884899
 21
954.4846816169
 31
0.0
  0
LINE
  5
2E8
330
1F
100
AcDbEntity
  8
0
  6
Continuous
 62
     8
370
    18
100
AcDbLine
 10
1410.2819884899
 20
922.9846816169
 30
0.0
 11
1409.2819884899
 21
922.9846816169
 31
0.0
  0
LINE
  5
2E9
330
1F
100
AcDbEntity
  8
0
  6
Continuous
 62
     8
370
    18
100
AcDbLine
 10
1411.2819884899
 20
921.9846816169
 30
0.0
 11
1411.2819884899
 21
920.9846816169
 31
0.0
  0
LINE
  5
2EA
330
1F
100
AcDbEntity
  8
0
  6
Continuous
 62
     8
370
    18
100
AcDbLine
 10
1515.2819884899
 20
920.9846816169
 30
0.0
 11
1515.2819884899
 21
921.9846816169
 31
0.0
  0
LINE
  5
2EB
330
1F
100
AcDbEntity
  8
0
  6
Continuous
 62
     7
370
    35
100
AcDbLine
 10
510.6107245225
 20
699.2803727514
 30
0.0
 11
1190.6107245225
 21
699.2803727514
 31
0.0
  0
LINE
  5
2EC
330
1F
100
AcDbEntity
  8
0
  6
Continuous
 62
     7
370
    35
100
AcDbLine
 10
510.6107245225
 20
700.2803727514
 30
0.0
 11
510.6107245225
 21
699.2803727514
 31
0.0
  0
LINE
  5
2ED
330
1F
100
AcDbEntity
  8
0
  6
Continuous
 62
     7
370
    35
100
AcDbLine
 10
510.6107245225
 20
700.2803727514
 30
0.0
 11
1190.6107245225
 21
700.2803727514
 31
0.0
  0
LINE
  5
2EE
330
1F
100
AcDbEntity
  8
0
  6
Continuous
 62
     7
370
    35
100
AcDbLine
 10
1190.6107245225
 20
700.2803727514
 30
0.0
 11
1190.6107245225
 21
699.2803727514
 31
0.0
  0
LINE
  5
2EF
330
1F
100
AcDbEntity
  8
0
  6
Continuous
 62
     7
370
    35
100
AcDbLine
 10
1190.6107245225
 20
698.2803727514
 30
0.0
 11
1190.6107245225
 21
699.2803727514
 31
0.0
  0
LINE
  5
2F0
330
1F
100
AcDbEntity
  8
0
  6
Continuous
 62
     7
370
    35
100
AcDbLine
 10
510.6107245225
 20
699.2803727514
 30
0.0
 11
510.6107245225
 21
698.2803727514
 31
0.0
  0
LINE
  5
2F1
330
1F
100
AcDbEntity
  8
0
  6
Continuous
 62
     7
370
    35
100
AcDbLine
 10
1190.6107245225
 20
683.7803727514
 30
0.0
 11
1190.6107245225
 21
698.2803727514
 31
0.0
  0
LINE
  5
2F2
330
1F
100
AcDbEntity
  8
0
  6
Continuous
 62
     7
370
    35
100
AcDbLine
 10
510.6107245225
 20
698.2803727514
 30
0.0
 11
510.6107245225
 21
683.7803727514
 31
0.0
  0
LINE
  5
2F3
330
1F
100
AcDbEntity
  8
0
  6
Continuous
 62
     7
370
    35
100
AcDbLine
 10
510.6107245225
 20
682.0483219438
 30
0.0
 11
510.6107245225
 21
683.7803727514
 31
0.0
  0
LINE
  5
2F4
330
1F
100
AcDbEntity
  8
0
  6
Continuous
 62
     7
370
    35
100
AcDbLine
 10
1190.6107245225
 20
683.7803727514
 30
0.0
 11
1190.6107245225
 21
682.0483219438
 31
0.0
  0
LINE
  5
2F5
330
1F
100
AcDbEntity
  8
0
  6
Continuous
 62
     7
370
    35
100
AcDbLine
 10
1190.6107245225
 20
681.7803727514
 30
0.0
 11
510.6107245225
 21
681.7803727514
 31
0.0
  0
LINE
  5
2F6
330
1F
100
AcDbEntity
  8
0
  6
Continuous
 62
     7
370
    35
100
AcDbLine
 10
1190.6107245225
 20
617.6945863137
 30
0.0
 11
1190.6107245225
 21
614.866159189
 31
0.0
  0
LINE
  5
2F7
330
1F
100
AcDbEntity
  8
0
  6
Continuous
 62
     7
370
    35
100
AcDbLine
 10
510.6107245225
 20
614.7803727514
 30
0.0
 11
1190.6107245225
 21
614.7803727514
 31
0.0
  0
LINE
  5
2F8
330
1F
100
AcDbEntity
  8
0
  6
Continuous
 62
     7
370
    35
100
AcDbLine
 10
510.6107245225
 20
614.866159189
 30
0.0
 11
510.6107245225
 21
617.6945863137
 31
0.0
  0
LINE
  5
2F9
330
1F
100
AcDbEntity
  8
0
  6
Continuous
 62
     7
370
    35
100
AcDbLine
 10
510.6107245225
 20
617.7803727514
 30
0.0
 11
1190.6107245225
 21
617.7803727514
 31
0.0
  0
LINE
  5
2FA
330
1F
100
AcDbEntity
  8
0
  6
Continuous
 62
     7
370
    35
100
AcDbLine
 10
510.6107245225
 20
614.7803727514
 30
0.0
 11
510.6107245225
 21
613.7803727514
 31
0.0
  0
LINE
  5
2FB
330
1F
100
AcDbEntity
  8
0
  6
Continuous
 62
     7
370
    35
100
AcDbLine
 10
1190.6107245225
 20
613.7803727514
 30
0.0
 11
1190.6107245225
 21
614.7803727514
 31
0.0
  0
LINE
  5
2FC
330
1F
100
AcDbEntity
  8
0
  6
Continuous
 62
     7
370
    35
100
AcDbLine
 10
1190.6107245225
 20
584.2803727514
 30
0.0
 11
510.6107245225
 21
584.2803727514
 31
0.0
  0
LINE
  5
2FD
330
1F
100
AcDbEntity
  8
0
  6
Continuous
 62
     7
370
    35
100
AcDbLine
 10
510.6107245225
 20
584.2803727514
 30
0.0
 11
510.6107245225
 21
613.7803727514
 31
0.0
  0
LINE
  5
2FE
330
1F
100
AcDbEntity
  8
0
  6
Continuous
 62
     7
370
    35
100
AcDbLine
 10
1190.6107245225
 20
613.7803727514
 30
0.0
 11
1190.6107245225
 21
584.2803727514
 31
0.0
  0
LINE
  5
2FF
330
1F
100
AcDbEntity
  8
0
  6
Continuous
 62
     7
370
    35
100
AcDbLine
 10
797.6107245225
 20
679.0353524493
 30
0.0
 11
903.6107245225
 21
679.0353524493
 31
0.0
  0
SPLINE
  5
300
330
1F
100
AcDbEntity
  8
0
  6
Continuous
 62
     7
370
    35
100
AcDbSpline
210
0.0
220
0.0
230
1.0
 70
     8
 71
     3
 72
     8
 73
     4
 74
     0
 42
0.000000001
 43
0.00000001
 40
0.0
 40
0.0
 40
0.0
 40
0.0
 40
1.0
 40
1.0
 40
1.0
 40
1.0
 10
790.8434615505678
 20
678.8370881795698
 30
0.0
 10
793.096788541677
 20
678.9675759603707
 30
0.0
 10
795.353605990175
 20
679.0353524493211
 30
0.0
 10
797.6107245224555
 20
679.0353524493211
 30
0.0
  0
SPLINE
  5
301
330
1F
100
AcDbEntity
  8
0
  6
Continuous
 62
     7
370
    35
100
AcDbSpline
210
0.0
220
0.0
230
1.0
 70
     8
 71
     3
 72
     8
 73
     4
 74
     0
 42
0.000000001
 43
0.00000001
 40
0.0
 40
0.0
 40
0.0
 40
0.0
 40
1.0
 40
1.0
 40
1.0
 40
1.0
 10
903.6107245224555
 20
679.0353524493211
 30
0.0
 10
905.867838192201
 20
679.0353524493211
 30
0.0
 10
908.1246601969731
 20
678.9675759781302
 30
0.0
 10
910.3779874943432
 20
678.83708817957
 30
0.0
  0
SPLINE
  5
302
330
1F
100
AcDbEntity
  8
0
  6
Continuous
 62
     7
370
    35
100
AcDbSpline
210
0.0
220
0.0
230
1.0
 70
     8
 71
     3
 72
     8
 73
     4
 74
     0
 42
0.000000001
 43
0.00000001
 40
0.0
 40
0.0
 40
0.0
 40
0.0
 40
1.0
 40
1.0
 40
1.0
 40
1.0
 10
797.6107245224555
 20
620.5253930534066
 30
0.0
 10
795.35361085271
 20
620.5253930534066
 30
0.0
 10
793.0967888479378
 20
620.5931695245974
 30
0.0
 10
790.8434615505676
 20
620.7236573231577
 30
0.0
  0
LINE
  5
303
330
1F
100
AcDbEntity
  8
0
  6
Continuous
 62
     7
370
    35
100
AcDbLine
 10
903.6107245225
 20
620.5253930534
 30
0.0
 11
797.6107245225
 21
620.5253930534
 31
0.0
  0
SPLINE
  5
304
330
1F
100
AcDbEntity
  8
0
  6
Continuous
 62
     7
370
    35
100
AcDbSpline
210
0.0
220
0.0
230
1.0
 70
     8
 71
     3
 72
     8
 73
     4
 74
     0
 42
0.000000001
 43
0.00000001
 40
0.0
 40
0.0
 40
0.0
 40
0.0
 40
1.0
 40
1.0
 40
1.0
 40
1.0
 10
910.3779874943434
 20
620.7236573231578
 30
0.0
 10
908.1246605032339
 20
620.5931695423569
 30
0.0
 10
905.867843054736
 20
620.5253930534066
 30
0.0
 10
903.6107245224555
 20
620.5253930534066
 30
0.0
  0
SPLINE
  5
305
330
1F
100
AcDbEntity
  8
0
  6
Continuous
 62
     7
370
    35
100
AcDbSpline
210
0.0
220
0.0
230
1.0
 70
     8
 71
     3
 72
    10
 73
     6
 74
     0
 42
0.000000001
 43
0.00000001
 40
0.0
 40
0.0
 40
0.0
 40
0.0
 40
0.5
 40
0.5
 40
1.0
 40
1.0
 40
1.0
 40
1.0
 10
903.6107245224555
 20
679.0303727513639
 30
0.0
 10
904.7536846704128
 20
679.0303727513639
 30
0.0
 10
905.8888781481562
 20
679.0140987325353
 30
0.0
 10
908.1444044805272
 20
678.9496643405263
 30
0.0
 10
909.264740426583
 20
678.9015067632204
 30
0.0
 10
910.3779874943434
 20
678.8370655389273
 30
0.0
  0
SPLINE
  5
306
330
1F
100
AcDbEntity
  8
0
  6
Continuous
 62
     7
370
    35
100
AcDbSpline
210
0.0
220
0.0
230
1.0
 70
     8
 71
     3
 72
    10
 73
     6
 74
     0
 42
0.000000001
 43
0.00000001
 40
0.0
 40
0.0
 40
0.0
 40
0.0
 40
0.5
 40
0.5
 40
1.0
 40
1.0
 40
1.0
 40
1.0
 10
903.6107245224555
 20
676.7803727513639
 30
0.0
 10
904.6394642555443
 20
676.7803727513639
 30
0.0
 10
905.6611437318402
 20
676.7217792143548
 30
0.0
 10
907.6910693144869
 20
676.4898165403393
 30
0.0
 10
908.6993188312529
 20
676.3164598260519
 30
0.0
 10
909.7012611971544
 20
676.0844667865924
 30
0.0
  0
SPLINE
  5
307
330
1F
100
AcDbEntity
  8
0
  6
Continuous
 62
     7
370
    35
100
AcDbSpline
210
0.0
220
0.0
230
1.0
 70
     8
 71
     3
 72
    10
 73
     6
 74
     0
 42
0.000000001
 43
0.00000001
 40
0.0
 40
0.0
 40
0.0
 40
0.0
 40
0.5
 40
0.5
 40
1.0
 40
1.0
 40
1.0
 40
1.0
 10
790.8434615505676
 20
678.8370655389273
 30
0.0
 10
791.956708618328
 20
678.9015067632204
 30
0.0
 10
793.0770445643838
 20
678.9496643405263
 30
0.0
 10
795.3325708967548
 20
679.0140987325353
 30
0.0
 10
796.4677643744982
 20
679.0303727513639
 30
0.0
 10
797.6107245224555
 20
679.0303727513639
 30
0.0
  0
SPLINE
  5
308
330
1F
100
AcDbEntity
  8
0
  6
Continuous
 62
     7
370
    35
100
AcDbSpline
210
0.0
220
0.0
230
1.0
 70
     8
 71
     3
 72
    10
 73
     6
 74
     0
 42
0.000000001
 43
0.00000001
 40
0.0
 40
0.0
 40
0.0
 40
0.0
 40
0.5
 40
0.5
 40
1.0
 40
1.0
 40
1.0
 40
1.0
 10
791.5201878477566
 20
676.0844667865923
 30
0.0
 10
792.5221302136581
 20
676.3164598260519
 30
0.0
 10
793.5303797304241
 20
676.4898165403393
 30
0.0
 10
795.5603053130708
 20
676.7217792143548
 30
0.0
 10
796.5819847893666
 20
676.7803727513639
 30
0.0
 10
797.6107245224555
 20
676.7803727513639
 30
0.0
  0
SPLINE
  5
309
330
1F
100
AcDbEntity
  8
0
  6
Continuous
 62
     7
370
    35
100
AcDbSpline
210
0.0
220
0.0
230
1.0
 70
     8
 71
     3
 72
    10
 73
     6
 74
     0
 42
0.000000001
 43
0.00000001
 40
0.0
 40
0.0
 40
0.0
 40
0.0
 40
0.5
 40
0.5
 40
1.0
 40
1.0
 40
1.0
 40
1.0
 10
797.6107245224555
 20
620.5303727513638
 30
0.0
 10
796.4677643744982
 20
620.5303727513638
 30
0.0
 10
795.3325708967548
 20
620.5466467701922
 30
0.0
 10
793.0770445643836
 20
620.6110811622012
 30
0.0
 10
791.9567086183279
 20
620.6592387395074
 30
0.0
 10
790.8434615505674
 20
620.7236799638004
 30
0.0
  0
SPLINE
  5
30A
330
1F
100
AcDbEntity
  8
0
  6
Continuous
 62
     7
370
    35
100
AcDbSpline
210
0.0
220
0.0
230
1.0
 70
     8
 71
     3
 72
    10
 73
     6
 74
     0
 42
0.000000001
 43
0.00000001
 40
0.0
 40
0.0
 40
0.0
 40
0.0
 40
0.5
 40
0.5
 40
1.0
 40
1.0
 40
1.0
 40
1.0
 10
797.6107245224555
 20
622.7803727513638
 30
0.0
 10
796.5819847893666
 20
622.7803727513638
 30
0.0
 10
795.5603053130708
 20
622.8389662883728
 30
0.0
 10
793.530379730424
 20
623.0709289623882
 30
0.0
 10
792.522130213658
 20
623.2442856766758
 30
0.0
 10
791.5201878477563
 20
623.4762787161353
 30
0.0
  0
SPLINE
  5
30B
330
1F
100
AcDbEntity
  8
0
  6
Continuous
 62
     7
370
    35
100
AcDbSpline
210
0.0
220
0.0
230
1.0
 70
     8
 71
     3
 72
    10
 73
     6
 74
     0
 42
0.000000001
 43
0.00000001
 40
0.0
 40
0.0
 40
0.0
 40
0.0
 40
0.5
 40
0.5
 40
1.0
 40
1.0
 40
1.0
 40
1.0
 10
910.3779874943435
 20
620.7236799638004
 30
0.0
 10
909.2647404265831
 20
620.6592387395074
 30
0.0
 10
908.1444044805273
 20
620.6110811622012
 30
0.0
 10
905.8888781481562
 20
620.5466467701922
 30
0.0
 10
904.7536846704128
 20
620.5303727513638
 30
0.0
 10
903.6107245224555
 20
620.5303727513638
 30
0.0
  0
SPLINE
  5
30C
330
1F
100
AcDbEntity
  8
0
  6
Continuous
 62
     7
370
    35
100
AcDbSpline
210
0.0
220
0.0
230
1.0
 70
     8
 71
     3
 72
    10
 73
     6
 74
     0
 42
0.000000001
 43
0.00000001
 40
0.0
 40
0.0
 40
0.0
 40
0.0
 40
0.5
 40
0.5
 40
1.0
 40
1.0
 40
1.0
 40
1.0
 10
909.7012611971546
 20
623.4762787161353
 30
0.0
 10
908.6993188312529
 20
623.2442856766759
 30
0.0
 10
907.691069314487
 20
623.0709289623882
 30
0.0
 10
905.6611437318402
 20
622.8389662883728
 30
0.0
 10
904.6394642555443
 20
622.7803727513638
 30
0.0
 10
903.6107245224555
 20
622.7803727513638
 30
0.0
  0
LINE
  5
30D
330
1F
100
AcDbEntity
  8
0
  6
Continuous
 62
     7
370
    35
100
AcDbLine
 10
903.6107245225
 20
679.0303727514
 30
0.0
 11
797.6107245225
 21
679.0303727514
 31
0.0
  0
LINE
  5
30E
330
1F
100
AcDbEntity
  8
0
  6
Continuous
 62
     7
370
    35
100
AcDbLine
 10
797.6107245225
 20
676.7803727514
 30
0.0
 11
903.6107245225
 21
676.7803727514
 31
0.0
  0
LINE
  5
30F
330
1F
100
AcDbEntity
  8
0
  6
Continuous
 62
     7
370
    35
100
AcDbLine
 10
797.6107245225
 20
620.5303727514
 30
0.0
 11
903.6107245225
 21
620.5303727514
 31
0.0
  0
LINE
  5
310
330
1F
100
AcDbEntity
  8
0
  6
Continuous
 62
     7
370
    35
100
AcDbLine
 10
903.6107245225
 20
622.7803727514
 30
0.0
 11
797.6107245225
 21
622.7803727514
 31
0.0
  0
ARC
  5
311
330
1F
100
AcDbEntity
  8
0
  6
Continuous
 62
     7
370
    35
100
AcDbCircle
 10
903.6107245225
 20
649.7803727514
 30
0.0
 40
27.0000000000001
100
AcDbArc
 50
0.4331051188
 51
76.9632820449
  0
ARC
  5
312
330
1F
100
AcDbEntity
  8
0
  6
Continuous
 62
     7
370
    35
100
AcDbCircle
 10
797.6107245225
 20
649.7803727514
 30
0.0
 40
27.0000000000001
100
AcDbArc
 50
103.0367179551
 51
179.5668948812
  0
ARC
  5
313
330
1F
100
AcDbEntity
  8
0
  6
Continuous
 62
     7
370
    35
100
AcDbCircle
 10
797.6107245225
 20
649.7803727514
 30
0.0
 40
27.0000000000001
100
AcDbArc
 50
180.4331051188
 51
256.9632820449
  0
ARC
  5
314
330
1F
100
AcDbEntity
  8
0
  6
Continuous
 62
     7
370
    35
100
AcDbCircle
 10
903.6107245225
 20
649.7803727514
 30
0.0
 40
27.0000000000001
100
AcDbArc
 50
283.0367179551
 51
359.5668948812
  0
LINE
  5
315
330
1F
100
AcDbEntity
  8
0
  6
Continuous
 62
     7
370
    35
100
AcDbLine
 10
893.6107245225
 20
654.713547254
 30
0.0
 11
894.030325607
 21
657.5798962592
 31
0.0
  0
SPLINE
  5
316
330
1F
100
AcDbEntity
  8
0
  6
Continuous
 62
     7
370
    35
100
AcDbSpline
210
0.0
220
0.0
230
1.0
 70
     8
 71
     3
 72
    11
 73
     7
 74
     0
 42
0.000000001
 43
0.00000001
 40
0.0
 40
0.0
 40
0.0
 40
0.0
 40
0.2606216717109328
 40
0.4632004480822261
 40
0.6713667795608107
 40
1.0
 40
1.0
 40
1.0
 40
1.0
 10
894.0303256069571
 20
657.5798962592454
 30
0.0
 10
894.3972069776185
 20
658.5816144390558
 30
0.0
 10
895.0492617901281
 20
660.3619587469341
 30
0.0
 10
896.5866266519506
 20
662.6169583689968
 30
0.0
 10
898.6013924364468
 20
664.8315925493489
 30
0.0
 10
900.4467205222844
 20
665.9520546473209
 30
0.0
 10
901.5764459653275
 20
666.6380110090972
 30
0.0
  0
SPLINE
  5
317
330
1F
100
AcDbEntity
  8
0
  6
Continuous
 62
     7
370
    35
100
AcDbSpline
210
0.0
220
0.0
230
1.0
 70
     8
 71
     3
 72
    16
 73
    12
 74
     0
 42
0.000000001
 43
0.00000001
 40
0.0
 40
0.0
 40
0.0
 40
0.0
 40
0.6093642604521551
 40
0.7233750503883669
 40
0.8172213162021763
 40
0.8496365726798809
 40
0.8823612341657188
 40
0.9067814804504398
 40
0.9311421346358155
 40
0.9706402276081938
 40
0.9999999999999999
 40
0.9999999999999999
 40
0.9999999999999999
 40
0.9999999999999999
 10
901.5764459653275
 20
666.6380110090972
 30
0.0
 10
902.1532802349168
 20
666.9356660850468
 30
0.0
 10
902.8380390005855
 20
667.2890118086765
 30
0.0
 10
903.5052819717693
 20
667.8147501323341
 30
0.0
 10
903.6755353697474
 20
667.9999031423885
 30
0.0
 10
903.7438088304241
 20
668.1485594425602
 30
0.0
 10
903.7554479714182
 20
668.2421601079419
 30
0.0
 10
903.7309225232048
 20
668.32612279295
 30
0.0
 10
903.6746598155615
 20
668.4042617801232
 30
0.0
 10
903.5915876528973
 20
668.4664589759584
 30
0.0
 10
903.5231667844519
 20
668.4983489051878
 30
0.0
 10
903.4939933397948
 20
668.5119462053483
 30
0.0
  0
SPLINE
  5
318
330
1F
100
AcDbEntity
  8
0
  6
Continuous
 62
     7
370
    35
100
AcDbSpline
210
0.0
220
0.0
230
1.0
 70
     8
 71
     3
 72
    13
 73
     9
 74
     0
 42
0.000000001
 43
0.00000001
 40
0.0
 40
0.0
 40
0.0
 40
0.0
 40
0.1585077763893689
 40
0.3168380823633749
 40
0.4791716695217876
 40
0.6493085002788186
 40
0.8235953482372533
 40
1.0
 40
1.0
 40
1.0
 40
1.0
 10
916.138336759615
 20
654.1015254118388
 30
0.0
 10
915.8457616058557
 20
655.1118508636454
 30
0.0
 10
915.2609388749091
 20
657.1313705743188
 30
0.0
 10
913.7649123232221
 20
659.9519733258804
 30
0.0
 10
911.8382336535163
 20
662.5820241338648
 30
0.0
 10
909.4391592557374
 20
664.9449567301133
 30
0.0
 10
906.6468329830034
 20
667.0008490751895
 30
0.0
 10
904.5491624541171
 20
668.0062233646961
 30
0.0
 10
903.4939933397948
 20
668.5119462053483
 30
0.0
  0
SPLINE
  5
319
330
1F
100
AcDbEntity
  8
0
  6
Continuous
 62
     7
370
    35
100
AcDbSpline
210
0.0
220
0.0
230
1.0
 70
     8
 71
     3
 72
     9
 73
     5
 74
     0
 42
0.000000001
 43
0.00000001
 40
0.0
 40
0.0
 40
0.0
 40
0.0
 40
0.4230848072461902
 40
1.0
 40
1.0
 40
1.0
 40
1.0
 10
916.138336759615
 20
645.4592200908887
 30
0.0
 10
916.3644571658728
 20
646.6739357150437
 30
0.0
 10
916.8989136209026
 20
649.5450282320771
 30
0.0
 10
916.4165941754545
 20
652.4345286951961
 30
0.0
 10
916.138336759615
 20
654.1015254118388
 30
0.0
  0
SPLINE
  5
31A
330
1F
100
AcDbEntity
  8
0
  6
Continuous
 62
     7
370
    35
100
AcDbSpline
210
0.0
220
0.0
230
1.0
 70
     8
 71
     3
 72
    13
 73
     9
 74
     0
 42
0.000000001
 43
0.00000001
 40
0.0
 40
0.0
 40
0.0
 40
0.0
 40
0.1585077763893682
 40
0.3168380823633731
 40
0.4791716695217854
 40
0.649308500278816
 40
0.823595348237254
 40
1.0
 40
1.0
 40
1.0
 40
1.0
 10
916.138336759615
 20
645.4592200908887
 30
0.0
 10
915.8457616058557
 20
644.4488946390821
 30
0.0
 10
915.2609388749094
 20
642.4293749284088
 30
0.0
 10
913.7649123232221
 20
639.6087721768472
 30
0.0
 10
911.8382336535163
 20
636.9787213688628
 30
0.0
 10
909.4391592557374
 20
634.6157887726143
 30
0.0
 10
906.6468329830034
 20
632.5598964275378
 30
0.0
 10
904.5491624541171
 20
631.5545221380314
 30
0.0
 10
903.4939933397948
 20
631.0487992973791
 30
0.0
  0
SPLINE
  5
31B
330
1F
100
AcDbEntity
  8
0
  6
Continuous
 62
     7
370
    35
100
AcDbSpline
210
0.0
220
0.0
230
1.0
 70
     8
 71
     3
 72
    16
 73
    12
 74
     0
 42
0.000000001
 43
0.00000001
 40
0.0
 40
0.0
 40
0.0
 40
0.0
 40
0.6093642604521563
 40
0.723375050388367
 40
0.8172213162021764
 40
0.8496365726798809
 40
0.8823612341657188
 40
0.9067814804504398
 40
0.9311421346358155
 40
0.9706402276081939
 40
1.0
 40
1.0
 40
1.0
 40
1.0
 10
901.5764459653275
 20
632.9227344936303
 30
0.0
 10
902.1532802349168
 20
632.6250794176806
 30
0.0
 10
902.8380390005855
 20
632.271733694051
 30
0.0
 10
903.5052819717693
 20
631.7459953703934
 30
0.0
 10
903.6755353697474
 20
631.560842360339
 30
0.0
 10
903.7438088304241
 20
631.4121860601672
 30
0.0
 10
903.7554479714182
 20
631.3185853947856
 30
0.0
 10
903.7309225232048
 20
631.2346227097775
 30
0.0
 10
903.6746598155615
 20
631.1564837226043
 30
0.0
 10
903.5915876528973
 20
631.0942865267691
 30
0.0
 10
903.5231667844519
 20
631.0623965975396
 30
0.0
 10
903.4939933397948
 20
631.0487992973791
 30
0.0
  0
SPLINE
  5
31C
330
1F
100
AcDbEntity
  8
0
  6
Continuous
 62
     7
370
    35
100
AcDbSpline
210
0.0
220
0.0
230
1.0
 70
     8
 71
     3
 72
    11
 73
     7
 74
     0
 42
0.000000001
 43
0.00000001
 40
0.0
 40
0.0
 40
0.0
 40
0.0
 40
0.2606216717109334
 40
0.4632004480822248
 40
0.6713667795608076
 40
1.0
 40
1.0
 40
1.0
 40
1.0
 10
894.0303256069571
 20
641.9808492434822
 30
0.0
 10
894.3972069776185
 20
640.9791310636718
 30
0.0
 10
895.0492617901278
 20
639.1987867557935
 30
0.0
 10
896.5866266519506
 20
636.9437871337308
 30
0.0
 10
898.601392436447
 20
634.7291529533787
 30
0.0
 10
900.4467205222844
 20
633.6086908554066
 30
0.0
 10
901.5764459653275
 20
632.9227344936303
 30
0.0
  0
LINE
  5
31D
330
1F
100
AcDbEntity
  8
0
  6
Continuous
 62
     7
370
    35
100
AcDbLine
 10
893.6107245225
 20
644.8471982487
 30
0.0
 11
894.030325607
 21
641.9808492435
 31
0.0
  0
LINE
  5
31E
330
1F
100
AcDbEntity
  8
0
  6
Continuous
 62
     7
370
    35
100
AcDbLine
 10
893.6107245225
 20
644.8471982487
 30
0.0
 11
893.6107245225
 21
654.713547254
 31
0.0
  0
LINE
  5
31F
330
1F
100
AcDbEntity
  8
0
  6
Continuous
 62
     7
370
    35
100
AcDbLine
 10
807.6107245225
 20
644.8471982487
 30
0.0
 11
807.191123438
 21
641.9808492435
 31
0.0
  0
SPLINE
  5
320
330
1F
100
AcDbEntity
  8
0
  6
Continuous
 62
     7
370
    35
100
AcDbSpline
210
0.0
220
0.0
230
1.0
 70
     8
 71
     3
 72
    11
 73
     7
 74
     0
 42
0.000000001
 43
0.00000001
 40
0.0
 40
0.0
 40
0.0
 40
0.0
 40
0.2606216717109323
 40
0.4632004480822244
 40
0.6713667795608074
 40
1.0
 40
1.0
 40
1.0
 40
1.0
 10
807.1911234379534
 20
641.9808492434822
 30
0.0
 10
806.8242420672921
 20
640.9791310636718
 30
0.0
 10
806.1721872547826
 20
639.1987867557935
 30
0.0
 10
804.6348223929598
 20
636.9437871337308
 30
0.0
 10
802.6200566084638
 20
634.7291529533787
 30
0.0
 10
800.7747285226262
 20
633.6086908554066
 30
0.0
 10
799.645003079583
 20
632.9227344936303
 30
0.0
  0
SPLINE
  5
321
330
1F
100
AcDbEntity
  8
0
  6
Continuous
 62
     7
370
    35
100
AcDbSpline
210
0.0
220
0.0
230
1.0
 70
     8
 71
     3
 72
    16
 73
    12
 74
     0
 42
0.000000001
 43
0.00000001
 40
0.0
 40
0.0
 40
0.0
 40
0.0
 40
0.6093642604521554
 40
0.7233750503883671
 40
0.8172213162021764
 40
0.849636572679881
 40
0.8823612341657188
 40
0.9067814804504398
 40
0.9311421346358156
 40
0.9706402276081939
 40
1.0
 40
1.0
 40
1.0
 40
1.0
 10
799.645003079583
 20
632.9227344936303
 30
0.0
 10
799.0681688099937
 20
632.6250794176806
 30
0.0
 10
798.383410044325
 20
632.271733694051
 30
0.0
 10
797.7161670731413
 20
631.7459953703934
 30
0.0
 10
797.5459136751631
 20
631.560842360339
 30
0.0
 10
797.4776402144863
 20
631.4121860601672
 30
0.0
 10
797.4660010734923
 20
631.3185853947856
 30
0.0
 10
797.4905265217059
 20
631.2346227097776
 30
0.0
 10
797.5467892293491
 20
631.1564837226043
 30
0.0
 10
797.6298613920133
 20
631.0942865267691
 30
0.0
 10
797.6982822604587
 20
631.0623965975396
 30
0.0
 10
797.7274557051157
 20
631.0487992973791
 30
0.0
  0
SPLINE
  5
322
330
1F
100
AcDbEntity
  8
0
  6
Continuous
 62
     7
370
    35
100
AcDbSpline
210
0.0
220
0.0
230
1.0
 70
     8
 71
     3
 72
    13
 73
     9
 74
     0
 42
0.000000001
 43
0.00000001
 40
0.0
 40
0.0
 40
0.0
 40
0.0
 40
0.158507776389368
 40
0.3168380823633727
 40
0.4791716695217864
 40
0.6493085002788167
 40
0.8235953482372542
 40
1.0
 40
1.0
 40
1.0
 40
1.0
 10
785.0831122852956
 20
645.4592200908887
 30
0.0
 10
785.3756874390548
 20
644.4488946390821
 30
0.0
 10
785.9605101700013
 20
642.4293749284088
 30
0.0
 10
787.4565367216883
 20
639.6087721768472
 30
0.0
 10
789.3832153913941
 20
636.9787213688628
 30
0.0
 10
791.782289789173
 20
634.6157887726143
 30
0.0
 10
794.5746160619071
 20
632.559896427538
 30
0.0
 10
796.6722865907934
 20
631.5545221380314
 30
0.0
 10
797.7274557051157
 20
631.0487992973791
 30
0.0
  0
SPLINE
  5
323
330
1F
100
AcDbEntity
  8
0
  6
Continuous
 62
     7
370
    35
100
AcDbSpline
210
0.0
220
0.0
230
1.0
 70
     8
 71
     3
 72
     9
 73
     5
 74
     0
 42
0.000000001
 43
0.00000001
 40
0.0
 40
0.0
 40
0.0
 40
0.0
 40
0.4230848072461901
 40
1.0
 40
1.0
 40
1.0
 40
1.0
 10
785.0831122852956
 20
645.4592200908887
 30
0.0
 10
784.8569918790377
 20
646.6739357150439
 30
0.0
 10
784.3225354240078
 20
649.5450282320772
 30
0.0
 10
784.8048548694559
 20
652.4345286951963
 30
0.0
 10
785.0831122852956
 20
654.1015254118389
 30
0.0
  0
SPLINE
  5
324
330
1F
100
AcDbEntity
  8
0
  6
Continuous
 62
     7
370
    35
100
AcDbSpline
210
0.0
220
0.0
230
1.0
 70
     8
 71
     3
 72
    13
 73
     9
 74
     0
 42
0.000000001
 43
0.00000001
 40
0.0
 40
0.0
 40
0.0
 40
0.0
 40
0.1585077763893685
 40
0.3168380823633742
 40
0.4791716695217884
 40
0.6493085002788194
 40
0.8235953482372537
 40
1.0
 40
1.0
 40
1.0
 40
1.0
 10
785.0831122852956
 20
654.1015254118389
 30
0.0
 10
785.3756874390548
 20
655.1118508636455
 30
0.0
 10
785.9605101700013
 20
657.1313705743188
 30
0.0
 10
787.4565367216883
 20
659.9519733258804
 30
0.0
 10
789.3832153913941
 20
662.5820241338648
 30
0.0
 10
791.782289789173
 20
664.9449567301133
 30
0.0
 10
794.5746160619071
 20
667.0008490751895
 30
0.0
 10
796.6722865907934
 20
668.0062233646961
 30
0.0
 10
797.7274557051157
 20
668.5119462053483
 30
0.0
  0
SPLINE
  5
325
330
1F
100
AcDbEntity
  8
0
  6
Continuous
 62
     7
370
    35
100
AcDbSpline
210
0.0
220
0.0
230
1.0
 70
     8
 71
     3
 72
    16
 73
    12
 74
     0
 42
0.000000001
 43
0.00000001
 40
0.0
 40
0.0
 40
0.0
 40
0.0
 40
0.6093642604521541
 40
0.723375050388367
 40
0.8172213162021763
 40
0.8496365726798809
 40
0.8823612341657187
 40
0.9067814804504397
 40
0.9311421346358155
 40
0.9706402276081938
 40
0.9999999999999999
 40
0.9999999999999999
 40
0.9999999999999999
 40
0.9999999999999999
 10
799.645003079583
 20
666.6380110090972
 30
0.0
 10
799.0681688099937
 20
666.9356660850468
 30
0.0
 10
798.383410044325
 20
667.2890118086765
 30
0.0
 10
797.7161670731412
 20
667.8147501323342
 30
0.0
 10
797.5459136751631
 20
667.9999031423885
 30
0.0
 10
797.4776402144863
 20
668.1485594425602
 30
0.0
 10
797.4660010734923
 20
668.2421601079419
 30
0.0
 10
797.4905265217059
 20
668.3261227929501
 30
0.0
 10
797.5467892293491
 20
668.4042617801232
 30
0.0
 10
797.6298613920133
 20
668.4664589759584
 30
0.0
 10
797.6982822604587
 20
668.4983489051878
 30
0.0
 10
797.7274557051157
 20
668.5119462053483
 30
0.0
  0
SPLINE
  5
326
330
1F
100
AcDbEntity
  8
0
  6
Continuous
 62
     7
370
    35
100
AcDbSpline
210
0.0
220
0.0
230
1.0
 70
     8
 71
     3
 72
    11
 73
     7
 74
     0
 42
0.000000001
 43
0.00000001
 40
0.0
 40
0.0
 40
0.0
 40
0.0
 40
0.260621671710934
 40
0.4632004480822267
 40
0.671366779560811
 40
1.0
 40
1.0
 40
1.0
 40
1.0
 10
807.1911234379534
 20
657.5798962592454
 30
0.0
 10
806.824242067292
 20
658.5816144390558
 30
0.0
 10
806.1721872547826
 20
660.3619587469341
 30
0.0
 10
804.6348223929598
 20
662.6169583689968
 30
0.0
 10
802.6200566084638
 20
664.8315925493489
 30
0.0
 10
800.7747285226262
 20
665.9520546473209
 30
0.0
 10
799.645003079583
 20
666.6380110090972
 30
0.0
  0
LINE
  5
327
330
1F
100
AcDbEntity
  8
0
  6
Continuous
 62
     7
370
    35
100
AcDbLine
 10
807.6107245225
 20
654.713547254
 30
0.0
 11
807.191123438
 21
657.5798962592
 31
0.0
  0
LINE
  5
328
330
1F
100
AcDbEntity
  8
0
  6
Continuous
 62
     7
370
    35
100
AcDbLine
 10
807.6107245225
 20
644.8471982487
 30
0.0
 11
807.6107245225
 21
654.713547254
 31
0.0
  0
SPLINE
  5
329
330
1F
100
AcDbEntity
  8
0
  6
Continuous
 62
     7
370
    35
100
AcDbSpline
210
0.0
220
0.0
230
1.0
 70
     8
 71
     3
 72
    17
 73
    13
 74
     0
 42
0.000000001
 43
0.00000001
 40
0.0
 40
0.0
 40
0.0
 40
0.0
 40
0.0364925733413331
 40
0.1833587448077185
 40
0.2877156143828464
 40
0.3934837304905565
 40
0.4992474923956527
 40
0.606318969789716
 40
0.7133499989193075
 40
0.8177518468878906
 40
0.9088657685707868
 40
1.0
 40
1.0
 40
1.0
 40
1.0
 10
903.6107245224554
 20
671.5216452188994
 30
0.0
 10
904.0255301584551
 20
671.5138405559564
 30
0.0
 10
906.1097416511523
 20
671.4746256398836
 30
0.0
 10
909.3653199712459
 20
670.8864419011096
 30
0.0
 10
913.165967859037
 20
669.4215114503522
 30
0.0
 10
916.2633976569304
 20
667.5704685761634
 30
0.0
 10
919.0520123589993
 20
665.2337320854165
 30
0.0
 10
921.4056315091422
 20
662.4384489014418
 30
0.0
 10
923.2600619147977
 20
659.308652654655
 30
0.0
 10
924.5034861508606
 20
656.0872046857406
 30
0.0
 10
925.2153339319996
 20
652.8903285407413
 30
0.0
 10
925.3045594715467
 20
650.8171016946688
 30
0.0
 10
925.3491772129703
 20
649.7803727513638
 30
0.0
  0
SPLINE
  5
32A
330
1F
100
AcDbEntity
  8
0
  6
Continuous
 62
     7
370
    35
100
AcDbSpline
210
0.0
220
0.0
230
1.0
 70
     8
 71
     3
 72
    17
 73
    13
 74
     0
 42
0.000000001
 43
0.00000001
 40
0.0
 40
0.0
 40
0.0
 40
0.0
 40
0.036492573341333
 40
0.1833587448077182
 40
0.2877156143828459
 40
0.3934837304905569
 40
0.4992474923956532
 40
0.6063189697897164
 40
0.7133499989193077
 40
0.8177518468878907
 40
0.9088657685707868
 40
1.0
 40
1.0
 40
1.0
 40
1.0
 10
797.6107245224553
 20
671.5216452188994
 30
0.0
 10
797.1959188864554
 20
671.5138405559564
 30
0.0
 10
795.1117073937583
 20
671.4746256398836
 30
0.0
 10
791.8561290736646
 20
670.8864419011097
 30
0.0
 10
788.0554811858734
 20
669.4215114503522
 30
0.0
 10
784.9580513879802
 20
667.5704685761634
 30
0.0
 10
782.1694366859113
 20
665.2337320854165
 30
0.0
 10
779.8158175357682
 20
662.4384489014418
 30
0.0
 10
777.9613871301129
 20
659.3086526546551
 30
0.0
 10
776.7179628940498
 20
656.0872046857406
 30
0.0
 10
776.0061151129108
 20
652.8903285407413
 30
0.0
 10
775.9168895733637
 20
650.8171016946688
 30
0.0
 10
775.8722718319401
 20
649.7803727513638
 30
0.0
  0
SPLINE
  5
32B
330
1F
100
AcDbEntity
  8
0
  6
Continuous
 62
     7
370
    35
100
AcDbSpline
210
0.0
220
0.0
230
1.0
 70
     8
 71
     3
 72
    17
 73
    13
 74
     0
 42
0.000000001
 43
0.00000001
 40
0.0
 40
0.0
 40
0.0
 40
0.0
 40
0.0364925733413329
 40
0.1833587448077179
 40
0.2877156143828453
 40
0.3934837304905571
 40
0.4992474923956545
 40
0.6063189697897174
 40
0.7133499989193085
 40
0.817751846887891
 40
0.9088657685707868
 40
1.0
 40
1.0
 40
1.0
 40
1.0
 10
797.6107245224553
 20
628.0391002838281
 30
0.0
 10
797.1959188864554
 20
628.0469049467711
 30
0.0
 10
795.1117073937583
 20
628.0861198628439
 30
0.0
 10
791.8561290736648
 20
628.6743036016179
 30
0.0
 10
788.0554811858734
 20
630.1392340523753
 30
0.0
 10
784.9580513879802
 20
631.9902769265641
 30
0.0
 10
782.1694366859113
 20
634.3270134173112
 30
0.0
 10
779.8158175357682
 20
637.1222966012858
 30
0.0
 10
777.9613871301129
 20
640.2520928480725
 30
0.0
 10
776.7179628940498
 20
643.473540816987
 30
0.0
 10
776.006115112911
 20
646.6704169619862
 30
0.0
 10
775.9168895733637
 20
648.7436438080588
 30
0.0
 10
775.8722718319401
 20
649.7803727513638
 30
0.0
  0
SPLINE
  5
32C
330
1F
100
AcDbEntity
  8
0
  6
Continuous
 62
     7
370
    35
100
AcDbSpline
210
0.0
220
0.0
230
1.0
 70
     8
 71
     3
 72
    17
 73
    13
 74
     0
 42
0.000000001
 43
0.00000001
 40
0.0
 40
0.0
 40
0.0
 40
0.0
 40
0.036492573341333
 40
0.183358744807718
 40
0.2877156143828456
 40
0.3934837304905567
 40
0.4992474923956537
 40
0.6063189697897168
 40
0.713349998919308
 40
0.8177518468878906
 40
0.9088657685707867
 40
0.9999999999999999
 40
0.9999999999999999
 40
0.9999999999999999
 40
0.9999999999999999
 10
903.6107245224551
 20
628.0391002838281
 30
0.0
 10
904.0255301584551
 20
628.0469049467711
 30
0.0
 10
906.1097416511523
 20
628.0861198628439
 30
0.0
 10
909.3653199712459
 20
628.6743036016179
 30
0.0
 10
913.165967859037
 20
630.1392340523753
 30
0.0
 10
916.2633976569304
 20
631.9902769265641
 30
0.0
 10
919.0520123589991
 20
634.3270134173112
 30
0.0
 10
921.4056315091424
 20
637.1222966012858
 30
0.0
 10
923.2600619147977
 20
640.2520928480725
 30
0.0
 10
924.5034861508606
 20
643.473540816987
 30
0.0
 10
925.2153339319996
 20
646.6704169619862
 30
0.0
 10
925.3045594715467
 20
648.7436438080587
 30
0.0
 10
925.3491772129703
 20
649.7803727513638
 30
0.0
  0
LINE
  5
32D
330
1F
100
AcDbEntity
  8
0
  6
Continuous
 62
     7
370
    35
100
AcDbLine
 10
903.6107245225
 20
671.5216452189
 30
0.0
 11
797.6107245225
 21
671.5216452189
 31
0.0
  0
LINE
  5
32E
330
1F
100
AcDbEntity
  8
0
  6
Continuous
 62
     7
370
    35
100
AcDbLine
 10
903.6107245225
 20
628.0391002838
 30
0.0
 11
797.6107245225
 21
628.0391002838
 31
0.0
  0
LINE
  5
32F
330
1F
100
AcDbEntity
  8
0
  6
Continuous
 62
     7
370
    35
100
AcDbLine
 10
807.4545533323
 20
643.7803727514
 30
0.0
 11
893.7668957127
 21
643.7803727514
 31
0.0
  0
LINE
  5
330
330
1F
100
AcDbEntity
  8
0
  6
Continuous
 62
     7
370
    35
100
AcDbLine
 10
807.4545533323
 20
655.7803727514
 30
0.0
 11
893.7668957127
 21
655.7803727514
 31
0.0
  0
LINE
  5
331
330
1F
100
AcDbEntity
  8
0
  6
Continuous
 62
     7
370
    35
100
AcDbLine
 10
903.6107245225
 20
671.5303727514
 30
0.0
 11
797.6107245225
 21
671.5303727514
 31
0.0
  0
ARC
  5
332
330
1F
100
AcDbEntity
  8
0
  6
Continuous
 62
     7
370
    35
100
AcDbCircle
 10
903.6107245225
 20
649.7803727514
 30
0.0
 40
21.75000000000011
100
AcDbArc
 50
270.0
 51
90.0
  0
ARC
  5
333
330
1F
100
AcDbEntity
  8
0
  6
Continuous
 62
     7
370
    35
100
AcDbCircle
 10
797.6107245225
 20
649.7803727514
 30
0.0
 40
21.75000000000011
100
AcDbArc
 50
90.0
 51
270.0
  0
LINE
  5
334
330
1F
100
AcDbEntity
  8
0
  6
Continuous
 62
     7
370
    35
100
AcDbLine
 10
903.6107245225
 20
628.0303727514
 30
0.0
 11
797.6107245225
 21
628.0303727514
 31
0.0
  0
LINE
  5
335
330
1F
100
AcDbEntity
  8
0
  6
Continuous
 62
     7
370
    35
100
AcDbLine
 10
510.6107245225
 20
614.7803727514
 30
0.0
 11
509.6107245225
 21
614.7803727514
 31
0.0
  0
LINE
  5
336
330
1F
100
AcDbEntity
  8
0
  6
Continuous
 62
     7
370
    35
100
AcDbLine
 10
509.6107245225
 20
699.2803727514
 30
0.0
 11
510.6107245225
 21
699.2803727514
 31
0.0
  0
LINE
  5
337
330
1F
100
AcDbEntity
  8
0
  6
Continuous
 62
     7
370
    35
100
AcDbLine
 10
510.6107245225
 20
682.0483219438
 30
0.0
 11
510.6107245225
 21
617.6945863137
 31
0.0
  0
LINE
  5
338
330
1F
100
AcDbEntity
  8
0
  6
Continuous
 62
     7
370
    35
100
AcDbLine
 10
510.6107245225
 20
614.866159189
 30
0.0
 11
510.6107245225
 21
614.7803727514
 31
0.0
  0
LINE
  5
339
330
1F
100
AcDbEntity
  8
0
  6
Continuous
 62
     7
370
    35
100
AcDbLine
 10
509.6107245225
 20
614.7803727514
 30
0.0
 11
508.6107245225
 21
614.7803727514
 31
0.0
  0
LINE
  5
33A
330
1F
100
AcDbEntity
  8
0
  6
Continuous
 62
     7
370
    35
100
AcDbLine
 10
508.6107245225
 20
614.7803727514
 30
0.0
 11
508.6107245225
 21
699.2803727514
 31
0.0
  0
LINE
  5
33B
330
1F
100
AcDbEntity
  8
0
  6
Continuous
 62
     7
370
    35
100
AcDbLine
 10
508.6107245225
 20
699.2803727514
 30
0.0
 11
509.6107245225
 21
699.2803727514
 31
0.0
  0
LINE
  5
33C
330
1F
100
AcDbEntity
  8
0
  6
Continuous
 62
     7
370
    35
100
AcDbLine
 10
1191.6107245225
 20
614.7803727514
 30
0.0
 11
1190.6107245225
 21
614.7803727514
 31
0.0
  0
LINE
  5
33D
330
1F
100
AcDbEntity
  8
0
  6
Continuous
 62
     7
370
    35
100
AcDbLine
 10
1190.6107245225
 20
614.7803727514
 30
0.0
 11
1190.6107245225
 21
614.866159189
 31
0.0
  0
LINE
  5
33E
330
1F
100
AcDbEntity
  8
0
  6
Continuous
 62
     7
370
    35
100
AcDbLine
 10
1190.6107245225
 20
617.6945863137
 30
0.0
 11
1190.6107245225
 21
682.0483219438
 31
0.0
  0
LINE
  5
33F
330
1F
100
AcDbEntity
  8
0
  6
Continuous
 62
     7
370
    35
100
AcDbLine
 10
1190.6107245225
 20
699.2803727514
 30
0.0
 11
1191.6107245225
 21
699.2803727514
 31
0.0
  0
LINE
  5
340
330
1F
100
AcDbEntity
  8
0
  6
Continuous
 62
     7
370
    35
100
AcDbLine
 10
1192.6107245225
 20
614.7803727514
 30
0.0
 11
1191.6107245225
 21
614.7803727514
 31
0.0
  0
LINE
  5
341
330
1F
100
AcDbEntity
  8
0
  6
Continuous
 62
     7
370
    35
100
AcDbLine
 10
1192.6107245225
 20
699.2803727514
 30
0.0
 11
1192.6107245225
 21
614.7803727514
 31
0.0
  0
LINE
  5
342
330
1F
100
AcDbEntity
  8
0
  6
Continuous
 62
     7
370
    35
100
AcDbLine
 10
1191.6107245225
 20
699.2803727514
 30
0.0
 11
1192.6107245225
 21
699.2803727514
 31
0.0
  0
LINE
  5
343
330
1F
100
AcDbEntity
  8
0
  6
Continuous
 62
     7
370
    35
100
AcDbLine
 10
510.6107245225
 20
700.3053727514
 30
0.0
 11
510.6107245225
 21
699.3053727514
 31
0.0
  0
LINE
  5
344
330
1F
100
AcDbEntity
  8
0
  6
Continuous
 62
     7
370
    35
100
AcDbLine
 10
510.6107245225
 20
699.3053727514
 30
0.0
 11
488.1107245225
 21
699.3053727514
 31
0.0
  0
LINE
  5
345
330
1F
100
AcDbEntity
  8
0
  6
Continuous
 62
     7
370
    35
100
AcDbLine
 10
510.6107245225
 20
700.3053727514
 30
0.0
 11
488.1107245225
 21
700.3053727514
 31
0.0
  0
LINE
  5
346
330
1F
100
AcDbEntity
  8
0
  6
Continuous
 62
     7
370
    35
100
AcDbLine
 10
478.1107245225
 20
699.3053727514
 30
0.0
 11
478.1107245225
 21
700.3053727514
 31
0.0
  0
LINE
  5
347
330
1F
100
AcDbEntity
  8
0
  6
Continuous
 62
     7
370
    35
100
AcDbLine
 10
478.1107245225
 20
700.3053727514
 30
0.0
 11
488.1107245225
 21
700.3053727514
 31
0.0
  0
LINE
  5
348
330
1F
100
AcDbEntity
  8
0
  6
Continuous
 62
     7
370
    35
100
AcDbLine
 10
488.1107245225
 20
699.3053727514
 30
0.0
 11
478.1107245225
 21
699.3053727514
 31
0.0
  0
LINE
  5
349
330
1F
100
AcDbEntity
  8
0
  6
Continuous
 62
     7
370
    35
100
AcDbLine
 10
478.1107245225
 20
699.3053727514
 30
0.0
 11
478.1107245225
 21
698.3053727514
 31
0.0
  0
LINE
  5
34A
330
1F
100
AcDbEntity
  8
0
  6
Continuous
 62
     7
370
    35
100
AcDbLine
 10
510.6107245225
 20
613.7803727514
 30
0.0
 11
510.6107245225
 21
584.3053727514
 31
0.0
  0
LINE
  5
34B
330
1F
100
AcDbEntity
  8
0
  6
Continuous
 62
     7
370
    35
100
AcDbLine
 10
510.6107245225
 20
584.3053727514
 30
0.0
 11
488.1107245225
 21
584.3053727514
 31
0.0
  0
ARC
  5
34C
330
1F
100
AcDbEntity
  8
0
  6
Continuous
 62
     7
370
    35
100
AcDbCircle
 10
488.1107245225
 20
594.3053727514
 30
0.0
 40
10.0
100
AcDbArc
 50
180.0
 51
270.0
  0
LINE
  5
34D
330
1F
100
AcDbEntity
  8
0
  6
Continuous
 62
     7
370
    35
100
AcDbLine
 10
478.1107245225
 20
594.3053727514
 30
0.0
 11
478.1107245225
 21
698.3053727514
 31
0.0
  0
LINE
  5
34E
330
1F
100
AcDbEntity
  8
0
  6
Continuous
 62
     7
370
    35
100
AcDbLine
 10
1223.1107245225
 20
700.3053727514
 30
0.0
 11
1223.1107245225
 21
699.3053727514
 31
0.0
  0
LINE
  5
34F
330
1F
100
AcDbEntity
  8
0
  6
Continuous
 62
     7
370
    35
100
AcDbLine
 10
1223.1107245225
 20
699.3053727514
 30
0.0
 11
1213.1107245225
 21
699.3053727514
 31
0.0
  0
LINE
  5
350
330
1F
100
AcDbEntity
  8
0
  6
Continuous
 62
     7
370
    35
100
AcDbLine
 10
1213.1107245225
 20
700.3053727514
 30
0.0
 11
1223.1107245225
 21
700.3053727514
 31
0.0
  0
LINE
  5
351
330
1F
100
AcDbEntity
  8
0
  6
Continuous
 62
     7
370
    35
100
AcDbLine
 10
1190.6107245225
 20
700.3053727514
 30
0.0
 11
1190.6107245225
 21
699.3053727514
 31
0.0
  0
LINE
  5
352
330
1F
100
AcDbEntity
  8
0
  6
Continuous
 62
     7
370
    35
100
AcDbLine
 10
1190.6107245225
 20
700.3053727514
 30
0.0
 11
1213.1107245225
 21
700.3053727514
 31
0.0
  0
LINE
  5
353
330
1F
100
AcDbEntity
  8
0
  6
Continuous
 62
     7
370
    35
100
AcDbLine
 10
1190.6107245225
 20
699.3053727514
 30
0.0
 11
1213.1107245225
 21
699.3053727514
 31
0.0
  0
LINE
  5
354
330
1F
100
AcDbEntity
  8
0
  6
Continuous
 62
     7
370
    35
100
AcDbLine
 10
1223.1107245225
 20
698.3053727514
 30
0.0
 11
1223.1107245225
 21
699.3053727514
 31
0.0
  0
ARC
  5
355
330
1F
100
AcDbEntity
  8
0
  6
Continuous
 62
     7
370
    35
100
AcDbCircle
 10
1213.1107245225
 20
594.3053727514
 30
0.0
 40
10.0
100
AcDbArc
 50
270.0
 51
0.0
  0
LINE
  5
356
330
1F
100
AcDbEntity
  8
0
  6
Continuous
 62
     7
370
    35
100
AcDbLine
 10
1190.6107245225
 20
584.3053727514
 30
0.0
 11
1213.1107245225
 21
584.3053727514
 31
0.0
  0
LINE
  5
357
330
1F
100
AcDbEntity
  8
0
  6
Continuous
 62
     7
370
    35
100
AcDbLine
 10
1190.6107245225
 20
613.7803727514
 30
0.0
 11
1190.6107245225
 21
584.3053727514
 31
0.0
  0
LINE
  5
358
330
1F
100
AcDbEntity
  8
0
  6
Continuous
 62
     7
370
    35
100
AcDbLine
 10
1223.1107245225
 20
594.3053727514
 30
0.0
 11
1223.1107245225
 21
698.3053727514
 31
0.0
  0
LINE
  5
359
330
1F
100
AcDbEntity
  8
0
  6
Continuous
 62
     8
370
    18
100
AcDbLine
 10
510.6107245225
 20
698.2803727514
 30
0.0
 11
1190.6107245225
 21
698.2803727514
 31
0.0
  0
LINE
  5
35A
330
1F
100
AcDbEntity
  8
0
  6
Continuous
 62
     8
370
    18
100
AcDbLine
 10
1190.6107245225
 20
683.7803727514
 30
0.0
 11
510.6107245225
 21
683.7803727514
 31
0.0
  0
LINE
  5
35B
330
1F
100
AcDbEntity
  8
0
  6
Continuous
 62
     8
370
    18
100
AcDbLine
 10
510.6107245225
 20
613.7803727514
 30
0.0
 11
1190.6107245225
 21
613.7803727514
 31
0.0
  0
LINE
  5
35C
330
1F
100
AcDbEntity
  8
0
  6
Continuous
 62
     8
370
    18
100
AcDbLine
 10
510.6107245225
 20
680.8370655389
 30
0.0
 11
1190.6107245225
 21
680.8370655389
 31
0.0
  0
LINE
  5
35D
330
1F
100
AcDbEntity
  8
0
  6
Continuous
 62
     8
370
    18
100
AcDbLine
 10
510.6107245225
 20
618.7236799638
 30
0.0
 11
1190.6107245225
 21
618.7236799638
 31
0.0
  0
SPLINE
  5
35E
330
1F
100
AcDbEntity
  8
0
  6
Continuous
 62
     8
370
    18
100
AcDbSpline
210
0.0
220
0.0
230
1.0
 70
     8
 71
     3
 72
    14
 73
    10
 74
     0
 42
0.000000001
 43
0.00000001
 40
0.0
 40
0.0
 40
0.0
 40
0.0
 40
0.2500000000000001
 40
0.2500000000000001
 40
0.5000000000000001
 40
0.5000000000000001
 40
0.7500000000000001
 40
0.7500000000000001
 40
1.0
 40
1.0
 40
1.0
 40
1.0
 10
767.6115816206088
 20
649.8370655389273
 30
0.0
 10
767.6368232067521
 20
653.1762290477425
 30
0.0
 10
768.2246991499399
 20
656.5104511174834
 30
0.0
 10
770.4612460510356
 20
662.8033406178873
 30
0.0
 10
772.1094559883379
 20
665.7607108918814
 30
0.0
 10
776.284985882591
 20
670.9729609249571
 30
0.0
 10
778.8114451353373
 20
673.2267662801593
 30
0.0
 10
784.464669686919
 20
676.7825576793405
 30
0.0
 10
787.5902696835623
 20
678.0838107661419
 30
0.0
 10
790.8434615505678
 20
678.8370655389272
 30
0.0
  0
LINE
  5
35F
330
1F
100
AcDbEntity
  8
0
  6
Continuous
 62
     8
370
    18
100
AcDbLine
 10
510.6107245225
 20
649.8370655389
 30
0.0
 11
767.6115816206
 21
649.8370655389
 31
0.0
  0
LINE
  5
360
330
1F
100
AcDbEntity
  8
0
  6
Continuous
 62
     8
370
    18
100
AcDbLine
 10
933.6098674243
 20
649.8370655389
 30
0.0
 11
1190.6107245225
 21
649.8370655389
 31
0.0
  0
SPLINE
  5
361
330
1F
100
AcDbEntity
  8
0
  6
Continuous
 62
     8
370
    18
100
AcDbSpline
210
0.0
220
0.0
230
1.0
 70
     8
 71
     3
 72
    14
 73
    10
 74
     0
 42
0.000000001
 43
0.00000001
 40
0.0
 40
0.0
 40
0.0
 40
0.0
 40
0.25
 40
0.25
 40
0.5
 40
0.5
 40
0.75
 40
0.75
 40
1.0
 40
1.0
 40
1.0
 40
1.0
 10
910.3779874943432
 20
678.8370655389273
 30
0.0
 10
913.6311793613487
 20
678.0838107661419
 30
0.0
 10
916.756779357992
 20
676.7825576793405
 30
0.0
 10
922.4100039095736
 20
673.2267662801593
 30
0.0
 10
924.93646316232
 20
670.9729609249571
 30
0.0
 10
929.111993056573
 20
665.7607108918814
 30
0.0
 10
930.7602029938754
 20
662.8033406178873
 30
0.0
 10
932.9967498949711
 20
656.5104511174833
 30
0.0
 10
933.5846258381589
 20
653.1762290477424
 30
0.0
 10
933.609867424302
 20
649.8370655389272
 30
0.0
  0
LINE
  5
362
330
1F
100
AcDbEntity
  8
0
  6
Continuous
 62
     8
370
    18
100
AcDbLine
 10
510.6107245225
 20
649.7236799638
 30
0.0
 11
767.6115816206
 21
649.7236799638
 31
0.0
  0
SPLINE
  5
363
330
1F
100
AcDbEntity
  8
0
  6
Continuous
 62
     8
370
    18
100
AcDbSpline
210
0.0
220
0.0
230
1.0
 70
     8
 71
     3
 72
    14
 73
    10
 74
     0
 42
0.000000001
 43
0.00000001
 40
0.0
 40
0.0
 40
0.0
 40
0.0
 40
0.2500000000000002
 40
0.2500000000000002
 40
0.5000000000000003
 40
0.5000000000000003
 40
0.7500000000000002
 40
0.7500000000000002
 40
1.0
 40
1.0
 40
1.0
 40
1.0
 10
790.8434615505676
 20
620.7236799638005
 30
0.0
 10
787.5902696835622
 20
621.4769347365857
 30
0.0
 10
784.464669686919
 20
622.7781878233872
 30
0.0
 10
778.8114451353373
 20
626.3339792225684
 30
0.0
 10
776.2849858825908
 20
628.5877845777705
 30
0.0
 10
772.1094559883379
 20
633.8000346108462
 30
0.0
 10
770.4612460510356
 20
636.7574048848403
 30
0.0
 10
768.2246991499397
 20
643.0502943852442
 30
0.0
 10
767.6368232067521
 20
646.3845164549851
 30
0.0
 10
767.6115816206088
 20
649.7236799638004
 30
0.0
  0
SPLINE
  5
364
330
1F
100
AcDbEntity
  8
0
  6
Continuous
 62
     8
370
    18
100
AcDbSpline
210
0.0
220
0.0
230
1.0
 70
     8
 71
     3
 72
    14
 73
    10
 74
     0
 42
0.000000001
 43
0.00000001
 40
0.0
 40
0.0
 40
0.0
 40
0.0
 40
0.25
 40
0.25
 40
0.5
 40
0.5
 40
0.75
 40
0.75
 40
1.0
 40
1.0
 40
1.0
 40
1.0
 10
933.609867424302
 20
649.7236799638004
 30
0.0
 10
933.5846258381589
 20
646.3845164549851
 30
0.0
 10
932.9967498949711
 20
643.0502943852443
 30
0.0
 10
930.7602029938754
 20
636.7574048848403
 30
0.0
 10
929.111993056573
 20
633.8000346108462
 30
0.0
 10
924.9364631623201
 20
628.5877845777705
 30
0.0
 10
922.4100039095737
 20
626.3339792225684
 30
0.0
 10
916.756779357992
 20
622.7781878233872
 30
0.0
 10
913.6311793613487
 20
621.4769347365857
 30
0.0
 10
910.3779874943434
 20
620.7236799638005
 30
0.0
  0
LINE
  5
365
330
1F
100
AcDbEntity
  8
0
  6
Continuous
 62
     8
370
    18
100
AcDbLine
 10
933.6098674243
 20
649.7236799638
 30
0.0
 11
1190.6107245225
 21
649.7236799638
 31
0.0
  0
LINE
  5
366
330
1F
100
AcDbEntity
  8
0
  6
Continuous
 62
     8
370
    18
100
AcDbLine
 10
903.6107245225
 20
679.0353524493
 30
0.0
 11
903.6107245225
 21
679.0303727514
 31
0.0
  0
ARC
  5
367
330
1F
100
AcDbEntity
  8
0
  6
Continuous
 62
     8
370
    18
100
AcDbCircle
 10
857.3610139226
 20
690.4118005053
 30
0.0
 40
54.2657716820375
100
AcDbArc
 50
344.6911781266
 51
347.6843554441
  0
LINE
  5
368
330
1F
100
AcDbEntity
  8
0
  6
Continuous
 62
     8
370
    18
100
AcDbLine
 10
903.6107245225
 20
679.0303727514
 30
0.0
 11
903.6107245225
 21
676.7803727514
 31
0.0
  0
LINE
  5
369
330
1F
100
AcDbEntity
  8
0
  6
Continuous
 62
     8
370
    18
100
AcDbLine
 10
797.6107245225
 20
679.0353524493
 30
0.0
 11
797.6107245225
 21
679.0303727514
 31
0.0
  0
LINE
  5
36A
330
1F
100
AcDbEntity
  8
0
  6
Continuous
 62
     8
370
    18
100
AcDbLine
 10
797.6107245225
 20
679.0303727514
 30
0.0
 11
797.6107245225
 21
676.7803727514
 31
0.0
  0
ARC
  5
36B
330
1F
100
AcDbEntity
  8
0
  6
Continuous
 62
     8
370
    18
100
AcDbCircle
 10
843.8604351222
 20
690.4118005053
 30
0.0
 40
54.26577168195826
100
AcDbArc
 50
192.3156445558
 51
195.3088218734
  0
ARC
  5
36C
330
1F
100
AcDbEntity
  8
0
  6
Continuous
 62
     8
370
    18
100
AcDbCircle
 10
843.8604351229
 20
609.1489449973
 30
0.0
 40
54.26577168265401
100
AcDbArc
 50
164.6911781266
 51
167.6843554441
  0
LINE
  5
36D
330
1F
100
AcDbEntity
  8
0
  6
Continuous
 62
     8
370
    18
100
AcDbLine
 10
797.6107245225
 20
622.7803727514
 30
0.0
 11
797.6107245225
 21
620.5303727514
 31
0.0
  0
LINE
  5
36E
330
1F
100
AcDbEntity
  8
0
  6
Continuous
 62
     8
370
    18
100
AcDbLine
 10
903.6107245225
 20
622.7803727514
 30
0.0
 11
903.6107245225
 21
620.5303727514
 31
0.0
  0
ARC
  5
36F
330
1F
100
AcDbEntity
  8
0
  6
Continuous
 62
     8
370
    18
100
AcDbCircle
 10
857.3610139216
 20
609.1489449972
 30
0.0
 40
54.26577168305669
100
AcDbArc
 50
12.3156445559
 51
15.3088218734
  0
LINE
  5
370
330
1F
100
AcDbEntity
  8
0
  6
Continuous
 62
     8
370
    18
100
AcDbLine
 10
797.6107245225
 20
620.5253930534
 30
0.0
 11
797.6107245225
 21
620.5303727514
 31
0.0
  0
LINE
  5
371
330
1F
100
AcDbEntity
  8
0
  6
Continuous
 62
     8
370
    18
100
AcDbLine
 10
903.6107245225
 20
620.5253930534
 30
0.0
 11
903.6107245225
 21
620.5303727514
 31
0.0
  0
ARC
  5
372
330
1F
100
AcDbEntity
  8
0
  6
Continuous
 62
     8
370
    18
100
AcDbCircle
 10
932.7780302899
 20
664.2349376635
 30
0.0
 40
14.42188180276891
100
AcDbArc
 50
261.3675974434
 51
273.306588142
  0
ARC
  5
373
330
1F
100
AcDbEntity
  8
0
  6
Continuous
 62
     8
370
    18
100
AcDbCircle
 10
768.443418755
 20
664.2349376635
 30
0.0
 40
14.42188180276818
100
AcDbArc
 50
266.693411858
 51
278.6324025566
  0
ARC
  5
374
330
1F
100
AcDbEntity
  8
0
  6
Continuous
 62
     8
370
    18
100
AcDbCircle
 10
768.443418755
 20
635.3258078393
 30
0.0
 40
14.42188180275372
100
AcDbArc
 50
81.3675974434
 51
93.306588142
  0
ARC
  5
375
330
1F
100
AcDbEntity
  8
0
  6
Continuous
 62
     8
370
    18
100
AcDbCircle
 10
932.7780302899
 20
635.3258078393
 30
0.0
 40
14.42188180275329
100
AcDbArc
 50
86.693411858
 51
98.6324025566
  0
SPLINE
  5
376
330
1F
100
AcDbEntity
  8
0
  6
Continuous
 62
     8
370
    18
100
AcDbSpline
210
0.0
220
0.0
230
1.0
 70
     8
 71
     3
 72
     8
 73
     4
 74
     0
 42
0.000000001
 43
0.00000001
 40
0.0
 40
0.0
 40
0.0
 40
0.0
 40
1.0
 40
1.0
 40
1.0
 40
1.0
 10
933.609867424302
 20
649.8370655389272
 30
0.0
 10
933.6110102381654
 20
649.7992703472183
 30
0.0
 10
933.6110102381654
 20
649.7614751555093
 30
0.0
 10
933.609867424302
 20
649.7236799638004
 30
0.0
  0
SPLINE
  5
377
330
1F
100
AcDbEntity
  8
0
  6
Continuous
 62
     8
370
    18
100
AcDbSpline
210
0.0
220
0.0
230
1.0
 70
     8
 71
     3
 72
     8
 73
     4
 74
     0
 42
0.000000001
 43
0.00000001
 40
0.0
 40
0.0
 40
0.0
 40
0.0
 40
1.0
 40
1.0
 40
1.0
 40
1.0
 10
767.6115816206088
 20
649.7236799638004
 30
0.0
 10
767.6104388067457
 20
649.7614751555093
 30
0.0
 10
767.6104388067457
 20
649.7992703472183
 30
0.0
 10
767.6115816206088
 20
649.8370655389272
 30
0.0
  0
ARC
  5
378
330
1F
100
AcDbEntity
  8
0
  6
Continuous
 62
     8
370
    18
100
AcDbCircle
 10
897.5953572699
 20
665.0168463931
 30
0.0
 40
2.052564240818757
100
AcDbArc
 50
11.6472091993
 51
44.8009049348
  0
SPLINE
  5
379
330
1F
100
AcDbEntity
  8
0
  6
Continuous
 62
     8
370
    18
100
AcDbSpline
210
0.0
220
0.0
230
1.0
 70
     8
 71
     3
 72
     9
 73
     5
 74
     0
 42
0.000000001
 43
0.00000001
 40
0.0
 40
0.0
 40
0.0
 40
0.0
 40
0.1546895589938839
 40
1.0
 40
1.0
 40
1.0
 40
1.0
 10
903.4939933397948
 20
668.5119462053483
 30
0.0
 10
903.2509408832169
 20
668.4392716703461
 30
0.0
 10
901.6797135931605
 20
667.9694627480444
 30
0.0
 10
900.2555956843345
 20
667.1531847189949
 30
0.0
 10
899.05177394678
 20
666.4631763782754
 30
0.0
  0
SPLINE
  5
37A
330
1F
100
AcDbEntity
  8
0
  6
Continuous
 62
     8
370
    18
100
AcDbSpline
210
0.0
220
0.0
230
1.0
 70
     8
 71
     3
 72
     9
 73
     5
 74
     0
 42
0.000000001
 43
0.00000001
 40
0.0
 40
0.0
 40
0.0
 40
0.0
 40
0.1546895589938838
 40
1.0
 40
1.0
 40
1.0
 40
1.0
 10
797.7274557051157
 20
668.5119462053483
 30
0.0
 10
797.9705081616936
 20
668.4392716703461
 30
0.0
 10
799.54173545175
 20
667.9694627480444
 30
0.0
 10
800.9658533605761
 20
667.1531847189949
 30
0.0
 10
802.1696750981305
 20
666.4631763782754
 30
0.0
  0
ARC
  5
37B
330
1F
100
AcDbEntity
  8
0
  6
Continuous
 62
     8
370
    18
100
AcDbCircle
 10
803.626091775
 20
665.0168463931
 30
0.0
 40
2.052564240816906
100
AcDbArc
 50
135.1990950652
 51
168.3527908007
  0
SPLINE
  5
37C
330
1F
100
AcDbEntity
  8
0
  6
Continuous
 62
     8
370
    18
100
AcDbSpline
210
0.0
220
0.0
230
1.0
 70
     8
 71
     3
 72
     9
 73
     5
 74
     0
 42
0.000000001
 43
0.00000001
 40
0.0
 40
0.0
 40
0.0
 40
0.0
 40
0.1546895589938838
 40
0.9999999999999999
 40
0.9999999999999999
 40
0.9999999999999999
 40
0.9999999999999999
 10
903.4939933397948
 20
631.0487992973791
 30
0.0
 10
903.2509408832168
 20
631.1214738323814
 30
0.0
 10
901.6797135931605
 20
631.5912827546831
 30
0.0
 10
900.2555956843345
 20
632.4075607837326
 30
0.0
 10
899.05177394678
 20
633.0975691244521
 30
0.0
  0
ARC
  5
37D
330
1F
100
AcDbEntity
  8
0
  6
Continuous
 62
     8
370
    18
100
AcDbCircle
 10
897.5953572699
 20
634.5438991096
 30
0.0
 40
2.05256424081832
100
AcDbArc
 50
315.1990950652
 51
348.3527908007
  0
ARC
  5
37E
330
1F
100
AcDbEntity
  8
0
  6
Continuous
 62
     8
370
    18
100
AcDbCircle
 10
803.626091775
 20
634.5438991096
 30
0.0
 40
2.052564240817449
100
AcDbArc
 50
191.6472091993
 51
224.8009049348
  0
SPLINE
  5
37F
330
1F
100
AcDbEntity
  8
0
  6
Continuous
 62
     8
370
    18
100
AcDbSpline
210
0.0
220
0.0
230
1.0
 70
     8
 71
     3
 72
     9
 73
     5
 74
     0
 42
0.000000001
 43
0.00000001
 40
0.0
 40
0.0
 40
0.0
 40
0.0
 40
0.1546895589938838
 40
1.0
 40
1.0
 40
1.0
 40
1.0
 10
797.7274557051157
 20
631.0487992973791
 30
0.0
 10
797.9705081616936
 20
631.1214738323814
 30
0.0
 10
799.54173545175
 20
631.5912827546831
 30
0.0
 10
800.9658533605761
 20
632.4075607837327
 30
0.0
 10
802.1696750981305
 20
633.0975691244521
 30
0.0
  0
SPLINE
  5
380
330
1F
100
AcDbEntity
  8
0
  6
Continuous
 62
     8
370
    18
100
AcDbSpline
210
0.0
220
0.0
230
1.0
 70
     8
 71
     3
 72
    14
 73
    10
 74
     0
 42
0.000000001
 43
0.00000001
 40
0.0
 40
0.0
 40
0.0
 40
0.0
 40
0.1114289230413315
 40
0.495878564968001
 40
0.7046555305618295
 40
0.8301760374257541
 40
0.912101879865909
 40
0.9942797082137462
 40
1.0
 40
1.0
 40
1.0
 40
1.0
 10
899.05177394678
 20
666.4631763782754
 30
0.0
 10
898.9323829011441
 20
666.3808440130261
 30
0.0
 10
898.4010714717232
 20
666.0144503154489
 30
0.0
 10
897.7267799483686
 20
665.38167916473
 30
0.0
 10
897.2689161606066
 20
664.5906946500297
 30
0.0
 10
897.1844584102731
 20
664.080499916167
 30
0.0
 10
897.2669227031254
 20
663.7361713105028
 30
0.0
 10
897.3866296467477
 20
663.55847158977
 30
0.0
 10
897.4673409199538
 20
663.483089020347
 30
0.0
 10
897.4725935013797
 20
663.4781832238176
 30
0.0
  0
SPLINE
  5
381
330
1F
100
AcDbEntity
  8
0
  6
Continuous
 62
     8
370
    18
100
AcDbSpline
210
0.0
220
0.0
230
1.0
 70
     8
 71
     3
 72
    14
 73
    10
 74
     0
 42
0.000000001
 43
0.00000001
 40
0.0
 40
0.0
 40
0.0
 40
0.0
 40
0.1114289230413302
 40
0.4958785649680147
 40
0.704655530561839
 40
0.8301760374257594
 40
0.9121018798659138
 40
0.994279708213752
 40
1.0
 40
1.0
 40
1.0
 40
1.0
 10
899.05177394678
 20
633.0975691244521
 30
0.0
 10
898.9323829011441
 20
633.1799014897014
 30
0.0
 10
898.4010714717232
 20
633.5462951872786
 30
0.0
 10
897.7267799483686
 20
634.1790663379976
 30
0.0
 10
897.2689161606066
 20
634.9700508526979
 30
0.0
 10
897.1844584102731
 20
635.4802455865606
 30
0.0
 10
897.2669227031254
 20
635.8245741922249
 30
0.0
 10
897.3866296467477
 20
636.0022739129575
 30
0.0
 10
897.4673409199538
 20
636.0776564823806
 30
0.0
 10
897.4725935013797
 20
636.08256227891
 30
0.0
  0
ARC
  5
382
330
1F
100
AcDbEntity
  8
0
  6
Continuous
 62
     8
370
    18
100
AcDbCircle
 10
896.6107245225
 20
649.7803727514
 30
0.0
 40
20.0
100
AcDbArc
 50
270.0
 51
347.5224163016
  0
LINE
  5
383
330
1F
100
AcDbEntity
  8
0
  6
Continuous
 62
     8
370
    18
100
AcDbLine
 10
896.6107245225
 20
637.0677219645
 30
0.0
 11
896.6107245225
 21
629.7803727514
 31
0.0
  0
LINE
  5
384
330
1F
100
AcDbEntity
  8
0
  6
Continuous
 62
     8
370
    18
100
AcDbLine
 10
896.6107245225
 20
662.4930235383
 30
0.0
 11
896.6107245225
 21
669.7803727514
 31
0.0
  0
ARC
  5
385
330
1F
100
AcDbEntity
  8
0
  6
Continuous
 62
     8
370
    18
100
AcDbCircle
 10
896.6107245225
 20
649.7803727514
 30
0.0
 40
20.0
100
AcDbArc
 50
12.4775836984
 51
90.0
  0
ARC
  5
386
330
1F
100
AcDbEntity
  8
0
  6
Continuous
 62
     8
370
    18
100
AcDbCircle
 10
804.6107245225
 20
649.7803727514
 30
0.0
 40
20.00000000000002
100
AcDbArc
 50
90.0
 51
167.5224163016
  0
LINE
  5
387
330
1F
100
AcDbEntity
  8
0
  6
Continuous
 62
     8
370
    18
100
AcDbLine
 10
804.6107245225
 20
662.4930235383
 30
0.0
 11
804.6107245225
 21
669.7803727514
 31
0.0
  0
LINE
  5
388
330
1F
100
AcDbEntity
  8
0
  6
Continuous
 62
     8
370
    18
100
AcDbLine
 10
804.6107245225
 20
637.0677219645
 30
0.0
 11
804.6107245225
 21
629.7803727514
 31
0.0
  0
ARC
  5
389
330
1F
100
AcDbEntity
  8
0
  6
Continuous
 62
     8
370
    18
100
AcDbCircle
 10
804.6107245225
 20
649.7803727514
 30
0.0
 40
20.00000000000011
100
AcDbArc
 50
192.4775836984
 51
270.0
  0
SPLINE
  5
38A
330
1F
100
AcDbEntity
  8
0
  6
Continuous
 62
     8
370
    18
100
AcDbSpline
210
0.0
220
0.0
230
1.0
 70
     8
 71
     3
 72
    14
 73
    10
 74
     0
 42
0.000000001
 43
0.00000001
 40
0.0
 40
0.0
 40
0.0
 40
0.0
 40
0.1114289230413299
 40
0.4958785649680157
 40
0.7046555305618394
 40
0.8301760374257576
 40
0.9121018798659118
 40
0.9942797082137519
 40
1.0
 40
1.0
 40
1.0
 40
1.0
 10
802.1696750981305
 20
633.0975691244521
 30
0.0
 10
802.2890661437664
 20
633.1799014897014
 30
0.0
 10
802.8203775731873
 20
633.5462951872787
 30
0.0
 10
803.4946690965419
 20
634.1790663379976
 30
0.0
 10
803.9525328843039
 20
634.9700508526979
 30
0.0
 10
804.0369906346374
 20
635.4802455865606
 30
0.0
 10
803.9545263417853
 20
635.8245741922249
 30
0.0
 10
803.8348193981628
 20
636.0022739129575
 30
0.0
 10
803.7541081249566
 20
636.0776564823806
 30
0.0
 10
803.7488555435308
 20
636.08256227891
 30
0.0
  0
SPLINE
  5
38B
330
1F
100
AcDbEntity
  8
0
  6
Continuous
 62
     8
370
    18
100
AcDbSpline
210
0.0
220
0.0
230
1.0
 70
     8
 71
     3
 72
    14
 73
    10
 74
     0
 42
0.000000001
 43
0.00000001
 40
0.0
 40
0.0
 40
0.0
 40
0.0
 40
0.1114289230413312
 40
0.495878564968003
 40
0.7046555305618308
 40
0.8301760374257534
 40
0.9121018798659088
 40
0.9942797082137482
 40
1.0
 40
1.0
 40
1.0
 40
1.0
 10
802.1696750981305
 20
666.4631763782754
 30
0.0
 10
802.2890661437664
 20
666.3808440130261
 30
0.0
 10
802.8203775731873
 20
666.0144503154489
 30
0.0
 10
803.4946690965419
 20
665.38167916473
 30
0.0
 10
803.9525328843039
 20
664.5906946500297
 30
0.0
 10
804.0369906346374
 20
664.080499916167
 30
0.0
 10
803.9545263417853
 20
663.7361713105028
 30
0.0
 10
803.8348193981627
 20
663.5584715897701
 30
0.0
 10
803.7541081249566
 20
663.483089020347
 30
0.0
 10
803.7488555435308
 20
663.4781832238176
 30
0.0
  0
SPLINE
  5
38C
330
1F
100
AcDbEntity
  8
0
  6
Continuous
 62
     8
370
    18
100
AcDbSpline
210
0.0
220
0.0
230
1.0
 70
     8
 71
     3
 72
    18
 73
    14
 74
     0
 42
0.000000001
 43
0.00000001
 40
0.0
 40
0.0
 40
0.0
 40
0.0
 40
0.0000017576874324
 40
0.0364929107765217
 40
0.1834197338049768
 40
0.2877695105078322
 40
0.3921441025453798
 40
0.4993591877198507
 40
0.6063886859551819
 40
0.7134284383809882
 40
0.8178270444226949
 40
0.9079734932070055
 40
1.0
 40
1.0
 40
1.0
 40
1.0
 10
903.6107245224554
 20
671.5260851433533
 30
0.0
 10
903.6107445089493
 20
671.5260851431452
 30
0.0
 10
904.0257018741806
 20
671.52608082158
 30
0.0
 10
906.1109106981401
 20
671.4636964192654
 30
0.0
 10
909.3678596454953
 20
670.894531110789
 30
0.0
 10
913.1551799975782
 20
669.4295907799491
 30
0.0
 10
916.2544170381403
 20
667.5812952569306
 30
0.0
 10
919.0474149423517
 20
665.2470031962345
 30
0.0
 10
921.410983993472
 20
662.4381104139957
 30
0.0
 10
923.2662208893587
 20
659.3079582093682
 30
0.0
 10
924.5021518013399
 20
656.0951679892036
 30
0.0
 10
925.2265352044582
 20
652.901244948429
 30
0.0
 10
925.3109660582561
 20
650.8277962727689
 30
0.0
 10
925.3536171560327
 20
649.7803727513638
 30
0.0
  0
LINE
  5
38D
330
1F
100
AcDbEntity
  8
0
  6
Continuous
 62
     8
370
    18
100
AcDbLine
 10
903.6107245225
 20
671.5260851434
 30
0.0
 11
903.6107249195
 21
671.5303727514
 31
0.0
  0
LINE
  5
38E
330
1F
100
AcDbEntity
  8
0
  6
Continuous
 62
     8
370
    18
100
AcDbLine
 10
925.353617156
 20
649.7803727514
 30
0.0
 11
925.349177213
 21
649.7803727514
 31
0.0
  0
LINE
  5
38F
330
1F
100
AcDbEntity
  8
0
  6
Continuous
 62
     8
370
    18
100
AcDbLine
 10
903.6107245225
 20
671.5216452189
 30
0.0
 11
903.6107245225
 21
671.5260851434
 31
0.0
  0
SPLINE
  5
390
330
1F
100
AcDbEntity
  8
0
  6
Continuous
 62
     8
370
    18
100
AcDbSpline
210
0.0
220
0.0
230
1.0
 70
     8
 71
     3
 72
    18
 73
    14
 74
     0
 42
0.000000001
 43
0.00000001
 40
0.0
 40
0.0
 40
0.0
 40
0.0
 40
0.0000017576874324
 40
0.0364929107765216
 40
0.1834197338049765
 40
0.2877695105078324
 40
0.392144102545381
 40
0.4993591877198518
 40
0.6063886859551827
 40
0.7134284383809889
 40
0.8178270444226954
 40
0.9079734932070058
 40
1.0
 40
1.0
 40
1.0
 40
1.0
 10
797.6107245224553
 20
671.5260851433534
 30
0.0
 10
797.6107045359612
 20
671.5260851431452
 30
0.0
 10
797.1957471707303
 20
671.52608082158
 30
0.0
 10
795.1105383467695
 20
671.4636964192654
 30
0.0
 10
791.8535893994156
 20
670.8945311107889
 30
0.0
 10
788.0662690473322
 20
669.4295907799493
 30
0.0
 10
784.9670320067701
 20
667.5812952569306
 30
0.0
 10
782.1740341025587
 20
665.2470031962346
 30
0.0
 10
779.8104650514384
 20
662.4381104139957
 30
0.0
 10
777.9552281555517
 20
659.3079582093683
 30
0.0
 10
776.7192972435705
 20
656.0951679892037
 30
0.0
 10
775.9949138404523
 20
652.901244948429
 30
0.0
 10
775.9104829866543
 20
650.8277962727689
 30
0.0
 10
775.8678318888778
 20
649.7803727513639
 30
0.0
  0
LINE
  5
391
330
1F
100
AcDbEntity
  8
0
  6
Continuous
 62
     8
370
    18
100
AcDbLine
 10
797.6107245225
 20
671.5260851434
 30
0.0
 11
797.6107241254
 21
671.5303727514
 31
0.0
  0
LINE
  5
392
330
1F
100
AcDbEntity
  8
0
  6
Continuous
 62
     8
370
    18
100
AcDbLine
 10
775.8678318889
 20
649.7803727514
 30
0.0
 11
775.8722718319
 21
649.7803727514
 31
0.0
  0
LINE
  5
393
330
1F
100
AcDbEntity
  8
0
  6
Continuous
 62
     8
370
    18
100
AcDbLine
 10
797.6107245225
 20
671.5216452189
 30
0.0
 11
797.6107245225
 21
671.5260851434
 31
0.0
  0
SPLINE
  5
394
330
1F
100
AcDbEntity
  8
0
  6
Continuous
 62
     8
370
    18
100
AcDbSpline
210
0.0
220
0.0
230
1.0
 70
     8
 71
     3
 72
    18
 73
    14
 74
     0
 42
0.000000001
 43
0.00000001
 40
0.0
 40
0.0
 40
0.0
 40
0.0
 40
0.0000017576874324
 40
0.0364929107765215
 40
0.183419733804976
 40
0.2877695105078316
 40
0.3921441025453799
 40
0.4993591877198528
 40
0.6063886859551835
 40
0.7134284383809893
 40
0.8178270444226952
 40
0.907973493207006
 40
1.0
 40
1.0
 40
1.0
 40
1.0
 10
797.6107245224553
 20
628.0346603593742
 30
0.0
 10
797.6107045359612
 20
628.0346603595823
 30
0.0
 10
797.1957471706822
 20
628.0346646811237
 30
0.0
 10
795.110538346864
 20
628.0970490835092
 30
0.0
 10
791.8535893993898
 20
628.6662143919258
 30
0.0
 10
788.0662690473381
 20
630.1311547227812
 30
0.0
 10
784.9670320067684
 20
631.9794502457961
 30
0.0
 10
782.1740341025592
 20
634.3137423064933
 30
0.0
 10
779.8104650514383
 20
637.1226350887318
 30
0.0
 10
777.9552281555518
 20
640.2527872933593
 30
0.0
 10
776.7192972435705
 20
643.465577513524
 30
0.0
 10
775.9949138404523
 20
646.6595005542986
 30
0.0
 10
775.9104829866543
 20
648.7329492299588
 30
0.0
 10
775.8678318888778
 20
649.7803727513639
 30
0.0
  0
LINE
  5
395
330
1F
100
AcDbEntity
  8
0
  6
Continuous
 62
     8
370
    18
100
AcDbLine
 10
797.6107245225
 20
628.0346603594
 30
0.0
 11
797.6107241254
 21
628.0303727514
 31
0.0
  0
LINE
  5
396
330
1F
100
AcDbEntity
  8
0
  6
Continuous
 62
     8
370
    18
100
AcDbLine
 10
797.6107245225
 20
628.0391002838
 30
0.0
 11
797.6107245225
 21
628.0346603594
 31
0.0
  0
SPLINE
  5
397
330
1F
100
AcDbEntity
  8
0
  6
Continuous
 62
     8
370
    18
100
AcDbSpline
210
0.0
220
0.0
230
1.0
 70
     8
 71
     3
 72
    18
 73
    14
 74
     0
 42
0.000000001
 43
0.00000001
 40
0.0
 40
0.0
 40
0.0
 40
0.0
 40
0.0000017576874324
 40
0.0364929107765215
 40
0.1834197338049761
 40
0.2877695105078296
 40
0.3921441025453796
 40
0.4993591877198524
 40
0.6063886859551831
 40
0.7134284383809891
 40
0.817827044422695
 40
0.9079734932070057
 40
1.0
 40
1.0
 40
1.0
 40
1.0
 10
903.6107245224551
 20
628.0346603593741
 30
0.0
 10
903.6107445089493
 20
628.0346603595823
 30
0.0
 10
904.0257018742767
 20
628.0346646811237
 30
0.0
 10
906.1109106979512
 20
628.0970490835092
 30
0.0
 10
909.3678596455467
 20
628.6662143919258
 30
0.0
 10
913.1551799975665
 20
630.1311547227812
 30
0.0
 10
916.2544170381437
 20
631.9794502457961
 30
0.0
 10
919.0474149423508
 20
634.3137423064933
 30
0.0
 10
921.4109839934723
 20
637.1226350887318
 30
0.0
 10
923.2662208893587
 20
640.2527872933593
 30
0.0
 10
924.5021518013399
 20
643.465577513524
 30
0.0
 10
925.2265352044582
 20
646.6595005542986
 30
0.0
 10
925.3109660582561
 20
648.7329492299588
 30
0.0
 10
925.3536171560327
 20
649.7803727513638
 30
0.0
  0
LINE
  5
398
330
1F
100
AcDbEntity
  8
0
  6
Continuous
 62
     8
370
    18
100
AcDbLine
 10
903.6107245225
 20
628.0391002838
 30
0.0
 11
903.6107245225
 21
628.0346603594
 31
0.0
  0
LINE
  5
399
330
1F
100
AcDbEntity
  8
0
  6
Continuous
 62
     8
370
    18
100
AcDbLine
 10
903.6107245225
 20
628.0346603594
 30
0.0
 11
903.6107249195
 21
628.0303727514
 31
0.0
  0
LINE
  5
39A
330
1F
100
AcDbEntity
  8
0
  6
Continuous
 62
     8
370
    18
100
AcDbLine
 10
896.6107245225
 20
629.7803727514
 30
0.0
 11
804.6107245225
 21
629.7803727514
 31
0.0
  0
LINE
  5
39B
330
1F
100
AcDbEntity
  8
0
  6
Continuous
 62
     8
370
    18
100
AcDbLine
 10
896.6107245225
 20
669.7803727514
 30
0.0
 11
804.6107245225
 21
669.7803727514
 31
0.0
  0
LINE
  5
39C
330
1F
100
AcDbEntity
  8
0
  6
Continuous
 62
     8
370
    18
100
AcDbLine
 10
903.6107245225
 20
671.5260851434
 30
0.0
 11
797.6107245225
 21
671.5260851434
 31
0.0
  0
LINE
  5
39D
330
1F
100
AcDbEntity
  8
0
  6
Continuous
 62
     8
370
    18
100
AcDbLine
 10
903.6107245225
 20
628.0346603594
 30
0.0
 11
797.6107245225
 21
628.0346603594
 31
0.0
  0
LINE
  5
39E
330
1F
100
AcDbEntity
  8
0
  6
Continuous
 62
     8
370
    18
100
AcDbLine
 10
903.6107245225
 20
671.5303727514
 30
0.0
 11
903.6107245225
 21
676.0303727514
 31
0.0
  0
LINE
  5
39F
330
1F
100
AcDbEntity
  8
0
  6
Continuous
 62
     8
370
    18
100
AcDbLine
 10
797.6107245225
 20
671.5303727514
 30
0.0
 11
797.6107245225
 21
676.0303727514
 31
0.0
  0
LINE
  5
3A0
330
1F
100
AcDbEntity
  8
0
  6
Continuous
 62
     8
370
    18
100
AcDbLine
 10
903.6107245225
 20
676.0303727514
 30
0.0
 11
797.6107245225
 21
676.0303727514
 31
0.0
  0
LINE
  5
3A1
330
1F
100
AcDbEntity
  8
0
  6
Continuous
 62
     8
370
    18
100
AcDbLine
 10
903.6107245225
 20
676.0303727514
 30
0.0
 11
903.6107245225
 21
676.7803727514
 31
0.0
  0
LINE
  5
3A2
330
1F
100
AcDbEntity
  8
0
  6
Continuous
 62
     8
370
    18
100
AcDbLine
 10
797.6107245225
 20
676.0303727514
 30
0.0
 11
797.6107245225
 21
676.7803727514
 31
0.0
  0
LINE
  5
3A3
330
1F
100
AcDbEntity
  8
0
  6
Continuous
 62
     8
370
    18
100
AcDbLine
 10
903.6107245225
 20
628.0303727514
 30
0.0
 11
903.6107245225
 21
623.5303727514
 31
0.0
  0
ARC
  5
3A4
330
1F
100
AcDbEntity
  8
0
  6
Continuous
 62
     8
370
    18
100
AcDbCircle
 10
903.6107245225
 20
649.7803727514
 30
0.0
 40
26.25000000000011
100
AcDbArc
 50
270.0
 51
90.0
  0
LINE
  5
3A5
330
1F
100
AcDbEntity
  8
0
  6
Continuous
 62
     8
370
    18
100
AcDbLine
 10
903.6107245225
 20
623.5303727514
 30
0.0
 11
903.6107245225
 21
622.7803727514
 31
0.0
  0
LINE
  5
3A6
330
1F
100
AcDbEntity
  8
0
  6
Continuous
 62
     8
370
    18
100
AcDbLine
 10
797.6107245225
 20
628.0303727514
 30
0.0
 11
797.6107245225
 21
623.5303727514
 31
0.0
  0
ARC
  5
3A7
330
1F
100
AcDbEntity
  8
0
  6
Continuous
 62
     8
370
    18
100
AcDbCircle
 10
797.6107245225
 20
649.7803727514
 30
0.0
 40
26.25000000000011
100
AcDbArc
 50
90.0
 51
270.0
  0
LINE
  5
3A8
330
1F
100
AcDbEntity
  8
0
  6
Continuous
 62
     8
370
    18
100
AcDbLine
 10
797.6107245225
 20
623.5303727514
 30
0.0
 11
797.6107245225
 21
622.7803727514
 31
0.0
  0
LINE
  5
3A9
330
1F
100
AcDbEntity
  8
0
  6
Continuous
 62
     8
370
    18
100
AcDbLine
 10
903.6107245225
 20
623.5303727514
 30
0.0
 11
797.6107245225
 21
623.5303727514
 31
0.0
  0
CIRCLE
  5
3AA
330
1F
100
AcDbEntity
  8
0
  6
Continuous
 62
     8
370
    18
100
AcDbCircle
 10
850.6107245225
 20
649.7803727514
 30
0.0
 40
3.548336454629748
  0
CIRCLE
  5
3AB
330
1F
100
AcDbEntity
  8
0
  6
Continuous
 62
     8
370
    18
100
AcDbCircle
 10
850.6107245225
 20
649.7803727514
 30
0.0
 40
5.61470943354675
  0
ARC
  5
3AC
330
1F
100
AcDbEntity
  8
0
  6
Continuous
 62
     8
370
    18
100
AcDbCircle
 10
850.6107245225
 20
649.7803727514
 30
0.0
 40
7.463480267439844
100
AcDbArc
 50
306.49444767
 51
53.5055523299
  0
ARC
  5
3AD
330
1F
100
AcDbEntity
  8
0
  6
Continuous
 62
     8
370
    18
100
AcDbCircle
 10
850.6107245225
 20
649.7803727514
 30
0.0
 40
7.463480267439841
100
AcDbArc
 50
126.4944476701
 51
233.50555233
  0
ARC
  5
3AE
330
1F
100
AcDbEntity
  8
0
  6
Continuous
 62
     8
370
    18
100
AcDbCircle
 10
850.6107245225
 20
649.7803727514
 30
0.0
 40
8.284968901367112
100
AcDbArc
 50
313.5974061618
 51
46.4025938382
  0
ARC
  5
3AF
330
1F
100
AcDbEntity
  8
0
  6
Continuous
 62
     8
370
    18
100
AcDbCircle
 10
850.6107245225
 20
649.7803727514
 30
0.0
 40
8.284968901367112
100
AcDbArc
 50
133.5974061618
 51
226.4025938382
  0
LINE
  5
3B0
330
1F
100
AcDbEntity
  8
0
  6
Continuous
 62
     8
370
    18
100
AcDbLine
 10
509.6107245225
 20
614.7803727514
 30
0.0
 11
509.6107245225
 21
699.2803727514
 31
0.0
  0
LINE
  5
3B1
330
1F
100
AcDbEntity
  8
0
  6
Continuous
 62
     8
370
    18
100
AcDbLine
 10
1191.6107245225
 20
614.7803727514
 30
0.0
 11
1191.6107245225
 21
699.2803727514
 31
0.0
  0
LINE
  5
3B2
330
1F
100
AcDbEntity
  8
0
  6
Continuous
 62
     8
370
    18
100
AcDbLine
 10
488.1107245225
 20
700.3053727514
 30
0.0
 11
488.1107245225
 21
699.3053727514
 31
0.0
  0
LINE
  5
3B3
330
1F
100
AcDbEntity
  8
0
  6
Continuous
 62
     8
370
    18
100
AcDbLine
 10
478.1107245225
 20
698.3053727514
 30
0.0
 11
508.6107245225
 21
698.3053727514
 31
0.0
  0
LINE
  5
3B4
330
1F
100
AcDbEntity
  8
0
  6
Continuous
 62
     8
370
    18
100
AcDbLine
 10
1213.1107245225
 20
699.3053727514
 30
0.0
 11
1213.1107245225
 21
700.3053727514
 31
0.0
  0
LINE
  5
3B5
330
1F
100
AcDbEntity
  8
0
  6
Continuous
 62
     8
370
    18
100
AcDbLine
 10
1192.6107245225
 20
698.3053727514
 30
0.0
 11
1223.1107245225
 21
698.3053727514
 31
0.0
  0
ENDSEC
  0
SECTION
  2
OBJECTS
  0
DICTIONARY
  5
C
330
0
100
AcDbDictionary
281
     1
  3
ACAD_GROUP
350
D
  3
ACAD_LAYOUT
350
1A
  3
ACAD_MLINESTYLE
350
17
  3
ACAD_PLOTSETTINGS
350
19
  3
ACAD_PLOTSTYLENAME
350
E
  3
ACAD_SCALELIST
350
47
  0
DICTIONARY
  5
D
102
{ACAD_REACTORS
330
C
102
}
330
C
100
AcDbDictionary
281
     1
  0
DICTIONARY
  5
1A
102
{ACAD_REACTORS
330
C
102
}
330
C
100
AcDbDictionary
281
     1
  3
Layout1
350
1E
  3
Layout2
350
26
  3
Model
350
22
  0
DICTIONARY
  5
17
102
{ACAD_REACTORS
330
C
102
}
330
C
100
AcDbDictionary
281
     1
  3
Standard
350
18
  0
DICTIONARY
  5
19
102
{ACAD_REACTORS
330
C
102
}
330
C
100
AcDbDictionary
281
     1
  0
ACDBDICTIONARYWDFLT
  5
E
102
{ACAD_REACTORS
330
C
102
}
330
C
100
AcDbDictionary
281
     1
  3
Normal
350
F
100
AcDbDictionaryWithDefault
340
F
  0
DICTIONARY
  5
47
102
{ACAD_REACTORS
330
C
102
}
330
C
100
AcDbDictionary
281
     1
  3
A0
350
48
  3
A1
350
49
  3
A2
350
4A
  3
A3
350
4B
  3
A4
350
4C
  3
A5
350
4D
  3
A6
350
4E
  3
A7
350
4F
  3
A8
350
50
  3
A9
350
51
  3
B0
350
52
  3
B1
350
53
  3
B2
350
54
  3
B3
350
55
  3
B4
350
56
  3
B5
350
57
  3
B6
350
58
  3
B7
350
59
  3
B8
350
5A
  3
B9
350
5B
  3
C0
350
5C
  3
C1
350
5D
  3
C2
350
5E
  3
C3
350
5F
  3
C4
350
60
  3
C5
350
61
  3
C6
350
62
  3
C7
350
63
  3
C8
350
64
  3
C9
350
65
  3
D0
350
66
  3
D1
350
67
  3
D2
350
68
  0
LAYOUT
  5
1E
102
{ACAD_REACTORS
330
1A
102
}
330
1A
100
AcDbPlotSettings
  1

  2
none_device
  4

  6

 40
0.0
 41
0.0
 42
0.0
 43
0.0
 44
0.0
 45
0.0
 46
0.0
 47
0.0
 48
0.0
 49
0.0
140
0.0
141
0.0
142
1.0
143
1.0
 70
   688
 72
     1
 73
     0
 74
     5
  7

 75
    16
147
1.0
148
0.0
149
0.0
100
AcDbLayout
  1
Layout1
 70
     1
 71
     1
 10
0.0
 20
0.0
 11
420.0
 21
297.0
 12
0.0
 22
0.0
 32
0.0
 14
1.0000000000E+20
 24
1.0000000000E+20
 34
1.0000000000E+20
 15
-1.0000000000E+20
 25
-1.0000000000E+20
 35
-1.0000000000E+20
146
0.0
 13
0.0
 23
0.0
 33
0.0
 16
1.0
 26
0.0
 36
0.0
 17
0.0
 27
1.0
 37
0.0
 76
     0
330
1B
  0
LAYOUT
  5
26
102
{ACAD_REACTORS
330
1A
102
}
330
1A
100
AcDbPlotSettings
  1

  2
none_device
  4

  6

 40
0.0
 41
0.0
 42
0.0
 43
0.0
 44
0.0
 45
0.0
 46
0.0
 47
0.0
 48
0.0
 49
0.0
140
0.0
141
0.0
142
1.0
143
1.0
 70
   688
 72
     1
 73
     0
 74
     5
  7

 75
    16
147
1.0
148
0.0
149
0.0
100
AcDbLayout
  1
Layout2
 70
     1
 71
     2
 10
0.0
 20
0.0
 11
0.0
 21
0.0
 12
0.0
 22
0.0
 32
0.0
 14
0.0
 24
0.0
 34
0.0
 15
0.0
 25
0.0
 35
0.0
146
0.0
 13
0.0
 23
0.0
 33
0.0
 16
1.0
 26
0.0
 36
0.0
 17
0.0
 27
1.0
 37
0.0
 76
     0
330
23
  0
LAYOUT
  5
22
102
{ACAD_REACTORS
330
1A
102
}
330
1A
100
AcDbPlotSettings
  1

  2
none_device
  4
Letter_(8.50_x_11.00_Inches)
  6

 40
6.35
 41
6.35
 42
6.35000508
 43
6.35000508
 44
215.9
 45
279.4
 46
0.0
 47
0.0
 48
0.0
 49
0.0
140
0.0
141
0.0
142
1.0
143
1.0
 70
  1712
 72
     1
 73
     0
 74
     0
  7

 75
     0
147
1.0
148
0.0
149
0.0
100
AcDbLayout
  1
Model
 70
     1
 71
     0
 10
0.0
 20
0.0
 11
2100.0
 21
1485.0
 12
0.0
 22
0.0
 32
0.0
 14
0.0
 24
0.0
 34
0.0
 15
2100.0
 25
1485.0
 35
0.0
146
0.0
 13
0.0
 23
0.0
 33
0.0
 16
1.0
 26
0.0
 36
0.0
 17
0.0
 27
1.0
 37
0.0
 76
     0
330
1F
331
29
  0
MLINESTYLE
  5
18
102
{ACAD_REACTORS
330
17
102
}
330
17
100
AcDbMlineStyle
  2
Standard
 70
     0
  3

 62
   256
 51
90.0
 52
90.0
 71
     2
 49
0.5
 62
   256
  6
BYLAYER
 49
-0.5
 62
   256
  6
BYLAYER
  0
ACDBPLACEHOLDER
  5
F
102
{ACAD_REACTORS
330
E
102
}
330
E
  0
SCALE
  5
48
102
{ACAD_REACTORS
330
47
102
}
330
47
100
AcDbScale
 70
     0
300
1:1
140
1.0
141
1.0
290
     1
  0
SCALE
  5
49
102
{ACAD_REACTORS
330
47
102
}
330
47
100
AcDbScale
 70
     0
300
1:2
140
1.0
141
2.0
290
     0
  0
SCALE
  5
4A
102
{ACAD_REACTORS
330
47
102
}
330
47
100
AcDbScale
 70
     0
300
1:4
140
1.0
141
4.0
290
     0
  0
SCALE
  5
4B
102
{ACAD_REACTORS
330
47
102
}
330
47
100
AcDbScale
 70
     0
300
1:5
140
1.0
141
5.0
290
     0
  0
SCALE
  5
4C
102
{ACAD_REACTORS
330
47
102
}
330
47
100
AcDbScale
 70
     0
300
1:8
140
1.0
141
8.0
290
     0
  0
SCALE
  5
4D
102
{ACAD_REACTORS
330
47
102
}
330
47
100
AcDbScale
 70
     0
300
1:10
140
1.0
141
10.0
290
     0
  0
SCALE
  5
4E
102
{ACAD_REACTORS
330
47
102
}
330
47
100
AcDbScale
 70
     0
300
1:16
140
1.0
141
16.0
290
     0
  0
SCALE
  5
4F
102
{ACAD_REACTORS
330
47
102
}
330
47
100
AcDbScale
 70
     0
300
1:20
140
1.0
141
20.0
290
     0
  0
SCALE
  5
50
102
{ACAD_REACTORS
330
47
102
}
330
47
100
AcDbScale
 70
     0
300
1:30
140
1.0
141
30.0
290
     0
  0
SCALE
  5
51
102
{ACAD_REACTORS
330
47
102
}
330
47
100
AcDbScale
 70
     0
300
1:40
140
1.0
141
40.0
290
     0
  0
SCALE
  5
52
102
{ACAD_REACTORS
330
47
102
}
330
47
100
AcDbScale
 70
     0
300
1:50
140
1.0
141
50.0
290
     0
  0
SCALE
  5
53
102
{ACAD_REACTORS
330
47
102
}
330
47
100
AcDbScale
 70
     0
300
1:100
140
1.0
141
100.0
290
     0
  0
SCALE
  5
54
102
{ACAD_REACTORS
330
47
102
}
330
47
100
AcDbScale
 70
     0
300
2:1
140
2.0
141
1.0
290
     0
  0
SCALE
  5
55
102
{ACAD_REACTORS
330
47
102
}
330
47
100
AcDbScale
 70
     0
300
4:1
140
4.0
141
1.0
290
     0
  0
SCALE
  5
56
102
{ACAD_REACTORS
330
47
102
}
330
47
100
AcDbScale
 70
     0
300
8:1
140
8.0
141
1.0
290
     0
  0
SCALE
  5
57
102
{ACAD_REACTORS
330
47
102
}
330
47
100
AcDbScale
 70
     0
300
10:1
140
10.0
141
1.0
290
     0
  0
SCALE
  5
58
102
{ACAD_REACTORS
330
47
102
}
330
47
100
AcDbScale
 70
     0
300
100:1
140
100.0
141
1.0
290
     0
  0
SCALE
  5
59
102
{ACAD_REACTORS
330
47
102
}
330
47
100
AcDbScale
 70
     0
300
1/128" = 1'-0"
140
0.0078125
141
12.0
290
     0
  0
SCALE
  5
5A
102
{ACAD_REACTORS
330
47
102
}
330
47
100
AcDbScale
 70
     0
300
1/64" = 1'-0"
140
0.015625
141
12.0
290
     0
  0
SCALE
  5
5B
102
{ACAD_REACTORS
330
47
102
}
330
47
100
AcDbScale
 70
     0
300
1/32" = 1'-0"
140
0.03125
141
12.0
290
     0
  0
SCALE
  5
5C
102
{ACAD_REACTORS
330
47
102
}
330
47
100
AcDbScale
 70
     0
300
1/16" = 1'-0"
140
0.0625
141
12.0
290
     0
  0
SCALE
  5
5D
102
{ACAD_REACTORS
330
47
102
}
330
47
100
AcDbScale
 70
     0
300
3/32" = 1'-0"
140
0.09375
141
12.0
290
     0
  0
SCALE
  5
5E
102
{ACAD_REACTORS
330
47
102
}
330
47
100
AcDbScale
 70
     0
300
1/8" = 1'-0"
140
0.125
141
12.0
290
     0
  0
SCALE
  5
5F
102
{ACAD_REACTORS
330
47
102
}
330
47
100
AcDbScale
 70
     0
300
3/16" = 1'-0"
140
0.1875
141
12.0
290
     0
  0
SCALE
  5
60
102
{ACAD_REACTORS
330
47
102
}
330
47
100
AcDbScale
 70
     0
300
1/4" = 1'-0"
140
0.25
141
12.0
290
     0
  0
SCALE
  5
61
102
{ACAD_REACTORS
330
47
102
}
330
47
100
AcDbScale
 70
     0
300
3/8" = 1'-0"
140
0.375
141
12.0
290
     0
  0
SCALE
  5
62
102
{ACAD_REACTORS
330
47
102
}
330
47
100
AcDbScale
 70
     0
300
1/2" = 1'-0"
140
0.5
141
12.0
290
     0
  0
SCALE
  5
63
102
{ACAD_REACTORS
330
47
102
}
330
47
100
AcDbScale
 70
     0
300
3/4" = 1'-0"
140
0.75
141
12.0
290
     0
  0
SCALE
  5
64
102
{ACAD_REACTORS
330
47
102
}
330
47
100
AcDbScale
 70
     0
300
1" = 1'-0"
140
1.0
141
12.0
290
     0
  0
SCALE
  5
65
102
{ACAD_REACTORS
330
47
102
}
330
47
100
AcDbScale
 70
     0
300
1-1/2" = 1'-0"
140
1.5
141
12.0
290
     0
  0
SCALE
  5
66
102
{ACAD_REACTORS
330
47
102
}
330
47
100
AcDbScale
 70
     0
300
3" = 1'-0"
140
3.0
141
12.0
290
     0
  0
SCALE
  5
67
102
{ACAD_REACTORS
330
47
102
}
330
47
100
AcDbScale
 70
     0
300
6" = 1'-0"
140
6.0
141
12.0
290
     0
  0
SCALE
  5
68
102
{ACAD_REACTORS
330
47
102
}
330
47
100
AcDbScale
 70
     0
300
1'-0" = 1'-0"
140
12.0
141
12.0
290
     0
  0
ENDSEC
  0
EOF
