  0
SECTION
  2
HEADER
  9
$ACADVER
  1
AC1015
  9
$ACADMAINTVER
 70
     6
  9
$DWGCODEPAGE
  3
ANSI_1252
  9
$INSBASE
 10
0.0
 20
0.0
 30
0.0
  9
$EXTMIN
 10
0.0
 20
0.0
 30
0.0
  9
$EXTMAX
 10
2100.0
 20
1485.0
 30
0.0
  9
$LIMMIN
 10
0.0
 20
0.0
  9
$LIMMAX
 10
2100.0
 20
1485.0
  9
$ORTHOMODE
 70
     0
  9
$REGENMODE
 70
     1
  9
$FILLMODE
 70
     1
  9
$QTEXTMODE
 70
     0
  9
$MIRRTEXT
 70
     1
  9
$LTSCALE
 40
5.0
  9
$ATTMODE
 70
     1
  9
$TEXTSIZE
 40
12.5
  9
$TRACEWID
 40
1.0
  9
$TEXTSTYLE
  7
Standard
  9
$CLAYER
  8
0
  9
$CELTYPE
  6
ByLayer
  9
$CECOLOR
 62
   256
  9
$CELTSCALE
 40
1.0
  9
$DISPSILH
 70
     0
  9
$DIMSCALE
 40
1.0
  9
$DIMASZ
 40
12.5
  9
$DIMEXO
 40
0.0
  9
$DIMDLI
 40
3.75
  9
$DIMRND
 40
0.0
  9
$DIMDLE
 40
0.0
  9
$DIMEXE
 40
5.0
  9
$DIMTP
 40
0.0
  9
$DIMTM
 40
0.0
  9
$DIMTXT
 40
12.5
  9
$DIMCEN
 40
2.5
  9
$DIMTSZ
 40
0.0
  9
$DIMTOL
 70
     0
  9
$DIMLIM
 70
     0
  9
$DIMTIH
 70
     1
  9
$DIMTOH
 70
     1
  9
$DIMSE1
 70
     0
  9
$DIMSE2
 70
     0
  9
$DIMTAD
 70
     1
  9
$DIMZIN
 70
     0
  9
$DIMBLK
  1

  9
$DIMASO
 70
     1
  9
$DIMSHO
 70
     1
  9
$DIMPOST
  1

  9
$DIMAPOST
  1

  9
$DIMALT
 70
     0
  9
$DIMALTD
 70
     3
  9
$DIMALTF
 40
0.0393700787
  9
$DIMLFAC
 40
1.0
  9
$DIMTOFL
 70
     1
  9
$DIMTVP
 40
0.0
  9
$DIMTIX
 70
     0
  9
$DIMSOXD
 70
     0
  9
$DIMSAH
 70
     0
  9
$DIMBLK1
  1

  9
$DIMBLK2
  1

  9
$DIMSTYLE
  2
ISO-25
  9
$DIMCLRD
 70
     0
  9
$DIMCLRE
 70
     0
  9
$DIMCLRT
 70
     0
  9
$DIMTFAC
 40
1.0
  9
$DIMGAP
 40
7.62
  9
$DIMJUST
 70
     0
  9
$DIMSD1
 70
     0
  9
$DIMSD2
 70
     0
  9
$DIMTOLJ
 70
     0
  9
$DIMTZIN
 70
     0
  9
$DIMALTZ
 70
     0
  9
$DIMALTTZ
 70
     0
  9
$DIMUPT
 70
     0
  9
$DIMDEC
 70
     2
  9
$DIMTDEC
 70
     2
  9
$DIMALTU
 70
     2
  9
$DIMALTTD
 70
     3
  9
$DIMTXSTY
  7
Standard
  9
$DIMAUNIT
 70
     0
  9
$DIMADEC
 70
     2
  9
$DIMALTRND
 40
0.0
  9
$DIMAZIN
 70
     0
  9
$DIMDSEP
 70
    44
  9
$DIMATFIT
 70
     3
  9
$DIMFRAC
 70
     0
  9
$DIMLDRBLK
  1

  9
$DIMLUNIT
 70
     2
  9
$DIMLWD
 70
    -2
  9
$DIMLWE
 70
    -2
  9
$DIMTMOVE
 70
     0
  9
$LUNITS
 70
     2
  9
$LUPREC
 70
     1
  9
$SKETCHINC
 40
1.0
  9
$FILLETRAD
 40
10.0
  9
$AUNITS
 70
     0
  9
$AUPREC
 70
     2
  9
$MENU
  1
.
  9
$ELEVATION
 40
0.0
  9
$PELEVATION
 40
0.0
  9
$THICKNESS
 40
0.0
  9
$LIMCHECK
 70
     0
  9
$CHAMFERA
 40
0.0
  9
$CHAMFERB
 40
0.0
  9
$CHAMFERC
 40
0.0
  9
$CHAMFERD
 40
0.0
  9
$SKPOLY
 70
     0
  9
$TDCREATE
 40
2458939.627177396
  9
$TDUCREATE
 40
2458939.398010729
  9
$TDUPDATE
 40
2458939.627179537
  9
$TDUUPDATE
 40
2458939.39801287
  9
$TDINDWG
 40
0.0000000116
  9
$TDUSRTIMER
 40
0.0000000116
  9
$USRTIMER
 70
     1
  9
$ANGBASE
 50
0.0
  9
$ANGDIR
 70
     0
  9
$PDMODE
 70
     0
  9
$PDSIZE
 40
-1.0
  9
$PLINEWID
 40
0.0
  9
$SPLFRAME
 70
     0
  9
$SPLINETYPE
 70
     6
  9
$SPLINESEGS
 70
     8
  9
$HANDSEED
  5
3E1
  9
$SURFTAB1
 70
     6
  9
$SURFTAB2
 70
     6
  9
$SURFTYPE
 70
     6
  9
$SURFU
 70
     6
  9
$SURFV
 70
     6
  9
$UCSBASE
  2

  9
$UCSNAME
  2

  9
$UCSORG
 10
0.0
 20
0.0
 30
0.0
  9
$UCSXDIR
 10
1.0
 20
0.0
 30
0.0
  9
$UCSYDIR
 10
0.0
 20
1.0
 30
0.0
  9
$UCSORTHOREF
  2

  9
$UCSORTHOVIEW
 70
     0
  9
$UCSORGTOP
 10
0.0
 20
0.0
 30
0.0
  9
$UCSORGBOTTOM
 10
0.0
 20
0.0
 30
0.0
  9
$UCSORGLEFT
 10
0.0
 20
0.0
 30
0.0
  9
$UCSORGRIGHT
 10
0.0
 20
0.0
 30
0.0
  9
$UCSORGFRONT
 10
0.0
 20
0.0
 30
0.0
  9
$UCSORGBACK
 10
0.0
 20
0.0
 30
0.0
  9
$PUCSBASE
  2

  9
$PUCSNAME
  2

  9
$PUCSORG
 10
0.0
 20
0.0
 30
0.0
  9
$PUCSXDIR
 10
1.0
 20
0.0
 30
0.0
  9
$PUCSYDIR
 10
0.0
 20
1.0
 30
0.0
  9
$PUCSORTHOREF
  2

  9
$PUCSORTHOVIEW
 70
     0
  9
$PUCSORGTOP
 10
0.0
 20
0.0
 30
0.0
  9
$PUCSORGBOTTOM
 10
0.0
 20
0.0
 30
0.0
  9
$PUCSORGLEFT
 10
0.0
 20
0.0
 30
0.0
  9
$PUCSORGRIGHT
 10
0.0
 20
0.0
 30
0.0
  9
$PUCSORGFRONT
 10
0.0
 20
0.0
 30
0.0
  9
$PUCSORGBACK
 10
0.0
 20
0.0
 30
0.0
  9
$USERI1
 70
     0
  9
$USERI2
 70
     0
  9
$USERI3
 70
     0
  9
$USERI4
 70
     0
  9
$USERI5
 70
     0
  9
$USERR1
 40
0.0
  9
$USERR2
 40
0.0
  9
$USERR3
 40
0.0
  9
$USERR4
 40
0.0
  9
$USERR5
 40
0.0
  9
$WORLDVIEW
 70
     1
  9
$SHADEDGE
 70
     3
  9
$SHADEDIF
 70
    70
  9
$TILEMODE
 70
     1
  9
$MAXACTVP
 70
    64
  9
$PINSBASE
 10
0.0
 20
0.0
 30
0.0
  9
$PLIMCHECK
 70
     0
  9
$PEXTMIN
 10
1.0000000000E+20
 20
1.0000000000E+20
 30
1.0000000000E+20
  9
$PEXTMAX
 10
-1.0000000000E+20
 20
-1.0000000000E+20
 30
-1.0000000000E+20
  9
$PLIMMIN
 10
0.0
 20
0.0
  9
$PLIMMAX
 10
420.0
 20
297.0
  9
$UNITMODE
 70
     0
  9
$VISRETAIN
 70
     1
  9
$PLINEGEN
 70
     0
  9
$PSLTSCALE
 70
     1
  9
$TREEDEPTH
 70
  3020
  9
$CMLSTYLE
  2
Standard
  9
$CMLJUST
 70
     0
  9
$CMLSCALE
 40
20.0
  9
$PROXYGRAPHICS
 70
     1
  9
$MEASUREMENT
 70
     1
  9
$CELWEIGHT
370
    -1
  9
$ENDCAPS
280
     0
  9
$JOINSTYLE
280
     0
  9
$LWDISPLAY
290
     1
  9
$INSUNITS
 70
     4
  9
$HYPERLINKBASE
  1

  9
$STYLESHEET
  1

  9
$XEDIT
290
     1
  9
$CEPSNTYPE
380
     0
  9
$PSTYLEMODE
290
     1
  9
$FINGERPRINTGUID
  2
{d0b4098e-c7c5-49e3-a41e-d1512aeb6d01}
  9
$VERSIONGUID
  2
{FAEB1C32-E019-11D5-929B-00C0DF256EC4}
  9
$EXTNAMES
290
     1
  9
$PSVPSCALE
 40
0.0
  9
$OLESTARTUP
290
     0
  0
ENDSEC
  0
SECTION
  2
CLASSES
  0
CLASS
  1
ACDBDICTIONARYWDFLT
  2
AcDbDictionaryWithDefault
  3
ObjectDBX Classes
 90
        0
280
     0
281
     0
  0
CLASS
  1
VISUALSTYLE
  2
AcDbVisualStyle
  3
ObjectDBX Classes
 90
     4095
280
     0
281
     0
  0
CLASS
  1
MATERIAL
  2
AcDbMaterial
  3
ObjectDBX Classes
 90
     1153
280
     0
281
     0
  0
CLASS
  1
SCALE
  2
AcDbScale
  3
ObjectDBX Classes
 90
     1153
280
     0
281
     0
  0
CLASS
  1
TABLESTYLE
  2
AcDbTableStyle
  3
ObjectDBX Classes
 90
     4095
280
     0
281
     0
  0
CLASS
  1
MLEADERSTYLE
  2
AcDbMLeaderStyle
  3
ACDB_MLEADERSTYLE_CLASS
 90
     4095
280
     0
281
     0
  0
CLASS
  1
SUN
  2
AcDbSun
  3
SCENEOE
 90
     1153
280
     0
281
     0
  0
CLASS
  1
ACDBPLACEHOLDER
  2
AcDbPlaceHolder
  3
ObjectDBX Classes
 90
        0
280
     0
281
     0
  0
CLASS
  1
LAYOUT
  2
AcDbLayout
  3
ObjectDBX Classes
 90
        0
280
     0
281
     0
  0
ENDSEC
  0
SECTION
  2
TABLES
  0
TABLE
  2
VPORT
  5
8
330
0
100
AcDbSymbolTable
 70
     1
  0
VPORT
  5
29
330
8
100
AcDbSymbolTableRecord
100
AcDbViewportTableRecord
  2
*Active
 70
     0
 10
0.0
 20
0.0
 11
1.0
 21
1.0
 12
1050.0
 22
742.5
 13
0.0
 23
0.0
 14
10.0
 24
10.0
 15
10.0
 25
10.0
 16
0.0
 26
0.0
 36
1.0
 17
0.0
 27
0.0
 37
0.0
 40
1485.0
 41
1.4141414141
 42
50.0
 43
0.0
 44
0.0
 50
0.0
 51
0.0
 71
     0
 72
  2000
 73
     1
 74
     3
 75
     0
 76
     0
 77
     0
 78
     0
281
     0
 65
     1
110
0.0
120
0.0
130
0.0
111
1.0
121
0.0
131
0.0
112
0.0
122
1.0
132
0.0
 79
     0
146
0.0
  0
ENDTAB
  0
TABLE
  2
LTYPE
  5
5
330
0
100
AcDbSymbolTable
 70
     6
  0
LTYPE
  5
14
330
5
100
AcDbSymbolTableRecord
100
AcDbLinetypeTableRecord
  2
ByBlock
 70
     0
  3

 72
    65
 73
     0
 40
0.0
  0
LTYPE
  5
15
330
5
100
AcDbSymbolTableRecord
100
AcDbLinetypeTableRecord
  2
ByLayer
 70
     0
  3

 72
    65
 73
     0
 40
0.0
  0
LTYPE
  5
16
330
5
100
AcDbSymbolTableRecord
100
AcDbLinetypeTableRecord
  2
Continuous
 70
     0
  3
Solid line
 72
    65
 73
     0
 40
0.0
  0
LTYPE
  5
6E
330
5
100
AcDbSymbolTableRecord
100
AcDbLinetypeTableRecord
  2
HIDDEN
 70
     0
  3
Hidden __ __ __ __ __ __ __ __ __ __ __ __ __ __
 72
    65
 73
     2
 40
1.905
 49
1.27
 74
     0
 49
-0.635
 74
     0
  0
LTYPE
  5
6F
330
5
100
AcDbSymbolTableRecord
100
AcDbLinetypeTableRecord
  2
PHANTOM
 70
     0
  3
Phantom ______  __  __  ______  __  __  ______
 72
    65
 73
     6
 40
12.7
 49
6.35
 74
     0
 49
-1.27
 74
     0
 49
1.27
 74
     0
 49
-1.27
 74
     0
 49
1.27
 74
     0
 49
-1.27
 74
     0
  0
LTYPE
  5
70
330
5
100
AcDbSymbolTableRecord
100
AcDbLinetypeTableRecord
  2
CENTER
 70
     0
  3
Center ____ _ ____ _ ____ _ ____ _ ____ _ ____
 72
    65
 73
     4
 40
10.16
 49
6.35
 74
     0
 49
-1.27
 74
     0
 49
1.27
 74
     0
 49
-1.27
 74
     0
  0
LTYPE
  5
71
330
5
100
AcDbSymbolTableRecord
100
AcDbLinetypeTableRecord
  2
CENTERX2
 70
     0
  3
Center (2x) ________  __  ________  __  _____
 72
    65
 73
     4
 40
20.32
 49
12.7
 74
     0
 49
-2.54
 74
     0
 49
2.54
 74
     0
 49
-2.54
 74
     0
  0
LTYPE
  5
72
330
5
100
AcDbSymbolTableRecord
100
AcDbLinetypeTableRecord
  2
DOT2
 70
     0
  3
Dot (.5x) ........................................
 72
    65
 73
     2
 40
0.635
 49
0.0
 74
     0
 49
-0.635
 74
     0
  0
ENDTAB
  0
TABLE
  2
LAYER
  5
2
330
0
100
AcDbSymbolTable
 70
    10
  0
LAYER
  5
10
330
2
100
AcDbSymbolTableRecord
100
AcDbLayerTableRecord
  2
0
 70
     0
 62
     7
  6
Continuous
370
    -3
390
F
  0
LAYER
  5
73
330
2
100
AcDbSymbolTableRecord
100
AcDbLayerTableRecord
  2
DIMENSION
 70
     0
 62
     7
  6
Continuous
370
    -3
390
F
  0
LAYER
  5
74
330
2
100
AcDbSymbolTableRecord
100
AcDbLayerTableRecord
  2
NOTES
 70
     0
 62
     7
  6
Continuous
370
    -3
390
F
  0
LAYER
  5
75
330
2
100
AcDbSymbolTableRecord
100
AcDbLayerTableRecord
  2
TABLES
 70
     0
 62
     7
  6
Continuous
370
    -3
390
F
  0
LAYER
  5
76
330
2
100
AcDbSymbolTableRecord
100
AcDbLayerTableRecord
  2
INVISIBLE
 70
     0
 62
    -7
  6
Continuous
290
     0
370
    -3
390
F
  0
LAYER
  5
77
330
2
100
AcDbSymbolTableRecord
100
AcDbLayerTableRecord
  2
WEP
 70
     0
 62
  -150
  6
Continuous
290
     0
370
    -3
390
F
  0
LAYER
  5
78
330
2
100
AcDbSymbolTableRecord
100
AcDbLayerTableRecord
  2
EMP
 70
     0
 62
     1
  6
Continuous
370
    -3
390
F
  0
LAYER
  5
79
330
2
100
AcDbSymbolTableRecord
100
AcDbLayerTableRecord
  2
MARKETING_DRW
 70
     0
 62
    -7
  6
Continuous
290
     0
370
    -3
390
F
  0
LAYER
  5
7A
330
2
100
AcDbSymbolTableRecord
100
AcDbLayerTableRecord
  2
SINGLE_ARTICLE_DRW
 70
     0
 62
     7
  6
Continuous
370
    -3
390
F
  0
LAYER
  5
7B
330
2
100
AcDbSymbolTableRecord
100
AcDbLayerTableRecord
  2
TABLE_DRW
 70
     0
 62
    -7
  6
Continuous
290
     0
370
    -3
390
F
  0
ENDTAB
  0
TABLE
  2
STYLE
  5
3
330
0
100
AcDbSymbolTable
 70
     2
  0
STYLE
  5
11
330
3
100
AcDbSymbolTableRecord
100
AcDbTextStyleTableRecord
  2
Standard
 70
     0
 40
0.0
 41
1.0
 50
0.0
 71
     0
 42
12.5
  3
txt
  4

  0
STYLE
  5
B5
330
3
100
AcDbSymbolTableRecord
100
AcDbTextStyleTableRecord
  2
SLDTEXTSTYLE0
 70
     0
 40
0.0
 41
0.605
 50
0.0
 71
     0
 42
12.5
  3
TXT
  4

  0
ENDTAB
  0
TABLE
  2
VIEW
  5
6
330
0
100
AcDbSymbolTable
 70
     0
  0
ENDTAB
  0
TABLE
  2
UCS
  5
7
330
0
100
AcDbSymbolTable
 70
     0
  0
ENDTAB
  0
TABLE
  2
APPID
  5
9
330
0
100
AcDbSymbolTable
 70
     1
  0
APPID
  5
12
330
9
100
AcDbSymbolTableRecord
100
AcDbRegAppTableRecord
  2
ACAD
 70
     0
  0
ENDTAB
  0
TABLE
  2
DIMSTYLE
  5
A
330
0
100
AcDbSymbolTable
 70
     1
100
AcDbDimStyleTable
  0
DIMSTYLE
105
27
330
A
100
AcDbSymbolTableRecord
100
AcDbDimStyleTableRecord
  2
ISO-25
 70
     0
 41
2.5
 42
0.625
 43
3.75
 44
1.25
 73
     0
 74
     0
 77
     1
 78
     8
140
2.5
141
2.5
143
0.0393700787
147
0.625
171
     3
172
     1
178
     0
271
     2
272
     2
274
     3
278
    44
283
     0
284
     8
340
11
  0
ENDTAB
  0
TABLE
  2
BLOCK_RECORD
  5
1
330
0
100
AcDbSymbolTable
 70
     3
  0
BLOCK_RECORD
  5
1F
330
1
100
AcDbSymbolTableRecord
100
AcDbBlockTableRecord
  2
*Model_Space
340
22
  0
BLOCK_RECORD
  5
1B
330
1
100
AcDbSymbolTableRecord
100
AcDbBlockTableRecord
  2
*Paper_Space
340
1E
  0
BLOCK_RECORD
  5
23
330
1
100
AcDbSymbolTableRecord
100
AcDbBlockTableRecord
  2
*Paper_Space0
340
26
  0
BLOCK_RECORD
  5
BF
330
1
100
AcDbSymbolTableRecord
100
AcDbBlockTableRecord
  2
SW_NOTE_0
340
0
102
{BLKREFS
331
C5
102
}
  0
BLOCK_RECORD
  5
E8
330
1
100
AcDbSymbolTableRecord
100
AcDbBlockTableRecord
  2
SW_NOTE_0_1
340
0
102
{BLKREFS
331
EE
102
}
  0
ENDTAB
  0
ENDSEC
  0
SECTION
  2
BLOCKS
  0
BLOCK
  5
20
330
1F
100
AcDbEntity
  8
0
100
AcDbBlockBegin
  2
*Model_Space
 70
     0
 10
0.0
 20
0.0
 30
0.0
  3
*Model_Space
  1

  0
ENDBLK
  5
21
330
1F
100
AcDbEntity
  8
0
100
AcDbBlockEnd
  0
BLOCK
  5
1C
330
1B
100
AcDbEntity
 67
     1
  8
0
100
AcDbBlockBegin
  2
*Paper_Space
 70
     0
 10
0.0
 20
0.0
 30
0.0
  3
*Paper_Space
  1

  0
ENDBLK
  5
1D
330
1B
100
AcDbEntity
 67
     1
  8
0
100
AcDbBlockEnd
  0
BLOCK
  5
24
330
23
100
AcDbEntity
  8
0
100
AcDbBlockBegin
  2
*Paper_Space0
 70
     0
 10
0.0
 20
0.0
 30
0.0
  3
*Paper_Space0
  1

  0
ENDBLK
  5
25
330
23
100
AcDbEntity
  8
0
100
AcDbBlockEnd
  0
BLOCK
  5
C0
330
BF
100
AcDbEntity
  8
0
100
AcDbBlockBegin
  2
SW_NOTE_0
 70
     0
 10
0.0
 20
0.0
 30
0.0
  3
SW_NOTE_0
  1

  0
MTEXT
  5
C2
330
BF
100
AcDbEntity
  8
TABLE_DRW
 62
     0
100
AcDbMText
 10
0.0
 20
11.6016096579
 30
0.0
 40
9.0
 41
0.0
 71
     1
 72
     1
  1
The reproduction, distribution and utilization of this document as well as the communication of its contents to
  7
SLDTEXTSTYLE0
 73
     1
 44
1.0
  0
MTEXT
  5
C3
330
BF
100
AcDbEntity
  8
TABLE_DRW
 62
     0
100
AcDbMText
 10
0.0
 20
0.0016098055
 30
0.0
 40
9.0
 41
0.0
 71
     1
 72
     1
  1
others without express authorization is prohibited. Offenders will be held liable for the payment of damages.
  7
SLDTEXTSTYLE0
 73
     1
 44
1.0
  0
MTEXT
  5
C4
330
BF
100
AcDbEntity
  8
TABLE_DRW
 62
     0
100
AcDbMText
 10
0.0
 20
-11.598390047
 30
0.0
 40
9.0
 41
0.0
 71
     1
 72
     1
  1
All rights reserved in the event of the grant of a patent, utility model or design. Observe copyright by ISO 16016
  7
SLDTEXTSTYLE0
 73
     1
 44
1.0
  0
ENDBLK
  5
C1
330
BF
100
AcDbEntity
  8
0
100
AcDbBlockEnd
  0
BLOCK
  5
E9
330
E8
100
AcDbEntity
  8
0
100
AcDbBlockBegin
  2
SW_NOTE_0_1
 70
     0
 10
0.0
 20
0.0
 30
0.0
  3
SW_NOTE_0_1
  1

  0
MTEXT
  5
EB
330
E8
100
AcDbEntity
  8
MARKETING_DRW
 62
     0
100
AcDbMText
 10
0.0
 20
11.6016096579
 30
0.0
 40
9.0
 41
0.0
 71
     1
 72
     1
  1
The reproduction, distribution and utilization of this document as well as the communication of its contents to
  7
SLDTEXTSTYLE0
 73
     1
 44
1.0
  0
MTEXT
  5
EC
330
E8
100
AcDbEntity
  8
MARKETING_DRW
 62
     0
100
AcDbMText
 10
0.0
 20
-0.0233903849
 30
0.0
 40
9.0
 41
0.0
 71
     1
 72
     1
  1
others without express authorization is prohibited. Offenders will be held liable for the payment of damages.
  7
SLDTEXTSTYLE0
 73
     1
 44
1.0
  0
MTEXT
  5
ED
330
E8
100
AcDbEntity
  8
MARKETING_DRW
 62
     0
100
AcDbMText
 10
0.0
 20
-11.6483904277
 30
0.0
 40
9.0
 41
0.0
 71
     1
 72
     1
  1
All rights reserved in the event of the grant of a patent, utility model or design. Observe copyright by ISO 16016
  7
SLDTEXTSTYLE0
 73
     1
 44
1.0
  0
ENDBLK
  5
EA
330
E8
100
AcDbEntity
  8
0
100
AcDbBlockEnd
  0
ENDSEC
  0
SECTION
  2
ENTITIES
  0
LINE
  5
7C
330
1F
100
AcDbEntity
  8
TABLE_DRW
  6
CENTERX2
 62
     7
100
AcDbLine
 10
1955.0
 20
200.0
 30
0.0
 11
1980.0
 21
200.0
 31
0.0
  0
LINE
  5
7D
330
1F
100
AcDbEntity
  8
TABLE_DRW
  6
CENTERX2
 62
     7
100
AcDbLine
 10
1967.5
 20
212.5
 30
0.0
 11
1967.5
 21
187.5
 31
0.0
  0
LINE
  5
7E
330
1F
100
AcDbEntity
  8
TABLE_DRW
  6
CENTERX2
 62
     7
100
AcDbLine
 10
1915.0
 20
200.0
 30
0.0
 11
1950.0
 21
200.0
 31
0.0
  0
LINE
  5
7F
330
1F
100
AcDbEntity
  8
TABLE_DRW
 62
     7
100
AcDbLine
 10
1920.0
 20
194.95
 30
0.0
 11
1945.0
 21
190.0
 31
0.0
  0
LINE
  5
80
330
1F
100
AcDbEntity
  8
TABLE_DRW
 62
     7
100
AcDbLine
 10
1920.0
 20
205.05
 30
0.0
 11
1920.0
 21
194.95
 31
0.0
  0
LINE
  5
81
330
1F
100
AcDbEntity
  8
TABLE_DRW
 62
     7
100
AcDbLine
 10
1945.0
 20
210.0
 30
0.0
 11
1920.0
 21
205.05
 31
0.0
  0
LINE
  5
82
330
1F
100
AcDbEntity
  8
TABLE_DRW
 62
     7
100
AcDbLine
 10
1945.0
 20
190.0
 30
0.0
 11
1945.0
 21
210.0
 31
0.0
  0
LINE
  5
83
330
1F
100
AcDbEntity
  8
TABLE_DRW
 62
     7
100
AcDbLine
 10
2050.0
 20
50.0
 30
0.0
 11
2050.0
 21
340.0
 31
0.0
  0
LINE
  5
84
330
1F
100
AcDbEntity
  8
TABLE_DRW
 62
     7
100
AcDbLine
 10
1150.0
 20
340.0
 30
0.0
 11
1150.0
 21
50.0
 31
0.0
  0
LINE
  5
85
330
1F
100
AcDbEntity
  8
TABLE_DRW
 62
     7
100
AcDbLine
 10
1700.0
 20
95.0
 30
0.0
 11
1700.0
 21
50.0
 31
0.0
  0
LINE
  5
86
330
1F
100
AcDbEntity
  8
TABLE_DRW
 62
     7
100
AcDbLine
 10
1850.0
 20
50.0
 30
0.0
 11
1850.0
 21
95.0
 31
0.0
  0
LINE
  5
87
330
1F
100
AcDbEntity
  8
TABLE_DRW
 62
     7
100
AcDbLine
 10
2000.0
 20
95.0
 30
0.0
 11
2000.0
 21
50.0
 31
0.0
  0
LINE
  5
88
330
1F
100
AcDbEntity
  8
TABLE_DRW
 62
     7
100
AcDbLine
 10
1900.0
 20
320.0
 30
0.0
 11
1900.0
 21
185.0
 31
0.0
  0
LINE
  5
89
330
1F
100
AcDbEntity
  8
TABLE_DRW
 62
     7
100
AcDbLine
 10
2050.0
 20
320.0
 30
0.0
 11
1150.0
 21
320.0
 31
0.0
  0
LINE
  5
8A
330
1F
100
AcDbEntity
  8
TABLE_DRW
 62
     7
100
AcDbLine
 10
1800.0
 20
95.0
 30
0.0
 11
1800.0
 21
50.0
 31
0.0
  0
LINE
  5
8B
330
1F
100
AcDbEntity
  8
TABLE_DRW
 62
     7
100
AcDbLine
 10
2050.0
 20
275.0
 30
0.0
 11
1400.0
 21
275.0
 31
0.0
  0
LINE
  5
8C
330
1F
100
AcDbEntity
  8
TABLE_DRW
 62
     7
100
AcDbLine
 10
1650.0
 20
230.0
 30
0.0
 11
1650.0
 21
185.0
 31
0.0
  0
LINE
  5
8D
330
1F
100
AcDbEntity
  8
TABLE_DRW
 62
     7
100
AcDbLine
 10
2050.0
 20
230.0
 30
0.0
 11
1400.0
 21
230.0
 31
0.0
  0
LINE
  5
8E
330
1F
100
AcDbEntity
  8
TABLE_DRW
 62
     7
100
AcDbLine
 10
1400.0
 20
320.0
 30
0.0
 11
1400.0
 21
185.0
 31
0.0
  0
LINE
  5
8F
330
1F
100
AcDbEntity
  8
TABLE_DRW
 62
     7
100
AcDbLine
 10
2000.0
 20
230.0
 30
0.0
 11
2000.0
 21
185.0
 31
0.0
  0
LINE
  5
90
330
1F
100
AcDbEntity
  8
TABLE_DRW
 62
     7
100
AcDbLine
 10
2050.0
 20
95.0
 30
0.0
 11
1150.0
 21
95.0
 31
0.0
  0
LINE
  5
91
330
1F
100
AcDbEntity
  8
TABLE_DRW
 62
     7
100
AcDbLine
 10
1650.0
 20
275.0
 30
0.0
 11
1650.0
 21
320.0
 31
0.0
  0
LINE
  5
92
330
1F
100
AcDbEntity
  8
TABLE_DRW
 62
     7
100
AcDbLine
 10
1150.0
 20
340.0
 30
0.0
 11
2050.0
 21
340.0
 31
0.0
  0
LINE
  5
93
330
1F
100
AcDbEntity
  8
TABLE_DRW
 62
     7
100
AcDbLine
 10
1150.0
 20
185.0
 30
0.0
 11
2050.0
 21
185.0
 31
0.0
  0
LINE
  5
94
330
1F
100
AcDbEntity
  8
TABLE_DRW
 62
     7
100
AcDbLine
 10
1150.0
 20
50.0
 30
0.0
 11
2050.0
 21
50.0
 31
0.0
  0
LINE
  5
95
330
1F
100
AcDbEntity
  8
TABLE_DRW
 62
     7
100
AcDbLine
 10
1400.0
 20
275.0
 30
0.0
 11
1150.0
 21
275.0
 31
0.0
  0
LINE
  5
96
330
1F
100
AcDbEntity
  8
MARKETING_DRW
  6
CENTERX2
100
AcDbLine
 10
1955.0
 20
200.0
 30
0.0
 11
1980.0
 21
200.0
 31
0.0
  0
LINE
  5
97
330
1F
100
AcDbEntity
  8
MARKETING_DRW
  6
CENTERX2
100
AcDbLine
 10
1967.5
 20
212.5
 30
0.0
 11
1967.5
 21
187.5
 31
0.0
  0
LINE
  5
98
330
1F
100
AcDbEntity
  8
MARKETING_DRW
  6
CENTERX2
100
AcDbLine
 10
1915.0
 20
200.0
 30
0.0
 11
1950.0
 21
200.0
 31
0.0
  0
LINE
  5
99
330
1F
100
AcDbEntity
  8
MARKETING_DRW
100
AcDbLine
 10
1920.0
 20
194.95
 30
0.0
 11
1945.0
 21
190.0
 31
0.0
  0
LINE
  5
9A
330
1F
100
AcDbEntity
  8
MARKETING_DRW
100
AcDbLine
 10
1920.0
 20
205.05
 30
0.0
 11
1920.0
 21
194.95
 31
0.0
  0
LINE
  5
9B
330
1F
100
AcDbEntity
  8
MARKETING_DRW
100
AcDbLine
 10
1945.0
 20
210.0
 30
0.0
 11
1920.0
 21
205.05
 31
0.0
  0
LINE
  5
9C
330
1F
100
AcDbEntity
  8
MARKETING_DRW
100
AcDbLine
 10
1945.0
 20
190.0
 30
0.0
 11
1945.0
 21
210.0
 31
0.0
  0
LINE
  5
9D
330
1F
100
AcDbEntity
  8
MARKETING_DRW
100
AcDbLine
 10
2050.0
 20
50.0
 30
0.0
 11
2050.0
 21
230.0
 31
0.0
  0
LINE
  5
9E
330
1F
100
AcDbEntity
  8
MARKETING_DRW
100
AcDbLine
 10
1150.0
 20
50.0
 30
0.0
 11
2050.0
 21
50.0
 31
0.0
  0
LINE
  5
9F
330
1F
100
AcDbEntity
  8
MARKETING_DRW
100
AcDbLine
 10
1150.0
 20
275.0
 30
0.0
 11
1150.0
 21
50.0
 31
0.0
  0
LINE
  5
A0
330
1F
100
AcDbEntity
  8
MARKETING_DRW
100
AcDbLine
 10
1150.0
 20
275.0
 30
0.0
 11
1650.0
 21
275.0
 31
0.0
  0
LINE
  5
A1
330
1F
100
AcDbEntity
  8
MARKETING_DRW
 62
     7
100
AcDbLine
 10
1850.0
 20
50.0
 30
0.0
 11
1850.0
 21
95.0
 31
0.0
  0
LINE
  5
A2
330
1F
100
AcDbEntity
  8
MARKETING_DRW
100
AcDbLine
 10
2000.0
 20
95.0
 30
0.0
 11
2000.0
 21
50.0
 31
0.0
  0
LINE
  5
A3
330
1F
100
AcDbEntity
  8
MARKETING_DRW
100
AcDbLine
 10
1650.0
 20
275.0
 30
0.0
 11
1650.0
 21
230.0
 31
0.0
  0
LINE
  5
A4
330
1F
100
AcDbEntity
  8
MARKETING_DRW
100
AcDbLine
 10
2050.0
 20
230.0
 30
0.0
 11
1400.0
 21
230.0
 31
0.0
  0
LINE
  5
A5
330
1F
100
AcDbEntity
  8
MARKETING_DRW
100
AcDbLine
 10
1400.0
 20
275.0
 30
0.0
 11
1400.0
 21
185.0
 31
0.0
  0
LINE
  5
A6
330
1F
100
AcDbEntity
  8
MARKETING_DRW
100
AcDbLine
 10
2000.0
 20
230.0
 30
0.0
 11
2000.0
 21
185.0
 31
0.0
  0
LINE
  5
A7
330
1F
100
AcDbEntity
  8
MARKETING_DRW
100
AcDbLine
 10
2050.0
 20
95.0
 30
0.0
 11
1150.0
 21
95.0
 31
0.0
  0
LINE
  5
A8
330
1F
100
AcDbEntity
  8
MARKETING_DRW
100
AcDbLine
 10
1150.0
 20
185.0
 30
0.0
 11
2050.0
 21
185.0
 31
0.0
  0
LINE
  5
A9
330
1F
100
AcDbEntity
  8
MARKETING_DRW
100
AcDbLine
 10
1150.0
 20
50.0
 30
0.0
 11
2050.0
 21
50.0
 31
0.0
  0
LINE
  5
AA
330
1F
100
AcDbEntity
  8
MARKETING_DRW
100
AcDbLine
 10
1900.0
 20
230.0
 30
0.0
 11
1900.0
 21
185.0
 31
0.0
  0
LINE
  5
AB
330
1F
100
AcDbEntity
  8
MARKETING_DRW
100
AcDbLine
 10
1650.0
 20
275.0
 30
0.0
 11
1900.0
 21
275.0
 31
0.0
  0
LINE
  5
AC
330
1F
100
AcDbEntity
  8
MARKETING_DRW
100
AcDbLine
 10
1900.0
 20
275.0
 30
0.0
 11
1900.0
 21
230.0
 31
0.0
  0
LINE
  5
AD
330
1F
100
AcDbEntity
  8
MARKETING_DRW
100
AcDbLine
 10
1900.0
 20
275.0
 30
0.0
 11
2050.0
 21
275.0
 31
0.0
  0
LINE
  5
AE
330
1F
100
AcDbEntity
  8
MARKETING_DRW
100
AcDbLine
 10
2050.0
 20
275.0
 30
0.0
 11
2050.0
 21
230.0
 31
0.0
  0
LINE
  5
AF
330
1F
100
AcDbEntity
  8
MARKETING_DRW
100
AcDbLine
 10
1825.0
 20
275.0
 30
0.0
 11
1825.0
 21
230.0
 31
0.0
  0
LINE
  5
B0
330
1F
100
AcDbEntity
  8
MARKETING_DRW
100
AcDbLine
 10
1650.0
 20
230.0
 30
0.0
 11
1650.0
 21
185.0
 31
0.0
  0
CIRCLE
  5
B1
330
1F
100
AcDbEntity
  8
TABLE_DRW
 62
     7
100
AcDbCircle
 10
1967.5
 20
200.0
 30
0.0
 40
5.000000000000224
  0
CIRCLE
  5
B2
330
1F
100
AcDbEntity
  8
TABLE_DRW
 62
     7
100
AcDbCircle
 10
1967.5
 20
200.0
 30
0.0
 40
10.00000000000024
  0
CIRCLE
  5
B3
330
1F
100
AcDbEntity
  8
MARKETING_DRW
100
AcDbCircle
 10
1967.5
 20
200.0
 30
0.0
 40
5.000000000000224
  0
CIRCLE
  5
B4
330
1F
100
AcDbEntity
  8
MARKETING_DRW
100
AcDbCircle
 10
1967.5
 20
200.0
 30
0.0
 40
10.00000000000024
  0
MTEXT
  5
B6
330
1F
100
AcDbEntity
  8
TABLE_DRW
100
AcDbMText
 10
1905.0
 20
294.9675136777
 30
0.0
 40
12.5
 41
0.0
 71
     1
 72
     1
  1
see table
  7
SLDTEXTSTYLE0
 73
     1
 44
1.0
  0
MTEXT
  5
B7
330
1F
100
AcDbEntity
  8
TABLE_DRW
100
AcDbMText
 10
1155.0
 20
334.9766099061
 30
0.0
 40
9.0
 41
0.0
 71
     1
 72
     1
  1
modification:
  7
SLDTEXTSTYLE0
 73
     1
 44
1.0
  0
MTEXT
  5
B8
330
1F
100
AcDbEntity
  8
TABLE_DRW
100
AcDbMText
 10
1405.0
 20
249.9675136777
 30
0.0
 40
12.5
 41
0.0
 71
     1
 72
     1
  1
see table
  7
SLDTEXTSTYLE0
 73
     1
 44
1.0
  0
MTEXT
  5
B9
330
1F
100
AcDbEntity
  8
TABLE_DRW
100
AcDbMText
 10
1155.0
 20
159.9675136777
 30
0.0
 40
12.5
 41
0.0
 71
     1
 72
     1
  1
ACO ShowerDrain
  7
SLDTEXTSTYLE0
 73
     1
 44
1.0
  0
MTEXT
  5
BA
330
1F
100
AcDbEntity
  8
TABLE_DRW
100
AcDbMText
 10
1824.7395830229
 20
69.9675136777
 30
0.0
 40
12.5
 41
0.0
 71
     2
 72
     1
  1
001
  7
SLDTEXTSTYLE0
 73
     1
 44
1.0
  0
MTEXT
  5
BB
330
1F
100
AcDbEntity
  8
TABLE_DRW
100
AcDbMText
 10
1749.0407964215
 20
69.9675136777
 30
0.0
 40
12.5
 41
0.0
 71
     2
 72
     1
  1
1109007-O
  7
SLDTEXTSTYLE0
 73
     1
 44
1.0
  0
MTEXT
  5
BC
330
1F
100
AcDbEntity
  8
TABLE_DRW
100
AcDbMText
 10
1155.0
 20
295.0022357116
 30
0.0
 40
12.5
 41
0.0
 71
     1
 72
     1
  1
Bohms, Michael
  7
SLDTEXTSTYLE0
 73
     1
 44
1.0
  0
MTEXT
  5
BD
330
1F
100
AcDbEntity
  8
TABLE_DRW
100
AcDbMText
 10
1155.0
 20
137.4675136777
 30
0.0
 40
12.5
 41
0.0
 71
     1
 72
     1
  1
ASM Shower Channel C with WA and gap, with DN50 left side outlet, with FAT GV50, L1180, International
  7
SLDTEXTSTYLE0
 73
     1
 44
1.0
  0
MTEXT
  5
BE
330
1F
100
AcDbEntity
  8
TABLE_DRW
100
AcDbMText
 10
1155.0
 20
114.9675136777
 30
0.0
 40
12.5
 41
0.0
 71
     1
 72
     1
  1
ZB Duschrinne C mit Spalt, mit Wandaufkantung, mit DN50 links Seite Auslass, mit FAT GV50, L580, International
  7
SLDTEXTSTYLE0
 73
     1
 44
1.0
  0
INSERT
  5
C5
330
1F
100
AcDbEntity
  8
TABLE_DRW
100
AcDbBlockReference
  2
SW_NOTE_0
 10
1155.0
 20
78.4000001475
 30
0.0
  0
MTEXT
  5
C6
330
1F
100
AcDbEntity
  8
TABLE_DRW
100
AcDbMText
 10
1405.0
 20
224.9766099061
 30
0.0
 40
9.0
 41
0.0
 71
     1
 72
     1
  1
created by:
  7
SLDTEXTSTYLE0
 73
     1
 44
1.0
  0
MTEXT
  5
C7
330
1F
100
AcDbEntity
  8
TABLE_DRW
100
AcDbMText
 10
1655.0
 20
314.9766099061
 30
0.0
 40
9.0
 41
0.0
 71
     1
 72
     1
  1
surface:
  7
SLDTEXTSTYLE0
 73
     1
 44
1.0
  0
MTEXT
  5
C8
330
1F
100
AcDbEntity
  8
TABLE_DRW
100
AcDbMText
 10
2024.8750000875
 20
224.9766099061
 30
0.0
 40
9.0
 41
0.0
 71
     2
 72
     1
  1
scale:
  7
SLDTEXTSTYLE0
 73
     1
 44
1.0
  0
MTEXT
  5
C9
330
1F
100
AcDbEntity
  8
TABLE_DRW
100
AcDbMText
 10
1905.0
 20
314.9766099061
 30
0.0
 40
9.0
 41
0.0
 71
     1
 72
     1
  1
weight:
  7
SLDTEXTSTYLE0
 73
     1
 44
1.0
  0
MTEXT
  5
CA
330
1F
100
AcDbEntity
  8
TABLE_DRW
100
AcDbMText
 10
1749.034373872
 20
89.9766099061
 30
0.0
 40
9.0
 41
0.0
 71
     2
 72
     1
  1
drawing-no.:
  7
SLDTEXTSTYLE0
 73
     1
 44
1.0
  0
MTEXT
  5
CB
330
1F
100
AcDbEntity
  8
TABLE_DRW
100
AcDbMText
 10
1905.0
 20
269.9766099061
 30
0.0
 40
9.0
 41
0.0
 71
     1
 72
     1
  1
documenttype:
  7
SLDTEXTSTYLE0
 73
     1
 44
1.0
  0
MTEXT
  5
CC
330
1F
100
AcDbEntity
  8
TABLE_DRW
100
AcDbMText
 10
1824.8125000894
 20
89.9766099061
 30
0.0
 40
9.0
 41
0.0
 71
     2
 72
     1
  1
index:
  7
SLDTEXTSTYLE0
 73
     1
 44
1.0
  0
MTEXT
  5
CD
330
1F
100
AcDbEntity
  8
TABLE_DRW
100
AcDbMText
 10
1655.0
 20
224.9766099061
 30
0.0
 40
9.0
 41
0.0
 71
     1
 72
     1
  1
reviewed by:
  7
SLDTEXTSTYLE0
 73
     1
 44
1.0
  0
MTEXT
  5
CE
330
1F
100
AcDbEntity
  8
TABLE_DRW
100
AcDbMText
 10
1855.0
 20
89.9766099061
 30
0.0
 40
9.0
 41
0.0
 71
     1
 72
     1
  1
release date:
  7
SLDTEXTSTYLE0
 73
     1
 44
1.0
  0
MTEXT
  5
CF
330
1F
100
AcDbEntity
  8
TABLE_DRW
100
AcDbMText
 10
2024.7500000913
 20
89.9766099061
 30
0.0
 40
9.0
 41
0.0
 71
     2
 72
     1
  1
sheet:
  7
SLDTEXTSTYLE0
 73
     1
 44
1.0
  0
MTEXT
  5
D0
330
1F
100
AcDbEntity
  8
TABLE_DRW
100
AcDbMText
 10
1905.0
 20
224.9766099061
 30
0.0
 40
9.0
 41
0.0
 71
     1
 72
     1
  1
projection:ISO-E
  7
SLDTEXTSTYLE0
 73
     1
 44
1.0
  0
MTEXT
  5
D1
330
1F
100
AcDbEntity
  8
TABLE_DRW
100
AcDbMText
 10
1405.0
 20
269.9766099061
 30
0.0
 40
9.0
 41
0.0
 71
     1
 72
     1
  1
material:
  7
SLDTEXTSTYLE0
 73
     1
 44
1.0
  0
MTEXT
  5
D2
330
1F
100
AcDbEntity
  8
TABLE_DRW
100
AcDbMText
 10
1905.0
 20
249.9675136777
 30
0.0
 40
12.5
 41
0.0
 71
     1
 72
     1
  1
production drw.
  7
SLDTEXTSTYLE0
 73
     1
 44
1.0
  0
MTEXT
  5
D3
330
1F
100
AcDbEntity
  8
TABLE_DRW
100
AcDbMText
 10
1405.0
 20
314.9766099061
 30
0.0
 40
9.0
 41
0.0
 71
     1
 72
     1
  1
general tolerance:
  7
SLDTEXTSTYLE0
 73
     1
 44
1.0
  0
MTEXT
  5
D4
330
1F
100
AcDbEntity
  8
TABLE_DRW
100
AcDbMText
 10
2024.7829862405
 20
204.9675136777
 30
0.0
 40
12.5
 41
0.0
 71
     2
 72
     1
  1
1:5
  7
SLDTEXTSTYLE0
 73
     1
 44
1.0
  0
MTEXT
  5
D5
330
1F
100
AcDbEntity
  8
TABLE_DRW
100
AcDbMText
 10
2024.7829862405
 20
69.9675136777
 30
0.0
 40
12.5
 41
0.0
 71
     2
 72
     1
  1
1/1
  7
SLDTEXTSTYLE0
 73
     1
 44
1.0
  0
MTEXT
  5
D6
330
1F
100
AcDbEntity
  8
TABLE_DRW
100
AcDbMText
 10
1155.0
 20
314.9766099061
 30
0.0
 40
9.0
 41
0.0
 71
     1
 72
     1
  1
technical reference:
  7
SLDTEXTSTYLE0
 73
     1
 44
1.0
  0
MTEXT
  5
D7
330
1F
100
AcDbEntity
  8
TABLE_DRW
100
AcDbMText
 10
1155.0
 20
179.9766099061
 30
0.0
 40
9.0
 41
0.0
 71
     1
 72
     1
  1
title:
  7
SLDTEXTSTYLE0
 73
     1
 44
1.0
  0
MTEXT
  5
D8
330
1F
100
AcDbEntity
  8
MARKETING_DRW
100
AcDbMText
 10
1155.0
 20
114.9675136777
 30
0.0
 40
12.5
 41
0.0
 71
     1
 72
     1
  1
ZB Duschrinne C mit Spalt, mit Wandaufkantung, mit DN50 links Seite Auslass, mit FAT GV50, L580, International
  7
SLDTEXTSTYLE0
 73
     1
 44
1.0
  0
MTEXT
  5
D9
330
1F
100
AcDbEntity
  8
MARKETING_DRW
100
AcDbMText
 10
1155.0
 20
137.4675136777
 30
0.0
 40
12.5
 41
0.0
 71
     1
 72
     1
  1
ASM Shower Channel C with WA and gap, with DN50 left side outlet, with FAT GV50, L1180, International
  7
SLDTEXTSTYLE0
 73
     1
 44
1.0
  0
MTEXT
  5
DA
330
1F
100
AcDbEntity
  8
MARKETING_DRW
100
AcDbMText
 10
1736.5407964215
 20
249.9675136777
 30
0.0
 40
12.5
 41
0.0
 71
     2
 72
     1
  1
1109007-O
  7
SLDTEXTSTYLE0
 73
     1
 44
1.0
  0
MTEXT
  5
DB
330
1F
100
AcDbEntity
  8
MARKETING_DRW
100
AcDbMText
 10
1862.2395830229
 20
252.0971433073
 30
0.0
 40
12.5
 41
0.0
 71
     2
 72
     1
  1
001
  7
SLDTEXTSTYLE0
 73
     1
 44
1.0
  0
MTEXT
  5
DC
330
1F
100
AcDbEntity
  8
MARKETING_DRW
100
AcDbMText
 10
1155.0
 20
159.9675136777
 30
0.0
 40
12.5
 41
0.0
 71
     1
 72
     1
  1
ACO ShowerDrain
  7
SLDTEXTSTYLE0
 73
     1
 44
1.0
  0
MTEXT
  5
DD
330
1F
100
AcDbEntity
  8
MARKETING_DRW
100
AcDbMText
 10
1905.0
 20
269.9766099061
 30
0.0
 40
9.0
 41
0.0
 71
     1
 72
     1
  1
documenttype:
  7
SLDTEXTSTYLE0
 73
     1
 44
1.0
  0
MTEXT
  5
DE
330
1F
100
AcDbEntity
  8
MARKETING_DRW
100
AcDbMText
 10
1655.0
 20
224.9766099061
 30
0.0
 40
9.0
 41
0.0
 71
     1
 72
     1
  1
reviewed by:
  7
SLDTEXTSTYLE0
 73
     1
 44
1.0
  0
MTEXT
  5
DF
330
1F
100
AcDbEntity
  8
MARKETING_DRW
100
AcDbMText
 10
1736.534373872
 20
270.0578764559
 30
0.0
 40
9.0
 41
0.0
 71
     2
 72
     1
  1
drawing-no.:
  7
SLDTEXTSTYLE0
 73
     1
 44
1.0
  0
MTEXT
  5
E0
330
1F
100
AcDbEntity
  8
MARKETING_DRW
100
AcDbMText
 10
1905.0
 20
224.9766099061
 30
0.0
 40
9.0
 41
0.0
 71
     1
 72
     1
  1
projection:ISO-E
  7
SLDTEXTSTYLE0
 73
     1
 44
1.0
  0
MTEXT
  5
E1
330
1F
100
AcDbEntity
  8
MARKETING_DRW
100
AcDbMText
 10
2024.7500000913
 20
89.9766099061
 30
0.0
 40
9.0
 41
0.0
 71
     2
 72
     1
  1
sheet:
  7
SLDTEXTSTYLE0
 73
     1
 44
1.0
  0
MTEXT
  5
E2
330
1F
100
AcDbEntity
  8
MARKETING_DRW
100
AcDbMText
 10
2024.7829862405
 20
69.9675136777
 30
0.0
 40
12.5
 41
0.0
 71
     2
 72
     1
  1
1/1
  7
SLDTEXTSTYLE0
 73
     1
 44
1.0
  0
MTEXT
  5
E3
330
1F
100
AcDbEntity
  8
MARKETING_DRW
100
AcDbMText
 10
1855.0
 20
89.9766099061
 30
0.0
 40
9.0
 41
0.0
 71
     1
 72
     1
  1
release date:
  7
SLDTEXTSTYLE0
 73
     1
 44
1.0
  0
MTEXT
  5
E4
330
1F
100
AcDbEntity
  8
MARKETING_DRW
100
AcDbMText
 10
1862.3125000894
 20
269.9766099061
 30
0.0
 40
9.0
 41
0.0
 71
     2
 72
     1
  1
index:
  7
SLDTEXTSTYLE0
 73
     1
 44
1.0
  0
MTEXT
  5
E5
330
1F
100
AcDbEntity
  8
MARKETING_DRW
100
AcDbMText
 10
1155.0
 20
179.9766099061
 30
0.0
 40
9.0
 41
0.0
 71
     1
 72
     1
  1
title:
  7
SLDTEXTSTYLE0
 73
     1
 44
1.0
  0
MTEXT
  5
E6
330
1F
100
AcDbEntity
  8
MARKETING_DRW
100
AcDbMText
 10
2024.8750000875
 20
224.9766099061
 30
0.0
 40
9.0
 41
0.0
 71
     2
 72
     1
  1
scale:
  7
SLDTEXTSTYLE0
 73
     1
 44
1.0
  0
MTEXT
  5
E7
330
1F
100
AcDbEntity
  8
MARKETING_DRW
100
AcDbMText
 10
2024.7829862405
 20
204.9675136777
 30
0.0
 40
12.5
 41
0.0
 71
     2
 72
     1
  1
1:5
  7
SLDTEXTSTYLE0
 73
     1
 44
1.0
  0
INSERT
  5
EE
330
1F
100
AcDbEntity
  8
MARKETING_DRW
100
AcDbBlockReference
  2
SW_NOTE_0_1
 10
1155.0
 20
78.3750002482
 30
0.0
  0
MTEXT
  5
EF
330
1F
100
AcDbEntity
  8
MARKETING_DRW
100
AcDbMText
 10
1905.0
 20
249.9675136777
 30
0.0
 40
12.5
 41
0.0
 71
     1
 72
     1
  1
marketing drw.
  7
SLDTEXTSTYLE0
 73
     1
 44
1.0
  0
MTEXT
  5
F0
330
1F
100
AcDbEntity
  8
MARKETING_DRW
100
AcDbMText
 10
1405.0
 20
224.9766099061
 30
0.0
 40
9.0
 41
0.0
 71
     1
 72
     1
  1
created by:
  7
SLDTEXTSTYLE0
 73
     1
 44
1.0
  0
LINE
  5
F1
330
1F
100
AcDbEntity
  8
0
  6
Continuous
 62
     7
370
    35
100
AcDbLine
 10
763.5988257108
 20
878.8359378565
 30
0.0
 11
781.5984718752
 21
878.8359378565
 31
0.0
  0
LINE
  5
F2
330
1F
100
AcDbEntity
  8
0
  6
Continuous
 62
     7
370
    35
100
AcDbLine
 10
765.5988257108
 20
928.8359378565
 30
0.0
 11
763.5988257108
 21
928.8359378565
 31
0.0
  0
SPLINE
  5
F3
330
1F
100
AcDbEntity
  8
0
  6
Continuous
 62
     7
370
    35
100
AcDbSpline
210
0.0
220
0.0
230
1.0
 70
     8
 71
     3
 72
    13
 73
     9
 74
     0
 42
0.000000001
 43
0.00000001
 40
0.0
 40
0.0
 40
0.0
 40
0.0
 40
0.2394568443946881
 40
0.3683606602382314
 40
0.4999999999999994
 40
0.6316393397617674
 40
0.7605431556053089
 40
1.0
 40
1.0
 40
1.0
 40
1.0
 10
768.598825710754
 20
931.8359378565485
 30
0.0
 10
768.5587517406435
 20
931.458548894353
 30
0.0
 10
768.497105250122
 20
930.8780048400273
 30
0.0
 10
768.123012457274
 20
930.1795565916437
 30
0.0
 10
767.7358271533433
 20
929.6989364139739
 30
0.0
 10
767.2552069756761
 20
929.3117511100398
 30
0.0
 10
766.5567587272952
 20
928.9376583171871
 30
0.0
 10
765.9762146729697
 20
928.8760118266616
 30
0.0
 10
765.5988257107745
 20
928.8359378565486
 30
0.0
  0
LINE
  5
F4
330
1F
100
AcDbEntity
  8
0
  6
Continuous
 62
     7
370
    35
100
AcDbLine
 10
763.5988257108
 20
928.8859378565
 30
0.0
 11
720.4104273651
 21
928.8859378565
 31
0.0
  0
LINE
  5
F5
330
1F
100
AcDbEntity
  8
0
  6
Continuous
 62
     7
370
    35
100
AcDbLine
 10
720.4104273651
 20
878.7859378565
 30
0.0
 11
763.5988257108
 21
878.7859378565
 31
0.0
  0
ARC
  5
F6
330
1F
100
AcDbEntity
  8
0
  6
Continuous
 62
     7
370
    35
100
AcDbCircle
 10
720.4104273651
 20
881.7859378565
 30
0.0
 40
3.0
100
AcDbArc
 50
258.1402208791
 51
270.0
  0
ARC
  5
F7
330
1F
100
AcDbEntity
  8
0
  6
Continuous
 62
     7
370
    35
100
AcDbCircle
 10
720.4104273651
 20
925.8859378565
 30
0.0
 40
2.999999999999991
100
AcDbArc
 50
90.0
 51
101.8597791209
  0
LINE
  5
F8
330
1F
100
AcDbEntity
  8
0
  6
Continuous
 62
     7
370
    35
100
AcDbLine
 10
719.7938756622
 20
928.8218983464
 30
0.0
 11
715.0988257108
 21
927.8359378565
 31
0.0
  0
LINE
  5
F9
330
1F
100
AcDbEntity
  8
0
  6
Continuous
 62
     7
370
    35
100
AcDbLine
 10
715.0988257108
 20
879.8359378565
 30
0.0
 11
719.7938756622
 21
878.8499773667
 31
0.0
  0
LINE
  5
FA
330
1F
100
AcDbEntity
  8
0
  6
Continuous
 62
     7
370
    35
100
AcDbLine
 10
1440.5988257108
 20
972.2855378565
 30
0.0
 11
260.5988257108
 21
972.2855378565
 31
0.0
  0
LINE
  5
FB
330
1F
100
AcDbEntity
  8
0
  6
Continuous
 62
     7
370
    35
100
AcDbLine
 10
769.5988257108
 20
952.1939820946
 30
0.0
 11
769.5988257108
 21
949.2859378565
 31
0.0
  0
LINE
  5
FC
330
1F
100
AcDbEntity
  8
0
  6
Continuous
 62
     7
370
    35
100
AcDbLine
 10
931.5988257108
 20
949.2859378565
 30
0.0
 11
931.5988257108
 21
952.1939820946
 31
0.0
  0
ARC
  5
FD
330
1F
100
AcDbEntity
  8
0
  6
Continuous
 62
     7
370
    35
100
AcDbCircle
 10
767.5988257108
 20
952.1875487769
 30
0.0
 40
2.00000000000007
100
AcDbArc
 50
0.1603835477
 51
88.7916387136
  0
ARC
  5
FE
330
1F
100
AcDbEntity
  8
0
  6
Continuous
 62
     7
370
    35
100
AcDbCircle
 10
933.5988257108
 20
952.1875487769
 30
0.0
 40
1.999999999999986
100
AcDbArc
 50
91.1928878275
 51
179.8251412338
  0
LINE
  5
FF
330
1F
100
AcDbEntity
  8
0
  6
Continuous
 62
     7
370
    35
100
AcDbLine
 10
260.5988257108
 20
954.1871487769
 30
0.0
 11
767.6396465226
 21
954.1871487769
 31
0.0
  0
LINE
  5
100
330
1F
100
AcDbEntity
  8
0
  6
Continuous
 62
     7
370
    35
100
AcDbLine
 10
933.5580048987
 20
954.1871487769
 30
0.0
 11
1440.5988257108
 21
954.1871487769
 31
0.0
  0
SPLINE
  5
101
330
1F
100
AcDbEntity
  8
0
  6
Continuous
 62
     7
370
    35
100
AcDbSpline
210
0.0
220
0.0
230
1.0
 70
     8
 71
     3
 72
    10
 73
     6
 74
     0
 42
0.000000001
 43
0.00000001
 40
0.0
 40
0.0
 40
0.0
 40
0.0
 40
0.5607971306803957
 40
0.7811102891567333
 40
1.0
 40
1.0
 40
1.0
 40
1.0
 10
769.0988257107539
 20
949.2859378565487
 30
0.0
 10
769.095759485182
 20
948.4400489197799
 30
0.0
 10
769.0914886709926
 20
947.2618464721455
 30
0.0
 10
769.1088678915042
 20
945.7530338134627
 30
0.0
 10
769.0764929683837
 20
945.0911360911804
 30
0.0
 10
769.0603579700595
 20
944.7612598286172
 30
0.0
  0
SPLINE
  5
102
330
1F
100
AcDbEntity
  8
0
  6
Continuous
 62
     7
370
    35
100
AcDbSpline
210
0.0
220
0.0
230
1.0
 70
    24
 71
     3
 72
    19
 73
    15
 74
     0
 42
0.000000001
 43
0.00000001
 40
0.0
 40
0.0
 40
0.0
 40
0.0
 40
0.2409130132110047
 40
0.4882582803106248
 40
0.5391715029117176
 40
0.5899404478678679
 40
0.6400693120936225
 40
0.6899887491764568
 40
0.7400419496428569
 40
0.7904190820051351
 40
0.8413201884464373
 40
0.8929676784851882
 40
0.9456873805534199
 40
1.0
 40
1.0
 40
1.0
 40
1.0
 10
850.598825710754
 20
949.2859378565486
 30
0.0
 10
842.7527826124724
 20
949.2859378565486
 30
0.0
 10
826.8512110894154
 20
949.2859378565487
 30
0.0
 10
809.285786504115
 20
949.2859378565482
 30
0.0
 10
797.9238997011124
 20
949.2859378565487
 30
0.0
 10
792.968127106868
 20
949.2859378565477
 30
0.0
 10
788.1837663434579
 20
949.2859378565478
 30
0.0
 10
783.7001883993273
 20
949.2859378565486
 30
0.0
 10
779.6219381087498
 20
949.2859378565487
 30
0.0
 10
776.0486861672547
 20
949.2859378565487
 30
0.0
 10
773.0822804224347
 20
949.2859378565486
 30
0.0
 10
770.8522542030697
 20
949.2859378565483
 30
0.0
 10
769.3789441060474
 20
949.2859378565486
 30
0.0
 10
769.1931203549672
 20
949.2859378565486
 30
0.0
 10
769.0988257107539
 20
949.2859378565487
 30
0.0
  0
SPLINE
  5
103
330
1F
100
AcDbEntity
  8
0
  6
Continuous
 62
     7
370
    35
100
AcDbSpline
210
0.0
220
0.0
230
1.0
 70
    24
 71
     3
 72
    25
 73
    21
 74
     0
 42
0.000000001
 43
0.00000001
 40
0.0
 40
0.0
 40
0.0
 40
0.0
 40
0.1043096882147865
 40
0.2091998522952717
 40
0.3149237035029215
 40
0.4217589389153477
 40
0.5007613298547563
 40
0.5815792310347013
 40
0.6543143134201862
 40
0.723397479360021
 40
0.7912325977824308
 40
0.8594749965164717
 40
0.8975151917852232
 40
0.907590454401908
 40
0.917720874920015
 40
0.9280177032054017
 40
0.9392596317669827
 40
0.9505548046042157
 40
0.9683043619257781
 40
1.0
 40
1.0
 40
1.0
 40
1.0
 10
850.598825710754
 20
887.3876830713498
 30
0.0
 10
850.598825710754
 20
889.4604867710372
 30
0.0
 10
850.598825710754
 20
893.6176291729854
 30
0.0
 10
850.598825710754
 20
900.2335583900616
 30
0.0
 10
850.598825710754
 20
907.0450991429572
 30
0.0
 10
850.598825710754
 20
913.3710641059375
 30
0.0
 10
850.598825710754
 20
919.1246213947436
 30
0.0
 10
850.598825710754
 20
924.0825324562263
 30
0.0
 10
850.598825710754
 20
928.7259893248684
 30
0.0
 10
850.598825710754
 20
933.0808992814578
 30
0.0
 10
850.598825710754
 20
937.2573980099588
 30
0.0
 10
850.598825710754
 20
940.9026656854684
 30
0.0
 10
850.598825710754
 20
943.0469482872636
 30
0.0
 10
850.598825710754
 20
943.8290511475601
 30
0.0
 10
850.598825710754
 20
944.110670972953
 30
0.0
 10
850.598825710754
 20
944.5948803466348
 30
0.0
 10
850.598825710754
 20
945.3550303405548
 30
0.0
 10
850.598825710754
 20
946.2113391764866
 30
0.0
 10
850.598825710754
 20
947.5329325701539
 30
0.0
 10
850.598825710754
 20
948.6011701665506
 30
0.0
 10
850.598825710754
 20
949.2859378565486
 30
0.0
  0
SPLINE
  5
104
330
1F
100
AcDbEntity
  8
0
  6
Continuous
 62
     7
370
    35
100
AcDbSpline
210
0.0
220
0.0
230
1.0
 70
    24
 71
     3
 72
    19
 73
    15
 74
     0
 42
0.000000001
 43
0.00000001
 40
0.0
 40
0.0
 40
0.0
 40
0.0
 40
0.2409130132110047
 40
0.4882582803106248
 40
0.5391715029117174
 40
0.5899404478678678
 40
0.6400693120936225
 40
0.6899887491764569
 40
0.740041949642857
 40
0.7904190820051352
 40
0.8413201884464374
 40
0.8929676784851882
 40
0.9456873805534199
 40
1.0
 40
1.0
 40
1.0
 40
1.0
 10
850.598825710754
 20
949.2859378565486
 30
0.0
 10
858.4448688090356
 20
949.2859378565486
 30
0.0
 10
874.3464403320926
 20
949.2859378565487
 30
0.0
 10
891.9118649173929
 20
949.2859378565482
 30
0.0
 10
903.2737517203955
 20
949.2859378565487
 30
0.0
 10
908.22952431464
 20
949.2859378565477
 30
0.0
 10
913.0138850780501
 20
949.2859378565478
 30
0.0
 10
917.4974630221808
 20
949.2859378565486
 30
0.0
 10
921.5757133127582
 20
949.2859378565487
 30
0.0
 10
925.1489652542533
 20
949.2859378565487
 30
0.0
 10
928.1153709990733
 20
949.2859378565486
 30
0.0
 10
930.3453972184384
 20
949.2859378565483
 30
0.0
 10
931.8187073154606
 20
949.2859378565486
 30
0.0
 10
932.0045310665407
 20
949.2859378565486
 30
0.0
 10
932.098825710754
 20
949.2859378565487
 30
0.0
  0
SPLINE
  5
105
330
1F
100
AcDbEntity
  8
0
  6
Continuous
 62
     7
370
    35
100
AcDbSpline
210
0.0
220
0.0
230
1.0
 70
     8
 71
     3
 72
    25
 73
    21
 74
     0
 42
0.000000001
 43
0.00000001
 40
0.0
 40
0.0
 40
0.0
 40
0.0
 40
0.0403772850825333
 40
0.0581432905171144
 40
0.0718747463632705
 40
0.0830985540815627
 40
0.0953185813390227
 40
0.1147179721021844
 40
0.1492959713349559
 40
0.2292797835274541
 40
0.3102091618275131
 40
0.3726852819819005
 40
0.4313870265629162
 40
0.4804590282852358
 40
0.5235520429457733
 40
0.570816629512524
 40
0.67518087067388
 40
0.7818081507417552
 40
0.8902538127997806
 40
1.0
 40
1.0
 40
1.0
 40
1.0
 10
932.098825710754
 20
949.2859378565487
 30
0.0
 10
932.0921547052241
 20
948.4068851809755
 30
0.0
 10
932.0825484572612
 20
947.141049328188
 30
0.0
 10
932.1219731752379
 20
945.6239917944887
 30
0.0
 10
932.0372886773335
 20
944.6216905349812
 30
0.0
 10
932.7167397866662
 20
944.0746885669208
 30
0.0
 10
933.524497012867
 20
943.6553005757094
 30
0.0
 10
934.5968818600564
 20
942.6563145656362
 30
0.0
 10
935.9241707792555
 20
940.0286366602412
 30
0.0
 10
936.5983892430168
 20
935.8249853758771
 30
0.0
 10
937.6973904183219
 20
931.1294489507158
 30
0.0
 10
938.4359151659238
 20
926.8201743747462
 30
0.0
 10
938.9976952604277
 20
923.1833100787898
 30
0.0
 10
939.3802364027415
 20
919.9431078098552
 30
0.0
 10
939.5723698049616
 20
916.9338698950901
 30
0.0
 10
939.6429535221353
 20
912.7239478890324
 30
0.0
 10
939.2868150977891
 20
907.1387161313045
 30
0.0
 10
938.0620918153504
 20
900.3316997435862
 30
0.0
 10
936.086463846253
 20
893.5687671988559
 30
0.0
 10
934.1118010694934
 20
889.2794075152616
 30
0.0
 10
933.1185847257468
 20
887.1219443817618
 30
0.0
  0
SPLINE
  5
106
330
1F
100
AcDbEntity
  8
0
  6
Continuous
 62
     7
370
    35
100
AcDbSpline
210
0.0
220
0.0
230
1.0
 70
     8
 71
     3
 72
    20
 73
    16
 74
     0
 42
0.000000001
 43
0.00000001
 40
0.0
 40
0.0
 40
0.0
 40
0.0
 40
0.0746364840388097
 40
0.1497925860316809
 40
0.2265862747705689
 40
0.3039451591580417
 40
0.3785813471600681
 40
0.4537345225251847
 40
0.5305152770648145
 40
0.6078570595368236
 40
0.6826656246929605
 40
0.7579900384200098
 40
0.8349360339683901
 40
0.9124399372886229
 40
1.0
 40
1.0
 40
1.0
 40
1.0
 10
933.1185847257467
 20
887.1219443817619
 30
0.0
 10
932.9238594763325
 20
886.756118535642
 30
0.0
 10
932.533053303573
 20
886.0219199699783
 30
0.0
 10
931.8274837078462
 20
884.9784568298287
 30
0.0
 10
931.0334777063952
 20
883.982498459476
 30
0.0
 10
930.1574422526088
 20
883.0611688338442
 30
0.0
 10
929.2143142912083
 20
882.2227514045518
 30
0.0
 10
928.2073284720221
 20
881.4674155780436
 30
0.0
 10
927.1276677550741
 20
880.7913598719086
 30
0.0
 10
925.9960251581448
 20
880.2105268584269
 30
0.0
 10
924.82721111953
 20
879.730038631479
 30
0.0
 10
923.6247158545422
 20
879.3479852527518
 30
0.0
 10
922.3798031196882
 20
879.066876580052
 30
0.0
 10
921.0480840415818
 20
878.8744304180733
 30
0.0
 10
920.1317094615744
 20
878.8492794658871
 30
0.0
 10
919.6456081178251
 20
878.8359378565485
 30
0.0
  0
SPLINE
  5
107
330
1F
100
AcDbEntity
  8
0
  6
Continuous
 62
     7
370
    35
100
AcDbSpline
210
0.0
220
0.0
230
1.0
 70
    24
 71
     3
 72
    29
 73
    25
 74
     0
 42
0.000000001
 43
0.00000001
 40
0.0
 40
0.0
 40
0.0
 40
0.0
 40
0.0338962810994511
 40
0.0584346159374855
 40
0.0831582134437527
 40
0.108452227673764
 40
0.1339370254206533
 40
0.1560651905840141
 40
0.1783158936449644
 40
0.2009519366353977
 40
0.2237224213446747
 40
0.2439238387770563
 40
0.2642307517418802
 40
0.2848904099625912
 40
0.3056830912949753
 40
0.3258117020575417
 40
0.3460901781788966
 40
0.3668684993273973
 40
0.3878185113452834
 40
0.4695145698936968
 40
0.5512214090211169
 40
0.7147003241361126
 40
0.857346159111141
 40
1.0
 40
1.0
 40
1.0
 40
1.0
 10
919.6456081178251
 20
878.8359378565485
 30
0.0
 10
919.506578593279
 20
878.8359378565485
 30
0.0
 10
919.2669022450983
 20
878.8359378565485
 30
0.0
 10
918.6294927928016
 20
878.8359378565485
 30
0.0
 10
917.9115575758489
 20
878.8359378565485
 30
0.0
 10
917.0225001828913
 20
878.8359378565485
 30
0.0
 10
916.018830861296
 20
878.8359378565485
 30
0.0
 10
914.9342699956162
 20
878.8359378565485
 30
0.0
 10
913.7901313438803
 20
878.8359378565485
 30
0.0
 10
912.535268466573
 20
878.8359378565485
 30
0.0
 10
911.2265131043009
 20
878.8359378565485
 30
0.0
 10
909.8859104013783
 20
878.8359378565485
 30
0.0
 10
908.5229319635934
 20
878.8359378565485
 30
0.0
 10
907.0832437510529
 20
878.8359378565485
 30
0.0
 10
905.5897878728128
 20
878.8359378565485
 30
0.0
 10
904.0561774487219
 20
878.8359378565485
 30
0.0
 10
902.4828780313246
 20
878.8359378565485
 30
0.0
 10
900.857839385796
 20
878.8359378565485
 30
0.0
 10
897.5922989261468
 20
878.8359378565485
 30
0.0
 10
892.7149109576014
 20
878.8359378565485
 30
0.0
 10
884.0641010277021
 20
878.8359378565485
 30
0.0
 10
873.798881780236
 20
878.8359378565485
 30
0.0
 10
861.9225369429764
 20
878.8359378565485
 30
0.0
 10
854.3734667340364
 20
878.8359378565485
 30
0.0
 10
850.598825710754
 20
878.8359378565485
 30
0.0
  0
SPLINE
  5
108
330
1F
100
AcDbEntity
  8
0
  6
Continuous
 62
     7
370
    35
100
AcDbSpline
210
0.0
220
0.0
230
1.0
 70
    24
 71
     3
 72
    14
 73
    10
 74
     0
 42
0.000000001
 43
0.00000001
 40
0.0
 40
0.0
 40
0.0
 40
0.0
 40
0.149780152669034
 40
0.2995602479532045
 40
0.4493411829837849
 40
0.5991219710263921
 40
0.7488863678263521
 40
0.8986505924649724
 40
1.0
 40
1.0
 40
1.0
 40
1.0
 10
850.598825710754
 20
878.8359378565485
 30
0.0
 10
850.598825710754
 20
878.8779751488398
 30
0.0
 10
850.598825710754
 20
878.9620497173172
 30
0.0
 10
850.598825710754
 20
879.6183170112973
 30
0.0
 10
850.598825710754
 20
880.6556586292096
 30
0.0
 10
850.598825710754
 20
882.0672933006157
 30
0.0
 10
850.598825710754
 20
883.8203701911336
 30
0.0
 10
850.598825710754
 20
885.6251065452718
 30
0.0
 10
850.598825710754
 20
886.8808608899352
 30
0.0
 10
850.598825710754
 20
887.3876830713498
 30
0.0
  0
SPLINE
  5
109
330
1F
100
AcDbEntity
  8
0
  6
Continuous
 62
     7
370
    35
100
AcDbSpline
210
0.0
220
0.0
230
1.0
 70
    24
 71
     3
 72
    19
 73
    15
 74
     0
 42
0.000000001
 43
0.00000001
 40
0.0
 40
0.0
 40
0.0
 40
0.0
 40
0.0339082014123498
 40
0.083889095661543
 40
0.1338856406936271
 40
0.1787639190833907
 40
0.2236368521988093
 40
0.2646138248638296
 40
0.305564408692428
 40
0.3465596390526847
 40
0.3876059998973011
 40
0.5510999778908713
 40
0.714601507101012
 40
1.0
 40
1.0
 40
1.0
 40
1.0
 10
781.5520433036829
 20
878.8359378565485
 30
0.0
 10
781.6924731571125
 20
878.8359378565485
 30
0.0
 10
782.0398974650211
 20
878.8359378565485
 30
0.0
 10
783.2377736318183
 20
878.8359378565485
 30
0.0
 10
785.0879684522877
 20
878.8359378565485
 30
0.0
 10
787.380320872767
 20
878.8359378565485
 30
0.0
 10
789.903212404017
 20
878.8359378565485
 30
0.0
 10
792.6688301073657
 20
878.8359378565485
 30
0.0
 10
795.5976211146724
 20
878.8359378565485
 30
0.0
 10
798.7440636954246
 20
878.8359378565485
 30
0.0
 10
805.2349202461575
 20
878.8359378565484
 30
0.0
 10
814.9725293596589
 20
878.8359378565485
 30
0.0
 10
831.1753355770811
 20
878.8359378565485
 30
0.0
 10
843.049532476888
 20
878.8359378565485
 30
0.0
 10
850.598825710754
 20
878.8359378565485
 30
0.0
  0
SPLINE
  5
10A
330
1F
100
AcDbEntity
  8
0
  6
Continuous
 62
     7
370
    35
100
AcDbSpline
210
0.0
220
0.0
230
1.0
 70
    24
 71
     3
 72
    10
 73
     6
 74
     0
 42
0.000000001
 43
0.00000001
 40
0.0
 40
0.0
 40
0.0
 40
0.0
 40
0.2002711178125581
 40
0.6000177946970419
 40
1.0
 40
1.0
 40
1.0
 40
1.0
 10
768.598825710754
 20
928.134735762952
 30
0.0
 10
768.598825710754
 20
928.6824089553163
 30
0.0
 10
768.598825710754
 20
930.3232529506281
 30
0.0
 10
768.598825710754
 20
933.0324333110948
 30
0.0
 10
768.598825710754
 20
935.1701203732653
 30
0.0
 10
768.598825710754
 20
936.2392786898135
 30
0.0
  0
SPLINE
  5
10B
330
1F
100
AcDbEntity
  8
0
  6
Continuous
 62
     7
370
    35
100
AcDbSpline
210
0.0
220
0.0
230
1.0
 70
    24
 71
     3
 72
    13
 73
     9
 74
     0
 42
0.000000001
 43
0.00000001
 40
0.0
 40
0.0
 40
0.0
 40
0.0
 40
0.2483748381056552
 40
0.4969122575156646
 40
0.6539515646682544
 40
0.8119139092101537
 40
0.9045228745793301
 40
1.0
 40
1.0
 40
1.0
 40
1.0
 10
768.598825710754
 20
936.2392786898148
 30
0.0
 10
768.598825710754
 20
936.7341120665878
 30
0.0
 10
768.598825710754
 20
937.7241027283708
 30
0.0
 10
768.598825710754
 20
939.1124718384056
 30
0.0
 10
768.598825710754
 20
940.2486554606465
 30
0.0
 10
768.598825710754
 20
940.9585457078492
 30
0.0
 10
768.598825710754
 20
941.3854837803548
 30
0.0
 10
768.598825710754
 20
941.4383631398249
 30
0.0
 10
768.598825710754
 20
941.465206003192
 30
0.0
  0
SPLINE
  5
10C
330
1F
100
AcDbEntity
  8
0
  6
Continuous
 62
     7
370
    35
100
AcDbSpline
210
0.0
220
0.0
230
1.0
 70
     8
 71
     3
 72
     9
 73
     5
 74
     0
 42
0.000000001
 43
0.00000001
 40
0.0
 40
0.0
 40
0.0
 40
0.0
 40
0.9381171228536718
 40
0.9999999999999999
 40
0.9999999999999999
 40
0.9999999999999999
 40
0.9999999999999999
 10
769.0603579700595
 20
944.7612598286167
 30
0.0
 10
768.8394123441855
 20
943.7365649658175
 30
0.0
 10
768.6038920445434
 20
942.6442761269972
 30
0.0
 10
768.5991209592408
 20
941.533918149513
 30
0.0
 10
768.5988257107552
 20
941.4652060032039
 30
0.0
  0
LINE
  5
10D
330
1F
100
AcDbEntity
  8
0
  6
Continuous
 62
     7
370
    35
100
AcDbLine
 10
769.7988257108
 20
952.3359378565
 30
0.0
 11
797.5988257108
 21
952.3359378565
 31
0.0
  0
LINE
  5
10E
330
1F
100
AcDbEntity
  8
0
  6
Continuous
 62
     7
370
    35
100
AcDbLine
 10
931.3988257108
 20
952.3359378565
 30
0.0
 11
903.5988257108
 21
952.3359378565
 31
0.0
  0
LINE
  5
10F
330
1F
100
AcDbEntity
  8
0
  6
Continuous
 62
     7
370
    35
100
AcDbLine
 10
763.5988257108
 20
928.8859378565
 30
0.0
 11
763.5988257108
 21
878.7859378565
 31
0.0
  0
LINE
  5
110
330
1F
100
AcDbEntity
  8
0
  6
Continuous
 62
     7
370
    35
100
AcDbLine
 10
715.0988257108
 20
927.8359378565
 30
0.0
 11
715.0988257108
 21
879.8359378565
 31
0.0
  0
LINE
  5
111
330
1F
100
AcDbEntity
  8
0
  6
Continuous
 62
     7
370
    35
100
AcDbLine
 10
258.5988257108
 20
971.2855378565
 30
0.0
 11
258.5988257108
 21
960.2855378565
 31
0.0
  0
ARC
  5
112
330
1F
100
AcDbEntity
  8
0
  6
Continuous
 62
     7
370
    35
100
AcDbCircle
 10
259.5988257108
 20
971.2855378565
 30
0.0
 40
1.0
100
AcDbArc
 50
90.0
 51
180.0
  0
ARC
  5
113
330
1F
100
AcDbEntity
  8
0
  6
Continuous
 62
     7
370
    35
100
AcDbCircle
 10
259.5988257108
 20
971.2855378565
 30
0.0
 40
1.000000000000057
100
AcDbArc
 50
0.0
 51
90.0
  0
LINE
  5
114
330
1F
100
AcDbEntity
  8
0
  6
Continuous
 62
     7
370
    35
100
AcDbLine
 10
260.5988257108
 20
971.2855378565
 30
0.0
 11
260.5988257108
 21
961.2855378565
 31
0.0
  0
LINE
  5
115
330
1F
100
AcDbEntity
  8
0
  6
Continuous
 62
     7
370
    35
100
AcDbLine
 10
258.5988257108
 20
959.2855378565
 30
0.0
 11
258.5988257108
 21
953.5596783782
 31
0.0
  0
LINE
  5
116
330
1F
100
AcDbEntity
  8
0
  6
Continuous
 62
     7
370
    35
100
AcDbLine
 10
260.5988257108
 20
957.1875221382
 30
0.0
 11
260.5988257108
 21
953.5596783782
 31
0.0
  0
LINE
  5
117
330
1F
100
AcDbEntity
  8
0
  6
Continuous
 62
     7
370
    35
100
AcDbLine
 10
258.5988257108
 20
951.7470628041
 30
0.0
 11
258.5988257108
 21
953.5596783782
 31
0.0
  0
LINE
  5
118
330
1F
100
AcDbEntity
  8
0
  6
Continuous
 62
     7
370
    35
100
AcDbLine
 10
260.5988257108
 20
953.5596783782
 30
0.0
 11
260.5988257108
 21
951.7470628041
 31
0.0
  0
LINE
  5
119
330
1F
100
AcDbEntity
  8
0
  6
Continuous
 62
     7
370
    35
100
AcDbLine
 10
258.5988257108
 20
951.7470628041
 30
0.0
 11
258.5988257108
 21
944.4887635195
 31
0.0
  0
LINE
  5
11A
330
1F
100
AcDbEntity
  8
0
  6
Continuous
 62
     7
370
    35
100
AcDbLine
 10
260.5988257108
 20
951.7470628041
 30
0.0
 11
260.5988257108
 21
944.4887635195
 31
0.0
  0
LINE
  5
11B
330
1F
100
AcDbEntity
  8
0
  6
Continuous
 62
     7
370
    35
100
AcDbLine
 10
258.5988257108
 20
942.6761479454
 30
0.0
 11
258.5988257108
 21
944.4887635195
 31
0.0
  0
LINE
  5
11C
330
1F
100
AcDbEntity
  8
0
  6
Continuous
 62
     7
370
    35
100
AcDbLine
 10
260.5988257108
 20
944.4887635195
 30
0.0
 11
260.5988257108
 21
942.6761479454
 31
0.0
  0
LINE
  5
11D
330
1F
100
AcDbEntity
  8
0
  6
Continuous
 62
     7
370
    35
100
AcDbLine
 10
258.5988257108
 20
942.6761479454
 30
0.0
 11
258.5988257108
 21
908.3855378565
 31
0.0
  0
LINE
  5
11E
330
1F
100
AcDbEntity
  8
0
  6
Continuous
 62
     7
370
    35
100
AcDbLine
 10
260.5988257108
 20
942.6761479454
 30
0.0
 11
260.5988257108
 21
908.3855378565
 31
0.0
  0
LINE
  5
11F
330
1F
100
AcDbEntity
  8
0
  6
Continuous
 62
     7
370
    35
100
AcDbLine
 10
260.5988257108
 20
906.3855378565
 30
0.0
 11
258.5988257108
 21
906.3855378565
 31
0.0
  0
LINE
  5
120
330
1F
100
AcDbEntity
  8
0
  6
Continuous
 62
     7
370
    35
100
AcDbLine
 10
258.5988257108
 20
906.3855378565
 30
0.0
 11
258.5988257108
 21
908.3855378565
 31
0.0
  0
LINE
  5
121
330
1F
100
AcDbEntity
  8
0
  6
Continuous
 62
     7
370
    35
100
AcDbLine
 10
260.5988257108
 20
908.3855378565
 30
0.0
 11
260.5988257108
 21
906.3855378565
 31
0.0
  0
ARC
  5
122
330
1F
100
AcDbEntity
  8
0
  6
Continuous
 62
     7
370
    35
100
AcDbCircle
 10
1441.5988257108
 20
971.2855378565
 30
0.0
 40
1.000000000000227
100
AcDbArc
 50
90.0
 51
180.0
  0
ARC
  5
123
330
1F
100
AcDbEntity
  8
0
  6
Continuous
 62
     7
370
    35
100
AcDbCircle
 10
1441.5988257108
 20
971.2855378565
 30
0.0
 40
1.000000000000227
100
AcDbArc
 50
0.0
 51
90.0
  0
LINE
  5
124
330
1F
100
AcDbEntity
  8
0
  6
Continuous
 62
     7
370
    35
100
AcDbLine
 10
1440.5988257108
 20
971.2855378565
 30
0.0
 11
1440.5988257108
 21
961.2855378565
 31
0.0
  0
LINE
  5
125
330
1F
100
AcDbEntity
  8
0
  6
Continuous
 62
     7
370
    35
100
AcDbLine
 10
1442.5988257108
 20
971.2855378565
 30
0.0
 11
1442.5988257108
 21
960.2855378565
 31
0.0
  0
LINE
  5
126
330
1F
100
AcDbEntity
  8
0
  6
Continuous
 62
     7
370
    35
100
AcDbLine
 10
1440.5988257108
 20
957.1875221382
 30
0.0
 11
1440.5988257108
 21
953.5596783782
 31
0.0
  0
LINE
  5
127
330
1F
100
AcDbEntity
  8
0
  6
Continuous
 62
     7
370
    35
100
AcDbLine
 10
1442.5988257108
 20
959.2855378565
 30
0.0
 11
1442.5988257108
 21
953.5596783782
 31
0.0
  0
LINE
  5
128
330
1F
100
AcDbEntity
  8
0
  6
Continuous
 62
     7
370
    35
100
AcDbLine
 10
1440.5988257108
 20
951.7470628041
 30
0.0
 11
1440.5988257108
 21
953.5596783782
 31
0.0
  0
LINE
  5
129
330
1F
100
AcDbEntity
  8
0
  6
Continuous
 62
     7
370
    35
100
AcDbLine
 10
1442.5988257108
 20
953.5596783782
 30
0.0
 11
1442.5988257108
 21
951.7470628041
 31
0.0
  0
LINE
  5
12A
330
1F
100
AcDbEntity
  8
0
  6
Continuous
 62
     7
370
    35
100
AcDbLine
 10
1440.5988257108
 20
951.7470628041
 30
0.0
 11
1440.5988257108
 21
944.4887635195
 31
0.0
  0
LINE
  5
12B
330
1F
100
AcDbEntity
  8
0
  6
Continuous
 62
     7
370
    35
100
AcDbLine
 10
1442.5988257108
 20
951.7470628041
 30
0.0
 11
1442.5988257108
 21
944.4887635195
 31
0.0
  0
LINE
  5
12C
330
1F
100
AcDbEntity
  8
0
  6
Continuous
 62
     7
370
    35
100
AcDbLine
 10
1440.5988257108
 20
942.6761479454
 30
0.0
 11
1440.5988257108
 21
944.4887635195
 31
0.0
  0
LINE
  5
12D
330
1F
100
AcDbEntity
  8
0
  6
Continuous
 62
     7
370
    35
100
AcDbLine
 10
1442.5988257108
 20
944.4887635195
 30
0.0
 11
1442.5988257108
 21
942.6761479454
 31
0.0
  0
LINE
  5
12E
330
1F
100
AcDbEntity
  8
0
  6
Continuous
 62
     7
370
    35
100
AcDbLine
 10
1440.5988257108
 20
942.6761479454
 30
0.0
 11
1440.5988257108
 21
908.3855378565
 31
0.0
  0
LINE
  5
12F
330
1F
100
AcDbEntity
  8
0
  6
Continuous
 62
     7
370
    35
100
AcDbLine
 10
1442.5988257108
 20
942.6761479454
 30
0.0
 11
1442.5988257108
 21
908.3855378565
 31
0.0
  0
LINE
  5
130
330
1F
100
AcDbEntity
  8
0
  6
Continuous
 62
     7
370
    35
100
AcDbLine
 10
1442.5988257108
 20
906.3855378565
 30
0.0
 11
1440.5988257108
 21
906.3855378565
 31
0.0
  0
LINE
  5
131
330
1F
100
AcDbEntity
  8
0
  6
Continuous
 62
     7
370
    35
100
AcDbLine
 10
1440.5988257108
 20
906.3855378565
 30
0.0
 11
1440.5988257108
 21
908.3855378565
 31
0.0
  0
LINE
  5
132
330
1F
100
AcDbEntity
  8
0
  6
Continuous
 62
     7
370
    35
100
AcDbLine
 10
1442.5988257108
 20
908.3855378565
 30
0.0
 11
1442.5988257108
 21
906.3855378565
 31
0.0
  0
LINE
  5
133
330
1F
100
AcDbEntity
  8
0
  6
Continuous
 62
     7
370
    35
100
AcDbLine
 10
238.0988257108
 20
959.2855378565
 30
0.0
 11
228.0988257108
 21
959.2855378565
 31
0.0
  0
LINE
  5
134
330
1F
100
AcDbEntity
  8
0
  6
Continuous
 62
     7
370
    35
100
AcDbLine
 10
228.0988257108
 20
959.2855378565
 30
0.0
 11
228.0988257108
 21
960.2855378565
 31
0.0
  0
LINE
  5
135
330
1F
100
AcDbEntity
  8
0
  6
Continuous
 62
     7
370
    35
100
AcDbLine
 10
228.0988257108
 20
960.2855378565
 30
0.0
 11
238.0988257108
 21
960.2855378565
 31
0.0
  0
LINE
  5
136
330
1F
100
AcDbEntity
  8
0
  6
Continuous
 62
     7
370
    35
100
AcDbLine
 10
260.5988257108
 20
959.2855378565
 30
0.0
 11
238.0988257108
 21
959.2855378565
 31
0.0
  0
LINE
  5
137
330
1F
100
AcDbEntity
  8
0
  6
Continuous
 62
     7
370
    35
100
AcDbLine
 10
260.5988257108
 20
960.2855378565
 30
0.0
 11
238.0988257108
 21
960.2855378565
 31
0.0
  0
LINE
  5
138
330
1F
100
AcDbEntity
  8
0
  6
Continuous
 62
     7
370
    35
100
AcDbLine
 10
258.4988257108
 20
960.2855378565
 30
0.0
 11
258.4988257108
 21
961.2855378565
 31
0.0
  0
LINE
  5
139
330
1F
100
AcDbEntity
  8
0
  6
Continuous
 62
     7
370
    35
100
AcDbLine
 10
228.0988257108
 20
961.2855378565
 30
0.0
 11
228.0988257108
 21
960.2855378565
 31
0.0
  0
LINE
  5
13A
330
1F
100
AcDbEntity
  8
0
  6
Continuous
 62
     7
370
    35
100
AcDbLine
 10
228.0988257108
 20
993.0855378565
 30
0.0
 11
228.0988257108
 21
961.2855378565
 31
0.0
  0
ARC
  5
13B
330
1F
100
AcDbEntity
  8
0
  6
Continuous
 62
     7
370
    35
100
AcDbCircle
 10
238.0988257108
 20
993.0855378565
 30
0.0
 40
10.0
100
AcDbArc
 50
90.0
 51
180.0
  0
LINE
  5
13C
330
1F
100
AcDbEntity
  8
0
  6
Continuous
 62
     7
370
    35
100
AcDbLine
 10
260.5988257108
 20
1003.0855378565
 30
0.0
 11
238.0988257108
 21
1003.0855378565
 31
0.0
  0
LINE
  5
13D
330
1F
100
AcDbEntity
  8
0
  6
Continuous
 62
     7
370
    35
100
AcDbLine
 10
260.5988257108
 20
1002.7855378565
 30
0.0
 11
260.5988257108
 21
1003.0855378565
 31
0.0
  0
LINE
  5
13E
330
1F
100
AcDbEntity
  8
0
  6
Continuous
 62
     7
370
    35
100
AcDbLine
 10
258.4988257108
 20
972.6355378565
 30
0.0
 11
260.5988257108
 21
972.6355378565
 31
0.0
  0
LINE
  5
13F
330
1F
100
AcDbEntity
  8
0
  6
Continuous
 62
     7
370
    35
100
AcDbLine
 10
258.4988257108
 20
961.2855378565
 30
0.0
 11
258.4988257108
 21
972.6355378565
 31
0.0
  0
LINE
  5
140
330
1F
100
AcDbEntity
  8
0
  6
Continuous
 62
     7
370
    35
100
AcDbLine
 10
1440.5988257108
 20
960.2855378565
 30
0.0
 11
1463.0988257108
 21
960.2855378565
 31
0.0
  0
LINE
  5
141
330
1F
100
AcDbEntity
  8
0
  6
Continuous
 62
     7
370
    35
100
AcDbLine
 10
1440.5988257108
 20
959.2855378565
 30
0.0
 11
1463.0988257108
 21
959.2855378565
 31
0.0
  0
LINE
  5
142
330
1F
100
AcDbEntity
  8
0
  6
Continuous
 62
     7
370
    35
100
AcDbLine
 10
1473.0988257108
 20
960.2855378565
 30
0.0
 11
1473.0988257108
 21
959.2855378565
 31
0.0
  0
LINE
  5
143
330
1F
100
AcDbEntity
  8
0
  6
Continuous
 62
     7
370
    35
100
AcDbLine
 10
1463.0988257108
 20
960.2855378565
 30
0.0
 11
1473.0988257108
 21
960.2855378565
 31
0.0
  0
LINE
  5
144
330
1F
100
AcDbEntity
  8
0
  6
Continuous
 62
     7
370
    35
100
AcDbLine
 10
1473.0988257108
 20
959.2855378565
 30
0.0
 11
1463.0988257108
 21
959.2855378565
 31
0.0
  0
LINE
  5
145
330
1F
100
AcDbEntity
  8
0
  6
Continuous
 62
     7
370
    35
100
AcDbLine
 10
1473.0988257108
 20
960.2855378565
 30
0.0
 11
1473.0988257108
 21
961.2855378565
 31
0.0
  0
LINE
  5
146
330
1F
100
AcDbEntity
  8
0
  6
Continuous
 62
     7
370
    35
100
AcDbLine
 10
1442.6988257108
 20
960.2855378565
 30
0.0
 11
1442.6988257108
 21
961.2855378565
 31
0.0
  0
LINE
  5
147
330
1F
100
AcDbEntity
  8
0
  6
Continuous
 62
     7
370
    35
100
AcDbLine
 10
1440.5988257108
 20
1002.7855378565
 30
0.0
 11
1440.5988257108
 21
1003.0855378565
 31
0.0
  0
LINE
  5
148
330
1F
100
AcDbEntity
  8
0
  6
Continuous
 62
     7
370
    35
100
AcDbLine
 10
1440.5988257108
 20
1003.0855378565
 30
0.0
 11
1463.0988257108
 21
1003.0855378565
 31
0.0
  0
ARC
  5
149
330
1F
100
AcDbEntity
  8
0
  6
Continuous
 62
     7
370
    35
100
AcDbCircle
 10
1463.0988257108
 20
993.0855378565
 30
0.0
 40
10.0
100
AcDbArc
 50
0.0
 51
90.0
  0
LINE
  5
14A
330
1F
100
AcDbEntity
  8
0
  6
Continuous
 62
     7
370
    35
100
AcDbLine
 10
1442.6988257108
 20
972.6355378565
 30
0.0
 11
1442.6988257108
 21
961.2855378565
 31
0.0
  0
LINE
  5
14B
330
1F
100
AcDbEntity
  8
0
  6
Continuous
 62
     7
370
    35
100
AcDbLine
 10
1442.6988257108
 20
972.6355378565
 30
0.0
 11
1440.5988257108
 21
972.6355378565
 31
0.0
  0
LINE
  5
14C
330
1F
100
AcDbEntity
  8
0
  6
Continuous
 62
     7
370
    35
100
AcDbLine
 10
1473.0988257108
 20
993.0855378565
 30
0.0
 11
1473.0988257108
 21
961.2855378565
 31
0.0
  0
LINE
  5
14D
330
1F
100
AcDbEntity
  8
0
  6
Continuous
 62
     7
370
    35
100
AcDbLine
 10
1440.5988257108
 20
960.2855378565
 30
0.0
 11
260.5988257108
 21
960.2855378565
 31
0.0
  0
LINE
  5
14E
330
1F
100
AcDbEntity
  8
0
  6
Continuous
 62
     7
370
    35
100
AcDbLine
 10
260.5988257108
 20
959.2855378565
 30
0.0
 11
260.5988257108
 21
960.2855378565
 31
0.0
  0
LINE
  5
14F
330
1F
100
AcDbEntity
  8
0
  6
Continuous
 62
     7
370
    35
100
AcDbLine
 10
1440.5988257108
 20
959.2855378565
 30
0.0
 11
260.5988257108
 21
959.2855378565
 31
0.0
  0
LINE
  5
150
330
1F
100
AcDbEntity
  8
0
  6
Continuous
 62
     7
370
    35
100
AcDbLine
 10
1440.5988257108
 20
959.2855378565
 30
0.0
 11
1440.5988257108
 21
960.2855378565
 31
0.0
  0
LINE
  5
151
330
1F
100
AcDbEntity
  8
0
  6
Continuous
 62
     7
370
    35
100
AcDbLine
 10
260.5988257108
 20
961.2855378565
 30
0.0
 11
260.5988257108
 21
960.2855378565
 31
0.0
  0
LINE
  5
152
330
1F
100
AcDbEntity
  8
0
  6
Continuous
 62
     7
370
    35
100
AcDbLine
 10
1440.5988257108
 20
960.2855378565
 30
0.0
 11
1440.5988257108
 21
961.2855378565
 31
0.0
  0
LINE
  5
153
330
1F
100
AcDbEntity
  8
0
  6
Continuous
 62
     7
370
    35
100
AcDbLine
 10
1440.5988257108
 20
972.2855378565
 30
0.0
 11
1440.5988257108
 21
971.2855378565
 31
0.0
  0
LINE
  5
154
330
1F
100
AcDbEntity
  8
0
  6
Continuous
 62
     7
370
    35
100
AcDbLine
 10
260.5988257108
 20
971.2855378565
 30
0.0
 11
260.5988257108
 21
972.2855378565
 31
0.0
  0
LINE
  5
155
330
1F
100
AcDbEntity
  8
0
  6
Continuous
 62
     7
370
    35
100
AcDbLine
 10
260.5988257108
 20
961.2855378565
 30
0.0
 11
260.5988257108
 21
970.7855378565
 31
0.0
  0
LINE
  5
156
330
1F
100
AcDbEntity
  8
0
  6
Continuous
 62
     7
370
    35
100
AcDbLine
 10
1440.5988257108
 20
970.7855378565
 30
0.0
 11
1440.5988257108
 21
961.2855378565
 31
0.0
  0
LINE
  5
157
330
1F
100
AcDbEntity
  8
0
  6
Continuous
 62
     7
370
    35
100
AcDbLine
 10
1440.5988257108
 20
957.9474563458
 30
0.0
 11
1440.5988257108
 21
959.2855378565
 31
0.0
  0
LINE
  5
158
330
1F
100
AcDbEntity
  8
0
  6
Continuous
 62
     7
370
    35
100
AcDbLine
 10
260.5988257108
 20
957.9474563458
 30
0.0
 11
260.5988257108
 21
959.2855378565
 31
0.0
  0
LINE
  5
159
330
1F
100
AcDbEntity
  8
0
  6
Continuous
 62
     7
370
    35
100
AcDbLine
 10
1440.5988257108
 20
957.1875221382
 30
0.0
 11
1440.5988257108
 21
957.9474563458
 31
0.0
  0
LINE
  5
15A
330
1F
100
AcDbEntity
  8
0
  6
Continuous
 62
     7
370
    35
100
AcDbLine
 10
260.5988257108
 20
957.1875221382
 30
0.0
 11
260.5988257108
 21
957.9474563458
 31
0.0
  0
SPLINE
  5
15B
330
1F
100
AcDbEntity
  8
0
  6
Continuous
 62
     7
370
    35
100
AcDbSpline
210
0.0
220
0.0
230
1.0
 70
     8
 71
     3
 72
    14
 73
    10
 74
     0
 42
0.000000001
 43
0.00000001
 40
0.0
 40
0.0
 40
0.0
 40
0.0
 40
0.25
 40
0.25
 40
0.5
 40
0.5
 40
0.75
 40
0.75
 40
1.0
 40
1.0
 40
1.0
 40
1.0
 10
933.5580018194396
 20
954.1903654357674
 30
0.0
 10
933.5327777238901
 20
954.3796127619166
 30
0.0
 10
932.9466012435057
 20
954.5685323759246
 30
0.0
 10
930.7152099054608
 20
954.9252694250517
 30
0.0
 10
929.0709523225734
 20
955.0929247632494
 30
0.0
 10
924.902423737913
 20
955.3885816512251
 30
0.0
 10
922.3799228605299
 20
955.5164508335199
 30
0.0
 10
916.7319604912423
 20
955.7182768980938
 30
0.0
 10
913.6089693356711
 20
955.7921428174599
 30
0.0
 10
910.3570595921298
 20
955.8348988658629
 30
0.0
  0
SPLINE
  5
15C
330
1F
100
AcDbEntity
  8
0
  6
Continuous
 62
     7
370
    35
100
AcDbSpline
210
0.0
220
0.0
230
1.0
 70
     8
 71
     3
 72
    16
 73
    12
 74
     0
 42
0.000000001
 43
0.00000001
 40
0.0
 40
0.0
 40
0.0
 40
0.0
 40
0.0624999999999996
 40
0.0624999999999996
 40
0.1249999999999992
 40
0.1249999999999992
 40
0.2499999999999984
 40
0.2499999999999984
 40
0.5
 40
0.5
 40
1.0
 40
1.0
 40
1.0
 40
1.0
 10
910.3570595920737
 20
955.834898865848
 30
0.0
 10
910.2185944231129
 20
955.8367194032961
 30
0.0
 10
910.0781745880535
 20
955.8373941217233
 30
0.0
 10
909.7973373593965
 20
955.8387449897546
 30
0.0
 10
909.6567008997879
 20
955.8392927235632
 30
0.0
 10
909.2346617076382
 20
955.8408598288333
 30
0.0
 10
908.953112093747
 20
955.8417657881065
 30
0.0
 10
908.1084446415234
 20
955.84428172394
 30
0.0
 10
907.5451266827416
 20
955.8456577942694
 30
0.0
 10
905.8546242867927
 20
955.8489852005705
 30
0.0
 10
904.726738219231
 20
955.8501101759119
 30
0.0
 10
903.598825710754
 20
955.8501101759119
 30
0.0
  0
LINE
  5
15D
330
1F
100
AcDbEntity
  8
0
  6
Continuous
 62
     7
370
    35
100
AcDbLine
 10
903.5988257108
 20
955.8501101759
 30
0.0
 11
797.5988257108
 21
955.8501101759
 31
0.0
  0
SPLINE
  5
15E
330
1F
100
AcDbEntity
  8
0
  6
Continuous
 62
     7
370
    35
100
AcDbSpline
210
0.0
220
0.0
230
1.0
 70
     8
 71
     3
 72
    16
 73
    12
 74
     0
 42
0.000000001
 43
0.00000001
 40
0.0
 40
0.0
 40
0.0
 40
0.0
 40
0.4999999999999984
 40
0.4999999999999984
 40
0.7499999999999992
 40
0.7499999999999992
 40
0.8749999999999996
 40
0.8749999999999996
 40
0.9374999999999999
 40
0.9374999999999999
 40
1.0
 40
1.0
 40
1.0
 40
1.0
 10
797.598825710754
 20
955.8501101759119
 30
0.0
 10
796.4708756890892
 20
955.8501101759119
 30
0.0
 10
795.3433339589368
 20
955.8489856980592
 30
0.0
 10
793.652617183991
 20
955.8456580294309
 30
0.0
 10
793.089130027083
 20
955.8442815522808
 30
0.0
 10
792.2443489250004
 20
955.8417651924801
 30
0.0
 10
791.9628095907373
 20
955.840859237658
 30
0.0
 10
791.5407360010216
 20
955.8392918881467
 30
0.0
 10
791.4000570141995
 20
955.8387439417188
 30
0.0
 10
791.1192184982299
 20
955.8373926903449
 30
0.0
 10
790.9788012231146
 20
955.8367160403676
 30
0.0
 10
790.8405918294342
 20
955.8348988658481
 30
0.0
  0
SPLINE
  5
15F
330
1F
100
AcDbEntity
  8
0
  6
Continuous
 62
     7
370
    35
100
AcDbSpline
210
0.0
220
0.0
230
1.0
 70
     8
 71
     3
 72
    14
 73
    10
 74
     0
 42
0.000000001
 43
0.00000001
 40
0.0
 40
0.0
 40
0.0
 40
0.0
 40
0.25
 40
0.25
 40
0.5
 40
0.5
 40
0.75
 40
0.75
 40
1.0
 40
1.0
 40
1.0
 40
1.0
 10
790.8405918293472
 20
955.8348988658694
 30
0.0
 10
787.5886820947861
 20
955.7921428175845
 30
0.0
 10
784.4657146328667
 20
955.7182778433889
 30
0.0
 10
778.8176825889439
 20
955.5164490924323
 30
0.0
 10
776.2952183197036
 20
955.3885811204855
 30
0.0
 10
772.1266919746658
 20
955.0929241245499
 30
0.0
 10
770.4824217965734
 20
954.9252665193616
 30
0.0
 10
768.2510611419351
 20
954.5685338818713
 30
0.0
 10
767.6648736977022
 20
954.3796127615088
 30
0.0
 10
767.6396496022076
 20
954.1903654357668
 30
0.0
  0
LINE
  5
160
330
1F
100
AcDbEntity
  8
0
  6
Continuous
 62
     7
370
    35
100
AcDbLine
 10
769.5988257108
 20
949.2859378565
 30
0.0
 11
797.5988257108
 21
949.2859378565
 31
0.0
  0
LINE
  5
161
330
1F
100
AcDbEntity
  8
0
  6
Continuous
 62
     7
370
    35
100
AcDbLine
 10
903.5988257108
 20
949.2859378565
 30
0.0
 11
924.7529820601
 21
949.2859378565
 31
0.0
  0
LINE
  5
162
330
1F
100
AcDbEntity
  8
0
  6
Continuous
 62
     7
370
    35
100
AcDbLine
 10
925.3880319776
 20
949.2859378565
 30
0.0
 11
931.5988257108
 21
949.2859378565
 31
0.0
  0
LINE
  5
163
330
1F
100
AcDbEntity
  8
0
  6
Continuous
 62
     7
370
    35
100
AcDbLine
 10
797.5988257108
 20
949.2859378565
 30
0.0
 11
903.5988257108
 21
949.2859378565
 31
0.0
  0
LINE
  5
164
330
1F
100
AcDbEntity
  8
0
  6
Continuous
 62
     7
370
    35
100
AcDbLine
 10
1440.5988257108
 20
972.2855378565
 30
0.0
 11
260.5988257108
 21
972.2855378565
 31
0.0
  0
LINE
  5
165
330
1F
100
AcDbEntity
  8
0
  6
Continuous
 62
     7
370
    35
100
AcDbLine
 10
260.5988257108
 20
973.2855378565
 30
0.0
 11
260.5988257108
 21
972.2855378565
 31
0.0
  0
LINE
  5
166
330
1F
100
AcDbEntity
  8
0
  6
Continuous
 62
     7
370
    35
100
AcDbLine
 10
1440.5988257108
 20
972.2855378565
 30
0.0
 11
1440.5988257108
 21
973.2855378565
 31
0.0
  0
LINE
  5
167
330
1F
100
AcDbEntity
  8
0
  6
Continuous
 62
     7
370
    35
100
AcDbLine
 10
260.5988257108
 20
1002.7855378565
 30
0.0
 11
1440.5988257108
 21
1002.7855378565
 31
0.0
  0
LINE
  5
168
330
1F
100
AcDbEntity
  8
0
  6
Continuous
 62
     7
370
    35
100
AcDbLine
 10
1440.5988257108
 20
1002.7855378565
 30
0.0
 11
1440.5988257108
 21
973.2855378565
 31
0.0
  0
LINE
  5
169
330
1F
100
AcDbEntity
  8
0
  6
Continuous
 62
     7
370
    35
100
AcDbLine
 10
260.5988257108
 20
973.2855378565
 30
0.0
 11
260.5988257108
 21
1002.7855378565
 31
0.0
  0
SPLINE
  5
16A
330
1F
100
AcDbEntity
  8
0
  6
Continuous
 62
     8
370
    18
100
AcDbSpline
210
0.0
220
0.0
230
1.0
 70
     8
 71
     3
 72
    14
 73
    10
 74
     0
 42
0.000000001
 43
0.00000001
 40
0.0
 40
0.0
 40
0.0
 40
0.0
 40
0.0588513053191267
 40
0.1869565142485624
 40
0.315072553199261
 40
0.5223731272641207
 40
0.7296023101687262
 40
0.9289206382199767
 40
1.0
 40
1.0
 40
1.0
 40
1.0
 10
815.0581356016127
 20
926.0451566581437
 30
0.0
 10
815.0578080975918
 20
925.3232921553449
 30
0.0
 10
815.0567676956873
 20
923.0301013676261
 30
0.0
 10
815.0535927527702
 20
919.1036950634494
 30
0.0
 10
815.0523479288339
 20
913.2770801499744
 30
0.0
 10
815.0584103076646
 20
906.4126419243146
 30
0.0
 10
815.0614244572847
 20
898.7350087502406
 30
0.0
 10
815.0594672682452
 20
892.9250408836926
 30
0.0
 10
815.0594385536299
 20
889.7736943337426
 30
0.0
 10
815.0594310054272
 20
888.9453007862315
 30
0.0
  0
ARC
  5
16B
330
1F
100
AcDbEntity
  8
0
  6
Continuous
 62
     8
370
    18
100
AcDbCircle
 10
813.8709018746
 20
893.0271355705
 30
0.0
 40
4.251349985714547
100
AcDbArc
 50
269.1903220347
 51
286.2342508995
  0
SPLINE
  5
16C
330
1F
100
AcDbEntity
  8
0
  6
Continuous
 62
     8
370
    18
100
AcDbSpline
210
0.0
220
0.0
230
1.0
 70
     8
 71
     3
 72
    14
 73
    10
 74
     0
 42
0.000000001
 43
0.00000001
 40
0.0
 40
0.0
 40
0.0
 40
0.0
 40
0.2078014900448986
 40
0.4196955003915623
 40
0.5448234159506912
 40
0.669951586639003
 40
0.7986972210007712
 40
0.9274421414242715
 40
1.0
 40
1.0
 40
1.0
 40
1.0
 10
813.7064992085539
 20
926.1937702851809
 30
0.0
 10
813.6763174266061
 20
923.6063764600872
 30
0.0
 10
813.6153594514032
 20
918.3806317077365
 30
0.0
 10
813.627008264923
 20
911.4119606010006
 30
0.0
 10
813.683114482715
 20
905.5358634172449
 30
0.0
 10
813.7376827962715
 20
900.7544959418699
 30
0.0
 10
813.7882721356451
 20
896.0073252196973
 30
0.0
 10
813.8155463870575
 20
892.0002163836007
 30
0.0
 10
813.8120764380212
 20
889.6303926845252
 30
0.0
 10
813.8108257246793
 20
888.7762100763078
 30
0.0
  0
ARC
  5
16D
330
1F
100
AcDbEntity
  8
0
  6
Continuous
 62
     8
370
    18
100
AcDbCircle
 10
813.7068020452
 20
919.9756719318
 30
0.0
 40
6.218098360711599
100
AcDbArc
 50
77.448172694
 51
90.002790445
  0
SPLINE
  5
16E
330
1F
100
AcDbEntity
  8
0
  6
Continuous
 62
     8
370
    18
100
AcDbSpline
210
0.0
220
0.0
230
1.0
 70
     8
 71
     3
 72
    14
 73
    10
 74
     0
 42
0.000000001
 43
0.00000001
 40
0.0
 40
0.0
 40
0.0
 40
0.0
 40
0.0706477782869265
 40
0.2691528118351341
 40
0.4765523192876391
 40
0.684121951415339
 40
0.8126862360379841
 40
0.9412265023063743
 40
1.0
 40
1.0
 40
1.0
 40
1.0
 10
816.9494328942374
 20
889.2150938379972
 30
0.0
 10
816.9479455158621
 20
890.0274955473975
 30
0.0
 10
816.9422789247573
 20
893.1225710009621
 30
0.0
 10
817.0221668198694
 20
898.8664128994423
 30
0.0
 10
817.1445047980262
 20
906.4572022943787
 30
0.0
 10
817.2080652994234
 20
913.2420152141202
 30
0.0
 10
817.1864331713983
 20
919.0093524646959
 30
0.0
 10
817.1399132610472
 20
922.9028413663175
 30
0.0
 10
817.1046330344687
 20
925.1786699734902
 30
0.0
 10
817.0935631468557
 20
925.8927574199516
 30
0.0
  0
ARC
  5
16F
330
1F
100
AcDbEntity
  8
0
  6
Continuous
 62
     8
370
    18
100
AcDbCircle
 10
816.8883532325
 20
882.8879959829
 30
0.0
 40
6.327392669379773
100
AcDbArc
 50
89.4469031132
 51
106.8009889676
  0
ARC
  5
170
330
1F
100
AcDbEntity
  8
0
  6
Continuous
 62
     8
370
    18
100
AcDbCircle
 10
816.8320517908
 20
936.0687137492
 30
0.0
 40
10.17931605775978
100
AcDbArc
 50
259.9640104622
 51
271.4721171426
  0
SPLINE
  5
171
330
1F
100
AcDbEntity
  8
0
  6
Continuous
 62
     8
370
    18
100
AcDbSpline
210
0.0
220
0.0
230
1.0
 70
     8
 71
     3
 72
    14
 73
    10
 74
     0
 42
0.000000001
 43
0.00000001
 40
0.0
 40
0.0
 40
0.0
 40
0.0
 40
0.0588513053191264
 40
0.1869565142485622
 40
0.3150725531992609
 40
0.5223731272641207
 40
0.7296023101687263
 40
0.9289206382199767
 40
1.0
 40
1.0
 40
1.0
 40
1.0
 10
886.1395158198953
 20
926.0451566581437
 30
0.0
 10
886.1398433239162
 20
925.3232921553449
 30
0.0
 10
886.1408837258207
 20
923.0301013676261
 30
0.0
 10
886.1440586687378
 20
919.1036950634494
 30
0.0
 10
886.1453034926739
 20
913.2770801499744
 30
0.0
 10
886.1392411138432
 20
906.4126419243146
 30
0.0
 10
886.1362269642232
 20
898.7350087502406
 30
0.0
 10
886.1381841532628
 20
892.9250408836926
 30
0.0
 10
886.1382128678781
 20
889.7736943337426
 30
0.0
 10
886.1382204160807
 20
888.9453007862315
 30
0.0
  0
ARC
  5
172
330
1F
100
AcDbEntity
  8
0
  6
Continuous
 62
     8
370
    18
100
AcDbCircle
 10
884.309298189
 20
882.8879959829
 30
0.0
 40
6.32739266937974
100
AcDbArc
 50
73.1990110324
 51
90.5530968868
  0
SPLINE
  5
173
330
1F
100
AcDbEntity
  8
0
  6
Continuous
 62
     8
370
    18
100
AcDbSpline
210
0.0
220
0.0
230
1.0
 70
     8
 71
     3
 72
    14
 73
    10
 74
     0
 42
0.000000001
 43
0.00000001
 40
0.0
 40
0.0
 40
0.0
 40
0.0
 40
0.0706477782869266
 40
0.2691528118351342
 40
0.4765523192876394
 40
0.6841219514153393
 40
0.8126862360379844
 40
0.9412265023063747
 40
1.0
 40
1.0
 40
1.0
 40
1.0
 10
884.2482185272704
 20
889.2150938379972
 30
0.0
 10
884.2497059056459
 20
890.0274955473975
 30
0.0
 10
884.2553724967507
 20
893.1225710009621
 30
0.0
 10
884.1754846016385
 20
898.8664128994423
 30
0.0
 10
884.0531466234818
 20
906.4572022943787
 30
0.0
 10
883.9895861220845
 20
913.2420152141202
 30
0.0
 10
884.0112182501097
 20
919.0093524646959
 30
0.0
 10
884.0577381604609
 20
922.9028413663175
 30
0.0
 10
884.093018387039
 20
925.1786699734902
 30
0.0
 10
884.1040882746522
 20
925.8927574199517
 30
0.0
  0
ARC
  5
174
330
1F
100
AcDbEntity
  8
0
  6
Continuous
 62
     8
370
    18
100
AcDbCircle
 10
884.3655996307
 20
936.0687137492
 30
0.0
 40
10.17931605773109
100
AcDbArc
 50
268.5278828574
 51
280.0359895378
  0
SPLINE
  5
175
330
1F
100
AcDbEntity
  8
0
  6
Continuous
 62
     8
370
    18
100
AcDbSpline
210
0.0
220
0.0
230
1.0
 70
     8
 71
     3
 72
    14
 73
    10
 74
     0
 42
0.000000001
 43
0.00000001
 40
0.0
 40
0.0
 40
0.0
 40
0.0
 40
0.2078014900448986
 40
0.4196955003915623
 40
0.5448234159506912
 40
0.669951586639003
 40
0.7986972210007711
 40
0.9274421414242715
 40
1.0
 40
1.0
 40
1.0
 40
1.0
 10
887.491152212954
 20
926.1937702851809
 30
0.0
 10
887.5213339949019
 20
923.6063764600872
 30
0.0
 10
887.5822919701048
 20
918.3806317077365
 30
0.0
 10
887.5706431565848
 20
911.4119606010006
 30
0.0
 10
887.514536938793
 20
905.5358634172449
 30
0.0
 10
887.4599686252365
 20
900.7544959418699
 30
0.0
 10
887.4093792858629
 20
896.0073252196972
 30
0.0
 10
887.3821050344504
 20
892.0002163836007
 30
0.0
 10
887.3855749834868
 20
889.6303926845251
 30
0.0
 10
887.3868256968287
 20
888.7762100763078
 30
0.0
  0
ARC
  5
176
330
1F
100
AcDbEntity
  8
0
  6
Continuous
 62
     8
370
    18
100
AcDbCircle
 10
887.3267495469
 20
893.0271355705
 30
0.0
 40
4.251349985714209
100
AcDbArc
 50
253.7657491005
 51
270.8096779653
  0
ARC
  5
177
330
1F
100
AcDbEntity
  8
0
  6
Continuous
 62
     8
370
    18
100
AcDbCircle
 10
887.4908493763
 20
919.9756719318
 30
0.0
 40
6.218098360711505
100
AcDbArc
 50
89.997209555
 51
102.551827306
  0
SPLINE
  5
178
330
1F
100
AcDbEntity
  8
0
  6
Continuous
 62
     8
370
    18
100
AcDbSpline
210
0.0
220
0.0
230
1.0
 70
     8
 71
     3
 72
    15
 73
    11
 74
     0
 42
0.000000001
 43
0.00000001
 40
0.0
 40
0.0
 40
0.0
 40
0.0
 40
0.1296751856895535
 40
0.2603236017833786
 40
0.3857110192553665
 40
0.5110984254999112
 40
0.6401297224178637
 40
0.7691607189086036
 40
0.8842417785355204
 40
1.0
 40
1.0
 40
1.0
 40
1.0
 10
893.7298281903161
 20
888.7762100763078
 30
0.0
 10
893.7309350617223
 20
890.3102669591001
 30
0.0
 10
893.7331571117592
 20
893.3898940361348
 30
0.0
 10
893.7077602334994
 20
898.1309965443096
 30
0.0
 10
893.6769968346066
 20
902.9027893731508
 30
0.0
 10
893.6464898741779
 20
907.7172694024047
 30
0.0
 10
893.6252191308489
 20
912.605433415256
 30
0.0
 10
893.6236011016464
 20
917.3531182259649
 30
0.0
 10
893.6435282918578
 20
921.8990855781861
 30
0.0
 10
893.6626500444577
 20
924.7594118152948
 30
0.0
 10
893.672238967373
 20
926.1937702851809
 30
0.0
  0
ARC
  5
179
330
1F
100
AcDbEntity
  8
0
  6
Continuous
 62
     8
370
    18
100
AcDbCircle
 10
893.7111155832
 20
920.0969529285
 30
0.0
 40
6.096941304607821
100
AcDbArc
 50
77.1854453733
 51
90.3653440291
  0
SPLINE
  5
17A
330
1F
100
AcDbEntity
  8
0
  6
Continuous
 62
     8
370
    18
100
AcDbSpline
210
0.0
220
0.0
230
1.0
 70
     8
 71
     3
 72
    14
 73
    10
 74
     0
 42
0.000000001
 43
0.00000001
 40
0.0
 40
0.0
 40
0.0
 40
0.0
 40
0.1277343155300077
 40
0.2554736424748444
 40
0.3815295141036659
 40
0.5075900262817672
 40
0.7106819552121049
 40
0.9137761853277881
 40
1.0
 40
1.0
 40
1.0
 40
1.0
 10
895.072426522791
 20
888.977281703007
 30
0.0
 10
895.0738988932915
 20
890.4730347268322
 30
0.0
 10
895.076843692058
 20
893.4645994575301
 30
0.0
 10
895.0730473405504
 20
898.1085347782886
 30
0.0
 10
895.0673858821943
 20
902.8144348653314
 30
0.0
 10
895.0585100633285
 20
908.5275495992397
 30
0.0
 10
895.0526338244846
 20
915.2545871304081
 30
0.0
 10
895.0568109775321
 20
921.4364197850521
 30
0.0
 10
895.061882563907
 20
924.9845953569803
 30
0.0
 10
895.0633940200072
 20
926.0420379826647
 30
0.0
  0
ARC
  5
17B
330
1F
100
AcDbEntity
  8
0
  6
Continuous
 62
     8
370
    18
100
AcDbCircle
 10
893.8007458385
 20
892.8856219219
 30
0.0
 40
4.110023726137917
100
AcDbArc
 50
269.0113235701
 51
288.0236522038
  0
SPLINE
  5
17C
330
1F
100
AcDbEntity
  8
0
  6
Continuous
 62
     8
370
    18
100
AcDbSpline
210
0.0
220
0.0
230
1.0
 70
     8
 71
     3
 72
    15
 73
    11
 74
     0
 42
0.000000001
 43
0.00000001
 40
0.0
 40
0.0
 40
0.0
 40
0.0
 40
0.1218108071682439
 40
0.2436370712175769
 40
0.3683237008591786
 40
0.4930006049623414
 40
0.6185872654155515
 40
0.7450342089745452
 40
0.8719905011408465
 40
1.0
 40
1.0
 40
1.0
 40
1.0
 10
897.1129170959457
 20
925.848899590126
 30
0.0
 10
897.1296515437066
 20
924.371235901271
 30
0.0
 10
897.163122562705
 20
921.4157210190815
 30
0.0
 10
897.1970660507317
 20
916.8660146486318
 30
0.0
 10
897.1935131830492
 20
912.2567254083874
 30
0.0
 10
897.1614231880563
 20
907.5926410331546
 30
0.0
 10
897.1125530531798
 20
902.9280689821584
 30
0.0
 10
897.0599769123669
 20
898.2930439042158
 30
0.0
 10
897.0163622236635
 20
893.7075375941407
 30
0.0
 10
897.0132183812545
 20
890.7635085504805
 30
0.0
 10
897.0116399667951
 20
889.2854134656852
 30
0.0
  0
ARC
  5
17D
330
1F
100
AcDbEntity
  8
0
  6
Continuous
 62
     8
370
    18
100
AcDbCircle
 10
896.9835302217
 20
883.2060785393
 30
0.0
 40
6.079399913233832
100
AcDbArc
 50
89.7350765674
 51
108.3220185194
  0
ARC
  5
17E
330
1F
100
AcDbEntity
  8
0
  6
Continuous
 62
     8
370
    18
100
AcDbCircle
 10
896.9716579673
 20
935.3209148159
 30
0.0
 40
9.473068488057352
100
AcDbArc
 50
258.3787652821
 51
270.8544065606
  0
SPLINE
  5
17F
330
1F
100
AcDbEntity
  8
0
  6
Continuous
 62
     8
370
    18
100
AcDbSpline
210
0.0
220
0.0
230
1.0
 70
     8
 71
     3
 72
    14
 73
    10
 74
     0
 42
0.000000001
 43
0.00000001
 40
0.0
 40
0.0
 40
0.0
 40
0.0
 40
0.1277343155300077
 40
0.2554736424748444
 40
0.3815295141036659
 40
0.5075900262817672
 40
0.7106819552121049
 40
0.9137761853277881
 40
1.0
 40
1.0
 40
1.0
 40
1.0
 10
806.1252248987169
 20
888.977281703007
 30
0.0
 10
806.1237525282165
 20
890.4730347268322
 30
0.0
 10
806.12080772945
 20
893.4645994575301
 30
0.0
 10
806.1246040809576
 20
898.1085347782886
 30
0.0
 10
806.1302655393137
 20
902.8144348653314
 30
0.0
 10
806.1391413581795
 20
908.5275495992397
 30
0.0
 10
806.1450175970233
 20
915.2545871304081
 30
0.0
 10
806.1408404439759
 20
921.4364197850521
 30
0.0
 10
806.135768857601
 20
924.9845953569803
 30
0.0
 10
806.1342574015008
 20
926.0420379826647
 30
0.0
  0
ARC
  5
180
330
1F
100
AcDbEntity
  8
0
  6
Continuous
 62
     8
370
    18
100
AcDbCircle
 10
807.4865358383
 20
920.0969529285
 30
0.0
 40
6.09694130460643
100
AcDbArc
 50
89.6346559709
 51
102.8145546267
  0
SPLINE
  5
181
330
1F
100
AcDbEntity
  8
0
  6
Continuous
 62
     8
370
    18
100
AcDbSpline
210
0.0
220
0.0
230
1.0
 70
     8
 71
     3
 72
    15
 73
    11
 74
     0
 42
0.000000001
 43
0.00000001
 40
0.0
 40
0.0
 40
0.0
 40
0.0
 40
0.1296751856895535
 40
0.2603236017833785
 40
0.3857110192553664
 40
0.511098425499911
 40
0.6401297224178635
 40
0.7691607189086033
 40
0.8842417785355203
 40
0.9999999999999999
 40
0.9999999999999999
 40
0.9999999999999999
 40
0.9999999999999999
 10
807.4678232311919
 20
888.7762100763078
 30
0.0
 10
807.4667163597857
 20
890.3102669591001
 30
0.0
 10
807.4644943097488
 20
893.3898940361348
 30
0.0
 10
807.4898911880086
 20
898.1309965443095
 30
0.0
 10
807.5206545869014
 20
902.9027893731508
 30
0.0
 10
807.55116154733
 20
907.7172694024047
 30
0.0
 10
807.5724322906591
 20
912.605433415256
 30
0.0
 10
807.5740503198615
 20
917.3531182259649
 30
0.0
 10
807.5541231296502
 20
921.8990855781861
 30
0.0
 10
807.5350013770503
 20
924.7594118152948
 30
0.0
 10
807.5254124541349
 20
926.1937702851809
 30
0.0
  0
ARC
  5
182
330
1F
100
AcDbEntity
  8
0
  6
Continuous
 62
     8
370
    18
100
AcDbCircle
 10
807.396905583
 20
892.8856219219
 30
0.0
 40
4.110023726138829
100
AcDbArc
 50
251.9763477962
 51
270.9886764299
  0
ARC
  5
183
330
1F
100
AcDbEntity
  8
0
  6
Continuous
 62
     8
370
    18
100
AcDbCircle
 10
804.2141211998
 20
883.2060785393
 30
0.0
 40
6.079399913233724
100
AcDbArc
 50
71.6779814806
 51
90.2649234326
  0
SPLINE
  5
184
330
1F
100
AcDbEntity
  8
0
  6
Continuous
 62
     8
370
    18
100
AcDbSpline
210
0.0
220
0.0
230
1.0
 70
     8
 71
     3
 72
    15
 73
    11
 74
     0
 42
0.000000001
 43
0.00000001
 40
0.0
 40
0.0
 40
0.0
 40
0.0
 40
0.1218108071687458
 40
0.2436370712180094
 40
0.36832370085954
 40
0.4930006049626318
 40
0.6185872654157705
 40
0.7450342089746922
 40
0.8719905011409211
 40
1.0
 40
1.0
 40
1.0
 40
1.0
 10
804.0847343255625
 20
925.8488995901467
 30
0.0
 10
804.0679998778015
 20
924.3712359012846
 30
0.0
 10
804.034528858803
 20
921.4157210190887
 30
0.0
 10
804.0005853707763
 20
916.8660146486318
 30
0.0
 10
804.0041382384588
 20
912.2567254083874
 30
0.0
 10
804.0362282334517
 20
907.5926410331546
 30
0.0
 10
804.0850983683281
 20
902.9280689821584
 30
0.0
 10
804.1376745091411
 20
898.2930439042158
 30
0.0
 10
804.1812891978445
 20
893.7075375941407
 30
0.0
 10
804.1844330402533
 20
890.7635085504805
 30
0.0
 10
804.1860114547129
 20
889.2854134656852
 30
0.0
  0
ARC
  5
185
330
1F
100
AcDbEntity
  8
0
  6
Continuous
 62
     8
370
    18
100
AcDbCircle
 10
804.2259934545
 20
935.3209148139
 30
0.0
 40
9.473068485967922
100
AcDbArc
 50
269.1455934375
 51
281.6212347187
  0
LINE
  5
186
330
1F
100
AcDbEntity
  8
0
  6
Continuous
 62
     8
370
    18
100
AcDbLine
 10
887.3868256968
 20
888.7762100763
 30
0.0
 11
893.7298281903
 21
888.7762100763
 31
0.0
  0
LINE
  5
187
330
1F
100
AcDbEntity
  8
0
  6
Continuous
 62
     8
370
    18
100
AcDbLine
 10
887.491152213
 20
926.1937702852
 30
0.0
 11
893.6722389674
 21
926.1937702852
 31
0.0
  0
LINE
  5
188
330
1F
100
AcDbEntity
  8
0
  6
Continuous
 62
     8
370
    18
100
AcDbLine
 10
813.8108257247
 20
888.7762100763
 30
0.0
 11
807.4678232312
 21
888.7762100763
 31
0.0
  0
LINE
  5
189
330
1F
100
AcDbEntity
  8
0
  6
Continuous
 62
     8
370
    18
100
AcDbLine
 10
813.7064992086
 20
926.1937702852
 30
0.0
 11
807.5254124541
 21
926.1937702852
 31
0.0
  0
SPLINE
  5
18A
330
1F
100
AcDbEntity
  8
0
  6
Continuous
 62
     8
370
    18
100
AcDbSpline
210
0.0
220
0.0
230
1.0
 70
     8
 71
     3
 72
     9
 73
     5
 74
     0
 42
0.000000001
 43
0.00000001
 40
0.0
 40
0.0
 40
0.0
 40
0.0
 40
0.5312992304132409
 40
1.0
 40
1.0
 40
1.0
 40
1.0
 10
773.6906075211805
 20
940.9167666919873
 30
0.0
 10
773.1535354161355
 20
940.9052216020749
 30
0.0
 10
772.142669835496
 20
940.8834916818128
 30
0.0
 10
771.2038610810497
 20
940.3560148458286
 30
0.0
 10
770.7638406953458
 20
940.1087860468635
 30
0.0
  0
SPLINE
  5
18B
330
1F
100
AcDbEntity
  8
0
  6
Continuous
 62
     8
370
    18
100
AcDbSpline
210
0.0
220
0.0
230
1.0
 70
     8
 71
     3
 72
    10
 73
     6
 74
     0
 42
0.000000001
 43
0.00000001
 40
0.0
 40
0.0
 40
0.0
 40
0.0
 40
0.2501164345013532
 40
0.5003914078854874
 40
1.0
 40
1.0
 40
1.0
 40
1.0
 10
775.2706735032208
 20
944.1436246693536
 30
0.0
 10
775.0778474831629
 20
943.9366577510069
 30
0.0
 10
774.6920732182847
 20
943.5225927261971
 30
0.0
 10
774.1012815245386
 20
942.4583184065734
 30
0.0
 10
773.8548152430022
 20
941.5331550999524
 30
0.0
 10
773.6906075211805
 20
940.9167666919873
 30
0.0
  0
SPLINE
  5
18C
330
1F
100
AcDbEntity
  8
0
  6
Continuous
 62
     8
370
    18
100
AcDbSpline
210
0.0
220
0.0
230
1.0
 70
     8
 71
     3
 72
    13
 73
     9
 74
     0
 42
0.000000001
 43
0.00000001
 40
0.0
 40
0.0
 40
0.0
 40
0.0
 40
0.0000030459257213
 40
0.1018249440802076
 40
0.3058151503496869
 40
0.5135779190274969
 40
0.7536343253422895
 40
1.0
 40
1.0
 40
1.0
 40
1.0
 10
769.0603579700595
 20
944.7612598286166
 30
0.0
 10
769.060357954283
 20
944.7612597053866
 30
0.0
 10
769.0598305456722
 20
944.7571401365836
 30
0.0
 10
769.1247415864005
 20
944.7330252139838
 30
0.0
 10
769.5681298024377
 20
944.633279127868
 30
0.0
 10
770.7047499352282
 20
944.4567373579835
 30
0.0
 10
772.5123791053256
 20
944.272996540826
 30
0.0
 10
774.3433257752876
 20
944.1871199217677
 30
0.0
 10
775.270673503223
 20
944.1436246693538
 30
0.0
  0
SPLINE
  5
18D
330
1F
100
AcDbEntity
  8
0
  6
Continuous
 62
     8
370
    18
100
AcDbSpline
210
0.0
220
0.0
230
1.0
 70
     8
 71
     3
 72
    10
 73
     6
 74
     0
 42
0.000000001
 43
0.00000001
 40
0.0
 40
0.0
 40
0.0
 40
0.0
 40
0.3338923421665672
 40
0.6677930433665691
 40
1.0
 40
1.0
 40
1.0
 40
1.0
 10
850.598825710754
 20
887.3876830713498
 30
0.0
 10
846.8449997725563
 20
887.3400063588583
 30
0.0
 10
839.3372539186942
 20
887.2446517402838
 30
0.0
 10
828.0932085812099
 20
887.1354918538888
 30
0.0
 10
820.602729592816
 20
887.1503017090968
 30
0.0
 10
816.8670133025175
 20
887.1576878078287
 30
0.0
  0
SPLINE
  5
18E
330
1F
100
AcDbEntity
  8
0
  6
Continuous
 62
     8
370
    18
100
AcDbSpline
210
0.0
220
0.0
230
1.0
 70
     8
 71
     3
 72
    11
 73
     7
 74
     0
 42
0.000000001
 43
0.00000001
 40
0.0
 40
0.0
 40
0.0
 40
0.0
 40
0.2496124178157565
 40
0.499392501294277
 40
0.7496279495654328
 40
1.0
 40
1.0
 40
1.0
 40
1.0
 10
816.8670133025175
 20
887.1576878078287
 30
0.0
 10
816.8807959473479
 20
887.3268413441677
 30
0.0
 10
816.9083704948663
 20
887.6652620379552
 30
0.0
 10
816.9332857028676
 20
888.1781601640645
 30
0.0
 10
816.9484984426523
 20
888.694464983205
 30
0.0
 10
816.9491213537173
 20
889.0415193191718
 30
0.0
 10
816.9494328942374
 20
889.2150938379972
 30
0.0
  0
SPLINE
  5
18F
330
1F
100
AcDbEntity
  8
0
  6
Continuous
 62
     8
370
    18
100
AcDbSpline
210
0.0
220
0.0
230
1.0
 70
     8
 71
     3
 72
    12
 73
     8
 74
     0
 42
0.000000001
 43
0.00000001
 40
0.0
 40
0.0
 40
0.0
 40
0.0
 40
0.2220966650633202
 40
0.4442687247069819
 40
0.6667072275023748
 40
0.889259615140264
 40
1.0
 40
1.0
 40
1.0
 40
1.0
 10
817.0935631468557
 20
925.8927574199516
 30
0.0
 10
817.083216841823
 20
926.7001951549876
 30
0.0
 10
817.0625207195241
 20
928.3153447238587
 30
0.0
 10
817.0289147362624
 20
930.7264850977001
 30
0.0
 10
816.9987645590851
 20
933.1265919658468
 30
0.0
 10
816.9810403565627
 20
935.1129367989571
 30
0.0
 10
816.977277826774
 20
936.2952716375571
 30
0.0
 10
816.9760276826628
 20
936.6881160850334
 30
0.0
  0
SPLINE
  5
190
330
1F
100
AcDbEntity
  8
0
  6
Continuous
 62
     8
370
    18
100
AcDbSpline
210
0.0
220
0.0
230
1.0
 70
     8
 71
     3
 72
    11
 73
     7
 74
     0
 42
0.000000001
 43
0.00000001
 40
0.0
 40
0.0
 40
0.0
 40
0.0
 40
0.5574252101162344
 40
0.8582360298868995
 40
0.9999887157360184
 40
0.9999999999999999
 40
0.9999999999999999
 40
0.9999999999999999
 40
0.9999999999999999
 10
816.9760276826628
 20
936.6881160850334
 30
0.0
 10
816.934667843385
 20
937.6015090657343
 30
0.0
 10
816.8709884409928
 20
939.0078085140851
 30
0.0
 10
816.2589173383174
 20
940.5461003229194
 30
0.0
 10
815.7850646393819
 20
941.1129319609582
 30
0.0
 10
815.6088301898449
 20
941.2705088703566
 30
0.0
 10
815.6088161617666
 20
941.270521413314
 30
0.0
  0
SPLINE
  5
191
330
1F
100
AcDbEntity
  8
0
  6
Continuous
 62
     8
370
    18
100
AcDbSpline
210
0.0
220
0.0
230
1.0
 70
     8
 71
     3
 72
    11
 73
     7
 74
     0
 42
0.000000001
 43
0.00000001
 40
0.0
 40
0.0
 40
0.0
 40
0.0
 40
0.0000403578894628
 40
0.1670896913901435
 40
0.6133765181114895
 40
1.0
 40
1.0
 40
1.0
 40
1.0
 10
815.6088161617666
 20
941.270521413314
 30
0.0
 10
815.6087990886917
 20
941.2705310304352
 30
0.0
 10
815.5381131617405
 20
941.3103478254303
 30
0.0
 10
815.2735357859436
 20
941.4470800678323
 30
0.0
 10
814.8078039901208
 20
941.6182700176398
 30
0.0
 10
814.3946322033773
 20
941.647189472054
 30
0.0
 10
814.2028445485032
 20
941.6606134146375
 30
0.0
  0
SPLINE
  5
192
330
1F
100
AcDbEntity
  8
0
  6
Continuous
 62
     8
370
    18
100
AcDbSpline
210
0.0
220
0.0
230
1.0
 70
     8
 71
     3
 72
    10
 73
     6
 74
     0
 42
0.000000001
 43
0.00000001
 40
0.0
 40
0.0
 40
0.0
 40
0.0
 40
0.499971402989263
 40
0.7499819753515055
 40
1.0
 40
1.0
 40
1.0
 40
1.0
 10
814.2028445485032
 20
941.6606134146375
 30
0.0
 10
813.0182674205613
 20
941.675630148103
 30
0.0
 10
811.2413428023566
 20
941.6981559953025
 30
0.0
 10
808.872663024556
 20
941.742964564823
 30
0.0
 10
807.6885293476604
 20
941.7700109437678
 30
0.0
 10
807.0964536852142
 20
941.7835343347859
 30
0.0
  0
SPLINE
  5
193
330
1F
100
AcDbEntity
  8
0
  6
Continuous
 62
     8
370
    18
100
AcDbSpline
210
0.0
220
0.0
230
1.0
 70
     8
 71
     3
 72
    11
 73
     7
 74
     0
 42
0.000000001
 43
0.00000001
 40
0.0
 40
0.0
 40
0.0
 40
0.0
 40
0.2986044395550517
 40
0.5785107697799357
 40
0.9999675635113945
 40
0.9999999999999999
 40
0.9999999999999999
 40
0.9999999999999999
 40
0.9999999999999999
 10
807.0964536852142
 20
941.7835343347859
 30
0.0
 10
806.911567759199
 20
941.7776982556638
 30
0.0
 10
806.5533731538543
 20
941.7663915429088
 30
0.0
 10
805.9600657312103
 20
941.5929575950308
 30
0.0
 10
805.5846940535293
 20
941.3872526889696
 30
0.0
 10
805.3758090935225
 20
941.2420186379629
 30
0.0
 10
805.3757930183915
 20
941.242007461206
 30
0.0
  0
SPLINE
  5
194
330
1F
100
AcDbEntity
  8
0
  6
Continuous
 62
     8
370
    18
100
AcDbSpline
210
0.0
220
0.0
230
1.0
 70
     8
 71
     3
 72
    12
 73
     8
 74
     0
 42
0.000000001
 43
0.00000001
 40
0.0
 40
0.0
 40
0.0
 40
0.0
 40
0.000011396415736
 40
0.0165615426255362
 40
0.2254762501776675
 40
0.6569695733750679
 40
1.0
 40
1.0
 40
1.0
 40
1.0
 10
805.3757930183915
 20
941.242007461206
 30
0.0
 10
805.3757802369095
 20
941.241993652551
 30
0.0
 10
805.3572058830845
 20
941.2219265863458
 30
0.0
 10
805.1085957152148
 20
940.9452276072508
 30
0.0
 10
804.5566357909112
 20
940.0089919130171
 30
0.0
 10
804.2244424731118
 20
938.4340108658727
 30
0.0
 10
804.185317836577
 20
937.1822465111152
 30
0.0
 10
804.1679898453242
 20
936.6278500052044
 30
0.0
  0
SPLINE
  5
195
330
1F
100
AcDbEntity
  8
0
  6
Continuous
 62
     8
370
    18
100
AcDbSpline
210
0.0
220
0.0
230
1.0
 70
     8
 71
     3
 72
    11
 73
     7
 74
     0
 42
0.000000001
 43
0.00000001
 40
0.0
 40
0.0
 40
0.0
 40
0.0
 40
0.0305897753196169
 40
0.4574837200242683
 40
0.8849707948411168
 40
1.0
 40
1.0
 40
1.0
 40
1.0
 10
804.1679898453242
 20
936.6278500052044
 30
0.0
 10
804.1677780862311
 20
936.5194123717545
 30
0.0
 10
804.1646111346387
 20
934.897679246127
 30
0.0
 10
804.1426588047885
 20
931.735360577509
 30
0.0
 10
804.1068720703481
 20
928.2359543942849
 30
0.0
 10
804.0886070419666
 20
926.266484415833
 30
0.0
 10
804.0847343255625
 20
925.8488995901467
 30
0.0
  0
SPLINE
  5
196
330
1F
100
AcDbEntity
  8
0
  6
Continuous
 62
     8
370
    18
100
AcDbSpline
210
0.0
220
0.0
230
1.0
 70
     8
 71
     3
 72
    11
 73
     7
 74
     0
 42
0.000000001
 43
0.00000001
 40
0.0
 40
0.0
 40
0.0
 40
0.0
 40
0.2497483434205757
 40
0.4995910745125013
 40
0.7497381638062615
 40
1.0
 40
1.0
 40
1.0
 40
1.0
 10
804.1860114547129
 20
889.2854134656852
 30
0.0
 10
804.186596009163
 20
889.1171496906733
 30
0.0
 10
804.1877653389846
 20
888.7805585485324
 30
0.0
 10
804.2010631576527
 20
888.278594550882
 30
0.0
 10
804.222307182543
 20
887.7785899186974
 30
0.0
 10
804.2455730682467
 20
887.4476748800407
 30
0.0
 10
804.2572086786051
 20
887.2821794202671
 30
0.0
  0
SPLINE
  5
197
330
1F
100
AcDbEntity
  8
0
  6
Continuous
 62
     8
370
    18
100
AcDbSpline
210
0.0
220
0.0
230
1.0
 70
     8
 71
     3
 72
    13
 73
     9
 74
     0
 42
0.000000001
 43
0.00000001
 40
0.0
 40
0.0
 40
0.0
 40
0.0
 40
0.0962667746159397
 40
0.2940156413053787
 40
0.4916798868354735
 40
0.6816275206310735
 40
0.8716452540567035
 40
1.0
 40
1.0
 40
1.0
 40
1.0
 10
804.2572086786051
 20
887.2821794202671
 30
0.0
 10
803.3561071631472
 20
887.297840976806
 30
0.0
 10
800.6039848342792
 20
887.3456741218138
 30
0.0
 10
796.0020230354714
 20
887.4308545611402
 30
0.0
 10
790.6993664807752
 20
887.4865398557077
 30
0.0
 10
785.8155455260153
 20
887.5505248739282
 30
0.0
 10
781.855529371584
 20
887.5738579439292
 30
0.0
 10
779.6702540684663
 20
887.5689800896184
 30
0.0
 10
778.789240555917
 20
887.5670135385144
 30
0.0
  0
SPLINE
  5
198
330
1F
100
AcDbEntity
  8
0
  6
Continuous
 62
     8
370
    18
100
AcDbSpline
210
0.0
220
0.0
230
1.0
 70
     8
 71
     3
 72
    14
 73
    10
 74
     0
 42
0.000000001
 43
0.00000001
 40
0.0
 40
0.0
 40
0.0
 40
0.0
 40
0.1540452827483013
 40
0.3116222464355641
 40
0.4736470130680897
 40
0.5996984326434176
 40
0.7292828690649423
 40
0.8636611914059705
 40
0.9999999999999999
 40
0.9999999999999999
 40
0.9999999999999999
 40
0.9999999999999999
 10
771.7685585862863
 20
912.7577354336122
 30
0.0
 10
772.1853440239622
 20
911.4699684699602
 30
0.0
 10
773.0284702271994
 20
908.8649108730039
 30
0.0
 10
774.5926855768671
 20
904.8926630658698
 30
0.0
 10
775.9951342492873
 20
901.0849032193872
 30
0.0
 10
777.1321952598545
 20
897.4875502758471
 30
0.0
 10
777.9758531423163
 20
894.1498025251095
 30
0.0
 10
778.5844515790154
 20
890.7836567778413
 30
0.0
 10
778.7206487914626
 20
888.6443920124145
 30
0.0
 10
778.789240555917
 20
887.5670135385143
 30
0.0
  0
SPLINE
  5
199
330
1F
100
AcDbEntity
  8
0
  6
Continuous
 62
     8
370
    18
100
AcDbSpline
210
0.0
220
0.0
230
1.0
 70
     8
 71
     3
 72
    13
 73
     9
 74
     0
 42
0.000000001
 43
0.00000001
 40
0.0
 40
0.0
 40
0.0
 40
0.0
 40
0.1618862740478736
 40
0.4859813308333592
 40
0.652322531996656
 40
0.8182546961188785
 40
0.9086785571273394
 40
1.0
 40
1.0
 40
1.0
 40
1.0
 10
770.7638413075074
 20
940.1087864134528
 30
0.0
 10
770.8889758333776
 20
938.7615347939603
 30
0.0
 10
771.264628703105
 20
934.717095950339
 30
0.0
 10
771.6088324453883
 20
928.9409154663133
 30
0.0
 10
771.8077368071217
 20
922.9203481846662
 30
0.0
 10
771.831244777842
 20
918.8640816089966
 30
0.0
 10
771.8058153892138
 20
915.4520929920405
 30
0.0
 10
771.7810183421542
 20
913.6588067752368
 30
0.0
 10
771.7685585862864
 20
912.7577354336122
 30
0.0
  0
SPLINE
  5
19A
330
1F
100
AcDbEntity
  8
0
  6
Continuous
 62
     8
370
    18
100
AcDbSpline
210
0.0
220
0.0
230
1.0
 70
     8
 71
     3
 72
    10
 73
     6
 74
     0
 42
0.000000001
 43
0.00000001
 40
0.0
 40
0.0
 40
0.0
 40
0.0
 40
0.0305940699862589
 40
0.8849546452570456
 40
1.0
 40
1.0
 40
1.0
 40
1.0
 10
897.0296615761836
 20
936.6278500052044
 30
0.0
 10
897.0298737131386
 20
936.519411781827
 30
0.0
 10
897.0360099213602
 20
933.3827611320609
 30
0.0
 10
897.076455489621
 20
929.784974668863
 30
0.0
 10
897.1090490213783
 20
926.2664629791813
 30
0.0
 10
897.1129170959457
 20
925.848899590126
 30
0.0
  0
SPLINE
  5
19B
330
1F
100
AcDbEntity
  8
0
  6
Continuous
 62
     8
370
    18
100
AcDbSpline
210
0.0
220
0.0
230
1.0
 70
     8
 71
     3
 72
    12
 73
     8
 74
     0
 42
0.000000001
 43
0.00000001
 40
0.0
 40
0.0
 40
0.0
 40
0.0
 40
0.0000113964157506
 40
0.0165615426255506
 40
0.2254762501776768
 40
0.6569695733750744
 40
0.9999999999999999
 40
0.9999999999999999
 40
0.9999999999999999
 40
0.9999999999999999
 10
895.8218584031164
 20
941.242007461206
 30
0.0
 10
895.8218711845983
 20
941.241993652551
 30
0.0
 10
895.8404455384481
 20
941.221926586357
 30
0.0
 10
896.0890557061396
 20
940.945227607182
 30
0.0
 10
896.641015630741
 20
940.0089919130818
 30
0.0
 10
896.9732089483608
 20
938.4340108658569
 30
0.0
 10
897.0123335849199
 20
937.1822465111103
 30
0.0
 10
897.0296615761836
 20
936.6278500052044
 30
0.0
  0
SPLINE
  5
19C
330
1F
100
AcDbEntity
  8
0
  6
Continuous
 62
     8
370
    18
100
AcDbSpline
210
0.0
220
0.0
230
1.0
 70
     8
 71
     3
 72
    11
 73
     7
 74
     0
 42
0.000000001
 43
0.00000001
 40
0.0
 40
0.0
 40
0.0
 40
0.0
 40
0.298604439554899
 40
0.5785107697798623
 40
0.9999675635114406
 40
1.0
 40
1.0
 40
1.0
 40
1.0
 10
894.1011977362942
 20
941.783534334786
 30
0.0
 10
894.2860836623091
 20
941.7776982556662
 30
0.0
 10
894.6442782676534
 20
941.7663915429157
 30
0.0
 10
895.2375856902999
 20
941.5929575949997
 30
0.0
 10
895.6129573679713
 20
941.3872526890738
 30
0.0
 10
895.8218423279855
 20
941.2420186379629
 30
0.0
 10
895.8218584031164
 20
941.242007461206
 30
0.0
  0
LINE
  5
19D
330
1F
100
AcDbEntity
  8
0
  6
Continuous
 62
     8
370
    18
100
AcDbLine
 10
886.994806873
 20
941.6606134146
 30
0.0
 11
894.1011977363
 21
941.7835343348
 31
0.0
  0
SPLINE
  5
19E
330
1F
100
AcDbEntity
  8
0
  6
Continuous
 62
     8
370
    18
100
AcDbSpline
210
0.0
220
0.0
230
1.0
 70
     8
 71
     3
 72
    11
 73
     7
 74
     0
 42
0.000000001
 43
0.00000001
 40
0.0
 40
0.0
 40
0.0
 40
0.0
 40
0.0000403578891985
 40
0.1670896913899266
 40
0.6133765181113993
 40
1.0
 40
1.0
 40
1.0
 40
1.0
 10
885.5888352597417
 20
941.270521413314
 30
0.0
 10
885.5888523328165
 20
941.2705310304352
 30
0.0
 10
885.6595382595799
 20
941.3103478257132
 30
0.0
 10
885.9241156358057
 20
941.4470800674691
 30
0.0
 10
886.3898474313178
 20
941.6182700177443
 30
0.0
 10
886.8030192181087
 20
941.6471894720871
 30
0.0
 10
886.9948068730048
 20
941.6606134146373
 30
0.0
  0
SPLINE
  5
19F
330
1F
100
AcDbEntity
  8
0
  6
Continuous
 62
     8
370
    18
100
AcDbSpline
210
0.0
220
0.0
230
1.0
 70
     8
 71
     3
 72
    11
 73
     7
 74
     0
 42
0.000000001
 43
0.00000001
 40
0.0
 40
0.0
 40
0.0
 40
0.0
 40
0.5574252101161976
 40
0.858236029886847
 40
0.9999887157359549
 40
0.9999999999999999
 40
0.9999999999999999
 40
0.9999999999999999
 40
0.9999999999999999
 10
884.2216237388452
 20
936.6881160850334
 30
0.0
 10
884.2629835778906
 20
937.6015090659749
 30
0.0
 10
884.3266629799251
 20
939.0078085146963
 30
0.0
 10
884.9387340841089
 20
940.5461003219682
 30
0.0
 10
885.412586781205
 20
941.1129319619124
 30
0.0
 10
885.5888212316635
 20
941.2705088703566
 30
0.0
 10
885.5888352597417
 20
941.270521413314
 30
0.0
  0
SPLINE
  5
1A0
330
1F
100
AcDbEntity
  8
0
  6
Continuous
 62
     8
370
    18
100
AcDbSpline
210
0.0
220
0.0
230
1.0
 70
     8
 71
     3
 72
     9
 73
     5
 74
     0
 42
0.000000001
 43
0.00000001
 40
0.0
 40
0.0
 40
0.0
 40
0.0
 40
0.8892351459151955
 40
1.0
 40
1.0
 40
1.0
 40
1.0
 10
884.1040882746522
 20
925.8927574199517
 30
0.0
 10
884.1531507812695
 20
929.1197457763033
 30
0.0
 10
884.2083246088478
 20
932.7486940597523
 30
0.0
 10
884.2202975569911
 20
936.2952791094989
 30
0.0
 10
884.2216237388452
 20
936.6881160850334
 30
0.0
  0
LINE
  5
1A1
330
1F
100
AcDbEntity
  8
0
  6
Continuous
 62
     8
370
    18
100
AcDbLine
 10
884.330638119
 20
887.1576878078
 30
0.0
 11
884.2482185273
 21
889.215093838
 31
0.0
  0
SPLINE
  5
1A2
330
1F
100
AcDbEntity
  8
0
  6
Continuous
 62
     8
370
    18
100
AcDbSpline
210
0.0
220
0.0
230
1.0
 70
     8
 71
     3
 72
    11
 73
     7
 74
     0
 42
0.000000001
 43
0.00000001
 40
0.0
 40
0.0
 40
0.0
 40
0.0
 40
0.3338916488444801
 40
0.6677916567050377
 40
0.8526868417686395
 40
1.0
 40
1.0
 40
1.0
 40
1.0
 10
850.598825710754
 20
887.3876830713498
 30
0.0
 10
854.352653316432
 20
887.3395069118468
 30
0.0
 10
861.8604025052964
 20
887.2431533867451
 30
0.0
 10
871.4480506292265
 20
887.156451487111
 30
0.0
 10
878.9384359704517
 20
887.1383097867529
 30
0.0
 10
882.6741069190447
 20
887.1517347119282
 30
0.0
 10
884.3306381189904
 20
887.1576878078287
 30
0.0
  0
SPLINE
  5
1A3
330
1F
100
AcDbEntity
  8
0
  6
Continuous
 62
     8
370
    18
100
AcDbSpline
210
0.0
220
0.0
230
1.0
 70
     8
 71
     3
 72
    18
 73
    14
 74
     0
 42
0.000000001
 43
0.00000001
 40
0.0
 40
0.0
 40
0.0
 40
0.0
 40
0.0497884573622645
 40
0.1520626953522979
 40
0.2542931679102726
 40
0.3525326664706578
 40
0.4508084200365188
 40
0.554327393413247
 40
0.6578565275352433
 40
0.7740307271288591
 40
0.8901694733964015
 40
0.9999988953086802
 40
1.0
 40
1.0
 40
1.0
 40
1.0
 10
896.940442742903
 20
887.2821794202671
 30
0.0
 10
897.8415330180001
 20
887.2978403164609
 30
0.0
 10
900.5936210168311
 20
887.3456714446592
 30
0.0
 10
905.1960514249442
 20
887.4308794136898
 30
0.0
 10
910.4967614391625
 20
887.4864503535423
 30
0.0
 10
915.3875389905071
 20
887.550844055594
 30
0.0
 10
919.8807113562948
 20
887.5759337081888
 30
0.0
 10
923.9123507044022
 20
887.5647829014413
 30
0.0
 10
927.522547992317
 20
887.5178862372697
 30
0.0
 10
930.4346438385923
 20
887.4390049018481
 30
0.0
 10
932.4144595698427
 20
887.3137335765922
 30
0.0
 10
933.0061658443037
 20
887.1893739977871
 30
0.0
 10
933.1185835950328
 20
887.1219450599717
 30
0.0
 10
933.1185847257467
 20
887.1219443817618
 30
0.0
  0
LINE
  5
1A4
330
1F
100
AcDbEntity
  8
0
  6
Continuous
 62
     8
370
    18
100
AcDbLine
 10
897.0116399668
 20
889.2854134657
 30
0.0
 11
896.9404427429
 21
887.2821794203
 31
0.0
  0
SPLINE
  5
1A5
330
1F
100
AcDbEntity
  8
0
  6
Continuous
 62
     8
370
    18
100
AcDbSpline
210
0.0
220
0.0
230
1.0
 70
     8
 71
     3
 72
     9
 73
     5
 74
     0
 42
0.000000001
 43
0.00000001
 40
0.0
 40
0.0
 40
0.0
 40
0.0
 40
0.3531288107771146
 40
0.9999999999999999
 40
0.9999999999999999
 40
0.9999999999999999
 40
0.9999999999999999
 10
815.0598114955519
 20
936.9045438218615
 30
0.0
 10
815.0599349343781
 20
935.6395510120595
 30
0.0
 10
815.060284491884
 20
932.0573091467805
 30
0.0
 10
815.0589796598574
 20
928.406657822026
 30
0.0
 10
815.0581356016127
 20
926.0451566581437
 30
0.0
  0
LINE
  5
1A6
330
1F
100
AcDbEntity
  8
0
  6
Continuous
 62
     8
370
    18
100
AcDbLine
 10
813.7928323607
 20
937.0534693199
 30
0.0
 11
813.7064992086
 21
926.1937702852
 31
0.0
  0
ARC
  5
1A7
330
1F
100
AcDbEntity
  8
0
  6
Continuous
 62
     8
370
    18
100
AcDbCircle
 10
813.8401189834
 20
931.9919028873
 30
0.0
 40
5.061787310427436
100
AcDbArc
 50
76.0567432731
 51
90.5352582305
  0
LINE
  5
1A8
330
1F
100
AcDbEntity
  8
0
  6
Continuous
 62
     8
370
    18
100
AcDbLine
 10
887.4048190608
 20
937.0534693199
 30
0.0
 11
887.491152213
 21
926.1937702852
 31
0.0
  0
SPLINE
  5
1A9
330
1F
100
AcDbEntity
  8
0
  6
Continuous
 62
     8
370
    18
100
AcDbSpline
210
0.0
220
0.0
230
1.0
 70
     8
 71
     3
 72
     9
 73
     5
 74
     0
 42
0.000000001
 43
0.00000001
 40
0.0
 40
0.0
 40
0.0
 40
0.0
 40
0.3531288107771143
 40
1.0
 40
1.0
 40
1.0
 40
1.0
 10
886.1378399259561
 20
936.9045438218615
 30
0.0
 10
886.1377164871298
 20
935.6395510120595
 30
0.0
 10
886.1373669296239
 20
932.0573091467805
 30
0.0
 10
886.1386717616506
 20
928.406657822026
 30
0.0
 10
886.1395158198953
 20
926.0451566581437
 30
0.0
  0
ARC
  5
1AA
330
1F
100
AcDbEntity
  8
0
  6
Continuous
 62
     8
370
    18
100
AcDbCircle
 10
887.3575324381
 20
931.9919028873
 30
0.0
 40
5.061787310426185
100
AcDbArc
 50
89.4647417695
 51
103.9432567269
  0
SPLINE
  5
1AB
330
1F
100
AcDbEntity
  8
0
  6
Continuous
 62
     8
370
    18
100
AcDbSpline
210
0.0
220
0.0
230
1.0
 70
     8
 71
     3
 72
     9
 73
     5
 74
     0
 42
0.000000001
 43
0.00000001
 40
0.0
 40
0.0
 40
0.0
 40
0.0
 40
0.8536363407566055
 40
1.0
 40
1.0
 40
1.0
 40
1.0
 10
893.672238967373
 20
926.1937702851809
 30
0.0
 10
893.6928867198542
 20
929.3048511614301
 30
0.0
 10
893.7170747159541
 20
932.9493549480093
 30
0.0
 10
893.7217360599818
 20
936.5294705062583
 30
0.0
 10
893.7224183113507
 20
937.0534693198779
 30
0.0
  0
ARC
  5
1AC
330
1F
100
AcDbEntity
  8
0
  6
Continuous
 62
     8
370
    18
100
AcDbCircle
 10
893.7855582779
 20
932.1589627357
 30
0.0
 40
4.894913825382669
100
AcDbArc
 50
74.7412018828
 51
90.739084295
  0
SPLINE
  5
1AD
330
1F
100
AcDbEntity
  8
0
  6
Continuous
 62
     8
370
    18
100
AcDbSpline
210
0.0
220
0.0
230
1.0
 70
     8
 71
     3
 72
    10
 73
     6
 74
     0
 42
0.000000001
 43
0.00000001
 40
0.0
 40
0.0
 40
0.0
 40
0.0
 40
0.0049102993513455
 40
0.1151643441721923
 40
1.0
 40
1.0
 40
1.0
 40
1.0
 10
895.0633940200072
 20
926.0420379826647
 30
0.0
 10
895.0634161178624
 20
926.0599735447539
 30
0.0
 10
895.0639343927846
 20
926.4806275818205
 30
0.0
 10
895.0692382162582
 20
930.1294172069952
 30
0.0
 10
895.0716521198229
 20
933.7033594972168
 30
0.0
 10
895.0737985674672
 20
936.8813157841702
 30
0.0
  0
SPLINE
  5
1AE
330
1F
100
AcDbEntity
  8
0
  6
Continuous
 62
     8
370
    18
100
AcDbSpline
210
0.0
220
0.0
230
1.0
 70
     8
 71
     3
 72
    10
 73
     6
 74
     0
 42
0.000000001
 43
0.00000001
 40
0.0
 40
0.0
 40
0.0
 40
0.0
 40
0.0049102993513455
 40
0.1151643441721913
 40
1.0
 40
1.0
 40
1.0
 40
1.0
 10
806.1342574015008
 20
926.0420379826647
 30
0.0
 10
806.1342353036455
 20
926.0599735447539
 30
0.0
 10
806.1337170287234
 20
926.4806275818205
 30
0.0
 10
806.1284132052494
 20
930.1294172069948
 30
0.0
 10
806.1259993016849
 20
933.7033594972166
 30
0.0
 10
806.1238528540408
 20
936.8813157841702
 30
0.0
  0
ARC
  5
1AF
330
1F
100
AcDbEntity
  8
0
  6
Continuous
 62
     8
370
    18
100
AcDbCircle
 10
807.4120931436
 20
932.1589627357
 30
0.0
 40
4.894913825382639
100
AcDbArc
 50
89.260915705
 51
105.2587981172
  0
SPLINE
  5
1B0
330
1F
100
AcDbEntity
  8
0
  6
Continuous
 62
     8
370
    18
100
AcDbSpline
210
0.0
220
0.0
230
1.0
 70
     8
 71
     3
 72
     9
 73
     5
 74
     0
 42
0.000000001
 43
0.00000001
 40
0.0
 40
0.0
 40
0.0
 40
0.0
 40
0.8536363407566055
 40
1.0
 40
1.0
 40
1.0
 40
1.0
 10
807.5254124541349
 20
926.1937702851809
 30
0.0
 10
807.5047647016538
 20
929.3048511614301
 30
0.0
 10
807.4805767055539
 20
932.9493549480093
 30
0.0
 10
807.4759153615262
 20
936.5294705062583
 30
0.0
 10
807.4752331101573
 20
937.0534693198779
 30
0.0
  0
LINE
  5
1B1
330
1F
100
AcDbEntity
  8
0
  6
Continuous
 62
     8
370
    18
100
AcDbLine
 10
887.4048190608
 20
937.0534693199
 30
0.0
 11
893.7224183114
 21
937.0534693199
 31
0.0
  0
LINE
  5
1B2
330
1F
100
AcDbEntity
  8
0
  6
Continuous
 62
     8
370
    18
100
AcDbLine
 10
813.7928323607
 20
937.0534693199
 30
0.0
 11
807.4752331102
 21
937.0534693199
 31
0.0
  0
ARC
  5
1B3
330
1F
100
AcDbEntity
  8
0
  6
Continuous
 62
     8
370
    18
100
AcDbCircle
 10
884.327792954
 20
944.3392590308
 30
0.0
 40
7.651879525864524
100
AcDbArc
 50
269.205000142
 51
283.6829680608
  0
ARC
  5
1B4
330
1F
100
AcDbEntity
  8
0
  6
Continuous
 62
     8
370
    18
100
AcDbCircle
 10
816.8698584675
 20
944.3392590308
 30
0.0
 40
7.651879525863615
100
AcDbArc
 50
256.3170319392
 51
270.794999858
  0
ARC
  5
1B5
330
1F
100
AcDbEntity
  8
0
  6
Continuous
 62
     8
370
    18
100
AcDbCircle
 10
896.9807789336
 20
943.9235676368
 30
0.0
 40
7.295881391056218
100
AcDbArc
 50
254.8481769985
 51
270.3838864581
  0
ARC
  5
1B6
330
1F
100
AcDbEntity
  8
0
  6
Continuous
 62
     8
370
    18
100
AcDbCircle
 10
804.2168724879
 20
943.9235676368
 30
0.0
 40
7.295881391053949
100
AcDbArc
 50
269.6161135419
 51
285.1518230015
  0
LINE
  5
1B7
330
1F
100
AcDbEntity
  8
0
  6
Continuous
 62
     8
370
    18
100
AcDbLine
 10
894.7305771041
 20
880.7330493983
 30
0.0
 11
886.437227514
 21
880.9515674397
 31
0.0
  0
SPLINE
  5
1B8
330
1F
100
AcDbEntity
  8
0
  6
Continuous
 62
     8
370
    18
100
AcDbSpline
210
0.0
220
0.0
230
1.0
 70
     8
 71
     3
 72
    14
 73
    10
 74
     0
 42
0.000000001
 43
0.00000001
 40
0.0
 40
0.0
 40
0.0
 40
0.0
 40
0.2135072053924626
 40
0.6517504153225893
 40
0.8731400298126417
 40
0.934036268178021
 40
0.9607431005771446
 40
0.9801118651182413
 40
1.0
 40
1.0
 40
1.0
 40
1.0
 10
896.9266557916515
 20
887.1250675607884
 30
0.0
 10
896.8704085404889
 20
886.5311986922801
 30
0.0
 10
896.6987086241393
 20
884.7183592567872
 30
0.0
 10
896.3412226511567
 20
882.6643352946866
 30
0.0
 10
895.889498766699
 20
881.3328789020304
 30
0.0
 10
895.3904596848855
 20
880.8823083315636
 30
0.0
 10
895.1202573518597
 20
880.7734290227154
 30
0.0
 10
894.9201891218039
 20
880.7339830842499
 30
0.0
 10
894.7943361233705
 20
880.7333633599122
 30
0.0
 10
894.7305771040666
 20
880.7330493982546
 30
0.0
  0
LINE
  5
1B9
330
1F
100
AcDbEntity
  8
0
  6
Continuous
 62
     8
370
    18
100
AcDbLine
 10
896.9404427429
 20
887.2821794203
 30
0.0
 11
896.9266557917
 21
887.1250675608
 31
0.0
  0
LINE
  5
1BA
330
1F
100
AcDbEntity
  8
0
  6
Continuous
 62
     8
370
    18
100
AcDbLine
 10
884.3555803631
 20
886.9063462486
 30
0.0
 11
884.330638119
 21
887.1576878078
 31
0.0
  0
SPLINE
  5
1BB
330
1F
100
AcDbEntity
  8
0
  6
Continuous
 62
     8
370
    18
100
AcDbSpline
210
0.0
220
0.0
230
1.0
 70
     8
 71
     3
 72
    16
 73
    12
 74
     0
 42
0.000000001
 43
0.00000001
 40
0.0
 40
0.0
 40
0.0
 40
0.0
 40
0.0145165183671405
 40
0.0410735496449722
 40
0.0660449140395036
 40
0.1244471074635547
 40
0.1776973896607208
 40
0.2535931164239897
 40
0.363355638148513
 40
0.52237161341208
 40
1.0
 40
1.0
 40
1.0
 40
1.0
 10
886.4372275139848
 20
880.9515674397064
 30
0.0
 10
886.3945652220563
 20
880.9536345892716
 30
0.0
 10
886.273855026872
 20
880.9594834552421
 30
0.0
 10
886.0946937488886
 20
881.0047388341256
 30
0.0
 10
885.8553745821253
 20
881.1187966873846
 30
0.0
 10
885.6477998420706
 20
881.3071717969609
 30
0.0
 10
885.4425060376564
 20
881.5945546135385
 30
0.0
 10
885.245439976829
 20
881.9940992013043
 30
0.0
 10
885.0304607335859
 20
882.6230942795817
 30
0.0
 10
884.6720155786423
 20
884.114764269811
 30
0.0
 10
884.4912190042347
 20
885.7097462254959
 30
0.0
 10
884.3555803630885
 20
886.9063462486471
 30
0.0
  0
SPLINE
  5
1BC
330
1F
100
AcDbEntity
  8
0
  6
Continuous
 62
     8
370
    18
100
AcDbSpline
210
0.0
220
0.0
230
1.0
 70
     8
 71
     3
 72
    11
 73
     7
 74
     0
 42
0.000000001
 43
0.00000001
 40
0.0
 40
0.0
 40
0.0
 40
0.0
 40
0.2495538346597472
 40
0.4992859044642297
 40
0.7495537670223718
 40
1.0
 40
1.0
 40
1.0
 40
1.0
 10
815.0594310054272
 20
888.9453007862315
 30
0.0
 10
815.0594336713555
 20
888.7808921706697
 30
0.0
 10
815.0594390051157
 20
888.451957516412
 30
0.0
 10
815.059285821624
 20
887.9658842482883
 30
0.0
 10
815.0589899808497
 20
887.4847560992381
 30
0.0
 10
815.0580465719368
 20
887.1695771877424
 30
0.0
 10
815.057574699444
 20
887.0119315935765
 30
0.0
  0
LINE
  5
1BD
330
1F
100
AcDbEntity
  8
0
  6
Continuous
 62
     8
370
    18
100
AcDbLine
 10
815.0575746994
 20
887.0119315936
 30
0.0
 11
815.0573799733
 21
886.7526207106
 31
0.0
  0
ARC
  5
1BE
330
1F
100
AcDbEntity
  8
0
  6
Continuous
 62
     8
370
    18
100
AcDbCircle
 10
813.7301902224
 20
889.7860504716
 30
0.0
 40
3.311061574507257
100
AcDbArc
 50
272.5612375388
 51
293.6303960092
  0
LINE
  5
1BF
330
1F
100
AcDbEntity
  8
0
  6
Continuous
 62
     8
370
    18
100
AcDbLine
 10
813.8108257247
 20
888.7762100763
 30
0.0
 11
813.8781521
 21
886.4782965459
 31
0.0
  0
LINE
  5
1C0
330
1F
100
AcDbEntity
  8
0
  6
Continuous
 62
     8
370
    18
100
AcDbLine
 10
814.7459346039
 20
881.0950264134
 30
0.0
 11
806.4334767871
 21
880.876508372
 31
0.0
  0
SPLINE
  5
1C1
330
1F
100
AcDbEntity
  8
0
  6
Continuous
 62
     8
370
    18
100
AcDbSpline
210
0.0
220
0.0
230
1.0
 70
     8
 71
     3
 72
    11
 73
     7
 74
     0
 42
0.000000001
 43
0.00000001
 40
0.0
 40
0.0
 40
0.0
 40
0.0
 40
0.2207300180518623
 40
0.4461207220427132
 40
0.7190979320642268
 40
1.0
 40
1.0
 40
1.0
 40
1.0
 10
806.4334767871096
 20
880.8765083719525
 30
0.0
 10
806.5589833288851
 20
881.154573926603
 30
0.0
 10
806.8126464669216
 20
881.7165763543235
 30
0.0
 10
807.0588554543434
 20
882.9554421724108
 30
0.0
 10
807.2607643845729
 20
884.5451258925158
 30
0.0
 10
807.3568917595152
 20
885.9122397679723
 30
0.0
 10
807.4056431381659
 20
886.6055769806151
 30
0.0
  0
LINE
  5
1C2
330
1F
100
AcDbEntity
  8
0
  6
Continuous
 62
     8
370
    18
100
AcDbLine
 10
807.4056431382
 20
886.6055769806
 30
0.0
 11
807.4678232312
 21
888.7762100763
 31
0.0
  0
SPLINE
  5
1C3
330
1F
100
AcDbEntity
  8
0
  6
Continuous
 62
     8
370
    18
100
AcDbSpline
210
0.0
220
0.0
230
1.0
 70
     8
 71
     3
 72
    13
 73
     9
 74
     0
 42
0.000000001
 43
0.00000001
 40
0.0
 40
0.0
 40
0.0
 40
0.0
 40
0.251895736457775
 40
0.5090013652126328
 40
0.6524342035872432
 40
0.7968440688213693
 40
0.8982334919671393
 40
1.0
 40
1.0
 40
1.0
 40
1.0
 10
813.8781521000448
 20
886.4782965459293
 30
0.0
 10
813.9194464794828
 20
885.9056791449183
 30
0.0
 10
814.0028893189889
 20
884.7486010499978
 30
0.0
 10
814.1506210614152
 20
883.4765557773773
 30
0.0
 10
814.3073401008791
 20
882.5370080047593
 30
0.0
 10
814.4444950647683
 20
881.9397769726728
 30
0.0
 10
814.5895145294314
 20
881.4604591183111
 30
0.0
 10
814.693730099684
 20
881.216987953512
 30
0.0
 10
814.7459346039077
 20
881.0950264134057
 30
0.0
  0
LINE
  5
1C4
330
1F
100
AcDbEntity
  8
0
  6
Continuous
 62
     8
370
    18
100
AcDbLine
 10
887.3868256968
 20
888.7762100763
 30
0.0
 11
887.3194993215
 21
886.4782965459
 31
0.0
  0
ARC
  5
1C5
330
1F
100
AcDbEntity
  8
0
  6
Continuous
 62
     8
370
    18
100
AcDbCircle
 10
887.4674611991
 20
889.7860504716
 30
0.0
 40
3.311061574506457
100
AcDbArc
 50
246.3696039908
 51
267.4387624612
  0
LINE
  5
1C6
330
1F
100
AcDbEntity
  8
0
  6
Continuous
 62
     8
370
    18
100
AcDbLine
 10
886.1400767221
 20
887.0119315936
 30
0.0
 11
886.1402714482
 21
886.7526207106
 31
0.0
  0
LINE
  5
1C7
330
1F
100
AcDbEntity
  8
0
  6
Continuous
 62
     8
370
    18
100
AcDbLine
 10
886.1382204161
 20
888.9453007862
 30
0.0
 11
886.1400767221
 21
887.0119315936
 31
0.0
  0
LINE
  5
1C8
330
1F
100
AcDbEntity
  8
0
  6
Continuous
 62
     8
370
    18
100
AcDbLine
 10
893.7920082833
 20
886.6055769806
 30
0.0
 11
893.7298281903
 21
888.7762100763
 31
0.0
  0
SPLINE
  5
1C9
330
1F
100
AcDbEntity
  8
0
  6
Continuous
 62
     8
370
    18
100
AcDbSpline
210
0.0
220
0.0
230
1.0
 70
     8
 71
     3
 72
    11
 73
     7
 74
     0
 42
0.000000001
 43
0.00000001
 40
0.0
 40
0.0
 40
0.0
 40
0.0
 40
0.2109261931569297
 40
0.4461200284366962
 40
0.7190975802991909
 40
1.0
 40
1.0
 40
1.0
 40
1.0
 10
894.7641746343982
 20
880.8765083719525
 30
0.0
 10
894.6436822359572
 20
881.1412897447921
 30
0.0
 10
894.3888344552503
 20
881.7013163200253
 30
0.0
 10
894.1412990725936
 20
882.9353628118178
 30
0.0
 10
893.9368971324676
 20
884.5451483578997
 30
0.0
 10
893.8407630591171
 20
885.9122473275243
 30
0.0
 10
893.7920082833419
 20
886.6055769806151
 30
0.0
  0
LINE
  5
1CA
330
1F
100
AcDbEntity
  8
0
  6
Continuous
 62
     8
370
    18
100
AcDbLine
 10
886.4517168176
 20
881.0950264134
 30
0.0
 11
894.7641746344
 21
880.876508372
 31
0.0
  0
SPLINE
  5
1CB
330
1F
100
AcDbEntity
  8
0
  6
Continuous
 62
     8
370
    18
100
AcDbSpline
210
0.0
220
0.0
230
1.0
 70
     8
 71
     3
 72
    13
 73
     9
 74
     0
 42
0.000000001
 43
0.00000001
 40
0.0
 40
0.0
 40
0.0
 40
0.0
 40
0.2518958834386562
 40
0.509001662214365
 40
0.6524345842818714
 40
0.7968445337789927
 40
0.9074612140250333
 40
1.0
 40
1.0
 40
1.0
 40
1.0
 10
887.3194993214632
 20
886.4782965459293
 30
0.0
 10
887.2782046403678
 20
885.905679508031
 30
0.0
 10
887.1947611913075
 20
884.7486021468462
 30
0.0
 10
887.0470334039701
 20
883.4765521133844
 30
0.0
 10
886.8903053417708
 20
882.5370152016633
 30
0.0
 10
886.7499256070814
 20
881.9255940526052
 30
0.0
 10
886.6039857984091
 20
881.4483927409498
 30
0.0
 10
886.4993700490076
 20
881.2056139230124
 30
0.0
 10
886.4517168176003
 20
881.0950264134057
 30
0.0
  0
LINE
  5
1CC
330
1F
100
AcDbEntity
  8
0
  6
Continuous
 62
     8
370
    18
100
AcDbLine
 10
895.073118503
 20
887.0873299433
 30
0.0
 11
895.0724265228
 21
888.977281703
 31
0.0
  0
LINE
  5
1CD
330
1F
100
AcDbEntity
  8
0
  6
Continuous
 62
     8
370
    18
100
AcDbLine
 10
895.0735709549
 20
886.9237927665
 30
0.0
 11
895.073118503
 21
887.0873299433
 31
0.0
  0
ARC
  5
1CE
330
1F
100
AcDbEntity
  8
0
  6
Continuous
 62
     8
370
    18
100
AcDbCircle
 10
893.6604643386
 20
889.8751001759
 30
0.0
 40
3.27216835356485
100
AcDbArc
 50
272.3039598199
 51
295.5854253112
  0
LINE
  5
1CF
330
1F
100
AcDbEntity
  8
0
  6
Continuous
 62
     8
370
    18
100
AcDbLine
 10
806.1240804666
 20
886.9237927665
 30
0.0
 11
806.1245329185
 21
887.0873299433
 31
0.0
  0
SPLINE
  5
1D0
330
1F
100
AcDbEntity
  8
0
  6
Continuous
 62
     8
370
    18
100
AcDbSpline
210
0.0
220
0.0
230
1.0
 70
     8
 71
     3
 72
    11
 73
     7
 74
     0
 42
0.000000001
 43
0.00000001
 40
0.0
 40
0.0
 40
0.0
 40
0.0
 40
0.249591657763795
 40
0.4993449054662441
 40
0.7495894285013126
 40
1.0
 40
1.0
 40
1.0
 40
1.0
 10
806.1245329185153
 20
887.08732994334
 30
0.0
 10
806.1246925729642
 20
887.2410906866606
 30
0.0
 10
806.1250119852252
 20
887.5487117206558
 30
0.0
 10
806.125628669166
 20
888.0185755714754
 30
0.0
 10
806.1258004176449
 20
888.4940930391647
 30
0.0
 10
806.1254167807722
 20
888.8161832066617
 30
0.0
 10
806.1252248987169
 20
888.977281703007
 30
0.0
  0
ARC
  5
1D1
330
1F
100
AcDbEntity
  8
0
  6
Continuous
 62
     8
370
    18
100
AcDbCircle
 10
807.5371870829
 20
889.8751001759
 30
0.0
 40
3.272168353565659
100
AcDbArc
 50
244.4145746888
 51
267.6960401801
  0
SPLINE
  5
1D2
330
1F
100
AcDbEntity
  8
0
  6
Continuous
 62
     8
370
    18
100
AcDbSpline
210
0.0
220
0.0
230
1.0
 70
     8
 71
     3
 72
    11
 73
     7
 74
     0
 42
0.000000001
 43
0.00000001
 40
0.0
 40
0.0
 40
0.0
 40
0.0
 40
0.2499944555556059
 40
0.4999911293473944
 40
0.7499944562213346
 40
1.0
 40
1.0
 40
1.0
 40
1.0
 10
804.2572086786051
 20
887.2821794202671
 30
0.0
 10
804.2583713956823
 20
887.2690557790887
 30
0.0
 10
804.2606968401536
 20
887.2428083802841
 30
0.0
 10
804.2641537815729
 20
887.20350690257
 30
0.0
 10
804.2675900849263
 20
887.1642518978288
 30
0.0
 10
804.269860444847
 20
887.1381290450743
 30
0.0
 10
804.2709956298405
 20
887.1250675607863
 30
0.0
  0
SPLINE
  5
1D3
330
1F
100
AcDbEntity
  8
0
  6
Continuous
 62
     8
370
    18
100
AcDbSpline
210
0.0
220
0.0
230
1.0
 70
     8
 71
     3
 72
    14
 73
    10
 74
     0
 42
0.000000001
 43
0.00000001
 40
0.0
 40
0.0
 40
0.0
 40
0.0
 40
0.213507205392368
 40
0.6517504153225472
 40
0.8731400298126253
 40
0.9340362681780132
 40
0.96074310057714
 40
0.980111865118239
 40
1.0
 40
1.0
 40
1.0
 40
1.0
 10
804.2709956298405
 20
887.1250675607863
 30
0.0
 10
804.3272428810094
 20
886.5311986922788
 30
0.0
 10
804.4989427973784
 20
884.7183592567875
 30
0.0
 10
804.8564287703496
 20
882.6643352946865
 30
0.0
 10
805.3081526548091
 20
881.3328789020305
 30
0.0
 10
805.8071917366224
 20
880.8823083315636
 30
0.0
 10
806.0773940696483
 20
880.7734290227154
 30
0.0
 10
806.2774622997039
 20
880.7339830842498
 30
0.0
 10
806.4033152981374
 20
880.7333633599122
 30
0.0
 10
806.4670743174414
 20
880.7330493982546
 30
0.0
  0
SPLINE
  5
1D4
330
1F
100
AcDbEntity
  8
0
  6
Continuous
 62
     8
370
    18
100
AcDbSpline
210
0.0
220
0.0
230
1.0
 70
     8
 71
     3
 72
    11
 73
     7
 74
     0
 42
0.000000001
 43
0.00000001
 40
0.0
 40
0.0
 40
0.0
 40
0.0
 40
0.2499191710195566
 40
0.499862953211869
 40
0.7499075611820023
 40
1.0
 40
1.0
 40
1.0
 40
1.0
 10
806.4670743174414
 20
880.7330493982546
 30
0.0
 10
807.1569940799592
 20
880.7556982101042
 30
0.0
 10
808.5369015458989
 20
880.8009980641796
 30
0.0
 10
810.609216170269
 20
880.8611545380742
 30
0.0
 10
812.6836048557053
 20
880.9135738937179
 30
0.0
 10
814.0681067544148
 20
880.9389021169512
 30
0.0
 10
814.7604239075232
 20
880.9515674397064
 30
0.0
  0
SPLINE
  5
1D5
330
1F
100
AcDbEntity
  8
0
  6
Continuous
 62
     8
370
    18
100
AcDbSpline
210
0.0
220
0.0
230
1.0
 70
     8
 71
     3
 72
    16
 73
    12
 74
     0
 42
0.000000001
 43
0.00000001
 40
0.0
 40
0.0
 40
0.0
 40
0.0
 40
0.0145165183671369
 40
0.0410735496449668
 40
0.0660449140394965
 40
0.1244471074635437
 40
0.1776973896607062
 40
0.2535931164239699
 40
0.3633556381484875
 40
0.5223716134120439
 40
1.0
 40
1.0
 40
1.0
 40
1.0
 10
814.7604239075232
 20
880.9515674397064
 30
0.0
 10
814.8030861994516
 20
880.9536345892716
 30
0.0
 10
814.9237963946359
 20
880.9594834552421
 30
0.0
 10
815.1029576726193
 20
881.0047388341256
 30
0.0
 10
815.3422768393826
 20
881.1187966873846
 30
0.0
 10
815.5498515794374
 20
881.3071717969609
 30
0.0
 10
815.7551453838515
 20
881.5945546135385
 30
0.0
 10
815.952211444679
 20
881.9940992013043
 30
0.0
 10
816.1671906879222
 20
882.6230942795817
 30
0.0
 10
816.525635842864
 20
884.1147642698112
 30
0.0
 10
816.7064324172838
 20
885.7097462254951
 30
0.0
 10
816.8420710584394
 20
886.9063462486455
 30
0.0
  0
SPLINE
  5
1D6
330
1F
100
AcDbEntity
  8
0
  6
Continuous
 62
     8
370
    18
100
AcDbSpline
210
0.0
220
0.0
230
1.0
 70
     8
 71
     3
 72
    11
 73
     7
 74
     0
 42
0.000000001
 43
0.00000001
 40
0.0
 40
0.0
 40
0.0
 40
0.0
 40
0.2499860220301266
 40
0.4999776331316912
 40
0.7499860192482346
 40
0.9999999999999999
 40
0.9999999999999999
 40
0.9999999999999999
 40
0.9999999999999999
 10
816.8420710584394
 20
886.9063462486455
 30
0.0
 10
816.8441216599768
 20
886.9272061051931
 30
0.0
 10
816.8482229088982
 20
886.9689262846633
 30
0.0
 10
816.8544368375457
 20
887.031698818663
 30
0.0
 10
816.8606929788401
 20
887.0945992946138
 30
0.0
 10
816.8649065122437
 20
887.1366581465614
 30
0.0
 10
816.8670133025175
 20
887.1576878078287
 30
0.0
  0
SPLINE
  5
1D7
330
1F
100
AcDbEntity
  8
0
  6
Continuous
 62
     8
370
    18
100
AcDbSpline
210
0.0
220
0.0
230
1.0
 70
     8
 71
     3
 72
    15
 73
    11
 74
     0
 42
0.000000001
 43
0.00000001
 40
0.0
 40
0.0
 40
0.0
 40
0.0
 40
0.1214789223858495
 40
0.2422918389885045
 40
0.3637024457123376
 40
0.4867886795246256
 40
0.6105361998551031
 40
0.7368029832611135
 40
0.8656003766059861
 40
1.0
 40
1.0
 40
1.0
 40
1.0
 10
778.7892405559171
 20
887.5670135385144
 30
0.0
 10
778.6529912335773
 20
886.7946481779676
 30
0.0
 10
778.3812395731056
 20
885.2541519346482
 30
0.0
 10
778.2896757277019
 20
883.3496972087806
 30
0.0
 10
778.3854703014479
 20
881.7846328779201
 30
0.0
 10
778.6683289160632
 20
880.5865355075904
 30
0.0
 10
779.1154162260158
 20
879.7264308278237
 30
0.0
 10
779.7305307856229
 20
879.1777297683691
 30
0.0
 10
780.5035803522342
 20
878.8791083899991
 30
0.0
 10
781.1976312901152
 20
878.8505307953509
 30
0.0
 10
781.5520433036829
 20
878.8359378565485
 30
0.0
  0
ARC
  5
1D8
330
1F
100
AcDbEntity
  8
0
  6
Continuous
 62
     8
370
    18
100
AcDbCircle
 10
816.4097225077
 20
881.5303678791
 30
0.0
 40
5.645869680695792
100
AcDbArc
 50
85.3542029022
 51
103.8566348595
  0
ARC
  5
1D9
330
1F
100
AcDbEntity
  8
0
  6
Continuous
 62
     8
370
    18
100
AcDbCircle
 10
884.7879289138
 20
881.5303678791
 30
0.0
 40
5.645869680695681
100
AcDbArc
 50
76.1433651405
 51
94.6457970978
  0
ARC
  5
1DA
330
1F
100
AcDbEntity
  8
0
  6
Continuous
 62
     8
370
    18
100
AcDbCircle
 10
896.5723631537
 20
881.7645401345
 30
0.0
 40
5.529902880884024
100
AcDbArc
 50
86.1834753367
 51
105.7306807726
  0
ARC
  5
1DB
330
1F
100
AcDbEntity
  8
0
  6
Continuous
 62
     8
370
    18
100
AcDbCircle
 10
804.6252882678
 20
881.7645401345
 30
0.0
 40
5.529902880884024
100
AcDbArc
 50
74.2693192274
 51
93.8165246633
  0
SPLINE
  5
1DC
330
1F
100
AcDbEntity
  8
0
  6
Continuous
 62
     8
370
    18
100
AcDbSpline
210
0.0
220
0.0
230
1.0
 70
     8
 71
     3
 72
    15
 73
    11
 74
     0
 42
0.000000001
 43
0.00000001
 40
0.0
 40
0.0
 40
0.0
 40
0.0
 40
0.0247383799946664
 40
0.0492201071029817
 40
0.0751567027976954
 40
0.1186953964310952
 40
0.241882569205124
 40
0.4816368506401574
 40
0.8380569172750826
 40
1.0
 40
1.0
 40
1.0
 40
1.0
 10
814.1810532728127
 20
940.8996089216732
 30
0.0
 10
814.2211255943834
 20
940.9005085627844
 30
0.0
 10
814.3008544998331
 20
940.9022985115135
 30
0.0
 10
814.4153664294436
 20
940.8619174845252
 30
0.0
 10
814.5345763250176
 20
940.7830539286595
 30
0.0
 10
814.7233997969543
 20
940.5731172528385
 30
0.0
 10
814.9472066803407
 20
940.0373929240211
 30
0.0
 10
815.042245099451
 20
939.0335987446642
 30
0.0
 10
815.05834905203
 20
937.9316535653876
 30
0.0
 10
815.0594633690743
 20
937.1490415352716
 30
0.0
 10
815.0598114955519
 20
936.9045438218615
 30
0.0
  0
SPLINE
  5
1DD
330
1F
100
AcDbEntity
  8
0
  6
Continuous
 62
     8
370
    18
100
AcDbSpline
210
0.0
220
0.0
230
1.0
 70
     8
 71
     3
 72
    11
 73
     7
 74
     0
 42
0.000000001
 43
0.00000001
 40
0.0
 40
0.0
 40
0.0
 40
0.0
 40
0.1594651278286844
 40
0.3198648756760701
 40
0.6552328318806965
 40
1.0
 40
1.0
 40
1.0
 40
1.0
 10
814.1810532728127
 20
940.8996089216732
 30
0.0
 10
814.1423612313123
 20
940.726092341046
 30
0.0
 10
814.0647503754925
 20
940.3780422046569
 30
0.0
 10
813.9382818267504
 20
939.6001096152869
 30
0.0
 10
813.8203687718247
 20
938.5179832592304
 30
0.0
 10
813.8020953417098
 20
937.5461175725599
 30
0.0
 10
813.7928323606827
 20
937.0534693198779
 30
0.0
  0
SPLINE
  5
1DE
330
1F
100
AcDbEntity
  8
0
  6
Continuous
 62
     8
370
    18
100
AcDbSpline
210
0.0
220
0.0
230
1.0
 70
     8
 71
     3
 72
    15
 73
    11
 74
     0
 42
0.000000001
 43
0.00000001
 40
0.0
 40
0.0
 40
0.0
 40
0.0
 40
0.0247383799946665
 40
0.0492201071029801
 40
0.0751567027976939
 40
0.1186953964310936
 40
0.2418825692051225
 40
0.4816368506401602
 40
0.8380569172750856
 40
1.0
 40
1.0
 40
1.0
 40
1.0
 10
887.0165981486953
 20
940.8996089216732
 30
0.0
 10
886.9765258271246
 20
940.9005085627844
 30
0.0
 10
886.8967969216749
 20
940.9022985115135
 30
0.0
 10
886.7822849920644
 20
940.8619174845252
 30
0.0
 10
886.6630750964903
 20
940.7830539286595
 30
0.0
 10
886.4742516245537
 20
940.5731172528385
 30
0.0
 10
886.2504447411671
 20
940.0373929240211
 30
0.0
 10
886.1554063220569
 20
939.0335987446642
 30
0.0
 10
886.1393023694777
 20
937.9316535653876
 30
0.0
 10
886.1381880524335
 20
937.1490415352716
 30
0.0
 10
886.1378399259561
 20
936.9045438218615
 30
0.0
  0
SPLINE
  5
1DF
330
1F
100
AcDbEntity
  8
0
  6
Continuous
 62
     8
370
    18
100
AcDbSpline
210
0.0
220
0.0
230
1.0
 70
     8
 71
     3
 72
    11
 73
     7
 74
     0
 42
0.000000001
 43
0.00000001
 40
0.0
 40
0.0
 40
0.0
 40
0.0
 40
0.1029300877268231
 40
0.3198443168614516
 40
0.6552224104158373
 40
1.0
 40
1.0
 40
1.0
 40
1.0
 10
887.0165981486953
 20
940.8996089216732
 30
0.0
 10
887.0419235536592
 20
940.7884269971389
 30
0.0
 10
887.1206195601313
 20
940.442940973709
 30
0.0
 10
887.2516746072463
 20
939.673043396673
 30
0.0
 10
887.3772124050718
 20
938.5179275752564
 30
0.0
 10
887.3955324501936
 20
937.5460988410123
 30
0.0
 10
887.4048190608253
 20
937.0534693198779
 30
0.0
  0
SPLINE
  5
1E0
330
1F
100
AcDbEntity
  8
0
  6
Continuous
 62
     8
370
    18
100
AcDbSpline
210
0.0
220
0.0
230
1.0
 70
     8
 71
     3
 72
    15
 73
    11
 74
     0
 42
0.000000001
 43
0.00000001
 40
0.0
 40
0.0
 40
0.0
 40
0.0
 40
0.3092031051715315
 40
0.6638382552558589
 40
0.8039861739630793
 40
0.9077221477257389
 40
0.9361281220493111
 40
0.9546919441403727
 40
0.9789089794126064
 40
1.0
 40
1.0
 40
1.0
 40
1.0
 10
806.1238528540408
 20
936.8813157841702
 30
0.0
 10
806.1245929043038
 20
937.3690352939153
 30
0.0
 10
806.1261817424072
 20
938.4161362543789
 30
0.0
 10
806.136372411367
 20
939.6173221570699
 30
0.0
 10
806.3333782088824
 20
940.4733998375982
 30
0.0
 10
806.5382317293115
 20
940.8355295065882
 30
0.0
 10
806.7243203650311
 20
940.9848722040435
 30
0.0
 10
806.8306840470909
 20
941.0342315474679
 30
0.0
 10
806.9393542835707
 20
941.0550332686936
 30
0.0
 10
807.0146483460763
 20
941.0449924340976
 30
0.0
 10
807.0496979325635
 20
941.0403183988701
 30
0.0
  0
SPLINE
  5
1E1
330
1F
100
AcDbEntity
  8
0
  6
Continuous
 62
     8
370
    18
100
AcDbSpline
210
0.0
220
0.0
230
1.0
 70
     8
 71
     3
 72
    11
 73
     7
 74
     0
 42
0.000000001
 43
0.00000001
 40
0.0
 40
0.0
 40
0.0
 40
0.0
 40
0.3116346581109878
 40
0.6315483867122853
 40
0.8149892983190872
 40
1.0
 40
1.0
 40
1.0
 40
1.0
 10
807.4752331101573
 20
937.0534693198779
 30
0.0
 10
807.4670322149717
 20
937.5189944257992
 30
0.0
 10
807.4504125547729
 20
938.462412052711
 30
0.0
 10
807.3345616012393
 20
939.5650628466852
 30
0.0
 10
807.1958451194594
 20
940.4214778774303
 30
0.0
 10
807.098551834383
 20
940.8334531507697
 30
0.0
 10
807.0496979325635
 20
941.0403183988701
 30
0.0
  0
SPLINE
  5
1E2
330
1F
100
AcDbEntity
  8
0
  6
Continuous
 62
     8
370
    18
100
AcDbSpline
210
0.0
220
0.0
230
1.0
 70
     8
 71
     3
 72
    11
 73
     7
 74
     0
 42
0.000000001
 43
0.00000001
 40
0.0
 40
0.0
 40
0.0
 40
0.0
 40
0.3116445555543535
 40
0.6315684445403379
 40
0.8676088035397126
 40
1.0
 40
1.0
 40
1.0
 40
1.0
 10
893.7224183113507
 20
937.0534693198779
 30
0.0
 10
893.7306384198769
 20
937.5189808745565
 30
0.0
 10
893.7472970171901
 20
938.462371038973
 30
0.0
 10
893.8703522212497
 20
939.6363684623982
 30
0.0
 10
894.014012987286
 20
940.4844362424982
 30
0.0
 10
894.112546664472
 20
940.8933723915435
 30
0.0
 10
894.1479534889445
 20
941.0403183988701
 30
0.0
  0
SPLINE
  5
1E3
330
1F
100
AcDbEntity
  8
0
  6
Continuous
 62
     8
370
    18
100
AcDbSpline
210
0.0
220
0.0
230
1.0
 70
     8
 71
     3
 72
    15
 73
    11
 74
     0
 42
0.000000001
 43
0.00000001
 40
0.0
 40
0.0
 40
0.0
 40
0.0
 40
0.3092031051715346
 40
0.6638382552558584
 40
0.8039861739630828
 40
0.9077221477257388
 40
0.9361281220493111
 40
0.9546919441403727
 40
0.9789089794126064
 40
1.0
 40
1.0
 40
1.0
 40
1.0
 10
895.0737985674672
 20
936.8813157841702
 30
0.0
 10
895.0730585172042
 20
937.3690352939153
 30
0.0
 10
895.0714696791007
 20
938.4161362543789
 30
0.0
 10
895.0612790101409
 20
939.6173221570699
 30
0.0
 10
894.8642732126256
 20
940.4733998375982
 30
0.0
 10
894.6594196921965
 20
940.8355295065882
 30
0.0
 10
894.4733310564767
 20
940.9848722040435
 30
0.0
 10
894.366967374417
 20
941.0342315474679
 30
0.0
 10
894.2582971379373
 20
941.0550332686936
 30
0.0
 10
894.1830030754317
 20
941.0449924340976
 30
0.0
 10
894.1479534889445
 20
941.0403183988701
 30
0.0
  0
LINE
  5
1E4
330
1F
100
AcDbEntity
  8
0
  6
Continuous
 62
     8
370
    18
100
AcDbLine
 10
894.1479534889
 20
941.0403183989
 30
0.0
 11
887.0165981487
 21
940.8996089217
 31
0.0
  0
LINE
  5
1E5
330
1F
100
AcDbEntity
  8
0
  6
Continuous
 62
     8
370
    18
100
AcDbLine
 10
807.0496979326
 20
941.0403183989
 30
0.0
 11
814.1810532728
 21
940.8996089217
 31
0.0
  0
ARC
  5
1E6
330
1F
100
AcDbEntity
  8
0
  6
Continuous
 62
     8
370
    18
100
AcDbCircle
 10
720.4253736219
 20
943.9651062129
 30
0.0
 40
93.80578202034121
100
AcDbArc
 50
358.1272867192
 51
358.5922936385
  0
ARC
  5
1E7
330
1F
100
AcDbEntity
  8
0
  6
Continuous
 62
     8
370
    18
100
AcDbCircle
 10
980.7722777931
 20
943.9651062128
 30
0.0
 40
93.80578201386427
100
AcDbArc
 50
181.4077063615
 51
181.8727132808
  0
ARC
  5
1E8
330
1F
100
AcDbEntity
  8
0
  6
Continuous
 62
     8
370
    18
100
AcDbCircle
 10
934.7204365964
 20
943.9658140636
 30
0.0
 40
40.67781840742011
100
AcDbArc
 50
183.0752748856
 51
184.1241982496
  0
ARC
  5
1E9
330
1F
100
AcDbEntity
  8
0
  6
Continuous
 62
     8
370
    18
100
AcDbCircle
 10
766.4772148175
 20
943.9658140641
 30
0.0
 40
40.67781841511783
100
AcDbArc
 50
355.8758017505
 51
356.9247251143
  0
SPLINE
  5
1EA
330
1F
100
AcDbEntity
  8
0
  6
Continuous
 62
     8
370
    18
100
AcDbSpline
210
0.0
220
0.0
230
1.0
 70
     8
 71
     3
 72
    20
 73
    16
 74
     0
 42
0.000000001
 43
0.00000001
 40
0.0
 40
0.0
 40
0.0
 40
0.0
 40
0.2531180050789927
 40
0.5115075777494861
 40
0.6777397164321071
 40
0.7900054650019435
 40
0.8650908736956312
 40
0.9151103416148576
 40
0.9639411204910658
 40
0.9805303882575477
 40
0.9864225707834126
 40
0.9923673955838427
 40
0.993785493478901
 40
0.9979020488197952
 40
1.0
 40
1.0
 40
1.0
 40
1.0
 10
815.0573799733271
 20
886.7526207105777
 30
0.0
 10
815.0575891788191
 20
886.156508320209
 30
0.0
 10
815.0580119468258
 20
884.9518685919179
 30
0.0
 10
815.0602848799188
 20
883.5634461879561
 30
0.0
 10
815.0613367823793
 20
882.5873349096977
 30
0.0
 10
815.0542681256001
 20
882.0065780946877
 30
0.0
 10
815.0371647107454
 20
881.6451081343326
 30
0.0
 10
815.0039774670705
 20
881.395143284386
 30
0.0
 10
814.962303211562
 20
881.2369503794195
 30
0.0
 10
814.8940682828123
 20
881.1461184453601
 30
0.0
 10
814.8487802356555
 20
881.1148135840515
 30
0.0
 10
814.8198733164278
 20
881.1030102853641
 30
0.0
 10
814.7906629199057
 20
881.0965183161984
 30
0.0
 10
814.7691644512656
 20
881.0942033382082
 30
0.0
 10
814.7517975011917
 20
881.0948186804291
 30
0.0
 10
814.7459346039077
 20
881.0950264134057
 30
0.0
  0
ARC
  5
1EB
330
1F
100
AcDbEntity
  8
0
  6
Continuous
 62
     8
370
    18
100
AcDbCircle
 10
816.4142474168
 20
881.4365728033
 30
0.0
 40
5.486479254665833
100
AcDbArc
 50
85.5276603365
 51
104.3184562088
  0
ARC
  5
1EC
330
1F
100
AcDbEntity
  8
0
  6
Continuous
 62
     8
370
    18
100
AcDbCircle
 10
807.5650267282
 20
880.2972961633
 30
0.0
 40
7.225082108317111
100
AcDbArc
 50
5.19556821
 51
6.3390220922
  0
ARC
  5
1ED
330
1F
100
AcDbEntity
  8
0
  6
Continuous
 62
     8
370
    18
100
AcDbCircle
 10
884.7834040047
 20
881.4365728033
 30
0.0
 40
5.486479254648174
100
AcDbArc
 50
75.6815437912
 51
94.4723396633
  0
SPLINE
  5
1EE
330
1F
100
AcDbEntity
  8
0
  6
Continuous
 62
     8
370
    18
100
AcDbSpline
210
0.0
220
0.0
230
1.0
 70
     8
 71
     3
 72
    20
 73
    16
 74
     0
 42
0.000000001
 43
0.00000001
 40
0.0
 40
0.0
 40
0.0
 40
0.0
 40
0.2531180050789969
 40
0.5115075777494852
 40
0.6777397164321065
 40
0.790005465001943
 40
0.8650908736956331
 40
0.9151103416148574
 40
0.9639411204910658
 40
0.9805303882575477
 40
0.9864225707834126
 40
0.9923673955838428
 40
0.993785493478901
 40
0.9979020488197952
 40
1.0
 40
1.0
 40
1.0
 40
1.0
 10
886.1402714481809
 20
886.7526207105777
 30
0.0
 10
886.1400622426889
 20
886.156508320209
 30
0.0
 10
886.1396394746822
 20
884.9518685919179
 30
0.0
 10
886.1373665415892
 20
883.5634461879561
 30
0.0
 10
886.1363146391286
 20
882.5873349096977
 30
0.0
 10
886.1433832959078
 20
882.0065780946877
 30
0.0
 10
886.1604867107625
 20
881.6451081343326
 30
0.0
 10
886.1936739544375
 20
881.395143284386
 30
0.0
 10
886.235348209946
 20
881.2369503794195
 30
0.0
 10
886.3035831386957
 20
881.1461184453601
 30
0.0
 10
886.3488711858524
 20
881.1148135840515
 30
0.0
 10
886.3777781050802
 20
881.1030102853641
 30
0.0
 10
886.4069885016022
 20
881.0965183161984
 30
0.0
 10
886.4284869702424
 20
881.0942033382082
 30
0.0
 10
886.4458539203163
 20
881.0948186804291
 30
0.0
 10
886.4517168176003
 20
881.0950264134057
 30
0.0
  0
ARC
  5
1EF
330
1F
100
AcDbEntity
  8
0
  6
Continuous
 62
     8
370
    18
100
AcDbCircle
 10
893.6326246953
 20
880.2972961631
 30
0.0
 40
7.225082110238588
100
AcDbArc
 50
173.6609779079
 51
174.8044317899
  0
ARC
  5
1F0
330
1F
100
AcDbEntity
  8
0
  6
Continuous
 62
     8
370
    18
100
AcDbCircle
 10
897.5290693637
 20
880.1533171526
 30
0.0
 40
2.857909796298953
100
AcDbArc
 50
165.3419899917
 51
168.2962236795
  0
SPLINE
  5
1F1
330
1F
100
AcDbEntity
  8
0
  6
Continuous
 62
     8
370
    18
100
AcDbSpline
210
0.0
220
0.0
230
1.0
 70
     8
 71
     3
 72
    17
 73
    13
 74
     0
 42
0.000000001
 43
0.00000001
 40
0.0
 40
0.0
 40
0.0
 40
0.0
 40
0.0045109817899564
 40
0.0089278415502698
 40
0.0130797684277557
 40
0.0177777921767718
 40
0.0339670776355768
 40
0.0840600072516233
 40
0.3047425979574637
 40
0.7692822253212939
 40
0.8273200843787568
 40
1.0
 40
1.0
 40
1.0
 40
1.0
 10
894.7641746343982
 20
880.8765083719525
 30
0.0
 10
894.7771441254193
 20
880.8747445831418
 30
0.0
 10
894.802812497897
 20
880.8712538071279
 30
0.0
 10
894.8436885079907
 20
880.8729683429231
 30
0.0
 10
894.8810491980927
 20
880.881289248773
 30
0.0
 10
894.9369792210123
 20
880.9059593002097
 30
0.0
 10
895.0214853518913
 20
880.9991714920224
 30
0.0
 10
895.1157603430297
 20
881.4031154333544
 30
0.0
 10
895.0829602379333
 20
882.5942288026288
 30
0.0
 10
895.0823029212377
 20
884.1913413292293
 30
0.0
 10
895.0763772256693
 20
885.8779911661878
 30
0.0
 10
895.0747722175958
 20
886.4761230439284
 30
0.0
 10
895.0735709548882
 20
886.9237927664822
 30
0.0
  0
ARC
  5
1F2
330
1F
100
AcDbEntity
  8
0
  6
Continuous
 62
     8
370
    18
100
AcDbCircle
 10
896.5781693595
 20
881.7024185995
 30
0.0
 40
5.433835160464039
100
AcDbArc
 50
86.3229443235
 51
106.0749385631
  0
SPLINE
  5
1F3
330
1F
100
AcDbEntity
  8
0
  6
Continuous
 62
     8
370
    18
100
AcDbSpline
210
0.0
220
0.0
230
1.0
 70
     8
 71
     3
 72
    17
 73
    13
 74
     0
 42
0.000000001
 43
0.00000001
 40
0.0
 40
0.0
 40
0.0
 40
0.0
 40
0.0045109817899564
 40
0.0089278415502698
 40
0.0130797684277557
 40
0.0177777921767718
 40
0.0339670776355767
 40
0.0840600072516253
 40
0.3047425979574655
 40
0.7692822253212939
 40
0.8273200843787596
 40
1.0
 40
1.0
 40
1.0
 40
1.0
 10
806.4334767871096
 20
880.8765083719525
 30
0.0
 10
806.4205072960885
 20
880.8747445831418
 30
0.0
 10
806.3948389236109
 20
880.8712538071279
 30
0.0
 10
806.3539629135173
 20
880.8729683429231
 30
0.0
 10
806.3166022234153
 20
880.8812892487731
 30
0.0
 10
806.2606722004957
 20
880.9059593002097
 30
0.0
 10
806.1761660696167
 20
880.9991714920224
 30
0.0
 10
806.0818910784783
 20
881.4031154333544
 30
0.0
 10
806.1146911835746
 20
882.5942288026288
 30
0.0
 10
806.1153485002702
 20
884.1913413292293
 30
0.0
 10
806.1212741958387
 20
885.8779911661878
 30
0.0
 10
806.1228792039122
 20
886.4761230439286
 30
0.0
 10
806.1240804666197
 20
886.9237927664824
 30
0.0
  0
ARC
  5
1F4
330
1F
100
AcDbEntity
  8
0
  6
Continuous
 62
     8
370
    18
100
AcDbCircle
 10
803.668582058
 20
880.1533171526
 30
0.0
 40
2.857909796105681
100
AcDbArc
 50
11.7037763205
 51
14.6580100085
  0
ARC
  5
1F5
330
1F
100
AcDbEntity
  8
0
  6
Continuous
 62
     8
370
    18
100
AcDbCircle
 10
804.619482062
 20
881.7024185994
 30
0.0
 40
5.433835160525878
100
AcDbArc
 50
73.9250614371
 51
93.6770556766
  0
SPLINE
  5
1F6
330
1F
100
AcDbEntity
  8
0
  6
Continuous
 62
     8
370
    18
100
AcDbSpline
210
0.0
220
0.0
230
1.0
 70
     8
 71
     3
 72
     9
 73
     5
 74
     0
 42
0.000000001
 43
0.00000001
 40
0.0
 40
0.0
 40
0.0
 40
0.0
 40
0.5008666699385691
 40
1.0
 40
1.0
 40
1.0
 40
1.0
 10
770.7638410025629
 20
940.1087862190061
 30
0.0
 10
770.1368387566309
 20
939.5191583449875
 30
0.0
 10
768.8850041196629
 20
938.3419431110593
 30
0.0
 10
768.6941082178976
 20
936.939356443762
 30
0.0
 10
768.5988257107545
 20
936.2392786898141
 30
0.0
  0
SPLINE
  5
1F7
330
1F
100
AcDbEntity
  8
0
  6
Continuous
 62
     8
370
    18
100
AcDbSpline
210
0.0
220
0.0
230
1.0
 70
     8
 71
     3
 72
    11
 73
     7
 74
     0
 42
0.000000001
 43
0.00000001
 40
0.0
 40
0.0
 40
0.0
 40
0.0
 40
0.2550731171547165
 40
0.5042366280389206
 40
0.7536040279703352
 40
1.0
 40
1.0
 40
1.0
 40
1.0
 10
768.5988257107542
 20
928.1347357629528
 30
0.0
 10
768.666422127654
 20
927.1407973390689
 30
0.0
 10
768.8000488685087
 20
925.1759483384053
 30
0.0
 10
769.7055562867797
 20
921.7044634014758
 30
0.0
 10
770.7221134327367
 20
917.5289375372497
 30
0.0
 10
771.4211401068557
 20
914.341768552099
 30
0.0
 10
771.7685585862863
 20
912.7577354336122
 30
0.0
  0
SPLINE
  5
1F8
330
1F
100
AcDbEntity
  8
0
  6
Continuous
 62
     8
370
    18
100
AcDbSpline
210
0.0
220
0.0
230
1.0
 70
     8
 71
     3
 72
    16
 73
    12
 74
     0
 42
0.000000001
 43
0.00000001
 40
0.0
 40
0.0
 40
0.0
 40
0.0
 40
0.0841022735798947
 40
0.1602171435280776
 40
0.2409584472951824
 40
0.3620065228741914
 40
0.4856775189583501
 40
0.6137082362254822
 40
0.7456545071535331
 40
0.8791145288908144
 40
1.0
 40
1.0
 40
1.0
 40
1.0
 10
769.2375347736721
 20
889.7497824590057
 30
0.0
 10
769.2664671193345
 20
890.2709546640137
 30
0.0
 10
769.3215840333042
 20
891.2638020439751
 30
0.0
 10
769.3561194704608
 20
892.8418433312818
 30
0.0
 10
769.3361160528347
 20
894.7193559257304
 30
0.0
 10
769.223355813006
 20
897.0003167270111
 30
0.0
 10
768.9709853377752
 20
899.6848468714486
 30
0.0
 10
768.6055803808946
 20
902.4897031927119
 30
0.0
 10
768.103068564939
 20
905.3626391109559
 30
0.0
 10
767.4757673784886
 20
908.1456499545397
 30
0.0
 10
766.8940489142574
 20
909.8825166478562
 30
0.0
 10
766.6175694303298
 20
910.7080156418651
 30
0.0
  0
SPLINE
  5
1F9
330
1F
100
AcDbEntity
  8
0
  6
Continuous
 62
     8
370
    18
100
AcDbSpline
210
0.0
220
0.0
230
1.0
 70
     8
 71
     3
 72
    11
 73
     7
 74
     0
 42
0.000000001
 43
0.00000001
 40
0.0
 40
0.0
 40
0.0
 40
0.0
 40
0.2470295448605329
 40
0.5000000000000006
 40
0.752970455139464
 40
1.0
 40
1.0
 40
1.0
 40
1.0
 10
766.6175694303298
 20
910.7080156418651
 30
0.0
 10
767.1003494175242
 20
910.8447790032162
 30
0.0
 10
768.0775199569161
 20
911.1215948015617
 30
0.0
 10
769.4766316945111
 20
911.6338581963767
 30
0.0
 10
770.7566674538783
 20
912.1877010353874
 30
0.0
 10
771.4339439681539
 20
912.5692350738645
 30
0.0
 10
771.7685585862863
 20
912.7577354336122
 30
0.0
  0
SPLINE
  5
1FA
330
1F
100
AcDbEntity
  8
0
  6
Continuous
 62
     8
370
    18
100
AcDbSpline
210
0.0
220
0.0
230
1.0
 70
     8
 71
     3
 72
    11
 73
     7
 74
     0
 42
0.000000001
 43
0.00000001
 40
0.0
 40
0.0
 40
0.0
 40
0.0
 40
0.2481270760646546
 40
0.4999999999999995
 40
0.7518729239353419
 40
1.0
 40
1.0
 40
1.0
 40
1.0
 10
769.2375347736722
 20
889.7497824590057
 30
0.0
 10
770.0942973647121
 20
889.7039758580896
 30
0.0
 10
771.8207566545008
 20
889.6116711373742
 30
0.0
 10
774.3353185839101
 20
889.1545420433937
 30
0.0
 10
776.7170852276553
 20
888.4927554088491
 30
0.0
 10
778.101980517879
 20
887.8740491088416
 30
0.0
 10
778.789240555917
 20
887.5670135385143
 30
0.0
  0
SPLINE
  5
1FB
330
1F
100
AcDbEntity
  8
0
  6
Continuous
 62
     8
370
    18
100
AcDbSpline
210
0.0
220
0.0
230
1.0
 70
     8
 71
     3
 72
    11
 73
     7
 74
     0
 42
0.000000001
 43
0.00000001
 40
0.0
 40
0.0
 40
0.0
 40
0.0
 40
0.2481513006126268
 40
0.4948147669744549
 40
0.7425291449626433
 40
1.0
 40
1.0
 40
1.0
 40
1.0
 10
766.6175694303299
 20
910.7080156418651
 30
0.0
 10
766.1792044165433
 20
912.1806473719239
 30
0.0
 10
765.3051026825966
 20
915.1170814125647
 30
0.0
 10
765.1124752128042
 20
919.216313360798
 30
0.0
 10
765.4206265890234
 20
922.8255394105214
 30
0.0
 10
765.5386661172666
 20
924.6178372033821
 30
0.0
 10
765.5988257107745
 20
925.5312931301235
 30
0.0
  0
SPLINE
  5
1FC
330
1F
100
AcDbEntity
  8
0
  6
Continuous
 62
     8
370
    18
100
AcDbSpline
210
0.0
220
0.0
230
1.0
 70
     8
 71
     3
 72
    13
 73
     9
 74
     0
 42
0.000000001
 43
0.00000001
 40
0.0
 40
0.0
 40
0.0
 40
0.0
 40
0.2394568443946779
 40
0.3683606602382262
 40
0.4999999999999981
 40
0.6316393397617722
 40
0.7605431556053198
 40
1.0
 40
1.0
 40
1.0
 40
1.0
 10
768.5988257107542
 20
928.1347357629528
 30
0.0
 10
768.5587517406437
 20
927.8072322585064
 30
0.0
 10
768.4971052501224
 20
927.3034278780838
 30
0.0
 10
768.1230124572745
 20
926.6973045625282
 30
0.0
 10
767.7358271533437
 20
926.2802155422804
 30
0.0
 10
767.2552069756765
 20
925.944210633258
 30
0.0
 10
766.5567587272953
 20
925.619567591409
 30
0.0
 10
765.9762146729698
 20
925.5660698908764
 30
0.0
 10
765.5988257107745
 20
925.5312931301233
 30
0.0
  0
SPLINE
  5
1FD
330
1F
100
AcDbEntity
  8
0
  6
Continuous
 62
     8
370
    18
100
AcDbSpline
210
0.0
220
0.0
230
1.0
 70
     8
 71
     3
 72
    15
 73
    11
 74
     0
 42
0.000000001
 43
0.00000001
 40
0.0
 40
0.0
 40
0.0
 40
0.0
 40
0.1244412882743763
 40
0.2484267730276212
 40
0.3749294893556905
 40
0.4978110062573436
 40
0.6251304008596943
 40
0.7476643278391751
 40
0.8755549875652764
 40
1.0
 40
1.0
 40
1.0
 40
1.0
 10
781.5520433036547
 20
878.8359378565485
 30
0.0
 10
780.671465644529
 20
878.8553026572167
 30
0.0
 10
778.9135357059184
 20
878.8939613291658
 30
0.0
 10
776.5360961336996
 20
879.2723776272865
 30
0.0
 10
774.3972057568146
 20
879.9606490178224
 30
0.0
 10
772.5359201327072
 20
881.043975642036
 30
0.0
 10
771.0221471947774
 20
882.5384189370985
 30
0.0
 10
769.9073082742666
 20
884.5139378515088
 30
0.0
 10
769.2252406894454
 20
886.8985770340529
 30
0.0
 10
769.2334742219322
 20
888.8080720447814
 30
0.0
 10
769.2375347736722
 20
889.7497824590057
 30
0.0
  0
SPLINE
  5
1FE
330
1F
100
AcDbEntity
  8
0
  6
Continuous
 62
     8
370
    18
100
AcDbSpline
210
0.0
220
0.0
230
1.0
 70
    24
 71
     3
 72
    11
 73
     7
 74
     0
 42
0.000000001
 43
0.00000001
 40
0.0
 40
0.0
 40
0.0
 40
0.0
 40
0.2499999999999998
 40
0.5000000000000002
 40
0.7499999999999997
 40
1.0
 40
1.0
 40
1.0
 40
1.0
 10
765.5988257107745
 20
925.5312931301232
 30
0.0
 10
765.5988257107745
 20
926.0346845852149
 30
0.0
 10
765.5988257107745
 20
927.0414674953986
 30
0.0
 10
765.5988257107745
 20
928.0543952997797
 30
0.0
 10
765.5988257107745
 20
928.7148823569976
 30
0.0
 10
765.5988257107745
 20
928.7955860233649
 30
0.0
 10
765.5988257107745
 20
928.8359378565486
 30
0.0
  0
SPLINE
  5
1FF
330
1F
100
AcDbEntity
  8
0
  6
Continuous
 62
     8
370
    18
100
AcDbSpline
210
0.0
220
0.0
230
1.0
 70
     8
 71
     3
 72
     9
 73
     5
 74
     0
 42
0.000000001
 43
0.00000001
 40
0.0
 40
0.0
 40
0.0
 40
0.0
 40
0.5146839859238802
 40
1.0
 40
1.0
 40
1.0
 40
1.0
 10
770.7638410025629
 20
940.1087862190061
 30
0.0
 10
770.7108083085418
 20
940.3537755127735
 30
0.0
 10
770.6077689766963
 20
940.8297749618871
 30
0.0
 10
770.6337090649441
 20
941.2512000917704
 30
0.0
 10
770.6462982051773
 20
941.4557244560369
 30
0.0
  0
SPLINE
  5
200
330
1F
100
AcDbEntity
  8
0
  6
Continuous
 62
     8
370
    18
100
AcDbSpline
210
0.0
220
0.0
230
1.0
 70
     8
 71
     3
 72
     9
 73
     5
 74
     0
 42
0.000000001
 43
0.00000001
 40
0.0
 40
0.0
 40
0.0
 40
0.0
 40
0.5019551509842882
 40
0.9999999999999999
 40
0.9999999999999999
 40
0.9999999999999999
 40
0.9999999999999999
 10
775.2706735032208
 20
944.1436246693536
 30
0.0
 10
774.3865112100365
 20
943.8669835708452
 30
0.0
 10
772.6250743735967
 20
943.3158564473044
 30
0.0
 10
771.3041685477677
 20
942.0741499706988
 30
0.0
 10
770.6462982051787
 20
941.455724456036
 30
0.0
  0
SPLINE
  5
201
330
1F
100
AcDbEntity
  8
0
  6
Continuous
 62
     8
370
    18
100
AcDbSpline
210
0.0
220
0.0
230
1.0
 70
     8
 71
     3
 72
     9
 73
     5
 74
     0
 42
0.000000001
 43
0.00000001
 40
0.0
 40
0.0
 40
0.0
 40
0.0
 40
0.4991545014015445
 40
1.0
 40
1.0
 40
1.0
 40
1.0
 10
770.6462982051773
 20
941.4557244560369
 30
0.0
 10
770.0555357399505
 20
940.6442421851254
 30
0.0
 10
768.8720094698914
 20
939.0185285661298
 30
0.0
 10
768.6899895621847
 20
937.1667391055151
 30
0.0
 10
768.5988257107545
 20
936.2392786898141
 30
0.0
  0
LINE
  5
202
330
1F
100
AcDbEntity
  8
0
  6
Continuous
 62
     8
370
    18
100
AcDbLine
 10
769.6587981295
 20
951.9931363282
 30
0.0
 11
797.5988257108
 21
951.9931363282
 31
0.0
  0
LINE
  5
203
330
1F
100
AcDbEntity
  8
0
  6
Continuous
 62
     8
370
    18
100
AcDbLine
 10
931.538853292
 20
951.9931363282
 30
0.0
 11
903.5988257108
 21
951.9931363282
 31
0.0
  0
LINE
  5
204
330
1F
100
AcDbEntity
  8
0
  6
Continuous
 62
     8
370
    18
100
AcDbLine
 10
720.4104273651
 20
903.8359378565
 30
0.0
 11
720.4104273651
 21
878.7859378565
 31
0.0
  0
LINE
  5
205
330
1F
100
AcDbEntity
  8
0
  6
Continuous
 62
     8
370
    18
100
AcDbLine
 10
720.4104273651
 20
928.8859378565
 30
0.0
 11
720.4104273651
 21
903.8359378565
 31
0.0
  0
LINE
  5
206
330
1F
100
AcDbEntity
  8
0
  6
Continuous
 62
     8
370
    18
100
AcDbLine
 10
719.7938756622
 20
903.8359378565
 30
0.0
 11
719.7938756622
 21
928.8218983464
 31
0.0
  0
LINE
  5
207
330
1F
100
AcDbEntity
  8
0
  6
Continuous
 62
     8
370
    18
100
AcDbLine
 10
719.7938756622
 20
878.8499773667
 30
0.0
 11
719.7938756622
 21
903.8359378565
 31
0.0
  0
LINE
  5
208
330
1F
100
AcDbEntity
  8
0
  6
Continuous
 62
     8
370
    18
100
AcDbLine
 10
258.5988257108
 20
953.5596783782
 30
0.0
 11
260.5988257108
 21
953.5596783782
 31
0.0
  0
LINE
  5
209
330
1F
100
AcDbEntity
  8
0
  6
Continuous
 62
     8
370
    18
100
AcDbLine
 10
260.5988257108
 20
951.7470628041
 30
0.0
 11
258.5988257108
 21
951.7470628041
 31
0.0
  0
LINE
  5
20A
330
1F
100
AcDbEntity
  8
0
  6
Continuous
 62
     8
370
    18
100
AcDbLine
 10
258.5988257108
 20
944.4887635195
 30
0.0
 11
260.5988257108
 21
944.4887635195
 31
0.0
  0
LINE
  5
20B
330
1F
100
AcDbEntity
  8
0
  6
Continuous
 62
     8
370
    18
100
AcDbLine
 10
260.5988257108
 20
942.6761479454
 30
0.0
 11
258.5988257108
 21
942.6761479454
 31
0.0
  0
LINE
  5
20C
330
1F
100
AcDbEntity
  8
0
  6
Continuous
 62
     8
370
    18
100
AcDbLine
 10
258.5988257108
 20
908.3855378565
 30
0.0
 11
260.5988257108
 21
908.3855378565
 31
0.0
  0
LINE
  5
20D
330
1F
100
AcDbEntity
  8
0
  6
Continuous
 62
     8
370
    18
100
AcDbLine
 10
1440.5988257108
 20
953.5596783782
 30
0.0
 11
1442.5988257108
 21
953.5596783782
 31
0.0
  0
LINE
  5
20E
330
1F
100
AcDbEntity
  8
0
  6
Continuous
 62
     8
370
    18
100
AcDbLine
 10
1442.5988257108
 20
951.7470628041
 30
0.0
 11
1440.5988257108
 21
951.7470628041
 31
0.0
  0
LINE
  5
20F
330
1F
100
AcDbEntity
  8
0
  6
Continuous
 62
     8
370
    18
100
AcDbLine
 10
1440.5988257108
 20
944.4887635195
 30
0.0
 11
1442.5988257108
 21
944.4887635195
 31
0.0
  0
LINE
  5
210
330
1F
100
AcDbEntity
  8
0
  6
Continuous
 62
     8
370
    18
100
AcDbLine
 10
1442.5988257108
 20
942.6761479454
 30
0.0
 11
1440.5988257108
 21
942.6761479454
 31
0.0
  0
LINE
  5
211
330
1F
100
AcDbEntity
  8
0
  6
Continuous
 62
     8
370
    18
100
AcDbLine
 10
1440.5988257108
 20
908.3855378565
 30
0.0
 11
1442.5988257108
 21
908.3855378565
 31
0.0
  0
LINE
  5
212
330
1F
100
AcDbEntity
  8
0
  6
Continuous
 62
     8
370
    18
100
AcDbLine
 10
238.0988257108
 20
960.2855378565
 30
0.0
 11
238.0988257108
 21
959.2855378565
 31
0.0
  0
LINE
  5
213
330
1F
100
AcDbEntity
  8
0
  6
Continuous
 62
     8
370
    18
100
AcDbLine
 10
258.4988257108
 20
961.2855378565
 30
0.0
 11
228.0988257108
 21
961.2855378565
 31
0.0
  0
LINE
  5
214
330
1F
100
AcDbEntity
  8
0
  6
Continuous
 62
     8
370
    18
100
AcDbLine
 10
1463.0988257108
 20
959.2855378565
 30
0.0
 11
1463.0988257108
 21
960.2855378565
 31
0.0
  0
LINE
  5
215
330
1F
100
AcDbEntity
  8
0
  6
Continuous
 62
     8
370
    18
100
AcDbLine
 10
1473.0988257108
 20
961.2855378565
 30
0.0
 11
1442.6988257108
 21
961.2855378565
 31
0.0
  0
LINE
  5
216
330
1F
100
AcDbEntity
  8
0
  6
Continuous
 62
     8
370
    18
100
AcDbLine
 10
1440.5988257108
 20
961.2855378565
 30
0.0
 11
260.5988257108
 21
961.2855378565
 31
0.0
  0
LINE
  5
217
330
1F
100
AcDbEntity
  8
0
  6
Continuous
 62
     8
370
    18
100
AcDbLine
 10
260.5988257108
 20
970.7855378565
 30
0.0
 11
1440.5988257108
 21
970.7855378565
 31
0.0
  0
LINE
  5
218
330
1F
100
AcDbEntity
  8
0
  6
Continuous
 62
     8
370
    18
100
AcDbLine
 10
260.5988257108
 20
957.9474563458
 30
0.0
 11
1440.5988257108
 21
957.9474563458
 31
0.0
  0
LINE
  5
219
330
1F
100
AcDbEntity
  8
0
  6
Continuous
 62
     8
370
    18
100
AcDbLine
 10
260.5988257108
 20
955.9506730047
 30
0.0
 11
1440.5988257108
 21
955.9506730047
 31
0.0
  0
LINE
  5
21A
330
1F
100
AcDbEntity
  8
0
  6
Continuous
 62
     8
370
    18
100
AcDbLine
 10
260.5988257108
 20
954.1903654358
 30
0.0
 11
767.6396496021
 21
954.1903654358
 31
0.0
  0
LINE
  5
21B
330
1F
100
AcDbEntity
  8
0
  6
Continuous
 62
     8
370
    18
100
AcDbLine
 10
933.5580018194
 20
954.1903654358
 30
0.0
 11
1440.5988257108
 21
954.1903654358
 31
0.0
  0
SPLINE
  5
21C
330
1F
100
AcDbEntity
  8
0
  6
Continuous
 62
     8
370
    18
100
AcDbSpline
210
0.0
220
0.0
230
1.0
 70
     8
 71
     3
 72
    10
 73
     6
 74
     0
 42
0.000000001
 43
0.00000001
 40
0.0
 40
0.0
 40
0.0
 40
0.0
 40
0.5
 40
0.5
 40
1.0
 40
1.0
 40
1.0
 40
1.0
 10
909.9149378178494
 20
953.840721433321
 30
0.0
 10
908.875894135091
 20
953.8553585692646
 30
0.0
 10
907.8302818143867
 20
953.889828546417
 30
0.0
 10
905.7251553795602
 20
953.9428521528133
 30
0.0
 10
904.6656379680988
 20
953.961304769375
 30
0.0
 10
903.5988257107546
 20
953.961304769375
 30
0.0
  0
LINE
  5
21D
330
1F
100
AcDbEntity
  8
0
  6
Continuous
 62
     8
370
    18
100
AcDbLine
 10
903.5988257108
 20
953.9613047693
 30
0.0
 11
903.5988257108
 21
955.8501101759
 31
0.0
  0
ARC
  5
21E
330
1F
100
AcDbEntity
  8
0
  6
Continuous
 62
     8
370
    18
100
AcDbCircle
 10
912.8790527198
 20
954.2296576912
 30
0.0
 40
2.989523133342271
100
AcDbArc
 50
147.5233674626
 51
187.4753574051
  0
SPLINE
  5
21F
330
1F
100
AcDbEntity
  8
0
  6
Continuous
 62
     8
370
    18
100
AcDbSpline
210
0.0
220
0.0
230
1.0
 70
     8
 71
     3
 72
    10
 73
     6
 74
     0
 42
0.000000001
 43
0.00000001
 40
0.0
 40
0.0
 40
0.0
 40
0.0
 40
0.5
 40
0.5
 40
1.0
 40
1.0
 40
1.0
 40
1.0
 10
797.598825710754
 20
953.9613047693343
 30
0.0
 10
796.53201345341
 20
953.9613047693343
 30
0.0
 10
795.472496041948
 20
953.9428521528133
 30
0.0
 10
793.3673696071214
 20
953.8898285464171
 30
0.0
 10
792.3217572864169
 20
953.8553585692966
 30
0.0
 10
791.2827136036586
 20
953.840721433353
 30
0.0
  0
ARC
  5
220
330
1F
100
AcDbEntity
  8
0
  6
Continuous
 62
     8
370
    18
100
AcDbCircle
 10
788.3185987007
 20
954.2296576911
 30
0.0
 40
2.989523134309174
100
AcDbArc
 50
352.5246425999
 51
32.476632528
  0
LINE
  5
221
330
1F
100
AcDbEntity
  8
0
  6
Continuous
 62
     8
370
    18
100
AcDbLine
 10
797.5988257108
 20
953.9613047693
 30
0.0
 11
797.5988257108
 21
955.8501101759
 31
0.0
  0
LINE
  5
222
330
1F
100
AcDbEntity
  8
0
  6
Continuous
 62
     8
370
    18
100
AcDbLine
 10
903.5988257108
 20
953.9613047693
 30
0.0
 11
797.5988257108
 21
953.9613047693
 31
0.0
  0
ELLIPSE
  5
223
330
1F
100
AcDbEntity
  8
0
  6
Continuous
 62
     8
370
    18
100
AcDbEllipse
 10
903.5988257108
 20
952.1811050955
 30
0.0
 11
28.0
 21
0.0
 31
0.0
210
0.0
220
0.0
230
1.0
 40
0.0608401234
 41
0.0075591103181338
 42
1.343262674821335
  0
ARC
  5
224
330
1F
100
AcDbEntity
  8
0
  6
Continuous
 62
     8
370
    18
100
AcDbCircle
 10
933.5973245568
 20
952.1914358975
 30
0.0
 40
1.999300425703644
100
AcDbArc
 50
91.1268920303
 51
179.9270312827
  0
ELLIPSE
  5
225
330
1F
100
AcDbEntity
  8
0
  6
Continuous
 62
     8
370
    18
100
AcDbEllipse
 10
797.5988257108
 20
952.1811050955
 30
0.0
 11
28.0
 21
0.0
 31
0.0
210
0.0
220
0.0
230
1.0
 40
0.0608401234
 41
1.798329978768459
 42
3.134033543271658
  0
ARC
  5
226
330
1F
100
AcDbEntity
  8
0
  6
Continuous
 62
     8
370
    18
100
AcDbCircle
 10
767.6003268647
 20
952.1914358975
 30
0.0
 40
1.999300425704433
100
AcDbArc
 50
0.0729687173
 51
88.8731079808
  0
LINE
  5
227
330
1F
100
AcDbEntity
  8
0
  6
Continuous
 62
     8
370
    18
100
AcDbLine
 10
797.5988257108
 20
953.9613047693
 30
0.0
 11
797.5988257108
 21
949.2859378565
 31
0.0
  0
LINE
  5
228
330
1F
100
AcDbEntity
  8
0
  6
Continuous
 62
     8
370
    18
100
AcDbLine
 10
903.5988257108
 20
953.9613047693
 30
0.0
 11
903.5988257108
 21
949.2859378565
 31
0.0
  0
LINE
  5
229
330
1F
100
AcDbEntity
  8
0
  6
Continuous
 62
     8
370
    18
100
AcDbLine
 10
1440.5988257108
 20
973.2855378565
 30
0.0
 11
260.5988257108
 21
973.2855378565
 31
0.0
  0
SPLINE
  5
22A
330
1F
100
AcDbEntity
  8
0
  6
Continuous
 62
     7
370
    35
100
AcDbSpline
210
0.0
220
0.0
230
1.0
 70
     8
 71
     3
 72
    21
 73
    17
 74
     0
 42
0.000000001
 43
0.00000001
 40
0.0
 40
0.0
 40
0.0
 40
0.0
 40
0.0255454281536364
 40
0.1124490500126431
 40
0.2033170199334611
 40
0.2490804834392613
 40
0.2715852713888898
 40
0.2935013353422645
 40
0.3146012159253386
 40
0.3348809512001738
 40
0.4493216932183398
 40
0.5252770940437804
 40
0.6051551178829105
 40
0.7851511723432292
 40
0.998607997864527
 40
1.0
 40
1.0
 40
1.0
 40
1.0
 10
1805.528245356632
 20
941.5590061587388
 30
0.0
 10
1805.478529513799
 20
941.6756676993067
 30
0.0
 10
1805.259684119483
 20
942.1892030110257
 30
0.0
 10
1804.587494042103
 20
942.9700011503107
 30
0.0
 10
1803.71433127382
 20
943.657137072248
 30
0.0
 10
1803.020924926347
 20
944.0356203048264
 30
0.0
 10
1802.606442724457
 20
944.2089885831908
 30
0.0
 10
1802.360936089716
 20
944.4264731085424
 30
0.0
 10
1802.196886446132
 20
944.6940419258513
 30
0.0
 10
1802.073122595656
 20
945.4267389806183
 30
0.0
 10
1802.170538211452
 20
946.3452429405746
 30
0.0
 10
1802.145504459031
 20
947.2402565237406
 30
0.0
 10
1802.153262498845
 20
948.0668302347601
 30
0.0
 10
1802.148749680982
 20
948.6367693256416
 30
0.0
 10
1802.150144454014
 20
948.8254377148007
 30
0.0
 10
1802.150142811404
 20
948.7674969770919
 30
0.0
 10
1802.150142800761
 20
948.7671215799744
 30
0.0
  0
SPLINE
  5
22B
330
1F
100
AcDbEntity
  8
0
  6
Continuous
 62
     7
370
    35
100
AcDbSpline
210
0.0
220
0.0
230
1.0
 70
     8
 71
     3
 72
    17
 73
    13
 74
     0
 42
0.000000001
 43
0.00000001
 40
0.0
 40
0.0
 40
0.0
 40
0.0
 40
0.2768005000327556
 40
0.6223728768910286
 40
0.7088196796020605
 40
0.7838448634527456
 40
0.8157357368176029
 40
0.8451960926776674
 40
0.8741221963423499
 40
0.9038029177953378
 40
0.9671951904878255
 40
1.0
 40
1.0
 40
1.0
 40
1.0
 10
1745.150137183023
 20
945.9602922913725
 30
0.0
 10
1745.142162866154
 20
945.9376079692946
 30
0.0
 10
1745.124232990557
 20
945.8866033403644
 30
0.0
 10
1745.241544284109
 20
945.2603780107446
 30
0.0
 10
1745.054448854905
 20
944.5372532438782
 30
0.0
 10
1744.695764345663
 20
944.2046491767794
 30
0.0
 10
1744.164884466847
 20
943.9752213012076
 30
0.0
 10
1743.732987275964
 20
943.7265758001771
 30
0.0
 10
1743.272784082106
 20
943.4127455447297
 30
0.0
 10
1742.656964505573
 20
942.885577736533
 30
0.0
 10
1742.061401955835
 20
942.2394337620887
 30
0.0
 10
1741.828153483754
 20
941.6496489040568
 30
0.0
 10
1741.748611864401
 20
941.4485224303895
 30
0.0
  0
ARC
  5
22C
330
1F
100
AcDbEntity
  8
0
  6
Continuous
 62
     7
370
    35
100
AcDbCircle
 10
1753.7135821576
 20
893.8359360761
 30
0.0
 40
15.00000010674827
100
AcDbArc
 50
235.2279399476
 51
269.9820315269
  0
ARC
  5
22D
330
1F
100
AcDbEntity
  8
0
  6
Continuous
 62
     7
370
    35
100
AcDbCircle
 10
1793.5867233524
 20
893.8358285797
 30
0.0
 40
14.99989260178992
100
AcDbArc
 50
270.0178639833
 51
304.8251482651
  0
SPLINE
  5
22E
330
1F
100
AcDbEntity
  8
0
  6
Continuous
 62
     7
370
    35
100
AcDbSpline
210
0.0
220
0.0
230
1.0
 70
     8
 71
     3
 72
    14
 73
    10
 74
     0
 42
0.000000001
 43
0.00000001
 40
0.0
 40
0.0
 40
0.0
 40
0.0
 40
0.0318525785995404
 40
0.1445186986112301
 40
0.2397822960191954
 40
0.326083813265316
 40
0.511918034706328
 40
0.8180492736702176
 40
1.0
 40
1.0
 40
1.0
 40
1.0
 10
1741.765424099518
 20
941.5597391096051
 30
0.0
 10
1741.76626736156
 20
941.5613876491117
 30
0.0
 10
1741.770093335415
 20
941.5688672565589
 30
0.0
 10
1741.761034953637
 20
941.55168464991
 30
0.0
 10
1741.739966932377
 20
941.5144922871261
 30
0.0
 10
1741.687450855509
 20
941.4260514311244
 30
0.0
 10
1741.574308135204
 20
941.2568529391658
 30
0.0
 10
1741.431904223638
 20
941.0661461561709
 30
0.0
 10
1741.30318556319
 20
940.9505902550555
 30
0.0
 10
1741.25520088966
 20
940.9075124901825
 30
0.0
  0
SPLINE
  5
22F
330
1F
100
AcDbEntity
  8
0
  6
Continuous
 62
     7
370
    35
100
AcDbSpline
210
0.0
220
0.0
230
1.0
 70
     8
 71
     3
 72
    14
 73
    10
 74
     0
 42
0.000000001
 43
0.00000001
 40
0.0
 40
0.0
 40
0.0
 40
0.0
 40
0.1910307518063988
 40
0.5100957646009037
 40
0.6698730470890186
 40
0.7584357924384602
 40
0.8292877147551062
 40
0.9200934040580184
 40
1.0
 40
1.0
 40
1.0
 40
1.0
 10
1806.008219209267
 20
940.9402792123253
 30
0.0
 10
1805.961754737088
 20
940.985060685866
 30
0.0
 10
1805.837683977596
 20
941.1046374543687
 30
0.0
 10
1805.704125658302
 20
941.2872268774051
 30
0.0
 10
1805.602009505692
 20
941.4439605570782
 30
0.0
 10
1805.560902995316
 20
941.5136003524251
 30
0.0
 10
1805.542315799896
 20
941.5463200319065
 30
0.0
 10
1805.533097539504
 20
941.5632027518469
 30
0.0
 10
1805.533773796406
 20
941.5619510788886
 30
0.0
 10
1805.53409033711
 20
941.5613651988202
 30
0.0
  0
SPLINE
  5
230
330
1F
100
AcDbEntity
  8
0
  6
Continuous
 62
     7
370
    35
100
AcDbSpline
210
0.0
220
0.0
230
1.0
 70
     8
 71
     3
 72
    13
 73
     9
 74
     0
 42
0.000000001
 43
0.00000001
 40
0.0
 40
0.0
 40
0.0
 40
0.0
 40
0.2312650499635739
 40
0.5779599321420221
 40
0.7146428759275881
 40
0.8157373287062061
 40
0.9213222680645994
 40
1.0
 40
1.0
 40
1.0
 40
1.0
 10
1745.802737262798
 20
881.0857587275202
 30
0.0
 10
1745.823741618507
 20
881.0766530510243
 30
0.0
 10
1745.876234098464
 20
881.0538968404753
 30
0.0
 10
1745.938984633931
 20
881.0197421669928
 30
0.0
 10
1745.981166402644
 20
880.9965324809608
 30
0.0
 10
1745.99653449417
 20
880.9878278093304
 30
0.0
 10
1746.003155989261
 20
880.9840240719213
 30
0.0
 10
1746.002744840213
 20
880.9842621289591
 30
0.0
 10
1746.002569284988
 20
880.9843637761766
 30
0.0
  0
LINE
  5
231
330
1F
100
AcDbEntity
  8
0
  6
Continuous
 62
     7
370
    35
100
AcDbLine
 10
1745.8139466613
 20
881.098469418
 30
0.0
 11
1745.6876593202
 21
881.1771699009
 31
0.0
  0
SPLINE
  5
232
330
1F
100
AcDbEntity
  8
0
  6
Continuous
 62
     7
370
    35
100
AcDbSpline
210
0.0
220
0.0
230
1.0
 70
     8
 71
     3
 72
    12
 73
     8
 74
     0
 42
0.000000001
 43
0.00000001
 40
0.0
 40
0.0
 40
0.0
 40
0.0
 40
0.1423630360673927
 40
0.2495220828187859
 40
0.3688911778788911
 40
0.6085326590872853
 40
1.0
 40
1.0
 40
1.0
 40
1.0
 10
1801.297541198087
 20
880.9842594680482
 30
0.0
 10
1801.29798615472
 20
880.9845179394748
 30
0.0
 10
1801.298766037678
 20
880.9849709666826
 30
0.0
 10
1801.314218442408
 20
880.9937931266654
 30
0.0
 10
1801.347021975685
 20
881.0119035164655
 30
0.0
 10
1801.414481230961
 20
881.0493445201259
 30
0.0
 10
1801.476121983841
 20
881.0737543626074
 30
0.0
 10
1801.514356818748
 20
881.0888954219514
 30
0.0
  0
LINE
  5
233
330
1F
100
AcDbEntity
  8
0
  6
Continuous
 62
     7
370
    35
100
AcDbLine
 10
1742.1501385539
 20
878.835936707
 30
0.0
 11
1754.1514387846
 21
878.835936707
 31
0.0
  0
ARC
  5
234
330
1F
100
AcDbEntity
  8
0
  6
Continuous
 62
     7
370
    35
100
AcDbCircle
 10
1742.1501390606
 20
891.8359378565
 30
0.0
 40
13.0
100
AcDbArc
 50
180.0
 51
270.0
  0
SPLINE
  5
235
330
1F
100
AcDbEntity
  8
0
  6
Continuous
 62
     7
370
    35
100
AcDbSpline
210
0.0
220
0.0
230
1.0
 70
     8
 71
     3
 72
     9
 73
     5
 74
     0
 42
0.000000001
 43
0.00000001
 40
0.0
 40
0.0
 40
0.0
 40
0.0
 40
0.2941019943722703
 40
0.9999999999999999
 40
0.9999999999999999
 40
0.9999999999999999
 40
0.9999999999999999
 10
1802.150153976632
 20
946.9009076026374
 30
0.0
 10
1802.150152628345
 20
947.1605382047351
 30
0.0
 10
1802.150148043924
 20
948.0433292332409
 30
0.0
 10
1802.150147154145
 20
948.771748165807
 30
0.0
 10
1802.150146526051
 20
949.285937637567
 30
0.0
  0
SPLINE
  5
236
330
1F
100
AcDbEntity
  8
0
  6
Continuous
 62
     7
370
    35
100
AcDbSpline
210
0.0
220
0.0
230
1.0
 70
    24
 71
     3
 72
    13
 73
     9
 74
     0
 42
0.000000001
 43
0.00000001
 40
0.0
 40
0.0
 40
0.0
 40
0.0
 40
0.3691963091273465
 40
0.748249976620948
 40
0.8262739057746114
 40
0.9040766823884854
 40
0.9808985980115066
 40
1.0
 40
1.0
 40
1.0
 40
1.0
 10
1802.150139075471
 20
949.285937637567
 30
0.0
 10
1802.161965779464
 20
949.285937637567
 30
0.0
 10
1802.185934954581
 20
949.285937637567
 30
0.0
 10
1802.051497377355
 20
949.285937637567
 30
0.0
 10
1802.215701591643
 20
949.285937637567
 30
0.0
 10
1801.900681897924
 20
949.285937637567
 30
0.0
 10
1801.100648813349
 20
949.285937637567
 30
0.0
 10
1800.239048592834
 20
949.285937637567
 30
0.0
 10
1800.067476418568
 20
949.285937637567
 30
0.0
  0
LINE
  5
237
330
1F
100
AcDbEntity
  8
0
  6
Continuous
 62
     7
370
    35
100
AcDbLine
 10
1802.2339283049
 20
944.6766559747
 30
0.0
 11
1802.1678342044
 21
945.2024127138
 31
0.0
  0
SPLINE
  5
238
330
1F
100
AcDbEntity
  8
0
  6
Continuous
 62
     7
370
    35
100
AcDbSpline
210
0.0
220
0.0
230
1.0
 70
     8
 71
     3
 72
     9
 73
     5
 74
     0
 42
0.000000001
 43
0.00000001
 40
0.0
 40
0.0
 40
0.0
 40
0.0
 40
0.4639730100301842
 40
1.0
 40
1.0
 40
1.0
 40
1.0
 10
1805.594525721622
 20
941.4358527180846
 30
0.0
 10
1805.56511084728
 20
941.4972223204976
 30
0.0
 10
1805.501713033817
 20
941.6294920885366
 30
0.0
 10
1805.487392299841
 20
941.6497530366162
 30
0.0
 10
1805.479715999914
 20
941.6606134516294
 30
0.0
  0
SPLINE
  5
239
330
1F
100
AcDbEntity
  8
0
  6
Continuous
 62
     7
370
    35
100
AcDbSpline
210
0.0
220
0.0
230
1.0
 70
     8
 71
     3
 72
    12
 73
     8
 74
     0
 42
0.000000001
 43
0.00000001
 40
0.0
 40
0.0
 40
0.0
 40
0.0
 40
0.0000116454751395
 40
0.0165619494537754
 40
0.2254763790943302
 40
0.6569695918089118
 40
0.9999999999999999
 40
0.9999999999999999
 40
0.9999999999999999
 40
0.9999999999999999
 10
1805.542766538216
 20
941.2420072374041
 30
0.0
 10
1805.542771505132
 20
941.2419935782104
 30
0.0
 10
1805.549835348693
 20
941.2225677607382
 30
0.0
 10
1805.657366616271
 20
940.9412394657385
 30
0.0
 10
1806.003895867914
 20
940.0127377089307
 30
0.0
 10
1806.587259032859
 20
938.4330932329705
 30
0.0
 10
1807.021563232221
 20
937.1819646328777
 30
0.0
 10
1807.213913139654
 20
936.627849635213
 30
0.0
  0
SPLINE
  5
23A
330
1F
100
AcDbEntity
  8
0
  6
Continuous
 62
     7
370
    35
100
AcDbSpline
210
0.0
220
0.0
230
1.0
 70
     8
 71
     3
 72
    15
 73
    11
 74
     0
 42
0.000000001
 43
0.00000001
 40
0.0
 40
0.0
 40
0.0
 40
0.0
 40
0.1218108426115062
 40
0.2436370689119372
 40
0.3683236608265777
 40
0.4930006352855147
 40
0.6185872273216672
 40
0.7450342401164958
 40
0.871990472181674
 40
1.0
 40
1.0
 40
1.0
 40
1.0
 10
1810.388493773294
 20
925.8488991079026
 30
0.0
 10
1810.721354458426
 20
924.371234998272
 30
0.0
 10
1811.387117866206
 20
921.4157201624132
 30
0.0
 10
1811.949898244425
 20
916.8660144743579
 30
0.0
 10
1812.211334431019
 20
912.2567252018956
 30
0.0
 10
1812.116710013722
 20
907.5926411794438
 30
0.0
 10
1811.6540339414
 20
902.9280688668346
 30
0.0
 10
1810.792554804999
 20
898.293043604893
 30
0.0
 10
1809.552359128901
 20
893.7075381320009
 30
0.0
 10
1808.373470756406
 20
890.7635089275319
 30
0.0
 10
1807.781591501785
 20
889.2854132470782
 30
0.0
  0
SPLINE
  5
23B
330
1F
100
AcDbEntity
  8
0
  6
Continuous
 62
     7
370
    35
100
AcDbSpline
210
0.0
220
0.0
230
1.0
 70
     8
 71
     3
 72
    15
 73
    11
 74
     0
 42
0.000000001
 43
0.00000001
 40
0.0
 40
0.0
 40
0.0
 40
0.0
 40
0.1218108426115062
 40
0.2436370689119372
 40
0.3683236608265777
 40
0.4930006352855147
 40
0.6185872273216672
 40
0.7450342401164958
 40
0.871990472181674
 40
1.0
 40
1.0
 40
1.0
 40
1.0
 10
1736.911784347845
 20
925.8488991079026
 30
0.0
 10
1736.578923662713
 20
924.371234998272
 30
0.0
 10
1735.913160254933
 20
921.4157201624132
 30
0.0
 10
1735.350379876714
 20
916.8660144743579
 30
0.0
 10
1735.08894369012
 20
912.2567252018956
 30
0.0
 10
1735.183568107418
 20
907.5926411794438
 30
0.0
 10
1735.646244179739
 20
902.9280688668346
 30
0.0
 10
1736.507723316141
 20
898.293043604893
 30
0.0
 10
1737.747918992239
 20
893.7075381320009
 30
0.0
 10
1738.926807364734
 20
890.7635089275319
 30
0.0
 10
1739.518686619354
 20
889.2854132470782
 30
0.0
  0
SPLINE
  5
23C
330
1F
100
AcDbEntity
  8
0
  6
Continuous
 62
     7
370
    35
100
AcDbSpline
210
0.0
220
0.0
230
1.0
 70
     8
 71
     3
 72
    12
 73
     8
 74
     0
 42
0.000000001
 43
0.00000001
 40
0.0
 40
0.0
 40
0.0
 40
0.0
 40
0.0000116454751395
 40
0.0165619494537754
 40
0.2254763790943302
 40
0.6569695918089118
 40
0.9999999999999999
 40
0.9999999999999999
 40
0.9999999999999999
 40
0.9999999999999999
 10
1741.757511582924
 20
941.2420072374041
 30
0.0
 10
1741.757506616008
 20
941.2419935782104
 30
0.0
 10
1741.750442772446
 20
941.2225677607382
 30
0.0
 10
1741.642911504868
 20
940.9412394657385
 30
0.0
 10
1741.296382253225
 20
940.0127377089307
 30
0.0
 10
1740.713019088281
 20
938.4330932329705
 30
0.0
 10
1740.278714888919
 20
937.1819646328777
 30
0.0
 10
1740.086364981485
 20
936.627849635213
 30
0.0
  0
SPLINE
  5
23D
330
1F
100
AcDbEntity
  8
0
  6
Continuous
 62
     7
370
    35
100
AcDbSpline
210
0.0
220
0.0
230
1.0
 70
     8
 71
     3
 72
    11
 73
     7
 74
     0
 42
0.000000001
 43
0.00000001
 40
0.0
 40
0.0
 40
0.0
 40
0.0
 40
0.0347537895453851
 40
0.2142493135768864
 40
0.4963137736266424
 40
1.0
 40
1.0
 40
1.0
 40
1.0
 10
1745.13243274088
 20
945.2023139936025
 30
0.0
 10
1745.138858681384
 20
945.2492316515061
 30
0.0
 10
1745.178473162568
 20
945.5384684838627
 30
0.0
 10
1745.131887484532
 20
946.2171547472794
 30
0.0
 10
1745.160540136067
 20
947.5296182832334
 30
0.0
 10
1745.154201971059
 20
948.5998754819767
 30
0.0
 10
1745.150139045669
 20
949.285937637567
 30
0.0
  0
SPLINE
  5
23E
330
1F
100
AcDbEntity
  8
0
  6
Continuous
 62
     7
370
    35
100
AcDbSpline
210
0.0
220
0.0
230
1.0
 70
    24
 71
     3
 72
    13
 73
     9
 74
     0
 42
0.000000001
 43
0.00000001
 40
0.0
 40
0.0
 40
0.0
 40
0.0
 40
0.3699056009583239
 40
0.7496874980230464
 40
0.827861325033761
 40
0.9058135746312898
 40
0.9827830788293977
 40
1.0
 40
1.0
 40
1.0
 40
1.0
 10
1745.150139045669
 20
949.285937637567
 30
0.0
 10
1745.138234550354
 20
949.285937637567
 30
0.0
 10
1745.114107715605
 20
949.285937637567
 30
0.0
 10
1745.249429736075
 20
949.285937637567
 30
0.0
 10
1745.084145485846
 20
949.285937637567
 30
0.0
 10
1745.401264966669
 20
949.285937637567
 30
0.0
 10
1746.186655964977
 20
949.285937637567
 30
0.0
 10
1747.028852405234
 20
949.285937637567
 30
0.0
 10
1747.182802718831
 20
949.285937637567
 30
0.0
  0
ARC
  5
23F
330
1F
100
AcDbEntity
  8
0
  6
Continuous
 62
     7
370
    35
100
AcDbCircle
 10
1773.6501390606
 20
903.8359378565
 30
0.0
 40
25.0
100
AcDbArc
 50
0.0
 51
53.2016885569
  0
ARC
  5
240
330
1F
100
AcDbEntity
  8
0
  6
Continuous
 62
     7
370
    35
100
AcDbCircle
 10
1773.6501390606
 20
903.8359378565
 30
0.0
 40
25.0
100
AcDbArc
 50
126.9415509922
 51
0.0
  0
SPLINE
  5
241
330
1F
100
AcDbEntity
  8
0
  6
Continuous
 62
     7
370
    35
100
AcDbSpline
210
0.0
220
0.0
230
1.0
 70
     8
 71
     3
 72
     9
 73
     5
 74
     0
 42
0.000000001
 43
0.00000001
 40
0.0
 40
0.0
 40
0.0
 40
0.0
 40
0.4409379056616193
 40
1.0
 40
1.0
 40
1.0
 40
1.0
 10
1745.6884230047
 20
881.1782800373727
 30
0.0
 10
1745.615956567143
 20
881.2236043679006
 30
0.0
 10
1745.451610438978
 20
881.3263951008947
 30
0.0
 10
1745.267388883124
 20
881.4534051539185
 30
0.0
 10
1745.164397594286
 20
881.5244116601641
 30
0.0
  0
LINE
  5
242
330
1F
100
AcDbEntity
  8
0
  6
Continuous
 62
     7
370
    35
100
AcDbLine
 10
1746.5747273087
 20
880.7330482421
 30
0.0
 11
1746.0592886924
 21
880.9515663204
 31
0.0
  0
SPLINE
  5
243
330
1F
100
AcDbEntity
  8
0
  6
Continuous
 62
     7
370
    35
100
AcDbSpline
210
0.0
220
0.0
230
1.0
 70
    24
 71
     3
 72
    18
 73
    14
 74
     0
 42
0.000000001
 43
0.00000001
 40
0.0
 40
0.0
 40
0.0
 40
0.0
 40
0.0528900355595136
 40
0.1308503164567454
 40
0.2088349440813272
 40
0.2788361689709801
 40
0.3488290091806333
 40
0.4127449335797175
 40
0.4766196901632541
 40
0.54056411650798
 40
0.6045882902277284
 40
0.8596063740204783
 40
1.0
 40
1.0
 40
1.0
 40
1.0
 10
1773.65013906057
 20
878.8359367069895
 30
0.0
 10
1772.762984913099
 20
878.8359367069895
 30
0.0
 10
1770.568159371493
 20
878.8359367069895
 30
0.0
 10
1767.207451036014
 20
878.8359367069895
 30
0.0
 10
1763.833946216903
 20
878.8359367069895
 30
0.0
 10
1760.914246406727
 20
878.8359367069895
 30
0.0
 10
1758.529036916264
 20
878.8359367069895
 30
0.0
 10
1756.609007472044
 20
878.8359367069895
 30
0.0
 10
1755.166207052609
 20
878.8359367069895
 30
0.0
 10
1754.249304760917
 20
878.8359367069895
 30
0.0
 10
1753.707125280641
 20
878.8359367069894
 30
0.0
 10
1753.736861945232
 20
878.8359367069895
 30
0.0
 10
1753.740338616744
 20
878.8359367069895
 30
0.0
 10
1753.74157303269
 20
878.8359367069895
 30
0.0
  0
LINE
  5
244
330
1F
100
AcDbEntity
  8
0
  6
Continuous
 62
     7
370
    35
100
AcDbLine
 10
1800.7255508124
 20
880.7330482421
 30
0.0
 11
1801.2409894287
 21
880.9515663204
 31
0.0
  0
SPLINE
  5
245
330
1F
100
AcDbEntity
  8
0
  6
Continuous
 62
     7
370
    35
100
AcDbSpline
210
0.0
220
0.0
230
1.0
 70
     8
 71
     3
 72
    10
 73
     6
 74
     0
 42
0.000000001
 43
0.00000001
 40
0.0
 40
0.0
 40
0.0
 40
0.0
 40
0.365188483814515
 40
0.9388404977625484
 40
1.0
 40
1.0
 40
1.0
 40
1.0
 10
1801.621045407606
 20
881.1841212925607
 30
0.0
 10
1801.69054970977
 20
881.2280076290494
 30
0.0
 10
1801.869234023578
 20
881.3408322985563
 30
0.0
 10
1802.084622975714
 20
881.483404457507
 30
0.0
 10
1802.218453112141
 20
881.5818212281064
 30
0.0
 10
1802.231346678687
 20
881.5913029727632
 30
0.0
  0
SPLINE
  5
246
330
1F
100
AcDbEntity
  8
0
  6
Continuous
 62
     7
370
    35
100
AcDbSpline
210
0.0
220
0.0
230
1.0
 70
    24
 71
     3
 72
    18
 73
    14
 74
     0
 42
0.000000001
 43
0.00000001
 40
0.0
 40
0.0
 40
0.0
 40
0.0
 40
0.0528900355595197
 40
0.130850316456751
 40
0.2088349440813323
 40
0.2788361689709848
 40
0.3488290091806374
 40
0.4127449335797213
 40
0.4766196901632574
 40
0.540564116507983
 40
0.604588290227731
 40
0.8596063740204791
 40
1.0
 40
1.0
 40
1.0
 40
1.0
 10
1773.650139060569
 20
878.8359367069895
 30
0.0
 10
1774.53729320804
 20
878.8359367069895
 30
0.0
 10
1776.732118749646
 20
878.8359367069895
 30
0.0
 10
1780.092827085126
 20
878.8359367069894
 30
0.0
 10
1783.466331904237
 20
878.8359367069895
 30
0.0
 10
1786.386031714412
 20
878.8359367069895
 30
0.0
 10
1788.771241204875
 20
878.8359367069895
 30
0.0
 10
1790.691270649095
 20
878.8359367069895
 30
0.0
 10
1792.13407106853
 20
878.8359367069895
 30
0.0
 10
1793.050973360223
 20
878.8359367069895
 30
0.0
 10
1793.593152840498
 20
878.8359367069894
 30
0.0
 10
1793.563416175908
 20
878.8359367069895
 30
0.0
 10
1793.559939504396
 20
878.8359367069895
 30
0.0
 10
1793.558705088449
 20
878.8359367069895
 30
0.0
  0
SPLINE
  5
247
330
1F
100
AcDbEntity
  8
0
  6
Continuous
 62
     7
370
    35
100
AcDbSpline
210
0.0
220
0.0
230
1.0
 70
     8
 71
     3
 72
    14
 73
    10
 74
     0
 42
0.000000001
 43
0.00000001
 40
0.0
 40
0.0
 40
0.0
 40
0.0
 40
0.1296971036821296
 40
0.2603676130745293
 40
0.3857762900438513
 40
0.5111848432870525
 40
0.6402379574765267
 40
0.7692908175858975
 40
1.0
 40
1.0
 40
1.0
 40
1.0
 10
1738.330024716211
 20
888.776210766762
 30
0.0
 10
1737.715722867279
 20
890.3102645265635
 30
0.0
 10
1736.482508696932
 20
893.3898854620198
 30
0.0
 10
1735.161926575859
 20
898.1310313929071
 30
0.0
 10
1734.231615450421
 20
902.902668902585
 30
0.0
 10
1733.706047913084
 20
907.717726491022
 30
0.0
 10
1733.596673182326
 20
912.6036737429727
 30
0.0
 10
1733.941402874196
 20
918.8325612205166
 30
0.0
 10
1734.919815866599
 20
923.3175950263034
 30
0.0
 10
1735.547255215002
 20
926.1937697199279
 30
0.0
  0
SPLINE
  5
248
330
1F
100
AcDbEntity
  8
0
  6
Continuous
 62
     7
370
    35
100
AcDbSpline
210
0.0
220
0.0
230
1.0
 70
     8
 71
     3
 72
    14
 73
    10
 74
     0
 42
0.000000001
 43
0.00000001
 40
0.0
 40
0.0
 40
0.0
 40
0.0
 40
0.1296971036821296
 40
0.2603676130745293
 40
0.3857762900438513
 40
0.5111848432870525
 40
0.6402379574765267
 40
0.7692908175858975
 40
1.0
 40
1.0
 40
1.0
 40
1.0
 10
1808.970253404928
 20
888.776210766762
 30
0.0
 10
1809.58455525386
 20
890.3102645265635
 30
0.0
 10
1810.817769424207
 20
893.3898854620198
 30
0.0
 10
1812.138351545281
 20
898.1310313929071
 30
0.0
 10
1813.068662670719
 20
902.902668902585
 30
0.0
 10
1813.594230208055
 20
907.717726491022
 30
0.0
 10
1813.703604938813
 20
912.6036737429727
 30
0.0
 10
1813.358875246943
 20
918.8325612205166
 30
0.0
 10
1812.38046225454
 20
923.3175950263034
 30
0.0
 10
1811.753022906137
 20
926.1937697199279
 30
0.0
  0
SPLINE
  5
249
330
1F
100
AcDbEntity
  8
0
  6
Continuous
 62
     7
370
    35
100
AcDbSpline
210
0.0
220
0.0
230
1.0
 70
     8
 71
     3
 72
    10
 73
     6
 74
     0
 42
0.000000001
 43
0.00000001
 40
0.0
 40
0.0
 40
0.0
 40
0.0
 40
0.3422811078462865
 40
0.6664354576432162
 40
1.0
 40
1.0
 40
1.0
 40
1.0
 10
1745.068931442452
 20
881.5913029727632
 30
0.0
 10
1744.304030272868
 20
881.9942144715969
 30
0.0
 10
1742.814736095311
 20
882.7786998053176
 30
0.0
 10
1740.953772239068
 20
884.5573820786097
 30
0.0
 10
1739.976924070075
 20
885.916361919043
 30
0.0
 10
1739.481511947466
 20
886.6055735168153
 30
0.0
  0
SPLINE
  5
24A
330
1F
100
AcDbEntity
  8
0
  6
Continuous
 62
     7
370
    35
100
AcDbSpline
210
0.0
220
0.0
230
1.0
 70
     8
 71
     3
 72
    10
 73
     6
 74
     0
 42
0.000000001
 43
0.00000001
 40
0.0
 40
0.0
 40
0.0
 40
0.0
 40
0.3422811078462865
 40
0.6664354576432162
 40
1.0
 40
1.0
 40
1.0
 40
1.0
 10
1802.231346678687
 20
881.5913029727632
 30
0.0
 10
1802.996247848271
 20
881.9942144715969
 30
0.0
 10
1804.485542025829
 20
882.7786998053176
 30
0.0
 10
1806.346505882072
 20
884.5573820786097
 30
0.0
 10
1807.323354051064
 20
885.916361919043
 30
0.0
 10
1807.818766173674
 20
886.6055735168153
 30
0.0
  0
SPLINE
  5
24B
330
1F
100
AcDbEntity
  8
0
  6
Continuous
 62
     7
370
    35
100
AcDbSpline
210
0.0
220
0.0
230
1.0
 70
     8
 71
     3
 72
     9
 73
     5
 74
     0
 42
0.000000001
 43
0.00000001
 40
0.0
 40
0.0
 40
0.0
 40
0.0
 40
0.8536362427536229
 40
0.9999999999999999
 40
0.9999999999999999
 40
0.9999999999999999
 40
0.9999999999999999
 10
1811.753022906137
 20
926.1937697199279
 30
0.0
 10
1810.881036385147
 20
929.3048512934962
 30
0.0
 10
1809.859539783528
 20
932.9493563153693
 30
0.0
 10
1808.635419582632
 20
936.529470653803
 30
0.0
 10
1808.456252750708
 20
937.0534696397478
 30
0.0
  0
SPLINE
  5
24C
330
1F
100
AcDbEntity
  8
0
  6
Continuous
 62
     7
370
    35
100
AcDbSpline
210
0.0
220
0.0
230
1.0
 70
     8
 71
     3
 72
     9
 73
     5
 74
     0
 42
0.000000001
 43
0.00000001
 40
0.0
 40
0.0
 40
0.0
 40
0.0
 40
0.8536362427536229
 40
0.9999999999999999
 40
0.9999999999999999
 40
0.9999999999999999
 40
0.9999999999999999
 10
1735.547255215002
 20
926.1937697199279
 30
0.0
 10
1736.419241735993
 20
929.3048512934962
 30
0.0
 10
1737.440738337611
 20
932.9493563153693
 30
0.0
 10
1738.664858538508
 20
936.529470653803
 30
0.0
 10
1738.844025370432
 20
937.0534696397478
 30
0.0
  0
SPLINE
  5
24D
330
1F
100
AcDbEntity
  8
0
  6
Continuous
 62
     7
370
    35
100
AcDbSpline
210
0.0
220
0.0
230
1.0
 70
     8
 71
     3
 72
     9
 73
     5
 74
     0
 42
0.000000001
 43
0.00000001
 40
0.0
 40
0.0
 40
0.0
 40
0.0
 40
0.6310359673708577
 40
1.0
 40
1.0
 40
1.0
 40
1.0
 10
1738.844025370432
 20
937.0534696397478
 30
0.0
 10
1739.251806295511
 20
937.9899513185337
 30
0.0
 10
1739.898014984342
 20
939.473989831723
 30
0.0
 10
1741.000881776915
 20
940.6181603788988
 30
0.0
 10
1741.407799956155
 20
941.0403181580001
 30
0.0
  0
SPLINE
  5
24E
330
1F
100
AcDbEntity
  8
0
  6
Continuous
 62
     7
370
    35
100
AcDbSpline
210
0.0
220
0.0
230
1.0
 70
     8
 71
     3
 72
     9
 73
     5
 74
     0
 42
0.000000001
 43
0.00000001
 40
0.0
 40
0.0
 40
0.0
 40
0.0
 40
0.6310359673708577
 40
1.0
 40
1.0
 40
1.0
 40
1.0
 10
1808.456252750708
 20
937.0534696397478
 30
0.0
 10
1808.048471825628
 20
937.9899513185337
 30
0.0
 10
1807.402263136798
 20
939.473989831723
 30
0.0
 10
1806.299396344224
 20
940.6181603788988
 30
0.0
 10
1805.892478164984
 20
941.0403181580001
 30
0.0
  0
LINE
  5
24F
330
1F
100
AcDbEntity
  8
0
  6
Continuous
 62
     7
370
    35
100
AcDbLine
 10
1807.8187661737
 20
886.6055735168
 30
0.0
 11
1808.9702534049
 21
888.7762107668
 31
0.0
  0
LINE
  5
250
330
1F
100
AcDbEntity
  8
0
  6
Continuous
 62
     7
370
    35
100
AcDbLine
 10
1739.4815119475
 20
886.6055735168
 30
0.0
 11
1738.3300247162
 21
888.7762107668
 31
0.0
  0
LINE
  5
251
330
1F
100
AcDbEntity
  8
0
  6
Continuous
 62
     7
370
    35
100
AcDbLine
 10
1801.5122315406
 20
881.0950272498
 30
0.0
 11
1801.0192638754
 21
880.8765091715
 31
0.0
  0
LINE
  5
252
330
1F
100
AcDbEntity
  8
0
  6
Continuous
 62
     7
370
    35
100
AcDbLine
 10
1745.7880465805
 20
881.0950272498
 30
0.0
 11
1746.2810142457
 21
880.8765091715
 31
0.0
  0
LINE
  5
253
330
1F
100
AcDbEntity
  8
0
  6
Continuous
 62
     7
370
    35
100
AcDbLine
 10
1805.892478165
 20
941.040318158
 30
0.0
 11
1806.0375484198
 21
940.8996092868
 31
0.0
  0
LINE
  5
254
330
1F
100
AcDbEntity
  8
0
  6
Continuous
 62
     7
370
    35
100
AcDbLine
 10
1741.4077999562
 20
941.040318158
 30
0.0
 11
1741.2627297014
 21
940.8996092868
 31
0.0
  0
SPLINE
  5
255
330
1F
100
AcDbEntity
  8
0
  6
Continuous
 62
     7
370
    35
100
AcDbSpline
210
0.0
220
0.0
230
1.0
 70
    24
 71
     3
 72
    19
 73
    15
 74
     0
 42
0.000000001
 43
0.00000001
 40
0.0
 40
0.0
 40
0.0
 40
0.0
 40
0.0723118759457435
 40
0.1445205922627704
 40
0.2538055181087334
 40
0.3457400407331691
 40
0.437602059099113
 40
0.5576187463885617
 40
0.6329165378358105
 40
0.7083141163996941
 40
0.8053610856118711
 40
0.9023999648985555
 40
0.9968144244633551
 40
1.0
 40
1.0
 40
1.0
 40
1.0
 10
1729.150138285709
 20
896.9818257507975
 30
0.0
 10
1729.150138285709
 20
897.515398314664
 30
0.0
 10
1729.150138285709
 20
898.581782251419
 30
0.0
 10
1729.150138285709
 20
900.7226841320511
 30
0.0
 10
1729.150138285709
 20
903.3596228786762
 30
0.0
 10
1729.150138285709
 20
906.4680659870334
 30
0.0
 10
1729.150138285709
 20
909.5604621123333
 30
0.0
 10
1729.150138285709
 20
912.0784536237242
 30
0.0
 10
1729.150138285709
 20
913.9571587067206
 30
0.0
 10
1729.150138285709
 20
915.3434796250973
 30
0.0
 10
1729.150138285709
 20
916.4641297064334
 30
0.0
 10
1729.150138285709
 20
917.1933658779146
 30
0.0
 10
1729.150138285709
 20
917.344973085262
 30
0.0
 10
1729.150138285709
 20
917.3326362236527
 30
0.0
 10
1729.150138285709
 20
917.3322335598165
 30
0.0
  0
SPLINE
  5
256
330
1F
100
AcDbEntity
  8
0
  6
Continuous
 62
     7
370
    35
100
AcDbSpline
210
0.0
220
0.0
230
1.0
 70
     8
 71
     3
 72
    15
 73
    11
 74
     0
 42
0.000000001
 43
0.00000001
 40
0.0
 40
0.0
 40
0.0
 40
0.0
 40
0.1145007772698623
 40
0.2667209538797683
 40
0.4189409641174612
 40
0.5711609287678523
 40
0.7233847821356728
 40
0.8756088745814351
 40
0.9905143919801398
 40
1.0
 40
1.0
 40
1.0
 40
1.0
 10
1736.36302673514
 20
928.9349370417291
 30
0.0
 10
1735.873843422297
 20
928.6831007381154
 30
0.0
 10
1734.734327665858
 20
928.0964669988253
 30
0.0
 10
1733.17001922588
 20
926.8095818658699
 30
0.0
 10
1731.704023104392
 20
925.1730632017666
 30
0.0
 10
1730.534196134553
 20
923.3076222533739
 30
0.0
 10
1729.698887840184
 20
921.2720525929469
 30
0.0
 10
1729.251760452393
 20
919.3013453219594
 30
0.0
 10
1729.152335966916
 20
917.9743053035319
 30
0.0
 10
1729.15029399867
 20
917.377726460077
 30
0.0
 10
1729.150138285709
 20
917.3322335598165
 30
0.0
  0
SPLINE
  5
257
330
1F
100
AcDbEntity
  8
0
  6
Continuous
 62
     7
370
    35
100
AcDbSpline
210
0.0
220
0.0
230
1.0
 70
    24
 71
     3
 72
     9
 73
     5
 74
     0
 42
0.000000001
 43
0.00000001
 40
0.0
 40
0.0
 40
0.0
 40
0.0
 40
0.7035372592943102
 40
1.0
 40
1.0
 40
1.0
 40
1.0
 10
1729.150138285709
 20
893.6908186194594
 30
0.0
 10
1729.150138285709
 20
894.3933879957509
 30
0.0
 10
1729.150138285709
 20
895.3920122576648
 30
0.0
 10
1729.150138285709
 20
896.6182823564624
 30
0.0
 10
1729.150138285709
 20
896.9818257507975
 30
0.0
  0
LINE
  5
258
330
1F
100
AcDbEntity
  8
0
  6
Continuous
 62
     7
370
    35
100
AcDbLine
 10
1729.1501382857
 20
891.8359407005
 30
0.0
 11
1729.1501382857
 21
893.6908186195
 31
0.0
  0
LINE
  5
259
330
1F
100
AcDbEntity
  8
0
  6
Continuous
 62
     7
370
    35
100
AcDbLine
 10
1751.472660762
 20
900.672914159
 30
0.0
 11
1751.3841311007
 21
910.8174496112
 31
0.0
  0
ARC
  5
25A
330
1F
100
AcDbEntity
  8
0
  6
Continuous
 62
     7
370
    35
100
AcDbCircle
 10
1773.6501390606
 20
903.8359378565
 30
0.0
 40
22.56335600038324
100
AcDbArc
 50
131.7516164746
 51
180.0
  0
ARC
  5
25B
330
1F
100
AcDbEntity
  8
0
  6
Continuous
 62
     7
370
    35
100
AcDbCircle
 10
1773.6501390606
 20
903.8359378565
 30
0.0
 40
22.56335600038318
100
AcDbArc
 50
92.603725856
 51
124.3048904057
  0
ARC
  5
25C
330
1F
100
AcDbEntity
  8
0
  6
Continuous
 62
     7
370
    35
100
AcDbCircle
 10
1773.6501390606
 20
903.8359378565
 30
0.0
 40
22.56335600038306
100
AcDbArc
 50
55.7967904265
 51
87.5233728026
  0
ARC
  5
25D
330
1F
100
AcDbEntity
  8
0
  6
Continuous
 62
     7
370
    35
100
AcDbCircle
 10
1773.6501390606
 20
903.8359378565
 30
0.0
 40
22.56335600038324
100
AcDbArc
 50
180.0
 51
48.4183462599
  0
ARC
  5
25E
330
1F
100
AcDbEntity
  8
0
  6
Continuous
 62
     7
370
    35
100
AcDbCircle
 10
1773.6501390606
 20
903.8359378565
 30
0.0
 40
24.00000000000023
100
AcDbArc
 50
128.7586839232
 51
180.0
  0
ARC
  5
25F
330
1F
100
AcDbEntity
  8
0
  6
Continuous
 62
     7
370
    35
100
AcDbCircle
 10
1773.6501390606
 20
903.8359378565
 30
0.0
 40
23.99999999999992
100
AcDbArc
 50
92.4477517522
 51
124.0849725767
  0
ARC
  5
260
330
1F
100
AcDbEntity
  8
0
  6
Continuous
 62
     7
370
    35
100
AcDbCircle
 10
1773.6501390606
 20
903.8359378565
 30
0.0
 40
24.00000000000001
100
AcDbArc
 50
56.0255819496
 51
87.6717182285
  0
ARC
  5
261
330
1F
100
AcDbEntity
  8
0
  6
Continuous
 62
     7
370
    35
100
AcDbCircle
 10
1773.6501390606
 20
903.8359378565
 30
0.0
 40
24.00000000000023
100
AcDbArc
 50
180.0
 51
51.3942273327
  0
ARC
  5
262
330
1F
100
AcDbEntity
  8
0
  6
Continuous
 62
     7
370
    35
100
AcDbCircle
 10
1773.6501390606
 20
903.8359378565
 30
0.0
 40
25.04999999999995
100
AcDbArc
 50
126.8556036288
 51
0.0
  0
ARC
  5
263
330
1F
100
AcDbEntity
  8
0
  6
Continuous
 62
     7
370
    35
100
AcDbCircle
 10
1773.6501390606
 20
903.8359378565
 30
0.0
 40
25.05000000000015
100
AcDbArc
 50
92.3450927912
 51
123.4608476068
  0
ARC
  5
264
330
1F
100
AcDbEntity
  8
0
  6
Continuous
 62
     7
370
    35
100
AcDbCircle
 10
1773.6501390606
 20
903.8359378565
 30
0.0
 40
25.04999999999994
100
AcDbArc
 50
56.6560745196
 51
87.7693612957
  0
ARC
  5
265
330
1F
100
AcDbEntity
  8
0
  6
Continuous
 62
     7
370
    35
100
AcDbCircle
 10
1773.6501390606
 20
903.8359378565
 30
0.0
 40
25.04999999999995
100
AcDbArc
 50
0.0
 51
53.2871899396
  0
LINE
  5
266
330
1F
100
AcDbEntity
  8
0
  6
Continuous
 62
     7
370
    35
100
AcDbLine
 10
1724.2533596724
 20
959.4855380026
 30
0.0
 11
1723.1501373022
 21
959.4855380026
 31
0.0
  0
LINE
  5
267
330
1F
100
AcDbEntity
  8
0
  6
Continuous
 62
     7
370
    35
100
AcDbLine
 10
1806.5001400679
 20
959.2855378767
 30
0.0
 11
1806.5001400679
 21
953.5596783287
 31
0.0
  0
ARC
  5
268
330
1F
100
AcDbEntity
  8
0
  6
Continuous
 62
     7
370
    35
100
AcDbCircle
 10
1804.5001390606
 20
953.5596783782
 30
0.0
 40
2.000000000000227
100
AcDbArc
 50
295.0
 51
0.0
  0
LINE
  5
269
330
1F
100
AcDbEntity
  8
0
  6
Continuous
 62
     7
370
    35
100
AcDbLine
 10
1805.3453745812
 20
951.7470627804
 30
0.0
 11
1789.7799028575
 21
944.4887635079
 31
0.0
  0
ARC
  5
26A
330
1F
100
AcDbEntity
  8
0
  6
Continuous
 62
     7
370
    35
100
AcDbCircle
 10
1790.6251390606
 20
942.6761479454
 30
0.0
 40
1.999999999999931
100
AcDbArc
 50
115.0
 51
180.0
  0
LINE
  5
26B
330
1F
100
AcDbEntity
  8
0
  6
Continuous
 62
     7
370
    35
100
AcDbLine
 10
1788.6251392334
 20
942.6761480761
 30
0.0
 11
1788.6251392334
 21
908.3855391261
 31
0.0
  0
ARC
  5
26C
330
1F
100
AcDbEntity
  8
0
  6
Continuous
 62
     7
370
    35
100
AcDbCircle
 10
1786.6251390606
 20
908.3855378565
 30
0.0
 40
2.0
100
AcDbArc
 50
270.0
 51
0.0
  0
LINE
  5
26D
330
1F
100
AcDbEntity
  8
0
  6
Continuous
 62
     7
370
    35
100
AcDbLine
 10
1786.6251389056
 20
906.3855387983
 30
0.0
 11
1760.6251393005
 21
906.3855387983
 31
0.0
  0
LINE
  5
26E
330
1F
100
AcDbEntity
  8
0
  6
Continuous
 62
     7
370
    35
100
AcDbLine
 10
1758.6251389727
 20
908.3855391261
 30
0.0
 11
1758.6251389727
 21
942.6761480761
 31
0.0
  0
ARC
  5
26F
330
1F
100
AcDbEntity
  8
0
  6
Continuous
 62
     7
370
    35
100
AcDbCircle
 10
1756.6251390606
 20
942.6761479454
 30
0.0
 40
2.000000000000227
100
AcDbArc
 50
0.0
 51
65.0
  0
LINE
  5
270
330
1F
100
AcDbEntity
  8
0
  6
Continuous
 62
     7
370
    35
100
AcDbLine
 10
1757.4703762799
 20
944.4887635079
 30
0.0
 11
1741.9049026936
 21
951.7470627804
 31
0.0
  0
ARC
  5
271
330
1F
100
AcDbEntity
  8
0
  6
Continuous
 62
     7
370
    35
100
AcDbCircle
 10
1742.7501390606
 20
953.5596783782
 30
0.0
 40
1.999999999999931
100
AcDbArc
 50
180.0
 51
245.0
  0
LINE
  5
272
330
1F
100
AcDbEntity
  8
0
  6
Continuous
 62
     7
370
    35
100
AcDbLine
 10
1740.7501372069
 20
953.5596783287
 30
0.0
 11
1740.7501372069
 21
959.2855378767
 31
0.0
  0
LINE
  5
273
330
1F
100
AcDbEntity
  8
0
  6
Continuous
 62
     7
370
    35
100
AcDbLine
 10
1759.6251391366
 20
926.3855383513
 30
0.0
 11
1759.6251391366
 21
936.3855381277
 31
0.0
  0
ARC
  5
274
330
1F
100
AcDbEntity
  8
0
  6
Continuous
 62
     7
370
    35
100
AcDbCircle
 10
1766.1251390606
 20
926.3855378565
 30
0.0
 40
6.500000000000227
100
AcDbArc
 50
180.0
 51
0.0
  0
ARC
  5
275
330
1F
100
AcDbEntity
  8
0
  6
Continuous
 62
     7
370
    35
100
AcDbCircle
 10
1766.1251390606
 20
936.3855378565
 30
0.0
 40
6.500000000000227
100
AcDbArc
 50
0.0
 51
180.0
  0
LINE
  5
276
330
1F
100
AcDbEntity
  8
0
  6
Continuous
 62
     7
370
    35
100
AcDbLine
 10
1787.6251390695
 20
936.3855381277
 30
0.0
 11
1787.6251390695
 21
926.3855383513
 31
0.0
  0
CIRCLE
  5
277
330
1F
100
AcDbEntity
  8
0
  6
Continuous
 62
     7
370
    35
100
AcDbCircle
 10
1773.6251390606
 20
914.3855378565
 30
0.0
 40
4.250000000000227
  0
ARC
  5
278
330
1F
100
AcDbEntity
  8
0
  6
Continuous
 62
     7
370
    35
100
AcDbCircle
 10
1760.6251390606
 20
908.3855378565
 30
0.0
 40
1.999999999999886
100
AcDbArc
 50
180.0
 51
270.0
  0
LINE
  5
279
330
1F
100
AcDbEntity
  8
0
  6
Continuous
 62
     7
370
    35
100
AcDbLine
 10
1723.1501373022
 20
959.4855380026
 30
0.0
 11
1723.1501373022
 21
960.9702999485
 31
0.0
  0
LINE
  5
27A
330
1F
100
AcDbEntity
  8
0
  6
Continuous
 62
     7
370
    35
100
AcDbLine
 10
1772.6251390555
 20
936.3855381277
 30
0.0
 11
1772.6251390555
 21
926.3855383513
 31
0.0
  0
LINE
  5
27B
330
1F
100
AcDbEntity
  8
0
  6
Continuous
 62
     7
370
    35
100
AcDbLine
 10
1808.6501392096
 20
971.2855384466
 30
0.0
 11
1808.6501392096
 21
960.2855380406
 31
0.0
  0
LINE
  5
27C
330
1F
100
AcDbEntity
  8
0
  6
Continuous
 62
     7
370
    35
100
AcDbLine
 10
1774.6251390341
 20
926.3855383513
 30
0.0
 11
1774.6251390341
 21
936.3855381277
 31
0.0
  0
ARC
  5
27D
330
1F
100
AcDbEntity
  8
0
  6
Continuous
 62
     7
370
    35
100
AcDbCircle
 10
1781.1251390606
 20
936.3855378565
 30
0.0
 40
6.500000000000227
100
AcDbArc
 50
0.0
 51
180.0
  0
ARC
  5
27E
330
1F
100
AcDbEntity
  8
0
  6
Continuous
 62
     7
370
    35
100
AcDbCircle
 10
1781.1251390606
 20
926.3855378565
 30
0.0
 40
6.500000000000227
100
AcDbArc
 50
180.0
 51
0.0
  0
LINE
  5
27F
330
1F
100
AcDbEntity
  8
0
  6
Continuous
 62
     7
370
    35
100
AcDbLine
 10
1808.6501392096
 20
972.2855386105
 30
0.0
 11
1724.1251389056
 21
972.2855386105
 31
0.0
  0
LINE
  5
280
330
1F
100
AcDbEntity
  8
0
  6
Continuous
 62
     7
370
    35
100
AcDbLine
 10
1808.6501392096
 20
972.2855386105
 30
0.0
 11
1808.6501392096
 21
971.2855384466
 31
0.0
  0
LINE
  5
281
330
1F
100
AcDbEntity
  8
0
  6
Continuous
 62
     7
370
    35
100
AcDbLine
 10
1723.1251406043
 20
993.0855386672
 30
0.0
 11
1723.1251406043
 21
961.2855377388
 31
0.0
  0
LINE
  5
282
330
1F
100
AcDbEntity
  8
0
  6
Continuous
 62
     7
370
    35
100
AcDbLine
 10
1724.1251389056
 20
993.0855386672
 30
0.0
 11
1724.1251389056
 21
961.2855377388
 31
0.0
  0
ARC
  5
283
330
1F
100
AcDbEntity
  8
0
  6
Continuous
 62
     7
370
    35
100
AcDbCircle
 10
1725.1251390606
 20
961.2855378565
 30
0.0
 40
1.000000000000114
100
AcDbArc
 50
180.0
 51
270.0
  0
ARC
  5
284
330
1F
100
AcDbEntity
  8
0
  6
Continuous
 62
     7
370
    35
100
AcDbCircle
 10
1725.1251390606
 20
961.2855378565
 30
0.0
 40
2.000000000000114
100
AcDbArc
 50
180.0
 51
270.0
  0
LINE
  5
285
330
1F
100
AcDbEntity
  8
0
  6
Continuous
 62
     7
370
    35
100
AcDbLine
 10
1829.1251393526
 20
959.2855378767
 30
0.0
 11
1725.1251372069
 21
959.2855378767
 31
0.0
  0
LINE
  5
286
330
1F
100
AcDbEntity
  8
0
  6
Continuous
 62
     7
370
    35
100
AcDbLine
 10
1829.1251393526
 20
960.2855380406
 30
0.0
 11
1725.1251372069
 21
960.2855380406
 31
0.0
  0
LINE
  5
287
330
1F
100
AcDbEntity
  8
0
  6
Continuous
 62
     7
370
    35
100
AcDbLine
 10
1839.1251409918
 20
960.2855380406
 30
0.0
 11
1839.1251409918
 21
959.2855378767
 31
0.0
  0
LINE
  5
288
330
1F
100
AcDbEntity
  8
0
  6
Continuous
 62
     7
370
    35
100
AcDbLine
 10
1839.1251409918
 20
959.2855378767
 30
0.0
 11
1829.1251393526
 21
959.2855378767
 31
0.0
  0
LINE
  5
289
330
1F
100
AcDbEntity
  8
0
  6
Continuous
 62
     7
370
    35
100
AcDbLine
 10
1829.1251393526
 20
960.2855380406
 30
0.0
 11
1839.1251409918
 21
960.2855380406
 31
0.0
  0
LINE
  5
28A
330
1F
100
AcDbEntity
  8
0
  6
Continuous
 62
     7
370
    35
100
AcDbLine
 10
1723.1251406043
 20
1003.085536581
 30
0.0
 11
1724.1251389056
 21
1003.085536581
 31
0.0
  0
LINE
  5
28B
330
1F
100
AcDbEntity
  8
0
  6
Continuous
 62
     7
370
    35
100
AcDbLine
 10
1724.1251389056
 20
1003.085536581
 30
0.0
 11
1724.1251389056
 21
993.0855386672
 31
0.0
  0
LINE
  5
28C
330
1F
100
AcDbEntity
  8
0
  6
Continuous
 62
     7
370
    35
100
AcDbLine
 10
1723.1251406043
 20
993.0855386672
 30
0.0
 11
1723.1251406043
 21
1003.085536581
 31
0.0
  0
LINE
  5
28D
330
1F
100
AcDbEntity
  8
0
  6
Continuous
 62
     7
370
    35
100
AcDbLine
 10
1724.1251389056
 20
1002.7855389533
 30
0.0
 11
1724.1501393288
 21
1002.7855389533
 31
0.0
  0
LINE
  5
28E
330
1F
100
AcDbEntity
  8
0
  6
Continuous
 62
     7
370
    35
100
AcDbLine
 10
1724.1501393288
 20
973.2855387745
 30
0.0
 11
1724.1501393288
 21
1002.7855389533
 31
0.0
  0
LINE
  5
28F
330
1F
100
AcDbEntity
  8
0
  6
Continuous
 62
     7
370
    35
100
AcDbLine
 10
1740.6501392394
 20
959.2855378767
 30
0.0
 11
1740.6501392394
 21
957.9474564423
 31
0.0
  0
ARC
  5
290
330
1F
100
AcDbEntity
  8
0
  6
Continuous
 62
     7
370
    35
100
AcDbCircle
 10
1725.1501390606
 20
973.2855378565
 30
0.0
 40
1.000000000000227
100
AcDbArc
 50
180.0
 51
270.0
  0
LINE
  5
291
330
1F
100
AcDbEntity
  8
0
  6
Continuous
 62
     7
370
    35
100
AcDbLine
 10
1806.6501388818
 20
957.9474564423
 30
0.0
 11
1806.6501388818
 21
959.2855378767
 31
0.0
  0
ARC
  5
292
330
1F
100
AcDbEntity
  8
0
  6
Continuous
 62
     7
370
    35
100
AcDbCircle
 10
1809.6501390606
 20
961.2855378565
 30
0.0
 40
1.000000000000114
100
AcDbArc
 50
180.0
 51
270.0
  0
LINE
  5
293
330
1F
100
AcDbEntity
  8
0
  6
Continuous
 62
     7
370
    35
100
AcDbLine
 10
1839.1501376897
 20
959.2855378767
 30
0.0
 11
1839.1501376897
 21
960.2855380406
 31
0.0
  0
LINE
  5
294
330
1F
100
AcDbEntity
  8
0
  6
Continuous
 62
     7
370
    35
100
AcDbLine
 10
1839.1501376897
 20
960.2855380406
 30
0.0
 11
1839.1251409918
 21
960.2855380406
 31
0.0
  0
LINE
  5
295
330
1F
100
AcDbEntity
  8
0
  6
Continuous
 62
     7
370
    35
100
AcDbLine
 10
1839.1501376897
 20
959.2855378767
 30
0.0
 11
1839.1251409918
 21
959.2855378767
 31
0.0
  0
ARC
  5
296
330
1F
100
AcDbEntity
  8
0
  6
Continuous
 62
     7
370
    35
100
AcDbCircle
 10
1804.6501390606
 20
957.9474563458
 30
0.0
 40
2.000000000000113
100
AcDbArc
 50
337.6683549908
 51
0.0
  0
LWPOLYLINE
  5
297
330
1F
100
AcDbEntity
  8
0
  6
Continuous
 62
     7
370
    35
100
AcDbPolyline
 90
        3
 70
   128
 43
0.0
 10
1740.6501392394
 20
957.9474564423
 10
1740.6858498722
 20
957.5711937402
 10
1740.7501372069
 20
957.3229564601
  0
LINE
  5
298
330
1F
100
AcDbEntity
  8
0
  6
Continuous
 62
     7
370
    35
100
AcDbLine
 10
1801.6501399248
 20
950.0239455854
 30
0.0
 11
1801.6501399248
 21
949.2859376376
 31
0.0
  0
LINE
  5
299
330
1F
100
AcDbEntity
  8
0
  6
Continuous
 62
     7
370
    35
100
AcDbLine
 10
1745.6501381963
 20
949.2859376376
 30
0.0
 11
1747.1828027188
 21
949.2859376376
 31
0.0
  0
LINE
  5
29A
330
1F
100
AcDbEntity
  8
0
  6
Continuous
 62
     7
370
    35
100
AcDbLine
 10
1800.0674764186
 20
949.2859376376
 30
0.0
 11
1801.648884502
 21
949.2859376376
 31
0.0
  0
LINE
  5
29B
330
1F
100
AcDbEntity
  8
0
  6
Continuous
 62
     7
370
    35
100
AcDbLine
 10
1745.6501381963
 20
950.0006303904
 30
0.0
 11
1745.6501381963
 21
949.2859376376
 31
0.0
  0
SPLINE
  5
29C
330
1F
100
AcDbEntity
  8
0
  6
Continuous
 62
     8
370
    18
100
AcDbSpline
210
0.0
220
0.0
230
1.0
 70
     8
 71
     3
 72
     9
 73
     5
 74
     0
 42
0.000000001
 43
0.00000001
 40
0.0
 40
0.0
 40
0.0
 40
0.0
 40
0.5312993424786022
 40
1.0
 40
1.0
 40
1.0
 40
1.0
 10
1793.316613373114
 20
940.9167670426065
 30
0.0
 10
1792.650608775866
 20
940.9052217904427
 30
0.0
 10
1791.39706949208
 20
940.8834915693776
 30
0.0
 10
1790.201838617117
 20
940.3560147621706
 30
0.0
 10
1789.641633120132
 20
940.1087860358053
 30
0.0
  0
SPLINE
  5
29D
330
1F
100
AcDbEntity
  8
0
  6
Continuous
 62
     8
370
    18
100
AcDbSpline
210
0.0
220
0.0
230
1.0
 70
     8
 71
     3
 72
    10
 73
     6
 74
     0
 42
0.000000001
 43
0.00000001
 40
0.0
 40
0.0
 40
0.0
 40
0.0
 40
0.2501174395642413
 40
0.5003917269111249
 40
1.0
 40
1.0
 40
1.0
 40
1.0
 10
1791.978502136422
 20
944.1436246750051
 30
0.0
 10
1792.140658965148
 20
943.9366580520826
 30
0.0
 10
1792.465074310586
 20
943.5225950181833
 30
0.0
 10
1792.964530096994
 20
942.4583163383649
 30
0.0
 10
1793.175833054566
 20
941.533154742997
 30
0.0
 10
1793.316613373114
 20
940.9167670426065
 30
0.0
  0
LINE
  5
29E
330
1F
100
AcDbEntity
  8
0
  6
Continuous
 62
     8
370
    18
100
AcDbLine
 10
1789.4082809358
 20
944.2329403726
 30
0.0
 11
1791.9785021364
 21
944.143624675
 31
0.0
  0
LINE
  5
29F
330
1F
100
AcDbEntity
  8
0
  6
Continuous
 62
     8
370
    18
100
AcDbLine
 10
1805.4797159999
 20
941.6606134516
 30
0.0
 11
1805.3231494993
 21
941.7835340616
 31
0.0
  0
SPLINE
  5
2A0
330
1F
100
AcDbEntity
  8
0
  6
Continuous
 62
     8
370
    18
100
AcDbSpline
210
0.0
220
0.0
230
1.0
 70
     8
 71
     3
 72
    11
 73
     7
 74
     0
 42
0.000000001
 43
0.00000001
 40
0.0
 40
0.0
 40
0.0
 40
0.0
 40
0.2986051046024318
 40
0.5785120767443492
 40
0.9999675889766177
 40
1.0
 40
1.0
 40
1.0
 40
1.0
 10
1805.32314949925
 20
941.78353406164
 30
0.0
 10
1805.323187127661
 20
941.7777001928599
 30
0.0
 10
1805.323260028256
 20
941.7663977620197
 30
0.0
 10
1805.401252204477
 20
941.592928321498
 30
0.0
 10
1805.494317608443
 20
941.3873551609886
 30
0.0
 10
1805.54276281294
 20
941.2420184133179
 30
0.0
 10
1805.542766538216
 20
941.2420072374041
 30
0.0
  0
SPLINE
  5
2A1
330
1F
100
AcDbEntity
  8
0
  6
Continuous
 62
     8
370
    18
100
AcDbSpline
210
0.0
220
0.0
230
1.0
 70
     8
 71
     3
 72
    10
 73
     6
 74
     0
 42
0.000000001
 43
0.00000001
 40
0.0
 40
0.0
 40
0.0
 40
0.0
 40
0.0305939760639643
 40
0.8849546427992482
 40
1.0
 40
1.0
 40
1.0
 40
1.0
 10
1807.213913139654
 20
936.627849635213
 30
0.0
 10
1807.251004796296
 20
936.5194115866989
 30
0.0
 10
1808.323909922636
 20
933.3827563743107
 30
0.0
 10
1809.384322492375
 20
929.7849743204439
 30
0.0
 10
1810.281965029163
 20
926.2664624829625
 30
0.0
 10
1810.388493773294
 20
925.8488991079026
 30
0.0
  0
LINE
  5
2A2
330
1F
100
AcDbEntity
  8
0
  6
Continuous
 62
     8
370
    18
100
AcDbLine
 10
1807.7815915018
 20
889.2854132471
 30
0.0
 11
1806.8642350405
 21
887.2821830926
 31
0.0
  0
SPLINE
  5
2A3
330
1F
100
AcDbEntity
  8
0
  6
Continuous
 62
     8
370
    18
100
AcDbSpline
210
0.0
220
0.0
230
1.0
 70
     8
 71
     3
 72
    13
 73
     9
 74
     0
 42
0.000000001
 43
0.00000001
 40
0.0
 40
0.0
 40
0.0
 40
0.0
 40
0.0962667614560557
 40
0.2940157084788442
 40
0.49167991235366
 40
0.6816276126516125
 40
0.8716454072214415
 40
1.0
 40
1.0
 40
1.0
 40
1.0
 10
1806.864235040499
 20
887.2821830925639
 30
0.0
 10
1806.855051307279
 20
887.2978422700384
 30
0.0
 10
1806.827002562433
 20
887.3456681664303
 30
0.0
 10
1806.39276891016
 20
887.430851713671
 30
0.0
 10
1804.878666261815
 20
887.4865368618016
 30
0.0
 10
1802.512101276236
 20
887.5505198812405
 30
0.0
 10
1799.826784486144
 20
887.5738606309193
 30
0.0
 10
1797.795743905242
 20
887.5689792922706
 30
0.0
 10
1796.976912257028
 20
887.5670113382037
 30
0.0
  0
SPLINE
  5
2A4
330
1F
100
AcDbEntity
  8
0
  6
Continuous
 62
     8
370
    18
100
AcDbSpline
210
0.0
220
0.0
230
1.0
 70
     8
 71
     3
 72
    14
 73
    10
 74
     0
 42
0.000000001
 43
0.00000001
 40
0.0
 40
0.0
 40
0.0
 40
0.0
 40
0.1540452529125833
 40
0.3116222749830208
 40
0.4736469946257484
 40
0.5996984109617779
 40
0.7292827590320495
 40
0.8636610843838322
 40
0.9999999999999999
 40
0.9999999999999999
 40
0.9999999999999999
 40
0.9999999999999999
 10
1799.679116767598
 20
912.7577372607881
 30
0.0
 10
1800.032896071127
 20
911.4699699172941
 30
0.0
 10
1800.748565715748
 20
908.8649108087461
 30
0.0
 10
1801.349371055953
 20
904.892663330432
 30
0.0
 10
1801.395350968955
 20
901.084902007305
 30
0.0
 10
1800.930500977706
 20
897.4875516181294
 30
0.0
 10
1800.075249641969
 20
894.1498021896717
 30
0.0
 10
1798.795111786621
 20
890.7836576097317
 30
0.0
 10
1797.585897892619
 20
888.6443910989253
 30
0.0
 10
1796.976912257028
 20
887.5670113382037
 30
0.0
  0
SPLINE
  5
2A5
330
1F
100
AcDbEntity
  8
0
  6
Continuous
 62
     8
370
    18
100
AcDbSpline
210
0.0
220
0.0
230
1.0
 70
     8
 71
     3
 72
    12
 73
     8
 74
     0
 42
0.000000001
 43
0.00000001
 40
0.0
 40
0.0
 40
0.0
 40
0.0
 40
0.1619236319901617
 40
0.4860935123460937
 40
0.6524730964836051
 40
0.8184435869317109
 40
0.9999999999999999
 40
0.9999999999999999
 40
0.9999999999999999
 40
0.9999999999999999
 10
1789.641633120132
 20
940.1087860358053
 30
0.0
 10
1790.488738696331
 20
938.7615341075781
 30
0.0
 10
1793.031743196672
 20
934.7170940603903
 30
0.0
 10
1795.894153627799
 20
928.9409263168195
 30
0.0
 10
1798.255663494508
 20
922.9203300747964
 30
0.0
 10
1799.57384816228
 20
917.9900344316424
 30
0.0
 10
1799.642993552612
 20
914.5532146018236
 30
0.0
 10
1799.679116767598
 20
912.7577372607881
 30
0.0
  0
LINE
  5
2A6
330
1F
100
AcDbEntity
  8
0
  6
Continuous
 62
     8
370
    18
100
AcDbLine
 10
1739.5186866194
 20
889.2854132471
 30
0.0
 11
1740.4360430806
 21
887.2821830926
 31
0.0
  0
SPLINE
  5
2A7
330
1F
100
AcDbEntity
  8
0
  6
Continuous
 62
     8
370
    18
100
AcDbSpline
210
0.0
220
0.0
230
1.0
 70
     8
 71
     3
 72
    10
 73
     6
 74
     0
 42
0.000000001
 43
0.00000001
 40
0.0
 40
0.0
 40
0.0
 40
0.0
 40
0.0305939760639643
 40
0.8849546427992482
 40
1.0
 40
1.0
 40
1.0
 40
1.0
 10
1740.086364981485
 20
936.627849635213
 30
0.0
 10
1740.049273324843
 20
936.5194115866989
 30
0.0
 10
1738.976368198503
 20
933.3827563743107
 30
0.0
 10
1737.915955628764
 20
929.7849743204439
 30
0.0
 10
1737.018313091976
 20
926.2664624829625
 30
0.0
 10
1736.911784347845
 20
925.8488991079026
 30
0.0
  0
SPLINE
  5
2A8
330
1F
100
AcDbEntity
  8
0
  6
Continuous
 62
     8
370
    18
100
AcDbSpline
210
0.0
220
0.0
230
1.0
 70
     8
 71
     3
 72
    11
 73
     7
 74
     0
 42
0.000000001
 43
0.00000001
 40
0.0
 40
0.0
 40
0.0
 40
0.0
 40
0.2986051046024318
 40
0.5785120767443492
 40
0.9999675889766177
 40
1.0
 40
1.0
 40
1.0
 40
1.0
 10
1741.977128621889
 20
941.78353406164
 30
0.0
 10
1741.977090993478
 20
941.7777001928599
 30
0.0
 10
1741.977018092883
 20
941.7663977620197
 30
0.0
 10
1741.899025916662
 20
941.592928321498
 30
0.0
 10
1741.805960512697
 20
941.3873551609886
 30
0.0
 10
1741.757515308199
 20
941.2420184133179
 30
0.0
 10
1741.757511582924
 20
941.2420072374041
 30
0.0
  0
LINE
  5
2A9
330
1F
100
AcDbEntity
  8
0
  6
Continuous
 62
     8
370
    18
100
AcDbLine
 10
1741.8205621212
 20
941.6606134516
 30
0.0
 11
1741.9771286219
 21
941.7835340616
 31
0.0
  0
SPLINE
  5
2AA
330
1F
100
AcDbEntity
  8
0
  6
Continuous
 62
     8
370
    18
100
AcDbSpline
210
0.0
220
0.0
230
1.0
 70
     8
 71
     3
 72
     9
 73
     5
 74
     0
 42
0.000000001
 43
0.00000001
 40
0.0
 40
0.0
 40
0.0
 40
0.0
 40
0.1562899463743514
 40
1.0
 40
1.0
 40
1.0
 40
1.0
 10
1741.766806182218
 20
941.5616082740122
 30
0.0
 10
1741.772602090626
 20
941.573601361701
 30
0.0
 10
1741.809686423575
 20
941.6503375047924
 30
0.0
 10
1741.815585234849
 20
941.6559110204419
 30
0.0
 10
1741.820562121225
 20
941.6606134516294
 30
0.0
  0
SPLINE
  5
2AB
330
1F
100
AcDbEntity
  8
0
  6
Continuous
 62
     8
370
    18
100
AcDbSpline
210
0.0
220
0.0
230
1.0
 70
     8
 71
     3
 72
     9
 73
     5
 74
     0
 42
0.000000001
 43
0.00000001
 40
0.0
 40
0.0
 40
0.0
 40
0.0
 40
0.4458964576470278
 40
1.0
 40
1.0
 40
1.0
 40
1.0
 10
1755.321775984717
 20
944.1436246750051
 30
0.0
 10
1755.672322188447
 20
944.1540613541285
 30
0.0
 10
1756.458482736972
 20
944.1774674138638
 30
0.0
 10
1757.334174705947
 20
944.2117224814426
 30
0.0
 10
1757.819398727966
 20
944.2307033357316
 30
0.0
  0
SPLINE
  5
2AC
330
1F
100
AcDbEntity
  8
0
  6
Continuous
 62
     8
370
    18
100
AcDbSpline
210
0.0
220
0.0
230
1.0
 70
     8
 71
     3
 72
    10
 73
     6
 74
     0
 42
0.000000001
 43
0.00000001
 40
0.0
 40
0.0
 40
0.0
 40
0.0
 40
0.4995984399667633
 40
0.7498913818132835
 40
1.0
 40
1.0
 40
1.0
 40
1.0
 10
1753.983664748026
 20
940.9167670426065
 30
0.0
 10
1754.124442495436
 20
941.5331429261591
 30
0.0
 10
1754.335748238386
 20
942.4583158771885
 30
0.0
 10
1754.835199555129
 20
943.5225922996241
 30
0.0
 10
1755.159623675557
 20
943.9366647246096
 30
0.0
 10
1755.321775984717
 20
944.1436246750051
 30
0.0
  0
SPLINE
  5
2AD
330
1F
100
AcDbEntity
  8
0
  6
Continuous
 62
     8
370
    18
100
AcDbSpline
210
0.0
220
0.0
230
1.0
 70
     8
 71
     3
 72
     9
 73
     5
 74
     0
 42
0.000000001
 43
0.00000001
 40
0.0
 40
0.0
 40
0.0
 40
0.0
 40
0.468701295555056
 40
1.0
 40
1.0
 40
1.0
 40
1.0
 10
1757.658650588942
 20
940.1087934863859
 30
0.0
 10
1757.098442253744
 20
940.3560205084194
 30
0.0
 10
1755.90320695034
 20
940.8834929612972
 30
0.0
 10
1754.649668240523
 20
940.9052222824367
 30
0.0
 10
1753.983664748026
 20
940.9167670426065
 30
0.0
  0
SPLINE
  5
2AE
330
1F
100
AcDbEntity
  8
0
  6
Continuous
 62
     8
370
    18
100
AcDbSpline
210
0.0
220
0.0
230
1.0
 70
     8
 71
     3
 72
    14
 73
    10
 74
     0
 42
0.000000001
 43
0.00000001
 40
0.0
 40
0.0
 40
0.0
 40
0.0
 40
0.0341306891655766
 40
0.1875059854857797
 40
0.3449076740202023
 40
0.5070512098500018
 40
0.6693706649165072
 40
0.8347041558146684
 40
1.0
 40
1.0
 40
1.0
 40
1.0
 10
1747.621161353541
 20
912.7577372607881
 30
0.0
 10
1747.611714234608
 20
913.0941600572512
 30
0.0
 10
1747.559813983282
 20
914.9423878408941
 30
0.0
 10
1747.871844493498
 20
918.3496736858107
 30
0.0
 10
1749.011896230868
 20
922.8864739548669
 30
0.0
 10
1750.736554550257
 20
927.3214691249257
 30
0.0
 10
1752.802048172795
 20
931.6815339990641
 30
0.0
 10
1755.053268562044
 20
935.9859221545462
 30
0.0
 10
1756.790254598157
 20
938.7346073676882
 30
0.0
 10
1757.658648726297
 20
940.1087934863859
 30
0.0
  0
SPLINE
  5
2AF
330
1F
100
AcDbEntity
  8
0
  6
Continuous
 62
     8
370
    18
100
AcDbSpline
210
0.0
220
0.0
230
1.0
 70
     8
 71
     3
 72
    14
 73
    10
 74
     0
 42
0.000000001
 43
0.00000001
 40
0.0
 40
0.0
 40
0.0
 40
0.0
 40
0.1360662916234316
 40
0.2699138913771976
 40
0.4005682489114686
 40
0.5258273327557895
 40
0.688010000890177
 40
0.8457606759415223
 40
1.0
 40
1.0
 40
1.0
 40
1.0
 10
1750.323365864111
 20
887.5670113382037
 30
0.0
 10
1749.715197161655
 20
888.6420562905182
 30
0.0
 10
1748.508776532892
 20
890.774616552304
 30
0.0
 10
1747.229591320025
 20
894.142947850802
 30
0.0
 10
1746.369363135958
 20
897.4788093613213
 30
0.0
 10
1745.907987468874
 20
901.0788169458191
 30
0.0
 10
1745.951553356622
 20
904.8832089441166
 30
0.0
 10
1746.549448619085
 20
908.8604169196198
 30
0.0
 10
1747.266614267948
 20
911.4684145494318
 30
0.0
 10
1747.621161353541
 20
912.7577372607881
 30
0.0
  0
SPLINE
  5
2B0
330
1F
100
AcDbEntity
  8
0
  6
Continuous
 62
     8
370
    18
100
AcDbSpline
210
0.0
220
0.0
230
1.0
 70
     8
 71
     3
 72
    13
 73
     9
 74
     0
 42
0.000000001
 43
0.00000001
 40
0.0
 40
0.0
 40
0.0
 40
0.0
 40
0.0962667614560557
 40
0.2940157084788442
 40
0.49167991235366
 40
0.6816276126516125
 40
0.8716454072214415
 40
1.0
 40
1.0
 40
1.0
 40
1.0
 10
1740.436043080641
 20
887.2821830925639
 30
0.0
 10
1740.445226813861
 20
887.2978422700384
 30
0.0
 10
1740.473275558706
 20
887.3456681664303
 30
0.0
 10
1740.90750921098
 20
887.430851713671
 30
0.0
 10
1742.421611859324
 20
887.4865368618016
 30
0.0
 10
1744.788176844903
 20
887.5505198812405
 30
0.0
 10
1747.473493634996
 20
887.5738606309193
 30
0.0
 10
1749.504534215897
 20
887.5689792922706
 30
0.0
 10
1750.323365864111
 20
887.5670113382037
 30
0.0
  0
SPLINE
  5
2B1
330
1F
100
AcDbEntity
  8
0
  6
Continuous
 62
     8
370
    18
100
AcDbSpline
210
0.0
220
0.0
230
1.0
 70
     8
 71
     3
 72
    11
 73
     7
 74
     0
 42
0.000000001
 43
0.00000001
 40
0.0
 40
0.0
 40
0.0
 40
0.0
 40
0.2034934208490284
 40
0.469909384330617
 40
0.7365432800032389
 40
1.0
 40
1.0
 40
1.0
 40
1.0
 10
1788.625139233423
 20
927.3544658688003
 30
0.0
 10
1789.684178398137
 20
926.609792426803
 30
0.0
 10
1792.129724007409
 20
924.8901838163804
 30
0.0
 10
1795.497573657033
 20
921.70074341146
 30
0.0
 10
1798.322053120804
 20
917.52985433881
 30
0.0
 10
1799.228573339195
 20
914.3420741444356
 30
0.0
 10
1799.679116767598
 20
912.7577372607881
 30
0.0
  0
SPLINE
  5
2B2
330
1F
100
AcDbEntity
  8
0
  6
Continuous
 62
     8
370
    18
100
AcDbSpline
210
0.0
220
0.0
230
1.0
 70
     8
 71
     3
 72
    11
 73
     7
 74
     0
 42
0.000000001
 43
0.00000001
 40
0.0
 40
0.0
 40
0.0
 40
0.0
 40
0.2470286507798259
 40
0.4999998597004967
 40
0.7529705706550088
 40
1.0
 40
1.0
 40
1.0
 40
1.0
 10
1797.687081110431
 20
910.708015483349
 30
0.0
 10
1797.680191436796
 20
910.84477902227
 30
0.0
 10
1797.666246350509
 20
911.121596104243
 30
0.0
 10
1798.051736265184
 20
911.6338577311146
 30
0.0
 10
1798.702350406644
 20
912.1877017241965
 30
0.0
 10
1799.356117455985
 20
912.5692366190027
 30
0.0
 10
1799.679116767598
 20
912.7577372607881
 30
0.0
  0
SPLINE
  5
2B3
330
1F
100
AcDbEntity
  8
0
  6
Continuous
 62
     8
370
    18
100
AcDbSpline
210
0.0
220
0.0
230
1.0
 70
     8
 71
     3
 72
    13
 73
     9
 74
     0
 42
0.000000001
 43
0.00000001
 40
0.0
 40
0.0
 40
0.0
 40
0.0
 40
0.2394566602310418
 40
0.3683603754697415
 40
0.4999996109481874
 40
0.6316388951292723
 40
0.760542421062195
 40
1.0
 40
1.0
 40
1.0
 40
1.0
 10
1787.563025441719
 20
928.1347353723937
 30
0.0
 10
1787.37550486678
 20
927.8072327065466
 30
0.0
 10
1787.087038681183
 20
927.3034296181614
 30
0.0
 10
1786.73998936312
 20
926.6973036940888
 30
0.0
 10
1786.50117384409
 20
926.2802151955467
 30
0.0
 10
1786.308785719452
 20
925.944211227268
 30
0.0
 10
1786.122903055849
 20
925.6195653220716
 30
0.0
 10
1786.092271957155
 20
925.5660694999455
 30
0.0
 10
1786.072359842015
 20
925.5312938955719
 30
0.0
  0
SPLINE
  5
2B4
330
1F
100
AcDbEntity
  8
0
  6
Continuous
 62
     8
370
    18
100
AcDbSpline
210
0.0
220
0.0
230
1.0
 70
     8
 71
     3
 72
    11
 73
     7
 74
     0
 42
0.000000001
 43
0.00000001
 40
0.0
 40
0.0
 40
0.0
 40
0.0
 40
0.2655360217528663
 40
0.5311508409449068
 40
0.8005510659818563
 40
1.0
 40
1.0
 40
1.0
 40
1.0
 10
1747.621161353541
 20
912.7577372607881
 30
0.0
 10
1748.073280208688
 20
914.3501584283953
 30
0.0
 10
1748.977652084614
 20
917.5354733123404
 30
0.0
 10
1751.814693145129
 20
921.7067161918875
 30
0.0
 10
1755.15537576457
 20
924.8856166826505
 30
0.0
 10
1757.589612191535
 20
926.5931063045418
 30
0.0
 10
1758.625138972653
 20
927.3194742170268
 30
0.0
  0
SPLINE
  5
2B5
330
1F
100
AcDbEntity
  8
0
  6
Continuous
 62
     8
370
    18
100
AcDbSpline
210
0.0
220
0.0
230
1.0
 70
     8
 71
     3
 72
    13
 73
     9
 74
     0
 42
0.000000001
 43
0.00000001
 40
0.0
 40
0.0
 40
0.0
 40
0.0
 40
0.2394566602310418
 40
0.3683603754697415
 40
0.4999996109481874
 40
0.6316388951292723
 40
0.760542421062195
 40
1.0
 40
1.0
 40
1.0
 40
1.0
 10
1759.73725267942
 20
928.1347353723937
 30
0.0
 10
1759.924773254359
 20
927.8072327065466
 30
0.0
 10
1760.213239439956
 20
927.3034296181614
 30
0.0
 10
1760.56028875802
 20
926.6973036940888
 30
0.0
 10
1760.79910427705
 20
926.2802151955467
 30
0.0
 10
1760.991492401687
 20
925.944211227268
 30
0.0
 10
1761.177375065291
 20
925.6195653220716
 30
0.0
 10
1761.208006163984
 20
925.5660694999455
 30
0.0
 10
1761.227918279124
 20
925.5312938955719
 30
0.0
  0
SPLINE
  5
2B6
330
1F
100
AcDbEntity
  8
0
  6
Continuous
 62
     8
370
    18
100
AcDbSpline
210
0.0
220
0.0
230
1.0
 70
     8
 71
     3
 72
    11
 73
     7
 74
     0
 42
0.000000001
 43
0.00000001
 40
0.0
 40
0.0
 40
0.0
 40
0.0
 40
0.2470294293449911
 40
0.5000001402995035
 40
0.7529713492201741
 40
1.0
 40
1.0
 40
1.0
 40
1.0
 10
1747.621161353541
 20
912.7577372607881
 30
0.0
 10
1747.944160665154
 20
912.5692366190027
 30
0.0
 10
1748.597927714495
 20
912.1877017241965
 30
0.0
 10
1749.248541855956
 20
911.6338577311146
 30
0.0
 10
1749.63403177063
 20
911.121596104243
 30
0.0
 10
1749.620086684343
 20
910.84477902227
 30
0.0
 10
1749.613197010709
 20
910.708015483349
 30
0.0
  0
SPLINE
  5
2B7
330
1F
100
AcDbEntity
  8
0
  6
Continuous
 62
     8
370
    18
100
AcDbSpline
210
0.0
220
0.0
230
1.0
 70
     8
 71
     3
 72
    11
 73
     7
 74
     0
 42
0.000000001
 43
0.00000001
 40
0.0
 40
0.0
 40
0.0
 40
0.0
 40
0.2689757840726111
 40
0.5379774502219061
 40
0.806940434986235
 40
0.9999999999999999
 40
0.9999999999999999
 40
0.9999999999999999
 40
0.9999999999999999
 10
1759.73725267942
 20
928.1347353723937
 30
0.0
 10
1760.812576883261
 20
928.6994321693587
 30
0.0
 10
1762.963328763541
 20
929.8288801009896
 30
0.0
 10
1766.434821118058
 20
930.95492706979
 30
0.0
 10
1769.670809552417
 20
931.6480879231366
 30
0.0
 10
1771.754467187234
 20
931.7337154348688
 30
0.0
 10
1772.625139055541
 20
931.7694955286676
 30
0.0
  0
SPLINE
  5
2B8
330
1F
100
AcDbEntity
  8
0
  6
Continuous
 62
     8
370
    18
100
AcDbSpline
210
0.0
220
0.0
230
1.0
 70
     8
 71
     3
 72
    11
 73
     7
 74
     0
 42
0.000000001
 43
0.00000001
 40
0.0
 40
0.0
 40
0.0
 40
0.0
 40
0.1959868228209291
 40
0.4640082958726598
 40
0.7319913127528169
 40
1.0
 40
1.0
 40
1.0
 40
1.0
 10
1774.62513903412
 20
931.7727477070982
 30
0.0
 10
1775.512311461356
 20
931.7365147465723
 30
0.0
 10
1777.612735154039
 20
931.6507314575427
 30
0.0
 10
1780.865145364283
 20
930.9552789572548
 30
0.0
 10
1784.336859629103
 20
929.8289237792497
 30
0.0
 10
1786.487602502182
 20
928.6994828721987
 30
0.0
 10
1787.563025441719
 20
928.1347353723937
 30
0.0
  0
LINE
  5
2B9
330
1F
100
AcDbEntity
  8
0
  6
Continuous
 62
     8
370
    18
100
AcDbLine
 10
1789.6416331201
 20
940.1087860358
 30
0.0
 11
1788.6251392334
 21
939.4364726511
 31
0.0
  0
SPLINE
  5
2BA
330
1F
100
AcDbEntity
  8
0
  6
Continuous
 62
     8
370
    18
100
AcDbSpline
210
0.0
220
0.0
230
1.0
 70
     8
 71
     3
 72
     9
 73
     5
 74
     0
 42
0.000000001
 43
0.00000001
 40
0.0
 40
0.0
 40
0.0
 40
0.0
 40
0.1208686104729542
 40
1.0
 40
1.0
 40
1.0
 40
1.0
 10
1787.25985386665
 20
938.5334660080367
 30
0.0
 10
1787.134491004321
 20
938.450722113445
 30
0.0
 10
1786.097308051381
 20
937.7661449162051
 30
0.0
 10
1784.919816540649
 20
936.9536070493092
 30
0.0
 10
1783.884646792663
 20
936.2392795053418
 30
0.0
  0
LINE
  5
2BB
330
1F
100
AcDbEntity
  8
0
  6
Continuous
 62
     8
370
    18
100
AcDbLine
 10
1787.5630254417
 20
928.1347353724
 30
0.0
 11
1783.8846467927
 21
936.2392795053
 31
0.0
  0
SPLINE
  5
2BC
330
1F
100
AcDbEntity
  8
0
  6
Continuous
 62
     8
370
    18
100
AcDbSpline
210
0.0
220
0.0
230
1.0
 70
     8
 71
     3
 72
    11
 73
     7
 74
     0
 42
0.000000001
 43
0.00000001
 40
0.0
 40
0.0
 40
0.0
 40
0.0
 40
0.248127212846326
 40
0.5000000020296311
 40
0.7518729749039678
 40
1.0
 40
1.0
 40
1.0
 40
1.0
 10
1794.303956863237
 20
889.7497855839425
 30
0.0
 10
1794.323803380905
 20
889.7039761563608
 30
0.0
 10
1794.363796007109
 20
889.6116657901533
 30
0.0
 10
1794.895185563334
 20
889.1545458901738
 30
0.0
 10
1795.733984748152
 20
888.492751703472
 30
0.0
 10
1796.564677575378
 20
887.8740463680357
 30
0.0
 10
1796.976912257028
 20
887.5670113382037
 30
0.0
  0
SPLINE
  5
2BD
330
1F
100
AcDbEntity
  8
0
  6
Continuous
 62
     8
370
    18
100
AcDbSpline
210
0.0
220
0.0
230
1.0
 70
     8
 71
     3
 72
    11
 73
     7
 74
     0
 42
0.000000001
 43
0.00000001
 40
0.0
 40
0.0
 40
0.0
 40
0.0
 40
0.2481270250960322
 40
0.4999999979703689
 40
0.751872787153674
 40
1.0
 40
1.0
 40
1.0
 40
1.0
 10
1750.323365864111
 20
887.5670113382037
 30
0.0
 10
1750.735600545761
 20
887.8740463680357
 30
0.0
 10
1751.566293372988
 20
888.492751703472
 30
0.0
 10
1752.405092557806
 20
889.154545890174
 30
0.0
 10
1752.93648211403
 20
889.6116657901532
 30
0.0
 10
1752.976474740234
 20
889.7039761563608
 30
0.0
 10
1752.996321257902
 20
889.7497855839425
 30
0.0
  0
SPLINE
  5
2BE
330
1F
100
AcDbEntity
  8
0
  6
Continuous
 62
     8
370
    18
100
AcDbSpline
210
0.0
220
0.0
230
1.0
 70
     8
 71
     3
 72
    11
 73
     7
 74
     0
 42
0.000000001
 43
0.00000001
 40
0.0
 40
0.0
 40
0.0
 40
0.0
 40
0.1656016184875093
 40
0.3907556825888552
 40
0.7514001079599952
 40
1.0
 40
1.0
 40
1.0
 40
1.0
 10
1770.942250222666
 20
940.7459270921642
 30
0.0
 10
1770.503525026205
 20
940.539030681735
 30
0.0
 10
1769.468303479593
 20
940.0508352835209
 30
0.0
 10
1767.621251564062
 20
938.850250367546
 30
0.0
 10
1765.571119065507
 20
937.5266162079448
 30
0.0
 10
1764.040283232418
 20
936.6123446397337
 30
0.0
 10
1763.415631328476
 20
936.2392795053418
 30
0.0
  0
SPLINE
  5
2BF
330
1F
100
AcDbEntity
  8
0
  6
Continuous
 62
     8
370
    18
100
AcDbSpline
210
0.0
220
0.0
230
1.0
 70
     8
 71
     3
 72
     9
 73
     5
 74
     0
 42
0.000000001
 43
0.00000001
 40
0.0
 40
0.0
 40
0.0
 40
0.0
 40
0.8025171292186806
 40
1.0
 40
1.0
 40
1.0
 40
1.0
 10
1763.415631328476
 20
936.2392795053418
 30
0.0
 10
1762.620461107789
 20
937.1779372315539
 30
0.0
 10
1761.629615938589
 20
938.3475792143063
 30
0.0
 10
1760.762849363284
 20
939.3764626688078
 30
0.0
 10
1760.591677811695
 20
939.5796495271022
 30
0.0
  0
SPLINE
  5
2C0
330
1F
100
AcDbEntity
  8
0
  6
Continuous
 62
     8
370
    18
100
AcDbSpline
210
0.0
220
0.0
230
1.0
 70
     8
 71
     3
 72
     9
 73
     5
 74
     0
 42
0.000000001
 43
0.00000001
 40
0.0
 40
0.0
 40
0.0
 40
0.0
 40
0.559670116858582
 40
1.0
 40
1.0
 40
1.0
 40
1.0
 10
1755.321775984717
 20
944.1436246750051
 30
0.0
 10
1755.926387614895
 20
943.8736532697459
 30
0.0
 10
1757.006687620139
 20
943.3912773180432
 30
0.0
 10
1758.130354754632
 20
942.2895395725296
 30
0.0
 10
1758.625138972653
 20
941.8044115197952
 30
0.0
  0
SPLINE
  5
2C1
330
1F
100
AcDbEntity
  8
0
  6
Continuous
 62
     8
370
    18
100
AcDbSpline
210
0.0
220
0.0
230
1.0
 70
     8
 71
     3
 72
     9
 73
     5
 74
     0
 42
0.000000001
 43
0.00000001
 40
0.0
 40
0.0
 40
0.0
 40
0.0
 40
0.8844101293156017
 40
1.0
 40
1.0
 40
1.0
 40
1.0
 10
1763.415631328476
 20
936.2392795053418
 30
0.0
 10
1762.380051742376
 20
936.9536172792443
 30
0.0
 10
1761.209124870585
 20
937.7613169541174
 30
0.0
 10
1760.177940617918
 20
938.4422110450953
 30
0.0
 10
1760.0587461635
 20
938.5209155050213
 30
0.0
  0
LINE
  5
2C2
330
1F
100
AcDbEntity
  8
0
  6
Continuous
 62
     8
370
    18
100
AcDbLine
 10
1758.6251389727
 20
939.469374415
 30
0.0
 11
1757.6586487263
 21
940.1087934864
 31
0.0
  0
LINE
  5
2C3
330
1F
100
AcDbEntity
  8
0
  6
Continuous
 62
     8
370
    18
100
AcDbLine
 10
1763.4156313285
 20
936.2392795053
 30
0.0
 11
1759.7372526794
 21
928.1347353724
 31
0.0
  0
SPLINE
  5
2C4
330
1F
100
AcDbEntity
  8
0
  6
Continuous
 62
     8
370
    18
100
AcDbSpline
210
0.0
220
0.0
230
1.0
 70
     8
 71
     3
 72
     9
 73
     5
 74
     0
 42
0.000000001
 43
0.00000001
 40
0.0
 40
0.0
 40
0.0
 40
0.0
 40
0.1844381514171517
 40
1.0
 40
1.0
 40
1.0
 40
1.0
 10
1786.666473795427
 20
939.5301432130034
 30
0.0
 10
1786.509034915058
 20
939.3433196149298
 30
0.0
 10
1785.655421499618
 20
938.3303860291287
 30
0.0
 10
1784.680089974373
 20
937.1786177622314
 30
0.0
 10
1783.884646792663
 20
936.2392795053418
 30
0.0
  0
SPLINE
  5
2C5
330
1F
100
AcDbEntity
  8
0
  6
Continuous
 62
     8
370
    18
100
AcDbSpline
210
0.0
220
0.0
230
1.0
 70
     8
 71
     3
 72
     9
 73
     5
 74
     0
 42
0.000000001
 43
0.00000001
 40
0.0
 40
0.0
 40
0.0
 40
0.0
 40
0.6588424054335427
 40
1.0
 40
1.0
 40
1.0
 40
1.0
 10
1783.884646792663
 20
936.2392795053418
 30
0.0
 10
1782.274165410577
 20
937.2911883833502
 30
0.0
 10
1779.829754776404
 20
938.8877900430695
 30
0.0
 10
1777.245555959601
 20
940.2435123942081
 30
0.0
 10
1776.363936907379
 20
940.7060273704225
 30
0.0
  0
SPLINE
  5
2C6
330
1F
100
AcDbEntity
  8
0
  6
Continuous
 62
     8
370
    18
100
AcDbSpline
210
0.0
220
0.0
230
1.0
 70
     8
 71
     3
 72
     9
 73
     5
 74
     0
 42
0.000000001
 43
0.00000001
 40
0.0
 40
0.0
 40
0.0
 40
0.0
 40
0.5514446746225411
 40
1.0
 40
1.0
 40
1.0
 40
1.0
 10
1791.978502136422
 20
944.1436246750051
 30
0.0
 10
1791.373822216367
 20
943.872702246034
 30
0.0
 10
1790.277284435003
 20
943.3814064888367
 30
0.0
 10
1789.13673759317
 20
942.2615041599845
 30
0.0
 10
1788.625139233423
 20
941.7591660064752
 30
0.0
  0
SPLINE
  5
2C7
330
1F
100
AcDbEntity
  8
0
  6
Continuous
 62
     8
370
    18
100
AcDbSpline
210
0.0
220
0.0
230
1.0
 70
     8
 71
     3
 72
     9
 73
     5
 74
     0
 42
0.000000001
 43
0.00000001
 40
0.0
 40
0.0
 40
0.0
 40
0.0
 40
0.2933870758419181
 40
1.0
 40
1.0
 40
1.0
 40
1.0
 10
1758.625138972653
 20
941.105126102
 30
0.0
 10
1758.522710113475
 20
941.0143233447848
 30
0.0
 10
1758.173584785156
 20
940.7048251947568
 30
0.0
 10
1757.871854936771
 20
940.3555768678904
 30
0.0
 10
1757.658648726297
 20
940.1087934863859
 30
0.0
  0
SPLINE
  5
2C8
330
1F
100
AcDbEntity
  8
0
  6
Continuous
 62
     8
370
    18
100
AcDbSpline
210
0.0
220
0.0
230
1.0
 70
     8
 71
     3
 72
     9
 73
     5
 74
     0
 42
0.000000001
 43
0.00000001
 40
0.0
 40
0.0
 40
0.0
 40
0.0
 40
0.6740100224430461
 40
1.0
 40
1.0
 40
1.0
 40
1.0
 10
1789.641633120132
 20
940.1087860358053
 30
0.0
 10
1789.428060303005
 20
940.3552671169922
 30
0.0
 10
1789.111191398958
 20
940.7209606126074
 30
0.0
 10
1788.744633450737
 20
941.0449801260244
 30
0.0
 10
1788.625139233423
 20
941.1506072399313
 30
0.0
  0
SPLINE
  5
2C9
330
1F
100
AcDbEntity
  8
0
  6
Continuous
 62
     8
370
    18
100
AcDbSpline
210
0.0
220
0.0
230
1.0
 70
     8
 71
     3
 72
    15
 73
    11
 74
     0
 42
0.000000001
 43
0.00000001
 40
0.0
 40
0.0
 40
0.0
 40
0.0
 40
0.124752707585004
 40
0.2488215617463519
 40
0.3735042727212121
 40
0.4999077097380255
 40
0.6269902829847238
 40
0.7566599352311386
 40
0.8889284632224227
 40
1.0
 40
1.0
 40
1.0
 40
1.0
 10
1796.976912257028
 20
887.5670113382037
 30
0.0
 10
1796.264328183515
 20
886.7946474184539
 30
0.0
 10
1794.84306618865
 20
885.2541534246244
 30
0.0
 10
1792.290579760449
 20
883.3497035445512
 30
0.0
 10
1789.515775907174
 20
881.7846102744282
 30
0.0
 10
1786.545788101433
 20
880.5866265881168
 30
0.0
 10
1783.439280144822
 20
879.7260894217096
 30
0.0
 10
1780.242727920752
 20
879.1790293109219
 30
0.0
 10
1777.170269455079
 20
878.8946117902133
 30
0.0
 10
1775.203345147513
 20
878.8662497451197
 30
0.0
 10
1774.305550919613
 20
878.853304010361
 30
0.0
  0
SPLINE
  5
2CA
330
1F
100
AcDbEntity
  8
0
  6
Continuous
 62
     8
370
    18
100
AcDbSpline
210
0.0
220
0.0
230
1.0
 70
     8
 71
     3
 72
    15
 73
    11
 74
     0
 42
0.000000001
 43
0.00000001
 40
0.0
 40
0.0
 40
0.0
 40
0.0
 40
0.0501343374735089
 40
0.1914700285095698
 40
0.3300287063942942
 40
0.4658229576026607
 40
0.6008915168971037
 40
0.7341213921105425
 40
0.8666953298164976
 40
1.0
 40
1.0
 40
1.0
 40
1.0
 10
1771.434555019019
 20
878.8946472820933
 30
0.0
 10
1771.05486578443
 20
878.9020055864844
 30
0.0
 10
1769.604779631203
 20
878.9301079774312
 30
0.0
 10
1767.056395238488
 20
879.1838729721185
 30
0.0
 10
1763.861298060661
 20
879.7248307803297
 30
0.0
 10
1760.754410737611
 20
880.5869591203825
 30
0.0
 10
1757.784523084328
 20
881.7845227380333
 30
0.0
 10
1755.00969285894
 20
883.3497266204993
 30
0.0
 10
1752.457213313929
 20
885.2541476304635
 30
0.0
 10
1751.035950398947
 20
886.7946454835314
 30
0.0
 10
1750.323365864111
 20
887.5670113382037
 30
0.0
  0
SPLINE
  5
2CB
330
1F
100
AcDbEntity
  8
0
  6
Continuous
 62
     8
370
    18
100
AcDbSpline
210
0.0
220
0.0
230
1.0
 70
     8
 71
     3
 72
     9
 73
     5
 74
     0
 42
0.000000001
 43
0.00000001
 40
0.0
 40
0.0
 40
0.0
 40
0.0
 40
0.4374232407312072
 40
1.0
 40
1.0
 40
1.0
 40
1.0
 10
1746.059288692428
 20
880.951566320389
 30
0.0
 10
1746.056084216853
 20
880.9532201296535
 30
0.0
 10
1746.048758415943
 20
880.9570009284555
 30
0.0
 10
1746.006807627355
 20
880.9818123090068
 30
0.0
 10
1745.983207088662
 20
880.9957706150705
 30
0.0
  0
LINE
  5
2CC
330
1F
100
AcDbEntity
  8
0
  6
Continuous
 62
     8
370
    18
100
AcDbLine
 10
1745.8139466613
 20
881.098469418
 30
0.0
 11
1745.6884230047
 21
881.1782800374
 31
0.0
  0
SPLINE
  5
2CD
330
1F
100
AcDbEntity
  8
0
  6
Continuous
 62
     8
370
    18
100
AcDbSpline
210
0.0
220
0.0
230
1.0
 70
     8
 71
     3
 72
    14
 73
    10
 74
     0
 42
0.000000001
 43
0.00000001
 40
0.0
 40
0.0
 40
0.0
 40
0.0
 40
0.2135067705021919
 40
0.6517504255094665
 40
0.873140209560505
 40
0.93403629594732
 40
0.9607431924969301
 40
0.9801118292298369
 40
0.9999999999999999
 40
0.9999999999999999
 40
0.9999999999999999
 40
0.9999999999999999
 10
1740.513164040399
 20
887.1250652489358
 30
0.0
 10
1740.840048498048
 20
886.5311980187508
 30
0.0
 10
1741.837895469663
 20
884.7183598635072
 30
0.0
 10
1743.739217125913
 20
882.6643307532407
 30
0.0
 10
1745.581359026751
 20
881.3328825661179
 30
0.0
 10
1746.326368460488
 20
880.8823061331303
 30
0.0
 10
1746.511515684384
 20
880.77343312428
 30
0.0
 10
1746.577402121243
 20
880.7339833747096
 30
0.0
 10
1746.575626744803
 20
880.7333626910367
 30
0.0
 10
1746.574727308703
 20
880.7330482420618
 30
0.0
  0
LINE
  5
2CE
330
1F
100
AcDbEntity
  8
0
  6
Continuous
 62
     8
370
    18
100
AcDbLine
 10
1740.4360430806
 20
887.2821830926
 30
0.0
 11
1740.5131640404
 21
887.1250652489
 31
0.0
  0
LINE
  5
2CF
330
1F
100
AcDbEntity
  8
0
  6
Continuous
 62
     8
370
    18
100
AcDbLine
 10
1806.8642350405
 20
887.2821830926
 30
0.0
 11
1806.7871140807
 21
887.1250652489
 31
0.0
  0
SPLINE
  5
2D0
330
1F
100
AcDbEntity
  8
0
  6
Continuous
 62
     8
370
    18
100
AcDbSpline
210
0.0
220
0.0
230
1.0
 70
     8
 71
     3
 72
    14
 73
    10
 74
     0
 42
0.000000001
 43
0.00000001
 40
0.0
 40
0.0
 40
0.0
 40
0.0
 40
0.2135067705021919
 40
0.6517504255094665
 40
0.873140209560505
 40
0.93403629594732
 40
0.9607431924969301
 40
0.9801118292298369
 40
0.9999999999999999
 40
0.9999999999999999
 40
0.9999999999999999
 40
0.9999999999999999
 10
1806.78711408074
 20
887.1250652489358
 30
0.0
 10
1806.460229623091
 20
886.5311980187508
 30
0.0
 10
1805.462382651476
 20
884.7183598635072
 30
0.0
 10
1803.561060995227
 20
882.6643307532407
 30
0.0
 10
1801.718919094388
 20
881.3328825661179
 30
0.0
 10
1800.973909660651
 20
880.8823061331303
 30
0.0
 10
1800.788762436755
 20
880.77343312428
 30
0.0
 10
1800.722875999896
 20
880.7339833747096
 30
0.0
 10
1800.724651376336
 20
880.7333626910367
 30
0.0
 10
1800.725550812436
 20
880.7330482420618
 30
0.0
  0
SPLINE
  5
2D1
330
1F
100
AcDbEntity
  8
0
  6
Continuous
 62
     8
370
    18
100
AcDbSpline
210
0.0
220
0.0
230
1.0
 70
     8
 71
     3
 72
    11
 73
     7
 74
     0
 42
0.000000001
 43
0.00000001
 40
0.0
 40
0.0
 40
0.0
 40
0.0
 40
0.1603206941832305
 40
0.4536165822945044
 40
0.7293954346522544
 40
1.0
 40
1.0
 40
1.0
 40
1.0
 10
1801.240989428712
 20
880.951566320389
 30
0.0
 10
1801.244832029259
 20
880.953609593336
 30
0.0
 10
1801.255704408124
 20
880.9593908962152
 30
0.0
 10
1801.333827079431
 20
881.00544628436
 30
0.0
 10
1801.460688070181
 20
881.081223797
 30
0.0
 10
1801.567931495903
 20
881.1500393566704
 30
0.0
 10
1801.621045407606
 20
881.1841212925607
 30
0.0
  0
LWPOLYLINE
  5
2D2
330
1F
100
AcDbEntity
  8
0
  6
Continuous
 62
     8
370
    18
100
AcDbPolyline
 90
        9
 70
   128
 43
0.0
 10
1739.5186866194
 20
889.2854132471
 10
1739.5017514497
 20
889.2780446229
 10
1739.4632207721
 20
889.2613404212
 10
1739.4033926099
 20
889.2354198513
 10
1739.3227438002
 20
889.20049898
 10
1739.2219113677
 20
889.1568460283
 10
1739.1016887992
 20
889.1048037228
 10
1738.9630260437
 20
889.0447967467
 10
1738.8070183366
 20
888.9772795853
  0
SPLINE
  5
2D3
330
1F
100
AcDbEntity
  8
0
  6
Continuous
 62
     8
370
    18
100
AcDbSpline
210
0.0
220
0.0
230
1.0
 70
     8
 71
     3
 72
    14
 73
    10
 74
     0
 42
0.000000001
 43
0.00000001
 40
0.0
 40
0.0
 40
0.0
 40
0.0
 40
0.1277343673806529
 40
0.2554736447623946
 40
0.3815295577018548
 40
0.5075899876641011
 40
0.7106819269575554
 40
0.9137761147631837
 40
1.0
 40
1.0
 40
1.0
 40
1.0
 10
1738.807018336607
 20
888.9772795853311
 30
0.0
 10
1738.20777766105
 20
890.4730337463845
 30
0.0
 10
1737.009273275632
 20
893.4645995640167
 30
0.0
 10
1735.721873058197
 20
898.108535554601
 30
0.0
 10
1734.812527746366
 20
902.8144340206942
 30
0.0
 10
1734.201312398205
 20
908.5275494037553
 30
0.0
 10
1734.214072388254
 20
915.2545854001777
 30
0.0
 10
1734.98916802193
 20
921.4364194969961
 30
0.0
 10
1735.836960879586
 20
924.9845952147864
 30
0.0
 10
1736.089623954845
 20
926.0420386460715
 30
0.0
  0
ARC
  5
2D4
330
1F
100
AcDbEntity
  8
0
  6
Continuous
 62
     8
370
    18
100
AcDbCircle
 10
1741.4455274789
 20
946.9946954041
 30
0.0
 40
21.62636187104329
100
AcDbArc
 50
255.6611360677
 51
257.8987638079
  0
SPLINE
  5
2D5
330
1F
100
AcDbEntity
  8
0
  6
Continuous
 62
     8
370
    18
100
AcDbSpline
210
0.0
220
0.0
230
1.0
 70
     8
 71
     3
 72
    14
 73
    10
 74
     0
 42
0.000000001
 43
0.00000001
 40
0.0
 40
0.0
 40
0.0
 40
0.0
 40
0.1272473850457647
 40
0.2554745795391216
 40
0.381092014624975
 40
0.5075915707197292
 40
0.7089607019452395
 40
0.9137761471534753
 40
1.0
 40
1.0
 40
1.0
 40
1.0
 10
1808.493259784532
 20
888.9772795853311
 30
0.0
 10
1809.090574711907
 20
890.4671894028837
 30
0.0
 10
1810.289803913108
 20
893.458481397242
 30
0.0
 10
1811.575433898
 20
898.0972446677258
 30
0.0
 10
1812.487518736177
 20
902.8088196186927
 30
0.0
 10
1813.09650023612
 20
908.500450547585
 30
0.0
 10
1813.087055052473
 20
915.2325163379264
 30
0.0
 10
1812.316174243869
 20
921.4153207052493
 30
0.0
 10
1811.463321834101
 20
924.984597849273
 30
0.0
 10
1811.210654166294
 20
926.0420386460715
 30
0.0
  0
LWPOLYLINE
  5
2D6
330
1F
100
AcDbEntity
  8
0
  6
Continuous
 62
     8
370
    18
100
AcDbPolyline
 90
        9
 70
   128
 43
0.0
 10
1807.7815915018
 20
889.2854132471
 10
1807.7985266715
 20
889.2780446229
 10
1807.837057349
 20
889.2613404212
 10
1807.8968855112
 20
889.2354198513
 10
1807.9775343209
 20
889.20049898
 10
1808.0783667534
 20
889.1568460283
 10
1808.1985893219
 20
889.1048037228
 10
1808.3372520774
 20
889.0447967467
 10
1808.4932597845
 20
888.9772795853
  0
ARC
  5
2D7
330
1F
100
AcDbEntity
  8
0
  6
Continuous
 62
     8
370
    18
100
AcDbCircle
 10
1805.8547506423
 20
946.9946954039
 30
0.0
 40
21.62636187083281
100
AcDbArc
 50
282.1012361921
 51
284.3388639323
  0
SPLINE
  5
2D8
330
1F
100
AcDbEntity
  8
0
  6
Continuous
 62
     8
370
    18
100
AcDbSpline
210
0.0
220
0.0
230
1.0
 70
     8
 71
     3
 72
    17
 73
    13
 74
     0
 42
0.000000001
 43
0.00000001
 40
0.0
 40
0.0
 40
0.0
 40
0.0
 40
0.004510843233242
 40
0.0089275808396544
 40
0.0130797616166692
 40
0.0177776523968753
 40
0.0339670294539795
 40
0.0840598168529355
 40
0.3047425820150672
 40
0.7692817376597775
 40
0.8273199878888532
 40
1.0
 40
1.0
 40
1.0
 40
1.0
 10
1801.019263875438
 20
880.8765091714556
 30
0.0
 10
1801.01494488638
 20
880.8747432980159
 30
0.0
 10
1801.006397011412
 20
880.8712483909507
 30
0.0
 10
1801.007590234617
 20
880.872970631371
 30
0.0
 10
1801.022437124955
 20
880.8812850250142
 30
0.0
 10
1801.069378310445
 20
880.9059696200022
 30
0.0
 10
1801.251719045454
 20
880.9991612089872
 30
0.0
 10
1802.019735140898
 20
881.4031294003844
 30
0.0
 10
1803.916636067912
 20
882.5942177274118
 30
0.0
 10
1805.560620476831
 20
884.1913401863264
 30
0.0
 10
1806.829277724117
 20
885.8779900660091
 30
0.0
 10
1807.194872080357
 20
886.476124399911
 30
0.0
 10
1807.468499478651
 20
886.9237952646905
 30
0.0
  0
ARC
  5
2D9
330
1F
100
AcDbEntity
  8
0
  6
Continuous
 62
     8
370
    18
100
AcDbCircle
 10
1802.1737660707
 20
878.1404570736
 30
0.0
 40
2.969655939852981
100
AcDbArc
 50
112.8777576482
 51
119.1876216711
  0
ARC
  5
2DA
330
1F
100
AcDbEntity
  8
0
  6
Continuous
 62
     8
370
    18
100
AcDbCircle
 10
1806.6559444328
 20
885.426973417
 30
0.0
 40
1.703150417991162
100
AcDbArc
 50
61.5045206154
 51
85.5829405039
  0
ARC
  5
2DB
330
1F
100
AcDbEntity
  8
0
  6
Continuous
 62
     8
370
    18
100
AcDbCircle
 10
1745.1265120505
 20
878.1404570736
 30
0.0
 40
2.969655939835329
100
AcDbArc
 50
60.8123783288
 51
67.1222423517
  0
SPLINE
  5
2DC
330
1F
100
AcDbEntity
  8
0
  6
Continuous
 62
     8
370
    18
100
AcDbSpline
210
0.0
220
0.0
230
1.0
 70
     8
 71
     3
 72
    17
 73
    13
 74
     0
 42
0.000000001
 43
0.00000001
 40
0.0
 40
0.0
 40
0.0
 40
0.0
 40
0.004510843233242
 40
0.0089275808396544
 40
0.0130797616166692
 40
0.0177776523968753
 40
0.0339670294539795
 40
0.0840598168529355
 40
0.3047425820150672
 40
0.7692817376597775
 40
0.8273199878888532
 40
1.0
 40
1.0
 40
1.0
 40
1.0
 10
1746.281014245702
 20
880.8765091714556
 30
0.0
 10
1746.285333234759
 20
880.8747432980159
 30
0.0
 10
1746.293881109728
 20
880.8712483909507
 30
0.0
 10
1746.292687886523
 20
880.872970631371
 30
0.0
 10
1746.277840996185
 20
880.8812850250142
 30
0.0
 10
1746.230899810695
 20
880.9059696200022
 30
0.0
 10
1746.048559075686
 20
880.9991612089872
 30
0.0
 10
1745.280542980241
 20
881.4031294003844
 30
0.0
 10
1743.383642053228
 20
882.5942177274118
 30
0.0
 10
1741.739657644309
 20
884.1913401863264
 30
0.0
 10
1740.471000397022
 20
885.8779900660091
 30
0.0
 10
1740.105406040783
 20
886.476124399911
 30
0.0
 10
1739.831778642488
 20
886.9237952646905
 30
0.0
  0
ARC
  5
2DD
330
1F
100
AcDbEntity
  8
0
  6
Continuous
 62
     8
370
    18
100
AcDbCircle
 10
1740.6443336883
 20
885.426973417
 30
0.0
 40
1.703150417992164
100
AcDbArc
 50
94.4170594961
 51
118.4954793845
  0
SPLINE
  5
2DE
330
1F
100
AcDbEntity
  8
0
  6
Continuous
 62
     8
370
    18
100
AcDbSpline
210
0.0
220
0.0
230
1.0
 70
     8
 71
     3
 72
    10
 73
     6
 74
     0
 42
0.000000001
 43
0.00000001
 40
0.0
 40
0.0
 40
0.0
 40
0.0
 40
0.0049101272671211
 40
0.1151642894206153
 40
1.0
 40
1.0
 40
1.0
 40
1.0
 10
1736.089623954845
 20
926.0420386460715
 30
0.0
 10
1736.094253375924
 20
926.0599737070173
 30
0.0
 10
1736.202833858667
 20
926.4806305326268
 30
0.0
 10
1737.161639849096
 20
930.1294044399345
 30
0.0
 10
1738.315048972548
 20
933.7033540667444
 30
0.0
 10
1739.340662446571
 20
936.8813165244752
 30
0.0
  0
ARC
  5
2DF
330
1F
100
AcDbEntity
  8
0
  6
Continuous
 62
     8
370
    18
100
AcDbCircle
 10
1773.6868253022
 20
1036.7044607323
 30
0.0
 40
105.5666567740493
100
AcDbArc
 50
251.0131897094
 51
251.440658065
  0
ARC
  5
2E0
330
1F
100
AcDbEntity
  8
0
  6
Continuous
 62
     8
370
    18
100
AcDbCircle
 10
1773.613452819
 20
1036.7044607323
 30
0.0
 40
105.5666567740236
100
AcDbArc
 50
288.559341935
 51
288.9868102906
  0
SPLINE
  5
2E1
330
1F
100
AcDbEntity
  8
0
  6
Continuous
 62
     8
370
    18
100
AcDbSpline
210
0.0
220
0.0
230
1.0
 70
     8
 71
     3
 72
    10
 73
     6
 74
     0
 42
0.000000001
 43
0.00000001
 40
0.0
 40
0.0
 40
0.0
 40
0.0
 40
0.0049101272671211
 40
0.1151642894206153
 40
1.0
 40
1.0
 40
1.0
 40
1.0
 10
1811.210654166294
 20
926.0420386460715
 30
0.0
 10
1811.206024745215
 20
926.0599737070173
 30
0.0
 10
1811.097444262473
 20
926.4806305326268
 30
0.0
 10
1810.138638272044
 20
930.1294044399345
 30
0.0
 10
1808.985229148591
 20
933.7033540667444
 30
0.0
 10
1807.959615674568
 20
936.8813165244752
 30
0.0
  0
ARC
  5
2E2
330
1F
100
AcDbEntity
  8
0
  6
Continuous
 62
     8
370
    18
100
AcDbCircle
 10
1807.9542768168
 20
943.2093965807
 30
0.0
 40
2.992643460951306
100
AcDbArc
 50
208.4541834336
 51
226.4525029134
  0
SPLINE
  5
2E3
330
1F
100
AcDbEntity
  8
0
  6
Continuous
 62
     8
370
    18
100
AcDbSpline
210
0.0
220
0.0
230
1.0
 70
     8
 71
     3
 72
    15
 73
    11
 74
     0
 42
0.000000001
 43
0.00000001
 40
0.0
 40
0.0
 40
0.0
 40
0.0
 40
0.3092032708855812
 40
0.6638381673138529
 40
0.8039859846733648
 40
0.907722223126016
 40
0.9361278440761286
 40
0.9546922578858653
 40
0.9789089327393952
 40
1.0
 40
1.0
 40
1.0
 40
1.0
 10
1807.959615674568
 20
936.8813165244752
 30
0.0
 10
1807.775655336628
 20
937.3690360740129
 30
0.0
 10
1807.380705136886
 20
938.4161364200115
 30
0.0
 10
1806.731168444282
 20
939.6173206500613
 30
0.0
 10
1806.230690456144
 20
940.4734025019608
 30
0.0
 10
1806.0079901404
 20
940.835526189638
 30
0.0
 10
1805.912824728752
 20
940.9848746429574
 30
0.0
 10
1805.883548225663
 20
941.0342296240227
 30
0.0
 10
1805.874916716786
 20
941.0550339199451
 30
0.0
 10
1805.886899907051
 20
941.0449925057467
 30
0.0
 10
1805.892478164984
 20
941.0403181580001
 30
0.0
  0
SPLINE
  5
2E4
330
1F
100
AcDbEntity
  8
0
  6
Continuous
 62
     8
370
    18
100
AcDbSpline
210
0.0
220
0.0
230
1.0
 70
     8
 71
     3
 72
    15
 73
    11
 74
     0
 42
0.000000001
 43
0.00000001
 40
0.0
 40
0.0
 40
0.0
 40
0.0
 40
0.3092032708855812
 40
0.6638381673138529
 40
0.8039859846733648
 40
0.907722223126016
 40
0.9361278440761286
 40
0.9546922578858653
 40
0.9789089327393952
 40
1.0
 40
1.0
 40
1.0
 40
1.0
 10
1739.340662446571
 20
936.8813165244752
 30
0.0
 10
1739.524622784512
 20
937.3690360740129
 30
0.0
 10
1739.919572984253
 20
938.4161364200115
 30
0.0
 10
1740.569109676857
 20
939.6173206500613
 30
0.0
 10
1741.069587664995
 20
940.4734025019608
 30
0.0
 10
1741.292287980739
 20
940.835526189638
 30
0.0
 10
1741.387453392388
 20
940.9848746429574
 30
0.0
 10
1741.416729895476
 20
941.0342296240227
 30
0.0
 10
1741.425361404353
 20
941.0550339199451
 30
0.0
 10
1741.413378214089
 20
941.0449925057467
 30
0.0
 10
1741.407799956155
 20
941.0403181580001
 30
0.0
  0
ARC
  5
2E5
330
1F
100
AcDbEntity
  8
0
  6
Continuous
 62
     8
370
    18
100
AcDbCircle
 10
1739.3460013043
 20
943.2093965807
 30
0.0
 40
2.992643460943714
100
AcDbArc
 50
313.5474970866
 51
331.5458165664
  0
LINE
  5
2E6
330
1F
100
AcDbEntity
  8
0
  6
Continuous
 62
     8
370
    18
100
AcDbLine
 10
1807.5611660748
 20
887.0873280582
 30
0.0
 11
1808.4932597845
 21
888.9772795853
 31
0.0
  0
ARC
  5
2E7
330
1F
100
AcDbEntity
  8
0
  6
Continuous
 62
     8
370
    18
100
AcDbCircle
 10
1806.7637037508
 20
885.5788447501
 30
0.0
 40
1.706302449444193
100
AcDbArc
 50
62.1367528231
 51
86.6223126075
  0
ARC
  5
2E8
330
1F
100
AcDbEntity
  8
0
  6
Continuous
 62
     8
370
    18
100
AcDbCircle
 10
1740.5365743703
 20
885.5788447501
 30
0.0
 40
1.706302449447044
100
AcDbArc
 50
93.3776873925
 51
117.8632471769
  0
LINE
  5
2E9
330
1F
100
AcDbEntity
  8
0
  6
Continuous
 62
     8
370
    18
100
AcDbLine
 10
1739.7391120463
 20
887.0873280582
 30
0.0
 11
1738.8070183366
 21
888.9772795853
 31
0.0
  0
ARC
  5
2EA
330
1F
100
AcDbEntity
  8
0
  6
Continuous
 62
     8
370
    18
100
AcDbCircle
 10
1739.3175428165
 20
938.6255874285
 30
0.0
 40
12.99096455759489
100
AcDbArc
 50
253.1286426121
 51
255.6127614644
  0
ARC
  5
2EB
330
1F
100
AcDbEntity
  8
0
  6
Continuous
 62
     8
370
    18
100
AcDbCircle
 10
1727.9119575748
 20
914.1572091307
 30
0.0
 40
27.43594723916416
100
AcDbArc
 50
292.3165413833
 51
293.3975702206
  0
ARC
  5
2EC
330
1F
100
AcDbEntity
  8
0
  6
Continuous
 62
     8
370
    18
100
AcDbCircle
 10
1807.9827353046
 20
938.6255874285
 30
0.0
 40
12.99096455766377
100
AcDbArc
 50
284.3872385356
 51
286.8713573879
  0
ARC
  5
2ED
330
1F
100
AcDbEntity
  8
0
  6
Continuous
 62
     8
370
    18
100
AcDbCircle
 10
1819.3883205451
 20
914.1572091279
 30
0.0
 40
27.43594723614241
100
AcDbArc
 50
246.6024297793
 51
247.6834586167
  0
LINE
  5
2EE
330
1F
100
AcDbEntity
  8
0
  6
Continuous
 62
     8
370
    18
100
AcDbLine
 10
1739.8317786425
 20
886.9237952647
 30
0.0
 11
1739.7391120463
 21
887.0873280582
 31
0.0
  0
LINE
  5
2EF
330
1F
100
AcDbEntity
  8
0
  6
Continuous
 62
     8
370
    18
100
AcDbLine
 10
1807.4684994787
 20
886.9237952647
 30
0.0
 11
1807.5611660748
 21
887.0873280582
 31
0.0
  0
ARC
  5
2F0
330
1F
100
AcDbEntity
  8
0
  6
Continuous
 62
     8
370
    18
100
AcDbCircle
 10
1740.3656995647
 20
885.9842283179
 30
0.0
 40
1.080674603452843
100
AcDbArc
 50
119.6079571864
 51
144.9031347095
  0
ARC
  5
2F1
330
1F
100
AcDbEntity
  8
0
  6
Continuous
 62
     8
370
    18
100
AcDbCircle
 10
1806.9345785565
 20
885.9842283179
 30
0.0
 40
1.080674603449828
100
AcDbArc
 50
35.0968652905
 51
60.3920428136
  0
ARC
  5
2F2
330
1F
100
AcDbEntity
  8
0
  6
Continuous
 62
     8
370
    18
100
AcDbCircle
 10
1766.2714594274
 20
1057.9481153186
 30
0.0
 40
128.0432432482791
100
AcDbArc
 50
289.0006407195
 51
289.2358448738
  0
ARC
  5
2F3
330
1F
100
AcDbEntity
  8
0
  6
Continuous
 62
     8
370
    18
100
AcDbCircle
 10
1781.0288186786
 20
1057.9481152747
 30
0.0
 40
128.0432432018918
100
AcDbArc
 50
250.7641551262
 51
250.9993592805
  0
ARC
  5
2F4
330
1F
100
AcDbEntity
  8
0
  6
Continuous
 62
     8
370
    18
100
AcDbCircle
 10
1802.7747404657
 20
878.3798472382
 30
0.0
 40
2.994349892955788
100
AcDbArc
 50
114.9375639403
 51
120.8114851065
  0
ARC
  5
2F5
330
1F
100
AcDbEntity
  8
0
  6
Continuous
 62
     8
370
    18
100
AcDbCircle
 10
1744.5255376554
 20
878.3798472381
 30
0.0
 40
2.994349892982595
100
AcDbArc
 50
59.1885148936
 51
65.0624360597
  0
ARC
  5
2F6
330
1F
100
AcDbEntity
  8
0
  6
Continuous
 62
     8
370
    18
100
AcDbCircle
 10
1808.1468917908
 20
943.0307570068
 30
0.0
 40
2.998519644952029
100
AcDbArc
 50
207.1898266334
 51
225.2946088402
  0
ARC
  5
2F7
330
1F
100
AcDbEntity
  8
0
  6
Continuous
 62
     8
370
    18
100
AcDbCircle
 10
1739.1533863304
 20
943.0307570068
 30
0.0
 40
2.998519644946365
100
AcDbArc
 50
314.7053911598
 51
332.8101733666
  0
LWPOLYLINE
  5
2F8
330
1F
100
AcDbEntity
  8
0
  6
Continuous
 62
     8
370
    18
100
AcDbPolyline
 90
        3
 70
   128
 43
0.0
 10
1738.4834135443
 20
887.9191853819
 10
1738.8031105071
 20
887.9285954652
 10
1738.8222398728
 20
887.9281484303
  0
SPLINE
  5
2F9
330
1F
100
AcDbEntity
  8
0
  6
Continuous
 62
     8
370
    18
100
AcDbSpline
210
0.0
220
0.0
230
1.0
 70
     8
 71
     3
 72
    11
 73
     7
 74
     0
 42
0.000000001
 43
0.00000001
 40
0.0
 40
0.0
 40
0.0
 40
0.0
 40
0.2107393883033838
 40
0.4531101901696417
 40
0.7264782593668674
 40
1.0
 40
1.0
 40
1.0
 40
1.0
 10
1734.731789168669
 20
900.67454583618
 30
0.0
 10
1734.903393972583
 20
899.6668571678897
 30
0.0
 10
1735.27236099845
 20
897.5002284811654
 30
0.0
 10
1736.116318802772
 20
894.2325105792279
 30
0.0
 10
1737.199670554686
 20
890.9165945732279
 30
0.0
 10
1738.055419061685
 20
888.9185089274013
 30
0.0
 10
1738.48341354425
 20
887.9191853818589
 30
0.0
  0
LWPOLYLINE
  5
2FA
330
1F
100
AcDbEntity
  8
0
  6
Continuous
 62
     8
370
    18
100
AcDbPolyline
 90
        9
 70
   128
 43
0.0
 10
1738.4834135443
 20
887.9191853819
 10
1736.5360813707
 20
888.4618931231
 10
1734.7332494825
 20
889.2239012537
 10
1733.1213200956
 20
890.1855923948
 10
1731.741792944
 20
891.3222157178
 10
1730.630166319
 20
892.6045127926
 10
1729.8150579005
 20
893.9994812724
 10
1729.3174447983
 20
895.4712130842
 10
1729.1501382857
 20
896.9818257508
  0
SPLINE
  5
2FB
330
1F
100
AcDbEntity
  8
0
  6
Continuous
 62
     8
370
    18
100
AcDbSpline
210
0.0
220
0.0
230
1.0
 70
     8
 71
     3
 72
    10
 73
     6
 74
     0
 42
0.000000001
 43
0.00000001
 40
0.0
 40
0.0
 40
0.0
 40
0.0
 40
0.286361047472925
 40
0.6394429663487944
 40
1.0
 40
1.0
 40
1.0
 40
1.0
 10
1752.560544249369
 20
879.0132679757769
 30
0.0
 10
1751.517133834621
 20
879.0911139641153
 30
0.0
 10
1749.187202942787
 20
879.2649437155452
 30
0.0
 10
1745.634178606333
 20
880.4632879971497
 30
0.0
 10
1743.319566817096
 20
881.9438814625837
 30
0.0
 10
1742.15013855393
 20
882.6919325408631
 30
0.0
  0
SPLINE
  5
2FC
330
1F
100
AcDbEntity
  8
0
  6
Continuous
 62
     8
370
    18
100
AcDbSpline
210
0.0
220
0.0
230
1.0
 70
     8
 71
     3
 72
     9
 73
     5
 74
     0
 42
0.000000001
 43
0.00000001
 40
0.0
 40
0.0
 40
0.0
 40
0.0
 40
0.3490265817610795
 40
1.0
 40
1.0
 40
1.0
 40
1.0
 10
1738.48341354425
 20
887.9191853818589
 30
0.0
 10
1738.847934593971
 20
887.205040685094
 30
0.0
 10
1739.892327969056
 20
885.1589366515226
 30
0.0
 10
1741.259891225939
 20
883.6646641917692
 30
0.0
 10
1742.15013855393
 20
882.6919325408631
 30
0.0
  0
LWPOLYLINE
  5
2FD
330
1F
100
AcDbEntity
  8
0
  6
Continuous
 62
     8
370
    18
100
AcDbPolyline
 90
       10
 70
   128
 43
0.0
 10
1729.1501382857
 20
893.6908186195
 10
1729.3476382762
 20
891.7808809099
 10
1729.9341368049
 20
889.9289794979
 10
1730.8918083578
 20
888.1913774428
 10
1732.1915621429
 20
886.6208770094
 10
1733.7938989073
 20
885.2651842651
 10
1735.6501402825
 20
884.1655083713
 10
1737.7038779228
 20
883.3552502808
 10
1739.8927132159
 20
882.8590341625
 10
1742.1501385539
 20
882.6919325409
  0
LINE
  5
2FE
330
1F
100
AcDbEntity
  8
0
  6
Continuous
 62
     8
370
    18
100
AcDbLine
 10
1742.1501385539
 20
882.6919325409
 30
0.0
 11
1742.1501385539
 21
878.835936707
 31
0.0
  0
SPLINE
  5
2FF
330
1F
100
AcDbEntity
  8
0
  6
Continuous
 62
     8
370
    18
100
AcDbSpline
210
0.0
220
0.0
230
1.0
 70
     8
 71
     3
 72
    17
 73
    13
 74
     0
 42
0.000000001
 43
0.00000001
 40
0.0
 40
0.0
 40
0.0
 40
0.0
 40
0.2229923319845342
 40
0.5008174790199172
 40
0.6858971997431659
 40
0.8665775038322041
 40
0.9279595401954391
 40
0.9497626658830699
 40
0.9717584023480773
 40
0.9770057142176732
 40
0.9922382859893881
 40
1.0
 40
1.0
 40
1.0
 40
1.0
 10
1803.349097680999
 20
882.2504632887537
 30
0.0
 10
1803.213354773934
 20
882.150047677552
 30
0.0
 10
1802.908490387315
 20
881.9245247063867
 30
0.0
 10
1802.469952685197
 20
881.6456479648457
 30
0.0
 10
1802.053714018491
 20
881.3950221613366
 30
0.0
 10
1801.773130513772
 20
881.2369519336487
 30
0.0
 10
1801.60601098932
 20
881.1461216725363
 30
0.0
 10
1801.54803016526
 20
881.1148088601811
 30
0.0
 10
1801.526210061271
 20
881.1030108527707
 30
0.0
 10
1801.514390645554
 20
881.0965212928988
 30
0.0
 10
1801.510332238558
 20
881.0941961369606
 30
0.0
 10
1801.511752224739
 20
881.0948175066407
 30
0.0
 10
1801.512231540633
 20
881.0950272497828
 30
0.0
  0
SPLINE
  5
300
330
1F
100
AcDbEntity
  8
0
  6
Continuous
 62
     8
370
    18
100
AcDbSpline
210
0.0
220
0.0
230
1.0
 70
     8
 71
     3
 72
    10
 73
     6
 74
     0
 42
0.000000001
 43
0.00000001
 40
0.0
 40
0.0
 40
0.0
 40
0.0
 40
0.340991822325418
 40
0.8366922119440959
 40
1.0
 40
1.0
 40
1.0
 40
1.0
 10
1756.057461214019
 20
889.9878688869172
 30
0.0
 10
1756.602136016401
 20
889.9561235779381
 30
0.0
 10
1757.938605501469
 20
889.878230059532
 30
0.0
 10
1760.155141909128
 20
889.7458000863438
 30
0.0
 10
1761.723440942581
 20
889.6825734255273
 30
0.0
 10
1762.112078678561
 20
889.6669053253823
 30
0.0
  0
LINE
  5
301
330
1F
100
AcDbEntity
  8
0
  6
Continuous
 62
     8
370
    18
100
AcDbLine
 10
1773.6501390606
 20
918.6145902393
 30
0.0
 11
1773.6501390606
 21
910.2002360639
 31
0.0
  0
LINE
  5
302
330
1F
100
AcDbEntity
  8
0
  6
Continuous
 62
     8
370
    18
100
AcDbLine
 10
1773.6501390606
 20
906.3855387983
 30
0.0
 11
1773.6501390606
 21
889.4643836436
 31
0.0
  0
SPLINE
  5
303
330
1F
100
AcDbEntity
  8
0
  6
Continuous
 62
     8
370
    18
100
AcDbSpline
210
0.0
220
0.0
230
1.0
 70
     8
 71
     3
 72
    11
 73
     7
 74
     0
 42
0.000000001
 43
0.00000001
 40
0.0
 40
0.0
 40
0.0
 40
0.0
 40
0.2334467301509386
 40
0.4711194504194422
 40
0.7326079434275521
 40
1.0
 40
1.0
 40
1.0
 40
1.0
 10
1762.112078678561
 20
889.6669053253823
 30
0.0
 10
1762.931473746893
 20
889.6378721043866
 30
0.0
 10
1764.585097055386
 20
889.5792800859393
 30
0.0
 10
1767.379761435608
 20
889.5167301993145
 30
0.0
 10
1770.418151256096
 20
889.472844344134
 30
0.0
 10
1772.564822475298
 20
889.467224786315
 30
0.0
 10
1773.65013906057
 20
889.4643836435969
 30
0.0
  0
SPLINE
  5
304
330
1F
100
AcDbEntity
  8
0
  6
Continuous
 62
     8
370
    18
100
AcDbSpline
210
0.0
220
0.0
230
1.0
 70
     8
 71
     3
 72
    10
 73
     6
 74
     0
 42
0.000000001
 43
0.00000001
 40
0.0
 40
0.0
 40
0.0
 40
0.0
 40
0.3470139802460243
 40
0.8381845535001717
 40
1.0
 40
1.0
 40
1.0
 40
1.0
 10
1791.289338332368
 20
889.9905883488351
 30
0.0
 10
1790.730358221615
 20
889.9580132153998
 30
0.0
 10
1789.380186409476
 20
889.8793305823416
 30
0.0
 10
1787.145288874452
 20
889.7458096514267
 30
0.0
 10
1785.576867496545
 20
889.6825753251044
 30
0.0
 10
1785.188199442578
 20
889.6669053253823
 30
0.0
  0
SPLINE
  5
305
330
1F
100
AcDbEntity
  8
0
  6
Continuous
 62
     8
370
    18
100
AcDbSpline
210
0.0
220
0.0
230
1.0
 70
     8
 71
     3
 72
    11
 73
     7
 74
     0
 42
0.000000001
 43
0.00000001
 40
0.0
 40
0.0
 40
0.0
 40
0.0
 40
0.233446730150939
 40
0.4711194504194429
 40
0.7326079434275532
 40
1.0
 40
1.0
 40
1.0
 40
1.0
 10
1785.188199442578
 20
889.6669053253823
 30
0.0
 10
1784.368804374246
 20
889.6378721043866
 30
0.0
 10
1782.715181065754
 20
889.5792800859393
 30
0.0
 10
1779.920516685531
 20
889.5167301993145
 30
0.0
 10
1776.882126865043
 20
889.472844344134
 30
0.0
 10
1774.735455645841
 20
889.467224786315
 30
0.0
 10
1773.65013906057
 20
889.4643836435969
 30
0.0
  0
ARC
  5
306
330
1F
100
AcDbEntity
  8
0
  6
Continuous
 62
     8
370
    18
100
AcDbCircle
 10
1777.3089337493
 20
889.9439786746
 30
0.0
 40
15.19938070061709
100
AcDbArc
 50
181.0445170894
 51
204.2065393294
  0
LINE
  5
307
330
1F
100
AcDbEntity
  8
0
  6
Continuous
 62
     8
370
    18
100
AcDbLine
 10
1773.6501390606
 20
889.4643836436
 30
0.0
 11
1773.6501390606
 21
881.272582036
 31
0.0
  0
ARC
  5
308
330
1F
100
AcDbEntity
  8
0
  6
Continuous
 62
     8
370
    18
100
AcDbCircle
 10
1769.9913443718
 20
889.9439786746
 30
0.0
 40
15.19938070060841
100
AcDbArc
 50
335.7934606706
 51
358.9554829106
  0
ARC
  5
309
330
1F
100
AcDbEntity
  8
0
  6
Continuous
 62
     8
370
    18
100
AcDbCircle
 10
1773.6501390606
 20
903.8359378565
 30
0.0
 40
24.98596048980585
100
AcDbArc
 50
0.0
 51
53.1776018598
  0
ARC
  5
30A
330
1F
100
AcDbEntity
  8
0
  6
Continuous
 62
     8
370
    18
100
AcDbCircle
 10
1773.6501390606
 20
903.8359378565
 30
0.0
 40
24.98596048980593
100
AcDbArc
 50
56.6066890123
 51
87.7636412233
  0
ARC
  5
30B
330
1F
100
AcDbEntity
  8
0
  6
Continuous
 62
     8
370
    18
100
AcDbCircle
 10
1773.6501390606
 20
903.8359378565
 30
0.0
 40
24.98596048980599
100
AcDbArc
 50
92.3511066819
 51
123.5098362637
  0
ARC
  5
30C
330
1F
100
AcDbEntity
  8
0
  6
Continuous
 62
     8
370
    18
100
AcDbCircle
 10
1773.6501390606
 20
903.8359378565
 30
0.0
 40
24.98596048980585
100
AcDbArc
 50
126.9657635081
 51
0.0
  0
LINE
  5
30D
330
1F
100
AcDbEntity
  8
0
  6
Continuous
 62
     8
370
    18
100
AcDbLine
 10
1808.6501392096
 20
971.2855384466
 30
0.0
 11
1724.1251389056
 21
971.2855384466
 31
0.0
  0
LINE
  5
30E
330
1F
100
AcDbEntity
  8
0
  6
Continuous
 62
     8
370
    18
100
AcDbLine
 10
1724.1251389056
 20
961.2855377388
 30
0.0
 11
1723.1251406043
 21
961.2855377388
 31
0.0
  0
LINE
  5
30F
330
1F
100
AcDbEntity
  8
0
  6
Continuous
 62
     8
370
    18
100
AcDbLine
 10
1724.1251389056
 20
993.0855386672
 30
0.0
 11
1723.1251406043
 21
993.0855386672
 31
0.0
  0
LINE
  5
310
330
1F
100
AcDbEntity
  8
0
  6
Continuous
 62
     8
370
    18
100
AcDbLine
 10
1725.1251372069
 20
960.2855380406
 30
0.0
 11
1725.1251372069
 21
959.2855378767
 31
0.0
  0
LINE
  5
311
330
1F
100
AcDbEntity
  8
0
  6
Continuous
 62
     8
370
    18
100
AcDbLine
 10
1829.1251393526
 20
959.2855378767
 30
0.0
 11
1829.1251393526
 21
960.2855380406
 31
0.0
  0
LINE
  5
312
330
1F
100
AcDbEntity
  8
0
  6
Continuous
 62
     8
370
    18
100
AcDbLine
 10
1724.1251389056
 20
973.2855387745
 30
0.0
 11
1724.1501393288
 21
973.2855387745
 31
0.0
  0
LINE
  5
313
330
1F
100
AcDbEntity
  8
0
  6
Continuous
 62
     8
370
    18
100
AcDbLine
 10
1740.6501392394
 20
957.9474564423
 30
0.0
 11
1740.7501372069
 21
957.9474564423
 31
0.0
  0
LINE
  5
314
330
1F
100
AcDbEntity
  8
0
  6
Continuous
 62
     8
370
    18
100
AcDbLine
 10
1806.6501388818
 20
957.9474564423
 30
0.0
 11
1806.5001400679
 21
957.9474564423
 31
0.0
  0
LINE
  5
315
330
1F
100
AcDbEntity
  8
0
  6
Continuous
 62
     7
370
    35
100
AcDbLine
 10
893.5988271711
 20
613.5611567762
 30
0.0
 11
894.0184252438
 21
616.4275054935
 31
0.0
  0
SPLINE
  5
316
330
1F
100
AcDbEntity
  8
0
  6
Continuous
 62
     7
370
    35
100
AcDbSpline
210
0.0
220
0.0
230
1.0
 70
     8
 71
     3
 72
    11
 73
     7
 74
     0
 42
0.000000001
 43
0.00000001
 40
0.0
 40
0.0
 40
0.0
 40
0.0
 40
0.2606216833960294
 40
0.4632003976181061
 40
0.6713668256872465
 40
0.9999999999999999
 40
0.9999999999999999
 40
0.9999999999999999
 40
0.9999999999999999
 10
894.018425243835
 20
616.427505493544
 30
0.0
 10
894.385307206136
 20
617.429223623113
 30
0.0
 10
895.0373629698863
 20
619.2095675679126
 30
0.0
 10
896.5747258691521
 20
621.4645693790205
 30
0.0
 10
898.5894961542108
 20
623.6792003079294
 30
0.0
 10
900.4348235842541
 20
624.7996639099515
 30
0.0
 10
901.5645483610435
 20
625.4856210317537
 30
0.0
  0
SPLINE
  5
317
330
1F
100
AcDbEntity
  8
0
  6
Continuous
 62
     7
370
    35
100
AcDbSpline
210
0.0
220
0.0
230
1.0
 70
     8
 71
     3
 72
    16
 73
    12
 74
     0
 42
0.000000001
 43
0.00000001
 40
0.0
 40
0.0
 40
0.0
 40
0.0
 40
0.609364106389936
 40
0.7233746177770897
 40
0.817221155385207
 40
0.8496360657976215
 40
0.8823610523514913
 40
0.9067809249566723
 40
0.9311419978322631
 40
0.970639254737866
 40
1.0
 40
1.0
 40
1.0
 40
1.0
 10
901.5645483610435
 20
625.4856210317537
 30
0.0
 10
902.1413848239973
 20
625.7832741973841
 30
0.0
 10
902.8261459570102
 20
626.1366175312961
 30
0.0
 10
903.493381695673
 20
626.6623608270733
 30
0.0
 10
903.6636410465526
 20
626.8475102799279
 30
0.0
 10
903.7319083847765
 20
626.9961694082875
 30
0.0
 10
903.743547243601
 20
627.089769252525
 30
0.0
 10
903.71902524543
 20
627.1737333225875
 30
0.0
 10
903.6627600872899
 20
627.2518700553189
 30
0.0
 10
903.5796894622564
 20
627.3140693596526
 30
0.0
 10
903.5112678036957
 20
627.3459583499031
 30
0.0
 10
903.4820931134028
 20
627.3595556732342
 30
0.0
  0
SPLINE
  5
318
330
1F
100
AcDbEntity
  8
0
  6
Continuous
 62
     7
370
    35
100
AcDbSpline
210
0.0
220
0.0
230
1.0
 70
     8
 71
     3
 72
    13
 73
     9
 74
     0
 42
0.000000001
 43
0.00000001
 40
0.0
 40
0.0
 40
0.0
 40
0.0
 40
0.1585115211647967
 40
0.3188133074652433
 40
0.4791709016038929
 40
0.6513500774441334
 40
0.8235909939454287
 40
1.0
 40
1.0
 40
1.0
 40
1.0
 10
916.1264361915393
 20
612.9491348866447
 30
0.0
 10
915.8340278551291
 20
613.9595573370119
 30
0.0
 10
915.2459086561188
 20
615.9918141784801
 30
0.0
 10
913.7435961281683
 20
618.8094171390909
 30
0.0
 10
911.8100509985399
 20
621.4506242394581
 30
0.0
 10
909.4148056319984
 20
623.7993649467013
 30
0.0
 10
906.623191325732
 20
625.854956394125
 30
0.0
 10
904.5374375392624
 20
626.8540412464239
 30
0.0
 10
903.4820931134028
 20
627.3595556732342
 30
0.0
  0
SPLINE
  5
319
330
1F
100
AcDbEntity
  8
0
  6
Continuous
 62
     7
370
    35
100
AcDbSpline
210
0.0
220
0.0
230
1.0
 70
     8
 71
     3
 72
     9
 73
     5
 74
     0
 42
0.000000001
 43
0.00000001
 40
0.0
 40
0.0
 40
0.0
 40
0.0
 40
0.4230848075377874
 40
1.0
 40
1.0
 40
1.0
 40
1.0
 10
916.1264361915393
 20
604.3068292666301
 30
0.0
 10
916.3525566495997
 20
605.5215449320848
 30
0.0
 10
916.8870132267014
 20
608.3926375447548
 30
0.0
 10
916.4046936709018
 20
611.2821381112218
 30
0.0
 10
916.1264361915393
 20
612.9491348866447
 30
0.0
  0
SPLINE
  5
31A
330
1F
100
AcDbEntity
  8
0
  6
Continuous
 62
     7
370
    35
100
AcDbSpline
210
0.0
220
0.0
230
1.0
 70
     8
 71
     3
 72
    13
 73
     9
 74
     0
 42
0.000000001
 43
0.00000001
 40
0.0
 40
0.0
 40
0.0
 40
0.0
 40
0.1585115211647967
 40
0.3188133074652433
 40
0.4791709016038929
 40
0.6513500774441334
 40
0.8235909939454287
 40
1.0
 40
1.0
 40
1.0
 40
1.0
 10
916.1264361915393
 20
604.3068292666301
 30
0.0
 10
915.8340278551291
 20
603.2964068162629
 30
0.0
 10
915.2459086561188
 20
601.2641499747947
 30
0.0
 10
913.7435961281683
 20
598.446547014184
 30
0.0
 10
911.8100509985399
 20
595.8053399138169
 30
0.0
 10
909.4148056319984
 20
593.4565992065734
 30
0.0
 10
906.623191325732
 20
591.4010077591498
 30
0.0
 10
904.5374375392624
 20
590.4019229068508
 30
0.0
 10
903.4820931134028
 20
589.8964084800407
 30
0.0
  0
SPLINE
  5
31B
330
1F
100
AcDbEntity
  8
0
  6
Continuous
 62
     7
370
    35
100
AcDbSpline
210
0.0
220
0.0
230
1.0
 70
     8
 71
     3
 72
    16
 73
    12
 74
     0
 42
0.000000001
 43
0.00000001
 40
0.0
 40
0.0
 40
0.0
 40
0.0
 40
0.609364106389936
 40
0.7233746177770897
 40
0.817221155385207
 40
0.8496360657976215
 40
0.8823610523514913
 40
0.9067809249566723
 40
0.9311419978322631
 40
0.970639254737866
 40
1.0
 40
1.0
 40
1.0
 40
1.0
 10
901.5645483610435
 20
591.7703431215211
 30
0.0
 10
902.1413848239973
 20
591.4726899558907
 30
0.0
 10
902.8261459570102
 20
591.1193466219787
 30
0.0
 10
903.493381695673
 20
590.5936033262016
 30
0.0
 10
903.6636410465526
 20
590.408453873347
 30
0.0
 10
903.7319083847765
 20
590.2597947449874
 30
0.0
 10
903.743547243601
 20
590.1661949007498
 30
0.0
 10
903.71902524543
 20
590.0822308306873
 30
0.0
 10
903.6627600872899
 20
590.0040940979559
 30
0.0
 10
903.5796894622564
 20
589.9418947936222
 30
0.0
 10
903.5112678036957
 20
589.9100058033717
 30
0.0
 10
903.4820931134028
 20
589.8964084800407
 30
0.0
  0
SPLINE
  5
31C
330
1F
100
AcDbEntity
  8
0
  6
Continuous
 62
     7
370
    35
100
AcDbSpline
210
0.0
220
0.0
230
1.0
 70
     8
 71
     3
 72
    11
 73
     7
 74
     0
 42
0.000000001
 43
0.00000001
 40
0.0
 40
0.0
 40
0.0
 40
0.0
 40
0.2606216833960294
 40
0.4632003976181061
 40
0.6713668256872465
 40
0.9999999999999999
 40
0.9999999999999999
 40
0.9999999999999999
 40
0.9999999999999999
 10
894.018425243835
 20
600.8284586597308
 30
0.0
 10
894.385307206136
 20
599.8267405301618
 30
0.0
 10
895.0373629698863
 20
598.0463965853622
 30
0.0
 10
896.5747258691521
 20
595.7913947742543
 30
0.0
 10
898.5894961542108
 20
593.5767638453455
 30
0.0
 10
900.4348235842541
 20
592.4563002433233
 30
0.0
 10
901.5645483610435
 20
591.7703431215211
 30
0.0
  0
LINE
  5
31D
330
1F
100
AcDbEntity
  8
0
  6
Continuous
 62
     7
370
    35
100
AcDbLine
 10
893.5988271711
 20
603.6948073771
 30
0.0
 11
894.0184252438
 21
600.8284586597
 31
0.0
  0
LINE
  5
31E
330
1F
100
AcDbEntity
  8
0
  6
Continuous
 62
     7
370
    35
100
AcDbLine
 10
893.5988271711
 20
603.6948073771
 30
0.0
 11
893.5988271711
 21
613.5611567762
 31
0.0
  0
LINE
  5
31F
330
1F
100
AcDbEntity
  8
0
  6
Continuous
 62
     7
370
    35
100
AcDbLine
 10
807.5988242504
 20
603.6948073771
 30
0.0
 11
807.1792261777
 21
600.8284586597
 31
0.0
  0
SPLINE
  5
320
330
1F
100
AcDbEntity
  8
0
  6
Continuous
 62
     7
370
    35
100
AcDbSpline
210
0.0
220
0.0
230
1.0
 70
     8
 71
     3
 72
    11
 73
     7
 74
     0
 42
0.000000001
 43
0.00000001
 40
0.0
 40
0.0
 40
0.0
 40
0.0
 40
0.2606216833960294
 40
0.4632003976181061
 40
0.6713668256872465
 40
0.9999999999999999
 40
0.9999999999999999
 40
0.9999999999999999
 40
0.9999999999999999
 10
807.179226177673
 20
600.8284586597308
 30
0.0
 10
806.812344215372
 20
599.8267405301618
 30
0.0
 10
806.1602884516217
 20
598.0463965853622
 30
0.0
 10
804.6229255523558
 20
595.7913947742543
 30
0.0
 10
802.6081552672971
 20
593.5767638453455
 30
0.0
 10
800.7628278372539
 20
592.4563002433233
 30
0.0
 10
799.6331030604645
 20
591.7703431215211
 30
0.0
  0
SPLINE
  5
321
330
1F
100
AcDbEntity
  8
0
  6
Continuous
 62
     7
370
    35
100
AcDbSpline
210
0.0
220
0.0
230
1.0
 70
     8
 71
     3
 72
    16
 73
    12
 74
     0
 42
0.000000001
 43
0.00000001
 40
0.0
 40
0.0
 40
0.0
 40
0.0
 40
0.609364106389936
 40
0.7233746177770897
 40
0.817221155385207
 40
0.8496360657976215
 40
0.8823610523514913
 40
0.9067809249566723
 40
0.9311419978322631
 40
0.970639254737866
 40
1.0
 40
1.0
 40
1.0
 40
1.0
 10
799.6331030604645
 20
591.7703431215211
 30
0.0
 10
799.0562665975107
 20
591.4726899558907
 30
0.0
 10
798.3715054644977
 20
591.1193466219787
 30
0.0
 10
797.704269725835
 20
590.5936033262016
 30
0.0
 10
797.5340103749554
 20
590.408453873347
 30
0.0
 10
797.4657430367314
 20
590.2597947449874
 30
0.0
 10
797.454104177907
 20
590.1661949007498
 30
0.0
 10
797.478626176078
 20
590.0822308306873
 30
0.0
 10
797.534891334218
 20
590.0040940979559
 30
0.0
 10
797.6179619592516
 20
589.9418947936222
 30
0.0
 10
797.6863836178123
 20
589.9100058033717
 30
0.0
 10
797.7155583081051
 20
589.8964084800407
 30
0.0
  0
SPLINE
  5
322
330
1F
100
AcDbEntity
  8
0
  6
Continuous
 62
     7
370
    35
100
AcDbSpline
210
0.0
220
0.0
230
1.0
 70
     8
 71
     3
 72
    13
 73
     9
 74
     0
 42
0.000000001
 43
0.00000001
 40
0.0
 40
0.0
 40
0.0
 40
0.0
 40
0.1585115211647967
 40
0.3188133074652433
 40
0.4791709016038929
 40
0.6513500774441334
 40
0.8235909939454287
 40
1.0
 40
1.0
 40
1.0
 40
1.0
 10
785.0712152299686
 20
604.3068292666301
 30
0.0
 10
785.3636235663788
 20
603.2964068162629
 30
0.0
 10
785.9517427653892
 20
601.2641499747947
 30
0.0
 10
787.4540552933397
 20
598.446547014184
 30
0.0
 10
789.3876004229681
 20
595.8053399138169
 30
0.0
 10
791.7828457895096
 20
593.4565992065734
 30
0.0
 10
794.5744600957759
 20
591.4010077591498
 30
0.0
 10
796.6602138822456
 20
590.4019229068508
 30
0.0
 10
797.7155583081051
 20
589.8964084800407
 30
0.0
  0
SPLINE
  5
323
330
1F
100
AcDbEntity
  8
0
  6
Continuous
 62
     7
370
    35
100
AcDbSpline
210
0.0
220
0.0
230
1.0
 70
     8
 71
     3
 72
     9
 73
     5
 74
     0
 42
0.000000001
 43
0.00000001
 40
0.0
 40
0.0
 40
0.0
 40
0.0
 40
0.4230848075377874
 40
1.0
 40
1.0
 40
1.0
 40
1.0
 10
785.0712152299686
 20
604.3068292666301
 30
0.0
 10
784.8450947719082
 20
605.5215449320848
 30
0.0
 10
784.3106381948066
 20
608.3926375447548
 30
0.0
 10
784.7929577506062
 20
611.2821381112218
 30
0.0
 10
785.0712152299686
 20
612.9491348866447
 30
0.0
  0
SPLINE
  5
324
330
1F
100
AcDbEntity
  8
0
  6
Continuous
 62
     7
370
    35
100
AcDbSpline
210
0.0
220
0.0
230
1.0
 70
     8
 71
     3
 72
    13
 73
     9
 74
     0
 42
0.000000001
 43
0.00000001
 40
0.0
 40
0.0
 40
0.0
 40
0.0
 40
0.1585115211647967
 40
0.3188133074652433
 40
0.4791709016038929
 40
0.6513500774441334
 40
0.8235909939454287
 40
1.0
 40
1.0
 40
1.0
 40
1.0
 10
785.0712152299686
 20
612.9491348866447
 30
0.0
 10
785.3636235663788
 20
613.9595573370119
 30
0.0
 10
785.9517427653892
 20
615.9918141784801
 30
0.0
 10
787.4540552933397
 20
618.8094171390909
 30
0.0
 10
789.3876004229681
 20
621.4506242394581
 30
0.0
 10
791.7828457895096
 20
623.7993649467013
 30
0.0
 10
794.5744600957759
 20
625.854956394125
 30
0.0
 10
796.6602138822456
 20
626.8540412464239
 30
0.0
 10
797.7155583081051
 20
627.3595556732342
 30
0.0
  0
SPLINE
  5
325
330
1F
100
AcDbEntity
  8
0
  6
Continuous
 62
     7
370
    35
100
AcDbSpline
210
0.0
220
0.0
230
1.0
 70
     8
 71
     3
 72
    16
 73
    12
 74
     0
 42
0.000000001
 43
0.00000001
 40
0.0
 40
0.0
 40
0.0
 40
0.0
 40
0.609364106389936
 40
0.7233746177770897
 40
0.817221155385207
 40
0.8496360657976215
 40
0.8823610523514913
 40
0.9067809249566723
 40
0.9311419978322631
 40
0.970639254737866
 40
1.0
 40
1.0
 40
1.0
 40
1.0
 10
799.6331030604645
 20
625.4856210317537
 30
0.0
 10
799.0562665975107
 20
625.7832741973841
 30
0.0
 10
798.3715054644977
 20
626.1366175312961
 30
0.0
 10
797.704269725835
 20
626.6623608270733
 30
0.0
 10
797.5340103749554
 20
626.8475102799279
 30
0.0
 10
797.4657430367314
 20
626.9961694082875
 30
0.0
 10
797.454104177907
 20
627.089769252525
 30
0.0
 10
797.478626176078
 20
627.1737333225875
 30
0.0
 10
797.534891334218
 20
627.2518700553189
 30
0.0
 10
797.6179619592516
 20
627.3140693596526
 30
0.0
 10
797.6863836178123
 20
627.3459583499031
 30
0.0
 10
797.7155583081051
 20
627.3595556732342
 30
0.0
  0
SPLINE
  5
326
330
1F
100
AcDbEntity
  8
0
  6
Continuous
 62
     7
370
    35
100
AcDbSpline
210
0.0
220
0.0
230
1.0
 70
     8
 71
     3
 72
    11
 73
     7
 74
     0
 42
0.000000001
 43
0.00000001
 40
0.0
 40
0.0
 40
0.0
 40
0.0
 40
0.2606216833960294
 40
0.4632003976181061
 40
0.6713668256872465
 40
0.9999999999999999
 40
0.9999999999999999
 40
0.9999999999999999
 40
0.9999999999999999
 10
807.179226177673
 20
616.427505493544
 30
0.0
 10
806.812344215372
 20
617.429223623113
 30
0.0
 10
806.1602884516217
 20
619.2095675679126
 30
0.0
 10
804.6229255523558
 20
621.4645693790205
 30
0.0
 10
802.6081552672971
 20
623.6792003079294
 30
0.0
 10
800.7628278372539
 20
624.7996639099515
 30
0.0
 10
799.6331030604645
 20
625.4856210317537
 30
0.0
  0
LINE
  5
327
330
1F
100
AcDbEntity
  8
0
  6
Continuous
 62
     7
370
    35
100
AcDbLine
 10
807.5988242504
 20
613.5611567762
 30
0.0
 11
807.1792261777
 21
616.4275054935
 31
0.0
  0
LINE
  5
328
330
1F
100
AcDbEntity
  8
0
  6
Continuous
 62
     7
370
    35
100
AcDbLine
 10
807.5988242504
 20
603.6948073771
 30
0.0
 11
807.5988242504
 21
613.5611567762
 31
0.0
  0
SPLINE
  5
329
330
1F
100
AcDbEntity
  8
0
  6
Continuous
 62
     7
370
    35
100
AcDbSpline
210
0.0
220
0.0
230
1.0
 70
     8
 71
     3
 72
    17
 73
    13
 74
     0
 42
0.000000001
 43
0.00000001
 40
0.0
 40
0.0
 40
0.0
 40
0.0
 40
0.0364925678085271
 40
0.1833587555145034
 40
0.287715591087876
 40
0.393483683854209
 40
0.4992474837338148
 40
0.606318976802526
 40
0.7133500346492919
 40
0.8177518478431232
 40
0.9088657797630415
 40
1.0
 40
1.0
 40
1.0
 40
1.0
 10
797.5988263366028
 20
586.8867091950103
 30
0.0
 10
797.1840207599371
 20
586.8945141234065
 30
0.0
 10
795.0998091276679
 20
586.9337303814976
 30
0.0
 10
791.8442309949869
 20
587.5219127338395
 30
0.0
 10
788.0435830079667
 20
588.9868425434981
 30
0.0
 10
784.9461543934642
 20
590.8378870792272
 30
0.0
 10
782.1575388276075
 20
593.1746230809326
 30
0.0
 10
779.803917704234
 20
595.9699056866942
 30
0.0
 10
777.9494838130964
 20
599.0997006472196
 30
0.0
 10
776.7060657269528
 20
602.3211509869232
 30
0.0
 10
775.9942138708575
 20
605.5180258754759
 30
0.0
 10
775.9049915093553
 20
607.5912530773161
 30
0.0
 10
775.8603753623768
 20
608.6279820766374
 30
0.0
  0
SPLINE
  5
32A
330
1F
100
AcDbEntity
  8
0
  6
Continuous
 62
     7
370
    35
100
AcDbSpline
210
0.0
220
0.0
230
1.0
 70
     8
 71
     3
 72
    17
 73
    13
 74
     0
 42
0.000000001
 43
0.00000001
 40
0.0
 40
0.0
 40
0.0
 40
0.0
 40
0.0364925678085271
 40
0.1833587555145034
 40
0.287715591087876
 40
0.3934836838542089
 40
0.4992474837338147
 40
0.6063189768025259
 40
0.7133500346492918
 40
0.8177518478431229
 40
0.9088657797630413
 40
0.9999999999999999
 40
0.9999999999999999
 40
0.9999999999999999
 40
0.9999999999999999
 10
903.5988250849053
 20
630.3692549582646
 30
0.0
 10
904.0136306615709
 20
630.3614500298684
 30
0.0
 10
906.0978422938401
 20
630.3222337717772
 30
0.0
 10
909.3534204265211
 20
629.7340514194353
 30
0.0
 10
913.1540684135413
 20
628.2691216097768
 30
0.0
 10
916.2514970280438
 20
626.4180770740476
 30
0.0
 10
919.0401125939004
 20
624.0813410723421
 30
0.0
 10
921.3937337172739
 20
621.2860584665805
 30
0.0
 10
923.2481676084117
 20
618.1562635060552
 30
0.0
 10
924.4915856945552
 20
614.9348131663517
 30
0.0
 10
925.2034375506506
 20
611.737938277799
 30
0.0
 10
925.2926599121527
 20
609.6647110759587
 30
0.0
 10
925.3372760591312
 20
608.6279820766374
 30
0.0
  0
SPLINE
  5
32B
330
1F
100
AcDbEntity
  8
0
  6
Continuous
 62
     7
370
    35
100
AcDbSpline
210
0.0
220
0.0
230
1.0
 70
     8
 71
     3
 72
    17
 73
    13
 74
     0
 42
0.000000001
 43
0.00000001
 40
0.0
 40
0.0
 40
0.0
 40
0.0
 40
0.0364925678085271
 40
0.1833587555145035
 40
0.2877155910878761
 40
0.3934836838542091
 40
0.4992474837338149
 40
0.6063189768025261
 40
0.7133500346492921
 40
0.8177518478431234
 40
0.9088657797630417
 40
1.0
 40
1.0
 40
1.0
 40
1.0
 10
797.5988263366027
 20
630.3692549582646
 30
0.0
 10
797.1840207599371
 20
630.3614500298684
 30
0.0
 10
795.0998091276679
 20
630.3222337717772
 30
0.0
 10
791.8442309949869
 20
629.7340514194353
 30
0.0
 10
788.0435830079667
 20
628.2691216097768
 30
0.0
 10
784.9461543934642
 20
626.4180770740476
 30
0.0
 10
782.1575388276075
 20
624.0813410723421
 30
0.0
 10
779.803917704234
 20
621.2860584665805
 30
0.0
 10
777.9494838130962
 20
618.1562635060552
 30
0.0
 10
776.7060657269528
 20
614.9348131663517
 30
0.0
 10
775.9942138708575
 20
611.737938277799
 30
0.0
 10
775.9049915093553
 20
609.6647110759587
 30
0.0
 10
775.8603753623768
 20
608.6279820766374
 30
0.0
  0
SPLINE
  5
32C
330
1F
100
AcDbEntity
  8
0
  6
Continuous
 62
     7
370
    35
100
AcDbSpline
210
0.0
220
0.0
230
1.0
 70
     8
 71
     3
 72
    17
 73
    13
 74
     0
 42
0.000000001
 43
0.00000001
 40
0.0
 40
0.0
 40
0.0
 40
0.0
 40
0.0364925678085271
 40
0.1833587555145035
 40
0.2877155910878762
 40
0.3934836838542092
 40
0.499247483733815
 40
0.6063189768025263
 40
0.7133500346492923
 40
0.8177518478431235
 40
0.908865779763042
 40
1.0
 40
1.0
 40
1.0
 40
1.0
 10
903.5988250849051
 20
586.8867091950103
 30
0.0
 10
904.0136306615709
 20
586.8945141234065
 30
0.0
 10
906.0978422938401
 20
586.9337303814976
 30
0.0
 10
909.3534204265211
 20
587.5219127338395
 30
0.0
 10
913.1540684135413
 20
588.9868425434981
 30
0.0
 10
916.2514970280436
 20
590.8378870792272
 30
0.0
 10
919.0401125939004
 20
593.1746230809326
 30
0.0
 10
921.3937337172739
 20
595.9699056866942
 30
0.0
 10
923.2481676084116
 20
599.0997006472196
 30
0.0
 10
924.4915856945552
 20
602.3211509869232
 30
0.0
 10
925.2034375506504
 20
605.5180258754759
 30
0.0
 10
925.2926599121527
 20
607.5912530773161
 30
0.0
 10
925.3372760591312
 20
608.6279820766374
 30
0.0
  0
LINE
  5
32D
330
1F
100
AcDbEntity
  8
0
  6
Continuous
 62
     7
370
    35
100
AcDbLine
 10
903.5988250849
 20
630.3692549583
 30
0.0
 11
797.5988263366
 21
630.3692549583
 31
0.0
  0
LINE
  5
32E
330
1F
100
AcDbEntity
  8
0
  6
Continuous
 62
     7
370
    35
100
AcDbLine
 10
903.5988250849
 20
586.886709195
 30
0.0
 11
797.5988263366
 21
586.886709195
 31
0.0
  0
LINE
  5
32F
330
1F
100
AcDbEntity
  8
0
  6
Continuous
 62
     7
370
    35
100
AcDbLine
 10
807.4426563558
 20
614.6279821288
 30
0.0
 11
893.7549950657
 21
614.6279821288
 31
0.0
  0
LINE
  5
330
330
1F
100
AcDbEntity
  8
0
  6
Continuous
 62
     7
370
    35
100
AcDbLine
 10
807.4426563558
 20
602.6279820245
 30
0.0
 11
893.7549950657
 21
602.6279820245
 31
0.0
  0
ARC
  5
331
330
1F
100
AcDbEntity
  8
0
  6
Continuous
 62
     7
370
    35
100
AcDbCircle
 10
903.5988257108
 20
608.6279820766
 30
0.0
 40
21.75
100
AcDbArc
 50
270.0
 51
90.0
  0
LINE
  5
332
330
1F
100
AcDbEntity
  8
0
  6
Continuous
 62
     7
370
    35
100
AcDbLine
 10
903.5988250849
 20
630.3779814508
 30
0.0
 11
797.5988263366
 21
630.3779814508
 31
0.0
  0
ARC
  5
333
330
1F
100
AcDbEntity
  8
0
  6
Continuous
 62
     7
370
    35
100
AcDbCircle
 10
797.5988257108
 20
608.6279820766
 30
0.0
 40
21.75
100
AcDbArc
 50
90.0
 51
270.0
  0
LINE
  5
334
330
1F
100
AcDbEntity
  8
0
  6
Continuous
 62
     7
370
    35
100
AcDbLine
 10
903.5988250849
 20
586.8779827025
 30
0.0
 11
797.5988263366
 21
586.8779827025
 31
0.0
  0
LINE
  5
335
330
1F
100
AcDbEntity
  8
0
  6
Continuous
 62
     7
370
    35
100
AcDbLine
 10
260.5988519368
 20
573.6279819276
 30
0.0
 11
259.5988052068
 21
573.6279819276
 31
0.0
  0
LINE
  5
336
330
1F
100
AcDbEntity
  8
0
  6
Continuous
 62
     7
370
    35
100
AcDbLine
 10
260.5988519368
 20
640.8959325519
 30
0.0
 11
260.5988519368
 21
576.5421945717
 31
0.0
  0
LINE
  5
337
330
1F
100
AcDbEntity
  8
0
  6
Continuous
 62
     7
370
    35
100
AcDbLine
 10
260.5988519368
 20
573.7137679126
 30
0.0
 11
260.5988519368
 21
573.6279819276
 31
0.0
  0
LINE
  5
338
330
1F
100
AcDbEntity
  8
0
  6
Continuous
 62
     7
370
    35
100
AcDbLine
 10
259.5988052068
 20
573.6279819276
 30
0.0
 11
258.5988180814
 21
573.6279819276
 31
0.0
  0
LINE
  5
339
330
1F
100
AcDbEntity
  8
0
  6
Continuous
 62
     7
370
    35
100
AcDbLine
 10
258.5988180814
 20
573.6279819276
 30
0.0
 11
258.5988180814
 21
658.1529822316
 31
0.0
  0
LINE
  5
33A
330
1F
100
AcDbEntity
  8
0
  6
Continuous
 62
     7
370
    35
100
AcDbLine
 10
1442.5988333401
 20
573.6279819276
 30
0.0
 11
1441.5988462148
 21
573.6279819276
 31
0.0
  0
LINE
  5
33B
330
1F
100
AcDbEntity
  8
0
  6
Continuous
 62
     7
370
    35
100
AcDbLine
 10
1442.5988333401
 20
658.1529822316
 30
0.0
 11
1442.5988333401
 21
573.6279819276
 31
0.0
  0
LINE
  5
33C
330
1F
100
AcDbEntity
  8
0
  6
Continuous
 62
     7
370
    35
100
AcDbLine
 10
1441.5988462148
 20
573.6279819276
 30
0.0
 11
1440.5987994847
 21
573.6279819276
 31
0.0
  0
LINE
  5
33D
330
1F
100
AcDbEntity
  8
0
  6
Continuous
 62
     7
370
    35
100
AcDbLine
 10
1440.5987994847
 20
573.6279819276
 30
0.0
 11
1440.5987994847
 21
573.7137679126
 31
0.0
  0
LINE
  5
33E
330
1F
100
AcDbEntity
  8
0
  6
Continuous
 62
     7
370
    35
100
AcDbLine
 10
1440.5987994847
 20
576.5421945717
 30
0.0
 11
1440.5987994847
 21
640.8959325519
 31
0.0
  0
LINE
  5
33F
330
1F
100
AcDbEntity
  8
0
  6
Continuous
 62
     7
370
    35
100
AcDbLine
 10
260.5988519368
 20
659.1529805329
 30
0.0
 11
260.5988519368
 21
658.1529822316
 31
0.0
  0
LINE
  5
340
330
1F
100
AcDbEntity
  8
0
  6
Continuous
 62
     7
370
    35
100
AcDbLine
 10
260.5988519368
 20
658.1529822316
 30
0.0
 11
238.0988137898
 21
658.1529822316
 31
0.0
  0
LINE
  5
341
330
1F
100
AcDbEntity
  8
0
  6
Continuous
 62
     7
370
    35
100
AcDbLine
 10
260.5988519368
 20
659.1529805329
 30
0.0
 11
238.0988137898
 21
659.1529805329
 31
0.0
  0
LINE
  5
342
330
1F
100
AcDbEntity
  8
0
  6
Continuous
 62
     7
370
    35
100
AcDbLine
 10
228.0988233266
 20
658.1529822316
 30
0.0
 11
228.0988233266
 21
659.1529805329
 31
0.0
  0
LINE
  5
343
330
1F
100
AcDbEntity
  8
0
  6
Continuous
 62
     7
370
    35
100
AcDbLine
 10
228.0988233266
 20
659.1529805329
 30
0.0
 11
238.0988137898
 21
659.1529805329
 31
0.0
  0
LINE
  5
344
330
1F
100
AcDbEntity
  8
0
  6
Continuous
 62
     7
370
    35
100
AcDbLine
 10
238.0988137898
 20
658.1529822316
 30
0.0
 11
228.0988233266
 21
658.1529822316
 31
0.0
  0
LINE
  5
345
330
1F
100
AcDbEntity
  8
0
  6
Continuous
 62
     7
370
    35
100
AcDbLine
 10
258.4988014874
 20
657.1529839303
 30
0.0
 11
258.4988014874
 21
658.1529822316
 31
0.0
  0
LINE
  5
346
330
1F
100
AcDbEntity
  8
0
  6
Continuous
 62
     7
370
    35
100
AcDbLine
 10
228.0988233266
 20
658.1529822316
 30
0.0
 11
228.0988233266
 21
657.1529839303
 31
0.0
  0
LINE
  5
347
330
1F
100
AcDbEntity
  8
0
  6
Continuous
 62
     7
370
    35
100
AcDbLine
 10
260.5988519368
 20
572.6279836264
 30
0.0
 11
260.5988519368
 21
543.1529801454
 31
0.0
  0
LINE
  5
348
330
1F
100
AcDbEntity
  8
0
  6
Continuous
 62
     7
370
    35
100
AcDbLine
 10
260.5988519368
 20
543.1529801454
 30
0.0
 11
238.0988137898
 21
543.1529801454
 31
0.0
  0
ARC
  5
349
330
1F
100
AcDbEntity
  8
0
  6
Continuous
 62
     7
370
    35
100
AcDbCircle
 10
238.0988257108
 20
553.1529820766
 30
0.0
 40
10.0
100
AcDbArc
 50
180.0
 51
270.0
  0
LINE
  5
34A
330
1F
100
AcDbEntity
  8
0
  6
Continuous
 62
     7
370
    35
100
AcDbLine
 10
258.4988014874
 20
655.5329818394
 30
0.0
 11
258.4988014874
 21
657.1529839303
 31
0.0
  0
LINE
  5
34B
330
1F
100
AcDbEntity
  8
0
  6
Continuous
 62
     7
370
    35
100
AcDbLine
 10
258.5988180814
 20
655.5329818394
 30
0.0
 11
258.4988014874
 21
655.5329818394
 31
0.0
  0
LINE
  5
34C
330
1F
100
AcDbEntity
  8
0
  6
Continuous
 62
     7
370
    35
100
AcDbLine
 10
228.0988233266
 20
553.1529817846
 30
0.0
 11
228.0988233266
 21
657.1529839303
 31
0.0
  0
LINE
  5
34D
330
1F
100
AcDbEntity
  8
0
  6
Continuous
 62
     7
370
    35
100
AcDbLine
 10
1473.0988280949
 20
659.1529805329
 30
0.0
 11
1473.0988280949
 21
658.1529822316
 31
0.0
  0
LINE
  5
34E
330
1F
100
AcDbEntity
  8
0
  6
Continuous
 62
     7
370
    35
100
AcDbLine
 10
1463.0988376317
 20
659.1529805329
 30
0.0
 11
1473.0988280949
 21
659.1529805329
 31
0.0
  0
LINE
  5
34F
330
1F
100
AcDbEntity
  8
0
  6
Continuous
 62
     7
370
    35
100
AcDbLine
 10
1473.0988280949
 20
658.1529822316
 30
0.0
 11
1463.0988376317
 21
658.1529822316
 31
0.0
  0
LINE
  5
350
330
1F
100
AcDbEntity
  8
0
  6
Continuous
 62
     7
370
    35
100
AcDbLine
 10
1440.5987994847
 20
659.1529805329
 30
0.0
 11
1440.5987994847
 21
658.1529822316
 31
0.0
  0
LINE
  5
351
330
1F
100
AcDbEntity
  8
0
  6
Continuous
 62
     7
370
    35
100
AcDbLine
 10
1440.5987994847
 20
659.1529805329
 30
0.0
 11
1463.0988376317
 21
659.1529805329
 31
0.0
  0
LINE
  5
352
330
1F
100
AcDbEntity
  8
0
  6
Continuous
 62
     7
370
    35
100
AcDbLine
 10
1440.5987994847
 20
658.1529822316
 30
0.0
 11
1463.0988376317
 21
658.1529822316
 31
0.0
  0
LINE
  5
353
330
1F
100
AcDbEntity
  8
0
  6
Continuous
 62
     7
370
    35
100
AcDbLine
 10
1442.6988499341
 20
657.1529839303
 30
0.0
 11
1442.6988499341
 21
658.1529822316
 31
0.0
  0
LINE
  5
354
330
1F
100
AcDbEntity
  8
0
  6
Continuous
 62
     7
370
    35
100
AcDbLine
 10
1473.0988280949
 20
657.1529839303
 30
0.0
 11
1473.0988280949
 21
658.1529822316
 31
0.0
  0
LINE
  5
355
330
1F
100
AcDbEntity
  8
0
  6
Continuous
 62
     7
370
    35
100
AcDbLine
 10
1442.6988499341
 20
657.1529839303
 30
0.0
 11
1442.6988499341
 21
655.5329818394
 31
0.0
  0
LINE
  5
356
330
1F
100
AcDbEntity
  8
0
  6
Continuous
 62
     7
370
    35
100
AcDbLine
 10
1473.0988280949
 20
553.1529817846
 30
0.0
 11
1473.0988280949
 21
657.1529839303
 31
0.0
  0
ARC
  5
357
330
1F
100
AcDbEntity
  8
0
  6
Continuous
 62
     7
370
    35
100
AcDbCircle
 10
1463.0988257108
 20
553.1529820766
 30
0.0
 40
10.0
100
AcDbArc
 50
270.0
 51
0.0
  0
LINE
  5
358
330
1F
100
AcDbEntity
  8
0
  6
Continuous
 62
     7
370
    35
100
AcDbLine
 10
1440.5987994847
 20
543.1529801454
 30
0.0
 11
1463.0988376317
 21
543.1529801454
 31
0.0
  0
LINE
  5
359
330
1F
100
AcDbEntity
  8
0
  6
Continuous
 62
     7
370
    35
100
AcDbLine
 10
1440.5987994847
 20
572.6279836264
 30
0.0
 11
1440.5987994847
 21
543.1529801454
 31
0.0
  0
LINE
  5
35A
330
1F
100
AcDbEntity
  8
0
  6
Continuous
 62
     7
370
    35
100
AcDbLine
 10
1442.5988333401
 20
655.5329818394
 30
0.0
 11
1442.6988499341
 21
655.5329818394
 31
0.0
  0
LINE
  5
35B
330
1F
100
AcDbEntity
  8
0
  6
Continuous
 62
     7
370
    35
100
AcDbLine
 10
260.5988519368
 20
658.1529822316
 30
0.0
 11
260.5988519368
 21
658.1279818084
 31
0.0
  0
LINE
  5
35C
330
1F
100
AcDbEntity
  8
0
  6
Continuous
 62
     7
370
    35
100
AcDbLine
 10
260.5988519368
 20
658.1279818084
 30
0.0
 11
1440.5987994847
 21
658.1279818084
 31
0.0
  0
LINE
  5
35D
330
1F
100
AcDbEntity
  8
0
  6
Continuous
 62
     7
370
    35
100
AcDbLine
 10
1440.5987994847
 20
658.1529822316
 30
0.0
 11
1440.5987994847
 21
658.1279818084
 31
0.0
  0
LINE
  5
35E
330
1F
100
AcDbEntity
  8
0
  6
Continuous
 62
     7
370
    35
100
AcDbLine
 10
260.5988519368
 20
659.127983835
 30
0.0
 11
1440.5987994847
 21
659.127983835
 31
0.0
  0
LINE
  5
35F
330
1F
100
AcDbEntity
  8
0
  6
Continuous
 62
     7
370
    35
100
AcDbLine
 10
260.5988519368
 20
658.1279818084
 30
0.0
 11
260.5988519368
 21
657.1279835071
 31
0.0
  0
LINE
  5
360
330
1F
100
AcDbEntity
  8
0
  6
Continuous
 62
     7
370
    35
100
AcDbLine
 10
1440.5987994847
 20
657.1279835071
 30
0.0
 11
1440.5987994847
 21
658.1279818084
 31
0.0
  0
LINE
  5
361
330
1F
100
AcDbEntity
  8
0
  6
Continuous
 62
     7
370
    35
100
AcDbLine
 10
1440.5987994847
 20
642.6279839244
 30
0.0
 11
1440.5987994847
 21
657.1279835071
 31
0.0
  0
LINE
  5
362
330
1F
100
AcDbEntity
  8
0
  6
Continuous
 62
     7
370
    35
100
AcDbLine
 10
260.5988519368
 20
657.1279835071
 30
0.0
 11
260.5988519368
 21
642.6279839244
 31
0.0
  0
LINE
  5
363
330
1F
100
AcDbEntity
  8
0
  6
Continuous
 62
     7
370
    35
100
AcDbLine
 10
260.5988519368
 20
640.8959325519
 30
0.0
 11
260.5988519368
 21
642.6279839244
 31
0.0
  0
LINE
  5
364
330
1F
100
AcDbEntity
  8
0
  6
Continuous
 62
     7
370
    35
100
AcDbLine
 10
1440.5987994847
 20
642.6279839244
 30
0.0
 11
1440.5987994847
 21
640.8959325519
 31
0.0
  0
LINE
  5
365
330
1F
100
AcDbEntity
  8
0
  6
Continuous
 62
     7
370
    35
100
AcDbLine
 10
1440.5987994847
 20
640.6279835966
 30
0.0
 11
260.5988519368
 21
640.6279835966
 31
0.0
  0
LINE
  5
366
330
1F
100
AcDbEntity
  8
0
  6
Continuous
 62
     7
370
    35
100
AcDbLine
 10
1440.5987994847
 20
576.5421945717
 30
0.0
 11
1440.5987994847
 21
573.7137679126
 31
0.0
  0
LINE
  5
367
330
1F
100
AcDbEntity
  8
0
  6
Continuous
 62
     7
370
    35
100
AcDbLine
 10
260.5988519368
 20
573.6279819276
 30
0.0
 11
1440.5987994847
 21
573.6279819276
 31
0.0
  0
LINE
  5
368
330
1F
100
AcDbEntity
  8
0
  6
Continuous
 62
     7
370
    35
100
AcDbLine
 10
260.5988519368
 20
573.7137679126
 30
0.0
 11
260.5988519368
 21
576.5421945717
 31
0.0
  0
LINE
  5
369
330
1F
100
AcDbEntity
  8
0
  6
Continuous
 62
     7
370
    35
100
AcDbLine
 10
260.5988519368
 20
576.6279805567
 30
0.0
 11
1440.5987994847
 21
576.6279805567
 31
0.0
  0
LINE
  5
36A
330
1F
100
AcDbEntity
  8
0
  6
Continuous
 62
     7
370
    35
100
AcDbLine
 10
1440.5987994847
 20
572.6279836264
 30
0.0
 11
1440.5987994847
 21
573.6279819276
 31
0.0
  0
LINE
  5
36B
330
1F
100
AcDbEntity
  8
0
  6
Continuous
 62
     7
370
    35
100
AcDbLine
 10
260.5988519368
 20
573.6279819276
 30
0.0
 11
260.5988519368
 21
572.6279836264
 31
0.0
  0
LINE
  5
36C
330
1F
100
AcDbEntity
  8
0
  6
Continuous
 62
     7
370
    35
100
AcDbLine
 10
1440.5987994847
 20
543.1279834475
 30
0.0
 11
260.5988519368
 21
543.1279834475
 31
0.0
  0
LINE
  5
36D
330
1F
100
AcDbEntity
  8
0
  6
Continuous
 62
     7
370
    35
100
AcDbLine
 10
260.5988519368
 20
543.1279834475
 30
0.0
 11
260.5988519368
 21
572.6279836264
 31
0.0
  0
LINE
  5
36E
330
1F
100
AcDbEntity
  8
0
  6
Continuous
 62
     7
370
    35
100
AcDbLine
 10
1440.5987994847
 20
572.6279836264
 30
0.0
 11
1440.5987994847
 21
543.1279834475
 31
0.0
  0
LINE
  5
36F
330
1F
100
AcDbEntity
  8
0
  6
Continuous
 62
     7
370
    35
100
AcDbLine
 10
797.5988263366
 20
637.8829624619
 30
0.0
 11
903.5988250849
 21
637.8829624619
 31
0.0
  0
SPLINE
  5
370
330
1F
100
AcDbEntity
  8
0
  6
Continuous
 62
     7
370
    35
100
AcDbSpline
210
0.0
220
0.0
230
1.0
 70
     8
 71
     3
 72
     8
 73
     4
 74
     0
 42
0.000000001
 43
0.00000001
 40
0.0
 40
0.0
 40
0.0
 40
0.0
 40
1.0
 40
1.0
 40
1.0
 40
1.0
 10
790.8315627388662
 20
637.6846975048435
 30
0.0
 10
793.0848897299755
 20
637.8151852856444
 30
0.0
 10
795.3417071784735
 20
637.8829617745947
 30
0.0
 10
797.598825710754
 20
637.8829617745947
 30
0.0
  0
SPLINE
  5
371
330
1F
100
AcDbEntity
  8
0
  6
Continuous
 62
     7
370
    35
100
AcDbSpline
210
0.0
220
0.0
230
1.0
 70
     8
 71
     3
 72
     8
 73
     4
 74
     0
 42
0.000000001
 43
0.00000001
 40
0.0
 40
0.0
 40
0.0
 40
0.0
 40
1.0
 40
1.0
 40
1.0
 40
1.0
 10
903.598825710754
 20
637.8829617745947
 30
0.0
 10
905.8559393804995
 20
637.8829617745947
 30
0.0
 10
908.1127613852716
 20
637.8151853034038
 30
0.0
 10
910.3660886826417
 20
637.6846975048436
 30
0.0
  0
SPLINE
  5
372
330
1F
100
AcDbEntity
  8
0
  6
Continuous
 62
     7
370
    35
100
AcDbSpline
210
0.0
220
0.0
230
1.0
 70
     8
 71
     3
 72
     8
 73
     4
 74
     0
 42
0.000000001
 43
0.00000001
 40
0.0
 40
0.0
 40
0.0
 40
0.0
 40
1.0
 40
1.0
 40
1.0
 40
1.0
 10
797.598825710754
 20
579.3730023786802
 30
0.0
 10
795.3417120410085
 20
579.3730023786802
 30
0.0
 10
793.0848900362363
 20
579.4407788498711
 30
0.0
 10
790.8315627388661
 20
579.5712666484313
 30
0.0
  0
LINE
  5
373
330
1F
100
AcDbEntity
  8
0
  6
Continuous
 62
     7
370
    35
100
AcDbLine
 10
903.5988250849
 20
579.3730016913
 30
0.0
 11
797.5988263366
 21
579.3730016913
 31
0.0
  0
SPLINE
  5
374
330
1F
100
AcDbEntity
  8
0
  6
Continuous
 62
     7
370
    35
100
AcDbSpline
210
0.0
220
0.0
230
1.0
 70
     8
 71
     3
 72
     8
 73
     4
 74
     0
 42
0.000000001
 43
0.00000001
 40
0.0
 40
0.0
 40
0.0
 40
0.0
 40
1.0
 40
1.0
 40
1.0
 40
1.0
 10
910.3660886826419
 20
579.5712666484313
 30
0.0
 10
908.1127616915325
 20
579.4407788676305
 30
0.0
 10
905.8559442430344
 20
579.3730023786802
 30
0.0
 10
903.598825710754
 20
579.3730023786802
 30
0.0
  0
SPLINE
  5
375
330
1F
100
AcDbEntity
  8
0
  6
Continuous
 62
     7
370
    35
100
AcDbSpline
210
0.0
220
0.0
230
1.0
 70
     8
 71
     3
 72
    10
 73
     6
 74
     0
 42
0.000000001
 43
0.00000001
 40
0.0
 40
0.0
 40
0.0
 40
0.0
 40
0.5
 40
0.5
 40
1.0
 40
1.0
 40
1.0
 40
1.0
 10
903.598825710754
 20
637.8779820766374
 30
0.0
 10
904.7417858587113
 20
637.8779820766374
 30
0.0
 10
905.8769793364547
 20
637.861708057809
 30
0.0
 10
908.1325056688256
 20
637.7972736657999
 30
0.0
 10
909.2528416148815
 20
637.7491160884939
 30
0.0
 10
910.3660886826419
 20
637.6846748642009
 30
0.0
  0
SPLINE
  5
376
330
1F
100
AcDbEntity
  8
0
  6
Continuous
 62
     7
370
    35
100
AcDbSpline
210
0.0
220
0.0
230
1.0
 70
     8
 71
     3
 72
    10
 73
     6
 74
     0
 42
0.000000001
 43
0.00000001
 40
0.0
 40
0.0
 40
0.0
 40
0.0
 40
0.5
 40
0.5
 40
1.0
 40
1.0
 40
1.0
 40
1.0
 10
903.598825710754
 20
635.6279820766374
 30
0.0
 10
904.6275654438427
 20
635.6279820766374
 30
0.0
 10
905.6492449201387
 20
635.5693885396283
 30
0.0
 10
907.6791705027854
 20
635.337425865613
 30
0.0
 10
908.6874200195514
 20
635.1640691513254
 30
0.0
 10
909.6893623854529
 20
634.932076111866
 30
0.0
  0
SPLINE
  5
377
330
1F
100
AcDbEntity
  8
0
  6
Continuous
 62
     7
370
    35
100
AcDbSpline
210
0.0
220
0.0
230
1.0
 70
     8
 71
     3
 72
    10
 73
     6
 74
     0
 42
0.000000001
 43
0.00000001
 40
0.0
 40
0.0
 40
0.0
 40
0.0
 40
0.5
 40
0.5
 40
1.0
 40
1.0
 40
1.0
 40
1.0
 10
790.8315627388661
 20
637.6846748642009
 30
0.0
 10
791.9448098066265
 20
637.7491160884939
 30
0.0
 10
793.0651457526823
 20
637.7972736657999
 30
0.0
 10
795.3206720850533
 20
637.861708057809
 30
0.0
 10
796.4558655627967
 20
637.8779820766374
 30
0.0
 10
797.598825710754
 20
637.8779820766374
 30
0.0
  0
SPLINE
  5
378
330
1F
100
AcDbEntity
  8
0
  6
Continuous
 62
     7
370
    35
100
AcDbSpline
210
0.0
220
0.0
230
1.0
 70
     8
 71
     3
 72
    10
 73
     6
 74
     0
 42
0.000000001
 43
0.00000001
 40
0.0
 40
0.0
 40
0.0
 40
0.0
 40
0.5
 40
0.5
 40
1.0
 40
1.0
 40
1.0
 40
1.0
 10
791.508289036055
 20
634.932076111866
 30
0.0
 10
792.5102314019566
 20
635.1640691513254
 30
0.0
 10
793.5184809187226
 20
635.337425865613
 30
0.0
 10
795.5484065013693
 20
635.5693885396283
 30
0.0
 10
796.5700859776651
 20
635.6279820766374
 30
0.0
 10
797.598825710754
 20
635.6279820766374
 30
0.0
  0
SPLINE
  5
379
330
1F
100
AcDbEntity
  8
0
  6
Continuous
 62
     7
370
    35
100
AcDbSpline
210
0.0
220
0.0
230
1.0
 70
     8
 71
     3
 72
    10
 73
     6
 74
     0
 42
0.000000001
 43
0.00000001
 40
0.0
 40
0.0
 40
0.0
 40
0.0
 40
0.5
 40
0.5
 40
1.0
 40
1.0
 40
1.0
 40
1.0
 10
797.598825710754
 20
579.3779820766374
 30
0.0
 10
796.4558655627967
 20
579.3779820766374
 30
0.0
 10
795.3206720850533
 20
579.3942560954658
 30
0.0
 10
793.0651457526822
 20
579.4586904874749
 30
0.0
 10
791.9448098066263
 20
579.5068480647809
 30
0.0
 10
790.831562738866
 20
579.5712892890739
 30
0.0
  0
SPLINE
  5
37A
330
1F
100
AcDbEntity
  8
0
  6
Continuous
 62
     7
370
    35
100
AcDbSpline
210
0.0
220
0.0
230
1.0
 70
     8
 71
     3
 72
    10
 73
     6
 74
     0
 42
0.000000001
 43
0.00000001
 40
0.0
 40
0.0
 40
0.0
 40
0.0
 40
0.5
 40
0.5
 40
1.0
 40
1.0
 40
1.0
 40
1.0
 10
797.598825710754
 20
581.6279820766374
 30
0.0
 10
796.5700859776651
 20
581.6279820766374
 30
0.0
 10
795.5484065013693
 20
581.6865756136465
 30
0.0
 10
793.5184809187225
 20
581.9185382876618
 30
0.0
 10
792.5102314019565
 20
582.0918950019495
 30
0.0
 10
791.5082890360549
 20
582.3238880414088
 30
0.0
  0
SPLINE
  5
37B
330
1F
100
AcDbEntity
  8
0
  6
Continuous
 62
     7
370
    35
100
AcDbSpline
210
0.0
220
0.0
230
1.0
 70
     8
 71
     3
 72
    10
 73
     6
 74
     0
 42
0.000000001
 43
0.00000001
 40
0.0
 40
0.0
 40
0.0
 40
0.0
 40
0.5
 40
0.5
 40
1.0
 40
1.0
 40
1.0
 40
1.0
 10
910.366088682642
 20
579.5712892890739
 30
0.0
 10
909.2528416148816
 20
579.5068480647809
 30
0.0
 10
908.1325056688258
 20
579.4586904874749
 30
0.0
 10
905.8769793364547
 20
579.3942560954658
 30
0.0
 10
904.7417858587113
 20
579.3779820766374
 30
0.0
 10
903.598825710754
 20
579.3779820766374
 30
0.0
  0
SPLINE
  5
37C
330
1F
100
AcDbEntity
  8
0
  6
Continuous
 62
     7
370
    35
100
AcDbSpline
210
0.0
220
0.0
230
1.0
 70
     8
 71
     3
 72
    10
 73
     6
 74
     0
 42
0.000000001
 43
0.00000001
 40
0.0
 40
0.0
 40
0.0
 40
0.0
 40
0.5
 40
0.5
 40
1.0
 40
1.0
 40
1.0
 40
1.0
 10
909.6893623854531
 20
582.3238880414088
 30
0.0
 10
908.6874200195514
 20
582.0918950019495
 30
0.0
 10
907.6791705027855
 20
581.9185382876618
 30
0.0
 10
905.6492449201387
 20
581.6865756136465
 30
0.0
 10
904.6275654438427
 20
581.6279820766374
 30
0.0
 10
903.598825710754
 20
581.6279820766374
 30
0.0
  0
LINE
  5
37D
330
1F
100
AcDbEntity
  8
0
  6
Continuous
 62
     7
370
    35
100
AcDbLine
 10
903.5988250849
 20
637.8779817488
 30
0.0
 11
797.5988263366
 21
637.8779817488
 31
0.0
  0
LINE
  5
37E
330
1F
100
AcDbEntity
  8
0
  6
Continuous
 62
     7
370
    35
100
AcDbLine
 10
797.5988263366
 20
635.627982777
 30
0.0
 11
903.5988250849
 21
635.627982777
 31
0.0
  0
LINE
  5
37F
330
1F
100
AcDbEntity
  8
0
  6
Continuous
 62
     7
370
    35
100
AcDbLine
 10
797.5988263366
 20
579.3779824045
 30
0.0
 11
903.5988250849
 21
579.3779824045
 31
0.0
  0
LINE
  5
380
330
1F
100
AcDbEntity
  8
0
  6
Continuous
 62
     7
370
    35
100
AcDbLine
 10
903.5988250849
 20
581.6279813763
 30
0.0
 11
797.5988263366
 21
581.6279813763
 31
0.0
  0
ARC
  5
381
330
1F
100
AcDbEntity
  8
0
  6
Continuous
 62
     7
370
    35
100
AcDbCircle
 10
903.5988257108
 20
608.6279820766
 30
0.0
 40
27.0000000000001
100
AcDbArc
 50
0.4331051188
 51
76.9632820449
  0
ARC
  5
382
330
1F
100
AcDbEntity
  8
0
  6
Continuous
 62
     7
370
    35
100
AcDbCircle
 10
797.5988257108
 20
608.6279820766
 30
0.0
 40
27.0000000000001
100
AcDbArc
 50
103.0367179551
 51
179.5668948812
  0
ARC
  5
383
330
1F
100
AcDbEntity
  8
0
  6
Continuous
 62
     7
370
    35
100
AcDbCircle
 10
797.5988257108
 20
608.6279820766
 30
0.0
 40
27.0000000000001
100
AcDbArc
 50
180.4331051188
 51
256.9632820449
  0
ARC
  5
384
330
1F
100
AcDbEntity
  8
0
  6
Continuous
 62
     7
370
    35
100
AcDbCircle
 10
903.5988257108
 20
608.6279820766
 30
0.0
 40
27.0000000000001
100
AcDbArc
 50
283.0367179551
 51
359.5668948812
  0
ARC
  5
385
330
1F
100
AcDbEntity
  8
0
  6
Continuous
 62
     8
370
    18
100
AcDbCircle
 10
897.5835144204
 20
623.8644863797
 30
0.0
 40
2.052502423956773
100
AcDbArc
 50
11.64668659
 51
44.8014125004
  0
SPLINE
  5
386
330
1F
100
AcDbEntity
  8
0
  6
Continuous
 62
     8
370
    18
100
AcDbSpline
210
0.0
220
0.0
230
1.0
 70
     8
 71
     3
 72
     9
 73
     5
 74
     0
 42
0.000000001
 43
0.00000001
 40
0.0
 40
0.0
 40
0.0
 40
0.0
 40
0.1546890932399494
 40
1.0
 40
1.0
 40
1.0
 40
1.0
 10
903.4820931134028
 20
627.3595556732342
 30
0.0
 10
903.2390416183862
 20
627.2868807742065
 30
0.0
 10
901.6678158136054
 20
626.8170680840838
 30
0.0
 10
900.2436973186212
 20
626.0007924250068
 30
0.0
 10
899.0398744222923
 20
625.3107857074664
 30
0.0
  0
SPLINE
  5
387
330
1F
100
AcDbEntity
  8
0
  6
Continuous
 62
     8
370
    18
100
AcDbSpline
210
0.0
220
0.0
230
1.0
 70
     8
 71
     3
 72
     9
 73
     5
 74
     0
 42
0.000000001
 43
0.00000001
 40
0.0
 40
0.0
 40
0.0
 40
0.0
 40
0.1546890932399494
 40
1.0
 40
1.0
 40
1.0
 40
1.0
 10
797.7155583081051
 20
627.3595556732342
 30
0.0
 10
797.9586098031217
 20
627.2868807742065
 30
0.0
 10
799.5298356079026
 20
626.8170680840838
 30
0.0
 10
800.9539541028868
 20
626.0007924250068
 30
0.0
 10
802.1577769992157
 20
625.3107857074664
 30
0.0
  0
ARC
  5
388
330
1F
100
AcDbEntity
  8
0
  6
Continuous
 62
     8
370
    18
100
AcDbCircle
 10
803.6141370011
 20
623.8644863797
 30
0.0
 40
2.052502423956773
100
AcDbArc
 50
135.1985874996
 51
168.35331341
  0
SPLINE
  5
389
330
1F
100
AcDbEntity
  8
0
  6
Continuous
 62
     8
370
    18
100
AcDbSpline
210
0.0
220
0.0
230
1.0
 70
     8
 71
     3
 72
     9
 73
     5
 74
     0
 42
0.000000001
 43
0.00000001
 40
0.0
 40
0.0
 40
0.0
 40
0.0
 40
0.1546890932399494
 40
1.0
 40
1.0
 40
1.0
 40
1.0
 10
903.4820931134028
 20
589.8964084800407
 30
0.0
 10
903.2390416183862
 20
589.9690833790684
 30
0.0
 10
901.6678158136054
 20
590.4388960691912
 30
0.0
 10
900.2436973186212
 20
591.2551717282681
 30
0.0
 10
899.0398744222923
 20
591.9451784458086
 30
0.0
  0
ARC
  5
38A
330
1F
100
AcDbEntity
  8
0
  6
Continuous
 62
     8
370
    18
100
AcDbCircle
 10
897.5835144204
 20
593.3914777735
 30
0.0
 40
2.052502423955791
100
AcDbArc
 50
315.1985874996
 51
348.35331341
  0
ARC
  5
38B
330
1F
100
AcDbEntity
  8
0
  6
Continuous
 62
     8
370
    18
100
AcDbCircle
 10
803.6141370011
 20
593.3914777735
 30
0.0
 40
2.052502423955711
100
AcDbArc
 50
191.64668659
 51
224.8014125004
  0
SPLINE
  5
38C
330
1F
100
AcDbEntity
  8
0
  6
Continuous
 62
     8
370
    18
100
AcDbSpline
210
0.0
220
0.0
230
1.0
 70
     8
 71
     3
 72
     9
 73
     5
 74
     0
 42
0.000000001
 43
0.00000001
 40
0.0
 40
0.0
 40
0.0
 40
0.0
 40
0.1546890932399494
 40
1.0
 40
1.0
 40
1.0
 40
1.0
 10
797.7155583081051
 20
589.8964084800407
 30
0.0
 10
797.9586098031217
 20
589.9690833790684
 30
0.0
 10
799.5298356079026
 20
590.4388960691912
 30
0.0
 10
800.9539541028868
 20
591.2551717282681
 30
0.0
 10
802.1577769992157
 20
591.9451784458086
 30
0.0
  0
SPLINE
  5
38D
330
1F
100
AcDbEntity
  8
0
  6
Continuous
 62
     8
370
    18
100
AcDbSpline
210
0.0
220
0.0
230
1.0
 70
     8
 71
     3
 72
    14
 73
    10
 74
     0
 42
0.000000001
 43
0.00000001
 40
0.0
 40
0.0
 40
0.0
 40
0.0
 40
0.111428517666819
 40
0.495878450524899
 40
0.7046557672676621
 40
0.8301764016971556
 40
0.9121021737271335
 40
0.9942801179564417
 40
1.0
 40
1.0
 40
1.0
 40
1.0
 10
899.0398744222923
 20
625.3107857074664
 30
0.0
 10
898.9204839348952
 20
625.2284535971094
 30
0.0
 10
898.3891731794661
 20
624.8620597854792
 30
0.0
 10
897.7148842379956
 20
624.2292880972557
 30
0.0
 10
897.2570152257841
 20
623.4383043996073
 30
0.0
 10
897.1725613995957
 20
622.9281094550887
 30
0.0
 10
897.2550238189172
 20
622.5837793227224
 30
0.0
 10
897.3747375324101
 20
622.4060856419622
 30
0.0
 10
897.4554422653127
 20
622.3306983185839
 30
0.0
 10
897.4606940624519
 20
622.3257925476953
 30
0.0
  0
SPLINE
  5
38E
330
1F
100
AcDbEntity
  8
0
  6
Continuous
 62
     8
370
    18
100
AcDbSpline
210
0.0
220
0.0
230
1.0
 70
     8
 71
     3
 72
    14
 73
    10
 74
     0
 42
0.000000001
 43
0.00000001
 40
0.0
 40
0.0
 40
0.0
 40
0.0
 40
0.111428517666819
 40
0.495878450524899
 40
0.7046557672676621
 40
0.8301764016971556
 40
0.9121021737271335
 40
0.9942801179564417
 40
1.0
 40
1.0
 40
1.0
 40
1.0
 10
899.0398744222923
 20
591.9451784458086
 30
0.0
 10
898.9204839348952
 20
592.0275105561655
 30
0.0
 10
898.3891731794661
 20
592.3939043677957
 30
0.0
 10
897.7148842379956
 20
593.0266760560191
 30
0.0
 10
897.2570152257841
 20
593.8176597536676
 30
0.0
 10
897.1725613995957
 20
594.3278546981861
 30
0.0
 10
897.2550238189172
 20
594.6721848305524
 30
0.0
 10
897.3747375324101
 20
594.8498785113126
 30
0.0
 10
897.4554422653127
 20
594.9252658346909
 30
0.0
 10
897.4606940624519
 20
594.9301716055795
 30
0.0
  0
ARC
  5
38F
330
1F
100
AcDbEntity
  8
0
  6
Continuous
 62
     8
370
    18
100
AcDbCircle
 10
896.5988257108
 20
608.6279820766
 30
0.0
 40
20.00000000000011
100
AcDbArc
 50
270.0
 51
347.5224163016
  0
LINE
  5
390
330
1F
100
AcDbEntity
  8
0
  6
Continuous
 62
     8
370
    18
100
AcDbLine
 10
896.5988258002
 20
595.9153311443
 30
0.0
 11
896.5988258002
 21
588.6279825237
 31
0.0
  0
LINE
  5
391
330
1F
100
AcDbEntity
  8
0
  6
Continuous
 62
     8
370
    18
100
AcDbLine
 10
896.5988258002
 20
621.340633009
 30
0.0
 11
896.5988258002
 21
628.6279816296
 31
0.0
  0
ARC
  5
392
330
1F
100
AcDbEntity
  8
0
  6
Continuous
 62
     8
370
    18
100
AcDbCircle
 10
896.5988257108
 20
608.6279820766
 30
0.0
 40
20.00000000000011
100
AcDbArc
 50
12.4775836984
 51
90.0
  0
ARC
  5
393
330
1F
100
AcDbEntity
  8
0
  6
Continuous
 62
     8
370
    18
100
AcDbCircle
 10
804.5988257108
 20
608.6279820766
 30
0.0
 40
20.00000000000011
100
AcDbArc
 50
90.0
 51
167.5224163016
  0
LINE
  5
394
330
1F
100
AcDbEntity
  8
0
  6
Continuous
 62
     8
370
    18
100
AcDbLine
 10
804.5988256213
 20
621.340633009
 30
0.0
 11
804.5988256213
 21
628.6279816296
 31
0.0
  0
LINE
  5
395
330
1F
100
AcDbEntity
  8
0
  6
Continuous
 62
     8
370
    18
100
AcDbLine
 10
804.5988256213
 20
595.9153311443
 30
0.0
 11
804.5988256213
 21
588.6279825237
 31
0.0
  0
ARC
  5
396
330
1F
100
AcDbEntity
  8
0
  6
Continuous
 62
     8
370
    18
100
AcDbCircle
 10
804.5988257108
 20
608.6279820766
 30
0.0
 40
20.00000000000011
100
AcDbArc
 50
192.4775836984
 51
270.0
  0
SPLINE
  5
397
330
1F
100
AcDbEntity
  8
0
  6
Continuous
 62
     8
370
    18
100
AcDbSpline
210
0.0
220
0.0
230
1.0
 70
     8
 71
     3
 72
    14
 73
    10
 74
     0
 42
0.000000001
 43
0.00000001
 40
0.0
 40
0.0
 40
0.0
 40
0.0
 40
0.111428517666819
 40
0.495878450524899
 40
0.7046557672676621
 40
0.8301764016971556
 40
0.9121021737271335
 40
0.9942801179564417
 40
1.0
 40
1.0
 40
1.0
 40
1.0
 10
802.1577769992157
 20
591.9451784458086
 30
0.0
 10
802.2771674866127
 20
592.0275105561655
 30
0.0
 10
802.8084782420419
 20
592.3939043677957
 30
0.0
 10
803.4827671835124
 20
593.0266760560191
 30
0.0
 10
803.9406361957239
 20
593.8176597536676
 30
0.0
 10
804.0250900219123
 20
594.3278546981861
 30
0.0
 10
803.9426276025908
 20
594.6721848305524
 30
0.0
 10
803.8229138890979
 20
594.8498785113126
 30
0.0
 10
803.7422091561953
 20
594.9252658346909
 30
0.0
 10
803.7369573590561
 20
594.9301716055795
 30
0.0
  0
SPLINE
  5
398
330
1F
100
AcDbEntity
  8
0
  6
Continuous
 62
     8
370
    18
100
AcDbSpline
210
0.0
220
0.0
230
1.0
 70
     8
 71
     3
 72
    14
 73
    10
 74
     0
 42
0.000000001
 43
0.00000001
 40
0.0
 40
0.0
 40
0.0
 40
0.0
 40
0.111428517666819
 40
0.495878450524899
 40
0.7046557672676621
 40
0.8301764016971556
 40
0.9121021737271335
 40
0.9942801179564417
 40
1.0
 40
1.0
 40
1.0
 40
1.0
 10
802.1577769992157
 20
625.3107857074664
 30
0.0
 10
802.2771674866127
 20
625.2284535971094
 30
0.0
 10
802.8084782420419
 20
624.8620597854792
 30
0.0
 10
803.4827671835124
 20
624.2292880972557
 30
0.0
 10
803.9406361957239
 20
623.4383043996073
 30
0.0
 10
804.0250900219123
 20
622.9281094550887
 30
0.0
 10
803.9426276025908
 20
622.5837793227224
 30
0.0
 10
803.8229138890979
 20
622.4060856419622
 30
0.0
 10
803.7422091561953
 20
622.3306983185839
 30
0.0
 10
803.7369573590561
 20
622.3257925476953
 30
0.0
  0
SPLINE
  5
399
330
1F
100
AcDbEntity
  8
0
  6
Continuous
 62
     8
370
    18
100
AcDbSpline
210
0.0
220
0.0
230
1.0
 70
     8
 71
     3
 72
    18
 73
    14
 74
     0
 42
0.000000001
 43
0.00000001
 40
0.0
 40
0.0
 40
0.0
 40
0.0
 40
0.0000017473176965
 40
0.0364936458578425
 40
0.1834230903232125
 40
0.2877748350048223
 40
0.3935753672554279
 40
0.4993716781640918
 40
0.6064030905104647
 40
0.7134447539726892
 40
0.8178453462610401
 40
0.9089125318866259
 40
1.0
 40
1.0
 40
1.0
 40
1.0
 10
903.5988250849051
 20
630.3736936416551
 30
0.0
 10
903.5988449531202
 20
630.3736936416645
 30
0.0
 10
904.013803036225
 20
630.3736938398455
 30
0.0
 10
906.0990054928631
 20
630.3112921902157
 30
0.0
 10
909.356043202373
 20
629.742236607635
 30
0.0
 10
913.1582405711291
 20
628.271099601714
 30
0.0
 10
916.2566889169844
 20
626.4201920495982
 30
0.0
 10
919.045713558774
 20
624.0819943939747
 30
0.0
 10
921.3993439604849
 20
621.2858111751117
 30
0.0
 10
923.2535559692532
 20
618.1554015018941
 30
0.0
 10
924.4965926668148
 20
614.933509036811
 30
0.0
 10
925.2079901408798
 20
611.7369750192728
 30
0.0
 10
925.2971378082776
 20
609.6643899833219
 30
0.0
 10
925.341716605167
 20
608.6279820766374
 30
0.0
  0
LINE
  5
39A
330
1F
100
AcDbEntity
  8
0
  6
Continuous
 62
     8
370
    18
100
AcDbLine
 10
903.5988250849
 20
630.3736936417
 30
0.0
 11
903.5988250849
 21
630.3779814508
 31
0.0
  0
SPLINE
  5
39B
330
1F
100
AcDbEntity
  8
0
  6
Continuous
 62
     8
370
    18
100
AcDbSpline
210
0.0
220
0.0
230
1.0
 70
     8
 71
     3
 72
    18
 73
    14
 74
     0
 42
0.000000001
 43
0.00000001
 40
0.0
 40
0.0
 40
0.0
 40
0.0
 40
0.0000017473176965
 40
0.0364936458578425
 40
0.1834230903232124
 40
0.2877748350048221
 40
0.3935753672554277
 40
0.4993716781640916
 40
0.6064030905104645
 40
0.713444753972689
 40
0.8178453462610398
 40
0.9089125318866256
 40
1.0
 40
1.0
 40
1.0
 40
1.0
 10
797.5988263366028
 20
586.8822705116197
 30
0.0
 10
797.5988064683878
 20
586.8822705116103
 30
0.0
 10
797.1838483852346
 20
586.8822703134293
 30
0.0
 10
795.0986459287399
 20
586.9446719630591
 30
0.0
 10
791.8416082191092
 20
587.5137275456398
 30
0.0
 10
788.0394108503848
 20
588.9848645515609
 30
0.0
 10
784.9409625045218
 20
590.8357721036766
 30
0.0
 10
782.1519378627345
 20
593.1739697593
 30
0.0
 10
779.7983074610229
 20
595.9701529781631
 30
0.0
 10
777.9440954522549
 20
599.1005626513808
 30
0.0
 10
776.7010587546932
 20
602.322455116464
 30
0.0
 10
775.9896612806282
 20
605.518989134002
 30
0.0
 10
775.9005136132304
 20
607.591574169953
 30
0.0
 10
775.855934816341
 20
608.6279820766374
 30
0.0
  0
LINE
  5
39C
330
1F
100
AcDbEntity
  8
0
  6
Continuous
 62
     8
370
    18
100
AcDbLine
 10
797.5988263366
 20
586.8822705116
 30
0.0
 11
797.5988263366
 21
586.8779827025
 31
0.0
  0
LINE
  5
39D
330
1F
100
AcDbEntity
  8
0
  6
Continuous
 62
     8
370
    18
100
AcDbLine
 10
775.8559348163
 20
608.6279820766
 30
0.0
 11
775.8603753624
 21
608.6279820766
 31
0.0
  0
LINE
  5
39E
330
1F
100
AcDbEntity
  8
0
  6
Continuous
 62
     8
370
    18
100
AcDbLine
 10
797.5988263366
 20
586.886709195
 30
0.0
 11
797.5988263366
 21
586.8822705116
 31
0.0
  0
LINE
  5
39F
330
1F
100
AcDbEntity
  8
0
  6
Continuous
 62
     8
370
    18
100
AcDbLine
 10
925.3417166052
 20
608.6279820766
 30
0.0
 11
925.3372760591
 21
608.6279820766
 31
0.0
  0
LINE
  5
3A0
330
1F
100
AcDbEntity
  8
0
  6
Continuous
 62
     8
370
    18
100
AcDbLine
 10
903.5988250849
 20
630.3692549583
 30
0.0
 11
903.5988250849
 21
630.3736936417
 31
0.0
  0
SPLINE
  5
3A1
330
1F
100
AcDbEntity
  8
0
  6
Continuous
 62
     8
370
    18
100
AcDbSpline
210
0.0
220
0.0
230
1.0
 70
     8
 71
     3
 72
    18
 73
    14
 74
     0
 42
0.000000001
 43
0.00000001
 40
0.0
 40
0.0
 40
0.0
 40
0.0
 40
0.0000017473176965
 40
0.0364936458578426
 40
0.1834230903232126
 40
0.2877748350048224
 40
0.393575367255428
 40
0.4993716781640921
 40
0.6064030905104649
 40
0.7134447539726896
 40
0.8178453462610404
 40
0.9089125318866264
 40
1.0
 40
1.0
 40
1.0
 40
1.0
 10
797.5988263366028
 20
630.3736936416551
 30
0.0
 10
797.5988064683878
 20
630.3736936416645
 30
0.0
 10
797.1838483853795
 20
630.3736938397972
 30
0.0
 10
795.0986459284549
 20
630.3112921903107
 30
0.0
 10
791.8416082191868
 20
629.7422366076091
 30
0.0
 10
788.0394108503667
 20
628.27109960172
 30
0.0
 10
784.9409625045267
 20
626.4201920495967
 30
0.0
 10
782.1519378627331
 20
624.0819943939753
 30
0.0
 10
779.7983074610233
 20
621.2858111751116
 30
0.0
 10
777.9440954522548
 20
618.1554015018941
 30
0.0
 10
776.7010587546932
 20
614.9335090368108
 30
0.0
 10
775.9896612806282
 20
611.7369750192728
 30
0.0
 10
775.9005136132304
 20
609.6643899833219
 30
0.0
 10
775.855934816341
 20
608.6279820766374
 30
0.0
  0
LINE
  5
3A2
330
1F
100
AcDbEntity
  8
0
  6
Continuous
 62
     8
370
    18
100
AcDbLine
 10
797.5988263366
 20
630.3736936417
 30
0.0
 11
797.5988263366
 21
630.3779814508
 31
0.0
  0
LINE
  5
3A3
330
1F
100
AcDbEntity
  8
0
  6
Continuous
 62
     8
370
    18
100
AcDbLine
 10
797.5988263366
 20
630.3692549583
 30
0.0
 11
797.5988263366
 21
630.3736936417
 31
0.0
  0
SPLINE
  5
3A4
330
1F
100
AcDbEntity
  8
0
  6
Continuous
 62
     8
370
    18
100
AcDbSpline
210
0.0
220
0.0
230
1.0
 70
     8
 71
     3
 72
    18
 73
    14
 74
     0
 42
0.000000001
 43
0.00000001
 40
0.0
 40
0.0
 40
0.0
 40
0.0
 40
0.0000017473176965
 40
0.0364936458578425
 40
0.1834230903232125
 40
0.2877748350048223
 40
0.3935753672554279
 40
0.4993716781640918
 40
0.6064030905104647
 40
0.7134447539726892
 40
0.8178453462610401
 40
0.9089125318866259
 40
1.0
 40
1.0
 40
1.0
 40
1.0
 10
903.5988250849051
 20
586.8822705116197
 30
0.0
 10
903.5988449531202
 20
586.8822705116103
 30
0.0
 10
904.013803036225
 20
586.8822703134293
 30
0.0
 10
906.0990054928631
 20
586.9446719630591
 30
0.0
 10
909.356043202373
 20
587.5137275456398
 30
0.0
 10
913.1582405711291
 20
588.9848645515609
 30
0.0
 10
916.2566889169844
 20
590.8357721036766
 30
0.0
 10
919.045713558774
 20
593.1739697593
 30
0.0
 10
921.3993439604849
 20
595.9701529781631
 30
0.0
 10
923.2535559692532
 20
599.1005626513808
 30
0.0
 10
924.4965926668148
 20
602.322455116464
 30
0.0
 10
925.2079901408798
 20
605.518989134002
 30
0.0
 10
925.2971378082776
 20
607.591574169953
 30
0.0
 10
925.341716605167
 20
608.6279820766374
 30
0.0
  0
LINE
  5
3A5
330
1F
100
AcDbEntity
  8
0
  6
Continuous
 62
     8
370
    18
100
AcDbLine
 10
903.5988250849
 20
586.8822705116
 30
0.0
 11
903.5988250849
 21
586.8779827025
 31
0.0
  0
LINE
  5
3A6
330
1F
100
AcDbEntity
  8
0
  6
Continuous
 62
     8
370
    18
100
AcDbLine
 10
903.5988250849
 20
586.886709195
 30
0.0
 11
903.5988250849
 21
586.8822705116
 31
0.0
  0
LINE
  5
3A7
330
1F
100
AcDbEntity
  8
0
  6
Continuous
 62
     8
370
    18
100
AcDbLine
 10
896.5988258002
 20
588.6279825237
 30
0.0
 11
804.5988256213
 21
588.6279825237
 31
0.0
  0
LINE
  5
3A8
330
1F
100
AcDbEntity
  8
0
  6
Continuous
 62
     8
370
    18
100
AcDbLine
 10
896.5988258002
 20
628.6279816296
 30
0.0
 11
804.5988256213
 21
628.6279816296
 31
0.0
  0
LINE
  5
3A9
330
1F
100
AcDbEntity
  8
0
  6
Continuous
 62
     8
370
    18
100
AcDbLine
 10
903.5988250849
 20
630.3736936417
 30
0.0
 11
797.5988263366
 21
630.3736936417
 31
0.0
  0
LINE
  5
3AA
330
1F
100
AcDbEntity
  8
0
  6
Continuous
 62
     8
370
    18
100
AcDbLine
 10
903.5988250849
 20
586.8822705116
 30
0.0
 11
797.5988263366
 21
586.8822705116
 31
0.0
  0
LINE
  5
3AB
330
1F
100
AcDbEntity
  8
0
  6
Continuous
 62
     8
370
    18
100
AcDbLine
 10
903.5988250849
 20
586.8779827025
 30
0.0
 11
903.5988250849
 21
582.3779828962
 31
0.0
  0
LINE
  5
3AC
330
1F
100
AcDbEntity
  8
0
  6
Continuous
 62
     8
370
    18
100
AcDbLine
 10
903.5988250849
 20
630.3779814508
 30
0.0
 11
903.5988250849
 21
634.8779812571
 31
0.0
  0
ARC
  5
3AD
330
1F
100
AcDbEntity
  8
0
  6
Continuous
 62
     8
370
    18
100
AcDbCircle
 10
903.5988257108
 20
608.6279820766
 30
0.0
 40
26.25
100
AcDbArc
 50
270.0
 51
90.0
  0
LINE
  5
3AE
330
1F
100
AcDbEntity
  8
0
  6
Continuous
 62
     8
370
    18
100
AcDbLine
 10
903.5988250849
 20
582.3779828962
 30
0.0
 11
903.5988250849
 21
581.6279813763
 31
0.0
  0
LINE
  5
3AF
330
1F
100
AcDbEntity
  8
0
  6
Continuous
 62
     8
370
    18
100
AcDbLine
 10
903.5988250849
 20
634.8779812571
 30
0.0
 11
903.5988250849
 21
635.627982777
 31
0.0
  0
LINE
  5
3B0
330
1F
100
AcDbEntity
  8
0
  6
Continuous
 62
     8
370
    18
100
AcDbLine
 10
797.5988263366
 20
630.3779814508
 30
0.0
 11
797.5988263366
 21
634.8779812571
 31
0.0
  0
LINE
  5
3B1
330
1F
100
AcDbEntity
  8
0
  6
Continuous
 62
     8
370
    18
100
AcDbLine
 10
903.5988250849
 20
634.8779812571
 30
0.0
 11
797.5988263366
 21
634.8779812571
 31
0.0
  0
LINE
  5
3B2
330
1F
100
AcDbEntity
  8
0
  6
Continuous
 62
     8
370
    18
100
AcDbLine
 10
797.5988263366
 20
634.8779812571
 30
0.0
 11
797.5988263366
 21
635.627982777
 31
0.0
  0
LINE
  5
3B3
330
1F
100
AcDbEntity
  8
0
  6
Continuous
 62
     8
370
    18
100
AcDbLine
 10
797.5988263366
 20
586.8779827025
 30
0.0
 11
797.5988263366
 21
582.3779828962
 31
0.0
  0
ARC
  5
3B4
330
1F
100
AcDbEntity
  8
0
  6
Continuous
 62
     8
370
    18
100
AcDbCircle
 10
797.5988257108
 20
608.6279820766
 30
0.0
 40
26.25
100
AcDbArc
 50
90.0
 51
270.0
  0
LINE
  5
3B5
330
1F
100
AcDbEntity
  8
0
  6
Continuous
 62
     8
370
    18
100
AcDbLine
 10
797.5988263366
 20
582.3779828962
 30
0.0
 11
797.5988263366
 21
581.6279813763
 31
0.0
  0
LINE
  5
3B6
330
1F
100
AcDbEntity
  8
0
  6
Continuous
 62
     8
370
    18
100
AcDbLine
 10
903.5988250849
 20
582.3779828962
 30
0.0
 11
797.5988263366
 21
582.3779828962
 31
0.0
  0
CIRCLE
  5
3B7
330
1F
100
AcDbEntity
  8
0
  6
Continuous
 62
     8
370
    18
100
AcDbCircle
 10
850.5988257108
 20
608.6279820766
 30
0.0
 40
5.614709433546636
  0
ARC
  5
3B8
330
1F
100
AcDbEntity
  8
0
  6
Continuous
 62
     8
370
    18
100
AcDbCircle
 10
850.5988257108
 20
608.6279820766
 30
0.0
 40
7.463480267439844
100
AcDbArc
 50
306.49444767
 51
53.5055523299
  0
ARC
  5
3B9
330
1F
100
AcDbEntity
  8
0
  6
Continuous
 62
     8
370
    18
100
AcDbCircle
 10
850.5988257108
 20
608.6279820766
 30
0.0
 40
7.463480267439909
100
AcDbArc
 50
126.4944476701
 51
233.50555233
  0
ARC
  5
3BA
330
1F
100
AcDbEntity
  8
0
  6
Continuous
 62
     8
370
    18
100
AcDbCircle
 10
850.5988257108
 20
608.6279820766
 30
0.0
 40
8.284968901367112
100
AcDbArc
 50
313.5974061618
 51
46.4025938382
  0
ARC
  5
3BB
330
1F
100
AcDbEntity
  8
0
  6
Continuous
 62
     8
370
    18
100
AcDbCircle
 10
850.5988257108
 20
608.6279820766
 30
0.0
 40
8.284968901367034
100
AcDbArc
 50
133.5974061618
 51
226.4025938382
  0
LINE
  5
3BC
330
1F
100
AcDbEntity
  8
0
  6
Continuous
 62
     8
370
    18
100
AcDbLine
 10
259.5988052068
 20
573.6279819276
 30
0.0
 11
259.5988052068
 21
658.1529822316
 31
0.0
  0
LINE
  5
3BD
330
1F
100
AcDbEntity
  8
0
  6
Continuous
 62
     8
370
    18
100
AcDbLine
 10
1441.5988462148
 20
573.6279819276
 30
0.0
 11
1441.5988462148
 21
658.1529822316
 31
0.0
  0
LINE
  5
3BE
330
1F
100
AcDbEntity
  8
0
  6
Continuous
 62
     8
370
    18
100
AcDbLine
 10
238.0988137898
 20
659.1529805329
 30
0.0
 11
238.0988137898
 21
658.1529822316
 31
0.0
  0
LINE
  5
3BF
330
1F
100
AcDbEntity
  8
0
  6
Continuous
 62
     8
370
    18
100
AcDbLine
 10
228.0988233266
 20
657.1529839303
 30
0.0
 11
258.4988014874
 21
657.1529839303
 31
0.0
  0
LINE
  5
3C0
330
1F
100
AcDbEntity
  8
0
  6
Continuous
 62
     8
370
    18
100
AcDbLine
 10
1463.0988376317
 20
658.1529822316
 30
0.0
 11
1463.0988376317
 21
659.1529805329
 31
0.0
  0
LINE
  5
3C1
330
1F
100
AcDbEntity
  8
0
  6
Continuous
 62
     8
370
    18
100
AcDbLine
 10
1442.6988499341
 20
657.1529839303
 30
0.0
 11
1473.0988280949
 21
657.1529839303
 31
0.0
  0
LINE
  5
3C2
330
1F
100
AcDbEntity
  8
0
  6
Continuous
 62
     8
370
    18
100
AcDbLine
 10
260.5988519368
 20
657.1279835071
 30
0.0
 11
1440.5987994847
 21
657.1279835071
 31
0.0
  0
LINE
  5
3C3
330
1F
100
AcDbEntity
  8
0
  6
Continuous
 62
     8
370
    18
100
AcDbLine
 10
1440.5987994847
 20
642.6279839244
 30
0.0
 11
260.5988519368
 21
642.6279839244
 31
0.0
  0
LINE
  5
3C4
330
1F
100
AcDbEntity
  8
0
  6
Continuous
 62
     8
370
    18
100
AcDbLine
 10
260.5988519368
 20
572.6279836264
 30
0.0
 11
1440.5987994847
 21
572.6279836264
 31
0.0
  0
LINE
  5
3C5
330
1F
100
AcDbEntity
  8
0
  6
Continuous
 62
     8
370
    18
100
AcDbLine
 10
260.5988519368
 20
639.6846749004
 30
0.0
 11
1440.5987994847
 21
639.6846749004
 31
0.0
  0
LINE
  5
3C6
330
1F
100
AcDbEntity
  8
0
  6
Continuous
 62
     8
370
    18
100
AcDbLine
 10
260.5988519368
 20
577.5712892529
 30
0.0
 11
1440.5987994847
 21
577.5712892529
 31
0.0
  0
SPLINE
  5
3C7
330
1F
100
AcDbEntity
  8
0
  6
Continuous
 62
     8
370
    18
100
AcDbSpline
210
0.0
220
0.0
230
1.0
 70
     8
 71
     3
 72
    14
 73
    10
 74
     0
 42
0.000000001
 43
0.00000001
 40
0.0
 40
0.0
 40
0.0
 40
0.0
 40
0.2500000000000001
 40
0.2500000000000001
 40
0.5000000000000001
 40
0.5000000000000001
 40
0.7500000000000001
 40
0.7500000000000001
 40
1.0
 40
1.0
 40
1.0
 40
1.0
 10
767.5996828089073
 20
608.6846748642008
 30
0.0
 10
767.6249243950506
 20
612.023838373016
 30
0.0
 10
768.2128003382384
 20
615.3580604427569
 30
0.0
 10
770.4493472393341
 20
621.650949943161
 30
0.0
 10
772.0975571766364
 20
624.6083202171551
 30
0.0
 10
776.2730870708895
 20
629.8205702502307
 30
0.0
 10
778.7995463236358
 20
632.0743756054328
 30
0.0
 10
784.4527708752174
 20
635.6301670046141
 30
0.0
 10
787.5783708718608
 20
636.9314200914156
 30
0.0
 10
790.8315627388662
 20
637.6846748642008
 30
0.0
  0
LINE
  5
3C8
330
1F
100
AcDbEntity
  8
0
  6
Continuous
 62
     8
370
    18
100
AcDbLine
 10
260.5988519368
 20
608.684674865
 30
0.0
 11
767.5996856866
 21
608.684674865
 31
0.0
  0
LINE
  5
3C9
330
1F
100
AcDbEntity
  8
0
  6
Continuous
 62
     8
370
    18
100
AcDbLine
 10
933.5979657349
 20
608.684674865
 30
0.0
 11
1440.5987994847
 21
608.684674865
 31
0.0
  0
SPLINE
  5
3CA
330
1F
100
AcDbEntity
  8
0
  6
Continuous
 62
     8
370
    18
100
AcDbSpline
210
0.0
220
0.0
230
1.0
 70
     8
 71
     3
 72
    14
 73
    10
 74
     0
 42
0.000000001
 43
0.00000001
 40
0.0
 40
0.0
 40
0.0
 40
0.0
 40
0.25
 40
0.25
 40
0.5
 40
0.5
 40
0.75
 40
0.75
 40
1.0
 40
1.0
 40
1.0
 40
1.0
 10
910.3660886826417
 20
637.6846748642008
 30
0.0
 10
913.6192805496472
 20
636.9314200914156
 30
0.0
 10
916.7448805462905
 20
635.6301670046141
 30
0.0
 10
922.3981050978721
 20
632.0743756054328
 30
0.0
 10
924.9245643506185
 20
629.8205702502307
 30
0.0
 10
929.1000942448716
 20
624.6083202171551
 30
0.0
 10
930.7483041821739
 20
621.650949943161
 30
0.0
 10
932.9848510832696
 20
615.3580604427569
 30
0.0
 10
933.5727270264574
 20
612.023838373016
 30
0.0
 10
933.5979686126005
 20
608.6846748642008
 30
0.0
  0
LINE
  5
3CB
330
1F
100
AcDbEntity
  8
0
  6
Continuous
 62
     8
370
    18
100
AcDbLine
 10
260.5988519368
 20
608.5712892883
 30
0.0
 11
767.5996856866
 21
608.5712892883
 31
0.0
  0
SPLINE
  5
3CC
330
1F
100
AcDbEntity
  8
0
  6
Continuous
 62
     8
370
    18
100
AcDbSpline
210
0.0
220
0.0
230
1.0
 70
     8
 71
     3
 72
    14
 73
    10
 74
     0
 42
0.000000001
 43
0.00000001
 40
0.0
 40
0.0
 40
0.0
 40
0.0
 40
0.2500000000000002
 40
0.2500000000000002
 40
0.5000000000000003
 40
0.5000000000000003
 40
0.7500000000000002
 40
0.7500000000000002
 40
1.0
 40
1.0
 40
1.0
 40
1.0
 10
790.8315627388661
 20
579.5712892890741
 30
0.0
 10
787.5783708718606
 20
580.3245440618593
 30
0.0
 10
784.4527708752174
 20
581.6257971486607
 30
0.0
 10
778.7995463236358
 20
585.181588547842
 30
0.0
 10
776.2730870708893
 20
587.4353939030442
 30
0.0
 10
772.0975571766364
 20
592.6476439361197
 30
0.0
 10
770.4493472393341
 20
595.6050142101138
 30
0.0
 10
768.2128003382383
 20
601.8979037105179
 30
0.0
 10
767.6249243950506
 20
605.2321257802588
 30
0.0
 10
767.5996828089073
 20
608.571289289074
 30
0.0
  0
SPLINE
  5
3CD
330
1F
100
AcDbEntity
  8
0
  6
Continuous
 62
     8
370
    18
100
AcDbSpline
210
0.0
220
0.0
230
1.0
 70
     8
 71
     3
 72
    14
 73
    10
 74
     0
 42
0.000000001
 43
0.00000001
 40
0.0
 40
0.0
 40
0.0
 40
0.0
 40
0.25
 40
0.25
 40
0.5
 40
0.5
 40
0.75
 40
0.75
 40
1.0
 40
1.0
 40
1.0
 40
1.0
 10
933.5979686126005
 20
608.571289289074
 30
0.0
 10
933.5727270264574
 20
605.2321257802588
 30
0.0
 10
932.9848510832696
 20
601.8979037105179
 30
0.0
 10
930.7483041821739
 20
595.6050142101138
 30
0.0
 10
929.1000942448716
 20
592.6476439361197
 30
0.0
 10
924.9245643506187
 20
587.4353939030442
 30
0.0
 10
922.3981050978722
 20
585.181588547842
 30
0.0
 10
916.7448805462905
 20
581.6257971486607
 30
0.0
 10
913.6192805496472
 20
580.3245440618593
 30
0.0
 10
910.3660886826419
 20
579.5712892890741
 30
0.0
  0
LINE
  5
3CE
330
1F
100
AcDbEntity
  8
0
  6
Continuous
 62
     8
370
    18
100
AcDbLine
 10
933.5979657349
 20
608.5712892883
 30
0.0
 11
1440.5987994847
 21
608.5712892883
 31
0.0
  0
ARC
  5
3CF
330
1F
100
AcDbEntity
  8
0
  6
Continuous
 62
     8
370
    18
100
AcDbCircle
 10
857.3549238923
 20
649.257959438
 30
0.0
 40
54.25978549149454
100
AcDbArc
 50
344.6910357969
 51
347.6845427117
  0
LINE
  5
3D0
330
1F
100
AcDbEntity
  8
0
  6
Continuous
 62
     8
370
    18
100
AcDbLine
 10
903.5988250849
 20
637.8779817488
 30
0.0
 11
903.5988250849
 21
635.627982777
 31
0.0
  0
LINE
  5
3D1
330
1F
100
AcDbEntity
  8
0
  6
Continuous
 62
     8
370
    18
100
AcDbLine
 10
903.5988250849
 20
637.8829624619
 30
0.0
 11
903.5988250849
 21
637.8779817488
 31
0.0
  0
LINE
  5
3D2
330
1F
100
AcDbEntity
  8
0
  6
Continuous
 62
     8
370
    18
100
AcDbLine
 10
797.5988263366
 20
637.8779817488
 30
0.0
 11
797.5988263366
 21
635.627982777
 31
0.0
  0
ARC
  5
3D3
330
1F
100
AcDbEntity
  8
0
  6
Continuous
 62
     8
370
    18
100
AcDbCircle
 10
843.8427275292
 20
649.257959438
 30
0.0
 40
54.25978549149455
100
AcDbArc
 50
192.3154572883
 51
195.3089642031
  0
LINE
  5
3D4
330
1F
100
AcDbEntity
  8
0
  6
Continuous
 62
     8
370
    18
100
AcDbLine
 10
797.5988263366
 20
637.8829624619
 30
0.0
 11
797.5988263366
 21
637.8779817488
 31
0.0
  0
ARC
  5
3D5
330
1F
100
AcDbEntity
  8
0
  6
Continuous
 62
     8
370
    18
100
AcDbCircle
 10
843.8427275292
 20
567.9980047153
 30
0.0
 40
54.25978549149451
100
AcDbArc
 50
164.6910357969
 51
167.6845427117
  0
LINE
  5
3D6
330
1F
100
AcDbEntity
  8
0
  6
Continuous
 62
     8
370
    18
100
AcDbLine
 10
797.5988263366
 20
581.6279813763
 30
0.0
 11
797.5988263366
 21
579.3779824045
 31
0.0
  0
LINE
  5
3D7
330
1F
100
AcDbEntity
  8
0
  6
Continuous
 62
     8
370
    18
100
AcDbLine
 10
903.5988250849
 20
581.6279813763
 30
0.0
 11
903.5988250849
 21
579.3779824045
 31
0.0
  0
ARC
  5
3D8
330
1F
100
AcDbEntity
  8
0
  6
Continuous
 62
     8
370
    18
100
AcDbCircle
 10
857.3549238923
 20
567.9980047153
 30
0.0
 40
54.25978549149451
100
AcDbArc
 50
12.3154572883
 51
15.3089642031
  0
LINE
  5
3D9
330
1F
100
AcDbEntity
  8
0
  6
Continuous
 62
     8
370
    18
100
AcDbLine
 10
797.5988263366
 20
579.3730016913
 30
0.0
 11
797.5988263366
 21
579.3779824045
 31
0.0
  0
LINE
  5
3DA
330
1F
100
AcDbEntity
  8
0
  6
Continuous
 62
     8
370
    18
100
AcDbLine
 10
903.5988250849
 20
579.3730016913
 30
0.0
 11
903.5988250849
 21
579.3779824045
 31
0.0
  0
ARC
  5
3DB
330
1F
100
AcDbEntity
  8
0
  6
Continuous
 62
     8
370
    18
100
AcDbCircle
 10
932.7661303386
 20
623.0825812697
 30
0.0
 40
14.4219159256391
100
AcDbArc
 50
261.3676118631
 51
273.3065733933
  0
ARC
  5
3DC
330
1F
100
AcDbEntity
  8
0
  6
Continuous
 62
     8
370
    18
100
AcDbCircle
 10
768.4315210829
 20
623.0825812697
 30
0.0
 40
14.42191592564182
100
AcDbArc
 50
266.6934266067
 51
278.6323881369
  0
ARC
  5
3DD
330
1F
100
AcDbEntity
  8
0
  6
Continuous
 62
     8
370
    18
100
AcDbCircle
 10
768.4315210829
 20
594.1733828835
 30
0.0
 40
14.42191592564171
100
AcDbArc
 50
81.3676118631
 51
93.3065733933
  0
ARC
  5
3DE
330
1F
100
AcDbEntity
  8
0
  6
Continuous
 62
     8
370
    18
100
AcDbCircle
 10
932.7661303386
 20
594.1733828836
 30
0.0
 40
14.42191592563912
100
AcDbArc
 50
86.6934266067
 51
98.632388137
  0
SPLINE
  5
3DF
330
1F
100
AcDbEntity
  8
0
  6
Continuous
 62
     8
370
    18
100
AcDbSpline
210
0.0
220
0.0
230
1.0
 70
     8
 71
     3
 72
     8
 73
     4
 74
     0
 42
0.000000001
 43
0.00000001
 40
0.0
 40
0.0
 40
0.0
 40
0.0
 40
1.0
 40
1.0
 40
1.0
 40
1.0
 10
767.5996828089073
 20
608.571289289074
 30
0.0
 10
767.5985399950442
 20
608.6090844807829
 30
0.0
 10
767.5985399950442
 20
608.6468796724919
 30
0.0
 10
767.5996828089073
 20
608.6846748642008
 30
0.0
  0
SPLINE
  5
3E0
330
1F
100
AcDbEntity
  8
0
  6
Continuous
 62
     8
370
    18
100
AcDbSpline
210
0.0
220
0.0
230
1.0
 70
     8
 71
     3
 72
     8
 73
     4
 74
     0
 42
0.000000001
 43
0.00000001
 40
0.0
 40
0.0
 40
0.0
 40
0.0
 40
1.0
 40
1.0
 40
1.0
 40
1.0
 10
933.5979686126005
 20
608.6846748642008
 30
0.0
 10
933.5991114264639
 20
608.6468796724919
 30
0.0
 10
933.5991114264639
 20
608.6090844807829
 30
0.0
 10
933.5979686126005
 20
608.571289289074
 30
0.0
  0
ENDSEC
  0
SECTION
  2
OBJECTS
  0
DICTIONARY
  5
C
330
0
100
AcDbDictionary
281
     1
  3
ACAD_GROUP
350
D
  3
ACAD_LAYOUT
350
1A
  3
ACAD_MLINESTYLE
350
17
  3
ACAD_PLOTSETTINGS
350
19
  3
ACAD_PLOTSTYLENAME
350
E
  3
ACAD_SCALELIST
350
47
  0
DICTIONARY
  5
D
102
{ACAD_REACTORS
330
C
102
}
330
C
100
AcDbDictionary
281
     1
  0
DICTIONARY
  5
1A
102
{ACAD_REACTORS
330
C
102
}
330
C
100
AcDbDictionary
281
     1
  3
Layout1
350
1E
  3
Layout2
350
26
  3
Model
350
22
  0
DICTIONARY
  5
17
102
{ACAD_REACTORS
330
C
102
}
330
C
100
AcDbDictionary
281
     1
  3
Standard
350
18
  0
DICTIONARY
  5
19
102
{ACAD_REACTORS
330
C
102
}
330
C
100
AcDbDictionary
281
     1
  0
ACDBDICTIONARYWDFLT
  5
E
102
{ACAD_REACTORS
330
C
102
}
330
C
100
AcDbDictionary
281
     1
  3
Normal
350
F
100
AcDbDictionaryWithDefault
340
F
  0
DICTIONARY
  5
47
102
{ACAD_REACTORS
330
C
102
}
330
C
100
AcDbDictionary
281
     1
  3
A0
350
48
  3
A1
350
49
  3
A2
350
4A
  3
A3
350
4B
  3
A4
350
4C
  3
A5
350
4D
  3
A6
350
4E
  3
A7
350
4F
  3
A8
350
50
  3
A9
350
51
  3
B0
350
52
  3
B1
350
53
  3
B2
350
54
  3
B3
350
55
  3
B4
350
56
  3
B5
350
57
  3
B6
350
58
  3
B7
350
59
  3
B8
350
5A
  3
B9
350
5B
  3
C0
350
5C
  3
C1
350
5D
  3
C2
350
5E
  3
C3
350
5F
  3
C4
350
60
  3
C5
350
61
  3
C6
350
62
  3
C7
350
63
  3
C8
350
64
  3
C9
350
65
  3
D0
350
66
  3
D1
350
67
  3
D2
350
68
  0
LAYOUT
  5
1E
102
{ACAD_REACTORS
330
1A
102
}
330
1A
100
AcDbPlotSettings
  1

  2
none_device
  4

  6

 40
0.0
 41
0.0
 42
0.0
 43
0.0
 44
0.0
 45
0.0
 46
0.0
 47
0.0
 48
0.0
 49
0.0
140
0.0
141
0.0
142
1.0
143
1.0
 70
   688
 72
     1
 73
     0
 74
     5
  7

 75
    16
147
1.0
148
0.0
149
0.0
100
AcDbLayout
  1
Layout1
 70
     1
 71
     1
 10
0.0
 20
0.0
 11
420.0
 21
297.0
 12
0.0
 22
0.0
 32
0.0
 14
1.0000000000E+20
 24
1.0000000000E+20
 34
1.0000000000E+20
 15
-1.0000000000E+20
 25
-1.0000000000E+20
 35
-1.0000000000E+20
146
0.0
 13
0.0
 23
0.0
 33
0.0
 16
1.0
 26
0.0
 36
0.0
 17
0.0
 27
1.0
 37
0.0
 76
     0
330
1B
  0
LAYOUT
  5
26
102
{ACAD_REACTORS
330
1A
102
}
330
1A
100
AcDbPlotSettings
  1

  2
none_device
  4

  6

 40
0.0
 41
0.0
 42
0.0
 43
0.0
 44
0.0
 45
0.0
 46
0.0
 47
0.0
 48
0.0
 49
0.0
140
0.0
141
0.0
142
1.0
143
1.0
 70
   688
 72
     1
 73
     0
 74
     5
  7

 75
    16
147
1.0
148
0.0
149
0.0
100
AcDbLayout
  1
Layout2
 70
     1
 71
     2
 10
0.0
 20
0.0
 11
0.0
 21
0.0
 12
0.0
 22
0.0
 32
0.0
 14
0.0
 24
0.0
 34
0.0
 15
0.0
 25
0.0
 35
0.0
146
0.0
 13
0.0
 23
0.0
 33
0.0
 16
1.0
 26
0.0
 36
0.0
 17
0.0
 27
1.0
 37
0.0
 76
     0
330
23
  0
LAYOUT
  5
22
102
{ACAD_REACTORS
330
1A
102
}
330
1A
100
AcDbPlotSettings
  1

  2
none_device
  4
Letter_(8.50_x_11.00_Inches)
  6

 40
6.35
 41
6.35
 42
6.35000508
 43
6.35000508
 44
215.9
 45
279.4
 46
0.0
 47
0.0
 48
0.0
 49
0.0
140
0.0
141
0.0
142
1.0
143
1.0
 70
  1712
 72
     1
 73
     0
 74
     0
  7

 75
     0
147
1.0
148
0.0
149
0.0
100
AcDbLayout
  1
Model
 70
     1
 71
     0
 10
0.0
 20
0.0
 11
2100.0
 21
1485.0
 12
0.0
 22
0.0
 32
0.0
 14
0.0
 24
0.0
 34
0.0
 15
2100.0
 25
1485.0
 35
0.0
146
0.0
 13
0.0
 23
0.0
 33
0.0
 16
1.0
 26
0.0
 36
0.0
 17
0.0
 27
1.0
 37
0.0
 76
     0
330
1F
331
29
  0
MLINESTYLE
  5
18
102
{ACAD_REACTORS
330
17
102
}
330
17
100
AcDbMlineStyle
  2
Standard
 70
     0
  3

 62
   256
 51
90.0
 52
90.0
 71
     2
 49
0.5
 62
   256
  6
BYLAYER
 49
-0.5
 62
   256
  6
BYLAYER
  0
ACDBPLACEHOLDER
  5
F
102
{ACAD_REACTORS
330
E
102
}
330
E
  0
SCALE
  5
48
102
{ACAD_REACTORS
330
47
102
}
330
47
100
AcDbScale
 70
     0
300
1:1
140
1.0
141
1.0
290
     1
  0
SCALE
  5
49
102
{ACAD_REACTORS
330
47
102
}
330
47
100
AcDbScale
 70
     0
300
1:2
140
1.0
141
2.0
290
     0
  0
SCALE
  5
4A
102
{ACAD_REACTORS
330
47
102
}
330
47
100
AcDbScale
 70
     0
300
1:4
140
1.0
141
4.0
290
     0
  0
SCALE
  5
4B
102
{ACAD_REACTORS
330
47
102
}
330
47
100
AcDbScale
 70
     0
300
1:5
140
1.0
141
5.0
290
     0
  0
SCALE
  5
4C
102
{ACAD_REACTORS
330
47
102
}
330
47
100
AcDbScale
 70
     0
300
1:8
140
1.0
141
8.0
290
     0
  0
SCALE
  5
4D
102
{ACAD_REACTORS
330
47
102
}
330
47
100
AcDbScale
 70
     0
300
1:10
140
1.0
141
10.0
290
     0
  0
SCALE
  5
4E
102
{ACAD_REACTORS
330
47
102
}
330
47
100
AcDbScale
 70
     0
300
1:16
140
1.0
141
16.0
290
     0
  0
SCALE
  5
4F
102
{ACAD_REACTORS
330
47
102
}
330
47
100
AcDbScale
 70
     0
300
1:20
140
1.0
141
20.0
290
     0
  0
SCALE
  5
50
102
{ACAD_REACTORS
330
47
102
}
330
47
100
AcDbScale
 70
     0
300
1:30
140
1.0
141
30.0
290
     0
  0
SCALE
  5
51
102
{ACAD_REACTORS
330
47
102
}
330
47
100
AcDbScale
 70
     0
300
1:40
140
1.0
141
40.0
290
     0
  0
SCALE
  5
52
102
{ACAD_REACTORS
330
47
102
}
330
47
100
AcDbScale
 70
     0
300
1:50
140
1.0
141
50.0
290
     0
  0
SCALE
  5
53
102
{ACAD_REACTORS
330
47
102
}
330
47
100
AcDbScale
 70
     0
300
1:100
140
1.0
141
100.0
290
     0
  0
SCALE
  5
54
102
{ACAD_REACTORS
330
47
102
}
330
47
100
AcDbScale
 70
     0
300
2:1
140
2.0
141
1.0
290
     0
  0
SCALE
  5
55
102
{ACAD_REACTORS
330
47
102
}
330
47
100
AcDbScale
 70
     0
300
4:1
140
4.0
141
1.0
290
     0
  0
SCALE
  5
56
102
{ACAD_REACTORS
330
47
102
}
330
47
100
AcDbScale
 70
     0
300
8:1
140
8.0
141
1.0
290
     0
  0
SCALE
  5
57
102
{ACAD_REACTORS
330
47
102
}
330
47
100
AcDbScale
 70
     0
300
10:1
140
10.0
141
1.0
290
     0
  0
SCALE
  5
58
102
{ACAD_REACTORS
330
47
102
}
330
47
100
AcDbScale
 70
     0
300
100:1
140
100.0
141
1.0
290
     0
  0
SCALE
  5
59
102
{ACAD_REACTORS
330
47
102
}
330
47
100
AcDbScale
 70
     0
300
1/128" = 1'-0"
140
0.0078125
141
12.0
290
     0
  0
SCALE
  5
5A
102
{ACAD_REACTORS
330
47
102
}
330
47
100
AcDbScale
 70
     0
300
1/64" = 1'-0"
140
0.015625
141
12.0
290
     0
  0
SCALE
  5
5B
102
{ACAD_REACTORS
330
47
102
}
330
47
100
AcDbScale
 70
     0
300
1/32" = 1'-0"
140
0.03125
141
12.0
290
     0
  0
SCALE
  5
5C
102
{ACAD_REACTORS
330
47
102
}
330
47
100
AcDbScale
 70
     0
300
1/16" = 1'-0"
140
0.0625
141
12.0
290
     0
  0
SCALE
  5
5D
102
{ACAD_REACTORS
330
47
102
}
330
47
100
AcDbScale
 70
     0
300
3/32" = 1'-0"
140
0.09375
141
12.0
290
     0
  0
SCALE
  5
5E
102
{ACAD_REACTORS
330
47
102
}
330
47
100
AcDbScale
 70
     0
300
1/8" = 1'-0"
140
0.125
141
12.0
290
     0
  0
SCALE
  5
5F
102
{ACAD_REACTORS
330
47
102
}
330
47
100
AcDbScale
 70
     0
300
3/16" = 1'-0"
140
0.1875
141
12.0
290
     0
  0
SCALE
  5
60
102
{ACAD_REACTORS
330
47
102
}
330
47
100
AcDbScale
 70
     0
300
1/4" = 1'-0"
140
0.25
141
12.0
290
     0
  0
SCALE
  5
61
102
{ACAD_REACTORS
330
47
102
}
330
47
100
AcDbScale
 70
     0
300
3/8" = 1'-0"
140
0.375
141
12.0
290
     0
  0
SCALE
  5
62
102
{ACAD_REACTORS
330
47
102
}
330
47
100
AcDbScale
 70
     0
300
1/2" = 1'-0"
140
0.5
141
12.0
290
     0
  0
SCALE
  5
63
102
{ACAD_REACTORS
330
47
102
}
330
47
100
AcDbScale
 70
     0
300
3/4" = 1'-0"
140
0.75
141
12.0
290
     0
  0
SCALE
  5
64
102
{ACAD_REACTORS
330
47
102
}
330
47
100
AcDbScale
 70
     0
300
1" = 1'-0"
140
1.0
141
12.0
290
     0
  0
SCALE
  5
65
102
{ACAD_REACTORS
330
47
102
}
330
47
100
AcDbScale
 70
     0
300
1-1/2" = 1'-0"
140
1.5
141
12.0
290
     0
  0
SCALE
  5
66
102
{ACAD_REACTORS
330
47
102
}
330
47
100
AcDbScale
 70
     0
300
3" = 1'-0"
140
3.0
141
12.0
290
     0
  0
SCALE
  5
67
102
{ACAD_REACTORS
330
47
102
}
330
47
100
AcDbScale
 70
     0
300
6" = 1'-0"
140
6.0
141
12.0
290
     0
  0
SCALE
  5
68
102
{ACAD_REACTORS
330
47
102
}
330
47
100
AcDbScale
 70
     0
300
1'-0" = 1'-0"
140
12.0
141
12.0
290
     0
  0
ENDSEC
  0
EOF
