  0
SECTION
  2
HEADER
  9
$ACADVER
  1
AC1015
  9
$ACADMAINTVER
 70
     6
  9
$DWGCODEPAGE
  3
ANSI_1252
  9
$INSBASE
 10
0.0
 20
0.0
 30
0.0
  9
$EXTMIN
 10
0.0
 20
0.0
 30
0.0
  9
$EXTMAX
 10
2100.0
 20
1485.0
 30
0.0
  9
$LIMMIN
 10
0.0
 20
0.0
  9
$LIMMAX
 10
2100.0
 20
1485.0
  9
$ORTHOMODE
 70
     0
  9
$REGENMODE
 70
     1
  9
$FILLMODE
 70
     1
  9
$QTEXTMODE
 70
     0
  9
$MIRRTEXT
 70
     1
  9
$LTSCALE
 40
5.0
  9
$ATTMODE
 70
     1
  9
$TEXTSIZE
 40
12.5
  9
$TRACEWID
 40
1.0
  9
$TEXTSTYLE
  7
Standard
  9
$CLAYER
  8
0
  9
$CELTYPE
  6
ByLayer
  9
$CECOLOR
 62
   256
  9
$CELTSCALE
 40
1.0
  9
$DISPSILH
 70
     0
  9
$DIMSCALE
 40
1.0
  9
$DIMASZ
 40
12.5
  9
$DIMEXO
 40
0.0
  9
$DIMDLI
 40
3.75
  9
$DIMRND
 40
0.0
  9
$DIMDLE
 40
0.0
  9
$DIMEXE
 40
5.0
  9
$DIMTP
 40
0.0
  9
$DIMTM
 40
0.0
  9
$DIMTXT
 40
12.5
  9
$DIMCEN
 40
2.5
  9
$DIMTSZ
 40
0.0
  9
$DIMTOL
 70
     0
  9
$DIMLIM
 70
     0
  9
$DIMTIH
 70
     1
  9
$DIMTOH
 70
     1
  9
$DIMSE1
 70
     0
  9
$DIMSE2
 70
     0
  9
$DIMTAD
 70
     1
  9
$DIMZIN
 70
     0
  9
$DIMBLK
  1

  9
$DIMASO
 70
     1
  9
$DIMSHO
 70
     1
  9
$DIMPOST
  1

  9
$DIMAPOST
  1

  9
$DIMALT
 70
     0
  9
$DIMALTD
 70
     3
  9
$DIMALTF
 40
0.0393700787
  9
$DIMLFAC
 40
1.0
  9
$DIMTOFL
 70
     1
  9
$DIMTVP
 40
0.0
  9
$DIMTIX
 70
     0
  9
$DIMSOXD
 70
     0
  9
$DIMSAH
 70
     0
  9
$DIMBLK1
  1

  9
$DIMBLK2
  1

  9
$DIMSTYLE
  2
ISO-25
  9
$DIMCLRD
 70
     0
  9
$DIMCLRE
 70
     0
  9
$DIMCLRT
 70
     0
  9
$DIMTFAC
 40
1.0
  9
$DIMGAP
 40
7.62
  9
$DIMJUST
 70
     0
  9
$DIMSD1
 70
     0
  9
$DIMSD2
 70
     0
  9
$DIMTOLJ
 70
     0
  9
$DIMTZIN
 70
     0
  9
$DIMALTZ
 70
     0
  9
$DIMALTTZ
 70
     0
  9
$DIMUPT
 70
     0
  9
$DIMDEC
 70
     2
  9
$DIMTDEC
 70
     2
  9
$DIMALTU
 70
     2
  9
$DIMALTTD
 70
     3
  9
$DIMTXSTY
  7
Standard
  9
$DIMAUNIT
 70
     0
  9
$DIMADEC
 70
     2
  9
$DIMALTRND
 40
0.0
  9
$DIMAZIN
 70
     0
  9
$DIMDSEP
 70
    44
  9
$DIMATFIT
 70
     3
  9
$DIMFRAC
 70
     0
  9
$DIMLDRBLK
  1

  9
$DIMLUNIT
 70
     2
  9
$DIMLWD
 70
    -2
  9
$DIMLWE
 70
    -2
  9
$DIMTMOVE
 70
     0
  9
$LUNITS
 70
     2
  9
$LUPREC
 70
     1
  9
$SKETCHINC
 40
1.0
  9
$FILLETRAD
 40
10.0
  9
$AUNITS
 70
     0
  9
$AUPREC
 70
     2
  9
$MENU
  1
.
  9
$ELEVATION
 40
0.0
  9
$PELEVATION
 40
0.0
  9
$THICKNESS
 40
0.0
  9
$LIMCHECK
 70
     0
  9
$CHAMFERA
 40
0.0
  9
$CHAMFERB
 40
0.0
  9
$CHAMFERC
 40
0.0
  9
$CHAMFERD
 40
0.0
  9
$SKPOLY
 70
     0
  9
$TDCREATE
 40
2458939.567343206
  9
$TDUCREATE
 40
2458939.338176539
  9
$TDUPDATE
 40
2458939.567345648
  9
$TDUUPDATE
 40
2458939.338178982
  9
$TDINDWG
 40
0.0000000116
  9
$TDUSRTIMER
 40
0.0000000116
  9
$USRTIMER
 70
     1
  9
$ANGBASE
 50
0.0
  9
$ANGDIR
 70
     0
  9
$PDMODE
 70
     0
  9
$PDSIZE
 40
-1.0
  9
$PLINEWID
 40
0.0
  9
$SPLFRAME
 70
     0
  9
$SPLINETYPE
 70
     6
  9
$SPLINESEGS
 70
     8
  9
$HANDSEED
  5
3E1
  9
$SURFTAB1
 70
     6
  9
$SURFTAB2
 70
     6
  9
$SURFTYPE
 70
     6
  9
$SURFU
 70
     6
  9
$SURFV
 70
     6
  9
$UCSBASE
  2

  9
$UCSNAME
  2

  9
$UCSORG
 10
0.0
 20
0.0
 30
0.0
  9
$UCSXDIR
 10
1.0
 20
0.0
 30
0.0
  9
$UCSYDIR
 10
0.0
 20
1.0
 30
0.0
  9
$UCSORTHOREF
  2

  9
$UCSORTHOVIEW
 70
     0
  9
$UCSORGTOP
 10
0.0
 20
0.0
 30
0.0
  9
$UCSORGBOTTOM
 10
0.0
 20
0.0
 30
0.0
  9
$UCSORGLEFT
 10
0.0
 20
0.0
 30
0.0
  9
$UCSORGRIGHT
 10
0.0
 20
0.0
 30
0.0
  9
$UCSORGFRONT
 10
0.0
 20
0.0
 30
0.0
  9
$UCSORGBACK
 10
0.0
 20
0.0
 30
0.0
  9
$PUCSBASE
  2

  9
$PUCSNAME
  2

  9
$PUCSORG
 10
0.0
 20
0.0
 30
0.0
  9
$PUCSXDIR
 10
1.0
 20
0.0
 30
0.0
  9
$PUCSYDIR
 10
0.0
 20
1.0
 30
0.0
  9
$PUCSORTHOREF
  2

  9
$PUCSORTHOVIEW
 70
     0
  9
$PUCSORGTOP
 10
0.0
 20
0.0
 30
0.0
  9
$PUCSORGBOTTOM
 10
0.0
 20
0.0
 30
0.0
  9
$PUCSORGLEFT
 10
0.0
 20
0.0
 30
0.0
  9
$PUCSORGRIGHT
 10
0.0
 20
0.0
 30
0.0
  9
$PUCSORGFRONT
 10
0.0
 20
0.0
 30
0.0
  9
$PUCSORGBACK
 10
0.0
 20
0.0
 30
0.0
  9
$USERI1
 70
     0
  9
$USERI2
 70
     0
  9
$USERI3
 70
     0
  9
$USERI4
 70
     0
  9
$USERI5
 70
     0
  9
$USERR1
 40
0.0
  9
$USERR2
 40
0.0
  9
$USERR3
 40
0.0
  9
$USERR4
 40
0.0
  9
$USERR5
 40
0.0
  9
$WORLDVIEW
 70
     1
  9
$SHADEDGE
 70
     3
  9
$SHADEDIF
 70
    70
  9
$TILEMODE
 70
     1
  9
$MAXACTVP
 70
    64
  9
$PINSBASE
 10
0.0
 20
0.0
 30
0.0
  9
$PLIMCHECK
 70
     0
  9
$PEXTMIN
 10
1.0000000000E+20
 20
1.0000000000E+20
 30
1.0000000000E+20
  9
$PEXTMAX
 10
-1.0000000000E+20
 20
-1.0000000000E+20
 30
-1.0000000000E+20
  9
$PLIMMIN
 10
0.0
 20
0.0
  9
$PLIMMAX
 10
420.0
 20
297.0
  9
$UNITMODE
 70
     0
  9
$VISRETAIN
 70
     1
  9
$PLINEGEN
 70
     0
  9
$PSLTSCALE
 70
     1
  9
$TREEDEPTH
 70
  3020
  9
$CMLSTYLE
  2
Standard
  9
$CMLJUST
 70
     0
  9
$CMLSCALE
 40
20.0
  9
$PROXYGRAPHICS
 70
     1
  9
$MEASUREMENT
 70
     1
  9
$CELWEIGHT
370
    -1
  9
$ENDCAPS
280
     0
  9
$JOINSTYLE
280
     0
  9
$LWDISPLAY
290
     1
  9
$INSUNITS
 70
     4
  9
$HYPERLINKBASE
  1

  9
$STYLESHEET
  1

  9
$XEDIT
290
     1
  9
$CEPSNTYPE
380
     0
  9
$PSTYLEMODE
290
     1
  9
$FINGERPRINTGUID
  2
{e7265302-2555-4447-90f2-68b4f2b9f79b}
  9
$VERSIONGUID
  2
{FAEB1C32-E019-11D5-929B-00C0DF256EC4}
  9
$EXTNAMES
290
     1
  9
$PSVPSCALE
 40
0.0
  9
$OLESTARTUP
290
     0
  0
ENDSEC
  0
SECTION
  2
CLASSES
  0
CLASS
  1
ACDBDICTIONARYWDFLT
  2
AcDbDictionaryWithDefault
  3
ObjectDBX Classes
 90
        0
280
     0
281
     0
  0
CLASS
  1
VISUALSTYLE
  2
AcDbVisualStyle
  3
ObjectDBX Classes
 90
     4095
280
     0
281
     0
  0
CLASS
  1
MATERIAL
  2
AcDbMaterial
  3
ObjectDBX Classes
 90
     1153
280
     0
281
     0
  0
CLASS
  1
SCALE
  2
AcDbScale
  3
ObjectDBX Classes
 90
     1153
280
     0
281
     0
  0
CLASS
  1
TABLESTYLE
  2
AcDbTableStyle
  3
ObjectDBX Classes
 90
     4095
280
     0
281
     0
  0
CLASS
  1
MLEADERSTYLE
  2
AcDbMLeaderStyle
  3
ACDB_MLEADERSTYLE_CLASS
 90
     4095
280
     0
281
     0
  0
CLASS
  1
SUN
  2
AcDbSun
  3
SCENEOE
 90
     1153
280
     0
281
     0
  0
CLASS
  1
ACDBPLACEHOLDER
  2
AcDbPlaceHolder
  3
ObjectDBX Classes
 90
        0
280
     0
281
     0
  0
CLASS
  1
LAYOUT
  2
AcDbLayout
  3
ObjectDBX Classes
 90
        0
280
     0
281
     0
  0
ENDSEC
  0
SECTION
  2
TABLES
  0
TABLE
  2
VPORT
  5
8
330
0
100
AcDbSymbolTable
 70
     1
  0
VPORT
  5
29
330
8
100
AcDbSymbolTableRecord
100
AcDbViewportTableRecord
  2
*Active
 70
     0
 10
0.0
 20
0.0
 11
1.0
 21
1.0
 12
1050.0
 22
742.5
 13
0.0
 23
0.0
 14
10.0
 24
10.0
 15
10.0
 25
10.0
 16
0.0
 26
0.0
 36
1.0
 17
0.0
 27
0.0
 37
0.0
 40
1485.0
 41
1.4141414141
 42
50.0
 43
0.0
 44
0.0
 50
0.0
 51
0.0
 71
     0
 72
  2000
 73
     1
 74
     3
 75
     0
 76
     0
 77
     0
 78
     0
281
     0
 65
     1
110
0.0
120
0.0
130
0.0
111
1.0
121
0.0
131
0.0
112
0.0
122
1.0
132
0.0
 79
     0
146
0.0
  0
ENDTAB
  0
TABLE
  2
LTYPE
  5
5
330
0
100
AcDbSymbolTable
 70
     6
  0
LTYPE
  5
14
330
5
100
AcDbSymbolTableRecord
100
AcDbLinetypeTableRecord
  2
ByBlock
 70
     0
  3

 72
    65
 73
     0
 40
0.0
  0
LTYPE
  5
15
330
5
100
AcDbSymbolTableRecord
100
AcDbLinetypeTableRecord
  2
ByLayer
 70
     0
  3

 72
    65
 73
     0
 40
0.0
  0
LTYPE
  5
16
330
5
100
AcDbSymbolTableRecord
100
AcDbLinetypeTableRecord
  2
Continuous
 70
     0
  3
Solid line
 72
    65
 73
     0
 40
0.0
  0
LTYPE
  5
6E
330
5
100
AcDbSymbolTableRecord
100
AcDbLinetypeTableRecord
  2
HIDDEN
 70
     0
  3
Hidden __ __ __ __ __ __ __ __ __ __ __ __ __ __
 72
    65
 73
     2
 40
1.905
 49
1.27
 74
     0
 49
-0.635
 74
     0
  0
LTYPE
  5
6F
330
5
100
AcDbSymbolTableRecord
100
AcDbLinetypeTableRecord
  2
PHANTOM
 70
     0
  3
Phantom ______  __  __  ______  __  __  ______
 72
    65
 73
     6
 40
12.7
 49
6.35
 74
     0
 49
-1.27
 74
     0
 49
1.27
 74
     0
 49
-1.27
 74
     0
 49
1.27
 74
     0
 49
-1.27
 74
     0
  0
LTYPE
  5
70
330
5
100
AcDbSymbolTableRecord
100
AcDbLinetypeTableRecord
  2
CENTER
 70
     0
  3
Center ____ _ ____ _ ____ _ ____ _ ____ _ ____
 72
    65
 73
     4
 40
10.16
 49
6.35
 74
     0
 49
-1.27
 74
     0
 49
1.27
 74
     0
 49
-1.27
 74
     0
  0
LTYPE
  5
71
330
5
100
AcDbSymbolTableRecord
100
AcDbLinetypeTableRecord
  2
CENTERX2
 70
     0
  3
Center (2x) ________  __  ________  __  _____
 72
    65
 73
     4
 40
20.32
 49
12.7
 74
     0
 49
-2.54
 74
     0
 49
2.54
 74
     0
 49
-2.54
 74
     0
  0
LTYPE
  5
72
330
5
100
AcDbSymbolTableRecord
100
AcDbLinetypeTableRecord
  2
DOT2
 70
     0
  3
Dot (.5x) ........................................
 72
    65
 73
     2
 40
0.635
 49
0.0
 74
     0
 49
-0.635
 74
     0
  0
ENDTAB
  0
TABLE
  2
LAYER
  5
2
330
0
100
AcDbSymbolTable
 70
    10
  0
LAYER
  5
10
330
2
100
AcDbSymbolTableRecord
100
AcDbLayerTableRecord
  2
0
 70
     0
 62
     7
  6
Continuous
370
    -3
390
F
  0
LAYER
  5
73
330
2
100
AcDbSymbolTableRecord
100
AcDbLayerTableRecord
  2
DIMENSION
 70
     0
 62
     7
  6
Continuous
370
    -3
390
F
  0
LAYER
  5
74
330
2
100
AcDbSymbolTableRecord
100
AcDbLayerTableRecord
  2
NOTES
 70
     0
 62
     7
  6
Continuous
370
    -3
390
F
  0
LAYER
  5
75
330
2
100
AcDbSymbolTableRecord
100
AcDbLayerTableRecord
  2
TABLES
 70
     0
 62
     7
  6
Continuous
370
    -3
390
F
  0
LAYER
  5
76
330
2
100
AcDbSymbolTableRecord
100
AcDbLayerTableRecord
  2
INVISIBLE
 70
     0
 62
    -7
  6
Continuous
290
     0
370
    -3
390
F
  0
LAYER
  5
77
330
2
100
AcDbSymbolTableRecord
100
AcDbLayerTableRecord
  2
WEP
 70
     0
 62
  -150
  6
Continuous
290
     0
370
    -3
390
F
  0
LAYER
  5
78
330
2
100
AcDbSymbolTableRecord
100
AcDbLayerTableRecord
  2
EMP
 70
     0
 62
     1
  6
Continuous
370
    -3
390
F
  0
LAYER
  5
79
330
2
100
AcDbSymbolTableRecord
100
AcDbLayerTableRecord
  2
MARKETING_DRW
 70
     0
 62
    -7
  6
Continuous
290
     0
370
    -3
390
F
  0
LAYER
  5
7A
330
2
100
AcDbSymbolTableRecord
100
AcDbLayerTableRecord
  2
SINGLE_ARTICLE_DRW
 70
     0
 62
     7
  6
Continuous
370
    -3
390
F
  0
LAYER
  5
7B
330
2
100
AcDbSymbolTableRecord
100
AcDbLayerTableRecord
  2
TABLE_DRW
 70
     0
 62
    -7
  6
Continuous
290
     0
370
    -3
390
F
  0
ENDTAB
  0
TABLE
  2
STYLE
  5
3
330
0
100
AcDbSymbolTable
 70
     2
  0
STYLE
  5
11
330
3
100
AcDbSymbolTableRecord
100
AcDbTextStyleTableRecord
  2
Standard
 70
     0
 40
0.0
 41
1.0
 50
0.0
 71
     0
 42
12.5
  3
txt
  4

  0
STYLE
  5
B5
330
3
100
AcDbSymbolTableRecord
100
AcDbTextStyleTableRecord
  2
SLDTEXTSTYLE0
 70
     0
 40
0.0
 41
0.605
 50
0.0
 71
     0
 42
12.5
  3
TXT
  4

  0
ENDTAB
  0
TABLE
  2
VIEW
  5
6
330
0
100
AcDbSymbolTable
 70
     0
  0
ENDTAB
  0
TABLE
  2
UCS
  5
7
330
0
100
AcDbSymbolTable
 70
     0
  0
ENDTAB
  0
TABLE
  2
APPID
  5
9
330
0
100
AcDbSymbolTable
 70
     1
  0
APPID
  5
12
330
9
100
AcDbSymbolTableRecord
100
AcDbRegAppTableRecord
  2
ACAD
 70
     0
  0
ENDTAB
  0
TABLE
  2
DIMSTYLE
  5
A
330
0
100
AcDbSymbolTable
 70
     1
100
AcDbDimStyleTable
  0
DIMSTYLE
105
27
330
A
100
AcDbSymbolTableRecord
100
AcDbDimStyleTableRecord
  2
ISO-25
 70
     0
 41
2.5
 42
0.625
 43
3.75
 44
1.25
 73
     0
 74
     0
 77
     1
 78
     8
140
2.5
141
2.5
143
0.0393700787
147
0.625
171
     3
172
     1
178
     0
271
     2
272
     2
274
     3
278
    44
283
     0
284
     8
340
11
  0
ENDTAB
  0
TABLE
  2
BLOCK_RECORD
  5
1
330
0
100
AcDbSymbolTable
 70
     3
  0
BLOCK_RECORD
  5
1F
330
1
100
AcDbSymbolTableRecord
100
AcDbBlockTableRecord
  2
*Model_Space
340
22
  0
BLOCK_RECORD
  5
1B
330
1
100
AcDbSymbolTableRecord
100
AcDbBlockTableRecord
  2
*Paper_Space
340
1E
  0
BLOCK_RECORD
  5
23
330
1
100
AcDbSymbolTableRecord
100
AcDbBlockTableRecord
  2
*Paper_Space0
340
26
  0
BLOCK_RECORD
  5
BF
330
1
100
AcDbSymbolTableRecord
100
AcDbBlockTableRecord
  2
SW_NOTE_0
340
0
102
{BLKREFS
331
C5
102
}
  0
BLOCK_RECORD
  5
E8
330
1
100
AcDbSymbolTableRecord
100
AcDbBlockTableRecord
  2
SW_NOTE_0_1
340
0
102
{BLKREFS
331
EE
102
}
  0
ENDTAB
  0
ENDSEC
  0
SECTION
  2
BLOCKS
  0
BLOCK
  5
20
330
1F
100
AcDbEntity
  8
0
100
AcDbBlockBegin
  2
*Model_Space
 70
     0
 10
0.0
 20
0.0
 30
0.0
  3
*Model_Space
  1

  0
ENDBLK
  5
21
330
1F
100
AcDbEntity
  8
0
100
AcDbBlockEnd
  0
BLOCK
  5
1C
330
1B
100
AcDbEntity
 67
     1
  8
0
100
AcDbBlockBegin
  2
*Paper_Space
 70
     0
 10
0.0
 20
0.0
 30
0.0
  3
*Paper_Space
  1

  0
ENDBLK
  5
1D
330
1B
100
AcDbEntity
 67
     1
  8
0
100
AcDbBlockEnd
  0
BLOCK
  5
24
330
23
100
AcDbEntity
  8
0
100
AcDbBlockBegin
  2
*Paper_Space0
 70
     0
 10
0.0
 20
0.0
 30
0.0
  3
*Paper_Space0
  1

  0
ENDBLK
  5
25
330
23
100
AcDbEntity
  8
0
100
AcDbBlockEnd
  0
BLOCK
  5
C0
330
BF
100
AcDbEntity
  8
0
100
AcDbBlockBegin
  2
SW_NOTE_0
 70
     0
 10
0.0
 20
0.0
 30
0.0
  3
SW_NOTE_0
  1

  0
MTEXT
  5
C2
330
BF
100
AcDbEntity
  8
TABLE_DRW
 62
     0
100
AcDbMText
 10
0.0
 20
11.6016096579
 30
0.0
 40
9.0
 41
0.0
 71
     1
 72
     1
  1
The reproduction, distribution and utilization of this document as well as the communication of its contents to
  7
SLDTEXTSTYLE0
 73
     1
 44
1.0
  0
MTEXT
  5
C3
330
BF
100
AcDbEntity
  8
TABLE_DRW
 62
     0
100
AcDbMText
 10
0.0
 20
0.0016098055
 30
0.0
 40
9.0
 41
0.0
 71
     1
 72
     1
  1
others without express authorization is prohibited. Offenders will be held liable for the payment of damages.
  7
SLDTEXTSTYLE0
 73
     1
 44
1.0
  0
MTEXT
  5
C4
330
BF
100
AcDbEntity
  8
TABLE_DRW
 62
     0
100
AcDbMText
 10
0.0
 20
-11.598390047
 30
0.0
 40
9.0
 41
0.0
 71
     1
 72
     1
  1
All rights reserved in the event of the grant of a patent, utility model or design. Observe copyright by ISO 16016
  7
SLDTEXTSTYLE0
 73
     1
 44
1.0
  0
ENDBLK
  5
C1
330
BF
100
AcDbEntity
  8
0
100
AcDbBlockEnd
  0
BLOCK
  5
E9
330
E8
100
AcDbEntity
  8
0
100
AcDbBlockBegin
  2
SW_NOTE_0_1
 70
     0
 10
0.0
 20
0.0
 30
0.0
  3
SW_NOTE_0_1
  1

  0
MTEXT
  5
EB
330
E8
100
AcDbEntity
  8
MARKETING_DRW
 62
     0
100
AcDbMText
 10
0.0
 20
11.6016096579
 30
0.0
 40
9.0
 41
0.0
 71
     1
 72
     1
  1
The reproduction, distribution and utilization of this document as well as the communication of its contents to
  7
SLDTEXTSTYLE0
 73
     1
 44
1.0
  0
MTEXT
  5
EC
330
E8
100
AcDbEntity
  8
MARKETING_DRW
 62
     0
100
AcDbMText
 10
0.0
 20
-0.0233903849
 30
0.0
 40
9.0
 41
0.0
 71
     1
 72
     1
  1
others without express authorization is prohibited. Offenders will be held liable for the payment of damages.
  7
SLDTEXTSTYLE0
 73
     1
 44
1.0
  0
MTEXT
  5
ED
330
E8
100
AcDbEntity
  8
MARKETING_DRW
 62
     0
100
AcDbMText
 10
0.0
 20
-11.6483904277
 30
0.0
 40
9.0
 41
0.0
 71
     1
 72
     1
  1
All rights reserved in the event of the grant of a patent, utility model or design. Observe copyright by ISO 16016
  7
SLDTEXTSTYLE0
 73
     1
 44
1.0
  0
ENDBLK
  5
EA
330
E8
100
AcDbEntity
  8
0
100
AcDbBlockEnd
  0
ENDSEC
  0
SECTION
  2
ENTITIES
  0
LINE
  5
7C
330
1F
100
AcDbEntity
  8
TABLE_DRW
  6
CENTERX2
 62
     7
100
AcDbLine
 10
1955.0
 20
200.0
 30
0.0
 11
1980.0
 21
200.0
 31
0.0
  0
LINE
  5
7D
330
1F
100
AcDbEntity
  8
TABLE_DRW
  6
CENTERX2
 62
     7
100
AcDbLine
 10
1967.5
 20
212.5
 30
0.0
 11
1967.5
 21
187.5
 31
0.0
  0
LINE
  5
7E
330
1F
100
AcDbEntity
  8
TABLE_DRW
  6
CENTERX2
 62
     7
100
AcDbLine
 10
1915.0
 20
200.0
 30
0.0
 11
1950.0
 21
200.0
 31
0.0
  0
LINE
  5
7F
330
1F
100
AcDbEntity
  8
TABLE_DRW
 62
     7
100
AcDbLine
 10
1920.0
 20
194.95
 30
0.0
 11
1945.0
 21
190.0
 31
0.0
  0
LINE
  5
80
330
1F
100
AcDbEntity
  8
TABLE_DRW
 62
     7
100
AcDbLine
 10
1920.0
 20
205.05
 30
0.0
 11
1920.0
 21
194.95
 31
0.0
  0
LINE
  5
81
330
1F
100
AcDbEntity
  8
TABLE_DRW
 62
     7
100
AcDbLine
 10
1945.0
 20
210.0
 30
0.0
 11
1920.0
 21
205.05
 31
0.0
  0
LINE
  5
82
330
1F
100
AcDbEntity
  8
TABLE_DRW
 62
     7
100
AcDbLine
 10
1945.0
 20
190.0
 30
0.0
 11
1945.0
 21
210.0
 31
0.0
  0
LINE
  5
83
330
1F
100
AcDbEntity
  8
TABLE_DRW
 62
     7
100
AcDbLine
 10
2050.0
 20
50.0
 30
0.0
 11
2050.0
 21
340.0
 31
0.0
  0
LINE
  5
84
330
1F
100
AcDbEntity
  8
TABLE_DRW
 62
     7
100
AcDbLine
 10
1150.0
 20
340.0
 30
0.0
 11
1150.0
 21
50.0
 31
0.0
  0
LINE
  5
85
330
1F
100
AcDbEntity
  8
TABLE_DRW
 62
     7
100
AcDbLine
 10
1700.0
 20
95.0
 30
0.0
 11
1700.0
 21
50.0
 31
0.0
  0
LINE
  5
86
330
1F
100
AcDbEntity
  8
TABLE_DRW
 62
     7
100
AcDbLine
 10
1850.0
 20
50.0
 30
0.0
 11
1850.0
 21
95.0
 31
0.0
  0
LINE
  5
87
330
1F
100
AcDbEntity
  8
TABLE_DRW
 62
     7
100
AcDbLine
 10
2000.0
 20
95.0
 30
0.0
 11
2000.0
 21
50.0
 31
0.0
  0
LINE
  5
88
330
1F
100
AcDbEntity
  8
TABLE_DRW
 62
     7
100
AcDbLine
 10
1900.0
 20
320.0
 30
0.0
 11
1900.0
 21
185.0
 31
0.0
  0
LINE
  5
89
330
1F
100
AcDbEntity
  8
TABLE_DRW
 62
     7
100
AcDbLine
 10
2050.0
 20
320.0
 30
0.0
 11
1150.0
 21
320.0
 31
0.0
  0
LINE
  5
8A
330
1F
100
AcDbEntity
  8
TABLE_DRW
 62
     7
100
AcDbLine
 10
1800.0
 20
95.0
 30
0.0
 11
1800.0
 21
50.0
 31
0.0
  0
LINE
  5
8B
330
1F
100
AcDbEntity
  8
TABLE_DRW
 62
     7
100
AcDbLine
 10
2050.0
 20
275.0
 30
0.0
 11
1400.0
 21
275.0
 31
0.0
  0
LINE
  5
8C
330
1F
100
AcDbEntity
  8
TABLE_DRW
 62
     7
100
AcDbLine
 10
1650.0
 20
230.0
 30
0.0
 11
1650.0
 21
185.0
 31
0.0
  0
LINE
  5
8D
330
1F
100
AcDbEntity
  8
TABLE_DRW
 62
     7
100
AcDbLine
 10
2050.0
 20
230.0
 30
0.0
 11
1400.0
 21
230.0
 31
0.0
  0
LINE
  5
8E
330
1F
100
AcDbEntity
  8
TABLE_DRW
 62
     7
100
AcDbLine
 10
1400.0
 20
320.0
 30
0.0
 11
1400.0
 21
185.0
 31
0.0
  0
LINE
  5
8F
330
1F
100
AcDbEntity
  8
TABLE_DRW
 62
     7
100
AcDbLine
 10
2000.0
 20
230.0
 30
0.0
 11
2000.0
 21
185.0
 31
0.0
  0
LINE
  5
90
330
1F
100
AcDbEntity
  8
TABLE_DRW
 62
     7
100
AcDbLine
 10
2050.0
 20
95.0
 30
0.0
 11
1150.0
 21
95.0
 31
0.0
  0
LINE
  5
91
330
1F
100
AcDbEntity
  8
TABLE_DRW
 62
     7
100
AcDbLine
 10
1650.0
 20
275.0
 30
0.0
 11
1650.0
 21
320.0
 31
0.0
  0
LINE
  5
92
330
1F
100
AcDbEntity
  8
TABLE_DRW
 62
     7
100
AcDbLine
 10
1150.0
 20
340.0
 30
0.0
 11
2050.0
 21
340.0
 31
0.0
  0
LINE
  5
93
330
1F
100
AcDbEntity
  8
TABLE_DRW
 62
     7
100
AcDbLine
 10
1150.0
 20
185.0
 30
0.0
 11
2050.0
 21
185.0
 31
0.0
  0
LINE
  5
94
330
1F
100
AcDbEntity
  8
TABLE_DRW
 62
     7
100
AcDbLine
 10
1150.0
 20
50.0
 30
0.0
 11
2050.0
 21
50.0
 31
0.0
  0
LINE
  5
95
330
1F
100
AcDbEntity
  8
TABLE_DRW
 62
     7
100
AcDbLine
 10
1400.0
 20
275.0
 30
0.0
 11
1150.0
 21
275.0
 31
0.0
  0
LINE
  5
96
330
1F
100
AcDbEntity
  8
MARKETING_DRW
  6
CENTERX2
100
AcDbLine
 10
1955.0
 20
200.0
 30
0.0
 11
1980.0
 21
200.0
 31
0.0
  0
LINE
  5
97
330
1F
100
AcDbEntity
  8
MARKETING_DRW
  6
CENTERX2
100
AcDbLine
 10
1967.5
 20
212.5
 30
0.0
 11
1967.5
 21
187.5
 31
0.0
  0
LINE
  5
98
330
1F
100
AcDbEntity
  8
MARKETING_DRW
  6
CENTERX2
100
AcDbLine
 10
1915.0
 20
200.0
 30
0.0
 11
1950.0
 21
200.0
 31
0.0
  0
LINE
  5
99
330
1F
100
AcDbEntity
  8
MARKETING_DRW
100
AcDbLine
 10
1920.0
 20
194.95
 30
0.0
 11
1945.0
 21
190.0
 31
0.0
  0
LINE
  5
9A
330
1F
100
AcDbEntity
  8
MARKETING_DRW
100
AcDbLine
 10
1920.0
 20
205.05
 30
0.0
 11
1920.0
 21
194.95
 31
0.0
  0
LINE
  5
9B
330
1F
100
AcDbEntity
  8
MARKETING_DRW
100
AcDbLine
 10
1945.0
 20
210.0
 30
0.0
 11
1920.0
 21
205.05
 31
0.0
  0
LINE
  5
9C
330
1F
100
AcDbEntity
  8
MARKETING_DRW
100
AcDbLine
 10
1945.0
 20
190.0
 30
0.0
 11
1945.0
 21
210.0
 31
0.0
  0
LINE
  5
9D
330
1F
100
AcDbEntity
  8
MARKETING_DRW
100
AcDbLine
 10
2050.0
 20
50.0
 30
0.0
 11
2050.0
 21
230.0
 31
0.0
  0
LINE
  5
9E
330
1F
100
AcDbEntity
  8
MARKETING_DRW
100
AcDbLine
 10
1150.0
 20
50.0
 30
0.0
 11
2050.0
 21
50.0
 31
0.0
  0
LINE
  5
9F
330
1F
100
AcDbEntity
  8
MARKETING_DRW
100
AcDbLine
 10
1150.0
 20
275.0
 30
0.0
 11
1150.0
 21
50.0
 31
0.0
  0
LINE
  5
A0
330
1F
100
AcDbEntity
  8
MARKETING_DRW
100
AcDbLine
 10
1150.0
 20
275.0
 30
0.0
 11
1650.0
 21
275.0
 31
0.0
  0
LINE
  5
A1
330
1F
100
AcDbEntity
  8
MARKETING_DRW
 62
     7
100
AcDbLine
 10
1850.0
 20
50.0
 30
0.0
 11
1850.0
 21
95.0
 31
0.0
  0
LINE
  5
A2
330
1F
100
AcDbEntity
  8
MARKETING_DRW
100
AcDbLine
 10
2000.0
 20
95.0
 30
0.0
 11
2000.0
 21
50.0
 31
0.0
  0
LINE
  5
A3
330
1F
100
AcDbEntity
  8
MARKETING_DRW
100
AcDbLine
 10
1650.0
 20
275.0
 30
0.0
 11
1650.0
 21
230.0
 31
0.0
  0
LINE
  5
A4
330
1F
100
AcDbEntity
  8
MARKETING_DRW
100
AcDbLine
 10
2050.0
 20
230.0
 30
0.0
 11
1400.0
 21
230.0
 31
0.0
  0
LINE
  5
A5
330
1F
100
AcDbEntity
  8
MARKETING_DRW
100
AcDbLine
 10
1400.0
 20
275.0
 30
0.0
 11
1400.0
 21
185.0
 31
0.0
  0
LINE
  5
A6
330
1F
100
AcDbEntity
  8
MARKETING_DRW
100
AcDbLine
 10
2000.0
 20
230.0
 30
0.0
 11
2000.0
 21
185.0
 31
0.0
  0
LINE
  5
A7
330
1F
100
AcDbEntity
  8
MARKETING_DRW
100
AcDbLine
 10
2050.0
 20
95.0
 30
0.0
 11
1150.0
 21
95.0
 31
0.0
  0
LINE
  5
A8
330
1F
100
AcDbEntity
  8
MARKETING_DRW
100
AcDbLine
 10
1150.0
 20
185.0
 30
0.0
 11
2050.0
 21
185.0
 31
0.0
  0
LINE
  5
A9
330
1F
100
AcDbEntity
  8
MARKETING_DRW
100
AcDbLine
 10
1150.0
 20
50.0
 30
0.0
 11
2050.0
 21
50.0
 31
0.0
  0
LINE
  5
AA
330
1F
100
AcDbEntity
  8
MARKETING_DRW
100
AcDbLine
 10
1900.0
 20
230.0
 30
0.0
 11
1900.0
 21
185.0
 31
0.0
  0
LINE
  5
AB
330
1F
100
AcDbEntity
  8
MARKETING_DRW
100
AcDbLine
 10
1650.0
 20
275.0
 30
0.0
 11
1900.0
 21
275.0
 31
0.0
  0
LINE
  5
AC
330
1F
100
AcDbEntity
  8
MARKETING_DRW
100
AcDbLine
 10
1900.0
 20
275.0
 30
0.0
 11
1900.0
 21
230.0
 31
0.0
  0
LINE
  5
AD
330
1F
100
AcDbEntity
  8
MARKETING_DRW
100
AcDbLine
 10
1900.0
 20
275.0
 30
0.0
 11
2050.0
 21
275.0
 31
0.0
  0
LINE
  5
AE
330
1F
100
AcDbEntity
  8
MARKETING_DRW
100
AcDbLine
 10
2050.0
 20
275.0
 30
0.0
 11
2050.0
 21
230.0
 31
0.0
  0
LINE
  5
AF
330
1F
100
AcDbEntity
  8
MARKETING_DRW
100
AcDbLine
 10
1825.0
 20
275.0
 30
0.0
 11
1825.0
 21
230.0
 31
0.0
  0
LINE
  5
B0
330
1F
100
AcDbEntity
  8
MARKETING_DRW
100
AcDbLine
 10
1650.0
 20
230.0
 30
0.0
 11
1650.0
 21
185.0
 31
0.0
  0
CIRCLE
  5
B1
330
1F
100
AcDbEntity
  8
TABLE_DRW
 62
     7
100
AcDbCircle
 10
1967.5
 20
200.0
 30
0.0
 40
5.000000000000224
  0
CIRCLE
  5
B2
330
1F
100
AcDbEntity
  8
TABLE_DRW
 62
     7
100
AcDbCircle
 10
1967.5
 20
200.0
 30
0.0
 40
10.00000000000024
  0
CIRCLE
  5
B3
330
1F
100
AcDbEntity
  8
MARKETING_DRW
100
AcDbCircle
 10
1967.5
 20
200.0
 30
0.0
 40
5.000000000000224
  0
CIRCLE
  5
B4
330
1F
100
AcDbEntity
  8
MARKETING_DRW
100
AcDbCircle
 10
1967.5
 20
200.0
 30
0.0
 40
10.00000000000024
  0
MTEXT
  5
B6
330
1F
100
AcDbEntity
  8
TABLE_DRW
100
AcDbMText
 10
1905.0
 20
294.9675136777
 30
0.0
 40
12.5
 41
0.0
 71
     1
 72
     1
  1
see table
  7
SLDTEXTSTYLE0
 73
     1
 44
1.0
  0
MTEXT
  5
B7
330
1F
100
AcDbEntity
  8
TABLE_DRW
100
AcDbMText
 10
1155.0
 20
334.9766099061
 30
0.0
 40
9.0
 41
0.0
 71
     1
 72
     1
  1
modification:
  7
SLDTEXTSTYLE0
 73
     1
 44
1.0
  0
MTEXT
  5
B8
330
1F
100
AcDbEntity
  8
TABLE_DRW
100
AcDbMText
 10
1405.0
 20
249.9675136777
 30
0.0
 40
12.5
 41
0.0
 71
     1
 72
     1
  1
see table
  7
SLDTEXTSTYLE0
 73
     1
 44
1.0
  0
MTEXT
  5
B9
330
1F
100
AcDbEntity
  8
TABLE_DRW
100
AcDbMText
 10
1155.0
 20
159.9675136777
 30
0.0
 40
12.5
 41
0.0
 71
     1
 72
     1
  1
ACO ShowerDrain
  7
SLDTEXTSTYLE0
 73
     1
 44
1.0
  0
MTEXT
  5
BA
330
1F
100
AcDbEntity
  8
TABLE_DRW
100
AcDbMText
 10
1824.7395830229
 20
69.9675136777
 30
0.0
 40
12.5
 41
0.0
 71
     2
 72
     1
  1
001
  7
SLDTEXTSTYLE0
 73
     1
 44
1.0
  0
MTEXT
  5
BB
330
1F
100
AcDbEntity
  8
TABLE_DRW
100
AcDbMText
 10
1749.0407964215
 20
69.9675136777
 30
0.0
 40
12.5
 41
0.0
 71
     2
 72
     1
  1
1109001-O
  7
SLDTEXTSTYLE0
 73
     1
 44
1.0
  0
MTEXT
  5
BC
330
1F
100
AcDbEntity
  8
TABLE_DRW
100
AcDbMText
 10
1155.0
 20
295.0022357116
 30
0.0
 40
12.5
 41
0.0
 71
     1
 72
     1
  1
Bohms, Michael
  7
SLDTEXTSTYLE0
 73
     1
 44
1.0
  0
MTEXT
  5
BD
330
1F
100
AcDbEntity
  8
TABLE_DRW
100
AcDbMText
 10
1155.0
 20
137.4675136777
 30
0.0
 40
12.5
 41
0.0
 71
     1
 72
     1
  1
ASM Shower Channel C with WA and gap, with DN50 left side outlet, with FAT GV50, L580, International
  7
SLDTEXTSTYLE0
 73
     1
 44
1.0
  0
MTEXT
  5
BE
330
1F
100
AcDbEntity
  8
TABLE_DRW
100
AcDbMText
 10
1155.0
 20
114.9675136777
 30
0.0
 40
12.5
 41
0.0
 71
     1
 72
     1
  1
ZB Duschrinne C mit Spalt, mit Wandaufkantung, mit DN50 links Seite Auslass, mit FAT GV50, L580, International
  7
SLDTEXTSTYLE0
 73
     1
 44
1.0
  0
INSERT
  5
C5
330
1F
100
AcDbEntity
  8
TABLE_DRW
100
AcDbBlockReference
  2
SW_NOTE_0
 10
1155.0
 20
78.4000001475
 30
0.0
  0
MTEXT
  5
C6
330
1F
100
AcDbEntity
  8
TABLE_DRW
100
AcDbMText
 10
1405.0
 20
224.9766099061
 30
0.0
 40
9.0
 41
0.0
 71
     1
 72
     1
  1
created by:
  7
SLDTEXTSTYLE0
 73
     1
 44
1.0
  0
MTEXT
  5
C7
330
1F
100
AcDbEntity
  8
TABLE_DRW
100
AcDbMText
 10
1655.0
 20
314.9766099061
 30
0.0
 40
9.0
 41
0.0
 71
     1
 72
     1
  1
surface:
  7
SLDTEXTSTYLE0
 73
     1
 44
1.0
  0
MTEXT
  5
C8
330
1F
100
AcDbEntity
  8
TABLE_DRW
100
AcDbMText
 10
2024.8750000875
 20
224.9766099061
 30
0.0
 40
9.0
 41
0.0
 71
     2
 72
     1
  1
scale:
  7
SLDTEXTSTYLE0
 73
     1
 44
1.0
  0
MTEXT
  5
C9
330
1F
100
AcDbEntity
  8
TABLE_DRW
100
AcDbMText
 10
1905.0
 20
314.9766099061
 30
0.0
 40
9.0
 41
0.0
 71
     1
 72
     1
  1
weight:
  7
SLDTEXTSTYLE0
 73
     1
 44
1.0
  0
MTEXT
  5
CA
330
1F
100
AcDbEntity
  8
TABLE_DRW
100
AcDbMText
 10
1749.034373872
 20
89.9766099061
 30
0.0
 40
9.0
 41
0.0
 71
     2
 72
     1
  1
drawing-no.:
  7
SLDTEXTSTYLE0
 73
     1
 44
1.0
  0
MTEXT
  5
CB
330
1F
100
AcDbEntity
  8
TABLE_DRW
100
AcDbMText
 10
1905.0
 20
269.9766099061
 30
0.0
 40
9.0
 41
0.0
 71
     1
 72
     1
  1
documenttype:
  7
SLDTEXTSTYLE0
 73
     1
 44
1.0
  0
MTEXT
  5
CC
330
1F
100
AcDbEntity
  8
TABLE_DRW
100
AcDbMText
 10
1824.8125000894
 20
89.9766099061
 30
0.0
 40
9.0
 41
0.0
 71
     2
 72
     1
  1
index:
  7
SLDTEXTSTYLE0
 73
     1
 44
1.0
  0
MTEXT
  5
CD
330
1F
100
AcDbEntity
  8
TABLE_DRW
100
AcDbMText
 10
1655.0
 20
224.9766099061
 30
0.0
 40
9.0
 41
0.0
 71
     1
 72
     1
  1
reviewed by:
  7
SLDTEXTSTYLE0
 73
     1
 44
1.0
  0
MTEXT
  5
CE
330
1F
100
AcDbEntity
  8
TABLE_DRW
100
AcDbMText
 10
1855.0
 20
89.9766099061
 30
0.0
 40
9.0
 41
0.0
 71
     1
 72
     1
  1
release date:
  7
SLDTEXTSTYLE0
 73
     1
 44
1.0
  0
MTEXT
  5
CF
330
1F
100
AcDbEntity
  8
TABLE_DRW
100
AcDbMText
 10
2024.7500000913
 20
89.9766099061
 30
0.0
 40
9.0
 41
0.0
 71
     2
 72
     1
  1
sheet:
  7
SLDTEXTSTYLE0
 73
     1
 44
1.0
  0
MTEXT
  5
D0
330
1F
100
AcDbEntity
  8
TABLE_DRW
100
AcDbMText
 10
1905.0
 20
224.9766099061
 30
0.0
 40
9.0
 41
0.0
 71
     1
 72
     1
  1
projection:ISO-E
  7
SLDTEXTSTYLE0
 73
     1
 44
1.0
  0
MTEXT
  5
D1
330
1F
100
AcDbEntity
  8
TABLE_DRW
100
AcDbMText
 10
1405.0
 20
269.9766099061
 30
0.0
 40
9.0
 41
0.0
 71
     1
 72
     1
  1
material:
  7
SLDTEXTSTYLE0
 73
     1
 44
1.0
  0
MTEXT
  5
D2
330
1F
100
AcDbEntity
  8
TABLE_DRW
100
AcDbMText
 10
1905.0
 20
249.9675136777
 30
0.0
 40
12.5
 41
0.0
 71
     1
 72
     1
  1
production drw.
  7
SLDTEXTSTYLE0
 73
     1
 44
1.0
  0
MTEXT
  5
D3
330
1F
100
AcDbEntity
  8
TABLE_DRW
100
AcDbMText
 10
1405.0
 20
314.9766099061
 30
0.0
 40
9.0
 41
0.0
 71
     1
 72
     1
  1
general tolerance:
  7
SLDTEXTSTYLE0
 73
     1
 44
1.0
  0
MTEXT
  5
D4
330
1F
100
AcDbEntity
  8
TABLE_DRW
100
AcDbMText
 10
2024.7829862405
 20
204.9675136777
 30
0.0
 40
12.5
 41
0.0
 71
     2
 72
     1
  1
1:5
  7
SLDTEXTSTYLE0
 73
     1
 44
1.0
  0
MTEXT
  5
D5
330
1F
100
AcDbEntity
  8
TABLE_DRW
100
AcDbMText
 10
2024.7829862405
 20
69.9675136777
 30
0.0
 40
12.5
 41
0.0
 71
     2
 72
     1
  1
1/1
  7
SLDTEXTSTYLE0
 73
     1
 44
1.0
  0
MTEXT
  5
D6
330
1F
100
AcDbEntity
  8
TABLE_DRW
100
AcDbMText
 10
1155.0
 20
314.9766099061
 30
0.0
 40
9.0
 41
0.0
 71
     1
 72
     1
  1
technical reference:
  7
SLDTEXTSTYLE0
 73
     1
 44
1.0
  0
MTEXT
  5
D7
330
1F
100
AcDbEntity
  8
TABLE_DRW
100
AcDbMText
 10
1155.0
 20
179.9766099061
 30
0.0
 40
9.0
 41
0.0
 71
     1
 72
     1
  1
title:
  7
SLDTEXTSTYLE0
 73
     1
 44
1.0
  0
MTEXT
  5
D8
330
1F
100
AcDbEntity
  8
MARKETING_DRW
100
AcDbMText
 10
1155.0
 20
114.9675136777
 30
0.0
 40
12.5
 41
0.0
 71
     1
 72
     1
  1
ZB Duschrinne C mit Spalt, mit Wandaufkantung, mit DN50 links Seite Auslass, mit FAT GV50, L580, International
  7
SLDTEXTSTYLE0
 73
     1
 44
1.0
  0
MTEXT
  5
D9
330
1F
100
AcDbEntity
  8
MARKETING_DRW
100
AcDbMText
 10
1155.0
 20
137.4675136777
 30
0.0
 40
12.5
 41
0.0
 71
     1
 72
     1
  1
ASM Shower Channel C with WA and gap, with DN50 left side outlet, with FAT GV50, L580, International
  7
SLDTEXTSTYLE0
 73
     1
 44
1.0
  0
MTEXT
  5
DA
330
1F
100
AcDbEntity
  8
MARKETING_DRW
100
AcDbMText
 10
1736.5407964215
 20
249.9675136777
 30
0.0
 40
12.5
 41
0.0
 71
     2
 72
     1
  1
1109001-O
  7
SLDTEXTSTYLE0
 73
     1
 44
1.0
  0
MTEXT
  5
DB
330
1F
100
AcDbEntity
  8
MARKETING_DRW
100
AcDbMText
 10
1862.2395830229
 20
252.0971433073
 30
0.0
 40
12.5
 41
0.0
 71
     2
 72
     1
  1
001
  7
SLDTEXTSTYLE0
 73
     1
 44
1.0
  0
MTEXT
  5
DC
330
1F
100
AcDbEntity
  8
MARKETING_DRW
100
AcDbMText
 10
1155.0
 20
159.9675136777
 30
0.0
 40
12.5
 41
0.0
 71
     1
 72
     1
  1
ACO ShowerDrain
  7
SLDTEXTSTYLE0
 73
     1
 44
1.0
  0
MTEXT
  5
DD
330
1F
100
AcDbEntity
  8
MARKETING_DRW
100
AcDbMText
 10
1905.0
 20
269.9766099061
 30
0.0
 40
9.0
 41
0.0
 71
     1
 72
     1
  1
documenttype:
  7
SLDTEXTSTYLE0
 73
     1
 44
1.0
  0
MTEXT
  5
DE
330
1F
100
AcDbEntity
  8
MARKETING_DRW
100
AcDbMText
 10
1655.0
 20
224.9766099061
 30
0.0
 40
9.0
 41
0.0
 71
     1
 72
     1
  1
reviewed by:
  7
SLDTEXTSTYLE0
 73
     1
 44
1.0
  0
MTEXT
  5
DF
330
1F
100
AcDbEntity
  8
MARKETING_DRW
100
AcDbMText
 10
1736.534373872
 20
270.0578764559
 30
0.0
 40
9.0
 41
0.0
 71
     2
 72
     1
  1
drawing-no.:
  7
SLDTEXTSTYLE0
 73
     1
 44
1.0
  0
MTEXT
  5
E0
330
1F
100
AcDbEntity
  8
MARKETING_DRW
100
AcDbMText
 10
1905.0
 20
224.9766099061
 30
0.0
 40
9.0
 41
0.0
 71
     1
 72
     1
  1
projection:ISO-E
  7
SLDTEXTSTYLE0
 73
     1
 44
1.0
  0
MTEXT
  5
E1
330
1F
100
AcDbEntity
  8
MARKETING_DRW
100
AcDbMText
 10
2024.7500000913
 20
89.9766099061
 30
0.0
 40
9.0
 41
0.0
 71
     2
 72
     1
  1
sheet:
  7
SLDTEXTSTYLE0
 73
     1
 44
1.0
  0
MTEXT
  5
E2
330
1F
100
AcDbEntity
  8
MARKETING_DRW
100
AcDbMText
 10
2024.7829862405
 20
69.9675136777
 30
0.0
 40
12.5
 41
0.0
 71
     2
 72
     1
  1
1/1
  7
SLDTEXTSTYLE0
 73
     1
 44
1.0
  0
MTEXT
  5
E3
330
1F
100
AcDbEntity
  8
MARKETING_DRW
100
AcDbMText
 10
1855.0
 20
89.9766099061
 30
0.0
 40
9.0
 41
0.0
 71
     1
 72
     1
  1
release date:
  7
SLDTEXTSTYLE0
 73
     1
 44
1.0
  0
MTEXT
  5
E4
330
1F
100
AcDbEntity
  8
MARKETING_DRW
100
AcDbMText
 10
1862.3125000894
 20
269.9766099061
 30
0.0
 40
9.0
 41
0.0
 71
     2
 72
     1
  1
index:
  7
SLDTEXTSTYLE0
 73
     1
 44
1.0
  0
MTEXT
  5
E5
330
1F
100
AcDbEntity
  8
MARKETING_DRW
100
AcDbMText
 10
1155.0
 20
179.9766099061
 30
0.0
 40
9.0
 41
0.0
 71
     1
 72
     1
  1
title:
  7
SLDTEXTSTYLE0
 73
     1
 44
1.0
  0
MTEXT
  5
E6
330
1F
100
AcDbEntity
  8
MARKETING_DRW
100
AcDbMText
 10
2024.8750000875
 20
224.9766099061
 30
0.0
 40
9.0
 41
0.0
 71
     2
 72
     1
  1
scale:
  7
SLDTEXTSTYLE0
 73
     1
 44
1.0
  0
MTEXT
  5
E7
330
1F
100
AcDbEntity
  8
MARKETING_DRW
100
AcDbMText
 10
2024.7829862405
 20
204.9675136777
 30
0.0
 40
12.5
 41
0.0
 71
     2
 72
     1
  1
1:5
  7
SLDTEXTSTYLE0
 73
     1
 44
1.0
  0
INSERT
  5
EE
330
1F
100
AcDbEntity
  8
MARKETING_DRW
100
AcDbBlockReference
  2
SW_NOTE_0_1
 10
1155.0
 20
78.3750002482
 30
0.0
  0
MTEXT
  5
EF
330
1F
100
AcDbEntity
  8
MARKETING_DRW
100
AcDbMText
 10
1905.0
 20
249.9675136777
 30
0.0
 40
12.5
 41
0.0
 71
     1
 72
     1
  1
marketing drw.
  7
SLDTEXTSTYLE0
 73
     1
 44
1.0
  0
MTEXT
  5
F0
330
1F
100
AcDbEntity
  8
MARKETING_DRW
100
AcDbMText
 10
1405.0
 20
224.9766099061
 30
0.0
 40
9.0
 41
0.0
 71
     1
 72
     1
  1
created by:
  7
SLDTEXTSTYLE0
 73
     1
 44
1.0
  0
LINE
  5
F1
330
1F
100
AcDbEntity
  8
0
  6
Continuous
 62
     7
370
    35
100
AcDbLine
 10
1140.5988173661
 20
972.2855386105
 30
0.0
 11
560.5988340554
 21
972.2855386105
 31
0.0
  0
LINE
  5
F2
330
1F
100
AcDbEntity
  8
0
  6
Continuous
 62
     7
370
    35
100
AcDbLine
 10
769.5988254723
 20
952.1939821323
 30
0.0
 11
769.5988254723
 21
949.2859376376
 31
0.0
  0
LINE
  5
F3
330
1F
100
AcDbEntity
  8
0
  6
Continuous
 62
     7
370
    35
100
AcDbLine
 10
931.5988259492
 20
949.2859376376
 30
0.0
 11
931.5988259492
 21
952.1939821323
 31
0.0
  0
ARC
  5
F4
330
1F
100
AcDbEntity
  8
0
  6
Continuous
 62
     7
370
    35
100
AcDbCircle
 10
767.5988257108
 20
952.1875487769
 30
0.0
 40
2.000000000000031
100
AcDbArc
 50
0.1603835477
 51
88.7916387136
  0
ARC
  5
F5
330
1F
100
AcDbEntity
  8
0
  6
Continuous
 62
     7
370
    35
100
AcDbCircle
 10
933.5988257108
 20
952.1875487769
 30
0.0
 40
2.000000000000092
100
AcDbArc
 50
91.1928878275
 51
179.8251412338
  0
LINE
  5
F6
330
1F
100
AcDbEntity
  8
0
  6
Continuous
 62
     7
370
    35
100
AcDbLine
 10
560.5988340554
 20
954.1871487643
 30
0.0
 11
767.6396431503
 21
954.1871487643
 31
0.0
  0
LINE
  5
F7
330
1F
100
AcDbEntity
  8
0
  6
Continuous
 62
     7
370
    35
100
AcDbLine
 10
933.5580082712
 20
954.1871487643
 30
0.0
 11
1140.5988173661
 21
954.1871487643
 31
0.0
  0
LINE
  5
F8
330
1F
100
AcDbEntity
  8
0
  6
Continuous
 62
     7
370
    35
100
AcDbLine
 10
763.5988282141
 20
878.835936707
 30
0.0
 11
781.5984698114
 21
878.835936707
 31
0.0
  0
LINE
  5
F9
330
1F
100
AcDbEntity
  8
0
  6
Continuous
 62
     7
370
    35
100
AcDbLine
 10
765.5988248167
 20
928.835937452
 30
0.0
 11
763.5988282141
 21
928.835937452
 31
0.0
  0
SPLINE
  5
FA
330
1F
100
AcDbEntity
  8
0
  6
Continuous
 62
     7
370
    35
100
AcDbSpline
210
0.0
220
0.0
230
1.0
 70
     8
 71
     3
 72
    13
 73
     9
 74
     0
 42
0.000000001
 43
0.00000001
 40
0.0
 40
0.0
 40
0.0
 40
0.0
 40
0.2394568237647455
 40
0.3683604108026845
 40
0.4999995700884161
 40
0.6316389795295606
 40
0.760542396788976
 40
1.0
 40
1.0
 40
1.0
 40
1.0
 10
768.5988234457775
 20
931.8359379437859
 30
0.0
 10
768.5587488874899
 20
931.4585492519267
 30
0.0
 10
768.4971015285988
 20
930.8780059565639
 30
0.0
 10
768.1230127780871
 20
930.1795563182283
 30
0.0
 10
767.735827208305
 20
929.6989368419968
 30
0.0
 10
767.2552087281463
 20
929.3117507666973
 30
0.0
 10
766.5567598381986
 20
928.9376573530712
 30
0.0
 10
765.9762150698726
 20
928.8760112549041
 30
0.0
 10
765.5988248166842
 20
928.8359374520475
 30
0.0
  0
LINE
  5
FB
330
1F
100
AcDbEntity
  8
0
  6
Continuous
 62
     7
370
    35
100
AcDbLine
 10
763.5988282141
 20
928.8859382984
 30
0.0
 11
720.410420197
 21
928.8859382984
 31
0.0
  0
LINE
  5
FC
330
1F
100
AcDbEntity
  8
0
  6
Continuous
 62
     7
370
    35
100
AcDbLine
 10
720.410420197
 20
878.7859358606
 30
0.0
 11
763.5988282141
 21
878.7859358606
 31
0.0
  0
ARC
  5
FD
330
1F
100
AcDbEntity
  8
0
  6
Continuous
 62
     7
370
    35
100
AcDbCircle
 10
720.4104273651
 20
881.7859378565
 30
0.0
 40
3.0
100
AcDbArc
 50
258.1402208791
 51
270.0
  0
ARC
  5
FE
330
1F
100
AcDbEntity
  8
0
  6
Continuous
 62
     7
370
    35
100
AcDbCircle
 10
720.4104273651
 20
925.8859378565
 30
0.0
 40
2.999999999999991
100
AcDbArc
 50
90.0
 51
101.8597791209
  0
LINE
  5
FF
330
1F
100
AcDbEntity
  8
0
  6
Continuous
 62
     7
370
    35
100
AcDbLine
 10
719.7938697514
 20
928.8218986956
 30
0.0
 11
715.0988267836
 21
927.8359372881
 31
0.0
  0
LINE
  5
100
330
1F
100
AcDbEntity
  8
0
  6
Continuous
 62
     7
370
    35
100
AcDbLine
 10
715.0988267836
 20
879.8359387335
 30
0.0
 11
719.7938697514
 21
878.8499810514
 31
0.0
  0
LINE
  5
101
330
1F
100
AcDbEntity
  8
0
  6
Continuous
 62
     7
370
    35
100
AcDbLine
 10
1140.5988173661
 20
960.2855380406
 30
0.0
 11
560.5988340554
 21
960.2855380406
 31
0.0
  0
LINE
  5
102
330
1F
100
AcDbEntity
  8
0
  6
Continuous
 62
     7
370
    35
100
AcDbLine
 10
1140.5988173661
 20
959.2855378767
 30
0.0
 11
1140.5988173661
 21
960.2855380406
 31
0.0
  0
LINE
  5
103
330
1F
100
AcDbEntity
  8
0
  6
Continuous
 62
     7
370
    35
100
AcDbLine
 10
1140.5988173661
 20
959.2855378767
 30
0.0
 11
560.5988340554
 21
959.2855378767
 31
0.0
  0
LINE
  5
104
330
1F
100
AcDbEntity
  8
0
  6
Continuous
 62
     7
370
    35
100
AcDbLine
 10
560.5988340554
 20
959.2855378767
 30
0.0
 11
560.5988340554
 21
960.2855380406
 31
0.0
  0
LINE
  5
105
330
1F
100
AcDbEntity
  8
0
  6
Continuous
 62
     7
370
    35
100
AcDbLine
 10
1140.5988173661
 20
960.2855380406
 30
0.0
 11
1140.5988173661
 21
961.2855377388
 31
0.0
  0
LINE
  5
106
330
1F
100
AcDbEntity
  8
0
  6
Continuous
 62
     7
370
    35
100
AcDbLine
 10
560.5988340554
 20
961.2855377388
 30
0.0
 11
560.5988340554
 21
960.2855380406
 31
0.0
  0
LINE
  5
107
330
1F
100
AcDbEntity
  8
0
  6
Continuous
 62
     7
370
    35
100
AcDbLine
 10
560.5988340554
 20
961.2855377388
 30
0.0
 11
560.5988340554
 21
970.7855374334
 31
0.0
  0
LINE
  5
108
330
1F
100
AcDbEntity
  8
0
  6
Continuous
 62
     7
370
    35
100
AcDbLine
 10
1140.5988173661
 20
970.7855374334
 30
0.0
 11
1140.5988173661
 21
961.2855377388
 31
0.0
  0
LINE
  5
109
330
1F
100
AcDbEntity
  8
0
  6
Continuous
 62
     7
370
    35
100
AcDbLine
 10
1140.5988173661
 20
972.2855386105
 30
0.0
 11
1140.5988173661
 21
971.2855384466
 31
0.0
  0
LINE
  5
10A
330
1F
100
AcDbEntity
  8
0
  6
Continuous
 62
     7
370
    35
100
AcDbLine
 10
560.5988340554
 20
971.2855384466
 30
0.0
 11
560.5988340554
 21
972.2855386105
 31
0.0
  0
LINE
  5
10B
330
1F
100
AcDbEntity
  8
0
  6
Continuous
 62
     7
370
    35
100
AcDbLine
 10
560.5988340554
 20
957.1875221343
 30
0.0
 11
560.5988340554
 21
957.9474564423
 31
0.0
  0
LINE
  5
10C
330
1F
100
AcDbEntity
  8
0
  6
Continuous
 62
     7
370
    35
100
AcDbLine
 10
1140.5988173661
 20
957.1875221343
 30
0.0
 11
1140.5988173661
 21
957.9474564423
 31
0.0
  0
LINE
  5
10D
330
1F
100
AcDbEntity
  8
0
  6
Continuous
 62
     7
370
    35
100
AcDbLine
 10
1140.5988173661
 20
957.9474564423
 30
0.0
 11
1140.5988173661
 21
959.2855378767
 31
0.0
  0
LINE
  5
10E
330
1F
100
AcDbEntity
  8
0
  6
Continuous
 62
     7
370
    35
100
AcDbLine
 10
560.5988340554
 20
957.9474564423
 30
0.0
 11
560.5988340554
 21
959.2855378767
 31
0.0
  0
SPLINE
  5
10F
330
1F
100
AcDbEntity
  8
0
  6
Continuous
 62
     7
370
    35
100
AcDbSpline
210
0.0
220
0.0
230
1.0
 70
     8
 71
     3
 72
    14
 73
    10
 74
     0
 42
0.000000001
 43
0.00000001
 40
0.0
 40
0.0
 40
0.0
 40
0.0
 40
0.2499999999999999
 40
0.2499999999999999
 40
0.4999999999999999
 40
0.4999999999999999
 40
0.7499999999999999
 40
0.7499999999999999
 40
1.0
 40
1.0
 40
1.0
 40
1.0
 10
933.5580018194396
 20
954.1903654357674
 30
0.0
 10
933.53277772389
 20
954.3796127619166
 30
0.0
 10
932.9466012435054
 20
954.5685323759246
 30
0.0
 10
930.7152099054612
 20
954.9252694250517
 30
0.0
 10
929.0709523225732
 20
955.0929247632494
 30
0.0
 10
924.9024237379127
 20
955.3885816512251
 30
0.0
 10
922.3799228605296
 20
955.5164508335199
 30
0.0
 10
916.7319604912423
 20
955.7182768980938
 30
0.0
 10
913.608969335671
 20
955.7921428174599
 30
0.0
 10
910.3570595921298
 20
955.8348988658629
 30
0.0
  0
SPLINE
  5
110
330
1F
100
AcDbEntity
  8
0
  6
Continuous
 62
     7
370
    35
100
AcDbSpline
210
0.0
220
0.0
230
1.0
 70
     8
 71
     3
 72
    16
 73
    12
 74
     0
 42
0.000000001
 43
0.00000001
 40
0.0
 40
0.0
 40
0.0
 40
0.0
 40
0.0624999999999983
 40
0.0624999999999983
 40
0.1249999999999966
 40
0.1249999999999966
 40
0.2499999999999962
 40
0.2499999999999962
 40
0.4999999999999986
 40
0.4999999999999986
 40
1.0
 40
1.0
 40
1.0
 40
1.0
 10
910.3570595920737
 20
955.834898865848
 30
0.0
 10
910.2185944231129
 20
955.8367194032961
 30
0.0
 10
910.0781745880535
 20
955.8373941217233
 30
0.0
 10
909.7973373593965
 20
955.8387449897546
 30
0.0
 10
909.6567008997879
 20
955.8392927235632
 30
0.0
 10
909.2346617076382
 20
955.8408598288333
 30
0.0
 10
908.953112093747
 20
955.8417657881065
 30
0.0
 10
908.1084446415234
 20
955.84428172394
 30
0.0
 10
907.5451266827416
 20
955.8456577942694
 30
0.0
 10
905.8546242867927
 20
955.8489852005705
 30
0.0
 10
904.726738219231
 20
955.8501101759119
 30
0.0
 10
903.598825710754
 20
955.8501101759119
 30
0.0
  0
LINE
  5
111
330
1F
100
AcDbEntity
  8
0
  6
Continuous
 62
     7
370
    35
100
AcDbLine
 10
903.5988250849
 20
955.8501102044
 30
0.0
 11
797.5988263366
 21
955.8501102044
 31
0.0
  0
SPLINE
  5
112
330
1F
100
AcDbEntity
  8
0
  6
Continuous
 62
     7
370
    35
100
AcDbSpline
210
0.0
220
0.0
230
1.0
 70
     8
 71
     3
 72
    16
 73
    12
 74
     0
 42
0.000000001
 43
0.00000001
 40
0.0
 40
0.0
 40
0.0
 40
0.0
 40
0.500000000000003
 40
0.500000000000003
 40
0.7500000000000029
 40
0.7500000000000029
 40
0.8750000000000014
 40
0.8750000000000014
 40
0.9375000000000008
 40
0.9375000000000008
 40
1.0
 40
1.0
 40
1.0
 40
1.0
 10
797.598825710754
 20
955.8501101759119
 30
0.0
 10
796.4708756890892
 20
955.8501101759119
 30
0.0
 10
795.3433339589368
 20
955.8489856980592
 30
0.0
 10
793.652617183991
 20
955.8456580294309
 30
0.0
 10
793.089130027083
 20
955.8442815522808
 30
0.0
 10
792.2443489250004
 20
955.8417651924801
 30
0.0
 10
791.9628095907373
 20
955.840859237658
 30
0.0
 10
791.5407360010216
 20
955.8392918881467
 30
0.0
 10
791.4000570141995
 20
955.8387439417188
 30
0.0
 10
791.1192184982299
 20
955.8373926903449
 30
0.0
 10
790.9788012231146
 20
955.8367160403676
 30
0.0
 10
790.8405918294342
 20
955.8348988658481
 30
0.0
  0
SPLINE
  5
113
330
1F
100
AcDbEntity
  8
0
  6
Continuous
 62
     7
370
    35
100
AcDbSpline
210
0.0
220
0.0
230
1.0
 70
     8
 71
     3
 72
    14
 73
    10
 74
     0
 42
0.000000001
 43
0.00000001
 40
0.0
 40
0.0
 40
0.0
 40
0.0
 40
0.25
 40
0.25
 40
0.5
 40
0.5
 40
0.75
 40
0.75
 40
1.0
 40
1.0
 40
1.0
 40
1.0
 10
790.8405918293472
 20
955.8348988658694
 30
0.0
 10
787.5886820947862
 20
955.7921428175845
 30
0.0
 10
784.4657146328672
 20
955.7182778433889
 30
0.0
 10
778.8176825889435
 20
955.5164490924323
 30
0.0
 10
776.2952183197036
 20
955.3885811204855
 30
0.0
 10
772.126691974666
 20
955.0929241245499
 30
0.0
 10
770.4824217965727
 20
954.9252665193616
 30
0.0
 10
768.2510611419359
 20
954.5685338818713
 30
0.0
 10
767.6648736977021
 20
954.3796127615088
 30
0.0
 10
767.6396496022076
 20
954.1903654357668
 30
0.0
  0
LINE
  5
114
330
1F
100
AcDbEntity
  8
0
  6
Continuous
 62
     7
370
    35
100
AcDbLine
 10
769.5988254723
 20
949.2859376376
 30
0.0
 11
797.5988263366
 21
949.2859376376
 31
0.0
  0
LINE
  5
115
330
1F
100
AcDbEntity
  8
0
  6
Continuous
 62
     7
370
    35
100
AcDbLine
 10
903.5988250849
 20
949.2859376376
 30
0.0
 11
924.752979177
 21
949.2859376376
 31
0.0
  0
LINE
  5
116
330
1F
100
AcDbEntity
  8
0
  6
Continuous
 62
     7
370
    35
100
AcDbLine
 10
925.3880294142
 20
949.2859376376
 30
0.0
 11
931.5988259492
 21
949.2859376376
 31
0.0
  0
LINE
  5
117
330
1F
100
AcDbEntity
  8
0
  6
Continuous
 62
     7
370
    35
100
AcDbLine
 10
797.5988263366
 20
949.2859376376
 30
0.0
 11
903.5988250849
 21
949.2859376376
 31
0.0
  0
LINE
  5
118
330
1F
100
AcDbEntity
  8
0
  6
Continuous
 62
     7
370
    35
100
AcDbLine
 10
1140.5988173661
 20
972.2855386105
 30
0.0
 11
560.5988340554
 21
972.2855386105
 31
0.0
  0
LINE
  5
119
330
1F
100
AcDbEntity
  8
0
  6
Continuous
 62
     7
370
    35
100
AcDbLine
 10
1140.5988173661
 20
972.2855386105
 30
0.0
 11
1140.5988173661
 21
973.2855387745
 31
0.0
  0
LINE
  5
11A
330
1F
100
AcDbEntity
  8
0
  6
Continuous
 62
     7
370
    35
100
AcDbLine
 10
560.5988340554
 20
973.2855387745
 30
0.0
 11
560.5988340554
 21
972.2855386105
 31
0.0
  0
LINE
  5
11B
330
1F
100
AcDbEntity
  8
0
  6
Continuous
 62
     7
370
    35
100
AcDbLine
 10
560.5988340554
 20
1002.7855389533
 30
0.0
 11
1140.5988173661
 21
1002.7855389533
 31
0.0
  0
LINE
  5
11C
330
1F
100
AcDbEntity
  8
0
  6
Continuous
 62
     7
370
    35
100
AcDbLine
 10
1140.5988173661
 20
1002.7855389533
 30
0.0
 11
1140.5988173661
 21
973.2855387745
 31
0.0
  0
LINE
  5
11D
330
1F
100
AcDbEntity
  8
0
  6
Continuous
 62
     7
370
    35
100
AcDbLine
 10
560.5988340554
 20
973.2855387745
 30
0.0
 11
560.5988340554
 21
1002.7855389533
 31
0.0
  0
SPLINE
  5
11E
330
1F
100
AcDbEntity
  8
0
  6
Continuous
 62
     7
370
    35
100
AcDbSpline
210
0.0
220
0.0
230
1.0
 70
     8
 71
     3
 72
    10
 73
     6
 74
     0
 42
0.000000001
 43
0.00000001
 40
0.0
 40
0.0
 40
0.0
 40
0.0
 40
0.5607971240143792
 40
0.7811102835521323
 40
1.0
 40
1.0
 40
1.0
 40
1.0
 10
769.0988244590565
 20
949.285937637567
 30
0.0
 10
769.095758264977
 20
948.4400488062703
 30
0.0
 10
769.0914874946318
 20
947.2618464999921
 30
0.0
 10
769.1088665369601
 20
945.7530340205045
 30
0.0
 10
769.0764919449223
 20
945.0911363510404
 30
0.0
 10
769.0603571114344
 20
944.7612601113611
 30
0.0
  0
SPLINE
  5
11F
330
1F
100
AcDbEntity
  8
0
  6
Continuous
 62
     7
370
    35
100
AcDbSpline
210
0.0
220
0.0
230
1.0
 70
    24
 71
     3
 72
    19
 73
    15
 74
     0
 42
0.000000001
 43
0.00000001
 40
0.0
 40
0.0
 40
0.0
 40
0.0
 40
0.2409130049425183
 40
0.4882582676462881
 40
0.5391715047646678
 40
0.5899404324151731
 40
0.6400693152903237
 40
0.6899887760876334
 40
0.7400419340014385
 40
0.7904190909394292
 40
0.8413201642333548
 40
0.8929676858288629
 40
0.9456873827398661
 40
1.0
 40
1.0
 40
1.0
 40
1.0
 10
850.598825710754
 20
949.285937637567
 30
0.0
 10
842.7527827577997
 20
949.285937637567
 30
0.0
 10
826.8512113959633
 20
949.285937637567
 30
0.0
 10
809.2857864738814
 20
949.285937637567
 30
0.0
 10
797.9238997246911
 20
949.285937637567
 30
0.0
 10
792.9681265410022
 20
949.285937637567
 30
0.0
 10
788.1837648361168
 20
949.285937637567
 30
0.0
 10
783.7001862552037
 20
949.285937637567
 30
0.0
 10
779.6219390102334
 20
949.285937637567
 30
0.0
 10
776.0486820694967
 20
949.285937637567
 30
0.0
 10
773.0822863317658
 20
949.285937637567
 30
0.0
 10
770.8522489589077
 20
949.285937637567
 30
0.0
 10
769.378940791312
 20
949.285937637567
 30
0.0
 10
769.1931184105748
 20
949.285937637567
 30
0.0
 10
769.0988244590565
 20
949.285937637567
 30
0.0
  0
SPLINE
  5
120
330
1F
100
AcDbEntity
  8
0
  6
Continuous
 62
     7
370
    35
100
AcDbSpline
210
0.0
220
0.0
230
1.0
 70
    24
 71
     3
 72
    25
 73
    21
 74
     0
 42
0.000000001
 43
0.00000001
 40
0.0
 40
0.0
 40
0.0
 40
0.0
 40
0.1043096830711339
 40
0.2091998487030742
 40
0.3149236803003991
 40
0.4217589496989747
 40
0.5007613201423835
 40
0.5815792111391059
 40
0.6543142978694131
 40
0.7233974739674706
 40
0.7912326047411627
 40
0.8594750046588281
 40
0.8975151994097326
 40
0.9075904630800893
 40
0.9177208829858186
 40
0.9280177117581817
 40
0.9392596283897588
 40
0.9505548033554428
 40
0.9683043681150859
 40
1.0
 40
1.0
 40
1.0
 40
1.0
 10
850.598825710754
 20
887.3876833138163
 30
0.0
 10
850.598825710754
 20
889.460487414128
 30
0.0
 10
850.598825710754
 20
893.6176307531664
 30
0.0
 10
850.598825710754
 20
900.2335581749265
 30
0.0
 10
850.598825710754
 20
907.045099703481
 30
0.0
 10
850.598825710754
 20
913.3710642134214
 30
0.0
 10
850.598825710754
 20
919.1246215609564
 30
0.0
 10
850.598825710754
 20
924.0825323154997
 30
0.0
 10
850.598825710754
 20
928.7259885651748
 30
0.0
 10
850.598825710754
 20
933.0808984476713
 30
0.0
 10
850.598825710754
 20
937.2573991760914
 30
0.0
 10
850.598825710754
 20
940.9026659245711
 30
0.0
 10
850.598825710754
 20
943.0469486779213
 30
0.0
 10
850.598825710754
 20
943.8290510883963
 30
0.0
 10
850.598825710754
 20
944.110670576882
 30
0.0
 10
850.598825710754
 20
944.5948807863143
 30
0.0
 10
850.598825710754
 20
945.3550302262041
 30
0.0
 10
850.598825710754
 20
946.2113390816302
 30
0.0
 10
850.598825710754
 20
947.5329324799584
 30
0.0
 10
850.598825710754
 20
948.6011700898985
 30
0.0
 10
850.598825710754
 20
949.285937637567
 30
0.0
  0
SPLINE
  5
121
330
1F
100
AcDbEntity
  8
0
  6
Continuous
 62
     7
370
    35
100
AcDbSpline
210
0.0
220
0.0
230
1.0
 70
    24
 71
     3
 72
    19
 73
    15
 74
     0
 42
0.000000001
 43
0.00000001
 40
0.0
 40
0.0
 40
0.0
 40
0.0
 40
0.2409130049425183
 40
0.4882582676462882
 40
0.5391715047646678
 40
0.5899404324151732
 40
0.6400693152903237
 40
0.6899887760876335
 40
0.7400419340014387
 40
0.7904190909394293
 40
0.8413201642333549
 40
0.8929676858288631
 40
0.9456873827398662
 40
0.9999999999999999
 40
0.9999999999999999
 40
0.9999999999999999
 40
0.9999999999999999
 10
850.598825710754
 20
949.285937637567
 30
0.0
 10
858.4448686637083
 20
949.285937637567
 30
0.0
 10
874.3464400255448
 20
949.285937637567
 30
0.0
 10
891.9118649476264
 20
949.285937637567
 30
0.0
 10
903.2737516968168
 20
949.285937637567
 30
0.0
 10
908.2295248805057
 20
949.285937637567
 30
0.0
 10
913.0138865853912
 20
949.285937637567
 30
0.0
 10
917.4974651663042
 20
949.285937637567
 30
0.0
 10
921.5757124112746
 20
949.285937637567
 30
0.0
 10
925.1489693520112
 20
949.285937637567
 30
0.0
 10
928.1153650897422
 20
949.285937637567
 30
0.0
 10
930.3454024626003
 20
949.285937637567
 30
0.0
 10
931.818710630196
 20
949.285937637567
 30
0.0
 10
932.0045330109332
 20
949.285937637567
 30
0.0
 10
932.0988269624515
 20
949.285937637567
 30
0.0
  0
SPLINE
  5
122
330
1F
100
AcDbEntity
  8
0
  6
Continuous
 62
     7
370
    35
100
AcDbSpline
210
0.0
220
0.0
230
1.0
 70
     8
 71
     3
 72
    25
 73
    21
 74
     0
 42
0.000000001
 43
0.00000001
 40
0.0
 40
0.0
 40
0.0
 40
0.0
 40
0.0403772880981495
 40
0.0581432859576496
 40
0.0718747362709676
 40
0.0830985529262893
 40
0.0953185416369261
 40
0.1147179961551714
 40
0.1492959749626726
 40
0.2292798111591977
 40
0.3102091784475369
 40
0.3726852967956938
 40
0.4313870210453607
 40
0.4804590121693446
 40
0.523552053564533
 40
0.5708166214816774
 40
0.6751808909944902
 40
0.7818081351238482
 40
0.8902538319681839
 40
1.0
 40
1.0
 40
1.0
 40
1.0
 10
932.0988269624515
 20
949.285937637567
 30
0.0
 10
932.0921555835339
 20
948.4068848149266
 30
0.0
 10
932.0825487993635
 20
947.1410489441662
 30
0.0
 10
932.1219757076746
 20
945.6239919912236
 30
0.0
 10
932.0372864952059
 20
944.6216899666441
 30
0.0
 10
932.716739197128
 20
944.0746900156198
 30
0.0
 10
933.5244943937746
 20
943.6552982470953
 30
0.0
 10
934.5968859022847
 20
942.6563191750209
 30
0.0
 10
935.9241667340503
 20
940.0286328754652
 30
0.0
 10
936.5983923214035
 20
935.8249864338583
 30
0.0
 10
937.6973935407262
 20
931.1294486715065
 30
0.0
 10
938.4359190527096
 20
926.8201750793393
 30
0.0
 10
938.9976942026107
 20
923.1833105865757
 30
0.0
 10
939.3802320246834
 20
919.9431080652072
 30
0.0
 10
939.5723683422597
 20
916.9338703898172
 30
0.0
 10
939.642955939765
 20
912.7239476071429
 30
0.0
 10
939.2868208277494
 20
907.1387156922306
 30
0.0
 10
938.062088576649
 20
900.331700349063
 30
0.0
 10
936.0864674729754
 20
893.5687663626958
 30
0.0
 10
934.111804251575
 20
889.2794062657962
 30
0.0
 10
933.1185879287525
 20
887.1219434556657
 30
0.0
  0
SPLINE
  5
123
330
1F
100
AcDbEntity
  8
0
  6
Continuous
 62
     7
370
    35
100
AcDbSpline
210
0.0
220
0.0
230
1.0
 70
     8
 71
     3
 72
    14
 73
    10
 74
     0
 42
0.000000001
 43
0.00000001
 40
0.0
 40
0.0
 40
0.0
 40
0.0
 40
0.149783668612061
 40
0.3039196252157187
 40
0.4537011504976905
 40
0.6078080467552888
 40
0.7579336470893823
 40
0.9123689205877178
 40
1.0
 40
1.0
 40
1.0
 40
1.0
 10
933.1185879287525
 20
887.1219434556657
 30
0.0
 10
932.7097409159157
 20
886.396830246851
 30
0.0
 10
931.8801669572638
 20
884.9255340988528
 30
0.0
 10
930.1966328491665
 20
883.0310942233788
 30
0.0
 10
928.2265244166268
 20
881.4146150692412
 30
0.0
 10
926.0252083205331
 20
880.1645449757916
 30
0.0
 10
923.6246504140586
 20
879.296643280972
 30
0.0
 10
921.4741362032427
 20
878.8885282065274
 30
0.0
 10
920.1316156038829
 20
878.8499151290838
 30
0.0
 10
919.6456061777873
 20
878.8359367069895
 30
0.0
  0
SPLINE
  5
124
330
1F
100
AcDbEntity
  8
0
  6
Continuous
 62
     7
370
    35
100
AcDbSpline
210
0.0
220
0.0
230
1.0
 70
    24
 71
     3
 72
    19
 73
    15
 74
     0
 42
0.000000001
 43
0.00000001
 40
0.0
 40
0.0
 40
0.0
 40
0.0
 40
0.0339064754658881
 40
0.083137284301508
 40
0.1338840045481532
 40
0.1782456276880714
 40
0.2236321048746753
 40
0.2641259772318301
 40
0.3055570566153724
 40
0.3459382528249342
 40
0.3876378603002769
 40
0.551087820254322
 40
0.7146159546590384
 40
1.0
 40
1.0
 40
1.0
 40
1.0
 10
919.6456061777873
 20
878.8359367069895
 30
0.0
 10
919.5050220355793
 20
878.8359367069895
 30
0.0
 10
919.1603154968298
 20
878.8359367069895
 30
0.0
 10
917.9720424459936
 20
878.8359367069895
 30
0.0
 10
916.1273282841021
 20
878.8359367069895
 30
0.0
 10
913.8280550544415
 20
878.8359367069895
 30
0.0
 10
911.3141930470662
 20
878.8359367069895
 30
0.0
 10
908.5414838796017
 20
878.8359367069894
 30
0.0
 10
905.6244452771831
 20
878.8359367069895
 30
0.0
 10
902.4770345903281
 20
878.8359367069895
 30
0.0
 10
895.9749875925655
 20
878.8359367069895
 30
0.0
 10
886.2283010516102
 20
878.8359367069895
 30
0.0
 10
870.022154045713
 20
878.8359367069895
 30
0.0
 10
858.1476974396837
 20
878.8359367069895
 30
0.0
 10
850.598825710754
 20
878.8359367069895
 30
0.0
  0
SPLINE
  5
125
330
1F
100
AcDbEntity
  8
0
  6
Continuous
 62
     7
370
    35
100
AcDbSpline
210
0.0
220
0.0
230
1.0
 70
    24
 71
     3
 72
    14
 73
    10
 74
     0
 42
0.000000001
 43
0.00000001
 40
0.0
 40
0.0
 40
0.0
 40
0.0
 40
0.1497801538720369
 40
0.2995602261094708
 40
0.4493411851435647
 40
0.5991217951212968
 40
0.7488862572835825
 40
0.8986505743587129
 40
0.9999999999999999
 40
0.9999999999999999
 40
0.9999999999999999
 40
0.9999999999999999
 10
850.598825710754
 20
878.8359367069895
 30
0.0
 10
850.598825710754
 20
878.8779741890876
 30
0.0
 10
850.598825710754
 20
878.9620491303721
 30
0.0
 10
850.598825710754
 20
879.618322289531
 30
0.0
 10
850.598825710754
 20
880.6556580317954
 30
0.0
 10
850.598825710754
 20
882.0672915808118
 30
0.0
 10
850.598825710754
 20
883.8203680355534
 30
0.0
 10
850.598825710754
 20
885.6251088845428
 30
0.0
 10
850.598825710754
 20
886.8808618297751
 30
0.0
 10
850.598825710754
 20
887.3876833138163
 30
0.0
  0
SPLINE
  5
126
330
1F
100
AcDbEntity
  8
0
  6
Continuous
 62
     7
370
    35
100
AcDbSpline
210
0.0
220
0.0
230
1.0
 70
    24
 71
     3
 72
    19
 73
    15
 74
     0
 42
0.000000001
 43
0.00000001
 40
0.0
 40
0.0
 40
0.0
 40
0.0
 40
0.0339081917474718
 40
0.0838891026200923
 40
0.1338856223591217
 40
0.1787639237443625
 40
0.2236368496494366
 40
0.2646138200241702
 40
0.3055643974088321
 40
0.3465596405910571
 40
0.3876060104033746
 40
0.551099984132816
 40
0.714601509059062
 40
1.0
 40
1.0
 40
1.0
 40
1.0
 10
781.5520452437206
 20
878.8359367069895
 30
0.0
 10
781.6924729675056
 20
878.8359367069895
 30
0.0
 10
782.0398921345032
 20
878.8359367069895
 30
0.0
 10
783.2377788869454
 20
878.8359367069895
 30
0.0
 10
785.087964412561
 20
878.8359367069894
 30
0.0
 10
787.3803221031768
 20
878.8359367069895
 30
0.0
 10
789.9032114784965
 20
878.8359367069894
 30
0.0
 10
792.6688298798831
 20
878.8359367069895
 30
0.0
 10
795.5976200778375
 20
878.8359367069894
 30
0.0
 10
798.7440640196775
 20
878.8359367069895
 30
0.0
 10
805.2349201840875
 20
878.8359367069894
 30
0.0
 10
814.9725300056333
 20
878.8359367069895
 30
0.0
 10
831.1753356749665
 20
878.8359367069895
 30
0.0
 10
843.049532482423
 20
878.8359367069895
 30
0.0
 10
850.598825710754
 20
878.8359367069895
 30
0.0
  0
LINE
  5
127
330
1F
100
AcDbEntity
  8
0
  6
Continuous
 62
     7
370
    35
100
AcDbLine
 10
768.5988234458
 20
928.1347353724
 30
0.0
 11
768.5988234458
 21
936.2392795053
 31
0.0
  0
SPLINE
  5
128
330
1F
100
AcDbEntity
  8
0
  6
Continuous
 62
     7
370
    35
100
AcDbSpline
210
0.0
220
0.0
230
1.0
 70
    24
 71
     3
 72
    10
 73
     6
 74
     0
 42
0.000000001
 43
0.00000001
 40
0.0
 40
0.0
 40
0.0
 40
0.0
 40
0.4974535912296388
 40
0.812500643757385
 40
0.9999999999999999
 40
0.9999999999999999
 40
0.9999999999999999
 40
0.9999999999999999
 10
768.5988234457775
 20
936.2392795053418
 30
0.0
 10
768.5988234457775
 20
937.2377844325558
 30
0.0
 10
768.5988234457775
 20
938.8686619866829
 30
0.0
 10
768.5988234457775
 20
941.0586217683765
 30
0.0
 10
768.5988234457775
 20
941.3547289654418
 30
0.0
 10
768.5988234457775
 20
941.4652061429912
 30
0.0
  0
SPLINE
  5
129
330
1F
100
AcDbEntity
  8
0
  6
Continuous
 62
     7
370
    35
100
AcDbSpline
210
0.0
220
0.0
230
1.0
 70
     8
 71
     3
 72
     9
 73
     5
 74
     0
 42
0.000000001
 43
0.00000001
 40
0.0
 40
0.0
 40
0.0
 40
0.0
 40
0.9381171144761151
 40
1.0
 40
1.0
 40
1.0
 40
1.0
 10
769.0603571114344
 20
944.7612601113611
 30
0.0
 10
768.839421781306
 20
943.7365650608216
 30
0.0
 10
768.6039124544646
 20
942.6442760121223
 30
0.0
 10
768.5991200157159
 20
941.5339182832196
 30
0.0
 10
768.5988234457775
 20
941.4652061429912
 30
0.0
  0
LINE
  5
12A
330
1F
100
AcDbEntity
  8
0
  6
Continuous
 62
     7
370
    35
100
AcDbLine
 10
769.7988288579
 20
952.3359378115
 30
0.0
 11
797.5988263366
 21
952.3359378115
 31
0.0
  0
LINE
  5
12B
330
1F
100
AcDbEntity
  8
0
  6
Continuous
 62
     7
370
    35
100
AcDbLine
 10
931.3988225636
 20
952.3359378115
 30
0.0
 11
903.5988250849
 21
952.3359378115
 31
0.0
  0
LINE
  5
12C
330
1F
100
AcDbEntity
  8
0
  6
Continuous
 62
     7
370
    35
100
AcDbLine
 10
763.5988282141
 20
928.8859382984
 30
0.0
 11
763.5988282141
 21
878.7859358606
 31
0.0
  0
LINE
  5
12D
330
1F
100
AcDbEntity
  8
0
  6
Continuous
 62
     7
370
    35
100
AcDbLine
 10
715.0988267836
 20
927.8359372881
 30
0.0
 11
715.0988267836
 21
879.8359387335
 31
0.0
  0
ARC
  5
12E
330
1F
100
AcDbEntity
  8
0
  6
Continuous
 62
     7
370
    35
100
AcDbCircle
 10
1141.5988257108
 20
971.2855378565
 30
0.0
 40
1.0
100
AcDbArc
 50
90.0
 51
180.0
  0
ARC
  5
12F
330
1F
100
AcDbEntity
  8
0
  6
Continuous
 62
     7
370
    35
100
AcDbCircle
 10
1141.5988257108
 20
971.2855378565
 30
0.0
 40
1.0
100
AcDbArc
 50
0.0
 51
90.0
  0
LINE
  5
130
330
1F
100
AcDbEntity
  8
0
  6
Continuous
 62
     7
370
    35
100
AcDbLine
 10
1140.5988173661
 20
971.2855384466
 30
0.0
 11
1140.5988173661
 21
961.2855377388
 31
0.0
  0
LINE
  5
131
330
1F
100
AcDbEntity
  8
0
  6
Continuous
 62
     7
370
    35
100
AcDbLine
 10
1142.5988214192
 20
971.2855384466
 30
0.0
 11
1142.5988214192
 21
960.2855380406
 31
0.0
  0
LINE
  5
132
330
1F
100
AcDbEntity
  8
0
  6
Continuous
 62
     7
370
    35
100
AcDbLine
 10
1140.5988173661
 20
951.7470627804
 30
0.0
 11
1140.5988173661
 21
953.5596783287
 31
0.0
  0
LINE
  5
133
330
1F
100
AcDbEntity
  8
0
  6
Continuous
 62
     7
370
    35
100
AcDbLine
 10
1142.5988214192
 20
953.5596783287
 30
0.0
 11
1142.5988214192
 21
951.7470627804
 31
0.0
  0
LINE
  5
134
330
1F
100
AcDbEntity
  8
0
  6
Continuous
 62
     7
370
    35
100
AcDbLine
 10
1140.5988173661
 20
957.1875221343
 30
0.0
 11
1140.5988173661
 21
953.5596783287
 31
0.0
  0
LINE
  5
135
330
1F
100
AcDbEntity
  8
0
  6
Continuous
 62
     7
370
    35
100
AcDbLine
 10
1142.5988214192
 20
959.2855378767
 30
0.0
 11
1142.5988214192
 21
953.5596783287
 31
0.0
  0
LINE
  5
136
330
1F
100
AcDbEntity
  8
0
  6
Continuous
 62
     7
370
    35
100
AcDbLine
 10
1140.5988173661
 20
951.7470627804
 30
0.0
 11
1140.5988173661
 21
944.4887635079
 31
0.0
  0
LINE
  5
137
330
1F
100
AcDbEntity
  8
0
  6
Continuous
 62
     7
370
    35
100
AcDbLine
 10
1142.5988214192
 20
951.7470627804
 30
0.0
 11
1142.5988214192
 21
944.4887635079
 31
0.0
  0
LINE
  5
138
330
1F
100
AcDbEntity
  8
0
  6
Continuous
 62
     7
370
    35
100
AcDbLine
 10
1140.5988173661
 20
942.6761480761
 30
0.0
 11
1140.5988173661
 21
944.4887635079
 31
0.0
  0
LINE
  5
139
330
1F
100
AcDbEntity
  8
0
  6
Continuous
 62
     7
370
    35
100
AcDbLine
 10
1142.5988214192
 20
944.4887635079
 30
0.0
 11
1142.5988214192
 21
942.6761480761
 31
0.0
  0
LINE
  5
13A
330
1F
100
AcDbEntity
  8
0
  6
Continuous
 62
     7
370
    35
100
AcDbLine
 10
1140.5988173661
 20
942.6761480761
 30
0.0
 11
1140.5988173661
 21
908.3855391261
 31
0.0
  0
LINE
  5
13B
330
1F
100
AcDbEntity
  8
0
  6
Continuous
 62
     7
370
    35
100
AcDbLine
 10
1142.5988214192
 20
942.6761480761
 30
0.0
 11
1142.5988214192
 21
908.3855391261
 31
0.0
  0
LINE
  5
13C
330
1F
100
AcDbEntity
  8
0
  6
Continuous
 62
     7
370
    35
100
AcDbLine
 10
1142.5988214192
 20
906.3855387983
 30
0.0
 11
1140.5988173661
 21
906.3855387983
 31
0.0
  0
LINE
  5
13D
330
1F
100
AcDbEntity
  8
0
  6
Continuous
 62
     7
370
    35
100
AcDbLine
 10
1140.5988173661
 20
906.3855387983
 30
0.0
 11
1140.5988173661
 21
908.3855391261
 31
0.0
  0
LINE
  5
13E
330
1F
100
AcDbEntity
  8
0
  6
Continuous
 62
     7
370
    35
100
AcDbLine
 10
1142.5988214192
 20
908.3855391261
 30
0.0
 11
1142.5988214192
 21
906.3855387983
 31
0.0
  0
ARC
  5
13F
330
1F
100
AcDbEntity
  8
0
  6
Continuous
 62
     7
370
    35
100
AcDbCircle
 10
559.5988257108
 20
971.2855378565
 30
0.0
 40
1.0
100
AcDbArc
 50
0.0
 51
90.0
  0
LINE
  5
140
330
1F
100
AcDbEntity
  8
0
  6
Continuous
 62
     7
370
    35
100
AcDbLine
 10
558.5988300023
 20
971.2855384466
 30
0.0
 11
558.5988300023
 21
960.2855380406
 31
0.0
  0
LINE
  5
141
330
1F
100
AcDbEntity
  8
0
  6
Continuous
 62
     7
370
    35
100
AcDbLine
 10
560.5988340554
 20
971.2855384466
 30
0.0
 11
560.5988340554
 21
961.2855377388
 31
0.0
  0
ARC
  5
142
330
1F
100
AcDbEntity
  8
0
  6
Continuous
 62
     7
370
    35
100
AcDbCircle
 10
559.5988257108
 20
971.2855378565
 30
0.0
 40
1.0
100
AcDbArc
 50
90.0
 51
180.0
  0
LINE
  5
143
330
1F
100
AcDbEntity
  8
0
  6
Continuous
 62
     7
370
    35
100
AcDbLine
 10
558.5988300023
 20
959.2855378767
 30
0.0
 11
558.5988300023
 21
953.5596783287
 31
0.0
  0
LINE
  5
144
330
1F
100
AcDbEntity
  8
0
  6
Continuous
 62
     7
370
    35
100
AcDbLine
 10
560.5988340554
 20
957.1875221343
 30
0.0
 11
560.5988340554
 21
953.5596783287
 31
0.0
  0
LINE
  5
145
330
1F
100
AcDbEntity
  8
0
  6
Continuous
 62
     7
370
    35
100
AcDbLine
 10
558.5988300023
 20
951.7470627804
 30
0.0
 11
558.5988300023
 21
953.5596783287
 31
0.0
  0
LINE
  5
146
330
1F
100
AcDbEntity
  8
0
  6
Continuous
 62
     7
370
    35
100
AcDbLine
 10
560.5988340554
 20
953.5596783287
 30
0.0
 11
560.5988340554
 21
951.7470627804
 31
0.0
  0
LINE
  5
147
330
1F
100
AcDbEntity
  8
0
  6
Continuous
 62
     7
370
    35
100
AcDbLine
 10
558.5988300023
 20
951.7470627804
 30
0.0
 11
558.5988300023
 21
944.4887635079
 31
0.0
  0
LINE
  5
148
330
1F
100
AcDbEntity
  8
0
  6
Continuous
 62
     7
370
    35
100
AcDbLine
 10
560.5988340554
 20
951.7470627804
 30
0.0
 11
560.5988340554
 21
944.4887635079
 31
0.0
  0
LINE
  5
149
330
1F
100
AcDbEntity
  8
0
  6
Continuous
 62
     7
370
    35
100
AcDbLine
 10
558.5988300023
 20
942.6761480761
 30
0.0
 11
558.5988300023
 21
944.4887635079
 31
0.0
  0
LINE
  5
14A
330
1F
100
AcDbEntity
  8
0
  6
Continuous
 62
     7
370
    35
100
AcDbLine
 10
560.5988340554
 20
944.4887635079
 30
0.0
 11
560.5988340554
 21
942.6761480761
 31
0.0
  0
LINE
  5
14B
330
1F
100
AcDbEntity
  8
0
  6
Continuous
 62
     7
370
    35
100
AcDbLine
 10
558.5988300023
 20
942.6761480761
 30
0.0
 11
558.5988300023
 21
908.3855391261
 31
0.0
  0
LINE
  5
14C
330
1F
100
AcDbEntity
  8
0
  6
Continuous
 62
     7
370
    35
100
AcDbLine
 10
560.5988340554
 20
942.6761480761
 30
0.0
 11
560.5988340554
 21
908.3855391261
 31
0.0
  0
LINE
  5
14D
330
1F
100
AcDbEntity
  8
0
  6
Continuous
 62
     7
370
    35
100
AcDbLine
 10
560.5988340554
 20
906.3855387983
 30
0.0
 11
558.5988300023
 21
906.3855387983
 31
0.0
  0
LINE
  5
14E
330
1F
100
AcDbEntity
  8
0
  6
Continuous
 62
     7
370
    35
100
AcDbLine
 10
558.5988300023
 20
906.3855387983
 30
0.0
 11
558.5988300023
 21
908.3855391261
 31
0.0
  0
LINE
  5
14F
330
1F
100
AcDbEntity
  8
0
  6
Continuous
 62
     7
370
    35
100
AcDbLine
 10
560.5988340554
 20
908.3855391261
 30
0.0
 11
560.5988340554
 21
906.3855387983
 31
0.0
  0
LINE
  5
150
330
1F
100
AcDbEntity
  8
0
  6
Continuous
 62
     7
370
    35
100
AcDbLine
 10
560.5988340554
 20
959.2855378767
 30
0.0
 11
538.0988257108
 21
959.2855378767
 31
0.0
  0
LINE
  5
151
330
1F
100
AcDbEntity
  8
0
  6
Continuous
 62
     7
370
    35
100
AcDbLine
 10
560.5988340554
 20
960.2855380406
 30
0.0
 11
538.0988257108
 21
960.2855380406
 31
0.0
  0
LINE
  5
152
330
1F
100
AcDbEntity
  8
0
  6
Continuous
 62
     7
370
    35
100
AcDbLine
 10
528.0988352475
 20
959.2855378767
 30
0.0
 11
528.0988352475
 21
960.2855380406
 31
0.0
  0
LINE
  5
153
330
1F
100
AcDbEntity
  8
0
  6
Continuous
 62
     7
370
    35
100
AcDbLine
 10
538.0988257108
 20
959.2855378767
 30
0.0
 11
528.0988352475
 21
959.2855378767
 31
0.0
  0
LINE
  5
154
330
1F
100
AcDbEntity
  8
0
  6
Continuous
 62
     7
370
    35
100
AcDbLine
 10
528.0988352475
 20
960.2855380406
 30
0.0
 11
538.0988257108
 21
960.2855380406
 31
0.0
  0
LINE
  5
155
330
1F
100
AcDbEntity
  8
0
  6
Continuous
 62
     7
370
    35
100
AcDbLine
 10
558.4988134084
 20
960.2855380406
 30
0.0
 11
558.4988134084
 21
961.2855377388
 31
0.0
  0
LINE
  5
156
330
1F
100
AcDbEntity
  8
0
  6
Continuous
 62
     7
370
    35
100
AcDbLine
 10
528.0988352475
 20
961.2855377388
 30
0.0
 11
528.0988352475
 21
960.2855380406
 31
0.0
  0
LINE
  5
157
330
1F
100
AcDbEntity
  8
0
  6
Continuous
 62
     7
370
    35
100
AcDbLine
 10
528.0988352475
 20
993.0855386672
 30
0.0
 11
528.0988352475
 21
961.2855377388
 31
0.0
  0
ARC
  5
158
330
1F
100
AcDbEntity
  8
0
  6
Continuous
 62
     7
370
    35
100
AcDbCircle
 10
538.0988257108
 20
993.0855378565
 30
0.0
 40
10.0
100
AcDbArc
 50
90.0
 51
180.0
  0
LINE
  5
159
330
1F
100
AcDbEntity
  8
0
  6
Continuous
 62
     7
370
    35
100
AcDbLine
 10
560.5988340554
 20
1003.085536581
 30
0.0
 11
538.0988257108
 21
1003.085536581
 31
0.0
  0
LINE
  5
15A
330
1F
100
AcDbEntity
  8
0
  6
Continuous
 62
     7
370
    35
100
AcDbLine
 10
560.5988340554
 20
1002.7855389533
 30
0.0
 11
560.5988340554
 21
1003.085536581
 31
0.0
  0
LINE
  5
15B
330
1F
100
AcDbEntity
  8
0
  6
Continuous
 62
     7
370
    35
100
AcDbLine
 10
558.4988134084
 20
972.6355370847
 30
0.0
 11
560.5988340554
 21
972.6355370847
 31
0.0
  0
LINE
  5
15C
330
1F
100
AcDbEntity
  8
0
  6
Continuous
 62
     7
370
    35
100
AcDbLine
 10
558.4988134084
 20
961.2855377388
 30
0.0
 11
558.4988134084
 21
972.6355370847
 31
0.0
  0
LINE
  5
15D
330
1F
100
AcDbEntity
  8
0
  6
Continuous
 62
     7
370
    35
100
AcDbLine
 10
1140.5988173661
 20
959.2855378767
 30
0.0
 11
1163.0988257108
 21
959.2855378767
 31
0.0
  0
LINE
  5
15E
330
1F
100
AcDbEntity
  8
0
  6
Continuous
 62
     7
370
    35
100
AcDbLine
 10
1140.5988173661
 20
960.2855380406
 30
0.0
 11
1163.0988257108
 21
960.2855380406
 31
0.0
  0
LINE
  5
15F
330
1F
100
AcDbEntity
  8
0
  6
Continuous
 62
     7
370
    35
100
AcDbLine
 10
1173.098816174
 20
960.2855380406
 30
0.0
 11
1173.098816174
 21
959.2855378767
 31
0.0
  0
LINE
  5
160
330
1F
100
AcDbEntity
  8
0
  6
Continuous
 62
     7
370
    35
100
AcDbLine
 10
1173.098816174
 20
959.2855378767
 30
0.0
 11
1163.0988257108
 21
959.2855378767
 31
0.0
  0
LINE
  5
161
330
1F
100
AcDbEntity
  8
0
  6
Continuous
 62
     7
370
    35
100
AcDbLine
 10
1163.0988257108
 20
960.2855380406
 30
0.0
 11
1173.098816174
 21
960.2855380406
 31
0.0
  0
LINE
  5
162
330
1F
100
AcDbEntity
  8
0
  6
Continuous
 62
     7
370
    35
100
AcDbLine
 10
1142.6988380132
 20
960.2855380406
 30
0.0
 11
1142.6988380132
 21
961.2855377388
 31
0.0
  0
LINE
  5
163
330
1F
100
AcDbEntity
  8
0
  6
Continuous
 62
     7
370
    35
100
AcDbLine
 10
1173.098816174
 20
960.2855380406
 30
0.0
 11
1173.098816174
 21
961.2855377388
 31
0.0
  0
LINE
  5
164
330
1F
100
AcDbEntity
  8
0
  6
Continuous
 62
     7
370
    35
100
AcDbLine
 10
1140.5988173661
 20
1002.7855389533
 30
0.0
 11
1140.5988173661
 21
1003.085536581
 31
0.0
  0
LINE
  5
165
330
1F
100
AcDbEntity
  8
0
  6
Continuous
 62
     7
370
    35
100
AcDbLine
 10
1140.5988173661
 20
1003.085536581
 30
0.0
 11
1163.0988257108
 21
1003.085536581
 31
0.0
  0
ARC
  5
166
330
1F
100
AcDbEntity
  8
0
  6
Continuous
 62
     7
370
    35
100
AcDbCircle
 10
1163.0988257108
 20
993.0855378565
 30
0.0
 40
10.0
100
AcDbArc
 50
0.0
 51
90.0
  0
LINE
  5
167
330
1F
100
AcDbEntity
  8
0
  6
Continuous
 62
     7
370
    35
100
AcDbLine
 10
1173.098816174
 20
993.0855386672
 30
0.0
 11
1173.098816174
 21
961.2855377388
 31
0.0
  0
LINE
  5
168
330
1F
100
AcDbEntity
  8
0
  6
Continuous
 62
     7
370
    35
100
AcDbLine
 10
1142.6988380132
 20
972.6355370847
 30
0.0
 11
1142.6988380132
 21
961.2855377388
 31
0.0
  0
LINE
  5
169
330
1F
100
AcDbEntity
  8
0
  6
Continuous
 62
     7
370
    35
100
AcDbLine
 10
1142.6988380132
 20
972.6355370847
 30
0.0
 11
1140.5988173661
 21
972.6355370847
 31
0.0
  0
LINE
  5
16A
330
1F
100
AcDbEntity
  8
0
  6
Continuous
 62
     8
370
    18
100
AcDbLine
 10
1140.5988173661
 20
961.2855377388
 30
0.0
 11
560.5988340554
 21
961.2855377388
 31
0.0
  0
LINE
  5
16B
330
1F
100
AcDbEntity
  8
0
  6
Continuous
 62
     8
370
    18
100
AcDbLine
 10
560.5988340554
 20
970.7855374334
 30
0.0
 11
1140.5988173661
 21
970.7855374334
 31
0.0
  0
LINE
  5
16C
330
1F
100
AcDbEntity
  8
0
  6
Continuous
 62
     8
370
    18
100
AcDbLine
 10
560.5988340554
 20
955.9506730191
 30
0.0
 11
1140.5988173661
 21
955.9506730191
 31
0.0
  0
LINE
  5
16D
330
1F
100
AcDbEntity
  8
0
  6
Continuous
 62
     8
370
    18
100
AcDbLine
 10
560.5988340554
 20
957.9474564423
 30
0.0
 11
1140.5988173661
 21
957.9474564423
 31
0.0
  0
LINE
  5
16E
330
1F
100
AcDbEntity
  8
0
  6
Continuous
 62
     8
370
    18
100
AcDbLine
 10
560.5988340554
 20
954.190365436
 30
0.0
 11
767.6396506009
 21
954.190365436
 31
0.0
  0
LINE
  5
16F
330
1F
100
AcDbEntity
  8
0
  6
Continuous
 62
     8
370
    18
100
AcDbLine
 10
933.5580008206
 20
954.190365436
 30
0.0
 11
1140.5988173661
 21
954.190365436
 31
0.0
  0
SPLINE
  5
170
330
1F
100
AcDbEntity
  8
0
  6
Continuous
 62
     8
370
    18
100
AcDbSpline
210
0.0
220
0.0
230
1.0
 70
     8
 71
     3
 72
    10
 73
     6
 74
     0
 42
0.000000001
 43
0.00000001
 40
0.0
 40
0.0
 40
0.0
 40
0.0
 40
0.5
 40
0.5
 40
1.0
 40
1.0
 40
1.0
 40
1.0
 10
909.9149378178494
 20
953.840721433321
 30
0.0
 10
908.875894135091
 20
953.8553585692646
 30
0.0
 10
907.8302818143867
 20
953.889828546417
 30
0.0
 10
905.7251553795602
 20
953.9428521528133
 30
0.0
 10
904.6656379680988
 20
953.961304769375
 30
0.0
 10
903.5988257107546
 20
953.961304769375
 30
0.0
  0
LINE
  5
171
330
1F
100
AcDbEntity
  8
0
  6
Continuous
 62
     8
370
    18
100
AcDbLine
 10
903.5988250849
 20
953.9613047862
 30
0.0
 11
903.5988250849
 21
955.8501102044
 31
0.0
  0
ARC
  5
172
330
1F
100
AcDbEntity
  8
0
  6
Continuous
 62
     8
370
    18
100
AcDbCircle
 10
912.8790154436
 20
954.2296670324
 30
0.0
 40
2.989485916018092
100
AcDbArc
 50
147.5231259254
 51
187.4756313101
  0
SPLINE
  5
173
330
1F
100
AcDbEntity
  8
0
  6
Continuous
 62
     8
370
    18
100
AcDbSpline
210
0.0
220
0.0
230
1.0
 70
     8
 71
     3
 72
    10
 73
     6
 74
     0
 42
0.000000001
 43
0.00000001
 40
0.0
 40
0.0
 40
0.0
 40
0.0
 40
0.5
 40
0.5
 40
1.0
 40
1.0
 40
1.0
 40
1.0
 10
797.598825710754
 20
953.9613047693343
 30
0.0
 10
796.53201345341
 20
953.9613047693343
 30
0.0
 10
795.472496041948
 20
953.9428521528133
 30
0.0
 10
793.3673696071214
 20
953.8898285464171
 30
0.0
 10
792.3217572864169
 20
953.8553585692966
 30
0.0
 10
791.2827136036586
 20
953.840721433353
 30
0.0
  0
ARC
  5
174
330
1F
100
AcDbEntity
  8
0
  6
Continuous
 62
     8
370
    18
100
AcDbCircle
 10
788.3186359779
 20
954.2296670324
 30
0.0
 40
2.98948591601798
100
AcDbArc
 50
352.5243686899
 51
32.4768740746
  0
LINE
  5
175
330
1F
100
AcDbEntity
  8
0
  6
Continuous
 62
     8
370
    18
100
AcDbLine
 10
797.5988263366
 20
953.9613047862
 30
0.0
 11
797.5988263366
 21
955.8501102044
 31
0.0
  0
LINE
  5
176
330
1F
100
AcDbEntity
  8
0
  6
Continuous
 62
     8
370
    18
100
AcDbLine
 10
903.5988250849
 20
953.9613047862
 30
0.0
 11
797.5988263366
 21
953.9613047862
 31
0.0
  0
ELLIPSE
  5
177
330
1F
100
AcDbEntity
  8
0
  6
Continuous
 62
     8
370
    18
100
AcDbEllipse
 10
903.5988257108
 20
952.1811050955
 30
0.0
 11
28.0
 21
0.0
 31
0.0
210
0.0
220
0.0
230
1.0
 40
0.0608401234
 41
0.0075591103181338
 42
1.343262674821335
  0
ARC
  5
178
330
1F
100
AcDbEntity
  8
0
  6
Continuous
 62
     8
370
    18
100
AcDbCircle
 10
933.5973248738
 20
952.1914384706
 30
0.0
 40
1.999297754846952
100
AcDbArc
 50
91.1268059521
 51
179.9271038471
  0
ELLIPSE
  5
179
330
1F
100
AcDbEntity
  8
0
  6
Continuous
 62
     8
370
    18
100
AcDbEllipse
 10
797.5988257108
 20
952.1811050955
 30
0.0
 11
28.0
 21
0.0
 31
0.0
210
0.0
220
0.0
230
1.0
 40
0.0608401234
 41
1.798329978768459
 42
3.134033543271658
  0
ARC
  5
17A
330
1F
100
AcDbEntity
  8
0
  6
Continuous
 62
     8
370
    18
100
AcDbCircle
 10
767.6003265477
 20
952.1914384706
 30
0.0
 40
1.999297754847066
100
AcDbArc
 50
0.0728961529
 51
88.8731940479
  0
LINE
  5
17B
330
1F
100
AcDbEntity
  8
0
  6
Continuous
 62
     8
370
    18
100
AcDbLine
 10
797.5988263366
 20
953.9613047862
 30
0.0
 11
797.5988263366
 21
949.2859376376
 31
0.0
  0
LINE
  5
17C
330
1F
100
AcDbEntity
  8
0
  6
Continuous
 62
     8
370
    18
100
AcDbLine
 10
903.5988250849
 20
953.9613047862
 30
0.0
 11
903.5988250849
 21
949.2859376376
 31
0.0
  0
LINE
  5
17D
330
1F
100
AcDbEntity
  8
0
  6
Continuous
 62
     8
370
    18
100
AcDbLine
 10
1140.5988173661
 20
973.2855387745
 30
0.0
 11
560.5988340554
 21
973.2855387745
 31
0.0
  0
SPLINE
  5
17E
330
1F
100
AcDbEntity
  8
0
  6
Continuous
 62
     8
370
    18
100
AcDbSpline
210
0.0
220
0.0
230
1.0
 70
     8
 71
     3
 72
    14
 73
    10
 74
     0
 42
0.000000001
 43
0.00000001
 40
0.0
 40
0.0
 40
0.0
 40
0.0
 40
0.0588512801908236
 40
0.1869564716977331
 40
0.3150725488062315
 40
0.5223731644850174
 40
0.7296023475414677
 40
0.9289206000644534
 40
1.0
 40
1.0
 40
1.0
 40
1.0
 10
886.1395144936844
 20
926.0451567140514
 30
0.0
 10
886.1398432105982
 20
925.3232926071157
 30
0.0
 10
886.140887465782
 20
923.0301026197384
 30
0.0
 10
886.1440590673236
 20
919.1036960875064
 30
0.0
 10
886.145303962832
 20
913.2770806950102
 30
0.0
 10
886.1392425081353
 20
906.4126421052484
 30
0.0
 10
886.1362288451546
 20
898.7350077970232
 30
0.0
 10
886.1381862125609
 20
892.9250441540484
 30
0.0
 10
886.1382144065897
 20
889.7736961756065
 30
0.0
 10
886.1382218179507
 20
888.9453016934092
 30
0.0
  0
ARC
  5
17F
330
1F
100
AcDbEntity
  8
0
  6
Continuous
 62
     8
370
    18
100
AcDbCircle
 10
884.3092835206
 20
882.8878828937
 30
0.0
 40
6.32750644496002
100
AcDbArc
 50
73.1991700948
 51
90.5529576484
  0
SPLINE
  5
180
330
1F
100
AcDbEntity
  8
0
  6
Continuous
 62
     8
370
    18
100
AcDbSpline
210
0.0
220
0.0
230
1.0
 70
     8
 71
     3
 72
    14
 73
    10
 74
     0
 42
0.000000001
 43
0.00000001
 40
0.0
 40
0.0
 40
0.0
 40
0.0
 40
0.0706477645237298
 40
0.2691527303356266
 40
0.4765522583879425
 40
0.6841219556638535
 40
0.812686225694961
 40
0.9412264939821345
 40
1.0
 40
1.0
 40
1.0
 40
1.0
 10
884.248218136768
 20
889.2150946674043
 30
0.0
 10
884.249706196309
 20
890.0274965354564
 30
0.0
 10
884.2553753818959
 20
893.1225722592256
 30
0.0
 10
884.1754845756589
 20
898.8664120439773
 30
0.0
 10
884.0531471777882
 20
906.4572011063791
 30
0.0
 10
883.9895843650933
 20
913.2420145757017
 30
0.0
 10
884.0112171270457
 20
919.0093520818821
 30
0.0
 10
884.0577384687383
 20
922.9028407690859
 30
0.0
 10
884.0930172272017
 20
925.1786694266164
 30
0.0
 10
884.1040866551205
 20
925.8927569505864
 30
0.0
  0
ARC
  5
181
330
1F
100
AcDbEntity
  8
0
  6
Continuous
 62
     8
370
    18
100
AcDbCircle
 10
884.365595328
 20
936.0687179818
 30
0.0
 40
10.17932068928659
100
AcDbArc
 50
268.5278986349
 51
280.0360019381
  0
SPLINE
  5
182
330
1F
100
AcDbEntity
  8
0
  6
Continuous
 62
     8
370
    18
100
AcDbSpline
210
0.0
220
0.0
230
1.0
 70
     8
 71
     3
 72
    14
 73
    10
 74
     0
 42
0.000000001
 43
0.00000001
 40
0.0
 40
0.0
 40
0.0
 40
0.0
 40
0.2078014426783382
 40
0.4196955444131591
 40
0.5448233827954577
 40
0.6699515855363645
 40
0.7986972382145374
 40
0.9274421477625701
 40
1.0
 40
1.0
 40
1.0
 40
1.0
 10
887.4911503968044
 20
926.1937697199279
 30
0.0
 10
887.5213326309236
 20
923.6063766015158
 30
0.0
 10
887.5822915396635
 20
918.3806315371575
 30
0.0
 10
887.5706437943313
 20
911.4119608942484
 30
0.0
 10
887.5145391190966
 20
905.5358635712199
 30
0.0
 10
887.4599671830858
 20
900.7544960871702
 30
0.0
 10
887.4093779918273
 20
896.0073256456997
 30
0.0
 10
887.3821013915956
 20
892.0002173597371
 30
0.0
 10
887.3855752462134
 20
889.6303934495118
 30
0.0
 10
887.3868273672862
 20
888.776210766762
 30
0.0
  0
ARC
  5
183
330
1F
100
AcDbEntity
  8
0
  6
Continuous
 62
     8
370
    18
100
AcDbCircle
 10
887.3267585942
 20
893.0271873891
 30
0.0
 40
4.251401004490547
100
AcDbArc
 50
253.7658419904
 51
270.8095688217
  0
ARC
  5
184
330
1F
100
AcDbEntity
  8
0
  6
Continuous
 62
     8
370
    18
100
AcDbCircle
 10
887.4908494569
 20
919.9756332018
 30
0.0
 40
6.218136525368313
100
AcDbArc
 50
89.9972270494
 51
102.5517622912
  0
SPLINE
  5
185
330
1F
100
AcDbEntity
  8
0
  6
Continuous
 62
     8
370
    18
100
AcDbSpline
210
0.0
220
0.0
230
1.0
 70
     8
 71
     3
 72
    14
 73
    10
 74
     0
 42
0.000000001
 43
0.00000001
 40
0.0
 40
0.0
 40
0.0
 40
0.0
 40
0.0588512801908236
 40
0.1869564716977331
 40
0.3150725488062315
 40
0.5223731644850174
 40
0.7296023475414677
 40
0.9289206000644534
 40
1.0
 40
1.0
 40
1.0
 40
1.0
 10
815.0581369278235
 20
926.0451567140514
 30
0.0
 10
815.0578082109097
 20
925.3232926071157
 30
0.0
 10
815.0567639557258
 20
923.0301026197384
 30
0.0
 10
815.0535923541844
 20
919.1036960875064
 30
0.0
 10
815.052347458676
 20
913.2770806950102
 30
0.0
 10
815.0584089133727
 20
906.4126421052484
 30
0.0
 10
815.0614225763534
 20
898.7350077970232
 30
0.0
 10
815.0594652089471
 20
892.9250441540484
 30
0.0
 10
815.0594370149183
 20
889.7736961756065
 30
0.0
 10
815.0594296035572
 20
888.9453016934092
 30
0.0
  0
ARC
  5
186
330
1F
100
AcDbEntity
  8
0
  6
Continuous
 62
     8
370
    18
100
AcDbCircle
 10
813.8708928273
 20
893.0271873891
 30
0.0
 40
4.251401004488846
100
AcDbArc
 50
269.1904311783
 51
286.2341580096
  0
SPLINE
  5
187
330
1F
100
AcDbEntity
  8
0
  6
Continuous
 62
     8
370
    18
100
AcDbSpline
210
0.0
220
0.0
230
1.0
 70
     8
 71
     3
 72
    14
 73
    10
 74
     0
 42
0.000000001
 43
0.00000001
 40
0.0
 40
0.0
 40
0.0
 40
0.0
 40
0.2078014426783382
 40
0.4196955444131591
 40
0.5448233827954577
 40
0.6699515855363645
 40
0.7986972382145374
 40
0.9274421477625701
 40
1.0
 40
1.0
 40
1.0
 40
1.0
 10
813.7065010247036
 20
926.1937697199279
 30
0.0
 10
813.6763187905844
 20
923.6063766015158
 30
0.0
 10
813.6153598818445
 20
918.3806315371575
 30
0.0
 10
813.6270076271767
 20
911.4119608942484
 30
0.0
 10
813.6831123024114
 20
905.5358635712199
 30
0.0
 10
813.737684238422
 20
900.7544960871702
 30
0.0
 10
813.7882734296805
 20
896.0073256456997
 30
0.0
 10
813.8155500299124
 20
892.0002173597371
 30
0.0
 10
813.8120761752946
 20
889.6303934495118
 30
0.0
 10
813.8108240542217
 20
888.776210766762
 30
0.0
  0
ARC
  5
188
330
1F
100
AcDbEntity
  8
0
  6
Continuous
 62
     8
370
    18
100
AcDbCircle
 10
813.7068019646
 20
919.9756332018
 30
0.0
 40
6.218136525366491
100
AcDbArc
 50
77.4482377088
 51
90.0027729506
  0
SPLINE
  5
189
330
1F
100
AcDbEntity
  8
0
  6
Continuous
 62
     8
370
    18
100
AcDbSpline
210
0.0
220
0.0
230
1.0
 70
     8
 71
     3
 72
    14
 73
    10
 74
     0
 42
0.000000001
 43
0.00000001
 40
0.0
 40
0.0
 40
0.0
 40
0.0
 40
0.0706477645237298
 40
0.2691527303356266
 40
0.4765522583879425
 40
0.6841219556638535
 40
0.812686225694961
 40
0.9412264939821345
 40
1.0
 40
1.0
 40
1.0
 40
1.0
 10
816.94943328474
 20
889.2150946674043
 30
0.0
 10
816.9479452251989
 20
890.0274965354564
 30
0.0
 10
816.9422760396121
 20
893.1225722592256
 30
0.0
 10
817.0221668458491
 20
898.8664120439773
 30
0.0
 10
817.1445042437198
 20
906.4572011063791
 30
0.0
 10
817.2080670564147
 20
913.2420145757017
 30
0.0
 10
817.1864342944622
 20
919.0093520818821
 30
0.0
 10
817.1399129527697
 20
922.9028407690859
 30
0.0
 10
817.1046341943063
 20
925.1786694266164
 30
0.0
 10
817.0935647663875
 20
925.8927569505864
 30
0.0
  0
ARC
  5
18A
330
1F
100
AcDbEntity
  8
0
  6
Continuous
 62
     8
370
    18
100
AcDbCircle
 10
816.8883679009
 20
882.8878828937
 30
0.0
 40
6.327506444961251
100
AcDbArc
 50
89.4470423516
 51
106.8008299052
  0
ARC
  5
18B
330
1F
100
AcDbEntity
  8
0
  6
Continuous
 62
     8
370
    18
100
AcDbCircle
 10
816.8320560935
 20
936.0687179818
 30
0.0
 40
10.17932068928681
100
AcDbArc
 50
259.9639980619
 51
271.4721013651
  0
SPLINE
  5
18C
330
1F
100
AcDbEntity
  8
0
  6
Continuous
 62
     8
370
    18
100
AcDbSpline
210
0.0
220
0.0
230
1.0
 70
     8
 71
     3
 72
    14
 73
    10
 74
     0
 42
0.000000001
 43
0.00000001
 40
0.0
 40
0.0
 40
0.0
 40
0.0
 40
0.1296971036821296
 40
0.2603676130745293
 40
0.3857762900438513
 40
0.5111848432870525
 40
0.6402379574765267
 40
0.7692908175858975
 40
1.0
 40
1.0
 40
1.0
 40
1.0
 10
893.7298270044132
 20
888.776210766762
 30
0.0
 10
893.7309346812383
 20
890.3102645265635
 30
0.0
 10
893.7331583482502
 20
893.3898854620198
 30
0.0
 10
893.707757273598
 20
898.1310313929071
 30
0.0
 10
893.6769968362296
 20
902.902668902585
 30
0.0
 10
893.6464907805745
 20
907.717726491022
 30
0.0
 10
893.6252119007794
 20
912.6036737429727
 30
0.0
 10
893.6231336633404
 20
918.8325612205166
 30
0.0
 10
893.6530517741254
 20
923.3175950263034
 30
0.0
 10
893.6722377416893
 20
926.1937697199279
 30
0.0
  0
ARC
  5
18D
330
1F
100
AcDbEntity
  8
0
  6
Continuous
 62
     8
370
    18
100
AcDbCircle
 10
893.7111058615
 20
920.0968044443
 30
0.0
 40
6.097089166398124
100
AcDbArc
 50
77.1856558894
 51
90.3652553289
  0
SPLINE
  5
18E
330
1F
100
AcDbEntity
  8
0
  6
Continuous
 62
     8
370
    18
100
AcDbSpline
210
0.0
220
0.0
230
1.0
 70
     8
 71
     3
 72
    14
 73
    10
 74
     0
 42
0.000000001
 43
0.00000001
 40
0.0
 40
0.0
 40
0.0
 40
0.0
 40
0.1277343673806529
 40
0.2554736447623946
 40
0.3815295577018548
 40
0.5075899876641011
 40
0.7106819269575554
 40
0.9137761147631837
 40
1.0
 40
1.0
 40
1.0
 40
1.0
 10
895.0724253532692
 20
888.9772795853311
 30
0.0
 10
895.0738986403805
 20
890.4730337463845
 30
0.0
 10
895.0768452712352
 20
893.4645995640167
 30
0.0
 10
895.0730461953652
 20
898.108535554601
 30
0.0
 10
895.0673895229875
 20
902.8144340206942
 30
0.0
 10
895.0585060880684
 20
908.5275494037553
 30
0.0
 10
895.0526323514524
 20
915.2545854001777
 30
0.0
 10
895.0568110430063
 20
921.4364194969961
 30
0.0
 10
895.0618835253696
 20
924.9845952147864
 30
0.0
 10
895.0633952495857
 20
926.0420386460715
 30
0.0
  0
ARC
  5
18F
330
1F
100
AcDbEntity
  8
0
  6
Continuous
 62
     8
370
    18
100
AcDbCircle
 10
893.8007436672
 20
892.8856838795
 30
0.0
 40
4.110084967166899
100
AcDbArc
 50
269.0113520413
 51
288.0233891098
  0
SPLINE
  5
190
330
1F
100
AcDbEntity
  8
0
  6
Continuous
 62
     8
370
    18
100
AcDbSpline
210
0.0
220
0.0
230
1.0
 70
     8
 71
     3
 72
    15
 73
    11
 74
     0
 42
0.000000001
 43
0.00000001
 40
0.0
 40
0.0
 40
0.0
 40
0.0
 40
0.1218108426115062
 40
0.2436370689119372
 40
0.3683236608265777
 40
0.4930006352855147
 40
0.6185872273216672
 40
0.7450342401164958
 40
0.871990472181674
 40
1.0
 40
1.0
 40
1.0
 40
1.0
 10
897.1129158613487
 20
925.8488991079026
 30
0.0
 10
897.1296501292053
 20
924.371234998272
 30
0.0
 10
897.1631207783165
 20
921.4157201624132
 30
0.0
 10
897.1970663055599
 20
916.8660144743579
 30
0.0
 10
897.1935128219442
 20
912.2567252018956
 30
0.0
 10
897.1614240666306
 20
907.5926411794438
 30
0.0
 10
897.1125505242834
 20
902.9280688668346
 30
0.0
 10
897.0599769077093
 20
898.293043604893
 30
0.0
 10
897.0163614775132
 20
893.7075381320009
 30
0.0
 10
897.0132182337466
 20
890.7635089275319
 30
0.0
 10
897.0116401192947
 20
889.2854132470782
 30
0.0
  0
ARC
  5
191
330
1F
100
AcDbEntity
  8
0
  6
Continuous
 62
     8
370
    18
100
AcDbCircle
 10
896.9835104715
 20
883.2062309465
 30
0.0
 40
6.079247381135271
100
AcDbArc
 50
89.7348823383
 51
108.3223100969
  0
ARC
  5
192
330
1F
100
AcDbEntity
  8
0
  6
Continuous
 62
     8
370
    18
100
AcDbCircle
 10
896.9716639046
 20
935.3209110539
 30
0.0
 40
9.473065101713095
100
AcDbArc
 50
258.3787320003
 51
270.8543634834
  0
SPLINE
  5
193
330
1F
100
AcDbEntity
  8
0
  6
Continuous
 62
     8
370
    18
100
AcDbSpline
210
0.0
220
0.0
230
1.0
 70
     8
 71
     3
 72
    14
 73
    10
 74
     0
 42
0.000000001
 43
0.00000001
 40
0.0
 40
0.0
 40
0.0
 40
0.0
 40
0.1277343673806529
 40
0.2554736447623946
 40
0.3815295577018548
 40
0.5075899876641011
 40
0.7106819269575554
 40
0.9137761147631837
 40
1.0
 40
1.0
 40
1.0
 40
1.0
 10
806.1252260682387
 20
888.9772795853311
 30
0.0
 10
806.1237527811275
 20
890.4730337463845
 30
0.0
 10
806.1208061502726
 20
893.4645995640167
 30
0.0
 10
806.1246052261426
 20
898.108535554601
 30
0.0
 10
806.1302618985205
 20
902.8144340206942
 30
0.0
 10
806.1391453334396
 20
908.5275494037553
 30
0.0
 10
806.1450190700556
 20
915.2545854001777
 30
0.0
 10
806.1408403785017
 20
921.4364194969961
 30
0.0
 10
806.1357678961384
 20
924.9845952147864
 30
0.0
 10
806.1342561719223
 20
926.0420386460715
 30
0.0
  0
ARC
  5
194
330
1F
100
AcDbEntity
  8
0
  6
Continuous
 62
     8
370
    18
100
AcDbCircle
 10
807.48654556
 20
920.0968044443
 30
0.0
 40
6.097089166396305
100
AcDbArc
 50
89.6347446711
 51
102.8143441106
  0
SPLINE
  5
195
330
1F
100
AcDbEntity
  8
0
  6
Continuous
 62
     8
370
    18
100
AcDbSpline
210
0.0
220
0.0
230
1.0
 70
     8
 71
     3
 72
    14
 73
    10
 74
     0
 42
0.000000001
 43
0.00000001
 40
0.0
 40
0.0
 40
0.0
 40
0.0
 40
0.1296971036821296
 40
0.2603676130745293
 40
0.3857762900438513
 40
0.5111848432870525
 40
0.6402379574765267
 40
0.7692908175858975
 40
1.0
 40
1.0
 40
1.0
 40
1.0
 10
807.4678244170948
 20
888.776210766762
 30
0.0
 10
807.4667167402697
 20
890.3102645265635
 30
0.0
 10
807.4644930732577
 20
893.3898854620198
 30
0.0
 10
807.48989414791
 20
898.1310313929071
 30
0.0
 10
807.5206545852784
 20
902.902668902585
 30
0.0
 10
807.5511606409334
 20
907.717726491022
 30
0.0
 10
807.5724395207286
 20
912.6036737429727
 30
0.0
 10
807.5745177581676
 20
918.8325612205166
 30
0.0
 10
807.5445996473826
 20
923.3175950263034
 30
0.0
 10
807.5254136798186
 20
926.1937697199279
 30
0.0
  0
ARC
  5
196
330
1F
100
AcDbEntity
  8
0
  6
Continuous
 62
     8
370
    18
100
AcDbCircle
 10
807.3969077543
 20
892.8856838795
 30
0.0
 40
4.110084967168302
100
AcDbArc
 50
251.9766108902
 51
270.9886479587
  0
ARC
  5
197
330
1F
100
AcDbEntity
  8
0
  6
Continuous
 62
     8
370
    18
100
AcDbCircle
 10
804.21414095
 20
883.2062309465
 30
0.0
 40
6.079247381134012
100
AcDbArc
 50
71.6776899031
 51
90.2651176617
  0
SPLINE
  5
198
330
1F
100
AcDbEntity
  8
0
  6
Continuous
 62
     8
370
    18
100
AcDbSpline
210
0.0
220
0.0
230
1.0
 70
     8
 71
     3
 72
    15
 73
    11
 74
     0
 42
0.000000001
 43
0.00000001
 40
0.0
 40
0.0
 40
0.0
 40
0.0
 40
0.1218108426115062
 40
0.2436370689119372
 40
0.3683236608265777
 40
0.4930006352855147
 40
0.6185872273216672
 40
0.7450342401164958
 40
0.871990472181674
 40
1.0
 40
1.0
 40
1.0
 40
1.0
 10
804.0847355601592
 20
925.8488991079026
 30
0.0
 10
804.0680012923027
 20
924.371234998272
 30
0.0
 10
804.0345306431915
 20
921.4157201624132
 30
0.0
 10
804.0005851159481
 20
916.8660144743579
 30
0.0
 10
804.0041385995637
 20
912.2567252018956
 30
0.0
 10
804.0362273548774
 20
907.5926411794438
 30
0.0
 10
804.0851008972245
 20
902.9280688668346
 30
0.0
 10
804.1376745137987
 20
898.293043604893
 30
0.0
 10
804.1812899439947
 20
893.7075381320009
 30
0.0
 10
804.1844331877613
 20
890.7635089275319
 30
0.0
 10
804.1860113022133
 20
889.2854132470782
 30
0.0
  0
ARC
  5
199
330
1F
100
AcDbEntity
  8
0
  6
Continuous
 62
     8
370
    18
100
AcDbCircle
 10
804.2259875169
 20
935.3209110539
 30
0.0
 40
9.473065101713892
100
AcDbArc
 50
269.1456365166
 51
281.6212679997
  0
LINE
  5
19A
330
1F
100
AcDbEntity
  8
0
  6
Continuous
 62
     8
370
    18
100
AcDbLine
 10
887.3868273673
 20
888.7762107668
 30
0.0
 11
893.7298270044
 21
888.7762107668
 31
0.0
  0
LINE
  5
19B
330
1F
100
AcDbEntity
  8
0
  6
Continuous
 62
     8
370
    18
100
AcDbLine
 10
887.4911503968
 20
926.1937697199
 30
0.0
 11
893.6722377417
 21
926.1937697199
 31
0.0
  0
LINE
  5
19C
330
1F
100
AcDbEntity
  8
0
  6
Continuous
 62
     8
370
    18
100
AcDbLine
 10
813.8108240542
 20
888.7762107668
 30
0.0
 11
807.4678244171
 21
888.7762107668
 31
0.0
  0
LINE
  5
19D
330
1F
100
AcDbEntity
  8
0
  6
Continuous
 62
     8
370
    18
100
AcDbLine
 10
813.7065010247
 20
926.1937697199
 30
0.0
 11
807.5254136798
 21
926.1937697199
 31
0.0
  0
SPLINE
  5
19E
330
1F
100
AcDbEntity
  8
0
  6
Continuous
 62
     8
370
    18
100
AcDbSpline
210
0.0
220
0.0
230
1.0
 70
     8
 71
     3
 72
     9
 73
     5
 74
     0
 42
0.000000001
 43
0.00000001
 40
0.0
 40
0.0
 40
0.0
 40
0.0
 40
0.5312993424786022
 40
1.0
 40
1.0
 40
1.0
 40
1.0
 10
773.69060983036
 20
940.9167670426065
 30
0.0
 10
773.153536965887
 20
940.9052217904427
 30
0.0
 10
772.1426701690879
 20
940.8834915693776
 30
0.0
 10
771.203862656425
 20
940.3560147621706
 30
0.0
 10
770.763842957954
 20
940.1087860358053
 30
0.0
  0
SPLINE
  5
19F
330
1F
100
AcDbEntity
  8
0
  6
Continuous
 62
     8
370
    18
100
AcDbSpline
210
0.0
220
0.0
230
1.0
 70
     8
 71
     3
 72
    10
 73
     6
 74
     0
 42
0.000000001
 43
0.00000001
 40
0.0
 40
0.0
 40
0.0
 40
0.0
 40
0.2501174395642413
 40
0.5003917269111249
 40
1.0
 40
1.0
 40
1.0
 40
1.0
 10
775.2706768092913
 20
944.1436246750051
 30
0.0
 10
775.0778477982483
 20
943.9366580520826
 30
0.0
 10
774.6920688537551
 20
943.5225950181833
 30
0.0
 10
774.1012845079714
 20
942.4583163383649
 30
0.0
 10
773.8548178909379
 20
941.533154742997
 30
0.0
 10
773.69060983036
 20
940.9167670426065
 30
0.0
  0
SPLINE
  5
1A0
330
1F
100
AcDbEntity
  8
0
  6
Continuous
 62
     8
370
    18
100
AcDbSpline
210
0.0
220
0.0
230
1.0
 70
     8
 71
     3
 72
    13
 73
     9
 74
     0
 42
0.000000001
 43
0.00000001
 40
0.0
 40
0.0
 40
0.0
 40
0.0
 40
0.0000030462335987
 40
0.1018249472548103
 40
0.3058151448634531
 40
0.5135779045138517
 40
0.753634248420798
 40
1.0
 40
1.0
 40
1.0
 40
1.0
 10
769.0603571114344
 20
944.7612601113611
 30
0.0
 10
769.0603571114282
 20
944.7612598009185
 30
0.0
 10
769.0603568993654
 20
944.7508827835563
 30
0.0
 10
769.1242464232732
 20
944.7389961945973
 30
0.0
 10
769.5683050126568
 20
944.6312200858101
 30
0.0
 10
770.7046989742852
 20
944.4573873199648
 30
0.0
 10
772.512393036965
 20
944.2728191538224
 30
0.0
 10
774.3433324798796
 20
944.1870602955618
 30
0.0
 10
775.2706768092913
 20
944.1436246750051
 30
0.0
  0
SPLINE
  5
1A1
330
1F
100
AcDbEntity
  8
0
  6
Continuous
 62
     8
370
    18
100
AcDbSpline
210
0.0
220
0.0
230
1.0
 70
     8
 71
     3
 72
     9
 73
     5
 74
     0
 42
0.000000001
 43
0.00000001
 40
0.0
 40
0.0
 40
0.0
 40
0.0
 40
0.6677920459389162
 40
1.0
 40
1.0
 40
1.0
 40
1.0
 10
850.598825710754
 20
887.3876833138163
 30
0.0
 10
843.0908745437421
 20
887.2851575986707
 30
0.0
 10
831.8479266639785
 20
887.1316281941665
 30
0.0
 10
820.6027515724066
 20
887.1511920671518
 30
0.0
 10
816.8670149621769
 20
887.1576913413697
 30
0.0
  0
LINE
  5
1A2
330
1F
100
AcDbEntity
  8
0
  6
Continuous
 62
     8
370
    18
100
AcDbLine
 10
816.8670149622
 20
887.1576913414
 30
0.0
 11
816.9494332847
 21
889.2150946674
 31
0.0
  0
SPLINE
  5
1A3
330
1F
100
AcDbEntity
  8
0
  6
Continuous
 62
     8
370
    18
100
AcDbSpline
210
0.0
220
0.0
230
1.0
 70
     8
 71
     3
 72
     9
 73
     5
 74
     0
 42
0.000000001
 43
0.00000001
 40
0.0
 40
0.0
 40
0.0
 40
0.0
 40
0.8892353090400644
 40
1.0
 40
1.0
 40
1.0
 40
1.0
 10
817.0935647663875
 20
925.8927569505864
 30
0.0
 10
817.0445000827165
 20
929.1197452603661
 30
0.0
 10
816.989323817028
 20
932.7486928257335
 30
0.0
 10
816.9773539687285
 20
936.2952789977141
 30
0.0
 10
816.9760281321807
 20
936.6881155190164
 30
0.0
  0
SPLINE
  5
1A4
330
1F
100
AcDbEntity
  8
0
  6
Continuous
 62
     8
370
    18
100
AcDbSpline
210
0.0
220
0.0
230
1.0
 70
     8
 71
     3
 72
    11
 73
     7
 74
     0
 42
0.000000001
 43
0.00000001
 40
0.0
 40
0.0
 40
0.0
 40
0.0
 40
0.5574251700603562
 40
0.8582361650730298
 40
0.9999888282417894
 40
1.0
 40
1.0
 40
1.0
 40
1.0
 10
816.9760281321807
 20
936.6881155190164
 30
0.0
 10
816.9339371391291
 20
937.6005163230728
 30
0.0
 10
816.8691320058106
 20
939.0052884954493
 30
0.0
 10
816.2618081074138
 20
940.5500224270878
 30
0.0
 10
815.7821616615623
 20
941.108996580684
 30
0.0
 10
815.6088304497614
 20
941.2705088126322
 30
0.0
 10
815.6088167903229
 20
941.2705215406711
 30
0.0
  0
SPLINE
  5
1A5
330
1F
100
AcDbEntity
  8
0
  6
Continuous
 62
     8
370
    18
100
AcDbSpline
210
0.0
220
0.0
230
1.0
 70
     8
 71
     3
 72
    11
 73
     7
 74
     0
 42
0.000000001
 43
0.00000001
 40
0.0
 40
0.0
 40
0.0
 40
0.0
 40
0.000040795394102
 40
0.1670899671860354
 40
0.6133762935687892
 40
1.0
 40
1.0
 40
1.0
 40
1.0
 10
815.6088167903229
 20
941.2705215406711
 30
0.0
 10
815.6087994056456
 20
941.2705311643758
 30
0.0
 10
815.5375951629594
 20
941.309947979642
 30
0.0
 10
815.2742017999501
 20
941.4475947886968
 30
0.0
 10
814.8076123425882
 20
941.6181225923012
 30
0.0
 10
814.3945710563828
 20
941.6471427513163
 30
0.0
 10
814.2028438029095
 20
941.6606134516294
 30
0.0
  0
LINE
  5
1A6
330
1F
100
AcDbEntity
  8
0
  6
Continuous
 62
     8
370
    18
100
AcDbLine
 10
814.2028438029
 20
941.6606134516
 30
0.0
 11
807.0964539525
 21
941.7835340616
 31
0.0
  0
SPLINE
  5
1A7
330
1F
100
AcDbEntity
  8
0
  6
Continuous
 62
     8
370
    18
100
AcDbSpline
210
0.0
220
0.0
230
1.0
 70
     8
 71
     3
 72
    11
 73
     7
 74
     0
 42
0.000000001
 43
0.00000001
 40
0.0
 40
0.0
 40
0.0
 40
0.0
 40
0.2986051046024318
 40
0.5785120767443492
 40
0.9999675889766177
 40
1.0
 40
1.0
 40
1.0
 40
1.0
 10
807.0964539525314
 20
941.78353406164
 30
0.0
 10
806.9115915167247
 20
941.7777001928599
 30
0.0
 10
806.5534424094178
 20
941.7663977620197
 30
0.0
 10
805.9597510848516
 20
941.592928321498
 30
0.0
 10
805.5857403312185
 20
941.3873551609886
 30
0.0
 10
805.3758106606314
 20
941.2420184133179
 30
0.0
 10
805.375794517736
 20
941.2420072374041
 30
0.0
  0
SPLINE
  5
1A8
330
1F
100
AcDbEntity
  8
0
  6
Continuous
 62
     8
370
    18
100
AcDbSpline
210
0.0
220
0.0
230
1.0
 70
     8
 71
     3
 72
    12
 73
     8
 74
     0
 42
0.000000001
 43
0.00000001
 40
0.0
 40
0.0
 40
0.0
 40
0.0
 40
0.0000116454751395
 40
0.0165619494537754
 40
0.2254763790943302
 40
0.6569695918089118
 40
0.9999999999999999
 40
0.9999999999999999
 40
0.9999999999999999
 40
0.9999999999999999
 10
805.375794517736
 20
941.2420072374041
 30
0.0
 10
805.3757808580718
 20
941.2419935782104
 30
0.0
 10
805.3563543713517
 20
941.2225677607382
 30
0.0
 10
805.1138904679754
 20
940.9412394657385
 30
0.0
 10
804.5516590270669
 20
940.0127377089307
 30
0.0
 10
804.2256603255667
 20
938.4330932329705
 30
0.0
 10
804.1856906167911
 20
937.1819646328777
 30
0.0
 10
804.1679883477493
 20
936.627849635213
 30
0.0
  0
SPLINE
  5
1A9
330
1F
100
AcDbEntity
  8
0
  6
Continuous
 62
     8
370
    18
100
AcDbSpline
210
0.0
220
0.0
230
1.0
 70
     8
 71
     3
 72
    10
 73
     6
 74
     0
 42
0.000000001
 43
0.00000001
 40
0.0
 40
0.0
 40
0.0
 40
0.0
 40
0.0305939760639643
 40
0.8849546427992482
 40
1.0
 40
1.0
 40
1.0
 40
1.0
 10
804.1679883477493
 20
936.627849635213
 30
0.0
 10
804.1677766540495
 20
936.5194115866989
 30
0.0
 10
804.161653248511
 20
933.3827563743107
 30
0.0
 10
804.121196770083
 20
929.7849743204439
 30
0.0
 10
804.0886035924129
 20
926.2664624829625
 30
0.0
 10
804.0847355601592
 20
925.8488991079026
 30
0.0
  0
LINE
  5
1AA
330
1F
100
AcDbEntity
  8
0
  6
Continuous
 62
     8
370
    18
100
AcDbLine
 10
804.1860113022
 20
889.2854132471
 30
0.0
 11
804.2572090504
 21
887.2821830926
 31
0.0
  0
SPLINE
  5
1AB
330
1F
100
AcDbEntity
  8
0
  6
Continuous
 62
     8
370
    18
100
AcDbSpline
210
0.0
220
0.0
230
1.0
 70
     8
 71
     3
 72
    13
 73
     9
 74
     0
 42
0.000000001
 43
0.00000001
 40
0.0
 40
0.0
 40
0.0
 40
0.0
 40
0.0962667614560557
 40
0.2940157084788442
 40
0.49167991235366
 40
0.6816276126516125
 40
0.8716454072214415
 40
1.0
 40
1.0
 40
1.0
 40
1.0
 10
804.2572090503975
 20
887.2821830925639
 30
0.0
 10
803.356107656062
 20
887.2978422700384
 30
0.0
 10
800.6039846921277
 20
887.3456681664303
 30
0.0
 10
796.0020222203572
 20
887.430851713671
 30
0.0
 10
790.6993661115396
 20
887.4865368618016
 30
0.0
 10
785.8155437011552
 20
887.5505198812405
 30
0.0
 10
781.8555261279729
 20
887.5738606309193
 30
0.0
 10
779.6702545233259
 20
887.5689792922706
 30
0.0
 10
778.7892432985111
 20
887.5670113382037
 30
0.0
  0
SPLINE
  5
1AC
330
1F
100
AcDbEntity
  8
0
  6
Continuous
 62
     8
370
    18
100
AcDbSpline
210
0.0
220
0.0
230
1.0
 70
     8
 71
     3
 72
    14
 73
    10
 74
     0
 42
0.000000001
 43
0.00000001
 40
0.0
 40
0.0
 40
0.0
 40
0.0
 40
0.1540452529125833
 40
0.3116222749830208
 40
0.4736469946257484
 40
0.5996984109617779
 40
0.7292827590320495
 40
0.8636610843838322
 40
0.9999999999999999
 40
0.9999999999999999
 40
0.9999999999999999
 40
0.9999999999999999
 10
771.7685612020298
 20
912.7577372607881
 30
0.0
 10
772.185344836708
 20
911.4699699172941
 30
0.0
 10
773.0284676331489
 20
908.8649108087461
 30
0.0
 10
774.5926851462987
 20
904.892663330432
 30
0.0
 10
775.9951308965893
 20
901.084902007305
 30
0.0
 10
777.1321974435991
 20
897.4875516181294
 30
0.0
 10
777.9758487390242
 20
894.1498021896717
 30
0.0
 10
778.5844506155623
 20
890.7836576097317
 30
0.0
 10
778.7206502754902
 20
888.6443910989253
 30
0.0
 10
778.7892432985111
 20
887.5670113382037
 30
0.0
  0
SPLINE
  5
1AD
330
1F
100
AcDbEntity
  8
0
  6
Continuous
 62
     8
370
    18
100
AcDbSpline
210
0.0
220
0.0
230
1.0
 70
     8
 71
     3
 72
    12
 73
     8
 74
     0
 42
0.000000001
 43
0.00000001
 40
0.0
 40
0.0
 40
0.0
 40
0.0
 40
0.1619236319901617
 40
0.4860935123460937
 40
0.6524730964836051
 40
0.8184435869317109
 40
0.9999999999999999
 40
0.9999999999999999
 40
0.9999999999999999
 40
0.9999999999999999
 10
770.763842957954
 20
940.1087860358053
 30
0.0
 10
770.8889707335371
 20
938.7615341075781
 30
0.0
 10
771.2646033646589
 20
934.7170940603903
 30
0.0
 10
771.6090042525193
 20
928.9409263168195
 30
0.0
 10
771.8074342953283
 20
922.9203300747964
 30
0.0
 10
771.837490688871
 20
917.9900344316424
 30
0.0
 10
771.7922145473409
 20
914.5532146018236
 30
0.0
 10
771.7685612020298
 20
912.7577372607881
 30
0.0
  0
SPLINE
  5
1AE
330
1F
100
AcDbEntity
  8
0
  6
Continuous
 62
     8
370
    18
100
AcDbSpline
210
0.0
220
0.0
230
1.0
 70
     8
 71
     3
 72
    10
 73
     6
 74
     0
 42
0.000000001
 43
0.00000001
 40
0.0
 40
0.0
 40
0.0
 40
0.0
 40
0.0305939760639643
 40
0.8849546427992482
 40
1.0
 40
1.0
 40
1.0
 40
1.0
 10
897.0296630737587
 20
936.627849635213
 30
0.0
 10
897.0298747674585
 20
936.5194115866989
 30
0.0
 10
897.035998172997
 20
933.3827563743107
 30
0.0
 10
897.0764546514249
 20
929.7849743204439
 30
0.0
 10
897.1090478290951
 20
926.2664624829625
 30
0.0
 10
897.1129158613487
 20
925.8488991079026
 30
0.0
  0
SPLINE
  5
1AF
330
1F
100
AcDbEntity
  8
0
  6
Continuous
 62
     8
370
    18
100
AcDbSpline
210
0.0
220
0.0
230
1.0
 70
     8
 71
     3
 72
    12
 73
     8
 74
     0
 42
0.000000001
 43
0.00000001
 40
0.0
 40
0.0
 40
0.0
 40
0.0
 40
0.0000116454751395
 40
0.0165619494537754
 40
0.2254763790943302
 40
0.6569695918089118
 40
0.9999999999999999
 40
0.9999999999999999
 40
0.9999999999999999
 40
0.9999999999999999
 10
895.821856903772
 20
941.2420072374041
 30
0.0
 10
895.8218705634362
 20
941.2419935782104
 30
0.0
 10
895.8412970501563
 20
941.2225677607382
 30
0.0
 10
896.0837609535325
 20
940.9412394657385
 30
0.0
 10
896.6459923944411
 20
940.0127377089307
 30
0.0
 10
896.9719910959413
 20
938.4330932329705
 30
0.0
 10
897.0119608047169
 20
937.1819646328777
 30
0.0
 10
897.0296630737587
 20
936.627849635213
 30
0.0
  0
SPLINE
  5
1B0
330
1F
100
AcDbEntity
  8
0
  6
Continuous
 62
     8
370
    18
100
AcDbSpline
210
0.0
220
0.0
230
1.0
 70
     8
 71
     3
 72
    11
 73
     7
 74
     0
 42
0.000000001
 43
0.00000001
 40
0.0
 40
0.0
 40
0.0
 40
0.0
 40
0.2986051046024318
 40
0.5785120767443492
 40
0.9999675889766177
 40
1.0
 40
1.0
 40
1.0
 40
1.0
 10
894.1011974689765
 20
941.78353406164
 30
0.0
 10
894.2860599047833
 20
941.7777001928599
 30
0.0
 10
894.6442090120902
 20
941.7663977620197
 30
0.0
 10
895.2379003366564
 20
941.592928321498
 30
0.0
 10
895.6119110902895
 20
941.3873551609886
 30
0.0
 10
895.8218407608766
 20
941.2420184133179
 30
0.0
 10
895.821856903772
 20
941.2420072374041
 30
0.0
  0
LINE
  5
1B1
330
1F
100
AcDbEntity
  8
0
  6
Continuous
 62
     8
370
    18
100
AcDbLine
 10
886.9948076186
 20
941.6606134516
 30
0.0
 11
894.101197469
 21
941.7835340616
 31
0.0
  0
SPLINE
  5
1B2
330
1F
100
AcDbEntity
  8
0
  6
Continuous
 62
     8
370
    18
100
AcDbSpline
210
0.0
220
0.0
230
1.0
 70
     8
 71
     3
 72
    11
 73
     7
 74
     0
 42
0.000000001
 43
0.00000001
 40
0.0
 40
0.0
 40
0.0
 40
0.0
 40
0.000040795394102
 40
0.1670899671860354
 40
0.6133762935687892
 40
1.0
 40
1.0
 40
1.0
 40
1.0
 10
885.588834631185
 20
941.2705215406711
 30
0.0
 10
885.5888520158624
 20
941.2705311643758
 30
0.0
 10
885.6600562585486
 20
941.309947979642
 30
0.0
 10
885.9234496215579
 20
941.4475947886968
 30
0.0
 10
886.3900390789198
 20
941.6181225923012
 30
0.0
 10
886.8030803651252
 20
941.6471427513163
 30
0.0
 10
886.9948076185985
 20
941.6606134516294
 30
0.0
  0
SPLINE
  5
1B3
330
1F
100
AcDbEntity
  8
0
  6
Continuous
 62
     8
370
    18
100
AcDbSpline
210
0.0
220
0.0
230
1.0
 70
     8
 71
     3
 72
    11
 73
     7
 74
     0
 42
0.000000001
 43
0.00000001
 40
0.0
 40
0.0
 40
0.0
 40
0.0
 40
0.5574251700603562
 40
0.8582361650730298
 40
0.9999888282417894
 40
1.0
 40
1.0
 40
1.0
 40
1.0
 10
884.2216232893272
 20
936.6881155190164
 30
0.0
 10
884.2637142823789
 20
937.6005163230728
 30
0.0
 10
884.3285194156974
 20
939.0052884954493
 30
0.0
 10
884.9358433140941
 20
940.5500224270878
 30
0.0
 10
885.4154897599456
 20
941.108996580684
 30
0.0
 10
885.5888209717466
 20
941.2705088126322
 30
0.0
 10
885.588834631185
 20
941.2705215406711
 30
0.0
  0
SPLINE
  5
1B4
330
1F
100
AcDbEntity
  8
0
  6
Continuous
 62
     8
370
    18
100
AcDbSpline
210
0.0
220
0.0
230
1.0
 70
     8
 71
     3
 72
     9
 73
     5
 74
     0
 42
0.000000001
 43
0.00000001
 40
0.0
 40
0.0
 40
0.0
 40
0.0
 40
0.8892353090400644
 40
1.0
 40
1.0
 40
1.0
 40
1.0
 10
884.1040866551205
 20
925.8927569505864
 30
0.0
 10
884.1531513387915
 20
929.1197452603661
 30
0.0
 10
884.20832760448
 20
932.7486928257335
 30
0.0
 10
884.2202974527795
 20
936.2952789977141
 30
0.0
 10
884.2216232893272
 20
936.6881155190164
 30
0.0
  0
LINE
  5
1B5
330
1F
100
AcDbEntity
  8
0
  6
Continuous
 62
     8
370
    18
100
AcDbLine
 10
884.3306364593
 20
887.1576913414
 30
0.0
 11
884.2482181368
 21
889.2150946674
 31
0.0
  0
SPLINE
  5
1B6
330
1F
100
AcDbEntity
  8
0
  6
Continuous
 62
     8
370
    18
100
AcDbSpline
210
0.0
220
0.0
230
1.0
 70
     8
 71
     3
 72
     9
 73
     5
 74
     0
 42
0.000000001
 43
0.00000001
 40
0.0
 40
0.0
 40
0.0
 40
0.0
 40
0.6677920459389162
 40
1.0
 40
1.0
 40
1.0
 40
1.0
 10
850.598825710754
 20
887.3876833138163
 30
0.0
 10
858.1067768777659
 20
887.2851575986707
 30
0.0
 10
869.3497247575295
 20
887.1316281941665
 30
0.0
 10
880.5948998491014
 20
887.1511920671518
 30
0.0
 10
884.330636459331
 20
887.1576913413697
 30
0.0
  0
SPLINE
  5
1B7
330
1F
100
AcDbEntity
  8
0
  6
Continuous
 62
     8
370
    18
100
AcDbSpline
210
0.0
220
0.0
230
1.0
 70
     8
 71
     3
 72
    18
 73
    14
 74
     0
 42
0.000000001
 43
0.00000001
 40
0.0
 40
0.0
 40
0.0
 40
0.0
 40
0.0497884475704947
 40
0.1520627209754332
 40
0.254293165859333
 40
0.3525326929232794
 40
0.4508084722193308
 40
0.5543274291566511
 40
0.6578565672258256
 40
0.774030701314535
 40
0.8901694724963046
 40
0.9999988892091268
 40
1.0
 40
1.0
 40
1.0
 40
1.0
 10
896.9404423711105
 20
887.2821830925639
 30
0.0
 10
897.841532672992
 20
887.2978416837514
 30
0.0
 10
900.5936217586108
 20
887.3456657895191
 30
0.0
 10
905.1960466737421
 20
887.4308737790102
 30
0.0
 10
910.496781855219
 20
887.4864573973297
 30
0.0
 10
915.3874693279895
 20
887.5508032667693
 30
0.0
 10
919.8809891301452
 20
887.576074315921
 30
0.0
 10
923.9112672144464
 20
887.5642355820706
 30
0.0
 10
927.5268041585648
 20
887.5200400589979
 30
0.0
 10
930.4165970203529
 20
887.4298715008309
 30
0.0
 10
932.4799712656499
 20
887.346913110098
 30
0.0
 10
932.873024127547
 20
887.1219430878552
 30
0.0
 10
933.1185854452239
 20
887.1219434556621
 30
0.0
 10
933.1185879287525
 20
887.1219434556657
 30
0.0
  0
LINE
  5
1B8
330
1F
100
AcDbEntity
  8
0
  6
Continuous
 62
     8
370
    18
100
AcDbLine
 10
897.0116401193
 20
889.2854132471
 30
0.0
 11
896.9404423711
 21
887.2821830926
 31
0.0
  0
LINE
  5
1B9
330
1F
100
AcDbEntity
  8
0
  6
Continuous
 62
     8
370
    18
100
AcDbLine
 10
887.4048205194
 20
937.0534696397
 30
0.0
 11
887.4911503968
 21
926.1937697199
 31
0.0
  0
SPLINE
  5
1BA
330
1F
100
AcDbEntity
  8
0
  6
Continuous
 62
     8
370
    18
100
AcDbSpline
210
0.0
220
0.0
230
1.0
 70
     8
 71
     3
 72
     9
 73
     5
 74
     0
 42
0.000000001
 43
0.00000001
 40
0.0
 40
0.0
 40
0.0
 40
0.0
 40
0.3531287468580988
 40
1.0
 40
1.0
 40
1.0
 40
1.0
 10
886.1378381130501
 20
936.9045437094861
 30
0.0
 10
886.1377147016425
 20
935.6395511400148
 30
0.0
 10
886.1373652217184
 20
932.0573093068972
 30
0.0
 10
886.1386702854638
 20
928.4066580605561
 30
0.0
 10
886.1395144936844
 20
926.0451567140514
 30
0.0
  0
ARC
  5
1BB
330
1F
100
AcDbEntity
  8
0
  6
Continuous
 62
     8
370
    18
100
AcDbCircle
 10
887.3575331602
 20
931.991896938
 30
0.0
 40
5.061793586186027
100
AcDbArc
 50
89.4647340961
 51
103.9432686557
  0
SPLINE
  5
1BC
330
1F
100
AcDbEntity
  8
0
  6
Continuous
 62
     8
370
    18
100
AcDbSpline
210
0.0
220
0.0
230
1.0
 70
     8
 71
     3
 72
     9
 73
     5
 74
     0
 42
0.000000001
 43
0.00000001
 40
0.0
 40
0.0
 40
0.0
 40
0.0
 40
0.3531287468580988
 40
1.0
 40
1.0
 40
1.0
 40
1.0
 10
815.0598133084578
 20
936.9045437094861
 30
0.0
 10
815.0599367198655
 20
935.6395511400148
 30
0.0
 10
815.0602861997896
 20
932.0573093068972
 30
0.0
 10
815.058981136044
 20
928.4066580605561
 30
0.0
 10
815.0581369278235
 20
926.0451567140514
 30
0.0
  0
LINE
  5
1BD
330
1F
100
AcDbEntity
  8
0
  6
Continuous
 62
     8
370
    18
100
AcDbLine
 10
813.7928309021
 20
937.0534696397
 30
0.0
 11
813.7065010247
 21
926.1937697199
 31
0.0
  0
ARC
  5
1BE
330
1F
100
AcDbEntity
  8
0
  6
Continuous
 62
     8
370
    18
100
AcDbCircle
 10
813.8401182613
 20
931.991896938
 30
0.0
 40
5.061793586184288
100
AcDbArc
 50
76.0567313443
 51
90.5352659039
  0
SPLINE
  5
1BF
330
1F
100
AcDbEntity
  8
0
  6
Continuous
 62
     8
370
    18
100
AcDbSpline
210
0.0
220
0.0
230
1.0
 70
     8
 71
     3
 72
     9
 73
     5
 74
     0
 42
0.000000001
 43
0.00000001
 40
0.0
 40
0.0
 40
0.0
 40
0.0
 40
0.8536362427536229
 40
0.9999999999999999
 40
0.9999999999999999
 40
0.9999999999999999
 40
0.9999999999999999
 10
893.6722377416893
 20
926.1937697199279
 30
0.0
 10
893.6928890963619
 20
929.3048512934962
 30
0.0
 10
893.7170813150592
 20
932.9493563153693
 30
0.0
 10
893.7217361088947
 20
936.529470653803
 30
0.0
 10
893.7224174020096
 20
937.0534696397478
 30
0.0
  0
ARC
  5
1C0
330
1F
100
AcDbEntity
  8
0
  6
Continuous
 62
     8
370
    18
100
AcDbCircle
 10
893.7855466651
 20
932.1588500863
 30
0.0
 40
4.895026647181689
100
AcDbArc
 50
74.7414040318
 51
90.738941966
  0
SPLINE
  5
1C1
330
1F
100
AcDbEntity
  8
0
  6
Continuous
 62
     8
370
    18
100
AcDbSpline
210
0.0
220
0.0
230
1.0
 70
     8
 71
     3
 72
    10
 73
     6
 74
     0
 42
0.000000001
 43
0.00000001
 40
0.0
 40
0.0
 40
0.0
 40
0.0
 40
0.0049101272671211
 40
0.1151642894206153
 40
1.0
 40
1.0
 40
1.0
 40
1.0
 10
895.0633952495857
 20
926.0420386460715
 30
0.0
 10
895.0634175505216
 20
926.0599737070173
 30
0.0
 10
895.0639406065048
 20
926.4806305326268
 30
0.0
 10
895.069210490647
 20
930.1294044399345
 30
0.0
 10
895.0716398207118
 20
933.7033540667444
 30
0.0
 10
895.0737999853893
 20
936.8813165244752
 30
0.0
  0
SPLINE
  5
1C2
330
1F
100
AcDbEntity
  8
0
  6
Continuous
 62
     8
370
    18
100
AcDbSpline
210
0.0
220
0.0
230
1.0
 70
     8
 71
     3
 72
    10
 73
     6
 74
     0
 42
0.000000001
 43
0.00000001
 40
0.0
 40
0.0
 40
0.0
 40
0.0
 40
0.0049101272671211
 40
0.1151642894206153
 40
1.0
 40
1.0
 40
1.0
 40
1.0
 10
806.1342561719223
 20
926.0420386460715
 30
0.0
 10
806.1342338709863
 20
926.0599737070173
 30
0.0
 10
806.133710815003
 20
926.4806305326268
 30
0.0
 10
806.128440930861
 20
930.1294044399345
 30
0.0
 10
806.1260116007962
 20
933.7033540667444
 30
0.0
 10
806.1238514361187
 20
936.8813165244752
 30
0.0
  0
ARC
  5
1C3
330
1F
100
AcDbEntity
  8
0
  6
Continuous
 62
     8
370
    18
100
AcDbCircle
 10
807.4121047564
 20
932.1588500863
 30
0.0
 40
4.895026647181939
100
AcDbArc
 50
89.261058034
 51
105.2585959682
  0
SPLINE
  5
1C4
330
1F
100
AcDbEntity
  8
0
  6
Continuous
 62
     8
370
    18
100
AcDbSpline
210
0.0
220
0.0
230
1.0
 70
     8
 71
     3
 72
     9
 73
     5
 74
     0
 42
0.000000001
 43
0.00000001
 40
0.0
 40
0.0
 40
0.0
 40
0.0
 40
0.8536362427536229
 40
0.9999999999999999
 40
0.9999999999999999
 40
0.9999999999999999
 40
0.9999999999999999
 10
807.5254136798186
 20
926.1937697199279
 30
0.0
 10
807.5047623251461
 20
929.3048512934962
 30
0.0
 10
807.4805701064487
 20
932.9493563153693
 30
0.0
 10
807.4759153126133
 20
936.529470653803
 30
0.0
 10
807.4752340194983
 20
937.0534696397478
 30
0.0
  0
LINE
  5
1C5
330
1F
100
AcDbEntity
  8
0
  6
Continuous
 62
     8
370
    18
100
AcDbLine
 10
887.4048205194
 20
937.0534696397
 30
0.0
 11
893.722417402
 21
937.0534696397
 31
0.0
  0
LINE
  5
1C6
330
1F
100
AcDbEntity
  8
0
  6
Continuous
 62
     8
370
    18
100
AcDbLine
 10
813.7928309021
 20
937.0534696397
 30
0.0
 11
807.4752340195
 21
937.0534696397
 31
0.0
  0
ARC
  5
1C7
330
1F
100
AcDbEntity
  8
0
  6
Continuous
 62
     8
370
    18
100
AcDbCircle
 10
884.3277786652
 20
944.3393540089
 30
0.0
 40
7.651974868789479
100
AcDbArc
 50
269.2051136824
 51
283.6828903996
  0
ARC
  5
1C8
330
1F
100
AcDbEntity
  8
0
  6
Continuous
 62
     8
370
    18
100
AcDbCircle
 10
816.8698727563
 20
944.3393540089
 30
0.0
 40
7.651974868791434
100
AcDbArc
 50
256.3171096004
 51
270.7948863176
  0
ARC
  5
1C9
330
1F
100
AcDbEntity
  8
0
  6
Continuous
 62
     8
370
    18
100
AcDbCircle
 10
896.9807708079
 20
943.9234627607
 30
0.0
 40
7.295776951770826
100
AcDbArc
 50
254.8480325457
 51
270.3839675293
  0
ARC
  5
1CA
330
1F
100
AcDbEntity
  8
0
  6
Continuous
 62
     8
370
    18
100
AcDbCircle
 10
804.2168806136
 20
943.9234627607
 30
0.0
 40
7.295776951772303
100
AcDbArc
 50
269.6160324707
 51
285.1519674543
  0
LINE
  5
1CB
330
1F
100
AcDbEntity
  8
0
  6
Continuous
 62
     8
370
    18
100
AcDbLine
 10
894.7305778143
 20
880.7330482421
 30
0.0
 11
886.4372285185
 21
880.9515663204
 31
0.0
  0
SPLINE
  5
1CC
330
1F
100
AcDbEntity
  8
0
  6
Continuous
 62
     8
370
    18
100
AcDbSpline
210
0.0
220
0.0
230
1.0
 70
     8
 71
     3
 72
    14
 73
    10
 74
     0
 42
0.000000001
 43
0.00000001
 40
0.0
 40
0.0
 40
0.0
 40
0.0
 40
0.2135067705021919
 40
0.6517504255094665
 40
0.873140209560505
 40
0.93403629594732
 40
0.9607431924969301
 40
0.9801118292298369
 40
0.9999999999999999
 40
0.9999999999999999
 40
0.9999999999999999
 40
0.9999999999999999
 10
896.9266550717159
 20
887.1250652489358
 30
0.0
 10
896.8704079389088
 20
886.5311980187508
 30
0.0
 10
896.6987080314326
 20
884.7183598635072
 30
0.0
 10
896.3412214257282
 20
882.6643307532407
 30
0.0
 10
895.8894982946698
 20
881.3328825661179
 30
0.0
 10
895.3904597908853
 20
880.8823061331303
 30
0.0
 10
895.1202573506729
 20
880.77343312428
 30
0.0
 10
894.9201894448685
 20
880.7339833747096
 30
0.0
 10
894.7943368788847
 20
880.7333626910367
 30
0.0
 10
894.7305778143211
 20
880.7330482420618
 30
0.0
  0
LINE
  5
1CD
330
1F
100
AcDbEntity
  8
0
  6
Continuous
 62
     8
370
    18
100
AcDbLine
 10
896.9404423711
 20
887.2821830926
 30
0.0
 11
896.9266550717
 21
887.1250652489
 31
0.0
  0
LINE
  5
1CE
330
1F
100
AcDbEntity
  8
0
  6
Continuous
 62
     8
370
    18
100
AcDbLine
 10
884.3555810032
 20
886.9063460049
 30
0.0
 11
884.3306364593
 21
887.1576913414
 31
0.0
  0
SPLINE
  5
1CF
330
1F
100
AcDbEntity
  8
0
  6
Continuous
 62
     8
370
    18
100
AcDbSpline
210
0.0
220
0.0
230
1.0
 70
     8
 71
     3
 72
    16
 73
    12
 74
     0
 42
0.000000001
 43
0.00000001
 40
0.0
 40
0.0
 40
0.0
 40
0.0
 40
0.014516624039235
 40
0.041073807824248
 40
0.0660448693459359
 40
0.1244469447652729
 40
0.1776976242939287
 40
0.2535933936372811
 40
0.3633556313243592
 40
0.5223719424639495
 40
1.0
 40
1.0
 40
1.0
 40
1.0
 10
886.4372285184666
 20
880.951566320389
 30
0.0
 10
886.3945658738049
 20
880.9536328543276
 30
0.0
 10
886.2738548005303
 20
880.9594799726125
 30
0.0
 10
886.0946946458077
 20
881.0047428872167
 30
0.0
 10
885.8553752923196
 20
881.1187901667618
 30
0.0
 10
885.6477994499032
 20
881.3071694537152
 30
0.0
 10
885.442505572747
 20
881.5945560578449
 30
0.0
 10
885.2454420387762
 20
881.9941011018774
 30
0.0
 10
885.0304617524271
 20
882.6230938369334
 30
0.0
 10
884.6720157343517
 20
884.1147667210913
 30
0.0
 10
884.4912193824708
 20
885.7097476153161
 30
0.0
 10
884.3555810031696
 20
886.9063460049325
 30
0.0
  0
LINE
  5
1D0
330
1F
100
AcDbEntity
  8
0
  6
Continuous
 62
     8
370
    18
100
AcDbLine
 10
887.3868273673
 20
888.7762107668
 30
0.0
 11
887.3195001957
 21
886.4782952485
 31
0.0
  0
LINE
  5
1D1
330
1F
100
AcDbEntity
  8
0
  6
Continuous
 62
     8
370
    18
100
AcDbLine
 10
893.7920095501
 20
886.6055735168
 30
0.0
 11
893.7298270044
 21
888.7762107668
 31
0.0
  0
SPLINE
  5
1D2
330
1F
100
AcDbEntity
  8
0
  6
Continuous
 62
     8
370
    18
100
AcDbSpline
210
0.0
220
0.0
230
1.0
 70
     8
 71
     3
 72
    10
 73
     6
 74
     0
 42
0.000000001
 43
0.00000001
 40
0.0
 40
0.0
 40
0.0
 40
0.0
 40
0.4454896864120319
 40
0.7187780658414481
 40
1.0
 40
1.0
 40
1.0
 40
1.0
 10
894.764176207523
 20
880.8765091714556
 30
0.0
 10
894.5391138440349
 20
881.4881680425368
 30
0.0
 10
894.1759855938066
 20
882.475052798167
 30
0.0
 10
893.9409243668235
 20
884.5517667369836
 30
0.0
 10
893.8421190353843
 20
885.9144723698037
 30
0.0
 10
893.7920095500751
 20
886.6055735168153
 30
0.0
  0
LINE
  5
1D3
330
1F
100
AcDbEntity
  8
0
  6
Continuous
 62
     8
370
    18
100
AcDbLine
 10
886.4517161724
 20
881.0950272498
 30
0.0
 11
894.7641762075
 21
880.8765091715
 31
0.0
  0
SPLINE
  5
1D4
330
1F
100
AcDbEntity
  8
0
  6
Continuous
 62
     8
370
    18
100
AcDbSpline
210
0.0
220
0.0
230
1.0
 70
     8
 71
     3
 72
    10
 73
     6
 74
     0
 42
0.000000001
 43
0.00000001
 40
0.0
 40
0.0
 40
0.0
 40
0.0
 40
0.5085356345989122
 40
0.7966058173208345
 40
1.0
 40
1.0
 40
1.0
 40
1.0
 10
887.3195001957222
 20
886.4782952484782
 30
0.0
 10
887.2304566218759
 20
885.3534745635275
 30
0.0
 10
887.0909725344393
 20
883.591476701212
 30
0.0
 10
886.789054558018
 20
881.9597044691671
 30
0.0
 10
886.5504595287808
 20
881.3481295780247
 30
0.0
 10
886.4517161724373
 20
881.0950272497828
 30
0.0
  0
ARC
  5
1D5
330
1F
100
AcDbEntity
  8
0
  6
Continuous
 62
     8
370
    18
100
AcDbCircle
 10
887.4674928837
 20
889.7862030199
 30
0.0
 40
3.311216643416695
100
AcDbArc
 50
246.3701659211
 51
267.4383488267
  0
LINE
  5
1D6
330
1F
100
AcDbEntity
  8
0
  6
Continuous
 62
     8
370
    18
100
AcDbLine
 10
886.1400770125
 20
887.0119281826
 30
0.0
 11
886.1402707276
 21
886.7526181755
 31
0.0
  0
LINE
  5
1D7
330
1F
100
AcDbEntity
  8
0
  6
Continuous
 62
     8
370
    18
100
AcDbLine
 10
886.138221818
 20
888.9453016934
 30
0.0
 11
886.1400770125
 21
887.0119281826
 31
0.0
  0
LINE
  5
1D8
330
1F
100
AcDbEntity
  8
0
  6
Continuous
 62
     8
370
    18
100
AcDbLine
 10
895.0731182573
 20
887.0873280582
 30
0.0
 11
895.0724253533
 21
888.9772795853
 31
0.0
  0
LINE
  5
1D9
330
1F
100
AcDbEntity
  8
0
  6
Continuous
 62
     8
370
    18
100
AcDbLine
 10
895.0735727427
 20
886.9237952647
 30
0.0
 11
895.0731182573
 21
887.0873280582
 31
0.0
  0
ARC
  5
1DA
330
1F
100
AcDbEntity
  8
0
  6
Continuous
 62
     8
370
    18
100
AcDbCircle
 10
893.6604366633
 20
889.8751602894
 30
0.0
 40
3.272233043019369
100
AcDbArc
 50
272.304421424
 51
295.5854549465
  0
LINE
  5
1DB
330
1F
100
AcDbEntity
  8
0
  6
Continuous
 62
     8
370
    18
100
AcDbLine
 10
815.0594296036
 20
888.9453016934
 30
0.0
 11
815.057574409
 21
887.0119281826
 31
0.0
  0
LINE
  5
1DC
330
1F
100
AcDbEntity
  8
0
  6
Continuous
 62
     8
370
    18
100
AcDbLine
 10
815.057574409
 20
887.0119281826
 30
0.0
 11
815.0573806939
 21
886.7526181755
 31
0.0
  0
ARC
  5
1DD
330
1F
100
AcDbEntity
  8
0
  6
Continuous
 62
     8
370
    18
100
AcDbCircle
 10
813.7301585378
 20
889.7862030199
 30
0.0
 40
3.311216643417387
100
AcDbArc
 50
272.5616511733
 51
293.6298340789
  0
LINE
  5
1DE
330
1F
100
AcDbEntity
  8
0
  6
Continuous
 62
     8
370
    18
100
AcDbLine
 10
813.8108240542
 20
888.7762107668
 30
0.0
 11
813.8781512258
 21
886.4782952485
 31
0.0
  0
LINE
  5
1DF
330
1F
100
AcDbEntity
  8
0
  6
Continuous
 62
     8
370
    18
100
AcDbLine
 10
814.7459352491
 20
881.0950272498
 30
0.0
 11
806.433475214
 21
880.8765091715
 31
0.0
  0
SPLINE
  5
1E0
330
1F
100
AcDbEntity
  8
0
  6
Continuous
 62
     8
370
    18
100
AcDbSpline
210
0.0
220
0.0
230
1.0
 70
     8
 71
     3
 72
    10
 73
     6
 74
     0
 42
0.000000001
 43
0.00000001
 40
0.0
 40
0.0
 40
0.0
 40
0.0
 40
0.4454896864120319
 40
0.7187780658414481
 40
1.0
 40
1.0
 40
1.0
 40
1.0
 10
806.4334752139849
 20
880.8765091714556
 30
0.0
 10
806.658537577473
 20
881.4881680425368
 30
0.0
 10
807.0216658277014
 20
882.475052798167
 30
0.0
 10
807.2567270546845
 20
884.5517667369836
 30
0.0
 10
807.3555323861236
 20
885.9144723698037
 30
0.0
 10
807.4056418714329
 20
886.6055735168153
 30
0.0
  0
LINE
  5
1E1
330
1F
100
AcDbEntity
  8
0
  6
Continuous
 62
     8
370
    18
100
AcDbLine
 10
807.4056418714
 20
886.6055735168
 30
0.0
 11
807.4678244171
 21
888.7762107668
 31
0.0
  0
SPLINE
  5
1E2
330
1F
100
AcDbEntity
  8
0
  6
Continuous
 62
     8
370
    18
100
AcDbSpline
210
0.0
220
0.0
230
1.0
 70
     8
 71
     3
 72
    10
 73
     6
 74
     0
 42
0.000000001
 43
0.00000001
 40
0.0
 40
0.0
 40
0.0
 40
0.0
 40
0.5085356345989122
 40
0.7966058173208345
 40
1.0
 40
1.0
 40
1.0
 40
1.0
 10
813.8781512257857
 20
886.4782952484782
 30
0.0
 10
813.9671947996321
 20
885.3534745635275
 30
0.0
 10
814.1066788870686
 20
883.591476701212
 30
0.0
 10
814.40859686349
 20
881.9597044691671
 30
0.0
 10
814.6471918927272
 20
881.3481295780247
 30
0.0
 10
814.7459352490707
 20
881.0950272497828
 30
0.0
  0
LINE
  5
1E3
330
1F
100
AcDbEntity
  8
0
  6
Continuous
 62
     8
370
    18
100
AcDbLine
 10
806.1240786788
 20
886.9237952647
 30
0.0
 11
806.1245331642
 21
887.0873280582
 31
0.0
  0
LINE
  5
1E4
330
1F
100
AcDbEntity
  8
0
  6
Continuous
 62
     8
370
    18
100
AcDbLine
 10
806.1245331642
 20
887.0873280582
 30
0.0
 11
806.1252260682
 21
888.9772795853
 31
0.0
  0
ARC
  5
1E5
330
1F
100
AcDbEntity
  8
0
  6
Continuous
 62
     8
370
    18
100
AcDbCircle
 10
807.5372147582
 20
889.8751602894
 30
0.0
 40
3.272233043020341
100
AcDbArc
 50
244.4145450535
 51
267.695578576
  0
LINE
  5
1E6
330
1F
100
AcDbEntity
  8
0
  6
Continuous
 62
     8
370
    18
100
AcDbLine
 10
804.2572090504
 20
887.2821830926
 30
0.0
 11
804.2709963498
 21
887.1250652489
 31
0.0
  0
SPLINE
  5
1E7
330
1F
100
AcDbEntity
  8
0
  6
Continuous
 62
     8
370
    18
100
AcDbSpline
210
0.0
220
0.0
230
1.0
 70
     8
 71
     3
 72
    14
 73
    10
 74
     0
 42
0.000000001
 43
0.00000001
 40
0.0
 40
0.0
 40
0.0
 40
0.0
 40
0.2135067705021919
 40
0.6517504255094665
 40
0.873140209560505
 40
0.93403629594732
 40
0.9607431924969301
 40
0.9801118292298369
 40
0.9999999999999999
 40
0.9999999999999999
 40
0.9999999999999999
 40
0.9999999999999999
 10
804.2709963497921
 20
887.1250652489358
 30
0.0
 10
804.3272434825992
 20
886.5311980187508
 30
0.0
 10
804.4989433900754
 20
884.7183598635072
 30
0.0
 10
804.8564299957798
 20
882.6643307532407
 30
0.0
 10
805.3081531268382
 20
881.3328825661179
 30
0.0
 10
805.8071916306227
 20
880.8823061331303
 30
0.0
 10
806.077394070835
 20
880.77343312428
 30
0.0
 10
806.2774619766395
 20
880.7339833747096
 30
0.0
 10
806.4033145426233
 20
880.7333626910367
 30
0.0
 10
806.4670736071869
 20
880.7330482420618
 30
0.0
  0
LINE
  5
1E8
330
1F
100
AcDbEntity
  8
0
  6
Continuous
 62
     8
370
    18
100
AcDbLine
 10
806.4670736072
 20
880.7330482421
 30
0.0
 11
814.760422903
 21
880.9515663204
 31
0.0
  0
SPLINE
  5
1E9
330
1F
100
AcDbEntity
  8
0
  6
Continuous
 62
     8
370
    18
100
AcDbSpline
210
0.0
220
0.0
230
1.0
 70
     8
 71
     3
 72
    16
 73
    12
 74
     0
 42
0.000000001
 43
0.00000001
 40
0.0
 40
0.0
 40
0.0
 40
0.0
 40
0.014516624039235
 40
0.041073807824248
 40
0.0660448693459359
 40
0.1244469447652729
 40
0.1776976242939287
 40
0.2535933936372811
 40
0.3633556313243592
 40
0.5223719424639495
 40
1.0
 40
1.0
 40
1.0
 40
1.0
 10
814.7604229030414
 20
880.951566320389
 30
0.0
 10
814.803085547703
 20
880.9536328543276
 30
0.0
 10
814.9237966209777
 20
880.9594799726125
 30
0.0
 10
815.1029567757002
 20
881.0047428872167
 30
0.0
 10
815.3422761291882
 20
881.1187901667618
 30
0.0
 10
815.5498519716048
 20
881.3071694537152
 30
0.0
 10
815.7551458487609
 20
881.5945560578449
 30
0.0
 10
815.9522093827318
 20
881.9941011018774
 30
0.0
 10
816.1671896690808
 20
882.6230938369334
 30
0.0
 10
816.5256356871563
 20
884.1147667210913
 30
0.0
 10
816.7064320390372
 20
885.7097476153161
 30
0.0
 10
816.8420704183384
 20
886.9063460049325
 30
0.0
  0
LINE
  5
1EA
330
1F
100
AcDbEntity
  8
0
  6
Continuous
 62
     8
370
    18
100
AcDbLine
 10
816.8420704183
 20
886.9063460049
 30
0.0
 11
816.8670149622
 21
887.1576913414
 31
0.0
  0
SPLINE
  5
1EB
330
1F
100
AcDbEntity
  8
0
  6
Continuous
 62
     8
370
    18
100
AcDbSpline
210
0.0
220
0.0
230
1.0
 70
     8
 71
     3
 72
    15
 73
    11
 74
     0
 42
0.000000001
 43
0.00000001
 40
0.0
 40
0.0
 40
0.0
 40
0.0
 40
0.1214788238627705
 40
0.242291740658605
 40
0.3637024048313836
 40
0.4867886380544297
 40
0.6105361849438973
 40
0.7368029181517176
 40
0.8656003248412104
 40
0.9999999999999999
 40
0.9999999999999999
 40
0.9999999999999999
 40
0.9999999999999999
 10
778.7892432985111
 20
887.5670113382037
 30
0.0
 10
778.6529928081304
 20
886.7946479379501
 30
0.0
 10
778.3812387078665
 20
885.2541549802658
 30
0.0
 10
778.2896735893488
 20
883.3496973490214
 30
0.0
 10
778.3854676906168
 20
881.7846337765757
 30
0.0
 10
778.6683320163764
 20
880.5865373084248
 30
0.0
 10
779.1154166854972
 20
879.7264273471567
 30
0.0
 10
779.730526268139
 20
879.177728870569
 30
0.0
 10
780.5035778468018
 20
878.8791120169142
 30
0.0
 10
781.1976316951263
 20
878.8505312617148
 30
0.0
 10
781.5520452437206
 20
878.8359367069895
 30
0.0
  0
ARC
  5
1EC
330
1F
100
AcDbEntity
  8
0
  6
Continuous
 62
     8
370
    18
100
AcDbCircle
 10
884.7879212292
 20
881.5305396879
 30
0.0
 40
5.64570147029727
100
AcDbArc
 50
76.1428606864
 51
94.6458744748
  0
ARC
  5
1ED
330
1F
100
AcDbEntity
  8
0
  6
Continuous
 62
     8
370
    18
100
AcDbCircle
 10
816.4097301923
 20
881.5305396879
 30
0.0
 40
5.645701470296695
100
AcDbArc
 50
85.3541255252
 51
103.8571393136
  0
ARC
  5
1EE
330
1F
100
AcDbEntity
  8
0
  6
Continuous
 62
     8
370
    18
100
AcDbCircle
 10
896.5723793461
 20
881.7645378501
 30
0.0
 40
5.529907721870583
100
AcDbArc
 50
86.1836506867
 51
105.7308435886
  0
ARC
  5
1EF
330
1F
100
AcDbEntity
  8
0
  6
Continuous
 62
     8
370
    18
100
AcDbCircle
 10
804.6252720754
 20
881.7645378501
 30
0.0
 40
5.529907721871247
100
AcDbArc
 50
74.2691564114
 51
93.8163493133
  0
SPLINE
  5
1F0
330
1F
100
AcDbEntity
  8
0
  6
Continuous
 62
     8
370
    18
100
AcDbSpline
210
0.0
220
0.0
230
1.0
 70
     8
 71
     3
 72
    15
 73
    11
 74
     0
 42
0.000000001
 43
0.00000001
 40
0.0
 40
0.0
 40
0.0
 40
0.0
 40
0.0247380766385671
 40
0.0492195813892918
 40
0.0751561412981266
 40
0.1186949061729388
 40
0.2418823061198462
 40
0.4816367449795085
 40
0.8380569167946074
 40
0.9999999999999999
 40
0.9999999999999999
 40
0.9999999999999999
 40
0.9999999999999999
 10
887.0165968415542
 20
940.8996092868143
 30
0.0
 10
886.9765250776792
 20
940.9005088648903
 30
0.0
 10
886.896797155728
 20
940.9022986910345
 30
0.0
 10
886.782285458749
 20
940.8619166958105
 30
0.0
 10
886.6630768221362
 20
940.7830535764923
 30
0.0
 10
886.4742534782007
 20
940.5731182991858
 30
0.0
 10
886.2504427369064
 20
940.0373919566515
 30
0.0
 10
886.1554071485643
 20
939.0335984843775
 30
0.0
 10
886.1393025849499
 20
937.9316525583986
 30
0.0
 10
886.1381867223182
 20
937.1490411725176
 30
0.0
 10
886.1378381130501
 20
936.9045437094861
 30
0.0
  0
SPLINE
  5
1F1
330
1F
100
AcDbEntity
  8
0
  6
Continuous
 62
     8
370
    18
100
AcDbSpline
210
0.0
220
0.0
230
1.0
 70
     8
 71
     3
 72
     9
 73
     5
 74
     0
 42
0.000000001
 43
0.00000001
 40
0.0
 40
0.0
 40
0.0
 40
0.0
 40
0.3204575734822471
 40
1.0
 40
1.0
 40
1.0
 40
1.0
 10
887.0165968415542
 20
940.8996092868143
 30
0.0
 10
887.0917856587788
 20
940.5446088598279
 30
0.0
 10
887.3264152117883
 20
939.4368165766597
 30
0.0
 10
887.3730977524623
 20
938.0177711871047
 30
0.0
 10
887.4048205194277
 20
937.0534696397478
 30
0.0
  0
SPLINE
  5
1F2
330
1F
100
AcDbEntity
  8
0
  6
Continuous
 62
     8
370
    18
100
AcDbSpline
210
0.0
220
0.0
230
1.0
 70
     8
 71
     3
 72
    15
 73
    11
 74
     0
 42
0.000000001
 43
0.00000001
 40
0.0
 40
0.0
 40
0.0
 40
0.0
 40
0.0247380766385671
 40
0.0492195813892918
 40
0.0751561412981266
 40
0.1186949061729388
 40
0.2418823061198462
 40
0.4816367449795085
 40
0.8380569167946074
 40
0.9999999999999999
 40
0.9999999999999999
 40
0.9999999999999999
 40
0.9999999999999999
 10
814.1810545799536
 20
940.8996092868143
 30
0.0
 10
814.2211263438288
 20
940.9005088648903
 30
0.0
 10
814.3008542657799
 20
940.9022986910345
 30
0.0
 10
814.415365962759
 20
940.8619166958105
 30
0.0
 10
814.5345745993718
 20
940.7830535764923
 30
0.0
 10
814.7233979433073
 20
940.5731182991858
 30
0.0
 10
814.9472086846016
 20
940.0373919566515
 30
0.0
 10
815.0422442729437
 20
939.0335984843775
 30
0.0
 10
815.0583488365581
 20
937.9316525583986
 30
0.0
 10
815.0594646991898
 20
937.1490411725176
 30
0.0
 10
815.0598133084578
 20
936.9045437094861
 30
0.0
  0
SPLINE
  5
1F3
330
1F
100
AcDbEntity
  8
0
  6
Continuous
 62
     8
370
    18
100
AcDbSpline
210
0.0
220
0.0
230
1.0
 70
     8
 71
     3
 72
     9
 73
     5
 74
     0
 42
0.000000001
 43
0.00000001
 40
0.0
 40
0.0
 40
0.0
 40
0.0
 40
0.3204575734822471
 40
1.0
 40
1.0
 40
1.0
 40
1.0
 10
814.1810545799536
 20
940.8996092868143
 30
0.0
 10
814.1058657627291
 20
940.5446088598279
 30
0.0
 10
813.8712362097197
 20
939.4368165766597
 30
0.0
 10
813.8245536690457
 20
938.0177711871047
 30
0.0
 10
813.7928309020801
 20
937.0534696397478
 30
0.0
  0
SPLINE
  5
1F4
330
1F
100
AcDbEntity
  8
0
  6
Continuous
 62
     8
370
    18
100
AcDbSpline
210
0.0
220
0.0
230
1.0
 70
     8
 71
     3
 72
     9
 73
     5
 74
     0
 42
0.000000001
 43
0.00000001
 40
0.0
 40
0.0
 40
0.0
 40
0.0
 40
0.6310359673708577
 40
1.0
 40
1.0
 40
1.0
 40
1.0
 10
893.7224174020096
 20
937.0534696397478
 30
0.0
 10
893.752323160001
 20
937.9899513185337
 30
0.0
 10
893.7997146868516
 20
939.473989831723
 30
0.0
 10
894.0540960236588
 20
940.6181603788988
 30
0.0
 10
894.1479535875126
 20
941.0403181580001
 30
0.0
  0
SPLINE
  5
1F5
330
1F
100
AcDbEntity
  8
0
  6
Continuous
 62
     8
370
    18
100
AcDbSpline
210
0.0
220
0.0
230
1.0
 70
     8
 71
     3
 72
    15
 73
    11
 74
     0
 42
0.000000001
 43
0.00000001
 40
0.0
 40
0.0
 40
0.0
 40
0.0
 40
0.3092032708855812
 40
0.6638381673138529
 40
0.8039859846733648
 40
0.907722223126016
 40
0.9361278440761286
 40
0.9546922578858653
 40
0.9789089327393952
 40
1.0
 40
1.0
 40
1.0
 40
1.0
 10
895.0737999853893
 20
936.8813165244752
 30
0.0
 10
895.0730592243053
 20
937.3690360740129
 30
0.0
 10
895.0714688611793
 20
938.4161364200115
 30
0.0
 10
895.0612771043045
 20
939.6173206500613
 30
0.0
 10
894.8642752566087
 20
940.4734025019608
 30
0.0
 10
894.6594189806768
 20
940.835526189638
 30
0.0
 10
894.4733319972528
 20
940.9848746429574
 30
0.0
 10
894.3669672056052
 20
941.0342296240227
 30
0.0
 10
894.2582970857811
 20
941.0550339199451
 30
0.0
 10
894.1830033446644
 20
941.0449925057467
 30
0.0
 10
894.1479535875126
 20
941.0403181580001
 30
0.0
  0
SPLINE
  5
1F6
330
1F
100
AcDbEntity
  8
0
  6
Continuous
 62
     8
370
    18
100
AcDbSpline
210
0.0
220
0.0
230
1.0
 70
     8
 71
     3
 72
    15
 73
    11
 74
     0
 42
0.000000001
 43
0.00000001
 40
0.0
 40
0.0
 40
0.0
 40
0.0
 40
0.3092032708855812
 40
0.6638381673138529
 40
0.8039859846733648
 40
0.907722223126016
 40
0.9361278440761286
 40
0.9546922578858653
 40
0.9789089327393952
 40
1.0
 40
1.0
 40
1.0
 40
1.0
 10
806.1238514361187
 20
936.8813165244752
 30
0.0
 10
806.1245921972027
 20
937.3690360740129
 30
0.0
 10
806.1261825603287
 20
938.4161364200115
 30
0.0
 10
806.1363743172034
 20
939.6173206500613
 30
0.0
 10
806.3333761648993
 20
940.4734025019608
 30
0.0
 10
806.5382324408312
 20
940.835526189638
 30
0.0
 10
806.7243194242551
 20
940.9848746429574
 30
0.0
 10
806.8306842159027
 20
941.0342296240227
 30
0.0
 10
806.9393543357269
 20
941.0550339199451
 30
0.0
 10
807.0146480768436
 20
941.0449925057467
 30
0.0
 10
807.0496978339954
 20
941.0403181580001
 30
0.0
  0
SPLINE
  5
1F7
330
1F
100
AcDbEntity
  8
0
  6
Continuous
 62
     8
370
    18
100
AcDbSpline
210
0.0
220
0.0
230
1.0
 70
     8
 71
     3
 72
     9
 73
     5
 74
     0
 42
0.000000001
 43
0.00000001
 40
0.0
 40
0.0
 40
0.0
 40
0.0
 40
0.6310359673708577
 40
1.0
 40
1.0
 40
1.0
 40
1.0
 10
807.4752340194983
 20
937.0534696397478
 30
0.0
 10
807.445328261507
 20
937.9899513185337
 30
0.0
 10
807.3979367346564
 20
939.473989831723
 30
0.0
 10
807.1435553978492
 20
940.6181603788988
 30
0.0
 10
807.0496978339954
 20
941.0403181580001
 30
0.0
  0
LINE
  5
1F8
330
1F
100
AcDbEntity
  8
0
  6
Continuous
 62
     8
370
    18
100
AcDbLine
 10
894.1479535875
 20
941.040318158
 30
0.0
 11
887.0165968416
 21
940.8996092868
 31
0.0
  0
LINE
  5
1F9
330
1F
100
AcDbEntity
  8
0
  6
Continuous
 62
     8
370
    18
100
AcDbLine
 10
807.049697834
 20
941.040318158
 30
0.0
 11
814.18105458
 21
940.8996092868
 31
0.0
  0
ARC
  5
1FA
330
1F
100
AcDbEntity
  8
0
  6
Continuous
 62
     8
370
    18
100
AcDbCircle
 10
720.3108486208
 20
943.9681337563
 30
0.0
 40
93.92034608771976
100
AcDbArc
 50
358.1277241628
 51
358.5921636275
  0
ARC
  5
1FB
330
1F
100
AcDbEntity
  8
0
  6
Continuous
 62
     8
370
    18
100
AcDbCircle
 10
980.8868028036
 20
943.9681337564
 30
0.0
 40
93.92034609061379
100
AcDbArc
 50
181.4078363725
 51
181.8722758371
  0
ARC
  5
1FC
330
1F
100
AcDbEntity
  8
0
  6
Continuous
 62
     8
370
    18
100
AcDbCircle
 10
934.7366005727
 20
943.9668507928
 30
0.0
 40
40.69401500647834
100
AcDbArc
 50
183.0755118901
 51
184.1240177481
  0
ARC
  5
1FD
330
1F
100
AcDbEntity
  8
0
  6
Continuous
 62
     8
370
    18
100
AcDbCircle
 10
766.4610508492
 20
943.9668507927
 30
0.0
 40
40.69401500614301
100
AcDbArc
 50
355.8759822519
 51
356.92448811
  0
SPLINE
  5
1FE
330
1F
100
AcDbEntity
  8
0
  6
Continuous
 62
     8
370
    18
100
AcDbSpline
210
0.0
220
0.0
230
1.0
 70
     8
 71
     3
 72
    19
 73
    15
 74
     0
 42
0.000000001
 43
0.00000001
 40
0.0
 40
0.0
 40
0.0
 40
0.0
 40
0.5108652238225625
 40
0.6773158685422048
 40
0.7897296143066569
 40
0.8649134293797366
 40
0.9149988865282999
 40
0.963893792964714
 40
0.9805047287276843
 40
0.986404994370323
 40
0.9923573834914227
 40
0.9937773878698754
 40
0.9978995592117884
 40
1.0
 40
1.0
 40
1.0
 40
1.0
 10
815.057380693893
 20
886.7526181754762
 30
0.0
 10
815.0583303958412
 20
885.5735217193937
 30
0.0
 10
815.0595895306772
 20
884.010250815434
 30
0.0
 10
815.0613569331634
 20
882.5883534923163
 30
0.0
 10
815.0542660575748
 20
882.0064264756192
 30
0.0
 10
815.0371660777347
 20
881.6451316045572
 30
0.0
 10
815.0039744029003
 20
881.3951370208531
 30
0.0
 10
814.9623049416956
 20
881.2369421854426
 30
0.0
 10
814.8940691193457
 20
881.1461221129051
 30
0.0
 10
814.8487810514321
 20
881.1148087903404
 30
0.0
 10
814.8198735664713
 20
881.1030108563976
 30
0.0
 10
814.790661439964
 20
881.0965212914721
 30
0.0
 10
814.7691642085368
 20
881.0941961371893
 30
0.0
 10
814.7517974073928
 20
881.0948175066982
 30
0.0
 10
814.7459352490707
 20
881.0950272497828
 30
0.0
  0
ARC
  5
1FF
330
1F
100
AcDbEntity
  8
0
  6
Continuous
 62
     8
370
    18
100
AcDbCircle
 10
816.4142354334
 20
881.4367954966
 30
0.0
 40
5.486257881030211
100
AcDbArc
 50
85.527360682
 51
104.3189093754
  0
ARC
  5
200
330
1F
100
AcDbEntity
  8
0
  6
Continuous
 62
     8
370
    18
100
AcDbCircle
 10
807.5650866055
 20
880.2973946397
 30
0.0
 40
7.225012458281847
100
AcDbArc
 50
5.1948253615
 51
6.3383043839
  0
ARC
  5
201
330
1F
100
AcDbEntity
  8
0
  6
Continuous
 62
     8
370
    18
100
AcDbCircle
 10
884.7834159881
 20
881.4367954966
 30
0.0
 40
5.486257881029411
100
AcDbArc
 50
75.6810906246
 51
94.472639318
  0
SPLINE
  5
202
330
1F
100
AcDbEntity
  8
0
  6
Continuous
 62
     8
370
    18
100
AcDbSpline
210
0.0
220
0.0
230
1.0
 70
     8
 71
     3
 72
    19
 73
    15
 74
     0
 42
0.000000001
 43
0.00000001
 40
0.0
 40
0.0
 40
0.0
 40
0.0
 40
0.5108652238225625
 40
0.6773158685422048
 40
0.7897296143066569
 40
0.8649134293797366
 40
0.9149988865282999
 40
0.963893792964714
 40
0.9805047287276843
 40
0.986404994370323
 40
0.9923573834914227
 40
0.9937773878698754
 40
0.9978995592117884
 40
1.0
 40
1.0
 40
1.0
 40
1.0
 10
886.1402707276148
 20
886.7526181754762
 30
0.0
 10
886.1393210256668
 20
885.5735217193937
 30
0.0
 10
886.1380618908308
 20
884.010250815434
 30
0.0
 10
886.1362944883446
 20
882.5883534923163
 30
0.0
 10
886.1433853639332
 20
882.0064264756192
 30
0.0
 10
886.1604853437732
 20
881.6451316045572
 30
0.0
 10
886.1936770186077
 20
881.3951370208531
 30
0.0
 10
886.2353464798124
 20
881.2369421854426
 30
0.0
 10
886.3035823021622
 20
881.1461221129051
 30
0.0
 10
886.3488703700758
 20
881.1148087903404
 30
0.0
 10
886.3777778550366
 20
881.1030108563976
 30
0.0
 10
886.4069899815439
 20
881.0965212914721
 30
0.0
 10
886.4284872129712
 20
881.0941961371893
 30
0.0
 10
886.4458540141152
 20
881.0948175066982
 30
0.0
 10
886.4517161724373
 20
881.0950272497828
 30
0.0
  0
ARC
  5
203
330
1F
100
AcDbEntity
  8
0
  6
Continuous
 62
     8
370
    18
100
AcDbCircle
 10
893.632564816
 20
880.2973946397
 30
0.0
 40
7.225012458281847
100
AcDbArc
 50
173.6616956161
 51
174.8051746385
  0
ARC
  5
204
330
1F
100
AcDbEntity
  8
0
  6
Continuous
 62
     8
370
    18
100
AcDbCircle
 10
897.5282569021
 20
880.1534996691
 30
0.0
 40
2.857076272422815
100
AcDbArc
 50
165.3413846046
 51
168.2965224982
  0
SPLINE
  5
205
330
1F
100
AcDbEntity
  8
0
  6
Continuous
 62
     8
370
    18
100
AcDbSpline
210
0.0
220
0.0
230
1.0
 70
     8
 71
     3
 72
    17
 73
    13
 74
     0
 42
0.000000001
 43
0.00000001
 40
0.0
 40
0.0
 40
0.0
 40
0.0
 40
0.004510843233242
 40
0.0089275808396544
 40
0.0130797616166692
 40
0.0177776523968753
 40
0.0339670294539795
 40
0.0840598168529355
 40
0.3047425820150672
 40
0.7692817376597775
 40
0.8273199878888532
 40
1.0
 40
1.0
 40
1.0
 40
1.0
 10
894.764176207523
 20
880.8765091714556
 30
0.0
 10
894.777145250418
 20
880.8747432980159
 30
0.0
 10
894.8028127748414
 20
880.8712483909507
 30
0.0
 10
894.843687947212
 20
880.872970631371
 30
0.0
 10
894.8810510463462
 20
880.8812850250142
 30
0.0
 10
894.9369746160586
 20
880.9059696200022
 30
0.0
 10
895.0214933237312
 20
880.9991612089872
 30
0.0
 10
895.1157511255884
 20
881.4031294003844
 30
0.0
 10
895.0829682967479
 20
882.5942177274118
 30
0.0
 10
895.0823020153109
 20
884.1913401863264
 30
0.0
 10
895.0763761687731
 20
885.8779900660091
 30
0.0
 10
895.0747727866133
 20
886.476124399911
 30
0.0
 10
895.073572742681
 20
886.9237952646905
 30
0.0
  0
ARC
  5
206
330
1F
100
AcDbEntity
  8
0
  6
Continuous
 62
     8
370
    18
100
AcDbCircle
 10
896.5781670644
 20
881.7023247532
 30
0.0
 40
5.433926607490079
100
AcDbArc
 50
86.3229896467
 51
106.0746159089
  0
SPLINE
  5
207
330
1F
100
AcDbEntity
  8
0
  6
Continuous
 62
     8
370
    18
100
AcDbSpline
210
0.0
220
0.0
230
1.0
 70
     8
 71
     3
 72
    17
 73
    13
 74
     0
 42
0.000000001
 43
0.00000001
 40
0.0
 40
0.0
 40
0.0
 40
0.0
 40
0.004510843233242
 40
0.0089275808396544
 40
0.0130797616166692
 40
0.0177776523968753
 40
0.0339670294539795
 40
0.0840598168529355
 40
0.3047425820150672
 40
0.7692817376597775
 40
0.8273199878888532
 40
1.0
 40
1.0
 40
1.0
 40
1.0
 10
806.4334752139849
 20
880.8765091714556
 30
0.0
 10
806.42050617109
 20
880.8747432980159
 30
0.0
 10
806.3948386466666
 20
880.8712483909507
 30
0.0
 10
806.3539634742959
 20
880.872970631371
 30
0.0
 10
806.3166003751618
 20
880.8812850250142
 30
0.0
 10
806.2606768054494
 20
880.9059696200022
 30
0.0
 10
806.1761580977768
 20
880.9991612089872
 30
0.0
 10
806.0819002959195
 20
881.4031294003844
 30
0.0
 10
806.1146831247601
 20
882.5942177274118
 30
0.0
 10
806.1153494061971
 20
884.1913401863264
 30
0.0
 10
806.1212752527348
 20
885.8779900660091
 30
0.0
 10
806.1228786348946
 20
886.476124399911
 30
0.0
 10
806.1240786788269
 20
886.9237952646905
 30
0.0
  0
ARC
  5
208
330
1F
100
AcDbEntity
  8
0
  6
Continuous
 62
     8
370
    18
100
AcDbCircle
 10
803.6693945194
 20
880.1534996691
 30
0.0
 40
2.857076272482577
100
AcDbArc
 50
11.7034775019
 51
14.6586153954
  0
ARC
  5
209
330
1F
100
AcDbEntity
  8
0
  6
Continuous
 62
     8
370
    18
100
AcDbCircle
 10
804.6194843571
 20
881.7023247532
 30
0.0
 40
5.433926607489268
100
AcDbArc
 50
73.9253840911
 51
93.6770103533
  0
SPLINE
  5
20A
330
1F
100
AcDbEntity
  8
0
  6
Continuous
 62
     8
370
    18
100
AcDbSpline
210
0.0
220
0.0
230
1.0
 70
     8
 71
     3
 72
     9
 73
     5
 74
     0
 42
0.000000001
 43
0.00000001
 40
0.0
 40
0.0
 40
0.0
 40
0.0
 40
0.5008666791437217
 40
1.0
 40
1.0
 40
1.0
 40
1.0
 10
770.763842957954
 20
940.1087860358053
 30
0.0
 10
770.1368400813105
 20
939.519158512811
 30
0.0
 10
768.8850042081087
 20
938.3419440013514
 30
0.0
 10
768.6941067353158
 20
936.9393572755699
 30
0.0
 10
768.5988234457775
 20
936.2392795053418
 30
0.0
  0
SPLINE
  5
20B
330
1F
100
AcDbEntity
  8
0
  6
Continuous
 62
     8
370
    18
100
AcDbSpline
210
0.0
220
0.0
230
1.0
 70
     8
 71
     3
 72
    11
 73
     7
 74
     0
 42
0.000000001
 43
0.00000001
 40
0.0
 40
0.0
 40
0.0
 40
0.0
 40
0.2550731831818276
 40
0.5042367190780824
 40
0.7536040744249207
 40
1.0
 40
1.0
 40
1.0
 40
1.0
 10
768.5988234457775
 20
928.1347353723937
 30
0.0
 10
768.6664212693792
 20
927.1407970593093
 30
0.0
 10
768.8000507805828
 20
925.1759484315393
 30
0.0
 10
769.7055572056765
 20
921.7044631218467
 30
0.0
 10
770.722111977147
 20
917.5289370150807
 30
0.0
 10
771.4211413720592
 20
914.3417695941083
 30
0.0
 10
771.7685612020298
 20
912.7577372607881
 30
0.0
  0
SPLINE
  5
20C
330
1F
100
AcDbEntity
  8
0
  6
Continuous
 62
     8
370
    18
100
AcDbSpline
210
0.0
220
0.0
230
1.0
 70
     8
 71
     3
 72
    16
 73
    12
 74
     0
 42
0.000000001
 43
0.00000001
 40
0.0
 40
0.0
 40
0.0
 40
0.0
 40
0.084102273320738
 40
0.1602171380386287
 40
0.2409583643568493
 40
0.3620064738192565
 40
0.4856774870422652
 40
0.6137082091713768
 40
0.745654616682558
 40
0.8791145786006033
 40
1.0
 40
1.0
 40
1.0
 40
1.0
 10
769.2375319180293
 20
889.7497855839425
 30
0.0
 10
769.266466038054
 20
890.2709572633121
 30
0.0
 10
769.321586330514
 20
891.2638036109598
 30
0.0
 10
769.3561163021635
 20
892.8418447011704
 30
0.0
 10
769.3361173491385
 20
894.7193558734082
 30
0.0
 10
769.2233602397944
 20
897.0003169213227
 30
0.0
 10
768.9709854547846
 20
899.6848466145796
 30
0.0
 10
768.6055821325215
 20
902.4897038616493
 30
0.0
 10
768.1030647639926
 20
905.362639073106
 30
0.0
 10
767.4757717546595
 20
908.1456512061096
 30
0.0
 10
766.8940524112002
 20
909.8825169327528
 30
0.0
 10
766.617572504024
 20
910.708015483349
 30
0.0
  0
SPLINE
  5
20D
330
1F
100
AcDbEntity
  8
0
  6
Continuous
 62
     8
370
    18
100
AcDbSpline
210
0.0
220
0.0
230
1.0
 70
     8
 71
     3
 72
    11
 73
     7
 74
     0
 42
0.000000001
 43
0.00000001
 40
0.0
 40
0.0
 40
0.0
 40
0.0
 40
0.2470286507798259
 40
0.4999998597004967
 40
0.7529705706550088
 40
1.0
 40
1.0
 40
1.0
 40
1.0
 10
766.617572504024
 20
910.708015483349
 30
0.0
 10
767.1003504788201
 20
910.84477902227
 30
0.0
 10
768.0775202075235
 20
911.121596104243
 30
0.0
 10
769.47663311591
 20
911.6338577311146
 30
0.0
 10
770.7566699245341
 20
912.1877017241965
 30
0.0
 10
771.4339467034928
 20
912.5692366190027
 30
0.0
 10
771.7685612020298
 20
912.7577372607881
 30
0.0
  0
SPLINE
  5
20E
330
1F
100
AcDbEntity
  8
0
  6
Continuous
 62
     8
370
    18
100
AcDbSpline
210
0.0
220
0.0
230
1.0
 70
     8
 71
     3
 72
    11
 73
     7
 74
     0
 42
0.000000001
 43
0.00000001
 40
0.0
 40
0.0
 40
0.0
 40
0.0
 40
0.248127212846326
 40
0.5000000020296311
 40
0.7518729749039678
 40
1.0
 40
1.0
 40
1.0
 40
1.0
 10
769.2375319180293
 20
889.7497855839425
 30
0.0
 10
770.0942951882238
 20
889.7039761563608
 30
0.0
 10
771.8207549018605
 20
889.6116657901533
 30
0.0
 10
774.3353197684191
 20
889.1545458901738
 30
0.0
 10
776.7170868068937
 20
888.492751703472
 30
0.0
 10
778.1019829671156
 20
887.8740463680357
 30
0.0
 10
778.7892432985111
 20
887.5670113382037
 30
0.0
  0
SPLINE
  5
20F
330
1F
100
AcDbEntity
  8
0
  6
Continuous
 62
     8
370
    18
100
AcDbSpline
210
0.0
220
0.0
230
1.0
 70
     8
 71
     3
 72
    11
 73
     7
 74
     0
 42
0.000000001
 43
0.00000001
 40
0.0
 40
0.0
 40
0.0
 40
0.0
 40
0.2481513520926576
 40
0.4948147997344533
 40
0.7425291663017883
 40
1.0
 40
1.0
 40
1.0
 40
1.0
 10
766.617572504024
 20
910.708015483349
 30
0.0
 10
766.1792062352189
 20
912.1806472084525
 30
0.0
 10
765.3051021222251
 20
915.1170808244481
 30
0.0
 10
765.1124753540007
 20
919.2163140885467
 30
0.0
 10
765.4206228984884
 20
922.8255397962353
 30
0.0
 10
765.538664279822
 20
924.6178378515439
 30
0.0
 10
765.5988248166843
 20
925.5312938955719
 30
0.0
  0
SPLINE
  5
210
330
1F
100
AcDbEntity
  8
0
  6
Continuous
 62
     8
370
    18
100
AcDbSpline
210
0.0
220
0.0
230
1.0
 70
     8
 71
     3
 72
    13
 73
     9
 74
     0
 42
0.000000001
 43
0.00000001
 40
0.0
 40
0.0
 40
0.0
 40
0.0
 40
0.2394566602310418
 40
0.3683603754697415
 40
0.4999996109481874
 40
0.6316388951292723
 40
0.760542421062195
 40
1.0
 40
1.0
 40
1.0
 40
1.0
 10
768.5988234457775
 20
928.1347353723937
 30
0.0
 10
768.5587487869747
 20
927.8072327065466
 30
0.0
 10
768.4971012372712
 20
927.3034296181614
 30
0.0
 10
768.1230127889464
 20
926.6973036940888
 30
0.0
 10
767.7358276986891
 20
926.2802151955467
 30
0.0
 10
767.2552080918318
 20
925.944211227268
 30
0.0
 10
766.5567604416261
 20
925.6195653220716
 30
0.0
 10
765.9762152320127
 20
925.5660694999455
 30
0.0
 10
765.5988248166843
 20
925.5312938955719
 30
0.0
  0
SPLINE
  5
211
330
1F
100
AcDbEntity
  8
0
  6
Continuous
 62
     8
370
    18
100
AcDbSpline
210
0.0
220
0.0
230
1.0
 70
     8
 71
     3
 72
    15
 73
    11
 74
     0
 42
0.000000001
 43
0.00000001
 40
0.0
 40
0.0
 40
0.0
 40
0.0
 40
0.1244412355934162
 40
0.2484267207253796
 40
0.3749294875789094
 40
0.4978109917497409
 40
0.625130385014833
 40
0.7476643348861695
 40
0.8755548543077948
 40
1.0
 40
1.0
 40
1.0
 40
1.0
 10
781.5520452437206
 20
878.8359367069895
 30
0.0
 10
780.6714681549443
 20
878.8553024772337
 30
0.0
 10
778.9135389808451
 20
878.8939630930109
 30
0.0
 10
776.5361005381837
 20
879.272382639532
 30
0.0
 10
774.397204744103
 20
879.9606476029834
 30
0.0
 10
772.5359185459087
 20
881.0439723655398
 30
0.0
 10
771.022148961021
 20
882.5384191044408
 30
0.0
 10
769.9073097765544
 20
884.5139426329026
 30
0.0
 10
769.2252428097145
 20
886.8985741358077
 30
0.0
 10
769.2334730067716
 20
888.8080724873988
 30
0.0
 10
769.2375319180293
 20
889.7497855839425
 30
0.0
  0
SPLINE
  5
212
330
1F
100
AcDbEntity
  8
0
  6
Continuous
 62
     8
370
    18
100
AcDbSpline
210
0.0
220
0.0
230
1.0
 70
    24
 71
     3
 72
    11
 73
     7
 74
     0
 42
0.000000001
 43
0.00000001
 40
0.0
 40
0.0
 40
0.0
 40
0.0
 40
0.2499999916716956
 40
0.5000000124744761
 40
0.7500000110171114
 40
0.9999999999999999
 40
0.9999999999999999
 40
0.9999999999999999
 40
0.9999999999999999
 10
765.5988248166843
 20
925.5312938955719
 30
0.0
 10
765.5988248166843
 20
926.0346846351357
 30
0.0
 10
765.5988248166843
 20
927.0414661729208
 30
0.0
 10
765.5988248166842
 20
928.0543955694773
 30
0.0
 10
765.5988248166843
 20
928.7148837126052
 30
0.0
 10
765.5988248166843
 20
928.7955862060811
 30
0.0
 10
765.5988248166843
 20
928.8359374520475
 30
0.0
  0
SPLINE
  5
213
330
1F
100
AcDbEntity
  8
0
  6
Continuous
 62
     8
370
    18
100
AcDbSpline
210
0.0
220
0.0
230
1.0
 70
     8
 71
     3
 72
     9
 73
     5
 74
     0
 42
0.000000001
 43
0.00000001
 40
0.0
 40
0.0
 40
0.0
 40
0.0
 40
0.5146838913047219
 40
1.0
 40
1.0
 40
1.0
 40
1.0
 10
770.763842957954
 20
940.1087860358053
 30
0.0
 10
770.7108107983628
 20
940.3537753561593
 30
0.0
 10
770.6077724859399
 20
940.8297749444364
 30
0.0
 10
770.6337081515608
 20
941.2511999863909
 30
0.0
 10
770.6462951478763
 20
941.4557243478591
 30
0.0
  0
SPLINE
  5
214
330
1F
100
AcDbEntity
  8
0
  6
Continuous
 62
     8
370
    18
100
AcDbSpline
210
0.0
220
0.0
230
1.0
 70
     8
 71
     3
 72
     9
 73
     5
 74
     0
 42
0.000000001
 43
0.00000001
 40
0.0
 40
0.0
 40
0.0
 40
0.0
 40
0.501955596952978
 40
1.0
 40
1.0
 40
1.0
 40
1.0
 10
775.2706768092913
 20
944.1436246750051
 30
0.0
 10
774.3865122192022
 20
943.8669838551017
 30
0.0
 10
772.6250723718209
 20
943.3158577762557
 30
0.0
 10
771.3041654481543
 20
942.0741499706572
 30
0.0
 10
770.6462951478763
 20
941.4557243478591
 30
0.0
  0
SPLINE
  5
215
330
1F
100
AcDbEntity
  8
0
  6
Continuous
 62
     8
370
    18
100
AcDbSpline
210
0.0
220
0.0
230
1.0
 70
     8
 71
     3
 72
     9
 73
     5
 74
     0
 42
0.000000001
 43
0.00000001
 40
0.0
 40
0.0
 40
0.0
 40
0.0
 40
0.499154576787481
 40
1.0
 40
1.0
 40
1.0
 40
1.0
 10
770.6462951478763
 20
941.4557243478591
 30
0.0
 10
770.0555324918517
 20
940.644242101104
 30
0.0
 10
768.8720060182959
 20
939.0185287760304
 30
0.0
 10
768.6899868920799
 20
937.1667396259261
 30
0.0
 10
768.5988234457775
 20
936.2392795053418
 30
0.0
  0
LINE
  5
216
330
1F
100
AcDbEntity
  8
0
  6
Continuous
 62
     8
370
    18
100
AcDbLine
 10
720.410420197
 20
903.8359389422
 30
0.0
 11
720.410420197
 21
878.7859358606
 31
0.0
  0
LINE
  5
217
330
1F
100
AcDbEntity
  8
0
  6
Continuous
 62
     8
370
    18
100
AcDbLine
 10
720.410420197
 20
928.8859382984
 30
0.0
 11
720.410420197
 21
903.8359389422
 31
0.0
  0
LINE
  5
218
330
1F
100
AcDbEntity
  8
0
  6
Continuous
 62
     8
370
    18
100
AcDbLine
 10
719.7938697514
 20
903.8359389422
 30
0.0
 11
719.7938697514
 21
928.8218986956
 31
0.0
  0
LINE
  5
219
330
1F
100
AcDbEntity
  8
0
  6
Continuous
 62
     8
370
    18
100
AcDbLine
 10
719.7938697514
 20
878.8499810514
 30
0.0
 11
719.7938697514
 21
903.8359389422
 31
0.0
  0
LINE
  5
21A
330
1F
100
AcDbEntity
  8
0
  6
Continuous
 62
     8
370
    18
100
AcDbLine
 10
1140.5988173661
 20
953.5596783287
 30
0.0
 11
1142.5988214192
 21
953.5596783287
 31
0.0
  0
LINE
  5
21B
330
1F
100
AcDbEntity
  8
0
  6
Continuous
 62
     8
370
    18
100
AcDbLine
 10
1142.5988214192
 20
951.7470627804
 30
0.0
 11
1140.5988173661
 21
951.7470627804
 31
0.0
  0
LINE
  5
21C
330
1F
100
AcDbEntity
  8
0
  6
Continuous
 62
     8
370
    18
100
AcDbLine
 10
1140.5988173661
 20
944.4887635079
 30
0.0
 11
1142.5988214192
 21
944.4887635079
 31
0.0
  0
LINE
  5
21D
330
1F
100
AcDbEntity
  8
0
  6
Continuous
 62
     8
370
    18
100
AcDbLine
 10
1142.5988214192
 20
942.6761480761
 30
0.0
 11
1140.5988173661
 21
942.6761480761
 31
0.0
  0
LINE
  5
21E
330
1F
100
AcDbEntity
  8
0
  6
Continuous
 62
     8
370
    18
100
AcDbLine
 10
1140.5988173661
 20
908.3855391261
 30
0.0
 11
1142.5988214192
 21
908.3855391261
 31
0.0
  0
LINE
  5
21F
330
1F
100
AcDbEntity
  8
0
  6
Continuous
 62
     8
370
    18
100
AcDbLine
 10
558.5988300023
 20
953.5596783287
 30
0.0
 11
560.5988340554
 21
953.5596783287
 31
0.0
  0
LINE
  5
220
330
1F
100
AcDbEntity
  8
0
  6
Continuous
 62
     8
370
    18
100
AcDbLine
 10
560.5988340554
 20
951.7470627804
 30
0.0
 11
558.5988300023
 21
951.7470627804
 31
0.0
  0
LINE
  5
221
330
1F
100
AcDbEntity
  8
0
  6
Continuous
 62
     8
370
    18
100
AcDbLine
 10
558.5988300023
 20
944.4887635079
 30
0.0
 11
560.5988340554
 21
944.4887635079
 31
0.0
  0
LINE
  5
222
330
1F
100
AcDbEntity
  8
0
  6
Continuous
 62
     8
370
    18
100
AcDbLine
 10
560.5988340554
 20
942.6761480761
 30
0.0
 11
558.5988300023
 21
942.6761480761
 31
0.0
  0
LINE
  5
223
330
1F
100
AcDbEntity
  8
0
  6
Continuous
 62
     8
370
    18
100
AcDbLine
 10
558.5988300023
 20
908.3855391261
 30
0.0
 11
560.5988340554
 21
908.3855391261
 31
0.0
  0
LINE
  5
224
330
1F
100
AcDbEntity
  8
0
  6
Continuous
 62
     8
370
    18
100
AcDbLine
 10
538.0988257108
 20
960.2855380406
 30
0.0
 11
538.0988257108
 21
959.2855378767
 31
0.0
  0
LINE
  5
225
330
1F
100
AcDbEntity
  8
0
  6
Continuous
 62
     8
370
    18
100
AcDbLine
 10
558.4988134084
 20
961.2855377388
 30
0.0
 11
528.0988352475
 21
961.2855377388
 31
0.0
  0
LINE
  5
226
330
1F
100
AcDbEntity
  8
0
  6
Continuous
 62
     8
370
    18
100
AcDbLine
 10
1163.0988257108
 20
959.2855378767
 30
0.0
 11
1163.0988257108
 21
960.2855380406
 31
0.0
  0
LINE
  5
227
330
1F
100
AcDbEntity
  8
0
  6
Continuous
 62
     8
370
    18
100
AcDbLine
 10
1173.098816174
 20
961.2855377388
 30
0.0
 11
1142.6988380132
 21
961.2855377388
 31
0.0
  0
SPLINE
  5
228
330
1F
100
AcDbEntity
  8
0
  6
Continuous
 62
     7
370
    35
100
AcDbSpline
210
0.0
220
0.0
230
1.0
 70
     8
 71
     3
 72
    17
 73
    13
 74
     0
 42
0.000000001
 43
0.00000001
 40
0.0
 40
0.0
 40
0.0
 40
0.0
 40
0.2768005000327556
 40
0.6223728768910286
 40
0.7088196796020605
 40
0.7838448634527456
 40
0.8157357368176029
 40
0.8451960926776674
 40
0.8741221963423499
 40
0.9038029177953378
 40
0.9671951904878255
 40
1.0
 40
1.0
 40
1.0
 40
1.0
 10
1535.451249667571
 20
945.9602922913725
 30
0.0
 10
1535.443275350702
 20
945.9376079692946
 30
0.0
 10
1535.425345475105
 20
945.8866033403644
 30
0.0
 10
1535.542656768657
 20
945.2603780107446
 30
0.0
 10
1535.355561339453
 20
944.5372532438782
 30
0.0
 10
1534.996876830211
 20
944.2046491767794
 30
0.0
 10
1534.465996951395
 20
943.9752213012076
 30
0.0
 10
1534.034099760511
 20
943.7265758001771
 30
0.0
 10
1533.573896566654
 20
943.4127455447297
 30
0.0
 10
1532.95807699012
 20
942.885577736533
 30
0.0
 10
1532.362514440382
 20
942.2394337620887
 30
0.0
 10
1532.129265968302
 20
941.6496489040568
 30
0.0
 10
1532.049724348949
 20
941.4485224303895
 30
0.0
  0
SPLINE
  5
229
330
1F
100
AcDbEntity
  8
0
  6
Continuous
 62
     7
370
    35
100
AcDbSpline
210
0.0
220
0.0
230
1.0
 70
     8
 71
     3
 72
    21
 73
    17
 74
     0
 42
0.000000001
 43
0.00000001
 40
0.0
 40
0.0
 40
0.0
 40
0.0
 40
0.0255454281536364
 40
0.1124490500126431
 40
0.2033170199334611
 40
0.2490804834392613
 40
0.2715852713888898
 40
0.2935013353422645
 40
0.3146012159253386
 40
0.3348809512001738
 40
0.4493216932183398
 40
0.5252770940437804
 40
0.6051551178829105
 40
0.7851511723432292
 40
0.998607997864527
 40
1.0
 40
1.0
 40
1.0
 40
1.0
 10
1595.82935784118
 20
941.5590061587388
 30
0.0
 10
1595.779641998346
 20
941.6756676993067
 30
0.0
 10
1595.560796604031
 20
942.1892030110257
 30
0.0
 10
1594.888606526651
 20
942.9700011503107
 30
0.0
 10
1594.015443758368
 20
943.657137072248
 30
0.0
 10
1593.322037410895
 20
944.0356203048264
 30
0.0
 10
1592.907555209005
 20
944.2089885831908
 30
0.0
 10
1592.662048574264
 20
944.4264731085424
 30
0.0
 10
1592.49799893068
 20
944.6940419258513
 30
0.0
 10
1592.374235080204
 20
945.4267389806183
 30
0.0
 10
1592.471650696
 20
946.3452429405746
 30
0.0
 10
1592.446616943579
 20
947.2402565237406
 30
0.0
 10
1592.454374983393
 20
948.0668302347601
 30
0.0
 10
1592.44986216553
 20
948.6367693256416
 30
0.0
 10
1592.451256938562
 20
948.8254377148007
 30
0.0
 10
1592.451255295952
 20
948.7674969770919
 30
0.0
 10
1592.451255285309
 20
948.7671215799744
 30
0.0
  0
ARC
  5
22A
330
1F
100
AcDbEntity
  8
0
  6
Continuous
 62
     7
370
    35
100
AcDbCircle
 10
1544.0146946421
 20
893.8359360761
 30
0.0
 40
15.00000010674827
100
AcDbArc
 50
235.2279399476
 51
269.9820315269
  0
ARC
  5
22B
330
1F
100
AcDbEntity
  8
0
  6
Continuous
 62
     7
370
    35
100
AcDbCircle
 10
1583.8878267865
 20
893.8358639193
 30
0.0
 40
14.99992794416723
100
AcDbArc
 50
270.0178985116
 51
305.123744162
  0
SPLINE
  5
22C
330
1F
100
AcDbEntity
  8
0
  6
Continuous
 62
     7
370
    35
100
AcDbSpline
210
0.0
220
0.0
230
1.0
 70
     8
 71
     3
 72
    14
 73
    10
 74
     0
 42
0.000000001
 43
0.00000001
 40
0.0
 40
0.0
 40
0.0
 40
0.0
 40
0.1910307518063988
 40
0.5100957646009037
 40
0.6698730470890186
 40
0.7584357924384602
 40
0.8292877147551062
 40
0.9200934040580184
 40
1.0
 40
1.0
 40
1.0
 40
1.0
 10
1596.309331693815
 20
940.9402792123253
 30
0.0
 10
1596.262867221636
 20
940.985060685866
 30
0.0
 10
1596.138796462144
 20
941.1046374543687
 30
0.0
 10
1596.00523814285
 20
941.2872268774051
 30
0.0
 10
1595.90312199024
 20
941.4439605570782
 30
0.0
 10
1595.862015479864
 20
941.5136003524251
 30
0.0
 10
1595.843428284444
 20
941.5463200319065
 30
0.0
 10
1595.834210024052
 20
941.5632027518469
 30
0.0
 10
1595.834886280954
 20
941.5619510788886
 30
0.0
 10
1595.835202821658
 20
941.5613651988202
 30
0.0
  0
SPLINE
  5
22D
330
1F
100
AcDbEntity
  8
0
  6
Continuous
 62
     7
370
    35
100
AcDbSpline
210
0.0
220
0.0
230
1.0
 70
     8
 71
     3
 72
    14
 73
    10
 74
     0
 42
0.000000001
 43
0.00000001
 40
0.0
 40
0.0
 40
0.0
 40
0.0
 40
0.0318525785995404
 40
0.1445186986112301
 40
0.2397822960191954
 40
0.326083813265316
 40
0.511918034706328
 40
0.8180492736702176
 40
1.0
 40
1.0
 40
1.0
 40
1.0
 10
1532.066536584066
 20
941.5597391096051
 30
0.0
 10
1532.067379846108
 20
941.5613876491117
 30
0.0
 10
1532.071205819963
 20
941.5688672565589
 30
0.0
 10
1532.062147438185
 20
941.55168464991
 30
0.0
 10
1532.041079416925
 20
941.5144922871261
 30
0.0
 10
1531.988563340057
 20
941.4260514311244
 30
0.0
 10
1531.875420619752
 20
941.2568529391658
 30
0.0
 10
1531.733016708185
 20
941.0661461561709
 30
0.0
 10
1531.604298047738
 20
940.9505902550555
 30
0.0
 10
1531.556313374208
 20
940.9075124901825
 30
0.0
  0
SPLINE
  5
22E
330
1F
100
AcDbEntity
  8
0
  6
Continuous
 62
     7
370
    35
100
AcDbSpline
210
0.0
220
0.0
230
1.0
 70
     8
 71
     3
 72
    12
 73
     8
 74
     0
 42
0.000000001
 43
0.00000001
 40
0.0
 40
0.0
 40
0.0
 40
0.0
 40
0.1423630360673927
 40
0.2495220828187859
 40
0.3688911778788911
 40
0.6085326590872853
 40
1.0
 40
1.0
 40
1.0
 40
1.0
 10
1591.598653682635
 20
880.9842594680482
 30
0.0
 10
1591.599098639268
 20
880.9845179394748
 30
0.0
 10
1591.599878522225
 20
880.9849709666826
 30
0.0
 10
1591.615330926955
 20
880.9937931266654
 30
0.0
 10
1591.648134460233
 20
881.0119035164655
 30
0.0
 10
1591.715593715508
 20
881.0493445201259
 30
0.0
 10
1591.777234468389
 20
881.0737543626074
 30
0.0
 10
1591.815469303296
 20
881.0888954219514
 30
0.0
  0
SPLINE
  5
22F
330
1F
100
AcDbEntity
  8
0
  6
Continuous
 62
     7
370
    35
100
AcDbSpline
210
0.0
220
0.0
230
1.0
 70
     8
 71
     3
 72
    13
 73
     9
 74
     0
 42
0.000000001
 43
0.00000001
 40
0.0
 40
0.0
 40
0.0
 40
0.0
 40
0.2312650499635739
 40
0.5779599321420221
 40
0.7146428759275881
 40
0.8157373287062061
 40
0.9213222680645994
 40
1.0
 40
1.0
 40
1.0
 40
1.0
 10
1536.103849747346
 20
881.0857587275202
 30
0.0
 10
1536.124854103055
 20
881.0766530510243
 30
0.0
 10
1536.177346583012
 20
881.0538968404753
 30
0.0
 10
1536.240097118479
 20
881.0197421669928
 30
0.0
 10
1536.282278887192
 20
880.9965324809608
 30
0.0
 10
1536.297646978717
 20
880.9878278093304
 30
0.0
 10
1536.304268473809
 20
880.9840240719213
 30
0.0
 10
1536.303857324761
 20
880.9842621289591
 30
0.0
 10
1536.303681769536
 20
880.9843637761766
 30
0.0
  0
LINE
  5
230
330
1F
100
AcDbEntity
  8
0
  6
Continuous
 62
     7
370
    35
100
AcDbLine
 10
1536.1150591459
 20
881.098469418
 30
0.0
 11
1535.9887718047
 21
881.1771699009
 31
0.0
  0
LINE
  5
231
330
1F
100
AcDbEntity
  8
0
  6
Continuous
 62
     7
370
    35
100
AcDbLine
 10
1532.4512510385
 20
878.835936707
 30
0.0
 11
1544.4525512691
 21
878.835936707
 31
0.0
  0
ARC
  5
232
330
1F
100
AcDbEntity
  8
0
  6
Continuous
 62
     7
370
    35
100
AcDbCircle
 10
1532.4512515451
 20
891.8359378565
 30
0.0
 40
13.0
100
AcDbArc
 50
180.0
 51
270.0
  0
SPLINE
  5
233
330
1F
100
AcDbEntity
  8
0
  6
Continuous
 62
     7
370
    35
100
AcDbSpline
210
0.0
220
0.0
230
1.0
 70
     8
 71
     3
 72
    10
 73
     6
 74
     0
 42
0.000000001
 43
0.00000001
 40
0.0
 40
0.0
 40
0.0
 40
0.0
 40
0.0620055101114436
 40
0.5094153472750356
 40
1.0
 40
1.0
 40
1.0
 40
1.0
 10
1592.451268323825
 20
946.4405259830053
 30
0.0
 10
1592.451267679925
 20
946.5353529489403
 30
0.0
 10
1592.45126238987
 20
947.314417772309
 30
0.0
 10
1592.451261154983
 20
948.4246813959313
 30
0.0
 10
1592.451258523997
 20
948.9901758686831
 30
0.0
 10
1592.451257147954
 20
949.285937637567
 30
0.0
  0
LINE
  5
234
330
1F
100
AcDbEntity
  8
0
  6
Continuous
 62
     7
370
    35
100
AcDbLine
 10
1629.4512501742
 20
960.2855380406
 30
0.0
 11
1629.4262534763
 21
960.2855380406
 31
0.0
  0
LINE
  5
235
330
1F
100
AcDbEntity
  8
0
  6
Continuous
 62
     7
370
    35
100
AcDbLine
 10
1629.4512501742
 20
959.2855378767
 30
0.0
 11
1629.4262534763
 21
959.2855378767
 31
0.0
  0
LINE
  5
236
330
1F
100
AcDbEntity
  8
0
  6
Continuous
 62
     7
370
    35
100
AcDbLine
 10
1629.4512501742
 20
959.2855378767
 30
0.0
 11
1629.4512501742
 21
960.2855380406
 31
0.0
  0
ARC
  5
237
330
1F
100
AcDbEntity
  8
0
  6
Continuous
 62
     7
370
    35
100
AcDbCircle
 10
1599.9512515451
 20
961.2855378565
 30
0.0
 40
1.000000000000114
100
AcDbArc
 50
180.0
 51
270.0
  0
ARC
  5
238
330
1F
100
AcDbEntity
  8
0
  6
Continuous
 62
     7
370
    35
100
AcDbCircle
 10
1515.4512515451
 20
973.2855378565
 30
0.0
 40
1.000000000000227
100
AcDbArc
 50
180.0
 51
270.0
  0
LINE
  5
239
330
1F
100
AcDbEntity
  8
0
  6
Continuous
 62
     7
370
    35
100
AcDbLine
 10
1530.9512517239
 20
959.2855378767
 30
0.0
 11
1530.9512517239
 21
957.9474564423
 31
0.0
  0
LWPOLYLINE
  5
23A
330
1F
100
AcDbEntity
  8
0
  6
Continuous
 62
     7
370
    35
100
AcDbPolyline
 90
        3
 70
   128
 43
0.0
 10
1530.9512517239
 20
957.9474564423
 10
1530.9869623567
 20
957.5711937402
 10
1531.0512496914
 20
957.3229564601
  0
ARC
  5
23B
330
1F
100
AcDbEntity
  8
0
  6
Continuous
 62
     7
370
    35
100
AcDbCircle
 10
1594.9512515451
 20
957.9474563458
 30
0.0
 40
2.000000000000323
100
AcDbArc
 50
337.6683549908
 51
0.0
  0
LINE
  5
23C
330
1F
100
AcDbEntity
  8
0
  6
Continuous
 62
     7
370
    35
100
AcDbLine
 10
1514.4262513901
 20
1002.7855389533
 30
0.0
 11
1514.4512518133
 21
1002.7855389533
 31
0.0
  0
LINE
  5
23D
330
1F
100
AcDbEntity
  8
0
  6
Continuous
 62
     7
370
    35
100
AcDbLine
 10
1514.4512518133
 20
973.2855387745
 30
0.0
 11
1514.4512518133
 21
1002.7855389533
 31
0.0
  0
LINE
  5
23E
330
1F
100
AcDbEntity
  8
0
  6
Continuous
 62
     7
370
    35
100
AcDbLine
 10
1596.9512513663
 20
957.9474564423
 30
0.0
 11
1596.9512513663
 21
959.2855378767
 31
0.0
  0
LINE
  5
23F
330
1F
100
AcDbEntity
  8
0
  6
Continuous
 62
     7
370
    35
100
AcDbLine
 10
1591.9512524094
 20
950.0239455854
 30
0.0
 11
1591.9512524094
 21
949.2859376376
 31
0.0
  0
LINE
  5
240
330
1F
100
AcDbEntity
  8
0
  6
Continuous
 62
     7
370
    35
100
AcDbLine
 10
1535.9512506809
 20
950.0006303904
 30
0.0
 11
1535.9512506809
 21
949.2859376376
 31
0.0
  0
LINE
  5
241
330
1F
100
AcDbEntity
  8
0
  6
Continuous
 62
     7
370
    35
100
AcDbLine
 10
1535.9512506809
 20
949.2859376376
 30
0.0
 11
1537.4839152034
 21
949.2859376376
 31
0.0
  0
LINE
  5
242
330
1F
100
AcDbEntity
  8
0
  6
Continuous
 62
     7
370
    35
100
AcDbLine
 10
1590.3685889031
 20
949.2859376376
 30
0.0
 11
1591.9512524094
 21
949.2859376376
 31
0.0
  0
SPLINE
  5
243
330
1F
100
AcDbEntity
  8
0
  6
Continuous
 62
     7
370
    35
100
AcDbSpline
210
0.0
220
0.0
230
1.0
 70
     8
 71
     3
 72
    15
 73
    11
 74
     0
 42
0.000000001
 43
0.00000001
 40
0.0
 40
0.0
 40
0.0
 40
0.0
 40
0.1218108426115062
 40
0.2436370689119372
 40
0.3683236608265777
 40
0.4930006352855147
 40
0.6185872273216672
 40
0.7450342401164958
 40
0.871990472181674
 40
1.0
 40
1.0
 40
1.0
 40
1.0
 10
1527.212896832393
 20
925.8488991079026
 30
0.0
 10
1526.880036147261
 20
924.371234998272
 30
0.0
 10
1526.214272739481
 20
921.4157201624132
 30
0.0
 10
1525.651492361262
 20
916.8660144743579
 30
0.0
 10
1525.390056174668
 20
912.2567252018956
 30
0.0
 10
1525.484680591966
 20
907.5926411794438
 30
0.0
 10
1525.947356664287
 20
902.9280688668346
 30
0.0
 10
1526.808835800689
 20
898.293043604893
 30
0.0
 10
1528.049031476787
 20
893.7075381320009
 30
0.0
 10
1529.227919849282
 20
890.7635089275319
 30
0.0
 10
1529.819799103902
 20
889.2854132470782
 30
0.0
  0
SPLINE
  5
244
330
1F
100
AcDbEntity
  8
0
  6
Continuous
 62
     7
370
    35
100
AcDbSpline
210
0.0
220
0.0
230
1.0
 70
     8
 71
     3
 72
    12
 73
     8
 74
     0
 42
0.000000001
 43
0.00000001
 40
0.0
 40
0.0
 40
0.0
 40
0.0
 40
0.0000116454751395
 40
0.0165619494537754
 40
0.2254763790943302
 40
0.6569695918089118
 40
0.9999999999999999
 40
0.9999999999999999
 40
0.9999999999999999
 40
0.9999999999999999
 10
1532.058624067472
 20
941.2420072374041
 30
0.0
 10
1532.058619100555
 20
941.2419935782104
 30
0.0
 10
1532.051555256994
 20
941.2225677607382
 30
0.0
 10
1531.944023989416
 20
940.9412394657385
 30
0.0
 10
1531.597494737773
 20
940.0127377089307
 30
0.0
 10
1531.014131572829
 20
938.4330932329705
 30
0.0
 10
1530.579827373467
 20
937.1819646328777
 30
0.0
 10
1530.387477466033
 20
936.627849635213
 30
0.0
  0
SPLINE
  5
245
330
1F
100
AcDbEntity
  8
0
  6
Continuous
 62
     7
370
    35
100
AcDbSpline
210
0.0
220
0.0
230
1.0
 70
     8
 71
     3
 72
    11
 73
     7
 74
     0
 42
0.000000001
 43
0.00000001
 40
0.0
 40
0.0
 40
0.0
 40
0.0
 40
0.0347537895453851
 40
0.2142493135768864
 40
0.4963137736266424
 40
1.0
 40
1.0
 40
1.0
 40
1.0
 10
1535.433545225428
 20
945.2023139936025
 30
0.0
 10
1535.439971165932
 20
945.2492316515061
 30
0.0
 10
1535.479585647116
 20
945.5384684838627
 30
0.0
 10
1535.43299996908
 20
946.2171547472794
 30
0.0
 10
1535.461652620615
 20
947.5296182832334
 30
0.0
 10
1535.455314455607
 20
948.5998754819767
 30
0.0
 10
1535.451251530216
 20
949.285937637567
 30
0.0
  0
SPLINE
  5
246
330
1F
100
AcDbEntity
  8
0
  6
Continuous
 62
     7
370
    35
100
AcDbSpline
210
0.0
220
0.0
230
1.0
 70
    24
 71
     3
 72
    13
 73
     9
 74
     0
 42
0.000000001
 43
0.00000001
 40
0.0
 40
0.0
 40
0.0
 40
0.0
 40
0.3699056009583239
 40
0.7496874980230464
 40
0.827861325033761
 40
0.9058135746312898
 40
0.9827830788293977
 40
1.0
 40
1.0
 40
1.0
 40
1.0
 10
1535.451251530216
 20
949.285937637567
 30
0.0
 10
1535.439347034902
 20
949.285937637567
 30
0.0
 10
1535.415220200153
 20
949.285937637567
 30
0.0
 10
1535.550542220623
 20
949.285937637567
 30
0.0
 10
1535.385257970394
 20
949.285937637567
 30
0.0
 10
1535.702377451217
 20
949.285937637567
 30
0.0
 10
1536.487768449525
 20
949.285937637567
 30
0.0
 10
1537.329964889782
 20
949.285937637567
 30
0.0
 10
1537.483915203379
 20
949.285937637567
 30
0.0
  0
SPLINE
  5
247
330
1F
100
AcDbEntity
  8
0
  6
Continuous
 62
     7
370
    35
100
AcDbSpline
210
0.0
220
0.0
230
1.0
 70
    24
 71
     3
 72
    13
 73
     9
 74
     0
 42
0.000000001
 43
0.00000001
 40
0.0
 40
0.0
 40
0.0
 40
0.0
 40
0.3691963091273465
 40
0.748249976620948
 40
0.8262739057746114
 40
0.9040766823884854
 40
0.9808985980115066
 40
1.0
 40
1.0
 40
1.0
 40
1.0
 10
1592.451251560019
 20
949.285937637567
 30
0.0
 10
1592.463078264012
 20
949.285937637567
 30
0.0
 10
1592.487047439129
 20
949.285937637567
 30
0.0
 10
1592.352609861903
 20
949.285937637567
 30
0.0
 10
1592.516814076191
 20
949.285937637567
 30
0.0
 10
1592.201794382472
 20
949.285937637567
 30
0.0
 10
1591.401761297897
 20
949.285937637567
 30
0.0
 10
1590.540161077382
 20
949.285937637567
 30
0.0
 10
1590.368588903116
 20
949.285937637567
 30
0.0
  0
LINE
  5
248
330
1F
100
AcDbEntity
  8
0
  6
Continuous
 62
     7
370
    35
100
AcDbLine
 10
1592.5356033082
 20
944.6721772445
 30
0.0
 11
1592.4689466889
 21
945.2024127138
 31
0.0
  0
SPLINE
  5
249
330
1F
100
AcDbEntity
  8
0
  6
Continuous
 62
     7
370
    35
100
AcDbSpline
210
0.0
220
0.0
230
1.0
 70
     8
 71
     3
 72
     9
 73
     5
 74
     0
 42
0.000000001
 43
0.00000001
 40
0.0
 40
0.0
 40
0.0
 40
0.0
 40
0.4639730100301842
 40
1.0
 40
1.0
 40
1.0
 40
1.0
 10
1595.89563820617
 20
941.4358527180846
 30
0.0
 10
1595.866223331828
 20
941.4972223204976
 30
0.0
 10
1595.802825518364
 20
941.6294920885366
 30
0.0
 10
1595.788504784389
 20
941.6497530366162
 30
0.0
 10
1595.780828484462
 20
941.6606134516294
 30
0.0
  0
SPLINE
  5
24A
330
1F
100
AcDbEntity
  8
0
  6
Continuous
 62
     7
370
    35
100
AcDbSpline
210
0.0
220
0.0
230
1.0
 70
     8
 71
     3
 72
    12
 73
     8
 74
     0
 42
0.000000001
 43
0.00000001
 40
0.0
 40
0.0
 40
0.0
 40
0.0
 40
0.0000116454751395
 40
0.0165619494537754
 40
0.2254763790943302
 40
0.6569695918089118
 40
0.9999999999999999
 40
0.9999999999999999
 40
0.9999999999999999
 40
0.9999999999999999
 10
1595.843879022764
 20
941.2420072374041
 30
0.0
 10
1595.84388398968
 20
941.2419935782104
 30
0.0
 10
1595.850947833241
 20
941.2225677607382
 30
0.0
 10
1595.958479100819
 20
940.9412394657385
 30
0.0
 10
1596.305008352462
 20
940.0127377089307
 30
0.0
 10
1596.888371517407
 20
938.4330932329705
 30
0.0
 10
1597.322675716769
 20
937.1819646328777
 30
0.0
 10
1597.515025624202
 20
936.627849635213
 30
0.0
  0
SPLINE
  5
24B
330
1F
100
AcDbEntity
  8
0
  6
Continuous
 62
     7
370
    35
100
AcDbSpline
210
0.0
220
0.0
230
1.0
 70
     8
 71
     3
 72
    15
 73
    11
 74
     0
 42
0.000000001
 43
0.00000001
 40
0.0
 40
0.0
 40
0.0
 40
0.0
 40
0.1218108426115062
 40
0.2436370689119372
 40
0.3683236608265777
 40
0.4930006352855147
 40
0.6185872273216672
 40
0.7450342401164958
 40
0.871990472181674
 40
1.0
 40
1.0
 40
1.0
 40
1.0
 10
1600.689606257842
 20
925.8488991079026
 30
0.0
 10
1601.022466942974
 20
924.371234998272
 30
0.0
 10
1601.688230350754
 20
921.4157201624132
 30
0.0
 10
1602.251010728973
 20
916.8660144743579
 30
0.0
 10
1602.512446915567
 20
912.2567252018956
 30
0.0
 10
1602.41782249827
 20
907.5926411794438
 30
0.0
 10
1601.955146425948
 20
902.9280688668346
 30
0.0
 10
1601.093667289547
 20
898.293043604893
 30
0.0
 10
1599.853471613449
 20
893.7075381320009
 30
0.0
 10
1598.674583240954
 20
890.7635089275319
 30
0.0
 10
1598.082703986333
 20
889.2854132470782
 30
0.0
  0
ARC
  5
24C
330
1F
100
AcDbEntity
  8
0
  6
Continuous
 62
     7
370
    35
100
AcDbCircle
 10
1563.9512515451
 20
903.8359378565
 30
0.0
 40
25.0
100
AcDbArc
 50
0.0
 51
53.2016885568
  0
ARC
  5
24D
330
1F
100
AcDbEntity
  8
0
  6
Continuous
 62
     7
370
    35
100
AcDbCircle
 10
1563.9512515451
 20
903.8359378565
 30
0.0
 40
25.0
100
AcDbArc
 50
126.9415509922
 51
0.0
  0
SPLINE
  5
24E
330
1F
100
AcDbEntity
  8
0
  6
Continuous
 62
     7
370
    35
100
AcDbSpline
210
0.0
220
0.0
230
1.0
 70
     8
 71
     3
 72
     9
 73
     5
 74
     0
 42
0.000000001
 43
0.00000001
 40
0.0
 40
0.0
 40
0.0
 40
0.0
 40
0.4409379056616193
 40
1.0
 40
1.0
 40
1.0
 40
1.0
 10
1535.989535489248
 20
881.1782800373727
 30
0.0
 10
1535.917069051691
 20
881.2236043679006
 30
0.0
 10
1535.752722923526
 20
881.3263951008947
 30
0.0
 10
1535.568501367672
 20
881.4534051539185
 30
0.0
 10
1535.465510078834
 20
881.5244116601641
 30
0.0
  0
LINE
  5
24F
330
1F
100
AcDbEntity
  8
0
  6
Continuous
 62
     7
370
    35
100
AcDbLine
 10
1536.8758397933
 20
880.7330482421
 30
0.0
 11
1536.360401177
 21
880.9515663204
 31
0.0
  0
SPLINE
  5
250
330
1F
100
AcDbEntity
  8
0
  6
Continuous
 62
     7
370
    35
100
AcDbSpline
210
0.0
220
0.0
230
1.0
 70
    24
 71
     3
 72
    18
 73
    14
 74
     0
 42
0.000000001
 43
0.00000001
 40
0.0
 40
0.0
 40
0.0
 40
0.0
 40
0.0528900355595136
 40
0.1308503164567454
 40
0.2088349440813272
 40
0.2788361689709801
 40
0.3488290091806333
 40
0.4127449335797175
 40
0.4766196901632541
 40
0.54056411650798
 40
0.6045882902277284
 40
0.8596063740204783
 40
1.0
 40
1.0
 40
1.0
 40
1.0
 10
1563.951251545118
 20
878.8359367069895
 30
0.0
 10
1563.064097397647
 20
878.8359367069895
 30
0.0
 10
1560.869271856041
 20
878.8359367069895
 30
0.0
 10
1557.508563520561
 20
878.8359367069895
 30
0.0
 10
1554.13505870145
 20
878.8359367069895
 30
0.0
 10
1551.215358891275
 20
878.8359367069895
 30
0.0
 10
1548.830149400812
 20
878.8359367069895
 30
0.0
 10
1546.910119956592
 20
878.8359367069895
 30
0.0
 10
1545.467319537157
 20
878.8359367069895
 30
0.0
 10
1544.550417245465
 20
878.8359367069895
 30
0.0
 10
1544.008237765189
 20
878.8359367069894
 30
0.0
 10
1544.03797442978
 20
878.8359367069895
 30
0.0
 10
1544.041451101291
 20
878.8359367069895
 30
0.0
 10
1544.042685517238
 20
878.8359367069895
 30
0.0
  0
LINE
  5
251
330
1F
100
AcDbEntity
  8
0
  6
Continuous
 62
     7
370
    35
100
AcDbLine
 10
1591.026663297
 20
880.7330482421
 30
0.0
 11
1591.5421019133
 21
880.9515663204
 31
0.0
  0
SPLINE
  5
252
330
1F
100
AcDbEntity
  8
0
  6
Continuous
 62
     7
370
    35
100
AcDbSpline
210
0.0
220
0.0
230
1.0
 70
     8
 71
     3
 72
    10
 73
     6
 74
     0
 42
0.000000001
 43
0.00000001
 40
0.0
 40
0.0
 40
0.0
 40
0.0
 40
0.365188483814515
 40
0.9388404977625484
 40
1.0
 40
1.0
 40
1.0
 40
1.0
 10
1591.922157892154
 20
881.1841212925607
 30
0.0
 10
1591.991662194318
 20
881.2280076290494
 30
0.0
 10
1592.170346508125
 20
881.3408322985563
 30
0.0
 10
1592.385735460261
 20
881.483404457507
 30
0.0
 10
1592.519565596689
 20
881.5818212281064
 30
0.0
 10
1592.532459163235
 20
881.5913029727632
 30
0.0
  0
SPLINE
  5
253
330
1F
100
AcDbEntity
  8
0
  6
Continuous
 62
     7
370
    35
100
AcDbSpline
210
0.0
220
0.0
230
1.0
 70
    24
 71
     3
 72
    18
 73
    14
 74
     0
 42
0.000000001
 43
0.00000001
 40
0.0
 40
0.0
 40
0.0
 40
0.0
 40
0.0528900355595197
 40
0.130850316456751
 40
0.2088349440813323
 40
0.2788361689709848
 40
0.3488290091806374
 40
0.4127449335797213
 40
0.4766196901632574
 40
0.540564116507983
 40
0.604588290227731
 40
0.8596063740204791
 40
1.0
 40
1.0
 40
1.0
 40
1.0
 10
1563.951251545117
 20
878.8359367069895
 30
0.0
 10
1564.838405692588
 20
878.8359367069895
 30
0.0
 10
1567.033231234194
 20
878.8359367069895
 30
0.0
 10
1570.393939569674
 20
878.8359367069894
 30
0.0
 10
1573.767444388785
 20
878.8359367069895
 30
0.0
 10
1576.68714419896
 20
878.8359367069895
 30
0.0
 10
1579.072353689423
 20
878.8359367069895
 30
0.0
 10
1580.992383133643
 20
878.8359367069895
 30
0.0
 10
1582.435183553078
 20
878.8359367069895
 30
0.0
 10
1583.35208584477
 20
878.8359367069895
 30
0.0
 10
1583.894265325046
 20
878.8359367069894
 30
0.0
 10
1583.864528660456
 20
878.8359367069895
 30
0.0
 10
1583.861051988944
 20
878.8359367069895
 30
0.0
 10
1583.859817572997
 20
878.8359367069895
 30
0.0
  0
SPLINE
  5
254
330
1F
100
AcDbEntity
  8
0
  6
Continuous
 62
     7
370
    35
100
AcDbSpline
210
0.0
220
0.0
230
1.0
 70
     8
 71
     3
 72
    14
 73
    10
 74
     0
 42
0.000000001
 43
0.00000001
 40
0.0
 40
0.0
 40
0.0
 40
0.0
 40
0.1296971036821296
 40
0.2603676130745293
 40
0.3857762900438513
 40
0.5111848432870525
 40
0.6402379574765267
 40
0.7692908175858975
 40
1.0
 40
1.0
 40
1.0
 40
1.0
 10
1599.271365889476
 20
888.776210766762
 30
0.0
 10
1599.885667738408
 20
890.3102645265635
 30
0.0
 10
1601.118881908755
 20
893.3898854620198
 30
0.0
 10
1602.439464029829
 20
898.1310313929071
 30
0.0
 10
1603.369775155267
 20
902.902668902585
 30
0.0
 10
1603.895342692603
 20
907.717726491022
 30
0.0
 10
1604.004717423361
 20
912.6036737429727
 30
0.0
 10
1603.659987731491
 20
918.8325612205166
 30
0.0
 10
1602.681574739088
 20
923.3175950263034
 30
0.0
 10
1602.054135390685
 20
926.1937697199279
 30
0.0
  0
SPLINE
  5
255
330
1F
100
AcDbEntity
  8
0
  6
Continuous
 62
     7
370
    35
100
AcDbSpline
210
0.0
220
0.0
230
1.0
 70
     8
 71
     3
 72
    14
 73
    10
 74
     0
 42
0.000000001
 43
0.00000001
 40
0.0
 40
0.0
 40
0.0
 40
0.0
 40
0.1296971036821296
 40
0.2603676130745293
 40
0.3857762900438513
 40
0.5111848432870525
 40
0.6402379574765267
 40
0.7692908175858975
 40
1.0
 40
1.0
 40
1.0
 40
1.0
 10
1528.631137200759
 20
888.776210766762
 30
0.0
 10
1528.016835351827
 20
890.3102645265635
 30
0.0
 10
1526.78362118148
 20
893.3898854620198
 30
0.0
 10
1525.463039060407
 20
898.1310313929071
 30
0.0
 10
1524.532727934969
 20
902.902668902585
 30
0.0
 10
1524.007160397632
 20
907.717726491022
 30
0.0
 10
1523.897785666874
 20
912.6036737429727
 30
0.0
 10
1524.242515358744
 20
918.8325612205166
 30
0.0
 10
1525.220928351147
 20
923.3175950263034
 30
0.0
 10
1525.84836769955
 20
926.1937697199279
 30
0.0
  0
SPLINE
  5
256
330
1F
100
AcDbEntity
  8
0
  6
Continuous
 62
     7
370
    35
100
AcDbSpline
210
0.0
220
0.0
230
1.0
 70
     8
 71
     3
 72
    10
 73
     6
 74
     0
 42
0.000000001
 43
0.00000001
 40
0.0
 40
0.0
 40
0.0
 40
0.0
 40
0.3422811078462865
 40
0.6664354576432162
 40
1.0
 40
1.0
 40
1.0
 40
1.0
 10
1592.532459163235
 20
881.5913029727632
 30
0.0
 10
1593.297360332819
 20
881.9942144715969
 30
0.0
 10
1594.786654510377
 20
882.7786998053176
 30
0.0
 10
1596.64761836662
 20
884.5573820786097
 30
0.0
 10
1597.624466535612
 20
885.916361919043
 30
0.0
 10
1598.119878658222
 20
886.6055735168153
 30
0.0
  0
SPLINE
  5
257
330
1F
100
AcDbEntity
  8
0
  6
Continuous
 62
     7
370
    35
100
AcDbSpline
210
0.0
220
0.0
230
1.0
 70
     8
 71
     3
 72
    10
 73
     6
 74
     0
 42
0.000000001
 43
0.00000001
 40
0.0
 40
0.0
 40
0.0
 40
0.0
 40
0.3422811078462865
 40
0.6664354576432162
 40
1.0
 40
1.0
 40
1.0
 40
1.0
 10
1535.370043927
 20
881.5913029727632
 30
0.0
 10
1534.605142757416
 20
881.9942144715969
 30
0.0
 10
1533.115848579858
 20
882.7786998053176
 30
0.0
 10
1531.254884723616
 20
884.5573820786097
 30
0.0
 10
1530.278036554623
 20
885.916361919043
 30
0.0
 10
1529.782624432014
 20
886.6055735168153
 30
0.0
  0
SPLINE
  5
258
330
1F
100
AcDbEntity
  8
0
  6
Continuous
 62
     7
370
    35
100
AcDbSpline
210
0.0
220
0.0
230
1.0
 70
     8
 71
     3
 72
     9
 73
     5
 74
     0
 42
0.000000001
 43
0.00000001
 40
0.0
 40
0.0
 40
0.0
 40
0.0
 40
0.8536362427536229
 40
0.9999999999999999
 40
0.9999999999999999
 40
0.9999999999999999
 40
0.9999999999999999
 10
1602.054135390685
 20
926.1937697199279
 30
0.0
 10
1601.182148869694
 20
929.3048512934962
 30
0.0
 10
1600.160652268076
 20
932.9493563153693
 30
0.0
 10
1598.93653206718
 20
936.529470653803
 30
0.0
 10
1598.757365235256
 20
937.0534696397478
 30
0.0
  0
SPLINE
  5
259
330
1F
100
AcDbEntity
  8
0
  6
Continuous
 62
     7
370
    35
100
AcDbSpline
210
0.0
220
0.0
230
1.0
 70
     8
 71
     3
 72
     9
 73
     5
 74
     0
 42
0.000000001
 43
0.00000001
 40
0.0
 40
0.0
 40
0.0
 40
0.0
 40
0.8536362427536229
 40
0.9999999999999999
 40
0.9999999999999999
 40
0.9999999999999999
 40
0.9999999999999999
 10
1525.84836769955
 20
926.1937697199279
 30
0.0
 10
1526.720354220541
 20
929.3048512934962
 30
0.0
 10
1527.741850822159
 20
932.9493563153693
 30
0.0
 10
1528.965971023056
 20
936.529470653803
 30
0.0
 10
1529.14513785498
 20
937.0534696397478
 30
0.0
  0
SPLINE
  5
25A
330
1F
100
AcDbEntity
  8
0
  6
Continuous
 62
     7
370
    35
100
AcDbSpline
210
0.0
220
0.0
230
1.0
 70
     8
 71
     3
 72
     9
 73
     5
 74
     0
 42
0.000000001
 43
0.00000001
 40
0.0
 40
0.0
 40
0.0
 40
0.0
 40
0.6310359673708577
 40
1.0
 40
1.0
 40
1.0
 40
1.0
 10
1598.757365235256
 20
937.0534696397478
 30
0.0
 10
1598.349584310176
 20
937.9899513185337
 30
0.0
 10
1597.703375621346
 20
939.473989831723
 30
0.0
 10
1596.600508828772
 20
940.6181603788988
 30
0.0
 10
1596.193590649532
 20
941.0403181580001
 30
0.0
  0
SPLINE
  5
25B
330
1F
100
AcDbEntity
  8
0
  6
Continuous
 62
     7
370
    35
100
AcDbSpline
210
0.0
220
0.0
230
1.0
 70
     8
 71
     3
 72
     9
 73
     5
 74
     0
 42
0.000000001
 43
0.00000001
 40
0.0
 40
0.0
 40
0.0
 40
0.0
 40
0.6310359673708577
 40
1.0
 40
1.0
 40
1.0
 40
1.0
 10
1529.14513785498
 20
937.0534696397478
 30
0.0
 10
1529.552918780059
 20
937.9899513185337
 30
0.0
 10
1530.19912746889
 20
939.473989831723
 30
0.0
 10
1531.301994261463
 20
940.6181603788988
 30
0.0
 10
1531.708912440703
 20
941.0403181580001
 30
0.0
  0
LINE
  5
25C
330
1F
100
AcDbEntity
  8
0
  6
Continuous
 62
     7
370
    35
100
AcDbLine
 10
1598.1198786582
 20
886.6055735168
 30
0.0
 11
1599.2713658895
 21
888.7762107668
 31
0.0
  0
LINE
  5
25D
330
1F
100
AcDbEntity
  8
0
  6
Continuous
 62
     7
370
    35
100
AcDbLine
 10
1529.782624432
 20
886.6055735168
 30
0.0
 11
1528.6311372008
 21
888.7762107668
 31
0.0
  0
LINE
  5
25E
330
1F
100
AcDbEntity
  8
0
  6
Continuous
 62
     7
370
    35
100
AcDbLine
 10
1591.8133440252
 20
881.0950272498
 30
0.0
 11
1591.32037636
 21
880.8765091715
 31
0.0
  0
LINE
  5
25F
330
1F
100
AcDbEntity
  8
0
  6
Continuous
 62
     7
370
    35
100
AcDbLine
 10
1536.0891590651
 20
881.0950272498
 30
0.0
 11
1536.5821267302
 21
880.8765091715
 31
0.0
  0
LINE
  5
260
330
1F
100
AcDbEntity
  8
0
  6
Continuous
 62
     7
370
    35
100
AcDbLine
 10
1596.1935906495
 20
941.040318158
 30
0.0
 11
1596.3386609043
 21
940.8996092868
 31
0.0
  0
LINE
  5
261
330
1F
100
AcDbEntity
  8
0
  6
Continuous
 62
     7
370
    35
100
AcDbLine
 10
1531.7089124407
 20
941.040318158
 30
0.0
 11
1531.5638421859
 21
940.8996092868
 31
0.0
  0
SPLINE
  5
262
330
1F
100
AcDbEntity
  8
0
  6
Continuous
 62
     7
370
    35
100
AcDbSpline
210
0.0
220
0.0
230
1.0
 70
    24
 71
     3
 72
    19
 73
    15
 74
     0
 42
0.000000001
 43
0.00000001
 40
0.0
 40
0.0
 40
0.0
 40
0.0
 40
0.0723118759457435
 40
0.1445205922627704
 40
0.2538055181087334
 40
0.3457400407331691
 40
0.437602059099113
 40
0.5576187463885617
 40
0.6329165378358105
 40
0.7083141163996941
 40
0.8053610856118711
 40
0.9023999648985555
 40
0.9968144244633551
 40
1.0
 40
1.0
 40
1.0
 40
1.0
 10
1519.451250770257
 20
896.9818257507975
 30
0.0
 10
1519.451250770257
 20
897.515398314664
 30
0.0
 10
1519.451250770257
 20
898.581782251419
 30
0.0
 10
1519.451250770257
 20
900.7226841320511
 30
0.0
 10
1519.451250770257
 20
903.3596228786762
 30
0.0
 10
1519.451250770257
 20
906.4680659870334
 30
0.0
 10
1519.451250770257
 20
909.5604621123333
 30
0.0
 10
1519.451250770257
 20
912.0784536237242
 30
0.0
 10
1519.451250770257
 20
913.9571587067206
 30
0.0
 10
1519.451250770257
 20
915.3434796250973
 30
0.0
 10
1519.451250770257
 20
916.4641297064334
 30
0.0
 10
1519.451250770257
 20
917.1933658779146
 30
0.0
 10
1519.451250770257
 20
917.344973085262
 30
0.0
 10
1519.451250770257
 20
917.3326362236527
 30
0.0
 10
1519.451250770257
 20
917.3322335598165
 30
0.0
  0
SPLINE
  5
263
330
1F
100
AcDbEntity
  8
0
  6
Continuous
 62
     7
370
    35
100
AcDbSpline
210
0.0
220
0.0
230
1.0
 70
     8
 71
     3
 72
    15
 73
    11
 74
     0
 42
0.000000001
 43
0.00000001
 40
0.0
 40
0.0
 40
0.0
 40
0.0
 40
0.1145007772698623
 40
0.2667209538797683
 40
0.4189409641174612
 40
0.5711609287678523
 40
0.7233847821356728
 40
0.8756088745814351
 40
0.9905143919801398
 40
1.0
 40
1.0
 40
1.0
 40
1.0
 10
1526.664139219688
 20
928.9349370417291
 30
0.0
 10
1526.174955906845
 20
928.6831007381154
 30
0.0
 10
1525.035440150406
 20
928.0964669988253
 30
0.0
 10
1523.471131710428
 20
926.8095818658699
 30
0.0
 10
1522.00513558894
 20
925.1730632017666
 30
0.0
 10
1520.835308619101
 20
923.3076222533739
 30
0.0
 10
1520.000000324732
 20
921.2720525929469
 30
0.0
 10
1519.552872936941
 20
919.3013453219594
 30
0.0
 10
1519.453448451464
 20
917.9743053035319
 30
0.0
 10
1519.451406483218
 20
917.377726460077
 30
0.0
 10
1519.451250770257
 20
917.3322335598165
 30
0.0
  0
SPLINE
  5
264
330
1F
100
AcDbEntity
  8
0
  6
Continuous
 62
     7
370
    35
100
AcDbSpline
210
0.0
220
0.0
230
1.0
 70
    24
 71
     3
 72
     9
 73
     5
 74
     0
 42
0.000000001
 43
0.00000001
 40
0.0
 40
0.0
 40
0.0
 40
0.0
 40
0.7035372592943102
 40
1.0
 40
1.0
 40
1.0
 40
1.0
 10
1519.451250770257
 20
893.6908186194594
 30
0.0
 10
1519.451250770257
 20
894.3933879957509
 30
0.0
 10
1519.451250770257
 20
895.3920122576648
 30
0.0
 10
1519.451250770257
 20
896.6182823564624
 30
0.0
 10
1519.451250770257
 20
896.9818257507975
 30
0.0
  0
LINE
  5
265
330
1F
100
AcDbEntity
  8
0
  6
Continuous
 62
     7
370
    35
100
AcDbLine
 10
1519.4512507703
 20
891.8359407005
 30
0.0
 11
1519.4512507703
 21
893.6908186195
 31
0.0
  0
LINE
  5
266
330
1F
100
AcDbEntity
  8
0
  6
Continuous
 62
     7
370
    35
100
AcDbLine
 10
1541.7737732466
 20
900.672914159
 30
0.0
 11
1541.6852435853
 21
910.8174496112
 31
0.0
  0
ARC
  5
267
330
1F
100
AcDbEntity
  8
0
  6
Continuous
 62
     7
370
    35
100
AcDbCircle
 10
1563.9512515451
 20
903.8359378565
 30
0.0
 40
24.00000000000023
100
AcDbArc
 50
128.7586839232
 51
180.0
  0
ARC
  5
268
330
1F
100
AcDbEntity
  8
0
  6
Continuous
 62
     7
370
    35
100
AcDbCircle
 10
1563.9512515451
 20
903.8359378565
 30
0.0
 40
23.99999999999999
100
AcDbArc
 50
92.4477517522
 51
124.0849725767
  0
ARC
  5
269
330
1F
100
AcDbEntity
  8
0
  6
Continuous
 62
     7
370
    35
100
AcDbCircle
 10
1563.9512515451
 20
903.8359378565
 30
0.0
 40
23.99999999999997
100
AcDbArc
 50
56.0255819496
 51
87.6717182285
  0
ARC
  5
26A
330
1F
100
AcDbEntity
  8
0
  6
Continuous
 62
     7
370
    35
100
AcDbCircle
 10
1563.9512515451
 20
903.8359378565
 30
0.0
 40
24.00000000000023
100
AcDbArc
 50
180.0
 51
51.3942273327
  0
ARC
  5
26B
330
1F
100
AcDbEntity
  8
0
  6
Continuous
 62
     7
370
    35
100
AcDbCircle
 10
1563.9512515451
 20
903.8359378565
 30
0.0
 40
22.56335600038324
100
AcDbArc
 50
131.7516164746
 51
180.0
  0
ARC
  5
26C
330
1F
100
AcDbEntity
  8
0
  6
Continuous
 62
     7
370
    35
100
AcDbCircle
 10
1563.9512515451
 20
903.8359378565
 30
0.0
 40
22.56335600038318
100
AcDbArc
 50
92.603725856
 51
124.3048904057
  0
ARC
  5
26D
330
1F
100
AcDbEntity
  8
0
  6
Continuous
 62
     7
370
    35
100
AcDbCircle
 10
1563.9512515451
 20
903.8359378565
 30
0.0
 40
22.56335600038306
100
AcDbArc
 50
55.7967904265
 51
87.5233728026
  0
ARC
  5
26E
330
1F
100
AcDbEntity
  8
0
  6
Continuous
 62
     7
370
    35
100
AcDbCircle
 10
1563.9512515451
 20
903.8359378565
 30
0.0
 40
22.56335600038324
100
AcDbArc
 50
180.0
 51
48.4183462599
  0
ARC
  5
26F
330
1F
100
AcDbEntity
  8
0
  6
Continuous
 62
     7
370
    35
100
AcDbCircle
 10
1563.9512515451
 20
903.8359378565
 30
0.0
 40
25.04999999999995
100
AcDbArc
 50
126.8556036288
 51
0.0
  0
ARC
  5
270
330
1F
100
AcDbEntity
  8
0
  6
Continuous
 62
     7
370
    35
100
AcDbCircle
 10
1563.9512515451
 20
903.8359378565
 30
0.0
 40
25.04999999999995
100
AcDbArc
 50
91.9599391608
 51
123.4608476068
  0
ARC
  5
271
330
1F
100
AcDbEntity
  8
0
  6
Continuous
 62
     7
370
    35
100
AcDbCircle
 10
1563.9512515451
 20
903.8359378565
 30
0.0
 40
25.05000000000002
100
AcDbArc
 50
56.6560745196
 51
88.0400608401
  0
ARC
  5
272
330
1F
100
AcDbEntity
  8
0
  6
Continuous
 62
     7
370
    35
100
AcDbCircle
 10
1563.9512515451
 20
903.8359378565
 30
0.0
 40
25.05000000000002
100
AcDbArc
 50
0.0
 51
53.2871899396
  0
LINE
  5
273
330
1F
100
AcDbEntity
  8
0
  6
Continuous
 62
     7
370
    35
100
AcDbLine
 10
1595.6464870657
 20
951.7470627804
 30
0.0
 11
1580.081015342
 21
944.4887635079
 31
0.0
  0
LINE
  5
274
330
1F
100
AcDbEntity
  8
0
  6
Continuous
 62
     7
370
    35
100
AcDbLine
 10
1576.9262513901
 20
906.3855387983
 30
0.0
 11
1550.926251785
 21
906.3855387983
 31
0.0
  0
LINE
  5
275
330
1F
100
AcDbEntity
  8
0
  6
Continuous
 62
     7
370
    35
100
AcDbLine
 10
1548.9262514572
 20
908.3855391261
 30
0.0
 11
1548.9262514572
 21
942.6761480761
 31
0.0
  0
LINE
  5
276
330
1F
100
AcDbEntity
  8
0
  6
Continuous
 62
     7
370
    35
100
AcDbLine
 10
1547.7714887645
 20
944.4887635079
 30
0.0
 11
1532.2060151781
 21
951.7470627804
 31
0.0
  0
LINE
  5
277
330
1F
100
AcDbEntity
  8
0
  6
Continuous
 62
     7
370
    35
100
AcDbLine
 10
1531.0512496914
 20
953.5596783287
 30
0.0
 11
1531.0512496914
 21
959.2855378767
 31
0.0
  0
LINE
  5
278
330
1F
100
AcDbEntity
  8
0
  6
Continuous
 62
     7
370
    35
100
AcDbLine
 10
1596.8012525524
 20
959.2855378767
 30
0.0
 11
1596.8012525524
 21
953.5596783287
 31
0.0
  0
LINE
  5
279
330
1F
100
AcDbEntity
  8
0
  6
Continuous
 62
     7
370
    35
100
AcDbLine
 10
1562.9262515401
 20
936.3855381277
 30
0.0
 11
1562.9262515401
 21
926.3855383513
 31
0.0
  0
ARC
  5
27A
330
1F
100
AcDbEntity
  8
0
  6
Continuous
 62
     7
370
    35
100
AcDbCircle
 10
1556.4262515451
 20
926.3855378565
 30
0.0
 40
6.500000000000227
100
AcDbArc
 50
180.0
 51
0.0
  0
LINE
  5
27B
330
1F
100
AcDbEntity
  8
0
  6
Continuous
 62
     7
370
    35
100
AcDbLine
 10
1549.9262516211
 20
926.3855383513
 30
0.0
 11
1549.9262516211
 21
936.3855381277
 31
0.0
  0
ARC
  5
27C
330
1F
100
AcDbEntity
  8
0
  6
Continuous
 62
     7
370
    35
100
AcDbCircle
 10
1556.4262515451
 20
936.3855378565
 30
0.0
 40
6.500000000000227
100
AcDbArc
 50
0.0
 51
180.0
  0
ARC
  5
27D
330
1F
100
AcDbEntity
  8
0
  6
Continuous
 62
     7
370
    35
100
AcDbCircle
 10
1594.8012515451
 20
953.5596783782
 30
0.0
 40
2.000000000000227
100
AcDbArc
 50
295.0
 51
0.0
  0
ARC
  5
27E
330
1F
100
AcDbEntity
  8
0
  6
Continuous
 62
     7
370
    35
100
AcDbCircle
 10
1580.9262515451
 20
942.6761479454
 30
0.0
 40
2.000000000000027
100
AcDbArc
 50
115.0
 51
180.0
  0
ARC
  5
27F
330
1F
100
AcDbEntity
  8
0
  6
Continuous
 62
     7
370
    35
100
AcDbCircle
 10
1576.9262515451
 20
908.3855378565
 30
0.0
 40
2.0
100
AcDbArc
 50
270.0
 51
0.0
  0
LINE
  5
280
330
1F
100
AcDbEntity
  8
0
  6
Continuous
 62
     7
370
    35
100
AcDbLine
 10
1513.4512497868
 20
959.4855380026
 30
0.0
 11
1513.4512497868
 21
960.9702999485
 31
0.0
  0
ARC
  5
281
330
1F
100
AcDbEntity
  8
0
  6
Continuous
 62
     7
370
    35
100
AcDbCircle
 10
1546.9262515451
 20
942.6761479454
 30
0.0
 40
2.000000000000227
100
AcDbArc
 50
0.0
 51
65.0
  0
ARC
  5
282
330
1F
100
AcDbEntity
  8
0
  6
Continuous
 62
     7
370
    35
100
AcDbCircle
 10
1533.0512515451
 20
953.5596783782
 30
0.0
 40
2.000000000000027
100
AcDbArc
 50
180.0
 51
245.0
  0
LINE
  5
283
330
1F
100
AcDbEntity
  8
0
  6
Continuous
 62
     7
370
    35
100
AcDbLine
 10
1514.5544721569
 20
959.4855380026
 30
0.0
 11
1513.4512497868
 21
959.4855380026
 31
0.0
  0
CIRCLE
  5
284
330
1F
100
AcDbEntity
  8
0
  6
Continuous
 62
     7
370
    35
100
AcDbCircle
 10
1563.9262515451
 20
914.3855378565
 30
0.0
 40
4.250000000000227
  0
LINE
  5
285
330
1F
100
AcDbEntity
  8
0
  6
Continuous
 62
     7
370
    35
100
AcDbLine
 10
1577.9262515541
 20
936.3855381277
 30
0.0
 11
1577.9262515541
 21
926.3855383513
 31
0.0
  0
LINE
  5
286
330
1F
100
AcDbEntity
  8
0
  6
Continuous
 62
     7
370
    35
100
AcDbLine
 10
1598.9512516941
 20
971.2855384466
 30
0.0
 11
1598.9512516941
 21
960.2855380406
 31
0.0
  0
LINE
  5
287
330
1F
100
AcDbEntity
  8
0
  6
Continuous
 62
     7
370
    35
100
AcDbLine
 10
1564.9262515187
 20
926.3855383513
 30
0.0
 11
1564.9262515187
 21
936.3855381277
 31
0.0
  0
ARC
  5
288
330
1F
100
AcDbEntity
  8
0
  6
Continuous
 62
     7
370
    35
100
AcDbCircle
 10
1571.4262515451
 20
936.3855378565
 30
0.0
 40
6.500000000000227
100
AcDbArc
 50
0.0
 51
180.0
  0
ARC
  5
289
330
1F
100
AcDbEntity
  8
0
  6
Continuous
 62
     7
370
    35
100
AcDbCircle
 10
1550.9262515451
 20
908.3855378565
 30
0.0
 40
2.0
100
AcDbArc
 50
180.0
 51
270.0
  0
LINE
  5
28A
330
1F
100
AcDbEntity
  8
0
  6
Continuous
 62
     7
370
    35
100
AcDbLine
 10
1578.926251718
 20
942.6761480761
 30
0.0
 11
1578.926251718
 21
908.3855391261
 31
0.0
  0
ARC
  5
28B
330
1F
100
AcDbEntity
  8
0
  6
Continuous
 62
     7
370
    35
100
AcDbCircle
 10
1571.4262515451
 20
926.3855378565
 30
0.0
 40
6.500000000000227
100
AcDbArc
 50
180.0
 51
0.0
  0
LINE
  5
28C
330
1F
100
AcDbEntity
  8
0
  6
Continuous
 62
     7
370
    35
100
AcDbLine
 10
1598.9512516941
 20
972.2855386105
 30
0.0
 11
1514.4262513901
 21
972.2855386105
 31
0.0
  0
LINE
  5
28D
330
1F
100
AcDbEntity
  8
0
  6
Continuous
 62
     7
370
    35
100
AcDbLine
 10
1598.9512516941
 20
972.2855386105
 30
0.0
 11
1598.9512516941
 21
971.2855384466
 31
0.0
  0
LINE
  5
28E
330
1F
100
AcDbEntity
  8
0
  6
Continuous
 62
     7
370
    35
100
AcDbLine
 10
1514.4262513901
 20
993.0855386672
 30
0.0
 11
1514.4262513901
 21
961.2855377388
 31
0.0
  0
LINE
  5
28F
330
1F
100
AcDbEntity
  8
0
  6
Continuous
 62
     7
370
    35
100
AcDbLine
 10
1513.4262530889
 20
993.0855386672
 30
0.0
 11
1513.4262530889
 21
961.2855377388
 31
0.0
  0
LINE
  5
290
330
1F
100
AcDbEntity
  8
0
  6
Continuous
 62
     7
370
    35
100
AcDbLine
 10
1513.4262530889
 20
1003.085536581
 30
0.0
 11
1514.4262513901
 21
1003.085536581
 31
0.0
  0
LINE
  5
291
330
1F
100
AcDbEntity
  8
0
  6
Continuous
 62
     7
370
    35
100
AcDbLine
 10
1514.4262513901
 20
1003.085536581
 30
0.0
 11
1514.4262513901
 21
993.0855386672
 31
0.0
  0
LINE
  5
292
330
1F
100
AcDbEntity
  8
0
  6
Continuous
 62
     7
370
    35
100
AcDbLine
 10
1513.4262530889
 20
993.0855386672
 30
0.0
 11
1513.4262530889
 21
1003.085536581
 31
0.0
  0
ARC
  5
293
330
1F
100
AcDbEntity
  8
0
  6
Continuous
 62
     7
370
    35
100
AcDbCircle
 10
1515.4262515451
 20
961.2855378565
 30
0.0
 40
1.000000000000227
100
AcDbArc
 50
180.0
 51
270.0
  0
ARC
  5
294
330
1F
100
AcDbEntity
  8
0
  6
Continuous
 62
     7
370
    35
100
AcDbCircle
 10
1515.4262515451
 20
961.2855378565
 30
0.0
 40
2.000000000000114
100
AcDbArc
 50
180.0
 51
270.0
  0
LINE
  5
295
330
1F
100
AcDbEntity
  8
0
  6
Continuous
 62
     7
370
    35
100
AcDbLine
 10
1619.4262518372
 20
959.2855378767
 30
0.0
 11
1515.4262496914
 21
959.2855378767
 31
0.0
  0
LINE
  5
296
330
1F
100
AcDbEntity
  8
0
  6
Continuous
 62
     7
370
    35
100
AcDbLine
 10
1619.4262518372
 20
960.2855380406
 30
0.0
 11
1515.4262496914
 21
960.2855380406
 31
0.0
  0
LINE
  5
297
330
1F
100
AcDbEntity
  8
0
  6
Continuous
 62
     7
370
    35
100
AcDbLine
 10
1629.4262534763
 20
960.2855380406
 30
0.0
 11
1629.4262534763
 21
959.2855378767
 31
0.0
  0
LINE
  5
298
330
1F
100
AcDbEntity
  8
0
  6
Continuous
 62
     7
370
    35
100
AcDbLine
 10
1629.4262534763
 20
959.2855378767
 30
0.0
 11
1619.4262518372
 21
959.2855378767
 31
0.0
  0
LINE
  5
299
330
1F
100
AcDbEntity
  8
0
  6
Continuous
 62
     7
370
    35
100
AcDbLine
 10
1619.4262518372
 20
960.2855380406
 30
0.0
 11
1629.4262534763
 21
960.2855380406
 31
0.0
  0
LINE
  5
29A
330
1F
100
AcDbEntity
  8
0
  6
Continuous
 62
     8
370
    18
100
AcDbLine
 10
1514.4262513901
 20
973.2855387745
 30
0.0
 11
1514.4512518133
 21
973.2855387745
 31
0.0
  0
LINE
  5
29B
330
1F
100
AcDbEntity
  8
0
  6
Continuous
 62
     8
370
    18
100
AcDbLine
 10
1530.9512517239
 20
957.9474564423
 30
0.0
 11
1531.0512496914
 21
957.9474564423
 31
0.0
  0
LINE
  5
29C
330
1F
100
AcDbEntity
  8
0
  6
Continuous
 62
     8
370
    18
100
AcDbLine
 10
1596.9512513663
 20
957.9474564423
 30
0.0
 11
1596.8012525524
 21
957.9474564423
 31
0.0
  0
LINE
  5
29D
330
1F
100
AcDbEntity
  8
0
  6
Continuous
 62
     8
370
    18
100
AcDbLine
 10
1529.8197991039
 20
889.2854132471
 30
0.0
 11
1530.7371555652
 21
887.2821830926
 31
0.0
  0
SPLINE
  5
29E
330
1F
100
AcDbEntity
  8
0
  6
Continuous
 62
     8
370
    18
100
AcDbSpline
210
0.0
220
0.0
230
1.0
 70
     8
 71
     3
 72
    10
 73
     6
 74
     0
 42
0.000000001
 43
0.00000001
 40
0.0
 40
0.0
 40
0.0
 40
0.0
 40
0.0305939760639643
 40
0.8849546427992482
 40
1.0
 40
1.0
 40
1.0
 40
1.0
 10
1530.387477466033
 20
936.627849635213
 30
0.0
 10
1530.350385809391
 20
936.5194115866989
 30
0.0
 10
1529.277480683051
 20
933.3827563743107
 30
0.0
 10
1528.217068113312
 20
929.7849743204439
 30
0.0
 10
1527.319425576524
 20
926.2664624829625
 30
0.0
 10
1527.212896832393
 20
925.8488991079026
 30
0.0
  0
SPLINE
  5
29F
330
1F
100
AcDbEntity
  8
0
  6
Continuous
 62
     8
370
    18
100
AcDbSpline
210
0.0
220
0.0
230
1.0
 70
     8
 71
     3
 72
    11
 73
     7
 74
     0
 42
0.000000001
 43
0.00000001
 40
0.0
 40
0.0
 40
0.0
 40
0.0
 40
0.2986051046024318
 40
0.5785120767443492
 40
0.9999675889766177
 40
1.0
 40
1.0
 40
1.0
 40
1.0
 10
1532.278241106437
 20
941.78353406164
 30
0.0
 10
1532.278203478026
 20
941.7777001928599
 30
0.0
 10
1532.278130577431
 20
941.7663977620197
 30
0.0
 10
1532.20013840121
 20
941.592928321498
 30
0.0
 10
1532.107072997245
 20
941.3873551609886
 30
0.0
 10
1532.058627792747
 20
941.2420184133179
 30
0.0
 10
1532.058624067472
 20
941.2420072374041
 30
0.0
  0
LINE
  5
2A0
330
1F
100
AcDbEntity
  8
0
  6
Continuous
 62
     8
370
    18
100
AcDbLine
 10
1532.1216746058
 20
941.6606134516
 30
0.0
 11
1532.2782411064
 21
941.7835340616
 31
0.0
  0
SPLINE
  5
2A1
330
1F
100
AcDbEntity
  8
0
  6
Continuous
 62
     8
370
    18
100
AcDbSpline
210
0.0
220
0.0
230
1.0
 70
     8
 71
     3
 72
     9
 73
     5
 74
     0
 42
0.000000001
 43
0.00000001
 40
0.0
 40
0.0
 40
0.0
 40
0.0
 40
0.1562899463743514
 40
1.0
 40
1.0
 40
1.0
 40
1.0
 10
1532.067918666766
 20
941.5616082740122
 30
0.0
 10
1532.073714575174
 20
941.573601361701
 30
0.0
 10
1532.110798908123
 20
941.6503375047924
 30
0.0
 10
1532.116697719397
 20
941.6559110204419
 30
0.0
 10
1532.121674605773
 20
941.6606134516294
 30
0.0
  0
SPLINE
  5
2A2
330
1F
100
AcDbEntity
  8
0
  6
Continuous
 62
     8
370
    18
100
AcDbSpline
210
0.0
220
0.0
230
1.0
 70
     8
 71
     3
 72
     9
 73
     5
 74
     0
 42
0.000000001
 43
0.00000001
 40
0.0
 40
0.0
 40
0.0
 40
0.0
 40
0.4458964576470278
 40
1.0
 40
1.0
 40
1.0
 40
1.0
 10
1545.622888469265
 20
944.1436246750051
 30
0.0
 10
1545.973434672995
 20
944.1540613541285
 30
0.0
 10
1546.75959522152
 20
944.1774674138638
 30
0.0
 10
1547.635287190495
 20
944.2117224814426
 30
0.0
 10
1548.120511212514
 20
944.2307033357316
 30
0.0
  0
SPLINE
  5
2A3
330
1F
100
AcDbEntity
  8
0
  6
Continuous
 62
     8
370
    18
100
AcDbSpline
210
0.0
220
0.0
230
1.0
 70
     8
 71
     3
 72
    10
 73
     6
 74
     0
 42
0.000000001
 43
0.00000001
 40
0.0
 40
0.0
 40
0.0
 40
0.0
 40
0.4995984399667633
 40
0.7498913818132835
 40
1.0
 40
1.0
 40
1.0
 40
1.0
 10
1544.284777232574
 20
940.9167670426065
 30
0.0
 10
1544.425554979984
 20
941.5331429261591
 30
0.0
 10
1544.636860722934
 20
942.4583158771885
 30
0.0
 10
1545.136312039677
 20
943.5225922996241
 30
0.0
 10
1545.460736160105
 20
943.9366647246096
 30
0.0
 10
1545.622888469265
 20
944.1436246750051
 30
0.0
  0
SPLINE
  5
2A4
330
1F
100
AcDbEntity
  8
0
  6
Continuous
 62
     8
370
    18
100
AcDbSpline
210
0.0
220
0.0
230
1.0
 70
     8
 71
     3
 72
     9
 73
     5
 74
     0
 42
0.000000001
 43
0.00000001
 40
0.0
 40
0.0
 40
0.0
 40
0.0
 40
0.468701295555056
 40
1.0
 40
1.0
 40
1.0
 40
1.0
 10
1547.95976307349
 20
940.1087934863859
 30
0.0
 10
1547.399554738292
 20
940.3560205084194
 30
0.0
 10
1546.204319434888
 20
940.8834929612972
 30
0.0
 10
1544.950780725071
 20
940.9052222824367
 30
0.0
 10
1544.284777232574
 20
940.9167670426065
 30
0.0
  0
SPLINE
  5
2A5
330
1F
100
AcDbEntity
  8
0
  6
Continuous
 62
     8
370
    18
100
AcDbSpline
210
0.0
220
0.0
230
1.0
 70
     8
 71
     3
 72
    14
 73
    10
 74
     0
 42
0.000000001
 43
0.00000001
 40
0.0
 40
0.0
 40
0.0
 40
0.0
 40
0.0341306891655766
 40
0.1875059854857797
 40
0.3449076740202023
 40
0.5070512098500018
 40
0.6693706649165072
 40
0.8347041558146684
 40
1.0
 40
1.0
 40
1.0
 40
1.0
 10
1537.922273838089
 20
912.7577372607881
 30
0.0
 10
1537.912826719156
 20
913.0941600572512
 30
0.0
 10
1537.860926467829
 20
914.9423878408941
 30
0.0
 10
1538.172956978046
 20
918.3496736858107
 30
0.0
 10
1539.313008715416
 20
922.8864739548669
 30
0.0
 10
1541.037667034805
 20
927.3214691249257
 30
0.0
 10
1543.103160657343
 20
931.6815339990641
 30
0.0
 10
1545.354381046592
 20
935.9859221545462
 30
0.0
 10
1547.091367082705
 20
938.7346073676882
 30
0.0
 10
1547.959761210845
 20
940.1087934863859
 30
0.0
  0
SPLINE
  5
2A6
330
1F
100
AcDbEntity
  8
0
  6
Continuous
 62
     8
370
    18
100
AcDbSpline
210
0.0
220
0.0
230
1.0
 70
     8
 71
     3
 72
    14
 73
    10
 74
     0
 42
0.000000001
 43
0.00000001
 40
0.0
 40
0.0
 40
0.0
 40
0.0
 40
0.1360662916234316
 40
0.2699138913771976
 40
0.4005682489114686
 40
0.5258273327557895
 40
0.688010000890177
 40
0.8457606759415223
 40
1.0
 40
1.0
 40
1.0
 40
1.0
 10
1540.624478348659
 20
887.5670113382037
 30
0.0
 10
1540.016309646203
 20
888.6420562905182
 30
0.0
 10
1538.80988901744
 20
890.774616552304
 30
0.0
 10
1537.530703804573
 20
894.142947850802
 30
0.0
 10
1536.670475620506
 20
897.4788093613213
 30
0.0
 10
1536.209099953422
 20
901.0788169458191
 30
0.0
 10
1536.25266584117
 20
904.8832089441166
 30
0.0
 10
1536.850561103633
 20
908.8604169196198
 30
0.0
 10
1537.567726752496
 20
911.4684145494318
 30
0.0
 10
1537.922273838089
 20
912.7577372607881
 30
0.0
  0
SPLINE
  5
2A7
330
1F
100
AcDbEntity
  8
0
  6
Continuous
 62
     8
370
    18
100
AcDbSpline
210
0.0
220
0.0
230
1.0
 70
     8
 71
     3
 72
    13
 73
     9
 74
     0
 42
0.000000001
 43
0.00000001
 40
0.0
 40
0.0
 40
0.0
 40
0.0
 40
0.0962667614560557
 40
0.2940157084788442
 40
0.49167991235366
 40
0.6816276126516125
 40
0.8716454072214415
 40
1.0
 40
1.0
 40
1.0
 40
1.0
 10
1530.737155565189
 20
887.2821830925639
 30
0.0
 10
1530.746339298409
 20
887.2978422700384
 30
0.0
 10
1530.774388043254
 20
887.3456681664303
 30
0.0
 10
1531.208621695528
 20
887.430851713671
 30
0.0
 10
1532.722724343872
 20
887.4865368618016
 30
0.0
 10
1535.089289329451
 20
887.5505198812405
 30
0.0
 10
1537.774606119543
 20
887.5738606309193
 30
0.0
 10
1539.805646700445
 20
887.5689792922706
 30
0.0
 10
1540.624478348659
 20
887.5670113382037
 30
0.0
  0
SPLINE
  5
2A8
330
1F
100
AcDbEntity
  8
0
  6
Continuous
 62
     8
370
    18
100
AcDbSpline
210
0.0
220
0.0
230
1.0
 70
     8
 71
     3
 72
     9
 73
     5
 74
     0
 42
0.000000001
 43
0.00000001
 40
0.0
 40
0.0
 40
0.0
 40
0.0
 40
0.5312993424786022
 40
1.0
 40
1.0
 40
1.0
 40
1.0
 10
1583.617725857662
 20
940.9167670426065
 30
0.0
 10
1582.951721260414
 20
940.9052217904427
 30
0.0
 10
1581.698181976628
 20
940.8834915693776
 30
0.0
 10
1580.502951101665
 20
940.3560147621706
 30
0.0
 10
1579.94274560468
 20
940.1087860358053
 30
0.0
  0
SPLINE
  5
2A9
330
1F
100
AcDbEntity
  8
0
  6
Continuous
 62
     8
370
    18
100
AcDbSpline
210
0.0
220
0.0
230
1.0
 70
     8
 71
     3
 72
    10
 73
     6
 74
     0
 42
0.000000001
 43
0.00000001
 40
0.0
 40
0.0
 40
0.0
 40
0.0
 40
0.2501174395642413
 40
0.5003917269111249
 40
1.0
 40
1.0
 40
1.0
 40
1.0
 10
1582.27961462097
 20
944.1436246750051
 30
0.0
 10
1582.441771449696
 20
943.9366580520826
 30
0.0
 10
1582.766186795134
 20
943.5225950181833
 30
0.0
 10
1583.265642581542
 20
942.4583163383649
 30
0.0
 10
1583.476945539114
 20
941.533154742997
 30
0.0
 10
1583.617725857662
 20
940.9167670426065
 30
0.0
  0
LINE
  5
2AA
330
1F
100
AcDbEntity
  8
0
  6
Continuous
 62
     8
370
    18
100
AcDbLine
 10
1579.7093934204
 20
944.2329403726
 30
0.0
 11
1582.279614621
 21
944.143624675
 31
0.0
  0
LINE
  5
2AB
330
1F
100
AcDbEntity
  8
0
  6
Continuous
 62
     8
370
    18
100
AcDbLine
 10
1595.7808284845
 20
941.6606134516
 30
0.0
 11
1595.6242619838
 21
941.7835340616
 31
0.0
  0
SPLINE
  5
2AC
330
1F
100
AcDbEntity
  8
0
  6
Continuous
 62
     8
370
    18
100
AcDbSpline
210
0.0
220
0.0
230
1.0
 70
     8
 71
     3
 72
    11
 73
     7
 74
     0
 42
0.000000001
 43
0.00000001
 40
0.0
 40
0.0
 40
0.0
 40
0.0
 40
0.2986051046024318
 40
0.5785120767443492
 40
0.9999675889766177
 40
1.0
 40
1.0
 40
1.0
 40
1.0
 10
1595.624261983798
 20
941.78353406164
 30
0.0
 10
1595.624299612209
 20
941.7777001928599
 30
0.0
 10
1595.624372512804
 20
941.7663977620197
 30
0.0
 10
1595.702364689025
 20
941.592928321498
 30
0.0
 10
1595.795430092991
 20
941.3873551609886
 30
0.0
 10
1595.843875297488
 20
941.2420184133179
 30
0.0
 10
1595.843879022764
 20
941.2420072374041
 30
0.0
  0
SPLINE
  5
2AD
330
1F
100
AcDbEntity
  8
0
  6
Continuous
 62
     8
370
    18
100
AcDbSpline
210
0.0
220
0.0
230
1.0
 70
     8
 71
     3
 72
    10
 73
     6
 74
     0
 42
0.000000001
 43
0.00000001
 40
0.0
 40
0.0
 40
0.0
 40
0.0
 40
0.0305939760639643
 40
0.8849546427992482
 40
1.0
 40
1.0
 40
1.0
 40
1.0
 10
1597.515025624202
 20
936.627849635213
 30
0.0
 10
1597.552117280844
 20
936.5194115866989
 30
0.0
 10
1598.625022407184
 20
933.3827563743107
 30
0.0
 10
1599.685434976923
 20
929.7849743204439
 30
0.0
 10
1600.583077513711
 20
926.2664624829625
 30
0.0
 10
1600.689606257842
 20
925.8488991079026
 30
0.0
  0
LINE
  5
2AE
330
1F
100
AcDbEntity
  8
0
  6
Continuous
 62
     8
370
    18
100
AcDbLine
 10
1598.0827039863
 20
889.2854132471
 30
0.0
 11
1597.165347525
 21
887.2821830926
 31
0.0
  0
SPLINE
  5
2AF
330
1F
100
AcDbEntity
  8
0
  6
Continuous
 62
     8
370
    18
100
AcDbSpline
210
0.0
220
0.0
230
1.0
 70
     8
 71
     3
 72
    13
 73
     9
 74
     0
 42
0.000000001
 43
0.00000001
 40
0.0
 40
0.0
 40
0.0
 40
0.0
 40
0.0962667614560557
 40
0.2940157084788442
 40
0.49167991235366
 40
0.6816276126516125
 40
0.8716454072214415
 40
1.0
 40
1.0
 40
1.0
 40
1.0
 10
1597.165347525047
 20
887.2821830925639
 30
0.0
 10
1597.156163791827
 20
887.2978422700384
 30
0.0
 10
1597.128115046981
 20
887.3456681664303
 30
0.0
 10
1596.693881394708
 20
887.430851713671
 30
0.0
 10
1595.179778746363
 20
887.4865368618016
 30
0.0
 10
1592.813213760784
 20
887.5505198812405
 30
0.0
 10
1590.127896970692
 20
887.5738606309193
 30
0.0
 10
1588.09685638979
 20
887.5689792922706
 30
0.0
 10
1587.278024741576
 20
887.5670113382037
 30
0.0
  0
SPLINE
  5
2B0
330
1F
100
AcDbEntity
  8
0
  6
Continuous
 62
     8
370
    18
100
AcDbSpline
210
0.0
220
0.0
230
1.0
 70
     8
 71
     3
 72
    14
 73
    10
 74
     0
 42
0.000000001
 43
0.00000001
 40
0.0
 40
0.0
 40
0.0
 40
0.0
 40
0.1540452529125833
 40
0.3116222749830208
 40
0.4736469946257484
 40
0.5996984109617779
 40
0.7292827590320495
 40
0.8636610843838322
 40
0.9999999999999999
 40
0.9999999999999999
 40
0.9999999999999999
 40
0.9999999999999999
 10
1589.980229252146
 20
912.7577372607881
 30
0.0
 10
1590.334008555675
 20
911.4699699172941
 30
0.0
 10
1591.049678200296
 20
908.8649108087461
 30
0.0
 10
1591.6504835405
 20
904.892663330432
 30
0.0
 10
1591.696463453502
 20
901.084902007305
 30
0.0
 10
1591.231613462254
 20
897.4875516181294
 30
0.0
 10
1590.376362126517
 20
894.1498021896717
 30
0.0
 10
1589.096224271168
 20
890.7836576097317
 30
0.0
 10
1587.887010377167
 20
888.6443910989253
 30
0.0
 10
1587.278024741576
 20
887.5670113382037
 30
0.0
  0
SPLINE
  5
2B1
330
1F
100
AcDbEntity
  8
0
  6
Continuous
 62
     8
370
    18
100
AcDbSpline
210
0.0
220
0.0
230
1.0
 70
     8
 71
     3
 72
    12
 73
     8
 74
     0
 42
0.000000001
 43
0.00000001
 40
0.0
 40
0.0
 40
0.0
 40
0.0
 40
0.1619236319901617
 40
0.4860935123460937
 40
0.6524730964836051
 40
0.8184435869317109
 40
0.9999999999999999
 40
0.9999999999999999
 40
0.9999999999999999
 40
0.9999999999999999
 10
1579.94274560468
 20
940.1087860358053
 30
0.0
 10
1580.789851180879
 20
938.7615341075781
 30
0.0
 10
1583.33285568122
 20
934.7170940603903
 30
0.0
 10
1586.195266112347
 20
928.9409263168195
 30
0.0
 10
1588.556775979056
 20
922.9203300747964
 30
0.0
 10
1589.874960646827
 20
917.9900344316424
 30
0.0
 10
1589.94410603716
 20
914.5532146018236
 30
0.0
 10
1589.980229252146
 20
912.7577372607881
 30
0.0
  0
SPLINE
  5
2B2
330
1F
100
AcDbEntity
  8
0
  6
Continuous
 62
     8
370
    18
100
AcDbSpline
210
0.0
220
0.0
230
1.0
 70
     8
 71
     3
 72
    11
 73
     7
 74
     0
 42
0.000000001
 43
0.00000001
 40
0.0
 40
0.0
 40
0.0
 40
0.0
 40
0.2034934208490284
 40
0.469909384330617
 40
0.7365432800032389
 40
1.0
 40
1.0
 40
1.0
 40
1.0
 10
1578.926251717971
 20
927.3544658688003
 30
0.0
 10
1579.985290882685
 20
926.609792426803
 30
0.0
 10
1582.430836491956
 20
924.8901838163804
 30
0.0
 10
1585.798686141581
 20
921.70074341146
 30
0.0
 10
1588.623165605352
 20
917.52985433881
 30
0.0
 10
1589.529685823743
 20
914.3420741444356
 30
0.0
 10
1589.980229252146
 20
912.7577372607881
 30
0.0
  0
SPLINE
  5
2B3
330
1F
100
AcDbEntity
  8
0
  6
Continuous
 62
     8
370
    18
100
AcDbSpline
210
0.0
220
0.0
230
1.0
 70
     8
 71
     3
 72
    11
 73
     7
 74
     0
 42
0.000000001
 43
0.00000001
 40
0.0
 40
0.0
 40
0.0
 40
0.0
 40
0.2470286507798259
 40
0.4999998597004967
 40
0.7529705706550088
 40
1.0
 40
1.0
 40
1.0
 40
1.0
 10
1587.988193594979
 20
910.708015483349
 30
0.0
 10
1587.981303921344
 20
910.84477902227
 30
0.0
 10
1587.967358835057
 20
911.121596104243
 30
0.0
 10
1588.352848749731
 20
911.6338577311146
 30
0.0
 10
1589.003462891192
 20
912.1877017241965
 30
0.0
 10
1589.657229940533
 20
912.5692366190027
 30
0.0
 10
1589.980229252146
 20
912.7577372607881
 30
0.0
  0
SPLINE
  5
2B4
330
1F
100
AcDbEntity
  8
0
  6
Continuous
 62
     8
370
    18
100
AcDbSpline
210
0.0
220
0.0
230
1.0
 70
     8
 71
     3
 72
    13
 73
     9
 74
     0
 42
0.000000001
 43
0.00000001
 40
0.0
 40
0.0
 40
0.0
 40
0.0
 40
0.2394566602310418
 40
0.3683603754697415
 40
0.4999996109481874
 40
0.6316388951292723
 40
0.760542421062195
 40
1.0
 40
1.0
 40
1.0
 40
1.0
 10
1577.864137926267
 20
928.1347353723937
 30
0.0
 10
1577.676617351328
 20
927.8072327065466
 30
0.0
 10
1577.388151165731
 20
927.3034296181614
 30
0.0
 10
1577.041101847667
 20
926.6973036940888
 30
0.0
 10
1576.802286328638
 20
926.2802151955467
 30
0.0
 10
1576.609898204
 20
925.944211227268
 30
0.0
 10
1576.424015540397
 20
925.6195653220716
 30
0.0
 10
1576.393384441703
 20
925.5660694999455
 30
0.0
 10
1576.373472326563
 20
925.5312938955719
 30
0.0
  0
SPLINE
  5
2B5
330
1F
100
AcDbEntity
  8
0
  6
Continuous
 62
     8
370
    18
100
AcDbSpline
210
0.0
220
0.0
230
1.0
 70
     8
 71
     3
 72
    11
 73
     7
 74
     0
 42
0.000000001
 43
0.00000001
 40
0.0
 40
0.0
 40
0.0
 40
0.0
 40
0.2655360217528663
 40
0.5311508409449068
 40
0.8005510659818563
 40
1.0
 40
1.0
 40
1.0
 40
1.0
 10
1537.922273838089
 20
912.7577372607881
 30
0.0
 10
1538.374392693236
 20
914.3501584283953
 30
0.0
 10
1539.278764569162
 20
917.5354733123404
 30
0.0
 10
1542.115805629677
 20
921.7067161918875
 30
0.0
 10
1545.456488249118
 20
924.8856166826505
 30
0.0
 10
1547.890724676083
 20
926.5931063045418
 30
0.0
 10
1548.926251457201
 20
927.3194742170268
 30
0.0
  0
SPLINE
  5
2B6
330
1F
100
AcDbEntity
  8
0
  6
Continuous
 62
     8
370
    18
100
AcDbSpline
210
0.0
220
0.0
230
1.0
 70
     8
 71
     3
 72
    13
 73
     9
 74
     0
 42
0.000000001
 43
0.00000001
 40
0.0
 40
0.0
 40
0.0
 40
0.0
 40
0.2394566602310418
 40
0.3683603754697415
 40
0.4999996109481874
 40
0.6316388951292723
 40
0.760542421062195
 40
1.0
 40
1.0
 40
1.0
 40
1.0
 10
1550.038365163968
 20
928.1347353723937
 30
0.0
 10
1550.225885738907
 20
927.8072327065466
 30
0.0
 10
1550.514351924504
 20
927.3034296181614
 30
0.0
 10
1550.861401242568
 20
926.6973036940888
 30
0.0
 10
1551.100216761597
 20
926.2802151955467
 30
0.0
 10
1551.292604886235
 20
925.944211227268
 30
0.0
 10
1551.478487549839
 20
925.6195653220716
 30
0.0
 10
1551.509118648532
 20
925.5660694999455
 30
0.0
 10
1551.529030763672
 20
925.5312938955719
 30
0.0
  0
SPLINE
  5
2B7
330
1F
100
AcDbEntity
  8
0
  6
Continuous
 62
     8
370
    18
100
AcDbSpline
210
0.0
220
0.0
230
1.0
 70
     8
 71
     3
 72
    11
 73
     7
 74
     0
 42
0.000000001
 43
0.00000001
 40
0.0
 40
0.0
 40
0.0
 40
0.0
 40
0.2470294293449911
 40
0.5000001402995035
 40
0.7529713492201741
 40
1.0
 40
1.0
 40
1.0
 40
1.0
 10
1537.922273838089
 20
912.7577372607881
 30
0.0
 10
1538.245273149702
 20
912.5692366190027
 30
0.0
 10
1538.899040199043
 20
912.1877017241965
 30
0.0
 10
1539.549654340504
 20
911.6338577311146
 30
0.0
 10
1539.935144255178
 20
911.121596104243
 30
0.0
 10
1539.921199168891
 20
910.84477902227
 30
0.0
 10
1539.914309495257
 20
910.708015483349
 30
0.0
  0
SPLINE
  5
2B8
330
1F
100
AcDbEntity
  8
0
  6
Continuous
 62
     8
370
    18
100
AcDbSpline
210
0.0
220
0.0
230
1.0
 70
     8
 71
     3
 72
    11
 73
     7
 74
     0
 42
0.000000001
 43
0.00000001
 40
0.0
 40
0.0
 40
0.0
 40
0.0
 40
0.2689757840726111
 40
0.5379774502219061
 40
0.806940434986235
 40
0.9999999999999999
 40
0.9999999999999999
 40
0.9999999999999999
 40
0.9999999999999999
 10
1550.038365163968
 20
928.1347353723937
 30
0.0
 10
1551.113689367809
 20
928.6994321693587
 30
0.0
 10
1553.264441248089
 20
929.8288801009896
 30
0.0
 10
1556.735933602606
 20
930.95492706979
 30
0.0
 10
1559.971922036965
 20
931.6480879231366
 30
0.0
 10
1562.055579671782
 20
931.7337154348688
 30
0.0
 10
1562.926251540089
 20
931.7694955286676
 30
0.0
  0
SPLINE
  5
2B9
330
1F
100
AcDbEntity
  8
0
  6
Continuous
 62
     8
370
    18
100
AcDbSpline
210
0.0
220
0.0
230
1.0
 70
     8
 71
     3
 72
    11
 73
     7
 74
     0
 42
0.000000001
 43
0.00000001
 40
0.0
 40
0.0
 40
0.0
 40
0.0
 40
0.1959868228209291
 40
0.4640082958726598
 40
0.7319913127528169
 40
1.0
 40
1.0
 40
1.0
 40
1.0
 10
1564.926251518668
 20
931.7727477070982
 30
0.0
 10
1565.813423945904
 20
931.7365147465723
 30
0.0
 10
1567.913847638587
 20
931.6507314575427
 30
0.0
 10
1571.166257848831
 20
930.9552789572548
 30
0.0
 10
1574.637972113651
 20
929.8289237792497
 30
0.0
 10
1576.78871498673
 20
928.6994828721987
 30
0.0
 10
1577.864137926267
 20
928.1347353723937
 30
0.0
  0
LINE
  5
2BA
330
1F
100
AcDbEntity
  8
0
  6
Continuous
 62
     8
370
    18
100
AcDbLine
 10
1579.9427456047
 20
940.1087860358
 30
0.0
 11
1578.926251718
 21
939.4364726511
 31
0.0
  0
SPLINE
  5
2BB
330
1F
100
AcDbEntity
  8
0
  6
Continuous
 62
     8
370
    18
100
AcDbSpline
210
0.0
220
0.0
230
1.0
 70
     8
 71
     3
 72
     9
 73
     5
 74
     0
 42
0.000000001
 43
0.00000001
 40
0.0
 40
0.0
 40
0.0
 40
0.0
 40
0.1208686104729542
 40
1.0
 40
1.0
 40
1.0
 40
1.0
 10
1577.560966351198
 20
938.5334660080367
 30
0.0
 10
1577.435603488869
 20
938.450722113445
 30
0.0
 10
1576.398420535929
 20
937.7661449162051
 30
0.0
 10
1575.220929025197
 20
936.9536070493092
 30
0.0
 10
1574.185759277211
 20
936.2392795053418
 30
0.0
  0
LINE
  5
2BC
330
1F
100
AcDbEntity
  8
0
  6
Continuous
 62
     8
370
    18
100
AcDbLine
 10
1577.8641379263
 20
928.1347353724
 30
0.0
 11
1574.1857592772
 21
936.2392795053
 31
0.0
  0
SPLINE
  5
2BD
330
1F
100
AcDbEntity
  8
0
  6
Continuous
 62
     8
370
    18
100
AcDbSpline
210
0.0
220
0.0
230
1.0
 70
     8
 71
     3
 72
    11
 73
     7
 74
     0
 42
0.000000001
 43
0.00000001
 40
0.0
 40
0.0
 40
0.0
 40
0.0
 40
0.2481270250960322
 40
0.4999999979703689
 40
0.751872787153674
 40
1.0
 40
1.0
 40
1.0
 40
1.0
 10
1540.624478348659
 20
887.5670113382037
 30
0.0
 10
1541.036713030309
 20
887.8740463680357
 30
0.0
 10
1541.867405857535
 20
888.492751703472
 30
0.0
 10
1542.706205042354
 20
889.154545890174
 30
0.0
 10
1543.237594598578
 20
889.6116657901532
 30
0.0
 10
1543.277587224782
 20
889.7039761563608
 30
0.0
 10
1543.29743374245
 20
889.7497855839425
 30
0.0
  0
SPLINE
  5
2BE
330
1F
100
AcDbEntity
  8
0
  6
Continuous
 62
     8
370
    18
100
AcDbSpline
210
0.0
220
0.0
230
1.0
 70
     8
 71
     3
 72
    11
 73
     7
 74
     0
 42
0.000000001
 43
0.00000001
 40
0.0
 40
0.0
 40
0.0
 40
0.0
 40
0.248127212846326
 40
0.5000000020296311
 40
0.7518729749039678
 40
1.0
 40
1.0
 40
1.0
 40
1.0
 10
1584.605069347785
 20
889.7497855839425
 30
0.0
 10
1584.624915865453
 20
889.7039761563608
 30
0.0
 10
1584.664908491657
 20
889.6116657901533
 30
0.0
 10
1585.196298047882
 20
889.1545458901738
 30
0.0
 10
1586.0350972327
 20
888.492751703472
 30
0.0
 10
1586.865790059926
 20
887.8740463680357
 30
0.0
 10
1587.278024741576
 20
887.5670113382037
 30
0.0
  0
SPLINE
  5
2BF
330
1F
100
AcDbEntity
  8
0
  6
Continuous
 62
     8
370
    18
100
AcDbSpline
210
0.0
220
0.0
230
1.0
 70
     8
 71
     3
 72
    11
 73
     7
 74
     0
 42
0.000000001
 43
0.00000001
 40
0.0
 40
0.0
 40
0.0
 40
0.0
 40
0.1656016184875093
 40
0.3907556825888552
 40
0.7514001079599952
 40
1.0
 40
1.0
 40
1.0
 40
1.0
 10
1561.243362707214
 20
940.7459270921642
 30
0.0
 10
1560.804637510753
 20
940.539030681735
 30
0.0
 10
1559.769415964141
 20
940.0508352835209
 30
0.0
 10
1557.92236404861
 20
938.850250367546
 30
0.0
 10
1555.872231550055
 20
937.5266162079448
 30
0.0
 10
1554.341395716966
 20
936.6123446397337
 30
0.0
 10
1553.716743813024
 20
936.2392795053418
 30
0.0
  0
SPLINE
  5
2C0
330
1F
100
AcDbEntity
  8
0
  6
Continuous
 62
     8
370
    18
100
AcDbSpline
210
0.0
220
0.0
230
1.0
 70
     8
 71
     3
 72
     9
 73
     5
 74
     0
 42
0.000000001
 43
0.00000001
 40
0.0
 40
0.0
 40
0.0
 40
0.0
 40
0.8025171292186806
 40
1.0
 40
1.0
 40
1.0
 40
1.0
 10
1553.716743813024
 20
936.2392795053418
 30
0.0
 10
1552.921573592337
 20
937.1779372315539
 30
0.0
 10
1551.930728423137
 20
938.3475792143063
 30
0.0
 10
1551.063961847831
 20
939.3764626688078
 30
0.0
 10
1550.892790296243
 20
939.5796495271022
 30
0.0
  0
SPLINE
  5
2C1
330
1F
100
AcDbEntity
  8
0
  6
Continuous
 62
     8
370
    18
100
AcDbSpline
210
0.0
220
0.0
230
1.0
 70
     8
 71
     3
 72
     9
 73
     5
 74
     0
 42
0.000000001
 43
0.00000001
 40
0.0
 40
0.0
 40
0.0
 40
0.0
 40
0.559670116858582
 40
1.0
 40
1.0
 40
1.0
 40
1.0
 10
1545.622888469265
 20
944.1436246750051
 30
0.0
 10
1546.227500099443
 20
943.8736532697459
 30
0.0
 10
1547.307800104687
 20
943.3912773180432
 30
0.0
 10
1548.43146723918
 20
942.2895395725296
 30
0.0
 10
1548.926251457201
 20
941.8044115197952
 30
0.0
  0
SPLINE
  5
2C2
330
1F
100
AcDbEntity
  8
0
  6
Continuous
 62
     8
370
    18
100
AcDbSpline
210
0.0
220
0.0
230
1.0
 70
     8
 71
     3
 72
     9
 73
     5
 74
     0
 42
0.000000001
 43
0.00000001
 40
0.0
 40
0.0
 40
0.0
 40
0.0
 40
0.8844101293156017
 40
1.0
 40
1.0
 40
1.0
 40
1.0
 10
1553.716743813024
 20
936.2392795053418
 30
0.0
 10
1552.681164226924
 20
936.9536172792443
 30
0.0
 10
1551.510237355133
 20
937.7613169541174
 30
0.0
 10
1550.479053102466
 20
938.4422110450953
 30
0.0
 10
1550.359858648048
 20
938.5209155050213
 30
0.0
  0
LINE
  5
2C3
330
1F
100
AcDbEntity
  8
0
  6
Continuous
 62
     8
370
    18
100
AcDbLine
 10
1548.9262514572
 20
939.469374415
 30
0.0
 11
1547.9597612108
 21
940.1087934864
 31
0.0
  0
LINE
  5
2C4
330
1F
100
AcDbEntity
  8
0
  6
Continuous
 62
     8
370
    18
100
AcDbLine
 10
1553.716743813
 20
936.2392795053
 30
0.0
 11
1550.038365164
 21
928.1347353724
 31
0.0
  0
SPLINE
  5
2C5
330
1F
100
AcDbEntity
  8
0
  6
Continuous
 62
     8
370
    18
100
AcDbSpline
210
0.0
220
0.0
230
1.0
 70
     8
 71
     3
 72
     9
 73
     5
 74
     0
 42
0.000000001
 43
0.00000001
 40
0.0
 40
0.0
 40
0.0
 40
0.0
 40
0.1844381514171517
 40
1.0
 40
1.0
 40
1.0
 40
1.0
 10
1576.967586279975
 20
939.5301432130034
 30
0.0
 10
1576.810147399606
 20
939.3433196149298
 30
0.0
 10
1575.956533984166
 20
938.3303860291287
 30
0.0
 10
1574.981202458921
 20
937.1786177622314
 30
0.0
 10
1574.185759277211
 20
936.2392795053418
 30
0.0
  0
SPLINE
  5
2C6
330
1F
100
AcDbEntity
  8
0
  6
Continuous
 62
     8
370
    18
100
AcDbSpline
210
0.0
220
0.0
230
1.0
 70
     8
 71
     3
 72
     9
 73
     5
 74
     0
 42
0.000000001
 43
0.00000001
 40
0.0
 40
0.0
 40
0.0
 40
0.0
 40
0.6588424054335427
 40
1.0
 40
1.0
 40
1.0
 40
1.0
 10
1574.185759277211
 20
936.2392795053418
 30
0.0
 10
1572.575277895125
 20
937.2911883833502
 30
0.0
 10
1570.130867260952
 20
938.8877900430695
 30
0.0
 10
1567.546668444149
 20
940.2435123942081
 30
0.0
 10
1566.665049391926
 20
940.7060273704225
 30
0.0
  0
SPLINE
  5
2C7
330
1F
100
AcDbEntity
  8
0
  6
Continuous
 62
     8
370
    18
100
AcDbSpline
210
0.0
220
0.0
230
1.0
 70
     8
 71
     3
 72
     9
 73
     5
 74
     0
 42
0.000000001
 43
0.00000001
 40
0.0
 40
0.0
 40
0.0
 40
0.0
 40
0.5514446746225411
 40
1.0
 40
1.0
 40
1.0
 40
1.0
 10
1582.27961462097
 20
944.1436246750051
 30
0.0
 10
1581.674934700914
 20
943.872702246034
 30
0.0
 10
1580.578396919551
 20
943.3814064888367
 30
0.0
 10
1579.437850077718
 20
942.2615041599845
 30
0.0
 10
1578.926251717971
 20
941.7591660064752
 30
0.0
  0
SPLINE
  5
2C8
330
1F
100
AcDbEntity
  8
0
  6
Continuous
 62
     8
370
    18
100
AcDbSpline
210
0.0
220
0.0
230
1.0
 70
     8
 71
     3
 72
     9
 73
     5
 74
     0
 42
0.000000001
 43
0.00000001
 40
0.0
 40
0.0
 40
0.0
 40
0.0
 40
0.2933870758419181
 40
1.0
 40
1.0
 40
1.0
 40
1.0
 10
1548.926251457201
 20
941.105126102
 30
0.0
 10
1548.823822598023
 20
941.0143233447848
 30
0.0
 10
1548.474697269704
 20
940.7048251947568
 30
0.0
 10
1548.172967421319
 20
940.3555768678904
 30
0.0
 10
1547.959761210845
 20
940.1087934863859
 30
0.0
  0
SPLINE
  5
2C9
330
1F
100
AcDbEntity
  8
0
  6
Continuous
 62
     8
370
    18
100
AcDbSpline
210
0.0
220
0.0
230
1.0
 70
     8
 71
     3
 72
     9
 73
     5
 74
     0
 42
0.000000001
 43
0.00000001
 40
0.0
 40
0.0
 40
0.0
 40
0.0
 40
0.6740100224430461
 40
1.0
 40
1.0
 40
1.0
 40
1.0
 10
1579.94274560468
 20
940.1087860358053
 30
0.0
 10
1579.729172787553
 20
940.3552671169922
 30
0.0
 10
1579.412303883506
 20
940.7209606126074
 30
0.0
 10
1579.045745935285
 20
941.0449801260244
 30
0.0
 10
1578.926251717971
 20
941.1506072399313
 30
0.0
  0
SPLINE
  5
2CA
330
1F
100
AcDbEntity
  8
0
  6
Continuous
 62
     8
370
    18
100
AcDbSpline
210
0.0
220
0.0
230
1.0
 70
     8
 71
     3
 72
    15
 73
    11
 74
     0
 42
0.000000001
 43
0.00000001
 40
0.0
 40
0.0
 40
0.0
 40
0.0
 40
0.124752707585004
 40
0.2488215617463519
 40
0.3735042727212121
 40
0.4999077097380255
 40
0.6269902829847238
 40
0.7566599352311386
 40
0.8889284632224227
 40
1.0
 40
1.0
 40
1.0
 40
1.0
 10
1587.278024741576
 20
887.5670113382037
 30
0.0
 10
1586.565440668063
 20
886.7946474184539
 30
0.0
 10
1585.144178673198
 20
885.2541534246244
 30
0.0
 10
1582.591692244997
 20
883.3497035445512
 30
0.0
 10
1579.816888391721
 20
881.7846102744282
 30
0.0
 10
1576.846900585981
 20
880.5866265881168
 30
0.0
 10
1573.74039262937
 20
879.7260894217096
 30
0.0
 10
1570.5438404053
 20
879.1790293109219
 30
0.0
 10
1567.471381939627
 20
878.8946117902133
 30
0.0
 10
1565.504457632061
 20
878.8662497451197
 30
0.0
 10
1564.606663404161
 20
878.853304010361
 30
0.0
  0
SPLINE
  5
2CB
330
1F
100
AcDbEntity
  8
0
  6
Continuous
 62
     8
370
    18
100
AcDbSpline
210
0.0
220
0.0
230
1.0
 70
     8
 71
     3
 72
    15
 73
    11
 74
     0
 42
0.000000001
 43
0.00000001
 40
0.0
 40
0.0
 40
0.0
 40
0.0
 40
0.0501343374735089
 40
0.1914700285095698
 40
0.3300287063942942
 40
0.4658229576026607
 40
0.6008915168971037
 40
0.7341213921105425
 40
0.8666953298164976
 40
1.0
 40
1.0
 40
1.0
 40
1.0
 10
1561.735667503567
 20
878.8946472820933
 30
0.0
 10
1561.355978268978
 20
878.9020055864844
 30
0.0
 10
1559.905892115751
 20
878.9301079774312
 30
0.0
 10
1557.357507723035
 20
879.1838729721185
 30
0.0
 10
1554.162410545209
 20
879.7248307803297
 30
0.0
 10
1551.055523222159
 20
880.5869591203825
 30
0.0
 10
1548.085635568876
 20
881.7845227380333
 30
0.0
 10
1545.310805343488
 20
883.3497266204993
 30
0.0
 10
1542.758325798477
 20
885.2541476304635
 30
0.0
 10
1541.337062883495
 20
886.7946454835314
 30
0.0
 10
1540.624478348659
 20
887.5670113382037
 30
0.0
  0
SPLINE
  5
2CC
330
1F
100
AcDbEntity
  8
0
  6
Continuous
 62
     8
370
    18
100
AcDbSpline
210
0.0
220
0.0
230
1.0
 70
     8
 71
     3
 72
     9
 73
     5
 74
     0
 42
0.000000001
 43
0.00000001
 40
0.0
 40
0.0
 40
0.0
 40
0.0
 40
0.4374232407312072
 40
1.0
 40
1.0
 40
1.0
 40
1.0
 10
1536.360401176976
 20
880.951566320389
 30
0.0
 10
1536.357196701401
 20
880.9532201296535
 30
0.0
 10
1536.349870900491
 20
880.9570009284555
 30
0.0
 10
1536.307920111903
 20
880.9818123090068
 30
0.0
 10
1536.28431957321
 20
880.9957706150705
 30
0.0
  0
LINE
  5
2CD
330
1F
100
AcDbEntity
  8
0
  6
Continuous
 62
     8
370
    18
100
AcDbLine
 10
1536.1227183427
 20
881.0936041889
 30
0.0
 11
1535.9895354892
 21
881.1782800374
 31
0.0
  0
SPLINE
  5
2CE
330
1F
100
AcDbEntity
  8
0
  6
Continuous
 62
     8
370
    18
100
AcDbSpline
210
0.0
220
0.0
230
1.0
 70
     8
 71
     3
 72
    14
 73
    10
 74
     0
 42
0.000000001
 43
0.00000001
 40
0.0
 40
0.0
 40
0.0
 40
0.0
 40
0.2135067705021919
 40
0.6517504255094665
 40
0.873140209560505
 40
0.93403629594732
 40
0.9607431924969301
 40
0.9801118292298369
 40
0.9999999999999999
 40
0.9999999999999999
 40
0.9999999999999999
 40
0.9999999999999999
 10
1530.814276524947
 20
887.1250652489358
 30
0.0
 10
1531.141160982596
 20
886.5311980187508
 30
0.0
 10
1532.139007954211
 20
884.7183598635072
 30
0.0
 10
1534.040329610461
 20
882.6643307532407
 30
0.0
 10
1535.882471511299
 20
881.3328825661179
 30
0.0
 10
1536.627480945036
 20
880.8823061331303
 30
0.0
 10
1536.812628168932
 20
880.77343312428
 30
0.0
 10
1536.878514605791
 20
880.7339833747096
 30
0.0
 10
1536.876739229351
 20
880.7333626910367
 30
0.0
 10
1536.875839793251
 20
880.7330482420618
 30
0.0
  0
LINE
  5
2CF
330
1F
100
AcDbEntity
  8
0
  6
Continuous
 62
     8
370
    18
100
AcDbLine
 10
1530.7371555652
 20
887.2821830926
 30
0.0
 11
1530.8142765249
 21
887.1250652489
 31
0.0
  0
LINE
  5
2D0
330
1F
100
AcDbEntity
  8
0
  6
Continuous
 62
     8
370
    18
100
AcDbLine
 10
1597.165347525
 20
887.2821830926
 30
0.0
 11
1597.0882265653
 21
887.1250652489
 31
0.0
  0
SPLINE
  5
2D1
330
1F
100
AcDbEntity
  8
0
  6
Continuous
 62
     8
370
    18
100
AcDbSpline
210
0.0
220
0.0
230
1.0
 70
     8
 71
     3
 72
    14
 73
    10
 74
     0
 42
0.000000001
 43
0.00000001
 40
0.0
 40
0.0
 40
0.0
 40
0.0
 40
0.2135067705021919
 40
0.6517504255094665
 40
0.873140209560505
 40
0.93403629594732
 40
0.9607431924969301
 40
0.9801118292298369
 40
0.9999999999999999
 40
0.9999999999999999
 40
0.9999999999999999
 40
0.9999999999999999
 10
1597.088226565288
 20
887.1250652489358
 30
0.0
 10
1596.761342107639
 20
886.5311980187508
 30
0.0
 10
1595.763495136024
 20
884.7183598635072
 30
0.0
 10
1593.862173479775
 20
882.6643307532407
 30
0.0
 10
1592.020031578936
 20
881.3328825661179
 30
0.0
 10
1591.275022145199
 20
880.8823061331303
 30
0.0
 10
1591.089874921303
 20
880.77343312428
 30
0.0
 10
1591.023988484444
 20
880.7339833747096
 30
0.0
 10
1591.025763860884
 20
880.7333626910367
 30
0.0
 10
1591.026663296984
 20
880.7330482420618
 30
0.0
  0
SPLINE
  5
2D2
330
1F
100
AcDbEntity
  8
0
  6
Continuous
 62
     8
370
    18
100
AcDbSpline
210
0.0
220
0.0
230
1.0
 70
     8
 71
     3
 72
     9
 73
     5
 74
     0
 42
0.000000001
 43
0.00000001
 40
0.0
 40
0.0
 40
0.0
 40
0.0
 40
0.5224356169525616
 40
1.0
 40
1.0
 40
1.0
 40
1.0
 10
1591.54210191326
 20
880.951566320389
 30
0.0
 10
1591.544877213751
 20
880.9529592566747
 30
0.0
 10
1591.550189448218
 20
880.9556254919786
 30
0.0
 10
1591.584492188604
 20
880.9759022256084
 30
0.0
 10
1591.600873955653
 20
880.9855856713946
 30
0.0
  0
SPLINE
  5
2D3
330
1F
100
AcDbEntity
  8
0
  6
Continuous
 62
     8
370
    18
100
AcDbSpline
210
0.0
220
0.0
230
1.0
 70
     8
 71
     3
 72
     9
 73
     5
 74
     0
 42
0.000000001
 43
0.00000001
 40
0.0
 40
0.0
 40
0.0
 40
0.0
 40
0.3615541588479881
 40
1.0
 40
1.0
 40
1.0
 40
1.0
 10
1591.699186229275
 20
881.0444229063684
 30
0.0
 10
1591.721383737136
 20
881.0577213526615
 30
0.0
 10
1591.782778433663
 20
881.0945026922412
 30
0.0
 10
1591.867846523794
 20
881.1492000145869
 30
0.0
 10
1591.922157892154
 20
881.1841212925607
 30
0.0
  0
LWPOLYLINE
  5
2D4
330
1F
100
AcDbEntity
  8
0
  6
Continuous
 62
     8
370
    18
100
AcDbPolyline
 90
        9
 70
   128
 43
0.0
 10
1529.8197991039
 20
889.2854132471
 10
1529.8028639342
 20
889.2780446229
 10
1529.7643332566
 20
889.2613404212
 10
1529.7045050945
 20
889.2354198513
 10
1529.6238562848
 20
889.20049898
 10
1529.5230238523
 20
889.1568460283
 10
1529.4028012838
 20
889.1048037228
 10
1529.2641385283
 20
889.0447967467
 10
1529.1081308212
 20
888.9772795853
  0
SPLINE
  5
2D5
330
1F
100
AcDbEntity
  8
0
  6
Continuous
 62
     8
370
    18
100
AcDbSpline
210
0.0
220
0.0
230
1.0
 70
     8
 71
     3
 72
    14
 73
    10
 74
     0
 42
0.000000001
 43
0.00000001
 40
0.0
 40
0.0
 40
0.0
 40
0.0
 40
0.1277343673806529
 40
0.2554736447623946
 40
0.3815295577018548
 40
0.5075899876641011
 40
0.7106819269575554
 40
0.9137761147631837
 40
1.0
 40
1.0
 40
1.0
 40
1.0
 10
1529.108130821155
 20
888.9772795853311
 30
0.0
 10
1528.508890145598
 20
890.4730337463845
 30
0.0
 10
1527.31038576018
 20
893.4645995640167
 30
0.0
 10
1526.022985542745
 20
898.108535554601
 30
0.0
 10
1525.113640230914
 20
902.8144340206942
 30
0.0
 10
1524.502424882753
 20
908.5275494037553
 30
0.0
 10
1524.515184872802
 20
915.2545854001777
 30
0.0
 10
1525.290280506478
 20
921.4364194969961
 30
0.0
 10
1526.138073364134
 20
924.9845952147864
 30
0.0
 10
1526.390736439393
 20
926.0420386460715
 30
0.0
  0
ARC
  5
2D6
330
1F
100
AcDbEntity
  8
0
  6
Continuous
 62
     8
370
    18
100
AcDbCircle
 10
1531.7466399634
 20
946.9946954041
 30
0.0
 40
21.62636187104329
100
AcDbArc
 50
255.6611360677
 51
257.8987638079
  0
SPLINE
  5
2D7
330
1F
100
AcDbEntity
  8
0
  6
Continuous
 62
     8
370
    18
100
AcDbSpline
210
0.0
220
0.0
230
1.0
 70
     8
 71
     3
 72
    14
 73
    10
 74
     0
 42
0.000000001
 43
0.00000001
 40
0.0
 40
0.0
 40
0.0
 40
0.0
 40
0.1272473850457647
 40
0.2554745795391216
 40
0.381092014624975
 40
0.5075915707197292
 40
0.7089607019452395
 40
0.9137761471534753
 40
1.0
 40
1.0
 40
1.0
 40
1.0
 10
1598.79437226908
 20
888.9772795853311
 30
0.0
 10
1599.391687196455
 20
890.4671894028837
 30
0.0
 10
1600.590916397656
 20
893.458481397242
 30
0.0
 10
1601.876546382548
 20
898.0972446677258
 30
0.0
 10
1602.788631220725
 20
902.8088196186927
 30
0.0
 10
1603.397612720668
 20
908.500450547585
 30
0.0
 10
1603.388167537021
 20
915.2325163379264
 30
0.0
 10
1602.617286728417
 20
921.4153207052493
 30
0.0
 10
1601.764434318649
 20
924.984597849273
 30
0.0
 10
1601.511766650842
 20
926.0420386460715
 30
0.0
  0
LWPOLYLINE
  5
2D8
330
1F
100
AcDbEntity
  8
0
  6
Continuous
 62
     8
370
    18
100
AcDbPolyline
 90
        9
 70
   128
 43
0.0
 10
1598.0827039863
 20
889.2854132471
 10
1598.099639156
 20
889.2780446229
 10
1598.1381698336
 20
889.2613404212
 10
1598.1979979958
 20
889.2354198513
 10
1598.2786468055
 20
889.20049898
 10
1598.379479238
 20
889.1568460283
 10
1598.4997018065
 20
889.1048037228
 10
1598.638364562
 20
889.0447967467
 10
1598.7943722691
 20
888.9772795853
  0
ARC
  5
2D9
330
1F
100
AcDbEntity
  8
0
  6
Continuous
 62
     8
370
    18
100
AcDbCircle
 10
1596.1558631269
 20
946.9946954039
 30
0.0
 40
21.62636187083281
100
AcDbArc
 50
282.1012361921
 51
284.3388639323
  0
SPLINE
  5
2DA
330
1F
100
AcDbEntity
  8
0
  6
Continuous
 62
     8
370
    18
100
AcDbSpline
210
0.0
220
0.0
230
1.0
 70
     8
 71
     3
 72
    17
 73
    13
 74
     0
 42
0.000000001
 43
0.00000001
 40
0.0
 40
0.0
 40
0.0
 40
0.0
 40
0.004510843233242
 40
0.0089275808396544
 40
0.0130797616166692
 40
0.0177776523968753
 40
0.0339670294539795
 40
0.0840598168529355
 40
0.3047425820150672
 40
0.7692817376597775
 40
0.8273199878888532
 40
1.0
 40
1.0
 40
1.0
 40
1.0
 10
1591.320376359986
 20
880.8765091714556
 30
0.0
 10
1591.316057370928
 20
880.8747432980159
 30
0.0
 10
1591.30750949596
 20
880.8712483909507
 30
0.0
 10
1591.308702719165
 20
880.872970631371
 30
0.0
 10
1591.323549609503
 20
880.8812850250142
 30
0.0
 10
1591.370490794993
 20
880.9059696200022
 30
0.0
 10
1591.552831530002
 20
880.9991612089872
 30
0.0
 10
1592.320847625446
 20
881.4031294003844
 30
0.0
 10
1594.21774855246
 20
882.5942177274118
 30
0.0
 10
1595.861732961379
 20
884.1913401863264
 30
0.0
 10
1597.130390208665
 20
885.8779900660091
 30
0.0
 10
1597.495984564905
 20
886.476124399911
 30
0.0
 10
1597.769611963199
 20
886.9237952646905
 30
0.0
  0
ARC
  5
2DB
330
1F
100
AcDbEntity
  8
0
  6
Continuous
 62
     8
370
    18
100
AcDbCircle
 10
1592.4748785552
 20
878.1404570736
 30
0.0
 40
2.969655939852981
100
AcDbArc
 50
112.8777576482
 51
119.1876216711
  0
ARC
  5
2DC
330
1F
100
AcDbEntity
  8
0
  6
Continuous
 62
     8
370
    18
100
AcDbCircle
 10
1596.9570569174
 20
885.426973417
 30
0.0
 40
1.703150417991162
100
AcDbArc
 50
61.5045206154
 51
85.5829405039
  0
ARC
  5
2DD
330
1F
100
AcDbEntity
  8
0
  6
Continuous
 62
     8
370
    18
100
AcDbCircle
 10
1535.427624535
 20
878.1404570736
 30
0.0
 40
2.96965593983524
100
AcDbArc
 50
60.8123783288
 51
67.1222423518
  0
SPLINE
  5
2DE
330
1F
100
AcDbEntity
  8
0
  6
Continuous
 62
     8
370
    18
100
AcDbSpline
210
0.0
220
0.0
230
1.0
 70
     8
 71
     3
 72
    17
 73
    13
 74
     0
 42
0.000000001
 43
0.00000001
 40
0.0
 40
0.0
 40
0.0
 40
0.0
 40
0.004510843233242
 40
0.0089275808396544
 40
0.0130797616166692
 40
0.0177776523968753
 40
0.0339670294539795
 40
0.0840598168529355
 40
0.3047425820150672
 40
0.7692817376597775
 40
0.8273199878888532
 40
1.0
 40
1.0
 40
1.0
 40
1.0
 10
1536.58212673025
 20
880.8765091714556
 30
0.0
 10
1536.586445719307
 20
880.8747432980159
 30
0.0
 10
1536.594993594276
 20
880.8712483909507
 30
0.0
 10
1536.593800371071
 20
880.872970631371
 30
0.0
 10
1536.578953480732
 20
880.8812850250142
 30
0.0
 10
1536.532012295243
 20
880.9059696200022
 30
0.0
 10
1536.349671560234
 20
880.9991612089872
 30
0.0
 10
1535.581655464789
 20
881.4031294003844
 30
0.0
 10
1533.684754537776
 20
882.5942177274118
 30
0.0
 10
1532.040770128857
 20
884.1913401863264
 30
0.0
 10
1530.77211288157
 20
885.8779900660091
 30
0.0
 10
1530.406518525331
 20
886.476124399911
 30
0.0
 10
1530.132891127036
 20
886.9237952646905
 30
0.0
  0
ARC
  5
2DF
330
1F
100
AcDbEntity
  8
0
  6
Continuous
 62
     8
370
    18
100
AcDbCircle
 10
1530.9454461729
 20
885.426973417
 30
0.0
 40
1.703150417992164
100
AcDbArc
 50
94.4170594961
 51
118.4954793845
  0
SPLINE
  5
2E0
330
1F
100
AcDbEntity
  8
0
  6
Continuous
 62
     8
370
    18
100
AcDbSpline
210
0.0
220
0.0
230
1.0
 70
     8
 71
     3
 72
    10
 73
     6
 74
     0
 42
0.000000001
 43
0.00000001
 40
0.0
 40
0.0
 40
0.0
 40
0.0
 40
0.0049101272671211
 40
0.1151642894206153
 40
1.0
 40
1.0
 40
1.0
 40
1.0
 10
1526.390736439393
 20
926.0420386460715
 30
0.0
 10
1526.395365860472
 20
926.0599737070173
 30
0.0
 10
1526.503946343214
 20
926.4806305326268
 30
0.0
 10
1527.462752333643
 20
930.1294044399345
 30
0.0
 10
1528.616161457096
 20
933.7033540667444
 30
0.0
 10
1529.641774931119
 20
936.8813165244752
 30
0.0
  0
ARC
  5
2E1
330
1F
100
AcDbEntity
  8
0
  6
Continuous
 62
     8
370
    18
100
AcDbCircle
 10
1563.9879377867
 20
1036.7044607323
 30
0.0
 40
105.5666567740493
100
AcDbArc
 50
251.0131897094
 51
251.440658065
  0
ARC
  5
2E2
330
1F
100
AcDbEntity
  8
0
  6
Continuous
 62
     8
370
    18
100
AcDbCircle
 10
1563.9145653035
 20
1036.7044607323
 30
0.0
 40
105.5666567740236
100
AcDbArc
 50
288.559341935
 51
288.9868102906
  0
SPLINE
  5
2E3
330
1F
100
AcDbEntity
  8
0
  6
Continuous
 62
     8
370
    18
100
AcDbSpline
210
0.0
220
0.0
230
1.0
 70
     8
 71
     3
 72
    10
 73
     6
 74
     0
 42
0.000000001
 43
0.00000001
 40
0.0
 40
0.0
 40
0.0
 40
0.0
 40
0.0049101272671211
 40
0.1151642894206153
 40
1.0
 40
1.0
 40
1.0
 40
1.0
 10
1601.511766650842
 20
926.0420386460715
 30
0.0
 10
1601.507137229763
 20
926.0599737070173
 30
0.0
 10
1601.398556747021
 20
926.4806305326268
 30
0.0
 10
1600.439750756592
 20
930.1294044399345
 30
0.0
 10
1599.286341633139
 20
933.7033540667444
 30
0.0
 10
1598.260728159116
 20
936.8813165244752
 30
0.0
  0
ARC
  5
2E4
330
1F
100
AcDbEntity
  8
0
  6
Continuous
 62
     8
370
    18
100
AcDbCircle
 10
1598.2553893014
 20
943.2093965807
 30
0.0
 40
2.992643460951306
100
AcDbArc
 50
208.4541834336
 51
226.4525029134
  0
SPLINE
  5
2E5
330
1F
100
AcDbEntity
  8
0
  6
Continuous
 62
     8
370
    18
100
AcDbSpline
210
0.0
220
0.0
230
1.0
 70
     8
 71
     3
 72
    15
 73
    11
 74
     0
 42
0.000000001
 43
0.00000001
 40
0.0
 40
0.0
 40
0.0
 40
0.0
 40
0.3092032708855812
 40
0.6638381673138529
 40
0.8039859846733648
 40
0.907722223126016
 40
0.9361278440761286
 40
0.9546922578858653
 40
0.9789089327393952
 40
1.0
 40
1.0
 40
1.0
 40
1.0
 10
1598.260728159116
 20
936.8813165244752
 30
0.0
 10
1598.076767821176
 20
937.3690360740129
 30
0.0
 10
1597.681817621434
 20
938.4161364200115
 30
0.0
 10
1597.03228092883
 20
939.6173206500613
 30
0.0
 10
1596.531802940692
 20
940.4734025019608
 30
0.0
 10
1596.309102624948
 20
940.835526189638
 30
0.0
 10
1596.2139372133
 20
940.9848746429574
 30
0.0
 10
1596.184660710211
 20
941.0342296240227
 30
0.0
 10
1596.176029201334
 20
941.0550339199451
 30
0.0
 10
1596.188012391599
 20
941.0449925057467
 30
0.0
 10
1596.193590649532
 20
941.0403181580001
 30
0.0
  0
SPLINE
  5
2E6
330
1F
100
AcDbEntity
  8
0
  6
Continuous
 62
     8
370
    18
100
AcDbSpline
210
0.0
220
0.0
230
1.0
 70
     8
 71
     3
 72
    15
 73
    11
 74
     0
 42
0.000000001
 43
0.00000001
 40
0.0
 40
0.0
 40
0.0
 40
0.0
 40
0.3092032708855812
 40
0.6638381673138529
 40
0.8039859846733648
 40
0.907722223126016
 40
0.9361278440761286
 40
0.9546922578858653
 40
0.9789089327393952
 40
1.0
 40
1.0
 40
1.0
 40
1.0
 10
1529.641774931119
 20
936.8813165244752
 30
0.0
 10
1529.82573526906
 20
937.3690360740129
 30
0.0
 10
1530.220685468801
 20
938.4161364200115
 30
0.0
 10
1530.870222161405
 20
939.6173206500613
 30
0.0
 10
1531.370700149543
 20
940.4734025019608
 30
0.0
 10
1531.593400465287
 20
940.835526189638
 30
0.0
 10
1531.688565876936
 20
940.9848746429574
 30
0.0
 10
1531.717842380024
 20
941.0342296240227
 30
0.0
 10
1531.726473888901
 20
941.0550339199451
 30
0.0
 10
1531.714490698637
 20
941.0449925057467
 30
0.0
 10
1531.708912440703
 20
941.0403181580001
 30
0.0
  0
ARC
  5
2E7
330
1F
100
AcDbEntity
  8
0
  6
Continuous
 62
     8
370
    18
100
AcDbCircle
 10
1529.6471137889
 20
943.2093965807
 30
0.0
 40
2.992643460943714
100
AcDbArc
 50
313.5474970866
 51
331.5458165664
  0
LINE
  5
2E8
330
1F
100
AcDbEntity
  8
0
  6
Continuous
 62
     8
370
    18
100
AcDbLine
 10
1597.8622785594
 20
887.0873280582
 30
0.0
 11
1598.7943722691
 21
888.9772795853
 31
0.0
  0
ARC
  5
2E9
330
1F
100
AcDbEntity
  8
0
  6
Continuous
 62
     8
370
    18
100
AcDbCircle
 10
1597.0648162353
 20
885.5788447501
 30
0.0
 40
1.706302449444193
100
AcDbArc
 50
62.1367528231
 51
86.6223126075
  0
ARC
  5
2EA
330
1F
100
AcDbEntity
  8
0
  6
Continuous
 62
     8
370
    18
100
AcDbCircle
 10
1530.8376868549
 20
885.5788447501
 30
0.0
 40
1.706302449447044
100
AcDbArc
 50
93.3776873925
 51
117.8632471769
  0
LINE
  5
2EB
330
1F
100
AcDbEntity
  8
0
  6
Continuous
 62
     8
370
    18
100
AcDbLine
 10
1530.0402245309
 20
887.0873280582
 30
0.0
 11
1529.1081308212
 21
888.9772795853
 31
0.0
  0
ARC
  5
2EC
330
1F
100
AcDbEntity
  8
0
  6
Continuous
 62
     8
370
    18
100
AcDbCircle
 10
1598.2838477892
 20
938.6255874285
 30
0.0
 40
12.99096455766382
100
AcDbArc
 50
284.3872385356
 51
286.8713573879
  0
ARC
  5
2ED
330
1F
100
AcDbEntity
  8
0
  6
Continuous
 62
     8
370
    18
100
AcDbCircle
 10
1609.6894330297
 20
914.1572091279
 30
0.0
 40
27.43594723614241
100
AcDbArc
 50
246.6024297793
 51
247.6834586167
  0
ARC
  5
2EE
330
1F
100
AcDbEntity
  8
0
  6
Continuous
 62
     8
370
    18
100
AcDbCircle
 10
1529.618655301
 20
938.6255874285
 30
0.0
 40
12.99096455759477
100
AcDbArc
 50
253.1286426121
 51
255.6127614644
  0
ARC
  5
2EF
330
1F
100
AcDbEntity
  8
0
  6
Continuous
 62
     8
370
    18
100
AcDbCircle
 10
1518.2130700594
 20
914.1572091307
 30
0.0
 40
27.43594723916416
100
AcDbArc
 50
292.3165413833
 51
293.3975702206
  0
LINE
  5
2F0
330
1F
100
AcDbEntity
  8
0
  6
Continuous
 62
     8
370
    18
100
AcDbLine
 10
1530.132891127
 20
886.9237952647
 30
0.0
 11
1530.0402245309
 21
887.0873280582
 31
0.0
  0
LINE
  5
2F1
330
1F
100
AcDbEntity
  8
0
  6
Continuous
 62
     8
370
    18
100
AcDbLine
 10
1597.7696119632
 20
886.9237952647
 30
0.0
 11
1597.8622785594
 21
887.0873280582
 31
0.0
  0
ARC
  5
2F2
330
1F
100
AcDbEntity
  8
0
  6
Continuous
 62
     8
370
    18
100
AcDbCircle
 10
1597.235691041
 20
885.9842283179
 30
0.0
 40
1.080674603449828
100
AcDbArc
 50
35.0968652905
 51
60.3920428136
  0
ARC
  5
2F3
330
1F
100
AcDbEntity
  8
0
  6
Continuous
 62
     8
370
    18
100
AcDbCircle
 10
1530.6668120492
 20
885.9842283179
 30
0.0
 40
1.080674603452731
100
AcDbArc
 50
119.6079571864
 51
144.9031347095
  0
ARC
  5
2F4
330
1F
100
AcDbEntity
  8
0
  6
Continuous
 62
     8
370
    18
100
AcDbCircle
 10
1556.5725719119
 20
1057.9481153186
 30
0.0
 40
128.0432432482791
100
AcDbArc
 50
289.0006407195
 51
289.2358448738
  0
ARC
  5
2F5
330
1F
100
AcDbEntity
  8
0
  6
Continuous
 62
     8
370
    18
100
AcDbCircle
 10
1571.3299311631
 20
1057.9481152747
 30
0.0
 40
128.0432432018918
100
AcDbArc
 50
250.7641551262
 51
250.9993592805
  0
ARC
  5
2F6
330
1F
100
AcDbEntity
  8
0
  6
Continuous
 62
     8
370
    18
100
AcDbCircle
 10
1593.0758529503
 20
878.3798472382
 30
0.0
 40
2.994349892955788
100
AcDbArc
 50
114.9375639403
 51
120.8114851065
  0
ARC
  5
2F7
330
1F
100
AcDbEntity
  8
0
  6
Continuous
 62
     8
370
    18
100
AcDbCircle
 10
1534.8266501399
 20
878.3798472381
 30
0.0
 40
2.994349892982691
100
AcDbArc
 50
59.1885148936
 51
65.0624360597
  0
ARC
  5
2F8
330
1F
100
AcDbEntity
  8
0
  6
Continuous
 62
     8
370
    18
100
AcDbCircle
 10
1598.4480042753
 20
943.0307570068
 30
0.0
 40
2.998519644951827
100
AcDbArc
 50
207.1898266334
 51
225.2946088402
  0
ARC
  5
2F9
330
1F
100
AcDbEntity
  8
0
  6
Continuous
 62
     8
370
    18
100
AcDbCircle
 10
1529.4544988149
 20
943.0307570068
 30
0.0
 40
2.998519644946365
100
AcDbArc
 50
314.7053911598
 51
332.8101733666
  0
LWPOLYLINE
  5
2FA
330
1F
100
AcDbEntity
  8
0
  6
Continuous
 62
     8
370
    18
100
AcDbPolyline
 90
        3
 70
   128
 43
0.0
 10
1528.7845260288
 20
887.9191853819
 10
1529.1042229916
 20
887.9285954652
 10
1529.1233523573
 20
887.9281484303
  0
SPLINE
  5
2FB
330
1F
100
AcDbEntity
  8
0
  6
Continuous
 62
     8
370
    18
100
AcDbSpline
210
0.0
220
0.0
230
1.0
 70
     8
 71
     3
 72
    11
 73
     7
 74
     0
 42
0.000000001
 43
0.00000001
 40
0.0
 40
0.0
 40
0.0
 40
0.0
 40
0.2107393883033838
 40
0.4531101901696417
 40
0.7264782593668674
 40
1.0
 40
1.0
 40
1.0
 40
1.0
 10
1525.032901653217
 20
900.67454583618
 30
0.0
 10
1525.20450645713
 20
899.6668571678897
 30
0.0
 10
1525.573473482998
 20
897.5002284811654
 30
0.0
 10
1526.417431287319
 20
894.2325105792279
 30
0.0
 10
1527.500783039234
 20
890.9165945732279
 30
0.0
 10
1528.356531546233
 20
888.9185089274013
 30
0.0
 10
1528.784526028798
 20
887.9191853818589
 30
0.0
  0
LWPOLYLINE
  5
2FC
330
1F
100
AcDbEntity
  8
0
  6
Continuous
 62
     8
370
    18
100
AcDbPolyline
 90
        9
 70
   128
 43
0.0
 10
1528.7845260288
 20
887.9191853819
 10
1526.8371938552
 20
888.4618931231
 10
1525.034361967
 20
889.2239012537
 10
1523.4224325802
 20
890.1855923948
 10
1522.0429054286
 20
891.3222157178
 10
1520.9312788035
 20
892.6045127926
 10
1520.116170385
 20
893.9994812724
 10
1519.6185572829
 20
895.4712130842
 10
1519.4512507703
 20
896.9818257508
  0
SPLINE
  5
2FD
330
1F
100
AcDbEntity
  8
0
  6
Continuous
 62
     8
370
    18
100
AcDbSpline
210
0.0
220
0.0
230
1.0
 70
     8
 71
     3
 72
    10
 73
     6
 74
     0
 42
0.000000001
 43
0.00000001
 40
0.0
 40
0.0
 40
0.0
 40
0.0
 40
0.286361047472925
 40
0.6394429663487944
 40
1.0
 40
1.0
 40
1.0
 40
1.0
 10
1542.861656733917
 20
879.0132679757769
 30
0.0
 10
1541.818246319169
 20
879.0911139641153
 30
0.0
 10
1539.488315427335
 20
879.2649437155452
 30
0.0
 10
1535.935291090881
 20
880.4632879971497
 30
0.0
 10
1533.620679301644
 20
881.9438814625837
 30
0.0
 10
1532.451251038478
 20
882.6919325408631
 30
0.0
  0
SPLINE
  5
2FE
330
1F
100
AcDbEntity
  8
0
  6
Continuous
 62
     8
370
    18
100
AcDbSpline
210
0.0
220
0.0
230
1.0
 70
     8
 71
     3
 72
     9
 73
     5
 74
     0
 42
0.000000001
 43
0.00000001
 40
0.0
 40
0.0
 40
0.0
 40
0.0
 40
0.3490265817610795
 40
1.0
 40
1.0
 40
1.0
 40
1.0
 10
1528.784526028798
 20
887.9191853818589
 30
0.0
 10
1529.149047078519
 20
887.205040685094
 30
0.0
 10
1530.193440453604
 20
885.1589366515226
 30
0.0
 10
1531.561003710487
 20
883.6646641917692
 30
0.0
 10
1532.451251038478
 20
882.6919325408631
 30
0.0
  0
LWPOLYLINE
  5
2FF
330
1F
100
AcDbEntity
  8
0
  6
Continuous
 62
     8
370
    18
100
AcDbPolyline
 90
       10
 70
   128
 43
0.0
 10
1519.4512507703
 20
893.6908186195
 10
1519.6487507607
 20
891.7808809099
 10
1520.2352492894
 20
889.9289794979
 10
1521.1929208423
 20
888.1913774428
 10
1522.4926746275
 20
886.6208770094
 10
1524.0950113918
 20
885.2651842651
 10
1525.951252767
 20
884.1655083713
 10
1528.0049904074
 20
883.3552502808
 10
1530.1938257004
 20
882.8590341625
 10
1532.4512510385
 20
882.6919325409
  0
LINE
  5
300
330
1F
100
AcDbEntity
  8
0
  6
Continuous
 62
     8
370
    18
100
AcDbLine
 10
1532.4512510385
 20
882.6919325409
 30
0.0
 11
1532.4512510385
 21
878.835936707
 31
0.0
  0
SPLINE
  5
301
330
1F
100
AcDbEntity
  8
0
  6
Continuous
 62
     8
370
    18
100
AcDbSpline
210
0.0
220
0.0
230
1.0
 70
     8
 71
     3
 72
    17
 73
    13
 74
     0
 42
0.000000001
 43
0.00000001
 40
0.0
 40
0.0
 40
0.0
 40
0.0
 40
0.2229923319845342
 40
0.5008174790199172
 40
0.6858971997431659
 40
0.8665775038322041
 40
0.9279595401954391
 40
0.9497626658830699
 40
0.9717584023480773
 40
0.9770057142176732
 40
0.9922382859893881
 40
1.0
 40
1.0
 40
1.0
 40
1.0
 10
1593.650210165547
 20
882.2504632887537
 30
0.0
 10
1593.514467258482
 20
882.150047677552
 30
0.0
 10
1593.209602871863
 20
881.9245247063867
 30
0.0
 10
1592.771065169745
 20
881.6456479648457
 30
0.0
 10
1592.354826503039
 20
881.3950221613366
 30
0.0
 10
1592.07424299832
 20
881.2369519336487
 30
0.0
 10
1591.907123473868
 20
881.1461216725363
 30
0.0
 10
1591.849142649808
 20
881.1148088601811
 30
0.0
 10
1591.827322545819
 20
881.1030108527707
 30
0.0
 10
1591.815503130102
 20
881.0965212928988
 30
0.0
 10
1591.811444723106
 20
881.0941961369606
 30
0.0
 10
1591.812864709287
 20
881.0948175066407
 30
0.0
 10
1591.813344025181
 20
881.0950272497828
 30
0.0
  0
SPLINE
  5
302
330
1F
100
AcDbEntity
  8
0
  6
Continuous
 62
     8
370
    18
100
AcDbSpline
210
0.0
220
0.0
230
1.0
 70
     8
 71
     3
 72
    10
 73
     6
 74
     0
 42
0.000000001
 43
0.00000001
 40
0.0
 40
0.0
 40
0.0
 40
0.0
 40
0.340991822325418
 40
0.8366922119440959
 40
1.0
 40
1.0
 40
1.0
 40
1.0
 10
1546.358573698567
 20
889.9878688869172
 30
0.0
 10
1546.903248500949
 20
889.9561235779381
 30
0.0
 10
1548.239717986017
 20
889.878230059532
 30
0.0
 10
1550.456254393676
 20
889.7458000863438
 30
0.0
 10
1552.024553427129
 20
889.6825734255273
 30
0.0
 10
1552.413191163109
 20
889.6669053253823
 30
0.0
  0
LINE
  5
303
330
1F
100
AcDbEntity
  8
0
  6
Continuous
 62
     8
370
    18
100
AcDbLine
 10
1563.9512515451
 20
918.6145902393
 30
0.0
 11
1563.9512515451
 21
910.2002360639
 31
0.0
  0
LINE
  5
304
330
1F
100
AcDbEntity
  8
0
  6
Continuous
 62
     8
370
    18
100
AcDbLine
 10
1563.9512515451
 20
906.3855387983
 30
0.0
 11
1563.9512515451
 21
889.4643836436
 31
0.0
  0
SPLINE
  5
305
330
1F
100
AcDbEntity
  8
0
  6
Continuous
 62
     8
370
    18
100
AcDbSpline
210
0.0
220
0.0
230
1.0
 70
     8
 71
     3
 72
    11
 73
     7
 74
     0
 42
0.000000001
 43
0.00000001
 40
0.0
 40
0.0
 40
0.0
 40
0.0
 40
0.2334467301509386
 40
0.4711194504194422
 40
0.7326079434275521
 40
1.0
 40
1.0
 40
1.0
 40
1.0
 10
1552.413191163109
 20
889.6669053253823
 30
0.0
 10
1553.232586231441
 20
889.6378721043866
 30
0.0
 10
1554.886209539934
 20
889.5792800859393
 30
0.0
 10
1557.680873920156
 20
889.5167301993145
 30
0.0
 10
1560.719263740644
 20
889.472844344134
 30
0.0
 10
1562.865934959846
 20
889.467224786315
 30
0.0
 10
1563.951251545118
 20
889.4643836435969
 30
0.0
  0
SPLINE
  5
306
330
1F
100
AcDbEntity
  8
0
  6
Continuous
 62
     8
370
    18
100
AcDbSpline
210
0.0
220
0.0
230
1.0
 70
     8
 71
     3
 72
    10
 73
     6
 74
     0
 42
0.000000001
 43
0.00000001
 40
0.0
 40
0.0
 40
0.0
 40
0.0
 40
0.3470139802460243
 40
0.8381845535001717
 40
1.0
 40
1.0
 40
1.0
 40
1.0
 10
1581.590450816916
 20
889.9905883488351
 30
0.0
 10
1581.031470706163
 20
889.9580132153998
 30
0.0
 10
1579.681298894024
 20
889.8793305823416
 30
0.0
 10
1577.446401359
 20
889.7458096514267
 30
0.0
 10
1575.877979981093
 20
889.6825753251044
 30
0.0
 10
1575.489311927126
 20
889.6669053253823
 30
0.0
  0
SPLINE
  5
307
330
1F
100
AcDbEntity
  8
0
  6
Continuous
 62
     8
370
    18
100
AcDbSpline
210
0.0
220
0.0
230
1.0
 70
     8
 71
     3
 72
    11
 73
     7
 74
     0
 42
0.000000001
 43
0.00000001
 40
0.0
 40
0.0
 40
0.0
 40
0.0
 40
0.233446730150939
 40
0.4711194504194429
 40
0.7326079434275532
 40
1.0
 40
1.0
 40
1.0
 40
1.0
 10
1575.489311927126
 20
889.6669053253823
 30
0.0
 10
1574.669916858794
 20
889.6378721043866
 30
0.0
 10
1573.016293550302
 20
889.5792800859393
 30
0.0
 10
1570.221629170079
 20
889.5167301993145
 30
0.0
 10
1567.183239349591
 20
889.472844344134
 30
0.0
 10
1565.036568130389
 20
889.467224786315
 30
0.0
 10
1563.951251545118
 20
889.4643836435969
 30
0.0
  0
ARC
  5
308
330
1F
100
AcDbEntity
  8
0
  6
Continuous
 62
     8
370
    18
100
AcDbCircle
 10
1560.2924568564
 20
889.9439786746
 30
0.0
 40
15.19938070060841
100
AcDbArc
 50
335.7934606706
 51
358.9554829106
  0
LINE
  5
309
330
1F
100
AcDbEntity
  8
0
  6
Continuous
 62
     8
370
    18
100
AcDbLine
 10
1563.9512515451
 20
889.4643836436
 30
0.0
 11
1563.9512515451
 21
881.272582036
 31
0.0
  0
ARC
  5
30A
330
1F
100
AcDbEntity
  8
0
  6
Continuous
 62
     8
370
    18
100
AcDbCircle
 10
1567.6100462339
 20
889.9439786746
 30
0.0
 40
15.19938070061729
100
AcDbArc
 50
181.0445170894
 51
204.2065393294
  0
ARC
  5
30B
330
1F
100
AcDbEntity
  8
0
  6
Continuous
 62
     8
370
    18
100
AcDbCircle
 10
1563.9512515451
 20
903.8359378565
 30
0.0
 40
24.98596048980597
100
AcDbArc
 50
0.0
 51
53.1776018598
  0
ARC
  5
30C
330
1F
100
AcDbEntity
  8
0
  6
Continuous
 62
     8
370
    18
100
AcDbCircle
 10
1563.9512515451
 20
903.8359378565
 30
0.0
 40
24.98596048980583
100
AcDbArc
 50
56.6066890123
 51
87.7636412233
  0
ARC
  5
30D
330
1F
100
AcDbEntity
  8
0
  6
Continuous
 62
     8
370
    18
100
AcDbCircle
 10
1563.9512515451
 20
903.8359378565
 30
0.0
 40
24.98596048980592
100
AcDbArc
 50
92.3511066819
 51
123.5098362637
  0
ARC
  5
30E
330
1F
100
AcDbEntity
  8
0
  6
Continuous
 62
     8
370
    18
100
AcDbCircle
 10
1563.9512515451
 20
903.8359378565
 30
0.0
 40
24.98596048980587
100
AcDbArc
 50
126.9657635081
 51
0.0
  0
LINE
  5
30F
330
1F
100
AcDbEntity
  8
0
  6
Continuous
 62
     8
370
    18
100
AcDbLine
 10
1598.9512516941
 20
971.2855384466
 30
0.0
 11
1514.4262513901
 21
971.2855384466
 31
0.0
  0
LINE
  5
310
330
1F
100
AcDbEntity
  8
0
  6
Continuous
 62
     8
370
    18
100
AcDbLine
 10
1514.4262513901
 20
961.2855377388
 30
0.0
 11
1513.4262530889
 21
961.2855377388
 31
0.0
  0
LINE
  5
311
330
1F
100
AcDbEntity
  8
0
  6
Continuous
 62
     8
370
    18
100
AcDbLine
 10
1514.4262513901
 20
993.0855386672
 30
0.0
 11
1513.4262530889
 21
993.0855386672
 31
0.0
  0
LINE
  5
312
330
1F
100
AcDbEntity
  8
0
  6
Continuous
 62
     8
370
    18
100
AcDbLine
 10
1515.4262496914
 20
960.2855380406
 30
0.0
 11
1515.4262496914
 21
959.2855378767
 31
0.0
  0
LINE
  5
313
330
1F
100
AcDbEntity
  8
0
  6
Continuous
 62
     8
370
    18
100
AcDbLine
 10
1619.4262518372
 20
959.2855378767
 30
0.0
 11
1619.4262518372
 21
960.2855380406
 31
0.0
  0
LINE
  5
314
330
1F
100
AcDbEntity
  8
0
  6
Continuous
 62
     7
370
    35
100
AcDbLine
 10
560.5988340554
 20
650.6387358257
 30
0.0
 11
1140.5988173661
 21
650.6387358257
 31
0.0
  0
LINE
  5
315
330
1F
100
AcDbEntity
  8
0
  6
Continuous
 62
     7
370
    35
100
AcDbLine
 10
560.5988340554
 20
651.6387378523
 30
0.0
 11
1140.5988173661
 21
651.6387378523
 31
0.0
  0
LINE
  5
316
330
1F
100
AcDbEntity
  8
0
  6
Continuous
 62
     7
370
    35
100
AcDbLine
 10
1140.5988173661
 20
650.6637362489
 30
0.0
 11
1140.5988173661
 21
650.6387358257
 31
0.0
  0
LINE
  5
317
330
1F
100
AcDbEntity
  8
0
  6
Continuous
 62
     7
370
    35
100
AcDbLine
 10
560.5988340554
 20
650.6637362489
 30
0.0
 11
560.5988340554
 21
650.6387358257
 31
0.0
  0
LINE
  5
318
330
1F
100
AcDbEntity
  8
0
  6
Continuous
 62
     7
370
    35
100
AcDbLine
 10
1140.5988173661
 20
649.6387375245
 30
0.0
 11
1140.5988173661
 21
650.6387358257
 31
0.0
  0
LINE
  5
319
330
1F
100
AcDbEntity
  8
0
  6
Continuous
 62
     7
370
    35
100
AcDbLine
 10
560.5988340554
 20
650.6387358257
 30
0.0
 11
560.5988340554
 21
649.6387375245
 31
0.0
  0
LINE
  5
31A
330
1F
100
AcDbEntity
  8
0
  6
Continuous
 62
     7
370
    35
100
AcDbLine
 10
1140.5988173661
 20
635.1387379417
 30
0.0
 11
1140.5988173661
 21
649.6387375245
 31
0.0
  0
LINE
  5
31B
330
1F
100
AcDbEntity
  8
0
  6
Continuous
 62
     7
370
    35
100
AcDbLine
 10
560.5988340554
 20
649.6387375245
 30
0.0
 11
560.5988340554
 21
635.1387379417
 31
0.0
  0
LINE
  5
31C
330
1F
100
AcDbEntity
  8
0
  6
Continuous
 62
     7
370
    35
100
AcDbLine
 10
1140.5988173661
 20
633.1387376139
 30
0.0
 11
560.5988340554
 21
633.1387376139
 31
0.0
  0
LINE
  5
31D
330
1F
100
AcDbEntity
  8
0
  6
Continuous
 62
     7
370
    35
100
AcDbLine
 10
1140.5988173661
 20
635.1387379417
 30
0.0
 11
1140.5988173661
 21
633.4066865692
 31
0.0
  0
LINE
  5
31E
330
1F
100
AcDbEntity
  8
0
  6
Continuous
 62
     7
370
    35
100
AcDbLine
 10
560.5988340554
 20
633.4066865692
 30
0.0
 11
560.5988340554
 21
635.1387379417
 31
0.0
  0
LINE
  5
31F
330
1F
100
AcDbEntity
  8
0
  6
Continuous
 62
     7
370
    35
100
AcDbLine
 10
1140.5988173661
 20
569.052948589
 30
0.0
 11
1140.5988173661
 21
566.2245219299
 31
0.0
  0
LINE
  5
320
330
1F
100
AcDbEntity
  8
0
  6
Continuous
 62
     7
370
    35
100
AcDbLine
 10
560.5988340554
 20
566.1387359449
 30
0.0
 11
1140.5988173661
 21
566.1387359449
 31
0.0
  0
LINE
  5
321
330
1F
100
AcDbEntity
  8
0
  6
Continuous
 62
     7
370
    35
100
AcDbLine
 10
560.5988340554
 20
566.2245219299
 30
0.0
 11
560.5988340554
 21
569.052948589
 31
0.0
  0
LINE
  5
322
330
1F
100
AcDbEntity
  8
0
  6
Continuous
 62
     7
370
    35
100
AcDbLine
 10
560.5988340554
 20
569.138734574
 30
0.0
 11
1140.5988173661
 21
569.138734574
 31
0.0
  0
LINE
  5
323
330
1F
100
AcDbEntity
  8
0
  6
Continuous
 62
     7
370
    35
100
AcDbLine
 10
1140.5988173661
 20
565.1387376437
 30
0.0
 11
1140.5988173661
 21
566.1387359449
 31
0.0
  0
LINE
  5
324
330
1F
100
AcDbEntity
  8
0
  6
Continuous
 62
     7
370
    35
100
AcDbLine
 10
560.5988340554
 20
566.1387359449
 30
0.0
 11
560.5988340554
 21
565.1387376437
 31
0.0
  0
LINE
  5
325
330
1F
100
AcDbEntity
  8
0
  6
Continuous
 62
     7
370
    35
100
AcDbLine
 10
1140.5988173661
 20
535.6387374648
 30
0.0
 11
560.5988340554
 21
535.6387374648
 31
0.0
  0
LINE
  5
326
330
1F
100
AcDbEntity
  8
0
  6
Continuous
 62
     7
370
    35
100
AcDbLine
 10
560.5988340554
 20
535.6387374648
 30
0.0
 11
560.5988340554
 21
565.1387376437
 31
0.0
  0
LINE
  5
327
330
1F
100
AcDbEntity
  8
0
  6
Continuous
 62
     7
370
    35
100
AcDbLine
 10
1140.5988173661
 20
565.1387376437
 30
0.0
 11
1140.5988173661
 21
535.6387374648
 31
0.0
  0
LINE
  5
328
330
1F
100
AcDbEntity
  8
0
  6
Continuous
 62
     7
370
    35
100
AcDbLine
 10
797.5988263366
 20
630.3937164792
 30
0.0
 11
903.5988250849
 21
630.3937164792
 31
0.0
  0
SPLINE
  5
329
330
1F
100
AcDbEntity
  8
0
  6
Continuous
 62
     7
370
    35
100
AcDbSpline
210
0.0
220
0.0
230
1.0
 70
     8
 71
     3
 72
     8
 73
     4
 74
     0
 42
0.000000001
 43
0.00000001
 40
0.0
 40
0.0
 40
0.0
 40
0.0
 40
1.0
 40
1.0
 40
1.0
 40
1.0
 10
790.8315627388662
 20
630.1954515221488
 30
0.0
 10
793.0848897299755
 20
630.3259393029497
 30
0.0
 10
795.3417071784735
 20
630.3937157919
 30
0.0
 10
797.598825710754
 20
630.3937157919
 30
0.0
  0
SPLINE
  5
32A
330
1F
100
AcDbEntity
  8
0
  6
Continuous
 62
     7
370
    35
100
AcDbSpline
210
0.0
220
0.0
230
1.0
 70
     8
 71
     3
 72
     8
 73
     4
 74
     0
 42
0.000000001
 43
0.00000001
 40
0.0
 40
0.0
 40
0.0
 40
0.0
 40
1.0
 40
1.0
 40
1.0
 40
1.0
 10
903.598825710754
 20
630.3937157919
 30
0.0
 10
905.8559393804995
 20
630.3937157919
 30
0.0
 10
908.1127613852716
 20
630.3259393207092
 30
0.0
 10
910.3660886826417
 20
630.1954515221489
 30
0.0
  0
SPLINE
  5
32B
330
1F
100
AcDbEntity
  8
0
  6
Continuous
 62
     7
370
    35
100
AcDbSpline
210
0.0
220
0.0
230
1.0
 70
     8
 71
     3
 72
     8
 73
     4
 74
     0
 42
0.000000001
 43
0.00000001
 40
0.0
 40
0.0
 40
0.0
 40
0.0
 40
1.0
 40
1.0
 40
1.0
 40
1.0
 10
797.598825710754
 20
571.8837563959855
 30
0.0
 10
795.3417120410085
 20
571.8837563959855
 30
0.0
 10
793.0848900362363
 20
571.9515328671764
 30
0.0
 10
790.8315627388661
 20
572.0820206657366
 30
0.0
  0
LINE
  5
32C
330
1F
100
AcDbEntity
  8
0
  6
Continuous
 62
     7
370
    35
100
AcDbLine
 10
903.5988250849
 20
571.8837557086
 30
0.0
 11
797.5988263366
 21
571.8837557086
 31
0.0
  0
SPLINE
  5
32D
330
1F
100
AcDbEntity
  8
0
  6
Continuous
 62
     7
370
    35
100
AcDbSpline
210
0.0
220
0.0
230
1.0
 70
     8
 71
     3
 72
     8
 73
     4
 74
     0
 42
0.000000001
 43
0.00000001
 40
0.0
 40
0.0
 40
0.0
 40
0.0
 40
1.0
 40
1.0
 40
1.0
 40
1.0
 10
910.3660886826419
 20
572.0820206657366
 30
0.0
 10
908.1127616915325
 20
571.9515328849358
 30
0.0
 10
905.8559442430344
 20
571.8837563959855
 30
0.0
 10
903.598825710754
 20
571.8837563959855
 30
0.0
  0
SPLINE
  5
32E
330
1F
100
AcDbEntity
  8
0
  6
Continuous
 62
     7
370
    35
100
AcDbSpline
210
0.0
220
0.0
230
1.0
 70
     8
 71
     3
 72
    10
 73
     6
 74
     0
 42
0.000000001
 43
0.00000001
 40
0.0
 40
0.0
 40
0.0
 40
0.0
 40
0.5
 40
0.5
 40
1.0
 40
1.0
 40
1.0
 40
1.0
 10
903.598825710754
 20
630.3887360939428
 30
0.0
 10
904.7417858587113
 20
630.3887360939428
 30
0.0
 10
905.8769793364547
 20
630.3724620751143
 30
0.0
 10
908.1325056688256
 20
630.3080276831053
 30
0.0
 10
909.2528416148815
 20
630.2598701057993
 30
0.0
 10
910.3660886826419
 20
630.1954288815062
 30
0.0
  0
SPLINE
  5
32F
330
1F
100
AcDbEntity
  8
0
  6
Continuous
 62
     7
370
    35
100
AcDbSpline
210
0.0
220
0.0
230
1.0
 70
     8
 71
     3
 72
    10
 73
     6
 74
     0
 42
0.000000001
 43
0.00000001
 40
0.0
 40
0.0
 40
0.0
 40
0.0
 40
0.5
 40
0.5
 40
1.0
 40
1.0
 40
1.0
 40
1.0
 10
903.598825710754
 20
628.1387360939427
 30
0.0
 10
904.6275654438427
 20
628.1387360939427
 30
0.0
 10
905.6492449201387
 20
628.0801425569338
 30
0.0
 10
907.6791705027854
 20
627.8481798829183
 30
0.0
 10
908.6874200195514
 20
627.6748231686307
 30
0.0
 10
909.6893623854529
 20
627.4428301291714
 30
0.0
  0
SPLINE
  5
330
330
1F
100
AcDbEntity
  8
0
  6
Continuous
 62
     7
370
    35
100
AcDbSpline
210
0.0
220
0.0
230
1.0
 70
     8
 71
     3
 72
    10
 73
     6
 74
     0
 42
0.000000001
 43
0.00000001
 40
0.0
 40
0.0
 40
0.0
 40
0.0
 40
0.5
 40
0.5
 40
1.0
 40
1.0
 40
1.0
 40
1.0
 10
790.8315627388661
 20
630.1954288815062
 30
0.0
 10
791.9448098066265
 20
630.2598701057993
 30
0.0
 10
793.0651457526823
 20
630.3080276831053
 30
0.0
 10
795.3206720850533
 20
630.3724620751143
 30
0.0
 10
796.4558655627967
 20
630.3887360939428
 30
0.0
 10
797.598825710754
 20
630.3887360939428
 30
0.0
  0
SPLINE
  5
331
330
1F
100
AcDbEntity
  8
0
  6
Continuous
 62
     7
370
    35
100
AcDbSpline
210
0.0
220
0.0
230
1.0
 70
     8
 71
     3
 72
    10
 73
     6
 74
     0
 42
0.000000001
 43
0.00000001
 40
0.0
 40
0.0
 40
0.0
 40
0.0
 40
0.5
 40
0.5
 40
1.0
 40
1.0
 40
1.0
 40
1.0
 10
791.508289036055
 20
627.4428301291713
 30
0.0
 10
792.5102314019566
 20
627.6748231686307
 30
0.0
 10
793.5184809187226
 20
627.8481798829183
 30
0.0
 10
795.5484065013693
 20
628.0801425569338
 30
0.0
 10
796.5700859776651
 20
628.1387360939427
 30
0.0
 10
797.598825710754
 20
628.1387360939427
 30
0.0
  0
SPLINE
  5
332
330
1F
100
AcDbEntity
  8
0
  6
Continuous
 62
     7
370
    35
100
AcDbSpline
210
0.0
220
0.0
230
1.0
 70
     8
 71
     3
 72
    10
 73
     6
 74
     0
 42
0.000000001
 43
0.00000001
 40
0.0
 40
0.0
 40
0.0
 40
0.0
 40
0.5
 40
0.5
 40
1.0
 40
1.0
 40
1.0
 40
1.0
 10
797.598825710754
 20
571.8887360939427
 30
0.0
 10
796.4558655627967
 20
571.8887360939427
 30
0.0
 10
795.3206720850533
 20
571.9050101127712
 30
0.0
 10
793.0651457526822
 20
571.9694445047802
 30
0.0
 10
791.9448098066263
 20
572.0176020820862
 30
0.0
 10
790.831562738866
 20
572.0820433063792
 30
0.0
  0
SPLINE
  5
333
330
1F
100
AcDbEntity
  8
0
  6
Continuous
 62
     7
370
    35
100
AcDbSpline
210
0.0
220
0.0
230
1.0
 70
     8
 71
     3
 72
    10
 73
     6
 74
     0
 42
0.000000001
 43
0.00000001
 40
0.0
 40
0.0
 40
0.0
 40
0.0
 40
0.5
 40
0.5
 40
1.0
 40
1.0
 40
1.0
 40
1.0
 10
797.598825710754
 20
574.1387360939427
 30
0.0
 10
796.5700859776651
 20
574.1387360939427
 30
0.0
 10
795.5484065013693
 20
574.1973296309517
 30
0.0
 10
793.5184809187225
 20
574.4292923049671
 30
0.0
 10
792.5102314019565
 20
574.6026490192547
 30
0.0
 10
791.5082890360549
 20
574.8346420587142
 30
0.0
  0
SPLINE
  5
334
330
1F
100
AcDbEntity
  8
0
  6
Continuous
 62
     7
370
    35
100
AcDbSpline
210
0.0
220
0.0
230
1.0
 70
     8
 71
     3
 72
    10
 73
     6
 74
     0
 42
0.000000001
 43
0.00000001
 40
0.0
 40
0.0
 40
0.0
 40
0.0
 40
0.5
 40
0.5
 40
1.0
 40
1.0
 40
1.0
 40
1.0
 10
910.366088682642
 20
572.0820433063792
 30
0.0
 10
909.2528416148816
 20
572.0176020820862
 30
0.0
 10
908.1325056688258
 20
571.9694445047802
 30
0.0
 10
905.8769793364547
 20
571.9050101127712
 30
0.0
 10
904.7417858587113
 20
571.8887360939427
 30
0.0
 10
903.598825710754
 20
571.8887360939427
 30
0.0
  0
SPLINE
  5
335
330
1F
100
AcDbEntity
  8
0
  6
Continuous
 62
     7
370
    35
100
AcDbSpline
210
0.0
220
0.0
230
1.0
 70
     8
 71
     3
 72
    10
 73
     6
 74
     0
 42
0.000000001
 43
0.00000001
 40
0.0
 40
0.0
 40
0.0
 40
0.0
 40
0.5
 40
0.5
 40
1.0
 40
1.0
 40
1.0
 40
1.0
 10
909.6893623854531
 20
574.8346420587142
 30
0.0
 10
908.6874200195514
 20
574.6026490192548
 30
0.0
 10
907.6791705027855
 20
574.4292923049671
 30
0.0
 10
905.6492449201387
 20
574.1973296309518
 30
0.0
 10
904.6275654438427
 20
574.1387360939427
 30
0.0
 10
903.598825710754
 20
574.1387360939427
 30
0.0
  0
LINE
  5
336
330
1F
100
AcDbEntity
  8
0
  6
Continuous
 62
     7
370
    35
100
AcDbLine
 10
903.5988250849
 20
630.3887357661
 30
0.0
 11
797.5988263366
 21
630.3887357661
 31
0.0
  0
LINE
  5
337
330
1F
100
AcDbEntity
  8
0
  6
Continuous
 62
     7
370
    35
100
AcDbLine
 10
797.5988263366
 20
628.1387367943
 30
0.0
 11
903.5988250849
 21
628.1387367943
 31
0.0
  0
LINE
  5
338
330
1F
100
AcDbEntity
  8
0
  6
Continuous
 62
     7
370
    35
100
AcDbLine
 10
797.5988263366
 20
571.8887364218
 30
0.0
 11
903.5988250849
 21
571.8887364218
 31
0.0
  0
LINE
  5
339
330
1F
100
AcDbEntity
  8
0
  6
Continuous
 62
     7
370
    35
100
AcDbLine
 10
903.5988250849
 20
574.1387353936
 30
0.0
 11
797.5988263366
 21
574.1387353936
 31
0.0
  0
ARC
  5
33A
330
1F
100
AcDbEntity
  8
0
  6
Continuous
 62
     7
370
    35
100
AcDbCircle
 10
903.5988257108
 20
601.1387360939
 30
0.0
 40
27.0000000000001
100
AcDbArc
 50
0.4331051188
 51
76.9632820449
  0
ARC
  5
33B
330
1F
100
AcDbEntity
  8
0
  6
Continuous
 62
     7
370
    35
100
AcDbCircle
 10
797.5988257108
 20
601.1387360939
 30
0.0
 40
27.0000000000001
100
AcDbArc
 50
103.0367179551
 51
179.5668948812
  0
ARC
  5
33C
330
1F
100
AcDbEntity
  8
0
  6
Continuous
 62
     7
370
    35
100
AcDbCircle
 10
797.5988257108
 20
601.1387360939
 30
0.0
 40
27.0000000000001
100
AcDbArc
 50
180.4331051188
 51
256.9632820449
  0
ARC
  5
33D
330
1F
100
AcDbEntity
  8
0
  6
Continuous
 62
     7
370
    35
100
AcDbCircle
 10
903.5988257108
 20
601.1387360939
 30
0.0
 40
27.0000000000001
100
AcDbArc
 50
283.0367179551
 51
359.5668948812
  0
LINE
  5
33E
330
1F
100
AcDbEntity
  8
0
  6
Continuous
 62
     7
370
    35
100
AcDbLine
 10
893.5988271711
 20
606.0719107935
 30
0.0
 11
894.0184252438
 21
608.9382595108
 31
0.0
  0
SPLINE
  5
33F
330
1F
100
AcDbEntity
  8
0
  6
Continuous
 62
     7
370
    35
100
AcDbSpline
210
0.0
220
0.0
230
1.0
 70
     8
 71
     3
 72
    11
 73
     7
 74
     0
 42
0.000000001
 43
0.00000001
 40
0.0
 40
0.0
 40
0.0
 40
0.0
 40
0.2606216833960294
 40
0.4632003976181061
 40
0.6713668256872465
 40
0.9999999999999999
 40
0.9999999999999999
 40
0.9999999999999999
 40
0.9999999999999999
 10
894.018425243835
 20
608.9382595108493
 30
0.0
 10
894.385307206136
 20
609.9399776404183
 30
0.0
 10
895.0373629698863
 20
611.7203215852179
 30
0.0
 10
896.5747258691521
 20
613.975323396326
 30
0.0
 10
898.5894961542108
 20
616.1899543252347
 30
0.0
 10
900.4348235842541
 20
617.3104179272568
 30
0.0
 10
901.5645483610435
 20
617.996375049059
 30
0.0
  0
SPLINE
  5
340
330
1F
100
AcDbEntity
  8
0
  6
Continuous
 62
     7
370
    35
100
AcDbSpline
210
0.0
220
0.0
230
1.0
 70
     8
 71
     3
 72
    16
 73
    12
 74
     0
 42
0.000000001
 43
0.00000001
 40
0.0
 40
0.0
 40
0.0
 40
0.0
 40
0.609364106389936
 40
0.7233746177770897
 40
0.817221155385207
 40
0.8496360657976215
 40
0.8823610523514913
 40
0.9067809249566723
 40
0.9311419978322631
 40
0.970639254737866
 40
1.0
 40
1.0
 40
1.0
 40
1.0
 10
901.5645483610435
 20
617.996375049059
 30
0.0
 10
902.1413848239973
 20
618.2940282146895
 30
0.0
 10
902.8261459570102
 20
618.6473715486014
 30
0.0
 10
903.493381695673
 20
619.1731148443786
 30
0.0
 10
903.6636410465526
 20
619.3582642972333
 30
0.0
 10
903.7319083847765
 20
619.5069234255928
 30
0.0
 10
903.743547243601
 20
619.6005232698302
 30
0.0
 10
903.71902524543
 20
619.6844873398928
 30
0.0
 10
903.6627600872899
 20
619.7626240726242
 30
0.0
 10
903.5796894622564
 20
619.8248233769581
 30
0.0
 10
903.5112678036957
 20
619.8567123672084
 30
0.0
 10
903.4820931134028
 20
619.8703096905394
 30
0.0
  0
SPLINE
  5
341
330
1F
100
AcDbEntity
  8
0
  6
Continuous
 62
     7
370
    35
100
AcDbSpline
210
0.0
220
0.0
230
1.0
 70
     8
 71
     3
 72
    13
 73
     9
 74
     0
 42
0.000000001
 43
0.00000001
 40
0.0
 40
0.0
 40
0.0
 40
0.0
 40
0.1585115211647967
 40
0.3188133074652433
 40
0.4791709016038929
 40
0.6513500774441334
 40
0.8235909939454287
 40
1.0
 40
1.0
 40
1.0
 40
1.0
 10
916.1264361915393
 20
605.4598889039501
 30
0.0
 10
915.8340278551291
 20
606.4703113543172
 30
0.0
 10
915.2459086561188
 20
608.5025681957854
 30
0.0
 10
913.7435961281683
 20
611.3201711563962
 30
0.0
 10
911.8100509985399
 20
613.9613782567634
 30
0.0
 10
909.4148056319984
 20
616.3101189640067
 30
0.0
 10
906.623191325732
 20
618.3657104114304
 30
0.0
 10
904.5374375392624
 20
619.3647952637293
 30
0.0
 10
903.4820931134028
 20
619.8703096905394
 30
0.0
  0
SPLINE
  5
342
330
1F
100
AcDbEntity
  8
0
  6
Continuous
 62
     7
370
    35
100
AcDbSpline
210
0.0
220
0.0
230
1.0
 70
     8
 71
     3
 72
     9
 73
     5
 74
     0
 42
0.000000001
 43
0.00000001
 40
0.0
 40
0.0
 40
0.0
 40
0.0
 40
0.4230848075377874
 40
1.0
 40
1.0
 40
1.0
 40
1.0
 10
916.1264361915393
 20
596.8175832839354
 30
0.0
 10
916.3525566495997
 20
598.0322989493901
 30
0.0
 10
916.8870132267014
 20
600.9033915620602
 30
0.0
 10
916.4046936709018
 20
603.7928921285271
 30
0.0
 10
916.1264361915393
 20
605.4598889039501
 30
0.0
  0
SPLINE
  5
343
330
1F
100
AcDbEntity
  8
0
  6
Continuous
 62
     7
370
    35
100
AcDbSpline
210
0.0
220
0.0
230
1.0
 70
     8
 71
     3
 72
    13
 73
     9
 74
     0
 42
0.000000001
 43
0.00000001
 40
0.0
 40
0.0
 40
0.0
 40
0.0
 40
0.1585115211647967
 40
0.3188133074652433
 40
0.4791709016038929
 40
0.6513500774441334
 40
0.8235909939454287
 40
1.0
 40
1.0
 40
1.0
 40
1.0
 10
916.1264361915393
 20
596.8175832839354
 30
0.0
 10
915.8340278551291
 20
595.8071608335682
 30
0.0
 10
915.2459086561188
 20
593.7749039921
 30
0.0
 10
913.7435961281683
 20
590.9573010314894
 30
0.0
 10
911.8100509985399
 20
588.3160939311222
 30
0.0
 10
909.4148056319984
 20
585.9673532238787
 30
0.0
 10
906.623191325732
 20
583.9117617764551
 30
0.0
 10
904.5374375392624
 20
582.9126769241561
 30
0.0
 10
903.4820931134028
 20
582.407162497346
 30
0.0
  0
SPLINE
  5
344
330
1F
100
AcDbEntity
  8
0
  6
Continuous
 62
     7
370
    35
100
AcDbSpline
210
0.0
220
0.0
230
1.0
 70
     8
 71
     3
 72
    16
 73
    12
 74
     0
 42
0.000000001
 43
0.00000001
 40
0.0
 40
0.0
 40
0.0
 40
0.0
 40
0.609364106389936
 40
0.7233746177770897
 40
0.817221155385207
 40
0.8496360657976215
 40
0.8823610523514913
 40
0.9067809249566723
 40
0.9311419978322631
 40
0.970639254737866
 40
1.0
 40
1.0
 40
1.0
 40
1.0
 10
901.5645483610435
 20
584.2810971388265
 30
0.0
 10
902.1413848239973
 20
583.983443973196
 30
0.0
 10
902.8261459570102
 20
583.630100639284
 30
0.0
 10
903.493381695673
 20
583.1043573435069
 30
0.0
 10
903.6636410465526
 20
582.9192078906523
 30
0.0
 10
903.7319083847765
 20
582.7705487622927
 30
0.0
 10
903.743547243601
 20
582.6769489180552
 30
0.0
 10
903.71902524543
 20
582.5929848479926
 30
0.0
 10
903.6627600872899
 20
582.5148481152613
 30
0.0
 10
903.5796894622564
 20
582.4526488109275
 30
0.0
 10
903.5112678036957
 20
582.4207598206771
 30
0.0
 10
903.4820931134028
 20
582.407162497346
 30
0.0
  0
SPLINE
  5
345
330
1F
100
AcDbEntity
  8
0
  6
Continuous
 62
     7
370
    35
100
AcDbSpline
210
0.0
220
0.0
230
1.0
 70
     8
 71
     3
 72
    11
 73
     7
 74
     0
 42
0.000000001
 43
0.00000001
 40
0.0
 40
0.0
 40
0.0
 40
0.0
 40
0.2606216833960294
 40
0.4632003976181061
 40
0.6713668256872465
 40
0.9999999999999999
 40
0.9999999999999999
 40
0.9999999999999999
 40
0.9999999999999999
 10
894.018425243835
 20
593.3392126770361
 30
0.0
 10
894.385307206136
 20
592.3374945474673
 30
0.0
 10
895.0373629698863
 20
590.5571506026675
 30
0.0
 10
896.5747258691521
 20
588.3021487915596
 30
0.0
 10
898.5894961542108
 20
586.0875178626508
 30
0.0
 10
900.4348235842541
 20
584.9670542606286
 30
0.0
 10
901.5645483610435
 20
584.2810971388265
 30
0.0
  0
LINE
  5
346
330
1F
100
AcDbEntity
  8
0
  6
Continuous
 62
     7
370
    35
100
AcDbLine
 10
893.5988271711
 20
596.2055613944
 30
0.0
 11
894.0184252438
 21
593.339212677
 31
0.0
  0
LINE
  5
347
330
1F
100
AcDbEntity
  8
0
  6
Continuous
 62
     7
370
    35
100
AcDbLine
 10
893.5988271711
 20
596.2055613944
 30
0.0
 11
893.5988271711
 21
606.0719107935
 31
0.0
  0
LINE
  5
348
330
1F
100
AcDbEntity
  8
0
  6
Continuous
 62
     7
370
    35
100
AcDbLine
 10
807.5988242504
 20
596.2055613944
 30
0.0
 11
807.1792261777
 21
593.339212677
 31
0.0
  0
SPLINE
  5
349
330
1F
100
AcDbEntity
  8
0
  6
Continuous
 62
     7
370
    35
100
AcDbSpline
210
0.0
220
0.0
230
1.0
 70
     8
 71
     3
 72
    11
 73
     7
 74
     0
 42
0.000000001
 43
0.00000001
 40
0.0
 40
0.0
 40
0.0
 40
0.0
 40
0.2606216833960294
 40
0.4632003976181061
 40
0.6713668256872465
 40
0.9999999999999999
 40
0.9999999999999999
 40
0.9999999999999999
 40
0.9999999999999999
 10
807.179226177673
 20
593.3392126770361
 30
0.0
 10
806.812344215372
 20
592.3374945474673
 30
0.0
 10
806.1602884516217
 20
590.5571506026675
 30
0.0
 10
804.6229255523558
 20
588.3021487915596
 30
0.0
 10
802.6081552672971
 20
586.0875178626508
 30
0.0
 10
800.7628278372539
 20
584.9670542606286
 30
0.0
 10
799.6331030604645
 20
584.2810971388265
 30
0.0
  0
SPLINE
  5
34A
330
1F
100
AcDbEntity
  8
0
  6
Continuous
 62
     7
370
    35
100
AcDbSpline
210
0.0
220
0.0
230
1.0
 70
     8
 71
     3
 72
    16
 73
    12
 74
     0
 42
0.000000001
 43
0.00000001
 40
0.0
 40
0.0
 40
0.0
 40
0.0
 40
0.609364106389936
 40
0.7233746177770897
 40
0.817221155385207
 40
0.8496360657976215
 40
0.8823610523514913
 40
0.9067809249566723
 40
0.9311419978322631
 40
0.970639254737866
 40
1.0
 40
1.0
 40
1.0
 40
1.0
 10
799.6331030604645
 20
584.2810971388265
 30
0.0
 10
799.0562665975107
 20
583.983443973196
 30
0.0
 10
798.3715054644977
 20
583.630100639284
 30
0.0
 10
797.704269725835
 20
583.1043573435069
 30
0.0
 10
797.5340103749554
 20
582.9192078906523
 30
0.0
 10
797.4657430367314
 20
582.7705487622927
 30
0.0
 10
797.454104177907
 20
582.6769489180552
 30
0.0
 10
797.478626176078
 20
582.5929848479926
 30
0.0
 10
797.534891334218
 20
582.5148481152613
 30
0.0
 10
797.6179619592516
 20
582.4526488109275
 30
0.0
 10
797.6863836178123
 20
582.4207598206771
 30
0.0
 10
797.7155583081051
 20
582.407162497346
 30
0.0
  0
SPLINE
  5
34B
330
1F
100
AcDbEntity
  8
0
  6
Continuous
 62
     7
370
    35
100
AcDbSpline
210
0.0
220
0.0
230
1.0
 70
     8
 71
     3
 72
    13
 73
     9
 74
     0
 42
0.000000001
 43
0.00000001
 40
0.0
 40
0.0
 40
0.0
 40
0.0
 40
0.1585115211647967
 40
0.3188133074652433
 40
0.4791709016038929
 40
0.6513500774441334
 40
0.8235909939454287
 40
1.0
 40
1.0
 40
1.0
 40
1.0
 10
785.0712152299686
 20
596.8175832839354
 30
0.0
 10
785.3636235663788
 20
595.8071608335682
 30
0.0
 10
785.9517427653892
 20
593.7749039921
 30
0.0
 10
787.4540552933397
 20
590.9573010314894
 30
0.0
 10
789.3876004229681
 20
588.3160939311222
 30
0.0
 10
791.7828457895096
 20
585.9673532238787
 30
0.0
 10
794.5744600957759
 20
583.9117617764551
 30
0.0
 10
796.6602138822456
 20
582.9126769241561
 30
0.0
 10
797.7155583081051
 20
582.407162497346
 30
0.0
  0
SPLINE
  5
34C
330
1F
100
AcDbEntity
  8
0
  6
Continuous
 62
     7
370
    35
100
AcDbSpline
210
0.0
220
0.0
230
1.0
 70
     8
 71
     3
 72
     9
 73
     5
 74
     0
 42
0.000000001
 43
0.00000001
 40
0.0
 40
0.0
 40
0.0
 40
0.0
 40
0.4230848075377874
 40
1.0
 40
1.0
 40
1.0
 40
1.0
 10
785.0712152299686
 20
596.8175832839354
 30
0.0
 10
784.8450947719082
 20
598.0322989493901
 30
0.0
 10
784.3106381948066
 20
600.9033915620602
 30
0.0
 10
784.7929577506062
 20
603.7928921285271
 30
0.0
 10
785.0712152299686
 20
605.4598889039501
 30
0.0
  0
SPLINE
  5
34D
330
1F
100
AcDbEntity
  8
0
  6
Continuous
 62
     7
370
    35
100
AcDbSpline
210
0.0
220
0.0
230
1.0
 70
     8
 71
     3
 72
    13
 73
     9
 74
     0
 42
0.000000001
 43
0.00000001
 40
0.0
 40
0.0
 40
0.0
 40
0.0
 40
0.1585115211647967
 40
0.3188133074652433
 40
0.4791709016038929
 40
0.6513500774441334
 40
0.8235909939454287
 40
1.0
 40
1.0
 40
1.0
 40
1.0
 10
785.0712152299686
 20
605.4598889039501
 30
0.0
 10
785.3636235663788
 20
606.4703113543172
 30
0.0
 10
785.9517427653892
 20
608.5025681957854
 30
0.0
 10
787.4540552933397
 20
611.3201711563962
 30
0.0
 10
789.3876004229681
 20
613.9613782567634
 30
0.0
 10
791.7828457895096
 20
616.3101189640067
 30
0.0
 10
794.5744600957759
 20
618.3657104114304
 30
0.0
 10
796.6602138822456
 20
619.3647952637293
 30
0.0
 10
797.7155583081051
 20
619.8703096905394
 30
0.0
  0
SPLINE
  5
34E
330
1F
100
AcDbEntity
  8
0
  6
Continuous
 62
     7
370
    35
100
AcDbSpline
210
0.0
220
0.0
230
1.0
 70
     8
 71
     3
 72
    16
 73
    12
 74
     0
 42
0.000000001
 43
0.00000001
 40
0.0
 40
0.0
 40
0.0
 40
0.0
 40
0.609364106389936
 40
0.7233746177770897
 40
0.817221155385207
 40
0.8496360657976215
 40
0.8823610523514913
 40
0.9067809249566723
 40
0.9311419978322631
 40
0.970639254737866
 40
1.0
 40
1.0
 40
1.0
 40
1.0
 10
799.6331030604645
 20
617.996375049059
 30
0.0
 10
799.0562665975107
 20
618.2940282146895
 30
0.0
 10
798.3715054644977
 20
618.6473715486014
 30
0.0
 10
797.704269725835
 20
619.1731148443786
 30
0.0
 10
797.5340103749554
 20
619.3582642972333
 30
0.0
 10
797.4657430367314
 20
619.5069234255928
 30
0.0
 10
797.454104177907
 20
619.6005232698302
 30
0.0
 10
797.478626176078
 20
619.6844873398928
 30
0.0
 10
797.534891334218
 20
619.7626240726242
 30
0.0
 10
797.6179619592516
 20
619.8248233769581
 30
0.0
 10
797.6863836178123
 20
619.8567123672084
 30
0.0
 10
797.7155583081051
 20
619.8703096905394
 30
0.0
  0
SPLINE
  5
34F
330
1F
100
AcDbEntity
  8
0
  6
Continuous
 62
     7
370
    35
100
AcDbSpline
210
0.0
220
0.0
230
1.0
 70
     8
 71
     3
 72
    11
 73
     7
 74
     0
 42
0.000000001
 43
0.00000001
 40
0.0
 40
0.0
 40
0.0
 40
0.0
 40
0.2606216833960294
 40
0.4632003976181061
 40
0.6713668256872465
 40
0.9999999999999999
 40
0.9999999999999999
 40
0.9999999999999999
 40
0.9999999999999999
 10
807.179226177673
 20
608.9382595108493
 30
0.0
 10
806.812344215372
 20
609.9399776404183
 30
0.0
 10
806.1602884516217
 20
611.7203215852179
 30
0.0
 10
804.6229255523558
 20
613.975323396326
 30
0.0
 10
802.6081552672971
 20
616.1899543252347
 30
0.0
 10
800.7628278372539
 20
617.3104179272568
 30
0.0
 10
799.6331030604645
 20
617.996375049059
 30
0.0
  0
LINE
  5
350
330
1F
100
AcDbEntity
  8
0
  6
Continuous
 62
     7
370
    35
100
AcDbLine
 10
807.5988242504
 20
606.0719107935
 30
0.0
 11
807.1792261777
 21
608.9382595108
 31
0.0
  0
LINE
  5
351
330
1F
100
AcDbEntity
  8
0
  6
Continuous
 62
     7
370
    35
100
AcDbLine
 10
807.5988242504
 20
596.2055613944
 30
0.0
 11
807.5988242504
 21
606.0719107935
 31
0.0
  0
SPLINE
  5
352
330
1F
100
AcDbEntity
  8
0
  6
Continuous
 62
     7
370
    35
100
AcDbSpline
210
0.0
220
0.0
230
1.0
 70
     8
 71
     3
 72
    17
 73
    13
 74
     0
 42
0.000000001
 43
0.00000001
 40
0.0
 40
0.0
 40
0.0
 40
0.0
 40
0.0364925678085271
 40
0.1833587555145034
 40
0.287715591087876
 40
0.3934836838542089
 40
0.4992474837338147
 40
0.6063189768025259
 40
0.7133500346492918
 40
0.8177518478431229
 40
0.9088657797630413
 40
0.9999999999999999
 40
0.9999999999999999
 40
0.9999999999999999
 40
0.9999999999999999
 10
903.5988250849053
 20
622.8800089755698
 30
0.0
 10
904.0136306615709
 20
622.8722040471738
 30
0.0
 10
906.0978422938401
 20
622.8329877890825
 30
0.0
 10
909.3534204265211
 20
622.2448054367406
 30
0.0
 10
913.1540684135413
 20
620.7798756270821
 30
0.0
 10
916.2514970280438
 20
618.9288310913529
 30
0.0
 10
919.0401125939004
 20
616.5920950896475
 30
0.0
 10
921.3937337172739
 20
613.7968124838859
 30
0.0
 10
923.2481676084117
 20
610.6670175233605
 30
0.0
 10
924.4915856945552
 20
607.445567183657
 30
0.0
 10
925.2034375506506
 20
604.2486922951043
 30
0.0
 10
925.2926599121527
 20
602.1754650932642
 30
0.0
 10
925.3372760591312
 20
601.1387360939427
 30
0.0
  0
SPLINE
  5
353
330
1F
100
AcDbEntity
  8
0
  6
Continuous
 62
     7
370
    35
100
AcDbSpline
210
0.0
220
0.0
230
1.0
 70
     8
 71
     3
 72
    17
 73
    13
 74
     0
 42
0.000000001
 43
0.00000001
 40
0.0
 40
0.0
 40
0.0
 40
0.0
 40
0.0364925678085271
 40
0.1833587555145035
 40
0.2877155910878761
 40
0.3934836838542091
 40
0.4992474837338149
 40
0.6063189768025261
 40
0.7133500346492921
 40
0.8177518478431234
 40
0.9088657797630417
 40
1.0
 40
1.0
 40
1.0
 40
1.0
 10
797.5988263366027
 20
622.8800089755698
 30
0.0
 10
797.1840207599371
 20
622.8722040471738
 30
0.0
 10
795.0998091276679
 20
622.8329877890825
 30
0.0
 10
791.8442309949869
 20
622.2448054367406
 30
0.0
 10
788.0435830079667
 20
620.7798756270821
 30
0.0
 10
784.9461543934642
 20
618.9288310913529
 30
0.0
 10
782.1575388276075
 20
616.5920950896475
 30
0.0
 10
779.803917704234
 20
613.7968124838859
 30
0.0
 10
777.9494838130962
 20
610.6670175233605
 30
0.0
 10
776.7060657269528
 20
607.445567183657
 30
0.0
 10
775.9942138708575
 20
604.2486922951043
 30
0.0
 10
775.9049915093553
 20
602.1754650932642
 30
0.0
 10
775.8603753623768
 20
601.1387360939427
 30
0.0
  0
SPLINE
  5
354
330
1F
100
AcDbEntity
  8
0
  6
Continuous
 62
     7
370
    35
100
AcDbSpline
210
0.0
220
0.0
230
1.0
 70
     8
 71
     3
 72
    17
 73
    13
 74
     0
 42
0.000000001
 43
0.00000001
 40
0.0
 40
0.0
 40
0.0
 40
0.0
 40
0.0364925678085271
 40
0.1833587555145034
 40
0.287715591087876
 40
0.393483683854209
 40
0.4992474837338148
 40
0.606318976802526
 40
0.7133500346492919
 40
0.8177518478431232
 40
0.9088657797630415
 40
1.0
 40
1.0
 40
1.0
 40
1.0
 10
797.5988263366028
 20
579.3974632123156
 30
0.0
 10
797.1840207599371
 20
579.4052681407118
 30
0.0
 10
795.0998091276679
 20
579.444484398803
 30
0.0
 10
791.8442309949869
 20
580.0326667511448
 30
0.0
 10
788.0435830079667
 20
581.4975965608035
 30
0.0
 10
784.9461543934642
 20
583.3486410965326
 30
0.0
 10
782.1575388276075
 20
585.6853770982381
 30
0.0
 10
779.803917704234
 20
588.4806597039995
 30
0.0
 10
777.9494838130964
 20
591.6104546645249
 30
0.0
 10
776.7060657269528
 20
594.8319050042286
 30
0.0
 10
775.9942138708575
 20
598.0287798927812
 30
0.0
 10
775.9049915093553
 20
600.1020070946214
 30
0.0
 10
775.8603753623768
 20
601.1387360939427
 30
0.0
  0
SPLINE
  5
355
330
1F
100
AcDbEntity
  8
0
  6
Continuous
 62
     7
370
    35
100
AcDbSpline
210
0.0
220
0.0
230
1.0
 70
     8
 71
     3
 72
    17
 73
    13
 74
     0
 42
0.000000001
 43
0.00000001
 40
0.0
 40
0.0
 40
0.0
 40
0.0
 40
0.0364925678085271
 40
0.1833587555145035
 40
0.2877155910878762
 40
0.3934836838542092
 40
0.499247483733815
 40
0.6063189768025263
 40
0.7133500346492923
 40
0.8177518478431235
 40
0.908865779763042
 40
1.0
 40
1.0
 40
1.0
 40
1.0
 10
903.5988250849051
 20
579.3974632123156
 30
0.0
 10
904.0136306615709
 20
579.4052681407118
 30
0.0
 10
906.0978422938401
 20
579.4444843988031
 30
0.0
 10
909.3534204265211
 20
580.0326667511448
 30
0.0
 10
913.1540684135413
 20
581.4975965608035
 30
0.0
 10
916.2514970280436
 20
583.3486410965326
 30
0.0
 10
919.0401125939004
 20
585.6853770982381
 30
0.0
 10
921.3937337172739
 20
588.4806597039995
 30
0.0
 10
923.2481676084116
 20
591.6104546645249
 30
0.0
 10
924.4915856945552
 20
594.8319050042286
 30
0.0
 10
925.2034375506504
 20
598.0287798927812
 30
0.0
 10
925.2926599121527
 20
600.1020070946214
 30
0.0
 10
925.3372760591312
 20
601.1387360939427
 30
0.0
  0
LINE
  5
356
330
1F
100
AcDbEntity
  8
0
  6
Continuous
 62
     7
370
    35
100
AcDbLine
 10
903.5988250849
 20
622.8800089756
 30
0.0
 11
797.5988263366
 21
622.8800089756
 31
0.0
  0
LINE
  5
357
330
1F
100
AcDbEntity
  8
0
  6
Continuous
 62
     7
370
    35
100
AcDbLine
 10
903.5988250849
 20
579.3974632123
 30
0.0
 11
797.5988263366
 21
579.3974632123
 31
0.0
  0
LINE
  5
358
330
1F
100
AcDbEntity
  8
0
  6
Continuous
 62
     7
370
    35
100
AcDbLine
 10
807.4426563558
 20
607.1387361461
 30
0.0
 11
893.7549950657
 21
607.1387361461
 31
0.0
  0
LINE
  5
359
330
1F
100
AcDbEntity
  8
0
  6
Continuous
 62
     7
370
    35
100
AcDbLine
 10
807.4426563558
 20
595.1387360418
 30
0.0
 11
893.7549950657
 21
595.1387360418
 31
0.0
  0
ARC
  5
35A
330
1F
100
AcDbEntity
  8
0
  6
Continuous
 62
     7
370
    35
100
AcDbCircle
 10
903.5988257108
 20
601.1387360939
 30
0.0
 40
21.75
100
AcDbArc
 50
270.0
 51
90.0
  0
LINE
  5
35B
330
1F
100
AcDbEntity
  8
0
  6
Continuous
 62
     7
370
    35
100
AcDbLine
 10
903.5988250849
 20
622.8887354681
 30
0.0
 11
797.5988263366
 21
622.8887354681
 31
0.0
  0
ARC
  5
35C
330
1F
100
AcDbEntity
  8
0
  6
Continuous
 62
     7
370
    35
100
AcDbCircle
 10
797.5988257108
 20
601.1387360939
 30
0.0
 40
21.75
100
AcDbArc
 50
90.0
 51
270.0
  0
LINE
  5
35D
330
1F
100
AcDbEntity
  8
0
  6
Continuous
 62
     7
370
    35
100
AcDbLine
 10
903.5988250849
 20
579.3887367198
 30
0.0
 11
797.5988263366
 21
579.3887367198
 31
0.0
  0
LINE
  5
35E
330
1F
100
AcDbEntity
  8
0
  6
Continuous
 62
     7
370
    35
100
AcDbLine
 10
1142.5988214192
 20
566.1387359449
 30
0.0
 11
1141.5988342938
 21
566.1387359449
 31
0.0
  0
LINE
  5
35F
330
1F
100
AcDbEntity
  8
0
  6
Continuous
 62
     7
370
    35
100
AcDbLine
 10
1142.5988214192
 20
650.6637362489
 30
0.0
 11
1142.5988214192
 21
566.1387359449
 31
0.0
  0
LINE
  5
360
330
1F
100
AcDbEntity
  8
0
  6
Continuous
 62
     7
370
    35
100
AcDbLine
 10
1141.5988342938
 20
566.1387359449
 30
0.0
 11
1140.5988173661
 21
566.1387359449
 31
0.0
  0
LINE
  5
361
330
1F
100
AcDbEntity
  8
0
  6
Continuous
 62
     7
370
    35
100
AcDbLine
 10
1140.5988173661
 20
566.1387359449
 30
0.0
 11
1140.5988173661
 21
566.2245219299
 31
0.0
  0
LINE
  5
362
330
1F
100
AcDbEntity
  8
0
  6
Continuous
 62
     7
370
    35
100
AcDbLine
 10
1140.5988173661
 20
569.052948589
 30
0.0
 11
1140.5988173661
 21
633.4066865692
 31
0.0
  0
LINE
  5
363
330
1F
100
AcDbEntity
  8
0
  6
Continuous
 62
     7
370
    35
100
AcDbLine
 10
559.5988171277
 20
566.1387359449
 30
0.0
 11
558.5988300023
 21
566.1387359449
 31
0.0
  0
LINE
  5
364
330
1F
100
AcDbEntity
  8
0
  6
Continuous
 62
     7
370
    35
100
AcDbLine
 10
558.5988300023
 20
566.1387359449
 30
0.0
 11
558.5988300023
 21
650.6637362489
 31
0.0
  0
LINE
  5
365
330
1F
100
AcDbEntity
  8
0
  6
Continuous
 62
     7
370
    35
100
AcDbLine
 10
560.5988340554
 20
566.1387359449
 30
0.0
 11
559.5988171277
 21
566.1387359449
 31
0.0
  0
LINE
  5
366
330
1F
100
AcDbEntity
  8
0
  6
Continuous
 62
     7
370
    35
100
AcDbLine
 10
560.5988340554
 20
633.4066865692
 30
0.0
 11
560.5988340554
 21
569.052948589
 31
0.0
  0
LINE
  5
367
330
1F
100
AcDbEntity
  8
0
  6
Continuous
 62
     7
370
    35
100
AcDbLine
 10
560.5988340554
 20
566.2245219299
 30
0.0
 11
560.5988340554
 21
566.1387359449
 31
0.0
  0
LINE
  5
368
330
1F
100
AcDbEntity
  8
0
  6
Continuous
 62
     7
370
    35
100
AcDbLine
 10
560.5988340554
 20
651.6637345502
 30
0.0
 11
560.5988340554
 21
650.6637362489
 31
0.0
  0
LINE
  5
369
330
1F
100
AcDbEntity
  8
0
  6
Continuous
 62
     7
370
    35
100
AcDbLine
 10
560.5988340554
 20
650.6637362489
 30
0.0
 11
538.0988257108
 21
650.6637362489
 31
0.0
  0
LINE
  5
36A
330
1F
100
AcDbEntity
  8
0
  6
Continuous
 62
     7
370
    35
100
AcDbLine
 10
560.5988340554
 20
651.6637345502
 30
0.0
 11
538.0988257108
 21
651.6637345502
 31
0.0
  0
LINE
  5
36B
330
1F
100
AcDbEntity
  8
0
  6
Continuous
 62
     7
370
    35
100
AcDbLine
 10
528.0988352475
 20
650.6637362489
 30
0.0
 11
528.0988352475
 21
651.6637345502
 31
0.0
  0
LINE
  5
36C
330
1F
100
AcDbEntity
  8
0
  6
Continuous
 62
     7
370
    35
100
AcDbLine
 10
528.0988352475
 20
651.6637345502
 30
0.0
 11
538.0988257108
 21
651.6637345502
 31
0.0
  0
LINE
  5
36D
330
1F
100
AcDbEntity
  8
0
  6
Continuous
 62
     7
370
    35
100
AcDbLine
 10
538.0988257108
 20
650.6637362489
 30
0.0
 11
528.0988352475
 21
650.6637362489
 31
0.0
  0
LINE
  5
36E
330
1F
100
AcDbEntity
  8
0
  6
Continuous
 62
     7
370
    35
100
AcDbLine
 10
528.0988352475
 20
650.6637362489
 30
0.0
 11
528.0988352475
 21
649.6637379476
 31
0.0
  0
LINE
  5
36F
330
1F
100
AcDbEntity
  8
0
  6
Continuous
 62
     7
370
    35
100
AcDbLine
 10
558.4988134084
 20
649.6637379476
 30
0.0
 11
558.4988134084
 21
650.6637362489
 31
0.0
  0
LINE
  5
370
330
1F
100
AcDbEntity
  8
0
  6
Continuous
 62
     7
370
    35
100
AcDbLine
 10
560.5988340554
 20
565.1387376437
 30
0.0
 11
560.5988340554
 21
535.6637341628
 31
0.0
  0
LINE
  5
371
330
1F
100
AcDbEntity
  8
0
  6
Continuous
 62
     7
370
    35
100
AcDbLine
 10
560.5988340554
 20
535.6637341628
 30
0.0
 11
538.0988257108
 21
535.6637341628
 31
0.0
  0
ARC
  5
372
330
1F
100
AcDbEntity
  8
0
  6
Continuous
 62
     7
370
    35
100
AcDbCircle
 10
538.0988257108
 20
545.6637360939
 30
0.0
 40
10.0
100
AcDbArc
 50
180.0
 51
270.0
  0
LINE
  5
373
330
1F
100
AcDbEntity
  8
0
  6
Continuous
 62
     7
370
    35
100
AcDbLine
 10
558.4988134084
 20
648.0437358567
 30
0.0
 11
558.4988134084
 21
649.6637379476
 31
0.0
  0
LINE
  5
374
330
1F
100
AcDbEntity
  8
0
  6
Continuous
 62
     7
370
    35
100
AcDbLine
 10
558.5988300023
 20
648.0437358567
 30
0.0
 11
558.4988134084
 21
648.0437358567
 31
0.0
  0
LINE
  5
375
330
1F
100
AcDbEntity
  8
0
  6
Continuous
 62
     7
370
    35
100
AcDbLine
 10
528.0988352475
 20
545.6637358019
 30
0.0
 11
528.0988352475
 21
649.6637379476
 31
0.0
  0
LINE
  5
376
330
1F
100
AcDbEntity
  8
0
  6
Continuous
 62
     7
370
    35
100
AcDbLine
 10
1140.5988173661
 20
651.6637345502
 30
0.0
 11
1140.5988173661
 21
650.6637362489
 31
0.0
  0
LINE
  5
377
330
1F
100
AcDbEntity
  8
0
  6
Continuous
 62
     7
370
    35
100
AcDbLine
 10
1140.5988173661
 20
651.6637345502
 30
0.0
 11
1163.0988257108
 21
651.6637345502
 31
0.0
  0
LINE
  5
378
330
1F
100
AcDbEntity
  8
0
  6
Continuous
 62
     7
370
    35
100
AcDbLine
 10
1140.5988173661
 20
650.6637362489
 30
0.0
 11
1163.0988257108
 21
650.6637362489
 31
0.0
  0
LINE
  5
379
330
1F
100
AcDbEntity
  8
0
  6
Continuous
 62
     7
370
    35
100
AcDbLine
 10
1173.098816174
 20
651.6637345502
 30
0.0
 11
1173.098816174
 21
650.6637362489
 31
0.0
  0
LINE
  5
37A
330
1F
100
AcDbEntity
  8
0
  6
Continuous
 62
     7
370
    35
100
AcDbLine
 10
1163.0988257108
 20
651.6637345502
 30
0.0
 11
1173.098816174
 21
651.6637345502
 31
0.0
  0
LINE
  5
37B
330
1F
100
AcDbEntity
  8
0
  6
Continuous
 62
     7
370
    35
100
AcDbLine
 10
1173.098816174
 20
650.6637362489
 30
0.0
 11
1163.0988257108
 21
650.6637362489
 31
0.0
  0
LINE
  5
37C
330
1F
100
AcDbEntity
  8
0
  6
Continuous
 62
     7
370
    35
100
AcDbLine
 10
1173.098816174
 20
649.6637379476
 30
0.0
 11
1173.098816174
 21
650.6637362489
 31
0.0
  0
LINE
  5
37D
330
1F
100
AcDbEntity
  8
0
  6
Continuous
 62
     7
370
    35
100
AcDbLine
 10
1142.6988380132
 20
649.6637379476
 30
0.0
 11
1142.6988380132
 21
650.6637362489
 31
0.0
  0
LINE
  5
37E
330
1F
100
AcDbEntity
  8
0
  6
Continuous
 62
     7
370
    35
100
AcDbLine
 10
1173.098816174
 20
545.6637358019
 30
0.0
 11
1173.098816174
 21
649.6637379476
 31
0.0
  0
ARC
  5
37F
330
1F
100
AcDbEntity
  8
0
  6
Continuous
 62
     7
370
    35
100
AcDbCircle
 10
1163.0988257108
 20
545.6637360939
 30
0.0
 40
10.0
100
AcDbArc
 50
270.0
 51
0.0
  0
LINE
  5
380
330
1F
100
AcDbEntity
  8
0
  6
Continuous
 62
     7
370
    35
100
AcDbLine
 10
1140.5988173661
 20
535.6637341628
 30
0.0
 11
1163.0988257108
 21
535.6637341628
 31
0.0
  0
LINE
  5
381
330
1F
100
AcDbEntity
  8
0
  6
Continuous
 62
     7
370
    35
100
AcDbLine
 10
1140.5988173661
 20
565.1387376437
 30
0.0
 11
1140.5988173661
 21
535.6637341628
 31
0.0
  0
LINE
  5
382
330
1F
100
AcDbEntity
  8
0
  6
Continuous
 62
     7
370
    35
100
AcDbLine
 10
1142.5988214192
 20
648.0437358567
 30
0.0
 11
1142.6988380132
 21
648.0437358567
 31
0.0
  0
LINE
  5
383
330
1F
100
AcDbEntity
  8
0
  6
Continuous
 62
     7
370
    35
100
AcDbLine
 10
1142.6988380132
 20
649.6637379476
 30
0.0
 11
1142.6988380132
 21
648.0437358567
 31
0.0
  0
LINE
  5
384
330
1F
100
AcDbEntity
  8
0
  6
Continuous
 62
     8
370
    18
100
AcDbLine
 10
560.5988340554
 20
649.6387375245
 30
0.0
 11
1140.5988173661
 21
649.6387375245
 31
0.0
  0
LINE
  5
385
330
1F
100
AcDbEntity
  8
0
  6
Continuous
 62
     8
370
    18
100
AcDbLine
 10
1140.5988173661
 20
635.1387379417
 30
0.0
 11
560.5988340554
 21
635.1387379417
 31
0.0
  0
LINE
  5
386
330
1F
100
AcDbEntity
  8
0
  6
Continuous
 62
     8
370
    18
100
AcDbLine
 10
560.5988340554
 20
565.1387376437
 30
0.0
 11
1140.5988173661
 21
565.1387376437
 31
0.0
  0
LINE
  5
387
330
1F
100
AcDbEntity
  8
0
  6
Continuous
 62
     8
370
    18
100
AcDbLine
 10
560.5988340554
 20
632.1954289177
 30
0.0
 11
1140.5988173661
 21
632.1954289177
 31
0.0
  0
LINE
  5
388
330
1F
100
AcDbEntity
  8
0
  6
Continuous
 62
     8
370
    18
100
AcDbLine
 10
560.5988340554
 20
570.0820432702
 30
0.0
 11
1140.5988173661
 21
570.0820432702
 31
0.0
  0
SPLINE
  5
389
330
1F
100
AcDbEntity
  8
0
  6
Continuous
 62
     8
370
    18
100
AcDbSpline
210
0.0
220
0.0
230
1.0
 70
     8
 71
     3
 72
    14
 73
    10
 74
     0
 42
0.000000001
 43
0.00000001
 40
0.0
 40
0.0
 40
0.0
 40
0.0
 40
0.2500000000000001
 40
0.2500000000000001
 40
0.5000000000000001
 40
0.5000000000000001
 40
0.7500000000000001
 40
0.7500000000000001
 40
1.0
 40
1.0
 40
1.0
 40
1.0
 10
767.5996828089073
 20
601.1954288815061
 30
0.0
 10
767.6249243950506
 20
604.5345923903213
 30
0.0
 10
768.2128003382384
 20
607.8688144600623
 30
0.0
 10
770.4493472393341
 20
614.1617039604663
 30
0.0
 10
772.0975571766364
 20
617.1190742344604
 30
0.0
 10
776.2730870708895
 20
622.331324267536
 30
0.0
 10
778.7995463236358
 20
624.5851296227382
 30
0.0
 10
784.4527708752174
 20
628.1409210219193
 30
0.0
 10
787.5783708718608
 20
629.4421741087208
 30
0.0
 10
790.8315627388662
 20
630.195428881506
 30
0.0
  0
LINE
  5
38A
330
1F
100
AcDbEntity
  8
0
  6
Continuous
 62
     8
370
    18
100
AcDbLine
 10
560.5988340554
 20
601.1954288823
 30
0.0
 11
767.5996856866
 21
601.1954288823
 31
0.0
  0
LINE
  5
38B
330
1F
100
AcDbEntity
  8
0
  6
Continuous
 62
     8
370
    18
100
AcDbLine
 10
933.5979657349
 20
601.1954288823
 30
0.0
 11
1140.5988173661
 21
601.1954288823
 31
0.0
  0
SPLINE
  5
38C
330
1F
100
AcDbEntity
  8
0
  6
Continuous
 62
     8
370
    18
100
AcDbSpline
210
0.0
220
0.0
230
1.0
 70
     8
 71
     3
 72
    14
 73
    10
 74
     0
 42
0.000000001
 43
0.00000001
 40
0.0
 40
0.0
 40
0.0
 40
0.0
 40
0.25
 40
0.25
 40
0.5
 40
0.5
 40
0.75
 40
0.75
 40
1.0
 40
1.0
 40
1.0
 40
1.0
 10
910.3660886826417
 20
630.1954288815062
 30
0.0
 10
913.6192805496472
 20
629.4421741087208
 30
0.0
 10
916.7448805462905
 20
628.1409210219193
 30
0.0
 10
922.3981050978721
 20
624.5851296227382
 30
0.0
 10
924.9245643506185
 20
622.331324267536
 30
0.0
 10
929.1000942448716
 20
617.1190742344604
 30
0.0
 10
930.7483041821739
 20
614.1617039604663
 30
0.0
 10
932.9848510832696
 20
607.8688144600623
 30
0.0
 10
933.5727270264574
 20
604.5345923903213
 30
0.0
 10
933.5979686126005
 20
601.1954288815061
 30
0.0
  0
LINE
  5
38D
330
1F
100
AcDbEntity
  8
0
  6
Continuous
 62
     8
370
    18
100
AcDbLine
 10
560.5988340554
 20
601.0820433056
 30
0.0
 11
767.5996856866
 21
601.0820433056
 31
0.0
  0
SPLINE
  5
38E
330
1F
100
AcDbEntity
  8
0
  6
Continuous
 62
     8
370
    18
100
AcDbSpline
210
0.0
220
0.0
230
1.0
 70
     8
 71
     3
 72
    14
 73
    10
 74
     0
 42
0.000000001
 43
0.00000001
 40
0.0
 40
0.0
 40
0.0
 40
0.0
 40
0.2500000000000002
 40
0.2500000000000002
 40
0.5000000000000003
 40
0.5000000000000003
 40
0.7500000000000002
 40
0.7500000000000002
 40
1.0
 40
1.0
 40
1.0
 40
1.0
 10
790.8315627388661
 20
572.0820433063794
 30
0.0
 10
787.5783708718606
 20
572.8352980791647
 30
0.0
 10
784.4527708752174
 20
574.1365511659661
 30
0.0
 10
778.7995463236358
 20
577.6923425651473
 30
0.0
 10
776.2730870708893
 20
579.9461479203495
 30
0.0
 10
772.0975571766364
 20
585.1583979534252
 30
0.0
 10
770.4493472393341
 20
588.1157682274192
 30
0.0
 10
768.2128003382383
 20
594.4086577278233
 30
0.0
 10
767.6249243950506
 20
597.7428797975642
 30
0.0
 10
767.5996828089073
 20
601.0820433063794
 30
0.0
  0
SPLINE
  5
38F
330
1F
100
AcDbEntity
  8
0
  6
Continuous
 62
     8
370
    18
100
AcDbSpline
210
0.0
220
0.0
230
1.0
 70
     8
 71
     3
 72
    14
 73
    10
 74
     0
 42
0.000000001
 43
0.00000001
 40
0.0
 40
0.0
 40
0.0
 40
0.0
 40
0.25
 40
0.25
 40
0.5
 40
0.5
 40
0.75
 40
0.75
 40
1.0
 40
1.0
 40
1.0
 40
1.0
 10
933.5979686126005
 20
601.0820433063794
 30
0.0
 10
933.5727270264574
 20
597.7428797975642
 30
0.0
 10
932.9848510832696
 20
594.4086577278233
 30
0.0
 10
930.7483041821739
 20
588.1157682274192
 30
0.0
 10
929.1000942448716
 20
585.158397953425
 30
0.0
 10
924.9245643506187
 20
579.9461479203495
 30
0.0
 10
922.3981050978722
 20
577.6923425651473
 30
0.0
 10
916.7448805462905
 20
574.1365511659661
 30
0.0
 10
913.6192805496472
 20
572.8352980791647
 30
0.0
 10
910.3660886826419
 20
572.0820433063794
 30
0.0
  0
LINE
  5
390
330
1F
100
AcDbEntity
  8
0
  6
Continuous
 62
     8
370
    18
100
AcDbLine
 10
933.5979657349
 20
601.0820433056
 30
0.0
 11
1140.5988173661
 21
601.0820433056
 31
0.0
  0
ARC
  5
391
330
1F
100
AcDbEntity
  8
0
  6
Continuous
 62
     8
370
    18
100
AcDbCircle
 10
857.3549238923
 20
641.7687134553
 30
0.0
 40
54.25978549149451
100
AcDbArc
 50
344.6910357969
 51
347.6845427117
  0
LINE
  5
392
330
1F
100
AcDbEntity
  8
0
  6
Continuous
 62
     8
370
    18
100
AcDbLine
 10
903.5988250849
 20
630.3887357661
 30
0.0
 11
903.5988250849
 21
628.1387367943
 31
0.0
  0
LINE
  5
393
330
1F
100
AcDbEntity
  8
0
  6
Continuous
 62
     8
370
    18
100
AcDbLine
 10
903.5988250849
 20
630.3937164792
 30
0.0
 11
903.5988250849
 21
630.3887357661
 31
0.0
  0
LINE
  5
394
330
1F
100
AcDbEntity
  8
0
  6
Continuous
 62
     8
370
    18
100
AcDbLine
 10
797.5988263366
 20
630.3937164792
 30
0.0
 11
797.5988263366
 21
630.3887357661
 31
0.0
  0
LINE
  5
395
330
1F
100
AcDbEntity
  8
0
  6
Continuous
 62
     8
370
    18
100
AcDbLine
 10
797.5988263366
 20
630.3887357661
 30
0.0
 11
797.5988263366
 21
628.1387367943
 31
0.0
  0
ARC
  5
396
330
1F
100
AcDbEntity
  8
0
  6
Continuous
 62
     8
370
    18
100
AcDbCircle
 10
843.8427275292
 20
641.7687134553
 30
0.0
 40
54.25978549149451
100
AcDbArc
 50
192.3154572883
 51
195.3089642031
  0
ARC
  5
397
330
1F
100
AcDbEntity
  8
0
  6
Continuous
 62
     8
370
    18
100
AcDbCircle
 10
843.8427275292
 20
560.5087587326
 30
0.0
 40
54.25978549149451
100
AcDbArc
 50
164.6910357969
 51
167.6845427117
  0
LINE
  5
398
330
1F
100
AcDbEntity
  8
0
  6
Continuous
 62
     8
370
    18
100
AcDbLine
 10
797.5988263366
 20
574.1387353936
 30
0.0
 11
797.5988263366
 21
571.8887364218
 31
0.0
  0
LINE
  5
399
330
1F
100
AcDbEntity
  8
0
  6
Continuous
 62
     8
370
    18
100
AcDbLine
 10
903.5988250849
 20
574.1387353936
 30
0.0
 11
903.5988250849
 21
571.8887364218
 31
0.0
  0
ARC
  5
39A
330
1F
100
AcDbEntity
  8
0
  6
Continuous
 62
     8
370
    18
100
AcDbCircle
 10
857.3549238923
 20
560.5087587326
 30
0.0
 40
54.25978549149451
100
AcDbArc
 50
12.3154572883
 51
15.3089642031
  0
LINE
  5
39B
330
1F
100
AcDbEntity
  8
0
  6
Continuous
 62
     8
370
    18
100
AcDbLine
 10
797.5988263366
 20
571.8837557086
 30
0.0
 11
797.5988263366
 21
571.8887364218
 31
0.0
  0
LINE
  5
39C
330
1F
100
AcDbEntity
  8
0
  6
Continuous
 62
     8
370
    18
100
AcDbLine
 10
903.5988250849
 20
571.8837557086
 30
0.0
 11
903.5988250849
 21
571.8887364218
 31
0.0
  0
ARC
  5
39D
330
1F
100
AcDbEntity
  8
0
  6
Continuous
 62
     8
370
    18
100
AcDbCircle
 10
932.7661303386
 20
615.593335287
 30
0.0
 40
14.42191592563912
100
AcDbArc
 50
261.3676118631
 51
273.3065733933
  0
ARC
  5
39E
330
1F
100
AcDbEntity
  8
0
  6
Continuous
 62
     8
370
    18
100
AcDbCircle
 10
768.4315210829
 20
615.593335287
 30
0.0
 40
14.42191592564182
100
AcDbArc
 50
266.6934266067
 51
278.6323881369
  0
ARC
  5
39F
330
1F
100
AcDbEntity
  8
0
  6
Continuous
 62
     8
370
    18
100
AcDbCircle
 10
768.4315210829
 20
586.6841369009
 30
0.0
 40
14.42191592564182
100
AcDbArc
 50
81.3676118631
 51
93.3065733933
  0
ARC
  5
3A0
330
1F
100
AcDbEntity
  8
0
  6
Continuous
 62
     8
370
    18
100
AcDbCircle
 10
932.7661303386
 20
586.6841369009
 30
0.0
 40
14.42191592563912
100
AcDbArc
 50
86.6934266067
 51
98.632388137
  0
SPLINE
  5
3A1
330
1F
100
AcDbEntity
  8
0
  6
Continuous
 62
     8
370
    18
100
AcDbSpline
210
0.0
220
0.0
230
1.0
 70
     8
 71
     3
 72
     8
 73
     4
 74
     0
 42
0.000000001
 43
0.00000001
 40
0.0
 40
0.0
 40
0.0
 40
0.0
 40
1.0
 40
1.0
 40
1.0
 40
1.0
 10
767.5996828089073
 20
601.0820433063794
 30
0.0
 10
767.5985399950442
 20
601.1198384980883
 30
0.0
 10
767.5985399950442
 20
601.1576336897972
 30
0.0
 10
767.5996828089073
 20
601.1954288815061
 30
0.0
  0
SPLINE
  5
3A2
330
1F
100
AcDbEntity
  8
0
  6
Continuous
 62
     8
370
    18
100
AcDbSpline
210
0.0
220
0.0
230
1.0
 70
     8
 71
     3
 72
     8
 73
     4
 74
     0
 42
0.000000001
 43
0.00000001
 40
0.0
 40
0.0
 40
0.0
 40
0.0
 40
1.0
 40
1.0
 40
1.0
 40
1.0
 10
933.5979686126005
 20
601.1954288815061
 30
0.0
 10
933.5991114264639
 20
601.1576336897972
 30
0.0
 10
933.5991114264639
 20
601.1198384980883
 30
0.0
 10
933.5979686126005
 20
601.0820433063794
 30
0.0
  0
ARC
  5
3A3
330
1F
100
AcDbEntity
  8
0
  6
Continuous
 62
     8
370
    18
100
AcDbCircle
 10
897.5835144204
 20
616.3752403971
 30
0.0
 40
2.052502423955768
100
AcDbArc
 50
11.64668659
 51
44.8014125004
  0
SPLINE
  5
3A4
330
1F
100
AcDbEntity
  8
0
  6
Continuous
 62
     8
370
    18
100
AcDbSpline
210
0.0
220
0.0
230
1.0
 70
     8
 71
     3
 72
     9
 73
     5
 74
     0
 42
0.000000001
 43
0.00000001
 40
0.0
 40
0.0
 40
0.0
 40
0.0
 40
0.1546890932399494
 40
1.0
 40
1.0
 40
1.0
 40
1.0
 10
903.4820931134028
 20
619.8703096905394
 30
0.0
 10
903.2390416183862
 20
619.7976347915118
 30
0.0
 10
901.6678158136054
 20
619.3278221013891
 30
0.0
 10
900.2436973186212
 20
618.5115464423121
 30
0.0
 10
899.0398744222923
 20
617.8215397247716
 30
0.0
  0
SPLINE
  5
3A5
330
1F
100
AcDbEntity
  8
0
  6
Continuous
 62
     8
370
    18
100
AcDbSpline
210
0.0
220
0.0
230
1.0
 70
     8
 71
     3
 72
     9
 73
     5
 74
     0
 42
0.000000001
 43
0.00000001
 40
0.0
 40
0.0
 40
0.0
 40
0.0
 40
0.1546890932399494
 40
1.0
 40
1.0
 40
1.0
 40
1.0
 10
797.7155583081051
 20
619.8703096905394
 30
0.0
 10
797.9586098031217
 20
619.7976347915118
 30
0.0
 10
799.5298356079026
 20
619.3278221013891
 30
0.0
 10
800.9539541028868
 20
618.5115464423121
 30
0.0
 10
802.1577769992157
 20
617.8215397247716
 30
0.0
  0
ARC
  5
3A6
330
1F
100
AcDbEntity
  8
0
  6
Continuous
 62
     8
370
    18
100
AcDbCircle
 10
803.6141370011
 20
616.3752403971
 30
0.0
 40
2.052502423955656
100
AcDbArc
 50
135.1985874996
 51
168.35331341
  0
SPLINE
  5
3A7
330
1F
100
AcDbEntity
  8
0
  6
Continuous
 62
     8
370
    18
100
AcDbSpline
210
0.0
220
0.0
230
1.0
 70
     8
 71
     3
 72
     9
 73
     5
 74
     0
 42
0.000000001
 43
0.00000001
 40
0.0
 40
0.0
 40
0.0
 40
0.0
 40
0.1546890932399494
 40
1.0
 40
1.0
 40
1.0
 40
1.0
 10
903.4820931134028
 20
582.407162497346
 30
0.0
 10
903.2390416183862
 20
582.4798373963738
 30
0.0
 10
901.6678158136054
 20
582.9496500864965
 30
0.0
 10
900.2436973186212
 20
583.7659257455733
 30
0.0
 10
899.0398744222923
 20
584.4559324631139
 30
0.0
  0
ARC
  5
3A8
330
1F
100
AcDbEntity
  8
0
  6
Continuous
 62
     8
370
    18
100
AcDbCircle
 10
897.5835144204
 20
585.9022317908
 30
0.0
 40
2.052502423955768
100
AcDbArc
 50
315.1985874996
 51
348.35331341
  0
ARC
  5
3A9
330
1F
100
AcDbEntity
  8
0
  6
Continuous
 62
     8
370
    18
100
AcDbCircle
 10
803.6141370011
 20
585.9022317908
 30
0.0
 40
2.052502423955656
100
AcDbArc
 50
191.64668659
 51
224.8014125004
  0
SPLINE
  5
3AA
330
1F
100
AcDbEntity
  8
0
  6
Continuous
 62
     8
370
    18
100
AcDbSpline
210
0.0
220
0.0
230
1.0
 70
     8
 71
     3
 72
     9
 73
     5
 74
     0
 42
0.000000001
 43
0.00000001
 40
0.0
 40
0.0
 40
0.0
 40
0.0
 40
0.1546890932399494
 40
1.0
 40
1.0
 40
1.0
 40
1.0
 10
797.7155583081051
 20
582.407162497346
 30
0.0
 10
797.9586098031217
 20
582.4798373963738
 30
0.0
 10
799.5298356079026
 20
582.9496500864965
 30
0.0
 10
800.9539541028868
 20
583.7659257455733
 30
0.0
 10
802.1577769992157
 20
584.4559324631139
 30
0.0
  0
SPLINE
  5
3AB
330
1F
100
AcDbEntity
  8
0
  6
Continuous
 62
     8
370
    18
100
AcDbSpline
210
0.0
220
0.0
230
1.0
 70
     8
 71
     3
 72
    14
 73
    10
 74
     0
 42
0.000000001
 43
0.00000001
 40
0.0
 40
0.0
 40
0.0
 40
0.0
 40
0.111428517666819
 40
0.495878450524899
 40
0.7046557672676621
 40
0.8301764016971556
 40
0.9121021737271335
 40
0.9942801179564417
 40
1.0
 40
1.0
 40
1.0
 40
1.0
 10
899.0398744222923
 20
617.8215397247716
 30
0.0
 10
898.9204839348952
 20
617.7392076144147
 30
0.0
 10
898.3891731794661
 20
617.3728138027845
 30
0.0
 10
897.7148842379956
 20
616.740042114561
 30
0.0
 10
897.2570152257841
 20
615.9490584169126
 30
0.0
 10
897.1725613995957
 20
615.438863472394
 30
0.0
 10
897.2550238189172
 20
615.0945333400277
 30
0.0
 10
897.3747375324101
 20
614.9168396592676
 30
0.0
 10
897.4554422653127
 20
614.8414523358892
 30
0.0
 10
897.4606940624519
 20
614.8365465650006
 30
0.0
  0
SPLINE
  5
3AC
330
1F
100
AcDbEntity
  8
0
  6
Continuous
 62
     8
370
    18
100
AcDbSpline
210
0.0
220
0.0
230
1.0
 70
     8
 71
     3
 72
    14
 73
    10
 74
     0
 42
0.000000001
 43
0.00000001
 40
0.0
 40
0.0
 40
0.0
 40
0.0
 40
0.111428517666819
 40
0.495878450524899
 40
0.7046557672676621
 40
0.8301764016971556
 40
0.9121021737271335
 40
0.9942801179564417
 40
1.0
 40
1.0
 40
1.0
 40
1.0
 10
899.0398744222923
 20
584.4559324631139
 30
0.0
 10
898.9204839348952
 20
584.5382645734709
 30
0.0
 10
898.3891731794661
 20
584.904658385101
 30
0.0
 10
897.7148842379956
 20
585.5374300733246
 30
0.0
 10
897.2570152257841
 20
586.3284137709729
 30
0.0
 10
897.1725613995957
 20
586.8386087154915
 30
0.0
 10
897.2550238189172
 20
587.1829388478578
 30
0.0
 10
897.3747375324101
 20
587.3606325286179
 30
0.0
 10
897.4554422653127
 20
587.4360198519962
 30
0.0
 10
897.4606940624519
 20
587.4409256228848
 30
0.0
  0
ARC
  5
3AD
330
1F
100
AcDbEntity
  8
0
  6
Continuous
 62
     8
370
    18
100
AcDbCircle
 10
896.5988257108
 20
601.1387360939
 30
0.0
 40
20.00000000000008
100
AcDbArc
 50
270.0
 51
347.5224163016
  0
LINE
  5
3AE
330
1F
100
AcDbEntity
  8
0
  6
Continuous
 62
     8
370
    18
100
AcDbLine
 10
896.5988258002
 20
588.4260851616
 30
0.0
 11
896.5988258002
 21
581.138736541
 31
0.0
  0
LINE
  5
3AF
330
1F
100
AcDbEntity
  8
0
  6
Continuous
 62
     8
370
    18
100
AcDbLine
 10
896.5988258002
 20
613.8513870263
 30
0.0
 11
896.5988258002
 21
621.1387356469
 31
0.0
  0
ARC
  5
3B0
330
1F
100
AcDbEntity
  8
0
  6
Continuous
 62
     8
370
    18
100
AcDbCircle
 10
896.5988257108
 20
601.1387360939
 30
0.0
 40
20.00000000000011
100
AcDbArc
 50
12.4775836984
 51
90.0
  0
ARC
  5
3B1
330
1F
100
AcDbEntity
  8
0
  6
Continuous
 62
     8
370
    18
100
AcDbCircle
 10
804.5988257108
 20
601.1387360939
 30
0.0
 40
20.00000000000011
100
AcDbArc
 50
90.0
 51
167.5224163016
  0
LINE
  5
3B2
330
1F
100
AcDbEntity
  8
0
  6
Continuous
 62
     8
370
    18
100
AcDbLine
 10
804.5988256213
 20
613.8513870263
 30
0.0
 11
804.5988256213
 21
621.1387356469
 31
0.0
  0
LINE
  5
3B3
330
1F
100
AcDbEntity
  8
0
  6
Continuous
 62
     8
370
    18
100
AcDbLine
 10
804.5988256213
 20
588.4260851616
 30
0.0
 11
804.5988256213
 21
581.138736541
 31
0.0
  0
ARC
  5
3B4
330
1F
100
AcDbEntity
  8
0
  6
Continuous
 62
     8
370
    18
100
AcDbCircle
 10
804.5988257108
 20
601.1387360939
 30
0.0
 40
20.00000000000008
100
AcDbArc
 50
192.4775836984
 51
270.0
  0
SPLINE
  5
3B5
330
1F
100
AcDbEntity
  8
0
  6
Continuous
 62
     8
370
    18
100
AcDbSpline
210
0.0
220
0.0
230
1.0
 70
     8
 71
     3
 72
    14
 73
    10
 74
     0
 42
0.000000001
 43
0.00000001
 40
0.0
 40
0.0
 40
0.0
 40
0.0
 40
0.111428517666819
 40
0.495878450524899
 40
0.7046557672676621
 40
0.8301764016971556
 40
0.9121021737271335
 40
0.9942801179564417
 40
1.0
 40
1.0
 40
1.0
 40
1.0
 10
802.1577769992157
 20
584.4559324631139
 30
0.0
 10
802.2771674866127
 20
584.5382645734709
 30
0.0
 10
802.8084782420419
 20
584.904658385101
 30
0.0
 10
803.4827671835124
 20
585.5374300733246
 30
0.0
 10
803.9406361957239
 20
586.3284137709729
 30
0.0
 10
804.0250900219123
 20
586.8386087154915
 30
0.0
 10
803.9426276025908
 20
587.1829388478578
 30
0.0
 10
803.8229138890979
 20
587.3606325286179
 30
0.0
 10
803.7422091561953
 20
587.4360198519962
 30
0.0
 10
803.7369573590561
 20
587.4409256228848
 30
0.0
  0
SPLINE
  5
3B6
330
1F
100
AcDbEntity
  8
0
  6
Continuous
 62
     8
370
    18
100
AcDbSpline
210
0.0
220
0.0
230
1.0
 70
     8
 71
     3
 72
    14
 73
    10
 74
     0
 42
0.000000001
 43
0.00000001
 40
0.0
 40
0.0
 40
0.0
 40
0.0
 40
0.111428517666819
 40
0.495878450524899
 40
0.7046557672676621
 40
0.8301764016971556
 40
0.9121021737271335
 40
0.9942801179564417
 40
1.0
 40
1.0
 40
1.0
 40
1.0
 10
802.1577769992157
 20
617.8215397247716
 30
0.0
 10
802.2771674866127
 20
617.7392076144147
 30
0.0
 10
802.8084782420419
 20
617.3728138027845
 30
0.0
 10
803.4827671835124
 20
616.740042114561
 30
0.0
 10
803.9406361957239
 20
615.9490584169126
 30
0.0
 10
804.0250900219123
 20
615.438863472394
 30
0.0
 10
803.9426276025908
 20
615.0945333400277
 30
0.0
 10
803.8229138890979
 20
614.9168396592676
 30
0.0
 10
803.7422091561953
 20
614.8414523358892
 30
0.0
 10
803.7369573590561
 20
614.8365465650006
 30
0.0
  0
SPLINE
  5
3B7
330
1F
100
AcDbEntity
  8
0
  6
Continuous
 62
     8
370
    18
100
AcDbSpline
210
0.0
220
0.0
230
1.0
 70
     8
 71
     3
 72
    18
 73
    14
 74
     0
 42
0.000000001
 43
0.00000001
 40
0.0
 40
0.0
 40
0.0
 40
0.0
 40
0.0000017473176965
 40
0.0364936458578425
 40
0.1834230903232125
 40
0.2877748350048223
 40
0.3935753672554279
 40
0.4993716781640918
 40
0.6064030905104647
 40
0.7134447539726892
 40
0.8178453462610401
 40
0.9089125318866259
 40
1.0
 40
1.0
 40
1.0
 40
1.0
 10
903.5988250849051
 20
622.8844476589604
 30
0.0
 10
903.5988449531202
 20
622.88444765897
 30
0.0
 10
904.013803036225
 20
622.8844478571508
 30
0.0
 10
906.0990054928631
 20
622.8220462075211
 30
0.0
 10
909.356043202373
 20
622.2529906249405
 30
0.0
 10
913.1582405711291
 20
620.7818536190193
 30
0.0
 10
916.2566889169844
 20
618.9309460669036
 30
0.0
 10
919.045713558774
 20
616.5927484112801
 30
0.0
 10
921.3993439604849
 20
613.796565192417
 30
0.0
 10
923.2535559692532
 20
610.6661555191995
 30
0.0
 10
924.4965926668148
 20
607.4442630541163
 30
0.0
 10
925.2079901408798
 20
604.2477290365782
 30
0.0
 10
925.2971378082776
 20
602.1751440006273
 30
0.0
 10
925.341716605167
 20
601.1387360939427
 30
0.0
  0
LINE
  5
3B8
330
1F
100
AcDbEntity
  8
0
  6
Continuous
 62
     8
370
    18
100
AcDbLine
 10
903.5988250849
 20
622.884447659
 30
0.0
 11
903.5988250849
 21
622.8887354681
 31
0.0
  0
LINE
  5
3B9
330
1F
100
AcDbEntity
  8
0
  6
Continuous
 62
     8
370
    18
100
AcDbLine
 10
925.3417166052
 20
601.1387360939
 30
0.0
 11
925.3372760591
 21
601.1387360939
 31
0.0
  0
LINE
  5
3BA
330
1F
100
AcDbEntity
  8
0
  6
Continuous
 62
     8
370
    18
100
AcDbLine
 10
903.5988250849
 20
622.8800089756
 30
0.0
 11
903.5988250849
 21
622.884447659
 31
0.0
  0
SPLINE
  5
3BB
330
1F
100
AcDbEntity
  8
0
  6
Continuous
 62
     8
370
    18
100
AcDbSpline
210
0.0
220
0.0
230
1.0
 70
     8
 71
     3
 72
    18
 73
    14
 74
     0
 42
0.000000001
 43
0.00000001
 40
0.0
 40
0.0
 40
0.0
 40
0.0
 40
0.0000017473176965
 40
0.0364936458578426
 40
0.1834230903232126
 40
0.2877748350048224
 40
0.393575367255428
 40
0.4993716781640921
 40
0.6064030905104649
 40
0.7134447539726896
 40
0.8178453462610404
 40
0.9089125318866264
 40
1.0
 40
1.0
 40
1.0
 40
1.0
 10
797.5988263366028
 20
622.8844476589604
 30
0.0
 10
797.5988064683878
 20
622.88444765897
 30
0.0
 10
797.1838483853795
 20
622.8844478571025
 30
0.0
 10
795.0986459284549
 20
622.822046207616
 30
0.0
 10
791.8416082191868
 20
622.2529906249146
 30
0.0
 10
788.0394108503667
 20
620.7818536190254
 30
0.0
 10
784.9409625045267
 20
618.9309460669019
 30
0.0
 10
782.1519378627331
 20
616.5927484112806
 30
0.0
 10
779.7983074610233
 20
613.7965651924169
 30
0.0
 10
777.9440954522548
 20
610.6661555191995
 30
0.0
 10
776.7010587546932
 20
607.4442630541162
 30
0.0
 10
775.9896612806282
 20
604.2477290365782
 30
0.0
 10
775.9005136132304
 20
602.1751440006273
 30
0.0
 10
775.855934816341
 20
601.1387360939427
 30
0.0
  0
LINE
  5
3BC
330
1F
100
AcDbEntity
  8
0
  6
Continuous
 62
     8
370
    18
100
AcDbLine
 10
797.5988263366
 20
622.884447659
 30
0.0
 11
797.5988263366
 21
622.8887354681
 31
0.0
  0
LINE
  5
3BD
330
1F
100
AcDbEntity
  8
0
  6
Continuous
 62
     8
370
    18
100
AcDbLine
 10
775.8559348163
 20
601.1387360939
 30
0.0
 11
775.8603753624
 21
601.1387360939
 31
0.0
  0
LINE
  5
3BE
330
1F
100
AcDbEntity
  8
0
  6
Continuous
 62
     8
370
    18
100
AcDbLine
 10
797.5988263366
 20
622.8800089756
 30
0.0
 11
797.5988263366
 21
622.884447659
 31
0.0
  0
SPLINE
  5
3BF
330
1F
100
AcDbEntity
  8
0
  6
Continuous
 62
     8
370
    18
100
AcDbSpline
210
0.0
220
0.0
230
1.0
 70
     8
 71
     3
 72
    18
 73
    14
 74
     0
 42
0.000000001
 43
0.00000001
 40
0.0
 40
0.0
 40
0.0
 40
0.0
 40
0.0000017473176965
 40
0.0364936458578425
 40
0.1834230903232124
 40
0.2877748350048221
 40
0.3935753672554277
 40
0.4993716781640916
 40
0.6064030905104645
 40
0.713444753972689
 40
0.8178453462610398
 40
0.9089125318866256
 40
1.0
 40
1.0
 40
1.0
 40
1.0
 10
797.5988263366028
 20
579.393024528925
 30
0.0
 10
797.5988064683878
 20
579.3930245289156
 30
0.0
 10
797.1838483852346
 20
579.3930243307348
 30
0.0
 10
795.0986459287399
 20
579.4554259803645
 30
0.0
 10
791.8416082191092
 20
580.0244815629451
 30
0.0
 10
788.0394108503848
 20
581.4956185688662
 30
0.0
 10
784.9409625045218
 20
583.3465261209819
 30
0.0
 10
782.1519378627345
 20
585.6847237766054
 30
0.0
 10
779.7983074610229
 20
588.4809069954684
 30
0.0
 10
777.9440954522549
 20
591.6113166686861
 30
0.0
 10
776.7010587546932
 20
594.8332091337693
 30
0.0
 10
775.9896612806282
 20
598.0297431513073
 30
0.0
 10
775.9005136132304
 20
600.1023281872583
 30
0.0
 10
775.855934816341
 20
601.1387360939427
 30
0.0
  0
LINE
  5
3C0
330
1F
100
AcDbEntity
  8
0
  6
Continuous
 62
     8
370
    18
100
AcDbLine
 10
797.5988263366
 20
579.3974632123
 30
0.0
 11
797.5988263366
 21
579.3930245289
 31
0.0
  0
LINE
  5
3C1
330
1F
100
AcDbEntity
  8
0
  6
Continuous
 62
     8
370
    18
100
AcDbLine
 10
797.5988263366
 20
579.3930245289
 30
0.0
 11
797.5988263366
 21
579.3887367198
 31
0.0
  0
SPLINE
  5
3C2
330
1F
100
AcDbEntity
  8
0
  6
Continuous
 62
     8
370
    18
100
AcDbSpline
210
0.0
220
0.0
230
1.0
 70
     8
 71
     3
 72
    18
 73
    14
 74
     0
 42
0.000000001
 43
0.00000001
 40
0.0
 40
0.0
 40
0.0
 40
0.0
 40
0.0000017473176965
 40
0.0364936458578425
 40
0.1834230903232125
 40
0.2877748350048223
 40
0.3935753672554279
 40
0.4993716781640918
 40
0.6064030905104647
 40
0.7134447539726892
 40
0.8178453462610401
 40
0.9089125318866259
 40
1.0
 40
1.0
 40
1.0
 40
1.0
 10
903.5988250849051
 20
579.393024528925
 30
0.0
 10
903.5988449531202
 20
579.3930245289156
 30
0.0
 10
904.013803036225
 20
579.3930243307348
 30
0.0
 10
906.0990054928631
 20
579.4554259803645
 30
0.0
 10
909.356043202373
 20
580.0244815629451
 30
0.0
 10
913.1582405711291
 20
581.4956185688662
 30
0.0
 10
916.2566889169844
 20
583.3465261209819
 30
0.0
 10
919.045713558774
 20
585.6847237766054
 30
0.0
 10
921.3993439604849
 20
588.4809069954684
 30
0.0
 10
923.2535559692532
 20
591.6113166686861
 30
0.0
 10
924.4965926668148
 20
594.8332091337693
 30
0.0
 10
925.2079901408798
 20
598.0297431513073
 30
0.0
 10
925.2971378082776
 20
600.1023281872583
 30
0.0
 10
925.341716605167
 20
601.1387360939427
 30
0.0
  0
LINE
  5
3C3
330
1F
100
AcDbEntity
  8
0
  6
Continuous
 62
     8
370
    18
100
AcDbLine
 10
903.5988250849
 20
579.3930245289
 30
0.0
 11
903.5988250849
 21
579.3887367198
 31
0.0
  0
LINE
  5
3C4
330
1F
100
AcDbEntity
  8
0
  6
Continuous
 62
     8
370
    18
100
AcDbLine
 10
903.5988250849
 20
579.3974632123
 30
0.0
 11
903.5988250849
 21
579.3930245289
 31
0.0
  0
LINE
  5
3C5
330
1F
100
AcDbEntity
  8
0
  6
Continuous
 62
     8
370
    18
100
AcDbLine
 10
896.5988258002
 20
581.138736541
 30
0.0
 11
804.5988256213
 21
581.138736541
 31
0.0
  0
LINE
  5
3C6
330
1F
100
AcDbEntity
  8
0
  6
Continuous
 62
     8
370
    18
100
AcDbLine
 10
896.5988258002
 20
621.1387356469
 30
0.0
 11
804.5988256213
 21
621.1387356469
 31
0.0
  0
LINE
  5
3C7
330
1F
100
AcDbEntity
  8
0
  6
Continuous
 62
     8
370
    18
100
AcDbLine
 10
903.5988250849
 20
622.884447659
 30
0.0
 11
797.5988263366
 21
622.884447659
 31
0.0
  0
LINE
  5
3C8
330
1F
100
AcDbEntity
  8
0
  6
Continuous
 62
     8
370
    18
100
AcDbLine
 10
903.5988250849
 20
579.3930245289
 30
0.0
 11
797.5988263366
 21
579.3930245289
 31
0.0
  0
LINE
  5
3C9
330
1F
100
AcDbEntity
  8
0
  6
Continuous
 62
     8
370
    18
100
AcDbLine
 10
903.5988250849
 20
579.3887367198
 30
0.0
 11
903.5988250849
 21
574.8887369135
 31
0.0
  0
LINE
  5
3CA
330
1F
100
AcDbEntity
  8
0
  6
Continuous
 62
     8
370
    18
100
AcDbLine
 10
903.5988250849
 20
622.8887354681
 30
0.0
 11
903.5988250849
 21
627.3887352744
 31
0.0
  0
ARC
  5
3CB
330
1F
100
AcDbEntity
  8
0
  6
Continuous
 62
     8
370
    18
100
AcDbCircle
 10
903.5988257108
 20
601.1387360939
 30
0.0
 40
26.25
100
AcDbArc
 50
270.0
 51
90.0
  0
LINE
  5
3CC
330
1F
100
AcDbEntity
  8
0
  6
Continuous
 62
     8
370
    18
100
AcDbLine
 10
903.5988250849
 20
574.8887369135
 30
0.0
 11
903.5988250849
 21
574.1387353936
 31
0.0
  0
LINE
  5
3CD
330
1F
100
AcDbEntity
  8
0
  6
Continuous
 62
     8
370
    18
100
AcDbLine
 10
903.5988250849
 20
627.3887352744
 30
0.0
 11
903.5988250849
 21
628.1387367943
 31
0.0
  0
LINE
  5
3CE
330
1F
100
AcDbEntity
  8
0
  6
Continuous
 62
     8
370
    18
100
AcDbLine
 10
797.5988263366
 20
622.8887354681
 30
0.0
 11
797.5988263366
 21
627.3887352744
 31
0.0
  0
LINE
  5
3CF
330
1F
100
AcDbEntity
  8
0
  6
Continuous
 62
     8
370
    18
100
AcDbLine
 10
903.5988250849
 20
627.3887352744
 30
0.0
 11
797.5988263366
 21
627.3887352744
 31
0.0
  0
LINE
  5
3D0
330
1F
100
AcDbEntity
  8
0
  6
Continuous
 62
     8
370
    18
100
AcDbLine
 10
797.5988263366
 20
627.3887352744
 30
0.0
 11
797.5988263366
 21
628.1387367943
 31
0.0
  0
LINE
  5
3D1
330
1F
100
AcDbEntity
  8
0
  6
Continuous
 62
     8
370
    18
100
AcDbLine
 10
797.5988263366
 20
579.3887367198
 30
0.0
 11
797.5988263366
 21
574.8887369135
 31
0.0
  0
ARC
  5
3D2
330
1F
100
AcDbEntity
  8
0
  6
Continuous
 62
     8
370
    18
100
AcDbCircle
 10
797.5988257108
 20
601.1387360939
 30
0.0
 40
26.25
100
AcDbArc
 50
90.0
 51
270.0
  0
LINE
  5
3D3
330
1F
100
AcDbEntity
  8
0
  6
Continuous
 62
     8
370
    18
100
AcDbLine
 10
797.5988263366
 20
574.8887369135
 30
0.0
 11
797.5988263366
 21
574.1387353936
 31
0.0
  0
LINE
  5
3D4
330
1F
100
AcDbEntity
  8
0
  6
Continuous
 62
     8
370
    18
100
AcDbLine
 10
903.5988250849
 20
574.8887369135
 30
0.0
 11
797.5988263366
 21
574.8887369135
 31
0.0
  0
CIRCLE
  5
3D5
330
1F
100
AcDbEntity
  8
0
  6
Continuous
 62
     8
370
    18
100
AcDbCircle
 10
850.5988257108
 20
601.1387360939
 30
0.0
 40
3.548336454629748
  0
CIRCLE
  5
3D6
330
1F
100
AcDbEntity
  8
0
  6
Continuous
 62
     8
370
    18
100
AcDbCircle
 10
850.5988257108
 20
601.1387360939
 30
0.0
 40
5.61470943354675
  0
ARC
  5
3D7
330
1F
100
AcDbEntity
  8
0
  6
Continuous
 62
     8
370
    18
100
AcDbCircle
 10
850.5988257108
 20
601.1387360939
 30
0.0
 40
7.463480267439841
100
AcDbArc
 50
306.49444767
 51
53.5055523299
  0
ARC
  5
3D8
330
1F
100
AcDbEntity
  8
0
  6
Continuous
 62
     8
370
    18
100
AcDbCircle
 10
850.5988257108
 20
601.1387360939
 30
0.0
 40
7.463480267439909
100
AcDbArc
 50
126.4944476701
 51
233.50555233
  0
ARC
  5
3D9
330
1F
100
AcDbEntity
  8
0
  6
Continuous
 62
     8
370
    18
100
AcDbCircle
 10
850.5988257108
 20
601.1387360939
 30
0.0
 40
8.284968901367112
100
AcDbArc
 50
313.5974061618
 51
46.4025938382
  0
ARC
  5
3DA
330
1F
100
AcDbEntity
  8
0
  6
Continuous
 62
     8
370
    18
100
AcDbCircle
 10
850.5988257108
 20
601.1387360939
 30
0.0
 40
8.284968901367034
100
AcDbArc
 50
133.5974061618
 51
226.4025938382
  0
LINE
  5
3DB
330
1F
100
AcDbEntity
  8
0
  6
Continuous
 62
     8
370
    18
100
AcDbLine
 10
1141.5988342938
 20
566.1387359449
 30
0.0
 11
1141.5988342938
 21
650.6637362489
 31
0.0
  0
LINE
  5
3DC
330
1F
100
AcDbEntity
  8
0
  6
Continuous
 62
     8
370
    18
100
AcDbLine
 10
559.5988171277
 20
566.1387359449
 30
0.0
 11
559.5988171277
 21
650.6637362489
 31
0.0
  0
LINE
  5
3DD
330
1F
100
AcDbEntity
  8
0
  6
Continuous
 62
     8
370
    18
100
AcDbLine
 10
538.0988257108
 20
651.6637345502
 30
0.0
 11
538.0988257108
 21
650.6637362489
 31
0.0
  0
LINE
  5
3DE
330
1F
100
AcDbEntity
  8
0
  6
Continuous
 62
     8
370
    18
100
AcDbLine
 10
528.0988352475
 20
649.6637379476
 30
0.0
 11
558.4988134084
 21
649.6637379476
 31
0.0
  0
LINE
  5
3DF
330
1F
100
AcDbEntity
  8
0
  6
Continuous
 62
     8
370
    18
100
AcDbLine
 10
1163.0988257108
 20
650.6637362489
 30
0.0
 11
1163.0988257108
 21
651.6637345502
 31
0.0
  0
LINE
  5
3E0
330
1F
100
AcDbEntity
  8
0
  6
Continuous
 62
     8
370
    18
100
AcDbLine
 10
1142.6988380132
 20
649.6637379476
 30
0.0
 11
1173.098816174
 21
649.6637379476
 31
0.0
  0
ENDSEC
  0
SECTION
  2
OBJECTS
  0
DICTIONARY
  5
C
330
0
100
AcDbDictionary
281
     1
  3
ACAD_GROUP
350
D
  3
ACAD_LAYOUT
350
1A
  3
ACAD_MLINESTYLE
350
17
  3
ACAD_PLOTSETTINGS
350
19
  3
ACAD_PLOTSTYLENAME
350
E
  3
ACAD_SCALELIST
350
47
  0
DICTIONARY
  5
D
102
{ACAD_REACTORS
330
C
102
}
330
C
100
AcDbDictionary
281
     1
  0
DICTIONARY
  5
1A
102
{ACAD_REACTORS
330
C
102
}
330
C
100
AcDbDictionary
281
     1
  3
Layout1
350
1E
  3
Layout2
350
26
  3
Model
350
22
  0
DICTIONARY
  5
17
102
{ACAD_REACTORS
330
C
102
}
330
C
100
AcDbDictionary
281
     1
  3
Standard
350
18
  0
DICTIONARY
  5
19
102
{ACAD_REACTORS
330
C
102
}
330
C
100
AcDbDictionary
281
     1
  0
ACDBDICTIONARYWDFLT
  5
E
102
{ACAD_REACTORS
330
C
102
}
330
C
100
AcDbDictionary
281
     1
  3
Normal
350
F
100
AcDbDictionaryWithDefault
340
F
  0
DICTIONARY
  5
47
102
{ACAD_REACTORS
330
C
102
}
330
C
100
AcDbDictionary
281
     1
  3
A0
350
48
  3
A1
350
49
  3
A2
350
4A
  3
A3
350
4B
  3
A4
350
4C
  3
A5
350
4D
  3
A6
350
4E
  3
A7
350
4F
  3
A8
350
50
  3
A9
350
51
  3
B0
350
52
  3
B1
350
53
  3
B2
350
54
  3
B3
350
55
  3
B4
350
56
  3
B5
350
57
  3
B6
350
58
  3
B7
350
59
  3
B8
350
5A
  3
B9
350
5B
  3
C0
350
5C
  3
C1
350
5D
  3
C2
350
5E
  3
C3
350
5F
  3
C4
350
60
  3
C5
350
61
  3
C6
350
62
  3
C7
350
63
  3
C8
350
64
  3
C9
350
65
  3
D0
350
66
  3
D1
350
67
  3
D2
350
68
  0
LAYOUT
  5
1E
102
{ACAD_REACTORS
330
1A
102
}
330
1A
100
AcDbPlotSettings
  1

  2
none_device
  4

  6

 40
0.0
 41
0.0
 42
0.0
 43
0.0
 44
0.0
 45
0.0
 46
0.0
 47
0.0
 48
0.0
 49
0.0
140
0.0
141
0.0
142
1.0
143
1.0
 70
   688
 72
     1
 73
     0
 74
     5
  7

 75
    16
147
1.0
148
0.0
149
0.0
100
AcDbLayout
  1
Layout1
 70
     1
 71
     1
 10
0.0
 20
0.0
 11
420.0
 21
297.0
 12
0.0
 22
0.0
 32
0.0
 14
1.0000000000E+20
 24
1.0000000000E+20
 34
1.0000000000E+20
 15
-1.0000000000E+20
 25
-1.0000000000E+20
 35
-1.0000000000E+20
146
0.0
 13
0.0
 23
0.0
 33
0.0
 16
1.0
 26
0.0
 36
0.0
 17
0.0
 27
1.0
 37
0.0
 76
     0
330
1B
  0
LAYOUT
  5
26
102
{ACAD_REACTORS
330
1A
102
}
330
1A
100
AcDbPlotSettings
  1

  2
none_device
  4

  6

 40
0.0
 41
0.0
 42
0.0
 43
0.0
 44
0.0
 45
0.0
 46
0.0
 47
0.0
 48
0.0
 49
0.0
140
0.0
141
0.0
142
1.0
143
1.0
 70
   688
 72
     1
 73
     0
 74
     5
  7

 75
    16
147
1.0
148
0.0
149
0.0
100
AcDbLayout
  1
Layout2
 70
     1
 71
     2
 10
0.0
 20
0.0
 11
0.0
 21
0.0
 12
0.0
 22
0.0
 32
0.0
 14
0.0
 24
0.0
 34
0.0
 15
0.0
 25
0.0
 35
0.0
146
0.0
 13
0.0
 23
0.0
 33
0.0
 16
1.0
 26
0.0
 36
0.0
 17
0.0
 27
1.0
 37
0.0
 76
     0
330
23
  0
LAYOUT
  5
22
102
{ACAD_REACTORS
330
1A
102
}
330
1A
100
AcDbPlotSettings
  1

  2
none_device
  4
Letter_(8.50_x_11.00_Inches)
  6

 40
6.35
 41
6.35
 42
6.35000508
 43
6.35000508
 44
215.9
 45
279.4
 46
0.0
 47
0.0
 48
0.0
 49
0.0
140
0.0
141
0.0
142
1.0
143
1.0
 70
  1712
 72
     1
 73
     0
 74
     0
  7

 75
     0
147
1.0
148
0.0
149
0.0
100
AcDbLayout
  1
Model
 70
     1
 71
     0
 10
0.0
 20
0.0
 11
2100.0
 21
1485.0
 12
0.0
 22
0.0
 32
0.0
 14
0.0
 24
0.0
 34
0.0
 15
2100.0
 25
1485.0
 35
0.0
146
0.0
 13
0.0
 23
0.0
 33
0.0
 16
1.0
 26
0.0
 36
0.0
 17
0.0
 27
1.0
 37
0.0
 76
     0
330
1F
331
29
  0
MLINESTYLE
  5
18
102
{ACAD_REACTORS
330
17
102
}
330
17
100
AcDbMlineStyle
  2
Standard
 70
     0
  3

 62
   256
 51
90.0
 52
90.0
 71
     2
 49
0.5
 62
   256
  6
BYLAYER
 49
-0.5
 62
   256
  6
BYLAYER
  0
ACDBPLACEHOLDER
  5
F
102
{ACAD_REACTORS
330
E
102
}
330
E
  0
SCALE
  5
48
102
{ACAD_REACTORS
330
47
102
}
330
47
100
AcDbScale
 70
     0
300
1:1
140
1.0
141
1.0
290
     1
  0
SCALE
  5
49
102
{ACAD_REACTORS
330
47
102
}
330
47
100
AcDbScale
 70
     0
300
1:2
140
1.0
141
2.0
290
     0
  0
SCALE
  5
4A
102
{ACAD_REACTORS
330
47
102
}
330
47
100
AcDbScale
 70
     0
300
1:4
140
1.0
141
4.0
290
     0
  0
SCALE
  5
4B
102
{ACAD_REACTORS
330
47
102
}
330
47
100
AcDbScale
 70
     0
300
1:5
140
1.0
141
5.0
290
     0
  0
SCALE
  5
4C
102
{ACAD_REACTORS
330
47
102
}
330
47
100
AcDbScale
 70
     0
300
1:8
140
1.0
141
8.0
290
     0
  0
SCALE
  5
4D
102
{ACAD_REACTORS
330
47
102
}
330
47
100
AcDbScale
 70
     0
300
1:10
140
1.0
141
10.0
290
     0
  0
SCALE
  5
4E
102
{ACAD_REACTORS
330
47
102
}
330
47
100
AcDbScale
 70
     0
300
1:16
140
1.0
141
16.0
290
     0
  0
SCALE
  5
4F
102
{ACAD_REACTORS
330
47
102
}
330
47
100
AcDbScale
 70
     0
300
1:20
140
1.0
141
20.0
290
     0
  0
SCALE
  5
50
102
{ACAD_REACTORS
330
47
102
}
330
47
100
AcDbScale
 70
     0
300
1:30
140
1.0
141
30.0
290
     0
  0
SCALE
  5
51
102
{ACAD_REACTORS
330
47
102
}
330
47
100
AcDbScale
 70
     0
300
1:40
140
1.0
141
40.0
290
     0
  0
SCALE
  5
52
102
{ACAD_REACTORS
330
47
102
}
330
47
100
AcDbScale
 70
     0
300
1:50
140
1.0
141
50.0
290
     0
  0
SCALE
  5
53
102
{ACAD_REACTORS
330
47
102
}
330
47
100
AcDbScale
 70
     0
300
1:100
140
1.0
141
100.0
290
     0
  0
SCALE
  5
54
102
{ACAD_REACTORS
330
47
102
}
330
47
100
AcDbScale
 70
     0
300
2:1
140
2.0
141
1.0
290
     0
  0
SCALE
  5
55
102
{ACAD_REACTORS
330
47
102
}
330
47
100
AcDbScale
 70
     0
300
4:1
140
4.0
141
1.0
290
     0
  0
SCALE
  5
56
102
{ACAD_REACTORS
330
47
102
}
330
47
100
AcDbScale
 70
     0
300
8:1
140
8.0
141
1.0
290
     0
  0
SCALE
  5
57
102
{ACAD_REACTORS
330
47
102
}
330
47
100
AcDbScale
 70
     0
300
10:1
140
10.0
141
1.0
290
     0
  0
SCALE
  5
58
102
{ACAD_REACTORS
330
47
102
}
330
47
100
AcDbScale
 70
     0
300
100:1
140
100.0
141
1.0
290
     0
  0
SCALE
  5
59
102
{ACAD_REACTORS
330
47
102
}
330
47
100
AcDbScale
 70
     0
300
1/128" = 1'-0"
140
0.0078125
141
12.0
290
     0
  0
SCALE
  5
5A
102
{ACAD_REACTORS
330
47
102
}
330
47
100
AcDbScale
 70
     0
300
1/64" = 1'-0"
140
0.015625
141
12.0
290
     0
  0
SCALE
  5
5B
102
{ACAD_REACTORS
330
47
102
}
330
47
100
AcDbScale
 70
     0
300
1/32" = 1'-0"
140
0.03125
141
12.0
290
     0
  0
SCALE
  5
5C
102
{ACAD_REACTORS
330
47
102
}
330
47
100
AcDbScale
 70
     0
300
1/16" = 1'-0"
140
0.0625
141
12.0
290
     0
  0
SCALE
  5
5D
102
{ACAD_REACTORS
330
47
102
}
330
47
100
AcDbScale
 70
     0
300
3/32" = 1'-0"
140
0.09375
141
12.0
290
     0
  0
SCALE
  5
5E
102
{ACAD_REACTORS
330
47
102
}
330
47
100
AcDbScale
 70
     0
300
1/8" = 1'-0"
140
0.125
141
12.0
290
     0
  0
SCALE
  5
5F
102
{ACAD_REACTORS
330
47
102
}
330
47
100
AcDbScale
 70
     0
300
3/16" = 1'-0"
140
0.1875
141
12.0
290
     0
  0
SCALE
  5
60
102
{ACAD_REACTORS
330
47
102
}
330
47
100
AcDbScale
 70
     0
300
1/4" = 1'-0"
140
0.25
141
12.0
290
     0
  0
SCALE
  5
61
102
{ACAD_REACTORS
330
47
102
}
330
47
100
AcDbScale
 70
     0
300
3/8" = 1'-0"
140
0.375
141
12.0
290
     0
  0
SCALE
  5
62
102
{ACAD_REACTORS
330
47
102
}
330
47
100
AcDbScale
 70
     0
300
1/2" = 1'-0"
140
0.5
141
12.0
290
     0
  0
SCALE
  5
63
102
{ACAD_REACTORS
330
47
102
}
330
47
100
AcDbScale
 70
     0
300
3/4" = 1'-0"
140
0.75
141
12.0
290
     0
  0
SCALE
  5
64
102
{ACAD_REACTORS
330
47
102
}
330
47
100
AcDbScale
 70
     0
300
1" = 1'-0"
140
1.0
141
12.0
290
     0
  0
SCALE
  5
65
102
{ACAD_REACTORS
330
47
102
}
330
47
100
AcDbScale
 70
     0
300
1-1/2" = 1'-0"
140
1.5
141
12.0
290
     0
  0
SCALE
  5
66
102
{ACAD_REACTORS
330
47
102
}
330
47
100
AcDbScale
 70
     0
300
3" = 1'-0"
140
3.0
141
12.0
290
     0
  0
SCALE
  5
67
102
{ACAD_REACTORS
330
47
102
}
330
47
100
AcDbScale
 70
     0
300
6" = 1'-0"
140
6.0
141
12.0
290
     0
  0
SCALE
  5
68
102
{ACAD_REACTORS
330
47
102
}
330
47
100
AcDbScale
 70
     0
300
1'-0" = 1'-0"
140
12.0
141
12.0
290
     0
  0
ENDSEC
  0
EOF
