  0
SECTION
  2
HEADER
  9
$ACADVER
  1
AC1015
  9
$ACADMAINTVER
 70
     6
  9
$DWGCODEPAGE
  3
ANSI_1252
  9
$INSBASE
 10
0.0
 20
0.0
 30
0.0
  9
$EXTMIN
 10
0.0
 20
0.0
 30
0.0
  9
$EXTMAX
 10
2100.0
 20
1485.0
 30
0.0
  9
$LIMMIN
 10
0.0
 20
0.0
  9
$LIMMAX
 10
2100.0
 20
1485.0
  9
$ORTHOMODE
 70
     0
  9
$REGENMODE
 70
     1
  9
$FILLMODE
 70
     1
  9
$QTEXTMODE
 70
     0
  9
$MIRRTEXT
 70
     1
  9
$LTSCALE
 40
5.0
  9
$ATTMODE
 70
     1
  9
$TEXTSIZE
 40
12.5
  9
$TRACEWID
 40
1.0
  9
$TEXTSTYLE
  7
Standard
  9
$CLAYER
  8
0
  9
$CELTYPE
  6
ByLayer
  9
$CECOLOR
 62
   256
  9
$CELTSCALE
 40
1.0
  9
$DISPSILH
 70
     0
  9
$DIMSCALE
 40
1.0
  9
$DIMASZ
 40
12.5
  9
$DIMEXO
 40
0.0
  9
$DIMDLI
 40
3.75
  9
$DIMRND
 40
0.0
  9
$DIMDLE
 40
0.0
  9
$DIMEXE
 40
5.0
  9
$DIMTP
 40
0.0
  9
$DIMTM
 40
0.0
  9
$DIMTXT
 40
12.5
  9
$DIMCEN
 40
2.5
  9
$DIMTSZ
 40
0.0
  9
$DIMTOL
 70
     0
  9
$DIMLIM
 70
     0
  9
$DIMTIH
 70
     1
  9
$DIMTOH
 70
     1
  9
$DIMSE1
 70
     0
  9
$DIMSE2
 70
     0
  9
$DIMTAD
 70
     1
  9
$DIMZIN
 70
     0
  9
$DIMBLK
  1

  9
$DIMASO
 70
     1
  9
$DIMSHO
 70
     1
  9
$DIMPOST
  1

  9
$DIMAPOST
  1

  9
$DIMALT
 70
     0
  9
$DIMALTD
 70
     3
  9
$DIMALTF
 40
0.0393700787
  9
$DIMLFAC
 40
1.0
  9
$DIMTOFL
 70
     1
  9
$DIMTVP
 40
0.0
  9
$DIMTIX
 70
     0
  9
$DIMSOXD
 70
     0
  9
$DIMSAH
 70
     0
  9
$DIMBLK1
  1

  9
$DIMBLK2
  1

  9
$DIMSTYLE
  2
ISO-25
  9
$DIMCLRD
 70
     0
  9
$DIMCLRE
 70
     0
  9
$DIMCLRT
 70
     0
  9
$DIMTFAC
 40
1.0
  9
$DIMGAP
 40
7.62
  9
$DIMJUST
 70
     0
  9
$DIMSD1
 70
     0
  9
$DIMSD2
 70
     0
  9
$DIMTOLJ
 70
     0
  9
$DIMTZIN
 70
     0
  9
$DIMALTZ
 70
     0
  9
$DIMALTTZ
 70
     0
  9
$DIMUPT
 70
     0
  9
$DIMDEC
 70
     2
  9
$DIMTDEC
 70
     2
  9
$DIMALTU
 70
     2
  9
$DIMALTTD
 70
     3
  9
$DIMTXSTY
  7
Standard
  9
$DIMAUNIT
 70
     0
  9
$DIMADEC
 70
     2
  9
$DIMALTRND
 40
0.0
  9
$DIMAZIN
 70
     0
  9
$DIMDSEP
 70
    44
  9
$DIMATFIT
 70
     3
  9
$DIMFRAC
 70
     0
  9
$DIMLDRBLK
  1

  9
$DIMLUNIT
 70
     2
  9
$DIMLWD
 70
    -2
  9
$DIMLWE
 70
    -2
  9
$DIMTMOVE
 70
     0
  9
$LUNITS
 70
     2
  9
$LUPREC
 70
     1
  9
$SKETCHINC
 40
1.0
  9
$FILLETRAD
 40
10.0
  9
$AUNITS
 70
     0
  9
$AUPREC
 70
     2
  9
$MENU
  1
.
  9
$ELEVATION
 40
0.0
  9
$PELEVATION
 40
0.0
  9
$THICKNESS
 40
0.0
  9
$LIMCHECK
 70
     0
  9
$CHAMFERA
 40
0.0
  9
$CHAMFERB
 40
0.0
  9
$CHAMFERC
 40
0.0
  9
$CHAMFERD
 40
0.0
  9
$SKPOLY
 70
     0
  9
$TDCREATE
 40
2458906.500837164
  9
$TDUCREATE
 40
2458906.271670497
  9
$TDUPDATE
 40
2458906.500849375
  9
$TDUUPDATE
 40
2458906.271682709
  9
$TDINDWG
 40
0.0000000116
  9
$TDUSRTIMER
 40
0.0000000116
  9
$USRTIMER
 70
     1
  9
$ANGBASE
 50
0.0
  9
$ANGDIR
 70
     0
  9
$PDMODE
 70
     0
  9
$PDSIZE
 40
-1.0
  9
$PLINEWID
 40
0.0
  9
$SPLFRAME
 70
     0
  9
$SPLINETYPE
 70
     6
  9
$SPLINESEGS
 70
     8
  9
$HANDSEED
  5
378
  9
$SURFTAB1
 70
     6
  9
$SURFTAB2
 70
     6
  9
$SURFTYPE
 70
     6
  9
$SURFU
 70
     6
  9
$SURFV
 70
     6
  9
$UCSBASE
  2

  9
$UCSNAME
  2

  9
$UCSORG
 10
0.0
 20
0.0
 30
0.0
  9
$UCSXDIR
 10
1.0
 20
0.0
 30
0.0
  9
$UCSYDIR
 10
0.0
 20
1.0
 30
0.0
  9
$UCSORTHOREF
  2

  9
$UCSORTHOVIEW
 70
     0
  9
$UCSORGTOP
 10
0.0
 20
0.0
 30
0.0
  9
$UCSORGBOTTOM
 10
0.0
 20
0.0
 30
0.0
  9
$UCSORGLEFT
 10
0.0
 20
0.0
 30
0.0
  9
$UCSORGRIGHT
 10
0.0
 20
0.0
 30
0.0
  9
$UCSORGFRONT
 10
0.0
 20
0.0
 30
0.0
  9
$UCSORGBACK
 10
0.0
 20
0.0
 30
0.0
  9
$PUCSBASE
  2

  9
$PUCSNAME
  2

  9
$PUCSORG
 10
0.0
 20
0.0
 30
0.0
  9
$PUCSXDIR
 10
1.0
 20
0.0
 30
0.0
  9
$PUCSYDIR
 10
0.0
 20
1.0
 30
0.0
  9
$PUCSORTHOREF
  2

  9
$PUCSORTHOVIEW
 70
     0
  9
$PUCSORGTOP
 10
0.0
 20
0.0
 30
0.0
  9
$PUCSORGBOTTOM
 10
0.0
 20
0.0
 30
0.0
  9
$PUCSORGLEFT
 10
0.0
 20
0.0
 30
0.0
  9
$PUCSORGRIGHT
 10
0.0
 20
0.0
 30
0.0
  9
$PUCSORGFRONT
 10
0.0
 20
0.0
 30
0.0
  9
$PUCSORGBACK
 10
0.0
 20
0.0
 30
0.0
  9
$USERI1
 70
     0
  9
$USERI2
 70
     0
  9
$USERI3
 70
     0
  9
$USERI4
 70
     0
  9
$USERI5
 70
     0
  9
$USERR1
 40
0.0
  9
$USERR2
 40
0.0
  9
$USERR3
 40
0.0
  9
$USERR4
 40
0.0
  9
$USERR5
 40
0.0
  9
$WORLDVIEW
 70
     1
  9
$SHADEDGE
 70
     3
  9
$SHADEDIF
 70
    70
  9
$TILEMODE
 70
     1
  9
$MAXACTVP
 70
    64
  9
$PINSBASE
 10
0.0
 20
0.0
 30
0.0
  9
$PLIMCHECK
 70
     0
  9
$PEXTMIN
 10
1.0000000000E+20
 20
1.0000000000E+20
 30
1.0000000000E+20
  9
$PEXTMAX
 10
-1.0000000000E+20
 20
-1.0000000000E+20
 30
-1.0000000000E+20
  9
$PLIMMIN
 10
0.0
 20
0.0
  9
$PLIMMAX
 10
420.0
 20
297.0
  9
$UNITMODE
 70
     0
  9
$VISRETAIN
 70
     1
  9
$PLINEGEN
 70
     0
  9
$PSLTSCALE
 70
     1
  9
$TREEDEPTH
 70
  3020
  9
$CMLSTYLE
  2
Standard
  9
$CMLJUST
 70
     0
  9
$CMLSCALE
 40
20.0
  9
$PROXYGRAPHICS
 70
     1
  9
$MEASUREMENT
 70
     1
  9
$CELWEIGHT
370
    -1
  9
$ENDCAPS
280
     0
  9
$JOINSTYLE
280
     0
  9
$LWDISPLAY
290
     1
  9
$INSUNITS
 70
     4
  9
$HYPERLINKBASE
  1

  9
$STYLESHEET
  1

  9
$XEDIT
290
     1
  9
$CEPSNTYPE
380
     0
  9
$PSTYLEMODE
290
     1
  9
$FINGERPRINTGUID
  2
{c4f34305-2f6e-4091-bc34-9a60bde89bdc}
  9
$VERSIONGUID
  2
{FAEB1C32-E019-11D5-929B-00C0DF256EC4}
  9
$EXTNAMES
290
     1
  9
$PSVPSCALE
 40
0.0
  9
$OLESTARTUP
290
     0
  0
ENDSEC
  0
SECTION
  2
CLASSES
  0
CLASS
  1
ACDBDICTIONARYWDFLT
  2
AcDbDictionaryWithDefault
  3
ObjectDBX Classes
 90
        0
280
     0
281
     0
  0
CLASS
  1
VISUALSTYLE
  2
AcDbVisualStyle
  3
ObjectDBX Classes
 90
     4095
280
     0
281
     0
  0
CLASS
  1
MATERIAL
  2
AcDbMaterial
  3
ObjectDBX Classes
 90
     1153
280
     0
281
     0
  0
CLASS
  1
SCALE
  2
AcDbScale
  3
ObjectDBX Classes
 90
     1153
280
     0
281
     0
  0
CLASS
  1
TABLESTYLE
  2
AcDbTableStyle
  3
ObjectDBX Classes
 90
     4095
280
     0
281
     0
  0
CLASS
  1
MLEADERSTYLE
  2
AcDbMLeaderStyle
  3
ACDB_MLEADERSTYLE_CLASS
 90
     4095
280
     0
281
     0
  0
CLASS
  1
SUN
  2
AcDbSun
  3
SCENEOE
 90
     1153
280
     0
281
     0
  0
CLASS
  1
ACDBPLACEHOLDER
  2
AcDbPlaceHolder
  3
ObjectDBX Classes
 90
        0
280
     0
281
     0
  0
CLASS
  1
LAYOUT
  2
AcDbLayout
  3
ObjectDBX Classes
 90
        0
280
     0
281
     0
  0
ENDSEC
  0
SECTION
  2
TABLES
  0
TABLE
  2
VPORT
  5
8
330
0
100
AcDbSymbolTable
 70
     1
  0
VPORT
  5
29
330
8
100
AcDbSymbolTableRecord
100
AcDbViewportTableRecord
  2
*Active
 70
     0
 10
0.0
 20
0.0
 11
1.0
 21
1.0
 12
1050.0
 22
742.5
 13
0.0
 23
0.0
 14
10.0
 24
10.0
 15
10.0
 25
10.0
 16
0.0
 26
0.0
 36
1.0
 17
0.0
 27
0.0
 37
0.0
 40
1485.0
 41
1.4141414141
 42
50.0
 43
0.0
 44
0.0
 50
0.0
 51
0.0
 71
     0
 72
  2000
 73
     1
 74
     3
 75
     0
 76
     0
 77
     0
 78
     0
281
     0
 65
     1
110
0.0
120
0.0
130
0.0
111
1.0
121
0.0
131
0.0
112
0.0
122
1.0
132
0.0
 79
     0
146
0.0
  0
ENDTAB
  0
TABLE
  2
LTYPE
  5
5
330
0
100
AcDbSymbolTable
 70
     6
  0
LTYPE
  5
14
330
5
100
AcDbSymbolTableRecord
100
AcDbLinetypeTableRecord
  2
ByBlock
 70
     0
  3

 72
    65
 73
     0
 40
0.0
  0
LTYPE
  5
15
330
5
100
AcDbSymbolTableRecord
100
AcDbLinetypeTableRecord
  2
ByLayer
 70
     0
  3

 72
    65
 73
     0
 40
0.0
  0
LTYPE
  5
16
330
5
100
AcDbSymbolTableRecord
100
AcDbLinetypeTableRecord
  2
Continuous
 70
     0
  3
Solid line
 72
    65
 73
     0
 40
0.0
  0
LTYPE
  5
6E
330
5
100
AcDbSymbolTableRecord
100
AcDbLinetypeTableRecord
  2
HIDDEN
 70
     0
  3
Hidden __ __ __ __ __ __ __ __ __ __ __ __ __ __
 72
    65
 73
     2
 40
1.905
 49
1.27
 74
     0
 49
-0.635
 74
     0
  0
LTYPE
  5
6F
330
5
100
AcDbSymbolTableRecord
100
AcDbLinetypeTableRecord
  2
PHANTOM
 70
     0
  3
Phantom ______  __  __  ______  __  __  ______
 72
    65
 73
     6
 40
12.7
 49
6.35
 74
     0
 49
-1.27
 74
     0
 49
1.27
 74
     0
 49
-1.27
 74
     0
 49
1.27
 74
     0
 49
-1.27
 74
     0
  0
LTYPE
  5
70
330
5
100
AcDbSymbolTableRecord
100
AcDbLinetypeTableRecord
  2
CENTER
 70
     0
  3
Center ____ _ ____ _ ____ _ ____ _ ____ _ ____
 72
    65
 73
     4
 40
10.16
 49
6.35
 74
     0
 49
-1.27
 74
     0
 49
1.27
 74
     0
 49
-1.27
 74
     0
  0
LTYPE
  5
71
330
5
100
AcDbSymbolTableRecord
100
AcDbLinetypeTableRecord
  2
CENTERX2
 70
     0
  3
Center (2x) ________  __  ________  __  _____
 72
    65
 73
     4
 40
20.32
 49
12.7
 74
     0
 49
-2.54
 74
     0
 49
2.54
 74
     0
 49
-2.54
 74
     0
  0
LTYPE
  5
72
330
5
100
AcDbSymbolTableRecord
100
AcDbLinetypeTableRecord
  2
DOT2
 70
     0
  3
Dot (.5x) ........................................
 72
    65
 73
     2
 40
0.635
 49
0.0
 74
     0
 49
-0.635
 74
     0
  0
ENDTAB
  0
TABLE
  2
LAYER
  5
2
330
0
100
AcDbSymbolTable
 70
    10
  0
LAYER
  5
10
330
2
100
AcDbSymbolTableRecord
100
AcDbLayerTableRecord
  2
0
 70
     0
 62
     7
  6
Continuous
370
    -3
390
F
  0
LAYER
  5
73
330
2
100
AcDbSymbolTableRecord
100
AcDbLayerTableRecord
  2
DIMENSION
 70
     0
 62
     7
  6
Continuous
370
    -3
390
F
  0
LAYER
  5
74
330
2
100
AcDbSymbolTableRecord
100
AcDbLayerTableRecord
  2
NOTES
 70
     0
 62
     7
  6
Continuous
370
    -3
390
F
  0
LAYER
  5
75
330
2
100
AcDbSymbolTableRecord
100
AcDbLayerTableRecord
  2
TABLES
 70
     0
 62
     7
  6
Continuous
370
    -3
390
F
  0
LAYER
  5
76
330
2
100
AcDbSymbolTableRecord
100
AcDbLayerTableRecord
  2
INVISIBLE
 70
     0
 62
    -7
  6
Continuous
290
     0
370
    -3
390
F
  0
LAYER
  5
77
330
2
100
AcDbSymbolTableRecord
100
AcDbLayerTableRecord
  2
WEP
 70
     0
 62
  -150
  6
Continuous
290
     0
370
    -3
390
F
  0
LAYER
  5
78
330
2
100
AcDbSymbolTableRecord
100
AcDbLayerTableRecord
  2
EMP
 70
     0
 62
     1
  6
Continuous
370
    -3
390
F
  0
LAYER
  5
79
330
2
100
AcDbSymbolTableRecord
100
AcDbLayerTableRecord
  2
MARKETING_DRW
 70
     0
 62
    -7
  6
Continuous
290
     0
370
    -3
390
F
  0
LAYER
  5
7A
330
2
100
AcDbSymbolTableRecord
100
AcDbLayerTableRecord
  2
SINGLE_ARTICLE_DRW
 70
     0
 62
    -7
  6
Continuous
290
     0
370
    -3
390
F
  0
LAYER
  5
7B
330
2
100
AcDbSymbolTableRecord
100
AcDbLayerTableRecord
  2
TABLE_DRW
 70
     0
 62
     7
  6
Continuous
370
    -3
390
F
  0
ENDTAB
  0
TABLE
  2
STYLE
  5
3
330
0
100
AcDbSymbolTable
 70
     2
  0
STYLE
  5
11
330
3
100
AcDbSymbolTableRecord
100
AcDbTextStyleTableRecord
  2
Standard
 70
     0
 40
0.0
 41
1.0
 50
0.0
 71
     0
 42
12.5
  3
txt
  4

  0
STYLE
  5
B5
330
3
100
AcDbSymbolTableRecord
100
AcDbTextStyleTableRecord
  2
SLDTEXTSTYLE0
 70
     0
 40
0.0
 41
0.605
 50
0.0
 71
     0
 42
12.5
  3
TXT
  4

  0
ENDTAB
  0
TABLE
  2
VIEW
  5
6
330
0
100
AcDbSymbolTable
 70
     0
  0
ENDTAB
  0
TABLE
  2
UCS
  5
7
330
0
100
AcDbSymbolTable
 70
     0
  0
ENDTAB
  0
TABLE
  2
APPID
  5
9
330
0
100
AcDbSymbolTable
 70
     1
  0
APPID
  5
12
330
9
100
AcDbSymbolTableRecord
100
AcDbRegAppTableRecord
  2
ACAD
 70
     0
  0
ENDTAB
  0
TABLE
  2
DIMSTYLE
  5
A
330
0
100
AcDbSymbolTable
 70
     1
100
AcDbDimStyleTable
  0
DIMSTYLE
105
27
330
A
100
AcDbSymbolTableRecord
100
AcDbDimStyleTableRecord
  2
ISO-25
 70
     0
 41
2.5
 42
0.625
 43
3.75
 44
1.25
 73
     0
 74
     0
 77
     1
 78
     8
140
2.5
141
2.5
143
0.0393700787
147
0.625
171
     3
172
     1
178
     0
271
     2
272
     2
274
     3
278
    44
283
     0
284
     8
340
11
  0
ENDTAB
  0
TABLE
  2
BLOCK_RECORD
  5
1
330
0
100
AcDbSymbolTable
 70
     3
  0
BLOCK_RECORD
  5
1F
330
1
100
AcDbSymbolTableRecord
100
AcDbBlockTableRecord
  2
*Model_Space
340
22
  0
BLOCK_RECORD
  5
1B
330
1
100
AcDbSymbolTableRecord
100
AcDbBlockTableRecord
  2
*Paper_Space
340
1E
  0
BLOCK_RECORD
  5
23
330
1
100
AcDbSymbolTableRecord
100
AcDbBlockTableRecord
  2
*Paper_Space0
340
26
  0
BLOCK_RECORD
  5
C8
330
1
100
AcDbSymbolTableRecord
100
AcDbBlockTableRecord
  2
SW_NOTE_0
340
0
102
{BLKREFS
331
CE
102
}
  0
BLOCK_RECORD
  5
E7
330
1
100
AcDbSymbolTableRecord
100
AcDbBlockTableRecord
  2
SW_NOTE_0_1
340
0
102
{BLKREFS
331
ED
102
}
  0
ENDTAB
  0
ENDSEC
  0
SECTION
  2
BLOCKS
  0
BLOCK
  5
20
330
1F
100
AcDbEntity
  8
0
100
AcDbBlockBegin
  2
*Model_Space
 70
     0
 10
0.0
 20
0.0
 30
0.0
  3
*Model_Space
  1

  0
ENDBLK
  5
21
330
1F
100
AcDbEntity
  8
0
100
AcDbBlockEnd
  0
BLOCK
  5
1C
330
1B
100
AcDbEntity
 67
     1
  8
0
100
AcDbBlockBegin
  2
*Paper_Space
 70
     0
 10
0.0
 20
0.0
 30
0.0
  3
*Paper_Space
  1

  0
ENDBLK
  5
1D
330
1B
100
AcDbEntity
 67
     1
  8
0
100
AcDbBlockEnd
  0
BLOCK
  5
24
330
23
100
AcDbEntity
  8
0
100
AcDbBlockBegin
  2
*Paper_Space0
 70
     0
 10
0.0
 20
0.0
 30
0.0
  3
*Paper_Space0
  1

  0
ENDBLK
  5
25
330
23
100
AcDbEntity
  8
0
100
AcDbBlockEnd
  0
BLOCK
  5
C9
330
C8
100
AcDbEntity
  8
0
100
AcDbBlockBegin
  2
SW_NOTE_0
 70
     0
 10
0.0
 20
0.0
 30
0.0
  3
SW_NOTE_0
  1

  0
MTEXT
  5
CB
330
C8
100
AcDbEntity
  8
SINGLE_ARTICLE_DRW
 62
     0
100
AcDbMText
 10
0.0
 20
11.6016096579
 30
0.0
 40
9.0
 41
0.0
 71
     1
 72
     1
  1
The reproduction, distribution and utilization of this document as well as the communication of its contents to
  7
SLDTEXTSTYLE0
 73
     1
 44
1.0
  0
MTEXT
  5
CC
330
C8
100
AcDbEntity
  8
SINGLE_ARTICLE_DRW
 62
     0
100
AcDbMText
 10
0.0
 20
0.0016098055
 30
0.0
 40
9.0
 41
0.0
 71
     1
 72
     1
  1
others without express authorization is prohibited. Offenders will be held liable for the payment of damages.
  7
SLDTEXTSTYLE0
 73
     1
 44
1.0
  0
MTEXT
  5
CD
330
C8
100
AcDbEntity
  8
SINGLE_ARTICLE_DRW
 62
     0
100
AcDbMText
 10
0.0
 20
-11.598390047
 30
0.0
 40
9.0
 41
0.0
 71
     1
 72
     1
  1
All rights reserved in the event of the grant of a patent, utility model or design. Observe copyright by ISO 16016
  7
SLDTEXTSTYLE0
 73
     1
 44
1.0
  0
ENDBLK
  5
CA
330
C8
100
AcDbEntity
  8
0
100
AcDbBlockEnd
  0
BLOCK
  5
E8
330
E7
100
AcDbEntity
  8
0
100
AcDbBlockBegin
  2
SW_NOTE_0_1
 70
     0
 10
0.0
 20
0.0
 30
0.0
  3
SW_NOTE_0_1
  1

  0
MTEXT
  5
EA
330
E7
100
AcDbEntity
  8
MARKETING_DRW
 62
     0
100
AcDbMText
 10
0.0
 20
11.6016096579
 30
0.0
 40
9.0
 41
0.0
 71
     1
 72
     1
  1
The reproduction, distribution and utilization of this document as well as the communication of its contents to
  7
SLDTEXTSTYLE0
 73
     1
 44
1.0
  0
MTEXT
  5
EB
330
E7
100
AcDbEntity
  8
MARKETING_DRW
 62
     0
100
AcDbMText
 10
0.0
 20
-0.0233903849
 30
0.0
 40
9.0
 41
0.0
 71
     1
 72
     1
  1
others without express authorization is prohibited. Offenders will be held liable for the payment of damages.
  7
SLDTEXTSTYLE0
 73
     1
 44
1.0
  0
MTEXT
  5
EC
330
E7
100
AcDbEntity
  8
MARKETING_DRW
 62
     0
100
AcDbMText
 10
0.0
 20
-11.6483904277
 30
0.0
 40
9.0
 41
0.0
 71
     1
 72
     1
  1
All rights reserved in the event of the grant of a patent, utility model or design. Observe copyright by ISO 16016
  7
SLDTEXTSTYLE0
 73
     1
 44
1.0
  0
ENDBLK
  5
E9
330
E7
100
AcDbEntity
  8
0
100
AcDbBlockEnd
  0
ENDSEC
  0
SECTION
  2
ENTITIES
  0
LINE
  5
7C
330
1F
100
AcDbEntity
  8
SINGLE_ARTICLE_DRW
 62
     7
100
AcDbLine
 10
1955.0
 20
200.0
 30
0.0
 11
1980.0
 21
200.0
 31
0.0
  0
LINE
  5
7D
330
1F
100
AcDbEntity
  8
SINGLE_ARTICLE_DRW
  6
CENTERX2
 62
     7
100
AcDbLine
 10
1967.5
 20
212.5
 30
0.0
 11
1967.5
 21
187.5
 31
0.0
  0
LINE
  5
7E
330
1F
100
AcDbEntity
  8
SINGLE_ARTICLE_DRW
  6
CENTERX2
 62
     7
100
AcDbLine
 10
1915.0
 20
200.0
 30
0.0
 11
1950.0
 21
200.0
 31
0.0
  0
LINE
  5
7F
330
1F
100
AcDbEntity
  8
SINGLE_ARTICLE_DRW
 62
     7
100
AcDbLine
 10
1920.0
 20
194.95
 30
0.0
 11
1945.0
 21
190.0
 31
0.0
  0
LINE
  5
80
330
1F
100
AcDbEntity
  8
SINGLE_ARTICLE_DRW
 62
     7
100
AcDbLine
 10
1920.0
 20
205.05
 30
0.0
 11
1920.0
 21
194.95
 31
0.0
  0
LINE
  5
81
330
1F
100
AcDbEntity
  8
SINGLE_ARTICLE_DRW
 62
     7
100
AcDbLine
 10
1945.0
 20
210.0
 30
0.0
 11
1920.0
 21
205.05
 31
0.0
  0
LINE
  5
82
330
1F
100
AcDbEntity
  8
SINGLE_ARTICLE_DRW
 62
     7
100
AcDbLine
 10
1945.0
 20
190.0
 30
0.0
 11
1945.0
 21
210.0
 31
0.0
  0
LINE
  5
83
330
1F
100
AcDbEntity
  8
SINGLE_ARTICLE_DRW
 62
     7
100
AcDbLine
 10
2050.0
 20
50.0
 30
0.0
 11
2050.0
 21
340.0
 31
0.0
  0
LINE
  5
84
330
1F
100
AcDbEntity
  8
SINGLE_ARTICLE_DRW
 62
     7
100
AcDbLine
 10
1150.0
 20
340.0
 30
0.0
 11
1150.0
 21
50.0
 31
0.0
  0
LINE
  5
85
330
1F
100
AcDbEntity
  8
SINGLE_ARTICLE_DRW
 62
     7
100
AcDbLine
 10
1700.0
 20
95.0
 30
0.0
 11
1700.0
 21
50.0
 31
0.0
  0
LINE
  5
86
330
1F
100
AcDbEntity
  8
SINGLE_ARTICLE_DRW
 62
     7
100
AcDbLine
 10
1850.0
 20
50.0
 30
0.0
 11
1850.0
 21
95.0
 31
0.0
  0
LINE
  5
87
330
1F
100
AcDbEntity
  8
SINGLE_ARTICLE_DRW
 62
     7
100
AcDbLine
 10
2000.0
 20
95.0
 30
0.0
 11
2000.0
 21
50.0
 31
0.0
  0
LINE
  5
88
330
1F
100
AcDbEntity
  8
SINGLE_ARTICLE_DRW
 62
     7
100
AcDbLine
 10
1900.0
 20
320.0
 30
0.0
 11
1900.0
 21
185.0
 31
0.0
  0
LINE
  5
89
330
1F
100
AcDbEntity
  8
SINGLE_ARTICLE_DRW
 62
     7
100
AcDbLine
 10
2050.0
 20
320.0
 30
0.0
 11
1150.0
 21
320.0
 31
0.0
  0
LINE
  5
8A
330
1F
100
AcDbEntity
  8
SINGLE_ARTICLE_DRW
 62
     7
100
AcDbLine
 10
1800.0
 20
95.0
 30
0.0
 11
1800.0
 21
50.0
 31
0.0
  0
LINE
  5
8B
330
1F
100
AcDbEntity
  8
SINGLE_ARTICLE_DRW
 62
     7
100
AcDbLine
 10
2050.0
 20
275.0
 30
0.0
 11
1400.0
 21
275.0
 31
0.0
  0
LINE
  5
8C
330
1F
100
AcDbEntity
  8
SINGLE_ARTICLE_DRW
 62
     7
100
AcDbLine
 10
1650.0
 20
230.0
 30
0.0
 11
1650.0
 21
185.0
 31
0.0
  0
LINE
  5
8D
330
1F
100
AcDbEntity
  8
SINGLE_ARTICLE_DRW
 62
     7
100
AcDbLine
 10
2050.0
 20
230.0
 30
0.0
 11
1400.0
 21
230.0
 31
0.0
  0
LINE
  5
8E
330
1F
100
AcDbEntity
  8
SINGLE_ARTICLE_DRW
 62
     7
100
AcDbLine
 10
1400.0
 20
320.0
 30
0.0
 11
1400.0
 21
185.0
 31
0.0
  0
LINE
  5
8F
330
1F
100
AcDbEntity
  8
SINGLE_ARTICLE_DRW
 62
     7
100
AcDbLine
 10
2000.0
 20
230.0
 30
0.0
 11
2000.0
 21
185.0
 31
0.0
  0
LINE
  5
90
330
1F
100
AcDbEntity
  8
SINGLE_ARTICLE_DRW
 62
     7
100
AcDbLine
 10
2050.0
 20
95.0
 30
0.0
 11
1150.0
 21
95.0
 31
0.0
  0
LINE
  5
91
330
1F
100
AcDbEntity
  8
SINGLE_ARTICLE_DRW
 62
     7
100
AcDbLine
 10
1650.0
 20
275.0
 30
0.0
 11
1650.0
 21
320.0
 31
0.0
  0
LINE
  5
92
330
1F
100
AcDbEntity
  8
SINGLE_ARTICLE_DRW
 62
     7
100
AcDbLine
 10
1150.0
 20
340.0
 30
0.0
 11
2050.0
 21
340.0
 31
0.0
  0
LINE
  5
93
330
1F
100
AcDbEntity
  8
SINGLE_ARTICLE_DRW
 62
     7
100
AcDbLine
 10
1150.0
 20
185.0
 30
0.0
 11
2050.0
 21
185.0
 31
0.0
  0
LINE
  5
94
330
1F
100
AcDbEntity
  8
SINGLE_ARTICLE_DRW
 62
     7
100
AcDbLine
 10
1150.0
 20
50.0
 30
0.0
 11
2050.0
 21
50.0
 31
0.0
  0
LINE
  5
95
330
1F
100
AcDbEntity
  8
SINGLE_ARTICLE_DRW
 62
     7
100
AcDbLine
 10
1400.0
 20
275.0
 30
0.0
 11
1150.0
 21
275.0
 31
0.0
  0
LINE
  5
96
330
1F
100
AcDbEntity
  8
MARKETING_DRW
  6
CENTERX2
100
AcDbLine
 10
1955.0
 20
200.0
 30
0.0
 11
1980.0
 21
200.0
 31
0.0
  0
LINE
  5
97
330
1F
100
AcDbEntity
  8
MARKETING_DRW
  6
CENTERX2
100
AcDbLine
 10
1967.5
 20
212.5
 30
0.0
 11
1967.5
 21
187.5
 31
0.0
  0
LINE
  5
98
330
1F
100
AcDbEntity
  8
MARKETING_DRW
  6
CENTERX2
100
AcDbLine
 10
1915.0
 20
200.0
 30
0.0
 11
1950.0
 21
200.0
 31
0.0
  0
LINE
  5
99
330
1F
100
AcDbEntity
  8
MARKETING_DRW
100
AcDbLine
 10
1920.0
 20
194.95
 30
0.0
 11
1945.0
 21
190.0
 31
0.0
  0
LINE
  5
9A
330
1F
100
AcDbEntity
  8
MARKETING_DRW
100
AcDbLine
 10
1920.0
 20
205.05
 30
0.0
 11
1920.0
 21
194.95
 31
0.0
  0
LINE
  5
9B
330
1F
100
AcDbEntity
  8
MARKETING_DRW
100
AcDbLine
 10
1945.0
 20
210.0
 30
0.0
 11
1920.0
 21
205.05
 31
0.0
  0
LINE
  5
9C
330
1F
100
AcDbEntity
  8
MARKETING_DRW
100
AcDbLine
 10
1945.0
 20
190.0
 30
0.0
 11
1945.0
 21
210.0
 31
0.0
  0
LINE
  5
9D
330
1F
100
AcDbEntity
  8
MARKETING_DRW
100
AcDbLine
 10
2050.0
 20
50.0
 30
0.0
 11
2050.0
 21
230.0
 31
0.0
  0
LINE
  5
9E
330
1F
100
AcDbEntity
  8
MARKETING_DRW
100
AcDbLine
 10
1150.0
 20
50.0
 30
0.0
 11
2050.0
 21
50.0
 31
0.0
  0
LINE
  5
9F
330
1F
100
AcDbEntity
  8
MARKETING_DRW
100
AcDbLine
 10
1150.0
 20
275.0
 30
0.0
 11
1150.0
 21
50.0
 31
0.0
  0
LINE
  5
A0
330
1F
100
AcDbEntity
  8
MARKETING_DRW
100
AcDbLine
 10
1150.0
 20
275.0
 30
0.0
 11
1650.0
 21
275.0
 31
0.0
  0
LINE
  5
A1
330
1F
100
AcDbEntity
  8
MARKETING_DRW
 62
     7
100
AcDbLine
 10
1850.0
 20
50.0
 30
0.0
 11
1850.0
 21
95.0
 31
0.0
  0
LINE
  5
A2
330
1F
100
AcDbEntity
  8
MARKETING_DRW
100
AcDbLine
 10
2000.0
 20
95.0
 30
0.0
 11
2000.0
 21
50.0
 31
0.0
  0
LINE
  5
A3
330
1F
100
AcDbEntity
  8
MARKETING_DRW
100
AcDbLine
 10
1650.0
 20
275.0
 30
0.0
 11
1650.0
 21
230.0
 31
0.0
  0
LINE
  5
A4
330
1F
100
AcDbEntity
  8
MARKETING_DRW
100
AcDbLine
 10
2050.0
 20
230.0
 30
0.0
 11
1400.0
 21
230.0
 31
0.0
  0
LINE
  5
A5
330
1F
100
AcDbEntity
  8
MARKETING_DRW
100
AcDbLine
 10
1400.0
 20
275.0
 30
0.0
 11
1400.0
 21
185.0
 31
0.0
  0
LINE
  5
A6
330
1F
100
AcDbEntity
  8
MARKETING_DRW
100
AcDbLine
 10
2000.0
 20
230.0
 30
0.0
 11
2000.0
 21
185.0
 31
0.0
  0
LINE
  5
A7
330
1F
100
AcDbEntity
  8
MARKETING_DRW
100
AcDbLine
 10
2050.0
 20
95.0
 30
0.0
 11
1150.0
 21
95.0
 31
0.0
  0
LINE
  5
A8
330
1F
100
AcDbEntity
  8
MARKETING_DRW
100
AcDbLine
 10
1150.0
 20
185.0
 30
0.0
 11
2050.0
 21
185.0
 31
0.0
  0
LINE
  5
A9
330
1F
100
AcDbEntity
  8
MARKETING_DRW
100
AcDbLine
 10
1150.0
 20
50.0
 30
0.0
 11
2050.0
 21
50.0
 31
0.0
  0
LINE
  5
AA
330
1F
100
AcDbEntity
  8
MARKETING_DRW
100
AcDbLine
 10
1900.0
 20
230.0
 30
0.0
 11
1900.0
 21
185.0
 31
0.0
  0
LINE
  5
AB
330
1F
100
AcDbEntity
  8
MARKETING_DRW
100
AcDbLine
 10
1650.0
 20
275.0
 30
0.0
 11
1900.0
 21
275.0
 31
0.0
  0
LINE
  5
AC
330
1F
100
AcDbEntity
  8
MARKETING_DRW
100
AcDbLine
 10
1900.0
 20
275.0
 30
0.0
 11
1900.0
 21
230.0
 31
0.0
  0
LINE
  5
AD
330
1F
100
AcDbEntity
  8
MARKETING_DRW
100
AcDbLine
 10
1900.0
 20
275.0
 30
0.0
 11
2050.0
 21
275.0
 31
0.0
  0
LINE
  5
AE
330
1F
100
AcDbEntity
  8
MARKETING_DRW
100
AcDbLine
 10
2050.0
 20
275.0
 30
0.0
 11
2050.0
 21
230.0
 31
0.0
  0
LINE
  5
AF
330
1F
100
AcDbEntity
  8
MARKETING_DRW
100
AcDbLine
 10
1825.0
 20
275.0
 30
0.0
 11
1825.0
 21
230.0
 31
0.0
  0
LINE
  5
B0
330
1F
100
AcDbEntity
  8
MARKETING_DRW
100
AcDbLine
 10
1650.0
 20
230.0
 30
0.0
 11
1650.0
 21
185.0
 31
0.0
  0
CIRCLE
  5
B1
330
1F
100
AcDbEntity
  8
SINGLE_ARTICLE_DRW
 62
     7
100
AcDbCircle
 10
1967.5
 20
200.0
 30
0.0
 40
5.000000000000224
  0
CIRCLE
  5
B2
330
1F
100
AcDbEntity
  8
SINGLE_ARTICLE_DRW
 62
     7
100
AcDbCircle
 10
1967.5
 20
200.0
 30
0.0
 40
10.00000000000024
  0
CIRCLE
  5
B3
330
1F
100
AcDbEntity
  8
MARKETING_DRW
100
AcDbCircle
 10
1967.5
 20
200.0
 30
0.0
 40
5.000000000000224
  0
CIRCLE
  5
B4
330
1F
100
AcDbEntity
  8
MARKETING_DRW
100
AcDbCircle
 10
1967.5
 20
200.0
 30
0.0
 40
10.00000000000024
  0
MTEXT
  5
B6
330
1F
100
AcDbEntity
  8
SINGLE_ARTICLE_DRW
100
AcDbMText
 10
1155.0
 20
179.9766099061
 30
0.0
 40
9.0
 41
0.0
 71
     1
 72
     1
  1
title:
  7
SLDTEXTSTYLE0
 73
     1
 44
1.0
  0
MTEXT
  5
B7
330
1F
100
AcDbEntity
  8
SINGLE_ARTICLE_DRW
100
AcDbMText
 10
1155.0
 20
314.9766099061
 30
0.0
 40
9.0
 41
0.0
 71
     1
 72
     1
  1
technical reference:
  7
SLDTEXTSTYLE0
 73
     1
 44
1.0
  0
MTEXT
  5
B8
330
1F
100
AcDbEntity
  8
SINGLE_ARTICLE_DRW
100
AcDbMText
 10
2024.7829862405
 20
69.9675136777
 30
0.0
 40
12.5
 41
0.0
 71
     2
 72
     1
  1
1/1
  7
SLDTEXTSTYLE0
 73
     1
 44
1.0
  0
MTEXT
  5
B9
330
1F
100
AcDbEntity
  8
SINGLE_ARTICLE_DRW
100
AcDbMText
 10
2024.7829862405
 20
204.9675136777
 30
0.0
 40
12.5
 41
0.0
 71
     2
 72
     1
  1
1:5
  7
SLDTEXTSTYLE0
 73
     1
 44
1.0
  0
MTEXT
  5
BA
330
1F
100
AcDbEntity
  8
SINGLE_ARTICLE_DRW
100
AcDbMText
 10
1405.0
 20
314.9766099061
 30
0.0
 40
9.0
 41
0.0
 71
     1
 72
     1
  1
general tolerance:
  7
SLDTEXTSTYLE0
 73
     1
 44
1.0
  0
MTEXT
  5
BB
330
1F
100
AcDbEntity
  8
SINGLE_ARTICLE_DRW
100
AcDbMText
 10
1905.0
 20
249.9675136777
 30
0.0
 40
12.5
 41
0.0
 71
     1
 72
     1
  1
production drw.
  7
SLDTEXTSTYLE0
 73
     1
 44
1.0
  0
MTEXT
  5
BC
330
1F
100
AcDbEntity
  8
SINGLE_ARTICLE_DRW
100
AcDbMText
 10
1405.0
 20
269.9766099061
 30
0.0
 40
9.0
 41
0.0
 71
     1
 72
     1
  1
material:
  7
SLDTEXTSTYLE0
 73
     1
 44
1.0
  0
MTEXT
  5
BD
330
1F
100
AcDbEntity
  8
SINGLE_ARTICLE_DRW
100
AcDbMText
 10
1905.0
 20
224.9766099061
 30
0.0
 40
9.0
 41
0.0
 71
     1
 72
     1
  1
projection:ISO-E
  7
SLDTEXTSTYLE0
 73
     1
 44
1.0
  0
MTEXT
  5
BE
330
1F
100
AcDbEntity
  8
SINGLE_ARTICLE_DRW
100
AcDbMText
 10
2024.7500000913
 20
89.9766099061
 30
0.0
 40
9.0
 41
0.0
 71
     2
 72
     1
  1
sheet:
  7
SLDTEXTSTYLE0
 73
     1
 44
1.0
  0
MTEXT
  5
BF
330
1F
100
AcDbEntity
  8
SINGLE_ARTICLE_DRW
100
AcDbMText
 10
1855.0
 20
89.9766099061
 30
0.0
 40
9.0
 41
0.0
 71
     1
 72
     1
  1
release date:
  7
SLDTEXTSTYLE0
 73
     1
 44
1.0
  0
MTEXT
  5
C0
330
1F
100
AcDbEntity
  8
SINGLE_ARTICLE_DRW
100
AcDbMText
 10
1655.0
 20
224.9766099061
 30
0.0
 40
9.0
 41
0.0
 71
     1
 72
     1
  1
reviewed by:
  7
SLDTEXTSTYLE0
 73
     1
 44
1.0
  0
MTEXT
  5
C1
330
1F
100
AcDbEntity
  8
SINGLE_ARTICLE_DRW
100
AcDbMText
 10
1824.8125000894
 20
89.9766099061
 30
0.0
 40
9.0
 41
0.0
 71
     2
 72
     1
  1
index:
  7
SLDTEXTSTYLE0
 73
     1
 44
1.0
  0
MTEXT
  5
C2
330
1F
100
AcDbEntity
  8
SINGLE_ARTICLE_DRW
100
AcDbMText
 10
1905.0
 20
269.9766099061
 30
0.0
 40
9.0
 41
0.0
 71
     1
 72
     1
  1
documenttype:
  7
SLDTEXTSTYLE0
 73
     1
 44
1.0
  0
MTEXT
  5
C3
330
1F
100
AcDbEntity
  8
SINGLE_ARTICLE_DRW
100
AcDbMText
 10
1749.034373872
 20
89.9766099061
 30
0.0
 40
9.0
 41
0.0
 71
     2
 72
     1
  1
drawing-no.:
  7
SLDTEXTSTYLE0
 73
     1
 44
1.0
  0
MTEXT
  5
C4
330
1F
100
AcDbEntity
  8
SINGLE_ARTICLE_DRW
100
AcDbMText
 10
1905.0
 20
314.9766099061
 30
0.0
 40
9.0
 41
0.0
 71
     1
 72
     1
  1
weight:
  7
SLDTEXTSTYLE0
 73
     1
 44
1.0
  0
MTEXT
  5
C5
330
1F
100
AcDbEntity
  8
SINGLE_ARTICLE_DRW
100
AcDbMText
 10
2024.8750000875
 20
224.9766099061
 30
0.0
 40
9.0
 41
0.0
 71
     2
 72
     1
  1
scale:
  7
SLDTEXTSTYLE0
 73
     1
 44
1.0
  0
MTEXT
  5
C6
330
1F
100
AcDbEntity
  8
SINGLE_ARTICLE_DRW
100
AcDbMText
 10
1655.0
 20
314.9766099061
 30
0.0
 40
9.0
 41
0.0
 71
     1
 72
     1
  1
surface:
  7
SLDTEXTSTYLE0
 73
     1
 44
1.0
  0
MTEXT
  5
C7
330
1F
100
AcDbEntity
  8
SINGLE_ARTICLE_DRW
100
AcDbMText
 10
1405.0
 20
224.9766099061
 30
0.0
 40
9.0
 41
0.0
 71
     1
 72
     1
  1
created by:
  7
SLDTEXTSTYLE0
 73
     1
 44
1.0
  0
INSERT
  5
CE
330
1F
100
AcDbEntity
  8
SINGLE_ARTICLE_DRW
100
AcDbBlockReference
  2
SW_NOTE_0
 10
1155.0
 20
78.4000001475
 30
0.0
  0
MTEXT
  5
CF
330
1F
100
AcDbEntity
  8
SINGLE_ARTICLE_DRW
100
AcDbMText
 10
1155.0
 20
114.9675136777
 30
0.0
 40
12.5
 41
0.0
 71
     1
 72
     1
  1
ZB Duschrinne C mit Spalt und Flansch, mit DN40 Seitenauslaß, mit FAT GV25, International
  7
SLDTEXTSTYLE0
 73
     1
 44
1.0
  0
MTEXT
  5
D0
330
1F
100
AcDbEntity
  8
SINGLE_ARTICLE_DRW
100
AcDbMText
 10
1155.0
 20
137.4675136777
 30
0.0
 40
12.5
 41
0.0
 71
     1
 72
     1
  1
ASM Shower Channel C with gap and flange, with DN40 Side outlet, with FAT GV25 L1180, International
  7
SLDTEXTSTYLE0
 73
     1
 44
1.0
  0
MTEXT
  5
D1
330
1F
100
AcDbEntity
  8
SINGLE_ARTICLE_DRW
100
AcDbMText
 10
1155.0
 20
295.0022357116
 30
0.0
 40
12.5
 41
0.0
 71
     1
 72
     1
  1
Bohms, Michael
  7
SLDTEXTSTYLE0
 73
     1
 44
1.0
  0
MTEXT
  5
D2
330
1F
100
AcDbEntity
  8
SINGLE_ARTICLE_DRW
100
AcDbMText
 10
1749.0407964215
 20
69.9675136777
 30
0.0
 40
12.5
 41
0.0
 71
     2
 72
     1
  1
1088220-O
  7
SLDTEXTSTYLE0
 73
     1
 44
1.0
  0
MTEXT
  5
D3
330
1F
100
AcDbEntity
  8
SINGLE_ARTICLE_DRW
100
AcDbMText
 10
1824.7395830229
 20
69.9675136777
 30
0.0
 40
12.5
 41
0.0
 71
     2
 72
     1
  1
001
  7
SLDTEXTSTYLE0
 73
     1
 44
1.0
  0
MTEXT
  5
D4
330
1F
100
AcDbEntity
  8
SINGLE_ARTICLE_DRW
100
AcDbMText
 10
1155.0
 20
159.9675136777
 30
0.0
 40
12.5
 41
0.0
 71
     1
 72
     1
  1
ACO ShowerDrain
  7
SLDTEXTSTYLE0
 73
     1
 44
1.0
  0
MTEXT
  5
D5
330
1F
100
AcDbEntity
  8
SINGLE_ARTICLE_DRW
100
AcDbMText
 10
1155.0
 20
334.9766099061
 30
0.0
 40
9.0
 41
0.0
 71
     1
 72
     1
  1
modification:
  7
SLDTEXTSTYLE0
 73
     1
 44
1.0
  0
MTEXT
  5
D6
330
1F
100
AcDbEntity
  8
SINGLE_ARTICLE_DRW
100
AcDbMText
 10
1905.0
 20
294.9675136777
 30
0.0
 40
12.5
 41
0.0
 71
     1
 72
     1
  1
2.248 kg
  7
SLDTEXTSTYLE0
 73
     1
 44
1.0
  0
MTEXT
  5
D7
330
1F
100
AcDbEntity
  8
MARKETING_DRW
100
AcDbMText
 10
1155.0
 20
114.9675136777
 30
0.0
 40
12.5
 41
0.0
 71
     1
 72
     1
  1
ZB Duschrinne C mit Spalt und Flansch, mit DN40 Seitenauslaß, mit FAT GV25, International
  7
SLDTEXTSTYLE0
 73
     1
 44
1.0
  0
MTEXT
  5
D8
330
1F
100
AcDbEntity
  8
MARKETING_DRW
100
AcDbMText
 10
1155.0
 20
137.4675136777
 30
0.0
 40
12.5
 41
0.0
 71
     1
 72
     1
  1
ASM Shower Channel C with gap and flange, with DN40 Side outlet, with FAT GV25 L1180, International
  7
SLDTEXTSTYLE0
 73
     1
 44
1.0
  0
MTEXT
  5
D9
330
1F
100
AcDbEntity
  8
MARKETING_DRW
100
AcDbMText
 10
1736.5407964215
 20
249.9675136777
 30
0.0
 40
12.5
 41
0.0
 71
     2
 72
     1
  1
1088220-O
  7
SLDTEXTSTYLE0
 73
     1
 44
1.0
  0
MTEXT
  5
DA
330
1F
100
AcDbEntity
  8
MARKETING_DRW
100
AcDbMText
 10
1862.2395830229
 20
252.0971433073
 30
0.0
 40
12.5
 41
0.0
 71
     2
 72
     1
  1
001
  7
SLDTEXTSTYLE0
 73
     1
 44
1.0
  0
MTEXT
  5
DB
330
1F
100
AcDbEntity
  8
MARKETING_DRW
100
AcDbMText
 10
1155.0
 20
159.9675136777
 30
0.0
 40
12.5
 41
0.0
 71
     1
 72
     1
  1
ACO ShowerDrain
  7
SLDTEXTSTYLE0
 73
     1
 44
1.0
  0
MTEXT
  5
DC
330
1F
100
AcDbEntity
  8
MARKETING_DRW
100
AcDbMText
 10
1905.0
 20
269.9766099061
 30
0.0
 40
9.0
 41
0.0
 71
     1
 72
     1
  1
documenttype:
  7
SLDTEXTSTYLE0
 73
     1
 44
1.0
  0
MTEXT
  5
DD
330
1F
100
AcDbEntity
  8
MARKETING_DRW
100
AcDbMText
 10
1655.0
 20
224.9766099061
 30
0.0
 40
9.0
 41
0.0
 71
     1
 72
     1
  1
reviewed by:
  7
SLDTEXTSTYLE0
 73
     1
 44
1.0
  0
MTEXT
  5
DE
330
1F
100
AcDbEntity
  8
MARKETING_DRW
100
AcDbMText
 10
1736.534373872
 20
270.0578764559
 30
0.0
 40
9.0
 41
0.0
 71
     2
 72
     1
  1
drawing-no.:
  7
SLDTEXTSTYLE0
 73
     1
 44
1.0
  0
MTEXT
  5
DF
330
1F
100
AcDbEntity
  8
MARKETING_DRW
100
AcDbMText
 10
1905.0
 20
224.9766099061
 30
0.0
 40
9.0
 41
0.0
 71
     1
 72
     1
  1
projection:ISO-E
  7
SLDTEXTSTYLE0
 73
     1
 44
1.0
  0
MTEXT
  5
E0
330
1F
100
AcDbEntity
  8
MARKETING_DRW
100
AcDbMText
 10
2024.7500000913
 20
89.9766099061
 30
0.0
 40
9.0
 41
0.0
 71
     2
 72
     1
  1
sheet:
  7
SLDTEXTSTYLE0
 73
     1
 44
1.0
  0
MTEXT
  5
E1
330
1F
100
AcDbEntity
  8
MARKETING_DRW
100
AcDbMText
 10
2024.7829862405
 20
69.9675136777
 30
0.0
 40
12.5
 41
0.0
 71
     2
 72
     1
  1
1/1
  7
SLDTEXTSTYLE0
 73
     1
 44
1.0
  0
MTEXT
  5
E2
330
1F
100
AcDbEntity
  8
MARKETING_DRW
100
AcDbMText
 10
1855.0
 20
89.9766099061
 30
0.0
 40
9.0
 41
0.0
 71
     1
 72
     1
  1
release date:
  7
SLDTEXTSTYLE0
 73
     1
 44
1.0
  0
MTEXT
  5
E3
330
1F
100
AcDbEntity
  8
MARKETING_DRW
100
AcDbMText
 10
1862.3125000894
 20
269.9766099061
 30
0.0
 40
9.0
 41
0.0
 71
     2
 72
     1
  1
index:
  7
SLDTEXTSTYLE0
 73
     1
 44
1.0
  0
MTEXT
  5
E4
330
1F
100
AcDbEntity
  8
MARKETING_DRW
100
AcDbMText
 10
1155.0
 20
179.9766099061
 30
0.0
 40
9.0
 41
0.0
 71
     1
 72
     1
  1
title:
  7
SLDTEXTSTYLE0
 73
     1
 44
1.0
  0
MTEXT
  5
E5
330
1F
100
AcDbEntity
  8
MARKETING_DRW
100
AcDbMText
 10
2024.8750000875
 20
224.9766099061
 30
0.0
 40
9.0
 41
0.0
 71
     2
 72
     1
  1
scale:
  7
SLDTEXTSTYLE0
 73
     1
 44
1.0
  0
MTEXT
  5
E6
330
1F
100
AcDbEntity
  8
MARKETING_DRW
100
AcDbMText
 10
2024.7829862405
 20
204.9675136777
 30
0.0
 40
12.5
 41
0.0
 71
     2
 72
     1
  1
1:5
  7
SLDTEXTSTYLE0
 73
     1
 44
1.0
  0
INSERT
  5
ED
330
1F
100
AcDbEntity
  8
MARKETING_DRW
100
AcDbBlockReference
  2
SW_NOTE_0_1
 10
1155.0
 20
78.3750002482
 30
0.0
  0
MTEXT
  5
EE
330
1F
100
AcDbEntity
  8
MARKETING_DRW
100
AcDbMText
 10
1905.0
 20
249.9675136777
 30
0.0
 40
12.5
 41
0.0
 71
     1
 72
     1
  1
marketing drw.
  7
SLDTEXTSTYLE0
 73
     1
 44
1.0
  0
MTEXT
  5
EF
330
1F
100
AcDbEntity
  8
MARKETING_DRW
100
AcDbMText
 10
1405.0
 20
224.9766099061
 30
0.0
 40
9.0
 41
0.0
 71
     1
 72
     1
  1
created by:
  7
SLDTEXTSTYLE0
 73
     1
 44
1.0
  0
LINE
  5
F0
330
1F
100
AcDbEntity
  8
0
  6
Continuous
 62
     7
370
    35
100
AcDbLine
 10
939.7389935445
 20
911.6350233936
 30
0.0
 11
956.5474142472
 21
911.6350233936
 31
0.0
  0
LINE
  5
F1
330
1F
100
AcDbEntity
  8
0
  6
Continuous
 62
     7
370
    35
100
AcDbLine
 10
956.5474142472
 20
951.6350233936
 30
0.0
 11
952.9682351718
 21
951.6350233936
 31
0.0
  0
LINE
  5
F2
330
1F
100
AcDbEntity
  8
0
  6
Continuous
 62
     7
370
    35
100
AcDbLine
 10
1458.0474142472
 20
981.0814618932
 30
0.0
 11
278.0474142472
 21
981.0814618932
 31
0.0
  0
LINE
  5
F3
330
1F
100
AcDbEntity
  8
0
  6
Continuous
 62
     7
370
    35
100
AcDbLine
 10
787.0474142472
 20
961.0962868816
 30
0.0
 11
787.0474142472
 21
958.085023394
 31
0.0
  0
LINE
  5
F4
330
1F
100
AcDbEntity
  8
0
  6
Continuous
 62
     7
370
    35
100
AcDbLine
 10
949.0474142472
 20
958.085023394
 30
0.0
 11
949.0474142472
 21
961.0962868816
 31
0.0
  0
ARC
  5
F5
330
1F
100
AcDbEntity
  8
0
  6
Continuous
 62
     7
370
    35
100
AcDbCircle
 10
785.0474142472
 20
961.0882452343
 30
0.0
 40
1.99999999999998
100
AcDbArc
 50
0.2172817996
 51
85.9305858724
  0
ARC
  5
F6
330
1F
100
AcDbEntity
  8
0
  6
Continuous
 62
     7
370
    35
100
AcDbCircle
 10
951.0474142472
 20
961.0882452343
 30
0.0
 40
2.000000000000051
100
AcDbArc
 50
94.065898605
 51
179.7696267909
  0
LINE
  5
F7
330
1F
100
AcDbEntity
  8
0
  6
Continuous
 62
     7
370
    35
100
AcDbLine
 10
950.9065523037
 20
963.0830728135
 30
0.0
 11
1458.0474142472
 21
963.0830728135
 31
0.0
  0
LINE
  5
F8
330
1F
100
AcDbEntity
  8
0
  6
Continuous
 62
     7
370
    35
100
AcDbLine
 10
278.0474142472
 20
963.0830728135
 30
0.0
 11
785.1882761908
 21
963.0830728135
 31
0.0
  0
LINE
  5
F9
330
1F
100
AcDbEntity
  8
0
  6
Continuous
 62
     7
370
    35
100
AcDbLine
 10
956.5474142472
 20
911.6350233936
 30
0.0
 11
996.241362705
 21
911.6350233936
 31
0.0
  0
LINE
  5
FA
330
1F
100
AcDbEntity
  8
0
  6
Continuous
 62
     7
370
    35
100
AcDbLine
 10
996.241362705
 20
951.6350233936
 30
0.0
 11
956.5474142472
 21
951.6350233936
 31
0.0
  0
ARC
  5
FB
330
1F
100
AcDbEntity
  8
0
  6
Continuous
 62
     7
370
    35
100
AcDbCircle
 10
996.241362705
 20
948.6350233936
 30
0.0
 40
3.000000000000119
100
AcDbArc
 50
78.3499964744
 51
90.0
  0
ARC
  5
FC
330
1F
100
AcDbEntity
  8
0
  6
Continuous
 62
     7
370
    35
100
AcDbCircle
 10
996.241362705
 20
914.6350233936
 30
0.0
 40
3.000000000000119
100
AcDbArc
 50
270.0
 51
281.6500035256
  0
LINE
  5
FD
330
1F
100
AcDbEntity
  8
0
  6
Continuous
 62
     7
370
    35
100
AcDbLine
 10
996.8471609412
 20
911.6968252218
 30
0.0
 11
1001.5474142472
 21
912.6659243077
 31
0.0
  0
LINE
  5
FE
330
1F
100
AcDbEntity
  8
0
  6
Continuous
 62
     7
370
    35
100
AcDbLine
 10
1001.5474142472
 20
950.6041224795
 30
0.0
 11
996.8471609412
 21
951.5732215655
 31
0.0
  0
ARC
  5
FF
330
1F
100
AcDbEntity
  8
0
  6
Continuous
 62
     7
370
    35
100
AcDbCircle
 10
868.0474142472
 20
931.6350233936
 30
0.0
 40
20.00000000000004
100
AcDbArc
 50
242.7578274734
 51
297.2421725266
  0
SPLINE
  5
100
330
1F
100
AcDbEntity
  8
0
  6
Continuous
 62
     7
370
    35
100
AcDbSpline
210
0.0
220
0.0
230
1.0
 70
     8
 71
     3
 72
    23
 73
    19
 74
     0
 42
0.000000001
 43
0.00000001
 40
0.0
 40
0.0
 40
0.0
 40
0.0
 40
0.0758439674746767
 40
0.0948049593331002
 40
0.1128914355571506
 40
0.1336676542610458
 40
0.1567718346598162
 40
0.2022013669991181
 40
0.2424816341995579
 40
0.2818986298408139
 40
0.3206021944779509
 40
0.3951163817032078
 40
0.4632081862901979
 40
0.5251873670652979
 40
0.5924928344462254
 40
0.7259812554141636
 40
0.8620429027987473
 40
1.0
 40
1.0
 40
1.0
 40
1.0
 10
786.547414247241
 20
958.0850233936148
 30
0.0
 10
786.5314097236206
 20
956.9812534535913
 30
0.0
 10
786.5114040690972
 20
955.6015410287109
 30
0.0
 10
786.576915245447
 20
954.0021968802674
 30
0.0
 10
786.4316627665826
 20
953.0957666814875
 30
0.0
 10
785.5221929864224
 20
952.7296028993751
 30
0.0
 10
784.52577167748
 20
951.9359520168674
 30
0.0
 10
783.5292974932731
 20
950.6593194792115
 30
0.0
 10
782.9470063367769
 20
948.9395943824859
 30
0.0
 10
782.3244198862825
 20
947.3475757950063
 30
0.0
 10
781.5752337365532
 20
945.2722969471589
 30
0.0
 10
780.7161471763087
 20
942.7982623055718
 30
0.0
 10
779.8073571167391
 20
939.981227907127
 30
0.0
 10
779.26229330532
 20
937.1753864472132
 30
0.0
 10
778.9209074009094
 20
933.3863492173139
 30
0.0
 10
779.3091286728774
 20
928.5006566512595
 30
0.0
 10
780.988524188832
 20
922.7797742028977
 30
0.0
 10
783.13560814675
 20
919.4324223917267
 30
0.0
 10
784.2165760591073
 20
917.7471692902337
 30
0.0
  0
SPLINE
  5
101
330
1F
100
AcDbEntity
  8
0
  6
Continuous
 62
     7
370
    35
100
AcDbSpline
210
0.0
220
0.0
230
1.0
 70
    24
 71
     3
 72
    19
 73
    15
 74
     0
 42
0.000000001
 43
0.00000001
 40
0.0
 40
0.0
 40
0.0
 40
0.0
 40
0.2409129494906413
 40
0.4882585144584838
 40
0.5391714996611927
 40
0.5899404470637029
 40
0.6400693113877648
 40
0.6899887485684958
 40
0.7400419491330548
 40
0.7904190815941273
 40
0.8413201881352514
 40
0.8929676782752878
 40
0.9456873804469079
 40
1.0
 40
1.0
 40
1.0
 40
1.0
 10
868.047414247241
 20
958.085023393615
 30
0.0
 10
860.2013732457982
 20
958.085023393615
 30
0.0
 10
844.299794140796
 20
958.085023393615
 30
0.0
 10
826.7343696209947
 20
958.085023393615
 30
0.0
 10
815.3724808740658
 20
958.085023393615
 30
0.0
 10
810.416715655749
 20
958.0850233936147
 30
0.0
 10
805.6323548964042
 20
958.0850233936147
 30
0.0
 10
801.1487769313999
 20
958.085023393615
 30
0.0
 10
797.0705266464291
 20
958.085023393615
 30
0.0
 10
793.4972747034179
 20
958.085023393615
 30
0.0
 10
790.5308689590101
 20
958.085023393615
 30
0.0
 10
788.3008427395325
 20
958.085023393615
 30
0.0
 10
786.8275326425409
 20
958.0850233936148
 30
0.0
 10
786.6417088914563
 20
958.0850233936148
 30
0.0
 10
786.547414247241
 20
958.0850233936148
 30
0.0
  0
SPLINE
  5
102
330
1F
100
AcDbEntity
  8
0
  6
Continuous
 62
     7
370
    35
100
AcDbSpline
210
0.0
220
0.0
230
1.0
 70
    24
 71
     3
 72
    19
 73
    15
 74
     0
 42
0.000000001
 43
0.00000001
 40
0.0
 40
0.0
 40
0.0
 40
0.0
 40
0.2409129494906413
 40
0.4882585144584838
 40
0.5391714996611927
 40
0.5899404470637029
 40
0.6400693113877648
 40
0.6899887485684958
 40
0.7400419491330548
 40
0.7904190815941273
 40
0.8413201881352514
 40
0.8929676782752878
 40
0.9456873804469079
 40
1.0
 40
1.0
 40
1.0
 40
1.0
 10
868.047414247241
 20
958.085023393615
 30
0.0
 10
875.893455248684
 20
958.085023393615
 30
0.0
 10
891.7950343536861
 20
958.085023393615
 30
0.0
 10
909.3604588734875
 20
958.085023393615
 30
0.0
 10
920.7223476204164
 20
958.085023393615
 30
0.0
 10
925.6781128387331
 20
958.0850233936147
 30
0.0
 10
930.462473598078
 20
958.0850233936147
 30
0.0
 10
934.9460515630823
 20
958.085023393615
 30
0.0
 10
939.024301848053
 20
958.085023393615
 30
0.0
 10
942.5975537910642
 20
958.085023393615
 30
0.0
 10
945.563959535472
 20
958.085023393615
 30
0.0
 10
947.7939857549496
 20
958.0850233936148
 30
0.0
 10
949.2672958519413
 20
958.0850233936148
 30
0.0
 10
949.4531196030258
 20
958.0850233936148
 30
0.0
 10
949.5474142472411
 20
958.0850233936148
 30
0.0
  0
SPLINE
  5
103
330
1F
100
AcDbEntity
  8
0
  6
Continuous
 62
     7
370
    35
100
AcDbSpline
210
0.0
220
0.0
230
1.0
 70
     8
 71
     3
 72
    12
 73
     8
 74
     0
 42
0.000000001
 43
0.00000001
 40
0.0
 40
0.0
 40
0.0
 40
0.0
 40
0.5113573105439846
 40
0.6391966381109017
 40
0.7611397820034745
 40
0.8740152375255743
 40
1.0
 40
1.0
 40
1.0
 40
1.0
 10
949.5474142472411
 20
958.0850233936148
 30
0.0
 10
949.5621202532692
 20
956.9804928835877
 30
0.0
 10
949.5805027608023
 20
955.5998297462028
 30
0.0
 10
949.5203067951395
 20
954.0035988322933
 30
0.0
 10
949.6444615941142
 20
953.1539937935413
 30
0.0
 10
950.4017649069539
 20
952.8066404332243
 30
0.0
 10
950.8091643475792
 20
952.5074673936384
 30
0.0
 10
951.0240436698451
 20
952.3496711534478
 30
0.0
  0
SPLINE
  5
104
330
1F
100
AcDbEntity
  8
0
  6
Continuous
 62
     7
370
    35
100
AcDbSpline
210
0.0
220
0.0
230
1.0
 70
     8
 71
     3
 72
    12
 73
     8
 74
     0
 42
0.000000001
 43
0.00000001
 40
0.0
 40
0.0
 40
0.0
 40
0.0
 40
0.0187022824907647
 40
0.2635054426144015
 40
0.5085219380108149
 40
0.7541594978531965
 40
1.0
 40
1.0
 40
1.0
 40
1.0
 10
950.9846405841117
 20
952.1812843157851
 30
0.0
 10
950.984704812098
 20
952.1834357713897
 30
0.0
 10
950.985609751052
 20
952.2137486629658
 30
0.0
 10
950.9877168512306
 20
952.2636438536406
 30
0.0
 10
950.9940896121186
 20
952.3139858604975
 30
0.0
 10
951.0049384540187
 20
952.3447746783443
 30
0.0
 10
951.0176735117061
 20
952.3480385458386
 30
0.0
 10
951.0240436698451
 20
952.3496711534478
 30
0.0
  0
SPLINE
  5
105
330
1F
100
AcDbEntity
  8
0
  6
Continuous
 62
     7
370
    35
100
AcDbSpline
210
0.0
220
0.0
230
1.0
 70
     8
 71
     3
 72
    13
 73
     9
 74
     0
 42
0.000000001
 43
0.00000001
 40
0.0
 40
0.0
 40
0.0
 40
0.0
 40
0.1771815196505908
 40
0.3595140594802965
 40
0.536691256885091
 40
0.7189759962167965
 40
0.8582847046484902
 40
1.0
 40
1.0
 40
1.0
 40
1.0
 10
784.2165760591073
 20
917.7471692902337
 30
0.0
 10
784.7433798587225
 20
917.100891006683
 30
0.0
 10
785.8123026951604
 20
915.7895458408241
 30
0.0
 10
787.7961785149286
 20
914.2063593012444
 30
0.0
 10
790.0154384902195
 20
912.9438382127648
 30
0.0
 10
792.2307314117475
 20
912.1514356130898
 30
0.0
 10
794.3695401641268
 20
911.7104392948172
 30
0.0
 10
795.6899674689619
 20
911.6603051375525
 30
0.0
 10
796.355834949945
 20
911.6350233936149
 30
0.0
  0
SPLINE
  5
106
330
1F
100
AcDbEntity
  8
0
  6
Continuous
 62
     7
370
    35
100
AcDbSpline
210
0.0
220
0.0
230
1.0
 70
    24
 71
     3
 72
    19
 73
    15
 74
     0
 42
0.000000001
 43
0.00000001
 40
0.0
 40
0.0
 40
0.0
 40
0.0
 40
0.0382207566244327
 40
0.0915494292491335
 40
0.1448915828931537
 40
0.1929664281754644
 40
0.2410362644725358
 40
0.2858279790996494
 40
0.330589994761807
 40
0.3739481339232561
 40
0.4173762879190923
 40
0.6722423197123589
 40
0.9271575473554007
 40
1.0
 40
1.0
 40
1.0
 40
1.0
 10
796.355834949945
 20
911.6350233936149
 30
0.0
 10
796.5215114254726
 20
911.6350233936149
 30
0.0
 10
796.91835304019
 20
911.6350233936149
 30
0.0
 10
798.291024659095
 20
911.6350233936149
 30
0.0
 10
800.3745481193251
 20
911.6350233936149
 30
0.0
 10
802.9589457006075
 20
911.6350233936149
 30
0.0
 10
805.8243628184639
 20
911.635023393615
 30
0.0
 10
808.9884419793037
 20
911.6350233936149
 30
0.0
 10
812.3276835150223
 20
911.6350233936149
 30
0.0
 10
815.8714720581206
 20
911.6350233936149
 30
0.0
 10
825.3557822745169
 20
911.635023393615
 30
0.0
 10
840.7331221857471
 20
911.6350233936149
 30
0.0
 10
856.9194662598558
 20
911.635023393615
 30
0.0
 10
866.0239825065437
 20
911.635023393615
 30
0.0
 10
868.047414247241
 20
911.635023393615
 30
0.0
  0
SPLINE
  5
107
330
1F
100
AcDbEntity
  8
0
  6
Continuous
 62
     7
370
    35
100
AcDbSpline
210
0.0
220
0.0
230
1.0
 70
    24
 71
     3
 72
    19
 73
    15
 74
     0
 42
0.000000001
 43
0.00000001
 40
0.0
 40
0.0
 40
0.0
 40
0.0
 40
0.0382184429616673
 40
0.0907526742552615
 40
0.1448883276233774
 40
0.1924047757928812
 40
0.2410289232739625
 40
0.2852702899838307
 40
0.3305791993120217
 40
0.3733296235550279
 40
0.4174095644875306
 40
0.6721476066227443
 40
0.9271619568147014
 40
1.0
 40
1.0
 40
1.0
 40
1.0
 10
939.7389935445373
 20
911.6350233936149
 30
0.0
 10
939.5731241003641
 20
911.6350233936149
 30
0.0
 10
939.179254165604
 20
911.6350233936149
 30
0.0
 10
937.8174460124491
 20
911.6350233936149
 30
0.0
 10
935.7400436631023
 20
911.6350233936149
 30
0.0
 10
933.1482329835152
 20
911.6350233936149
 30
0.0
 10
930.2934373686248
 20
911.6350233936149
 30
0.0
 10
927.121696859122
 20
911.6350233936149
 30
0.0
 10
923.7940730558665
 20
911.635023393615
 30
0.0
 10
920.2487486651713
 20
911.635023393615
 30
0.0
 10
910.7496403599852
 20
911.6350233936149
 30
0.0
 10
895.3694464950603
 20
911.635023393615
 30
0.0
 10
879.1782824736803
 20
911.635023393615
 30
0.0
 10
870.0707983527428
 20
911.6350233936149
 30
0.0
 10
868.047414247241
 20
911.6350233936149
 30
0.0
  0
LINE
  5
108
330
1F
100
AcDbEntity
  8
0
  6
Continuous
 62
     7
370
    35
100
AcDbLine
 10
956.5474142472
 20
951.6350233936
 30
0.0
 11
956.5474142472
 21
911.6350233936
 31
0.0
  0
SPLINE
  5
109
330
1F
100
AcDbEntity
  8
0
  6
Continuous
 62
     7
370
    35
100
AcDbSpline
210
0.0
220
0.0
230
1.0
 70
     8
 71
     3
 72
    10
 73
     6
 74
     0
 42
0.000000001
 43
0.00000001
 40
0.0
 40
0.0
 40
0.0
 40
0.0
 40
0.4996662810113345
 40
0.9790557875044539
 40
1.0
 40
1.0
 40
1.0
 40
1.0
 10
951.0240436698451
 20
952.3496711534478
 30
0.0
 10
951.3154482210665
 20
952.1488339657443
 30
0.0
 10
951.886431942043
 20
951.7553096907639
 30
0.0
 10
952.6026622007846
 20
951.6368720366307
 30
0.0
 10
952.953546965132
 20
951.6350976694854
 30
0.0
 10
952.9682351717969
 20
951.6350233936149
 30
0.0
  0
LINE
  5
10A
330
1F
100
AcDbEntity
  8
0
  6
Continuous
 62
     7
370
    35
100
AcDbLine
 10
278.0474142472
 20
969.0814618932
 30
0.0
 11
278.0474142472
 21
968.0814618932
 31
0.0
  0
LINE
  5
10B
330
1F
100
AcDbEntity
  8
0
  6
Continuous
 62
     7
370
    35
100
AcDbLine
 10
1458.0474142472
 20
969.0814618932
 30
0.0
 11
278.0474142472
 21
969.0814618932
 31
0.0
  0
LINE
  5
10C
330
1F
100
AcDbEntity
  8
0
  6
Continuous
 62
     7
370
    35
100
AcDbLine
 10
1458.0474142472
 20
969.0814618932
 30
0.0
 11
1458.0474142472
 21
968.0814618932
 31
0.0
  0
LINE
  5
10D
330
1F
100
AcDbEntity
  8
0
  6
Continuous
 62
     7
370
    35
100
AcDbLine
 10
1458.0474142472
 20
968.0814618932
 30
0.0
 11
278.0474142472
 21
968.0814618932
 31
0.0
  0
LINE
  5
10E
330
1F
100
AcDbEntity
  8
0
  6
Continuous
 62
     7
370
    35
100
AcDbLine
 10
278.0474142472
 20
970.0814618932
 30
0.0
 11
278.0474142472
 21
969.0814618932
 31
0.0
  0
LINE
  5
10F
330
1F
100
AcDbEntity
  8
0
  6
Continuous
 62
     7
370
    35
100
AcDbLine
 10
1458.0474142472
 20
969.0814618932
 30
0.0
 11
1458.0474142472
 21
970.0814618932
 31
0.0
  0
LINE
  5
110
330
1F
100
AcDbEntity
  8
0
  6
Continuous
 62
     7
370
    35
100
AcDbLine
 10
1458.0474142472
 20
979.5814618932
 30
0.0
 11
1458.0474142472
 21
970.0814618932
 31
0.0
  0
LINE
  5
111
330
1F
100
AcDbEntity
  8
0
  6
Continuous
 62
     7
370
    35
100
AcDbLine
 10
278.0474142472
 20
970.0814618932
 30
0.0
 11
278.0474142472
 21
979.5814618932
 31
0.0
  0
LINE
  5
112
330
1F
100
AcDbEntity
  8
0
  6
Continuous
 62
     7
370
    35
100
AcDbLine
 10
1458.0474142472
 20
981.0814618932
 30
0.0
 11
1458.0474142472
 21
980.0814618932
 31
0.0
  0
LINE
  5
113
330
1F
100
AcDbEntity
  8
0
  6
Continuous
 62
     7
370
    35
100
AcDbLine
 10
278.0474142472
 20
980.0814618932
 30
0.0
 11
278.0474142472
 21
981.0814618932
 31
0.0
  0
LINE
  5
114
330
1F
100
AcDbEntity
  8
0
  6
Continuous
 62
     7
370
    35
100
AcDbLine
 10
1458.0474142472
 20
966.8433803825
 30
0.0
 11
1458.0474142472
 21
968.0814618932
 31
0.0
  0
LINE
  5
115
330
1F
100
AcDbEntity
  8
0
  6
Continuous
 62
     7
370
    35
100
AcDbLine
 10
278.0474142472
 20
966.8433803825
 30
0.0
 11
278.0474142472
 21
968.0814618932
 31
0.0
  0
LINE
  5
116
330
1F
100
AcDbEntity
  8
0
  6
Continuous
 62
     7
370
    35
100
AcDbLine
 10
1458.0474142472
 20
966.1474098371
 30
0.0
 11
1458.0474142472
 21
966.8433803825
 31
0.0
  0
LINE
  5
117
330
1F
100
AcDbEntity
  8
0
  6
Continuous
 62
     7
370
    35
100
AcDbLine
 10
278.0474142472
 20
966.8433803825
 30
0.0
 11
278.0474142472
 21
966.1474098371
 31
0.0
  0
SPLINE
  5
118
330
1F
100
AcDbEntity
  8
0
  6
Continuous
 62
     7
370
    35
100
AcDbSpline
210
0.0
220
0.0
230
1.0
 70
     8
 71
     3
 72
     8
 73
     4
 74
     0
 42
0.000000001
 43
0.00000001
 40
0.0000000000000256
 40
0.0000000000000256
 40
0.0000000000000256
 40
0.0000000000000256
 40
0.0000564308016788
 40
0.0000564308016788
 40
0.0000564308016788
 40
0.0000564308016788
 10
950.9188770266067
 20
963.0862894723851
 30
0.0
 10
950.9240394304192
 20
963.0873149315203
 30
0.0
 10
950.9270501983156
 20
963.0883900557847
 30
0.0
 10
950.9268727497316
 20
963.0894564148161
 30
0.0
  0
SPLINE
  5
119
330
1F
100
AcDbEntity
  8
0
  6
Continuous
 62
     7
370
    35
100
AcDbSpline
210
0.0
220
0.0
230
1.0
 70
     8
 71
     3
 72
    14
 73
    10
 74
     0
 42
0.000000001
 43
0.00000001
 40
0.0
 40
0.0
 40
0.0
 40
0.0
 40
0.25
 40
0.25
 40
0.5
 40
0.5
 40
0.75
 40
0.75
 40
1.0
 40
1.0
 40
1.0
 40
1.0
 10
950.926872749861
 20
963.0894564148163
 30
0.0
 10
950.8955001019825
 20
963.2779871185497
 30
0.0
 10
950.3065611897421
 20
963.465982463455
 30
0.0
 10
948.0748406251653
 20
963.8211857880416
 30
0.0
 10
946.434595505481
 20
963.9879700353627
 30
0.0
 10
942.2771777483983
 20
964.2822737757621
 30
0.0
 10
939.764416382554
 20
964.4094685532887
 30
0.0
 10
934.1366038450271
 20
964.6103671071619
 30
0.0
 10
931.0273973828985
 20
964.683861898219
 30
0.0
 10
927.7877458099473
 20
964.7264567764247
 30
0.0
  0
SPLINE
  5
11A
330
1F
100
AcDbEntity
  8
0
  6
Continuous
 62
     7
370
    35
100
AcDbSpline
210
0.0
220
0.0
230
1.0
 70
     8
 71
     3
 72
    14
 73
    10
 74
     0
 42
0.000000001
 43
0.00000001
 40
0.0
 40
0.0
 40
0.0
 40
0.0
 40
0.125
 40
0.125
 40
0.2500000000000001
 40
0.2500000000000001
 40
0.5
 40
0.5
 40
1.0
 40
1.0
 40
1.0
 40
1.0
 10
927.7877458099201
 20
964.7264567764174
 30
0.0
 10
927.5116993694737
 20
964.7300862298464
 30
0.0
 10
927.2324047755774
 20
964.7319711857072
 30
0.0
 10
926.6725097357594
 20
964.7350397587192
 30
0.0
 10
926.3918102122641
 20
964.7361701639264
 30
0.0
 10
925.5490483946579
 20
964.7392051670072
 30
0.0
 10
924.9865112896462
 20
964.7406851859423
 30
0.0
 10
923.2990672595305
 20
964.7442761302519
 30
0.0
 10
922.1735133847969
 20
964.7454247404152
 30
0.0
 10
921.047414247241
 20
964.7454247404152
 30
0.0
  0
LINE
  5
11B
330
1F
100
AcDbEntity
  8
0
  6
Continuous
 62
     7
370
    35
100
AcDbLine
 10
921.0474142472
 20
964.7454247404
 30
0.0
 11
815.0474142472
 21
964.7454247404
 31
0.0
  0
SPLINE
  5
11C
330
1F
100
AcDbEntity
  8
0
  6
Continuous
 62
     7
370
    35
100
AcDbSpline
210
0.0
220
0.0
230
1.0
 70
     8
 71
     3
 72
    14
 73
    10
 74
     0
 42
0.000000001
 43
0.00000001
 40
0.0
 40
0.0
 40
0.0
 40
0.0
 40
0.5000000000000031
 40
0.5000000000000031
 40
0.7500000000000031
 40
0.7500000000000031
 40
0.8750000000000016
 40
0.8750000000000016
 40
1.0
 40
1.0
 40
1.0
 40
1.0
 10
815.0474142472411
 20
964.7454247404152
 30
0.0
 10
813.9215117109436
 20
964.7454247404152
 30
0.0
 10
812.7960562882806
 20
964.7442765372542
 30
0.0
 10
811.108600688529
 20
964.7406858996044
 30
0.0
 10
810.5461433324963
 20
964.739206004565
 30
0.0
 10
809.7037954170157
 20
964.7361731974572
 30
0.0
 10
809.4231829437313
 20
964.7350436376511
 30
0.0
 10
808.8631180300324
 20
964.731975845924
 30
0.0
 10
808.5825449142986
 20
964.7300785486549
 30
0.0
 10
808.307082684562
 20
964.7264567764174
 30
0.0
  0
SPLINE
  5
11D
330
1F
100
AcDbEntity
  8
0
  6
Continuous
 62
     7
370
    35
100
AcDbSpline
210
0.0
220
0.0
230
1.0
 70
     8
 71
     3
 72
    14
 73
    10
 74
     0
 42
0.000000001
 43
0.00000001
 40
0.0
 40
0.0
 40
0.0
 40
0.0
 40
0.25
 40
0.25
 40
0.5
 40
0.5
 40
0.75
 40
0.75
 40
1.0
 40
1.0
 40
1.0
 40
1.0
 10
808.3070826845349
 20
964.7264567764247
 30
0.0
 10
805.0674310154385
 20
964.6838618969548
 30
0.0
 10
801.9585550033123
 20
964.6103778387179
 30
0.0
 10
796.3303225824194
 20
964.4094664185021
 30
0.0
 10
793.8177524357338
 20
964.2822795312754
 30
0.0
 10
789.6603102878108
 20
963.9879769503862
 30
0.0
 10
788.0199705955013
 20
963.8211803832377
 30
0.0
 10
785.7883796119347
 20
963.4660029937728
 30
0.0
 10
785.1993283932293
 20
963.277987122935
 30
0.0
 10
785.1679557446212
 20
963.0894564148163
 30
0.0
  0
SPLINE
  5
11E
330
1F
100
AcDbEntity
  8
0
  6
Continuous
 62
     7
370
    35
100
AcDbSpline
210
0.0
220
0.0
230
1.0
 70
     8
 71
     3
 72
     8
 73
     4
 74
     0
 42
0.000000001
 43
0.00000001
 40
0.0000000000000194
 40
0.0000000000000194
 40
0.0000000000000194
 40
0.0000000000000194
 40
0.0000564308016788
 40
0.0000564308016788
 40
0.0000564308016788
 40
0.0000564308016788
 10
785.1679557447505
 20
963.0894564148161
 30
0.0
 10
785.1677782961666
 20
963.0883900557847
 30
0.0
 10
785.1707890640631
 20
963.0873149315203
 30
0.0
 10
785.1759514678757
 20
963.0862894723851
 30
0.0
  0
LINE
  5
11F
330
1F
100
AcDbEntity
  8
0
  6
Continuous
 62
     7
370
    35
100
AcDbLine
 10
787.0474142472
 20
958.0850233937
 30
0.0
 11
815.0474142472
 21
958.0850233937
 31
0.0
  0
LINE
  5
120
330
1F
100
AcDbEntity
  8
0
  6
Continuous
 62
     7
370
    35
100
AcDbLine
 10
815.0474142472
 20
958.0850233937
 30
0.0
 11
921.0474142472
 21
958.0850233937
 31
0.0
  0
LINE
  5
121
330
1F
100
AcDbEntity
  8
0
  6
Continuous
 62
     7
370
    35
100
AcDbLine
 10
921.0474142472
 20
958.0850233937
 30
0.0
 11
942.2015705966
 21
958.0850233937
 31
0.0
  0
LINE
  5
122
330
1F
100
AcDbEntity
  8
0
  6
Continuous
 62
     7
370
    35
100
AcDbLine
 10
942.8366205141
 20
958.0850233937
 30
0.0
 11
949.0474142472
 21
958.0850233937
 31
0.0
  0
SPLINE
  5
123
330
1F
100
AcDbEntity
  8
0
  6
Continuous
 62
     7
370
    35
100
AcDbSpline
210
0.0
220
0.0
230
1.0
 70
    24
 71
     3
 72
     9
 73
     5
 74
     0
 42
0.000000001
 43
0.00000001
 40
0.0
 40
0.0
 40
0.0
 40
0.0
 40
0.1857572773134713
 40
1.0
 40
1.0
 40
1.0
 40
1.0
 10
785.1883449791449
 20
963.0836737960946
 30
0.0
 10
785.1892826315391
 20
963.0834759026095
 30
0.0
 10
785.1943303605309
 20
963.0824105689234
 30
0.0
 10
785.1842000221669
 20
963.0845485978724
 30
0.0
 10
785.1759514678755
 20
963.0862894723851
 30
0.0
  0
LINE
  5
124
330
1F
100
AcDbEntity
  8
0
  6
Continuous
 62
     7
370
    35
100
AcDbLine
 10
950.9188770266
 20
963.0862894724
 30
0.0
 11
950.9064653399
 21
963.0836699601
 31
0.0
  0
LINE
  5
125
330
1F
100
AcDbEntity
  8
0
  6
Continuous
 62
     7
370
    35
100
AcDbLine
 10
815.0474142472
 20
961.1350233936
 30
0.0
 11
787.2474142472
 21
961.1350233936
 31
0.0
  0
LINE
  5
126
330
1F
100
AcDbEntity
  8
0
  6
Continuous
 62
     7
370
    35
100
AcDbLine
 10
921.0474142472
 20
961.1350233936
 30
0.0
 11
948.8474142472
 21
961.1350233936
 31
0.0
  0
LINE
  5
127
330
1F
100
AcDbEntity
  8
0
  6
Continuous
 62
     7
370
    35
100
AcDbLine
 10
956.5474142472
 20
931.6350233936
 30
0.0
 11
956.5474142472
 21
951.6350233936
 31
0.0
  0
LINE
  5
128
330
1F
100
AcDbEntity
  8
0
  6
Continuous
 62
     7
370
    35
100
AcDbLine
 10
956.5474142472
 20
911.6350233936
 30
0.0
 11
956.5474142472
 21
931.6350233936
 31
0.0
  0
LINE
  5
129
330
1F
100
AcDbEntity
  8
0
  6
Continuous
 62
     7
370
    35
100
AcDbLine
 10
1001.5474142472
 20
931.6350233936
 30
0.0
 11
1001.5474142472
 21
950.6041224795
 31
0.0
  0
LINE
  5
12A
330
1F
100
AcDbEntity
  8
0
  6
Continuous
 62
     7
370
    35
100
AcDbLine
 10
1001.5474142472
 20
912.6659243077
 30
0.0
 11
1001.5474142472
 21
931.6350233936
 31
0.0
  0
LINE
  5
12B
330
1F
100
AcDbEntity
  8
0
  6
Continuous
 62
     7
370
    35
100
AcDbLine
 10
1490.5474142472
 20
969.0814618932
 30
0.0
 11
1490.5474142472
 21
968.0814618932
 31
0.0
  0
LINE
  5
12C
330
1F
100
AcDbEntity
  8
0
  6
Continuous
 62
     7
370
    35
100
AcDbLine
 10
1490.5474142472
 20
968.0814618932
 30
0.0
 11
1480.5474142472
 21
968.0814618932
 31
0.0
  0
LINE
  5
12D
330
1F
100
AcDbEntity
  8
0
  6
Continuous
 62
     7
370
    35
100
AcDbLine
 10
1480.5474142472
 20
969.0814618932
 30
0.0
 11
1490.5474142472
 21
969.0814618932
 31
0.0
  0
LINE
  5
12E
330
1F
100
AcDbEntity
  8
0
  6
Continuous
 62
     7
370
    35
100
AcDbLine
 10
1480.5474142472
 20
968.0814618932
 30
0.0
 11
1458.0474142472
 21
968.0814618932
 31
0.0
  0
LINE
  5
12F
330
1F
100
AcDbEntity
  8
0
  6
Continuous
 62
     7
370
    35
100
AcDbLine
 10
1480.5474142472
 20
969.0814618932
 30
0.0
 11
1458.0474142472
 21
969.0814618932
 31
0.0
  0
LINE
  5
130
330
1F
100
AcDbEntity
  8
0
  6
Continuous
 62
     7
370
    35
100
AcDbLine
 10
245.5474142472
 20
968.0814618932
 30
0.0
 11
245.5474142472
 21
969.0814618932
 31
0.0
  0
LINE
  5
131
330
1F
100
AcDbEntity
  8
0
  6
Continuous
 62
     7
370
    35
100
AcDbLine
 10
245.5474142472
 20
969.0814618932
 30
0.0
 11
255.5474142472
 21
969.0814618932
 31
0.0
  0
LINE
  5
132
330
1F
100
AcDbEntity
  8
0
  6
Continuous
 62
     7
370
    35
100
AcDbLine
 10
255.5474142472
 20
968.0814618932
 30
0.0
 11
245.5474142472
 21
968.0814618932
 31
0.0
  0
LINE
  5
133
330
1F
100
AcDbEntity
  8
0
  6
Continuous
 62
     7
370
    35
100
AcDbLine
 10
278.0474142472
 20
969.0814618932
 30
0.0
 11
255.5474142472
 21
969.0814618932
 31
0.0
  0
LINE
  5
134
330
1F
100
AcDbEntity
  8
0
  6
Continuous
 62
     7
370
    35
100
AcDbLine
 10
278.0474142472
 20
968.0814618932
 30
0.0
 11
255.5474142472
 21
968.0814618932
 31
0.0
  0
LINE
  5
135
330
1F
100
AcDbEntity
  8
0
  6
Continuous
 62
     7
370
    35
100
AcDbLine
 10
1458.0474142472
 20
980.0814618932
 30
0.0
 11
1458.0474142472
 21
970.0814618932
 31
0.0
  0
ARC
  5
136
330
1F
100
AcDbEntity
  8
0
  6
Continuous
 62
     7
370
    35
100
AcDbCircle
 10
1459.0474142472
 20
980.0814618932
 30
0.0
 40
1.000000000000227
100
AcDbArc
 50
0.0
 51
180.0
  0
LINE
  5
137
330
1F
100
AcDbEntity
  8
0
  6
Continuous
 62
     7
370
    35
100
AcDbLine
 10
1460.0474142472
 20
980.0814618932
 30
0.0
 11
1460.0474142472
 21
969.0814618932
 31
0.0
  0
LINE
  5
138
330
1F
100
AcDbEntity
  8
0
  6
Continuous
 62
     7
370
    35
100
AcDbLine
 10
1460.0474142472
 20
968.0814618932
 30
0.0
 11
1460.0474142472
 21
962.3556024148
 31
0.0
  0
LINE
  5
139
330
1F
100
AcDbEntity
  8
0
  6
Continuous
 62
     7
370
    35
100
AcDbLine
 10
1458.0474142472
 20
966.1474098371
 30
0.0
 11
1458.0474142472
 21
962.3556024148
 31
0.0
  0
LINE
  5
13A
330
1F
100
AcDbEntity
  8
0
  6
Continuous
 62
     7
370
    35
100
AcDbLine
 10
1460.0474142472
 20
962.3556024148
 30
0.0
 11
1460.0474142472
 21
960.5429868407
 31
0.0
  0
LINE
  5
13B
330
1F
100
AcDbEntity
  8
0
  6
Continuous
 62
     7
370
    35
100
AcDbLine
 10
1458.0474142472
 20
960.5429868407
 30
0.0
 11
1458.0474142472
 21
962.3556024148
 31
0.0
  0
LINE
  5
13C
330
1F
100
AcDbEntity
  8
0
  6
Continuous
 62
     7
370
    35
100
AcDbLine
 10
1460.0474142472
 20
960.5429868407
 30
0.0
 11
1460.0474142472
 21
953.2846875561
 31
0.0
  0
LINE
  5
13D
330
1F
100
AcDbEntity
  8
0
  6
Continuous
 62
     7
370
    35
100
AcDbLine
 10
1458.0474142472
 20
960.5429868407
 30
0.0
 11
1458.0474142472
 21
953.2846875561
 31
0.0
  0
LINE
  5
13E
330
1F
100
AcDbEntity
  8
0
  6
Continuous
 62
     7
370
    35
100
AcDbLine
 10
1460.0474142472
 20
953.2846875561
 30
0.0
 11
1460.0474142472
 21
951.472071982
 31
0.0
  0
LINE
  5
13F
330
1F
100
AcDbEntity
  8
0
  6
Continuous
 62
     7
370
    35
100
AcDbLine
 10
1458.0474142472
 20
951.472071982
 30
0.0
 11
1458.0474142472
 21
953.2846875561
 31
0.0
  0
LINE
  5
140
330
1F
100
AcDbEntity
  8
0
  6
Continuous
 62
     7
370
    35
100
AcDbLine
 10
1460.0474142472
 20
951.472071982
 30
0.0
 11
1460.0474142472
 21
917.1814618932
 31
0.0
  0
LINE
  5
141
330
1F
100
AcDbEntity
  8
0
  6
Continuous
 62
     7
370
    35
100
AcDbLine
 10
1458.0474142472
 20
951.472071982
 30
0.0
 11
1458.0474142472
 21
917.1814618932
 31
0.0
  0
LINE
  5
142
330
1F
100
AcDbEntity
  8
0
  6
Continuous
 62
     7
370
    35
100
AcDbLine
 10
1460.0474142472
 20
915.1814618932
 30
0.0
 11
1458.0474142472
 21
915.1814618932
 31
0.0
  0
LINE
  5
143
330
1F
100
AcDbEntity
  8
0
  6
Continuous
 62
     7
370
    35
100
AcDbLine
 10
1460.0474142472
 20
917.1814618932
 30
0.0
 11
1460.0474142472
 21
915.1814618932
 31
0.0
  0
LINE
  5
144
330
1F
100
AcDbEntity
  8
0
  6
Continuous
 62
     7
370
    35
100
AcDbLine
 10
1458.0474142472
 20
915.1814618932
 30
0.0
 11
1458.0474142472
 21
917.1814618932
 31
0.0
  0
LINE
  5
145
330
1F
100
AcDbEntity
  8
0
  6
Continuous
 62
     7
370
    35
100
AcDbLine
 10
276.0474142472
 20
969.0814618932
 30
0.0
 11
276.0474142472
 21
980.0814618932
 31
0.0
  0
ARC
  5
146
330
1F
100
AcDbEntity
  8
0
  6
Continuous
 62
     7
370
    35
100
AcDbCircle
 10
277.0474142472
 20
980.0814618932
 30
0.0
 40
1.000000000000057
100
AcDbArc
 50
0.0
 51
180.0
  0
LINE
  5
147
330
1F
100
AcDbEntity
  8
0
  6
Continuous
 62
     7
370
    35
100
AcDbLine
 10
278.0474142472
 20
970.0814618932
 30
0.0
 11
278.0474142472
 21
980.0814618932
 31
0.0
  0
LINE
  5
148
330
1F
100
AcDbEntity
  8
0
  6
Continuous
 62
     7
370
    35
100
AcDbLine
 10
276.0474142472
 20
962.3556024148
 30
0.0
 11
276.0474142472
 21
968.0814618932
 31
0.0
  0
LINE
  5
149
330
1F
100
AcDbEntity
  8
0
  6
Continuous
 62
     7
370
    35
100
AcDbLine
 10
278.0474142472
 20
962.3556024148
 30
0.0
 11
278.0474142472
 21
966.1474098371
 31
0.0
  0
LINE
  5
14A
330
1F
100
AcDbEntity
  8
0
  6
Continuous
 62
     7
370
    35
100
AcDbLine
 10
276.0474142472
 20
960.5429868407
 30
0.0
 11
276.0474142472
 21
962.3556024148
 31
0.0
  0
LINE
  5
14B
330
1F
100
AcDbEntity
  8
0
  6
Continuous
 62
     7
370
    35
100
AcDbLine
 10
278.0474142472
 20
962.3556024148
 30
0.0
 11
278.0474142472
 21
960.5429868407
 31
0.0
  0
LINE
  5
14C
330
1F
100
AcDbEntity
  8
0
  6
Continuous
 62
     7
370
    35
100
AcDbLine
 10
276.0474142472
 20
953.2846875561
 30
0.0
 11
276.0474142472
 21
960.5429868407
 31
0.0
  0
LINE
  5
14D
330
1F
100
AcDbEntity
  8
0
  6
Continuous
 62
     7
370
    35
100
AcDbLine
 10
278.0474142472
 20
953.2846875561
 30
0.0
 11
278.0474142472
 21
960.5429868407
 31
0.0
  0
LINE
  5
14E
330
1F
100
AcDbEntity
  8
0
  6
Continuous
 62
     7
370
    35
100
AcDbLine
 10
276.0474142472
 20
951.472071982
 30
0.0
 11
276.0474142472
 21
953.2846875561
 31
0.0
  0
LINE
  5
14F
330
1F
100
AcDbEntity
  8
0
  6
Continuous
 62
     7
370
    35
100
AcDbLine
 10
278.0474142472
 20
953.2846875561
 30
0.0
 11
278.0474142472
 21
951.472071982
 31
0.0
  0
LINE
  5
150
330
1F
100
AcDbEntity
  8
0
  6
Continuous
 62
     7
370
    35
100
AcDbLine
 10
276.0474142472
 20
917.1814618932
 30
0.0
 11
276.0474142472
 21
951.472071982
 31
0.0
  0
LINE
  5
151
330
1F
100
AcDbEntity
  8
0
  6
Continuous
 62
     7
370
    35
100
AcDbLine
 10
278.0474142472
 20
917.1814618932
 30
0.0
 11
278.0474142472
 21
951.472071982
 31
0.0
  0
LINE
  5
152
330
1F
100
AcDbEntity
  8
0
  6
Continuous
 62
     7
370
    35
100
AcDbLine
 10
278.0474142472
 20
915.1814618932
 30
0.0
 11
276.0474142472
 21
915.1814618932
 31
0.0
  0
LINE
  5
153
330
1F
100
AcDbEntity
  8
0
  6
Continuous
 62
     7
370
    35
100
AcDbLine
 10
276.0474142472
 20
915.1814618932
 30
0.0
 11
276.0474142472
 21
917.1814618932
 31
0.0
  0
LINE
  5
154
330
1F
100
AcDbEntity
  8
0
  6
Continuous
 62
     7
370
    35
100
AcDbLine
 10
278.0474142472
 20
917.1814618932
 30
0.0
 11
278.0474142472
 21
915.1814618932
 31
0.0
  0
ARC
  5
155
330
1F
100
AcDbEntity
  8
0
  6
Continuous
 62
     8
370
    18
100
AcDbCircle
 10
868.0474142472
 20
931.6350233936
 30
0.0
 40
9.000000000000014
100
AcDbArc
 50
242.7578274734
 51
297.2421725266
  0
LINE
  5
156
330
1F
100
AcDbEntity
  8
0
  6
Continuous
 62
     8
370
    18
100
AcDbLine
 10
872.1671863657
 20
923.6333062222
 30
0.0
 11
877.2024633993
 21
913.8534296793
 31
0.0
  0
LINE
  5
157
330
1F
100
AcDbEntity
  8
0
  6
Continuous
 62
     8
370
    18
100
AcDbLine
 10
863.9276421288
 20
923.6333062222
 30
0.0
 11
858.8923650951
 21
913.8534296793
 31
0.0
  0
SPLINE
  5
158
330
1F
100
AcDbEntity
  8
0
  6
Continuous
 62
     8
370
    18
100
AcDbSpline
210
0.0
220
0.0
230
1.0
 70
     8
 71
     3
 72
    11
 73
     7
 74
     0
 42
0.000000001
 43
0.00000001
 40
0.0
 40
0.0
 40
0.0
 40
0.0
 40
0.2086522750571016
 40
0.4180461498251477
 40
0.7071398446856847
 40
1.0
 40
1.0
 40
1.0
 40
1.0
 10
858.8923650951347
 20
913.8534296792565
 30
0.0
 10
858.3687399927425
 20
914.134406271398
 30
0.0
 10
857.3196287000573
 20
914.6973581131817
 30
0.0
 10
855.6092527428012
 20
915.8124160976328
 30
0.0
 10
853.7630743694264
 20
917.2208693760978
 30
0.0
 10
852.5485577018811
 20
918.4975571632393
 30
0.0
 10
851.9373691346397
 20
919.1400324789674
 30
0.0
  0
LINE
  5
159
330
1F
100
AcDbEntity
  8
0
  6
Continuous
 62
     8
370
    18
100
AcDbLine
 10
851.9373691346
 20
919.140032479
 30
0.0
 11
857.8198102201
 21
927.1141912745
 31
0.0
  0
SPLINE
  5
15A
330
1F
100
AcDbEntity
  8
0
  6
Continuous
 62
     8
370
    18
100
AcDbSpline
210
0.0
220
0.0
230
1.0
 70
     8
 71
     3
 72
     9
 73
     5
 74
     0
 42
0.000000001
 43
0.00000001
 40
0.0
 40
0.0
 40
0.0
 40
0.0
 40
0.4979466281839556
 40
1.0
 40
1.0
 40
1.0
 40
1.0
 10
857.8198102200889
 20
927.1141912745484
 30
0.0
 10
858.803385214657
 20
926.4834237789911
 30
0.0
 10
860.778647097954
 20
925.2166866231283
 30
0.0
 10
862.875107243729
 20
924.1625427220629
 30
0.0
 10
863.9276421287932
 20
923.6333062221537
 30
0.0
  0
SPLINE
  5
15B
330
1F
100
AcDbEntity
  8
0
  6
Continuous
 62
     8
370
    18
100
AcDbSpline
210
0.0
220
0.0
230
1.0
 70
     8
 71
     3
 72
     9
 73
     5
 74
     0
 42
0.000000001
 43
0.00000001
 40
0.0
 40
0.0
 40
0.0
 40
0.0
 40
0.499262191895927
 40
1.0
 40
1.0
 40
1.0
 40
1.0
 10
872.167186365689
 20
923.6333062221537
 30
0.0
 10
873.2138341248859
 20
924.1596388386137
 30
0.0
 10
875.310223108843
 20
925.2138596969188
 30
0.0
 10
877.2857814972174
 20
926.4801245750127
 30
0.0
 10
878.2750182743936
 20
927.1141912745487
 30
0.0
  0
LINE
  5
15C
330
1F
100
AcDbEntity
  8
0
  6
Continuous
 62
     8
370
    18
100
AcDbLine
 10
884.1574593598
 20
919.140032479
 30
0.0
 11
878.2750182744
 21
927.1141912745
 31
0.0
  0
SPLINE
  5
15D
330
1F
100
AcDbEntity
  8
0
  6
Continuous
 62
     8
370
    18
100
AcDbSpline
210
0.0
220
0.0
230
1.0
 70
     8
 71
     3
 72
    10
 73
     6
 74
     0
 42
0.000000001
 43
0.00000001
 40
0.0
 40
0.0
 40
0.0
 40
0.0
 40
0.0076204656895131
 40
0.4952213558631344
 40
1.0
 40
1.0
 40
1.0
 40
1.0
 10
884.1574593598417
 20
919.1400324789691
 30
0.0
 10
884.1421140069245
 20
919.1226054501007
 30
0.0
 10
883.1448853876497
 20
917.9900976459062
 30
0.0
 10
880.9242580523427
 20
915.9670152107809
 30
0.0
 10
878.4572957114838
 20
914.5660416492066
 30
0.0
 10
877.2024633993475
 20
913.8534296792565
 30
0.0
  0
SPLINE
  5
15E
330
1F
100
AcDbEntity
  8
0
  6
Continuous
 62
     8
370
    18
100
AcDbSpline
210
0.0
220
0.0
230
1.0
 70
     8
 71
     3
 72
    20
 73
    16
 74
     0
 42
0.000000001
 43
0.00000001
 40
0.0
 40
0.0
 40
0.0
 40
0.0
 40
0.0991423914481115
 40
0.1909579967922171
 40
0.2834490201131824
 40
0.3743163084071862
 40
0.4461862568119868
 40
0.5184421762495502
 40
0.5908322179839121
 40
0.6638400079808534
 40
0.7368167649629367
 40
0.8091054166526844
 40
0.8751601672161242
 40
0.9411263593187081
 40
1.0
 40
1.0
 40
1.0
 40
1.0
 10
851.9373691346397
 20
919.1400324789674
 30
0.0
 10
851.0425934526241
 20
920.2763609686224
 30
0.0
 10
849.3191674859885
 20
922.4650413999998
 30
0.0
 10
847.6701428838784
 20
926.5178542354445
 30
0.0
 10
846.9708252108277
 20
930.8181426486309
 30
0.0
 10
847.2972826027116
 20
934.8518920101226
 30
0.0
 10
848.3232537363533
 20
938.3518431680312
 30
0.0
 10
849.7773646449428
 20
941.287324175825
 30
0.0
 10
851.6722845785085
 20
943.9022597413259
 30
0.0
 10
853.9475407552497
 20
946.2318494387225
 30
0.0
 10
856.5428236063203
 20
948.2321039347026
 30
0.0
 10
859.3621156018219
 20
949.7967091048415
 30
0.0
 10
862.287567174439
 20
950.8783374156226
 30
0.0
 10
865.1619394342096
 20
951.5192652408772
 30
0.0
 10
867.1227220937125
 20
951.5988540503143
 30
0.0
 10
868.0474142466533
 20
951.6363876072295
 30
0.0
  0
LWPOLYLINE
  5
15F
330
1F
100
AcDbEntity
  8
0
  6
Continuous
 62
     8
370
    18
100
AcDbPolyline
 90
        9
 70
   128
 43
0.0
 10
868.0474142467
 20
951.6363876072
 10
868.048793573
 20
951.3696505012
 10
868.0499797287
 20
950.7062620973
 10
868.0509288587
 20
949.6707495654
 10
868.0516058712
 20
948.3013984582
 10
868.0519857352
 20
946.6488371962
 10
868.0520544062
 20
944.7741652053
 10
868.0518093453
 20
942.7466939144
 10
868.0512596149
 20
940.6413841342
  0
SPLINE
  5
160
330
1F
100
AcDbEntity
  8
0
  6
Continuous
 62
     8
370
    18
100
AcDbSpline
210
0.0
220
0.0
230
1.0
 70
     8
 71
     3
 72
    19
 73
    15
 74
     0
 42
0.000000001
 43
0.00000001
 40
0.0
 40
0.0
 40
0.0
 40
0.0
 40
0.0003400432997567
 40
0.1018635778277049
 40
0.2035434036526506
 40
0.3480218784455774
 40
0.4928620408160624
 40
0.5714933381061476
 40
0.6496296261320141
 40
0.7087399627822193
 40
0.768323858429566
 40
0.8224306267254519
 40
0.892610163227093
 40
1.0
 40
1.0
 40
1.0
 40
1.0
 10
868.0512596148781
 20
940.6413841342376
 30
0.0
 10
868.0486960416641
 20
940.6413863440896
 30
0.0
 10
867.2807504895011
 20
940.6420483286781
 30
0.0
 10
865.742211251515
 20
940.4726113758642
 30
0.0
 10
863.2286804749396
 20
939.6871525036513
 30
0.0
 10
860.6134412545598
 20
938.2869957216878
 30
0.0
 10
858.3880003635483
 20
936.6212538836949
 30
0.0
 10
856.6694308341469
 20
935.1314035475415
 30
0.0
 10
855.6011246054309
 20
933.8833138282341
 30
0.0
 10
854.9341607354388
 20
932.5475629893172
 30
0.0
 10
854.6701814255161
 20
931.234792129871
 30
0.0
 10
855.0528021892968
 20
929.8588517578554
 30
0.0
 10
856.1263880049512
 20
928.4447672826884
 30
0.0
 10
857.181626477086
 20
927.6156326573496
 30
0.0
 10
857.8198102200889
 20
927.1141912745484
 30
0.0
  0
SPLINE
  5
161
330
1F
100
AcDbEntity
  8
0
  6
Continuous
 62
     8
370
    18
100
AcDbSpline
210
0.0
220
0.0
230
1.0
 70
     8
 71
     3
 72
    21
 73
    17
 74
     0
 42
0.000000001
 43
0.00000001
 40
0.0
 40
0.0
 40
0.0
 40
0.0
 40
0.0575996839374351
 40
0.1356930566382784
 40
0.2164055400301527
 40
0.251218565393952
 40
0.3293048865225199
 40
0.4092636364585415
 40
0.4704678040649287
 40
0.526158209535769
 40
0.5829972309833089
 40
0.6699291064424847
 40
0.748717098851696
 40
0.839499710702756
 40
0.918054889609905
 40
1.0
 40
1.0
 40
1.0
 40
1.0
 10
868.0474142466533
 20
951.6363876072295
 30
0.0
 10
868.9523143503167
 20
951.5998940613835
 30
0.0
 10
871.0840736348252
 20
951.5139227427073
 30
0.0
 10
874.3330241558555
 20
950.750764571502
 30
0.0
 10
877.0711562713534
 20
949.6108963183702
 30
0.0
 10
879.6180524147406
 20
948.1520747586026
 30
0.0
 10
881.9521830431875
 20
946.4262360287877
 30
0.0
 10
884.2508470989684
 20
944.0911459797196
 30
0.0
 10
885.992144653163
 20
941.7622594863205
 30
0.0
 10
887.2498045518746
 20
939.4706251604294
 30
0.0
 10
888.3554068411487
 20
936.6209077871489
 30
0.0
 10
889.0311719647964
 20
933.1908838868121
 30
0.0
 10
888.9509814836184
 20
929.1231407877493
 30
0.0
 10
888.0157258047357
 20
925.3379699907714
 30
0.0
 10
886.3668583252612
 20
921.8896064139067
 30
0.0
 10
884.9042231357291
 20
920.0693721979935
 30
0.0
 10
884.1574593598417
 20
919.1400324789691
 30
0.0
  0
SPLINE
  5
162
330
1F
100
AcDbEntity
  8
0
  6
Continuous
 62
     8
370
    18
100
AcDbSpline
210
0.0
220
0.0
230
1.0
 70
     8
 71
     3
 72
    17
 73
    13
 74
     0
 42
0.000000001
 43
0.00000001
 40
0.0
 40
0.0
 40
0.0
 40
0.0
 40
0.0789144527054628
 40
0.1571593044481629
 40
0.2135614770373518
 40
0.2600875689337676
 40
0.3261379151498182
 40
0.4287697285227799
 40
0.5974697941885976
 40
0.766123740051627
 40
0.9416481750856451
 40
1.0
 40
1.0
 40
1.0
 40
1.0
 10
878.2750182743936
 20
927.1141912745487
 30
0.0
 10
878.7475408248466
 20
927.4761368545375
 30
0.0
 10
879.688576501067
 20
928.1969568520028
 30
0.0
 10
880.7649922296226
 20
929.4152571785805
 30
0.0
 10
881.3392809646434
 20
930.6911713250873
 30
0.0
 10
881.3331230038169
 20
931.9929600043502
 30
0.0
 10
880.7544108048779
 20
933.5412075263147
 30
0.0
 10
879.1231757550667
 20
935.5315068628531
 30
0.0
 10
876.536270480318
 20
937.6300504189478
 30
0.0
 10
873.2001359970785
 20
939.5983128209308
 30
0.0
 10
870.2537736420194
 20
940.549841784224
 30
0.0
 10
868.4910555124679
 20
940.6231050452077
 30
0.0
 10
868.0512596148781
 20
940.6413841342376
 30
0.0
  0
SPLINE
  5
163
330
1F
100
AcDbEntity
  8
0
  6
Continuous
 62
     8
370
    18
100
AcDbSpline
210
0.0
220
0.0
230
1.0
 70
     8
 71
     3
 72
    12
 73
     8
 74
     0
 42
0.000000001
 43
0.00000001
 40
0.0
 40
0.0
 40
0.0
 40
0.0
 40
0.000006074466645
 40
0.3341227654086626
 40
0.6739443301613998
 40
0.9999939255333558
 40
1.0
 40
1.0
 40
1.0
 40
1.0
 10
868.047414247241
 20
952.30558780506
 30
0.0
 10
868.047434245059
 20
952.3055877364014
 30
0.0
 10
869.1474034458727
 20
952.3018112068071
 30
0.0
 10
871.3666176837947
 20
952.1909023499228
 30
0.0
 10
874.5858589538863
 20
951.7270516318005
 30
0.0
 10
876.6850066888377
 20
951.2374173409698
 30
0.0
 10
877.6998445376958
 20
950.9460554017684
 30
0.0
 10
877.699863444279
 20
950.9460499736512
 30
0.0
  0
SPLINE
  5
164
330
1F
100
AcDbEntity
  8
0
  6
Continuous
 62
     8
370
    18
100
AcDbSpline
210
0.0
220
0.0
230
1.0
 70
     8
 71
     3
 72
    12
 73
     8
 74
     0
 42
0.000000001
 43
0.00000001
 40
0.0
 40
0.0
 40
0.0
 40
0.0
 40
0.0000045934025293
 40
0.4143885673284369
 40
0.7037780019579071
 40
0.999995349056934
 40
1.0
 40
1.0
 40
1.0
 40
1.0
 10
877.699863444279
 20
950.9460499736512
 30
0.0
 10
877.6998808764074
 20
950.9460421844748
 30
0.0
 10
879.2725004526679
 20
950.2433505310215
 30
0.0
 10
881.7872290140806
 20
948.7690298244571
 30
0.0
 10
884.8239360028011
 20
946.1080197018251
 30
0.0
 10
886.3172645319911
 20
944.3010742235156
 30
0.0
 10
886.990310601884
 20
943.3386035672968
 30
0.0
 10
886.9903211692929
 20
943.3385884556702
 30
0.0
  0
SPLINE
  5
165
330
1F
100
AcDbEntity
  8
0
  6
Continuous
 62
     8
370
    18
100
AcDbSpline
210
0.0
220
0.0
230
1.0
 70
     8
 71
     3
 72
    17
 73
    13
 74
     0
 42
0.000000001
 43
0.00000001
 40
0.0
 40
0.0
 40
0.0
 40
0.0
 40
0.0000021433935779
 40
0.1041532548279333
 40
0.2108142976269821
 40
0.3091075186364256
 40
0.409962723895779
 40
0.5117652441981448
 40
0.6173565118270767
 40
0.7189536236524926
 40
0.823876962357222
 40
1.0
 40
1.0
 40
1.0
 40
1.0
 10
886.9903211692929
 20
943.3385884556702
 30
0.0
 10
886.9903325837555
 20
943.3385738714992
 30
0.0
 10
887.5449920077999
 20
942.6298898014829
 30
0.0
 10
888.5782121482202
 20
941.0952485705128
 30
0.0
 10
889.7783799710819
 20
938.5919012089013
 30
0.0
 10
890.6065789232767
 20
935.9169354572934
 30
0.0
 10
891.0508526434323
 20
933.1591292378731
 30
0.0
 10
891.0852634749258
 20
930.2719215878743
 30
0.0
 10
890.6649954536383
 20
927.4125445013703
 30
0.0
 10
889.8031440193175
 20
924.6789501221361
 30
0.0
 10
888.3106423183275
 20
921.5752171264226
 30
0.0
 10
886.7674979340948
 20
919.7319850959022
 30
0.0
 10
885.8004572627132
 20
918.5768888142327
 30
0.0
  0
ARC
  5
166
330
1F
100
AcDbEntity
  8
0
  6
Continuous
 62
     8
370
    18
100
AcDbCircle
 10
883.8655819415
 20
915.6101331677
 30
0.0
 40
3.541946015257547
100
AcDbArc
 50
56.8881881133
 51
85.2731268278
  0
SPLINE
  5
167
330
1F
100
AcDbEntity
  8
0
  6
Continuous
 62
     8
370
    18
100
AcDbSpline
210
0.0
220
0.0
230
1.0
 70
     8
 71
     3
 72
     9
 73
     5
 74
     0
 42
0.000000001
 43
0.00000001
 40
0.0
 40
0.0
 40
0.0
 40
0.0
 40
0.4770884652791004
 40
1.0
 40
1.0
 40
1.0
 40
1.0
 10
868.0474142466533
 20
951.6363876072295
 30
0.0
 10
868.0474142468986
 20
951.670966577824
 30
0.0
 10
868.0474142474129
 20
951.7434457365353
 30
0.0
 10
868.0474142472999
 20
952.1125689953141
 30
0.0
 10
868.0474142472408
 20
952.3055878050632
 30
0.0
  0
SPLINE
  5
168
330
1F
100
AcDbEntity
  8
0
  6
Continuous
 62
     8
370
    18
100
AcDbSpline
210
0.0
220
0.0
230
1.0
 70
     8
 71
     3
 72
    13
 73
     9
 74
     0
 42
0.000000001
 43
0.00000001
 40
0.0
 40
0.0
 40
0.0
 40
0.0
 40
0.1436817584227078
 40
0.2896128899910153
 40
0.425471137718416
 40
0.5627814455502984
 40
0.778723973587048
 40
1.0
 40
1.0
 40
1.0
 40
1.0
 10
834.4469057196144
 20
923.6114444361208
 30
0.0
 10
834.4659469185792
 20
924.5441700713712
 30
0.0
 10
834.5043274111459
 20
926.4242233903099
 30
0.0
 10
834.5697398781948
 20
929.2789805406467
 30
0.0
 10
834.6189611250637
 20
932.1029651800532
 30
0.0
 10
834.6558005072357
 20
935.380052263434
 30
0.0
 10
834.6299688694176
 20
939.1962862735306
 30
0.0
 10
834.5754702250448
 20
941.904885668189
 30
0.0
 10
834.5478884965271
 20
943.2757060624626
 30
0.0
  0
ARC
  5
169
330
1F
100
AcDbEntity
  8
0
  6
Continuous
 62
     8
370
    18
100
AcDbCircle
 10
834.2214447624
 20
915.5420586309
 30
0.0
 40
8.072534912702164
100
AcDbArc
 50
88.399555844
 51
102.2537357991
  0
SPLINE
  5
16A
330
1F
100
AcDbEntity
  8
0
  6
Continuous
 62
     8
370
    18
100
AcDbSpline
210
0.0
220
0.0
230
1.0
 70
     8
 71
     3
 72
    13
 73
     9
 74
     0
 42
0.000000001
 43
0.00000001
 40
0.0
 40
0.0
 40
0.0
 40
0.0
 40
0.2149368602724791
 40
0.4364871802266575
 40
0.5720189549561245
 40
0.7091058686892351
 40
0.8535021383530074
 40
1.0
 40
1.0
 40
1.0
 40
1.0
 10
832.4909949666078
 20
943.6097863202834
 30
0.0
 10
832.4926484244309
 20
942.250994913331
 30
0.0
 10
832.4960062158398
 20
939.4916030203582
 30
0.0
 10
832.4982242962786
 20
935.5855520973788
 30
0.0
 10
832.5054976509346
 20
932.1751666866705
 30
0.0
 10
832.5086976636608
 20
929.285211847869
 30
0.0
 10
832.5091827427235
 20
926.3387418023707
 30
0.0
 10
832.5084751109058
 20
924.4046909515449
 30
0.0
 10
832.5081187388206
 20
923.4306791600873
 30
0.0
  0
ARC
  5
16B
330
1F
100
AcDbEntity
  8
0
  6
Continuous
 62
     8
370
    18
100
AcDbCircle
 10
834.3738342801
 20
948.7031423505
 30
0.0
 40
5.430226471408251
100
AcDbArc
 50
249.71237279
 51
271.8368074448
  0
ARC
  5
16C
330
1F
100
AcDbEntity
  8
0
  6
Continuous
 62
     8
370
    18
100
AcDbCircle
 10
831.2212156107
 20
928.3219118192
 30
0.0
 40
5.057694789835156
100
AcDbArc
 50
270.052696186
 51
284.7406775986
  0
SPLINE
  5
16D
330
1F
100
AcDbEntity
  8
0
  6
Continuous
 62
     8
370
    18
100
AcDbSpline
210
0.0
220
0.0
230
1.0
 70
     8
 71
     3
 72
    13
 73
     9
 74
     0
 42
0.000000001
 43
0.00000001
 40
0.0
 40
0.0
 40
0.0
 40
0.0
 40
0.2027299767790309
 40
0.41132823968522
 40
0.6140610633746089
 40
0.8226668372537688
 40
0.911099727678664
 40
0.9999999999999999
 40
0.9999999999999999
 40
0.9999999999999999
 40
0.9999999999999999
 10
831.1239229947431
 20
943.8747768333802
 30
0.0
 10
831.1086968669383
 20
942.5726391658449
 30
0.0
 10
831.0778038710098
 20
939.9306717413682
 30
0.0
 10
831.0550409711553
 20
935.662446508268
 30
0.0
 10
831.107809897343
 20
931.2682465847728
 30
0.0
 10
831.1622280357894
 20
927.7295504192947
 30
0.0
 10
831.2027729757217
 20
925.059845732186
 30
0.0
 10
831.2181556662515
 20
923.8638121176836
 30
0.0
 10
831.2258672829394
 20
923.2642191685245
 30
0.0
  0
ARC
  5
16E
330
1F
100
AcDbEntity
  8
0
  6
Continuous
 62
     8
370
    18
100
AcDbCircle
 10
831.1519023103
 20
940.3602995598
 30
0.0
 40
3.514588645696444
100
AcDbArc
 50
67.6037550453
 51
90.456131227
  0
SPLINE
  5
16F
330
1F
100
AcDbEntity
  8
0
  6
Continuous
 62
     8
370
    18
100
AcDbSpline
210
0.0
220
0.0
230
1.0
 70
     8
 71
     3
 72
    13
 73
     9
 74
     0
 42
0.000000001
 43
0.00000001
 40
0.0
 40
0.0
 40
0.0
 40
0.0
 40
0.2149368602724791
 40
0.4364871802266575
 40
0.5720189549561245
 40
0.7091058686892351
 40
0.8535021383530074
 40
1.0
 40
1.0
 40
1.0
 40
1.0
 10
903.6038335278744
 20
943.6097863202834
 30
0.0
 10
903.6021800700513
 20
942.250994913331
 30
0.0
 10
903.5988222786424
 20
939.4916030203582
 30
0.0
 10
903.5966041982035
 20
935.5855520973788
 30
0.0
 10
903.5893308435476
 20
932.1751666866705
 30
0.0
 10
903.5861308308214
 20
929.285211847869
 30
0.0
 10
903.5856457517586
 20
926.3387418023707
 30
0.0
 10
903.5863533835764
 20
924.4046909515449
 30
0.0
 10
903.5867097556616
 20
923.4306791600873
 30
0.0
  0
ARC
  5
170
330
1F
100
AcDbEntity
  8
0
  6
Continuous
 62
     8
370
    18
100
AcDbCircle
 10
901.873383732
 20
915.5420586309
 30
0.0
 40
8.072534912691971
100
AcDbArc
 50
77.7462642009
 51
91.600444156
  0
SPLINE
  5
171
330
1F
100
AcDbEntity
  8
0
  6
Continuous
 62
     8
370
    18
100
AcDbSpline
210
0.0
220
0.0
230
1.0
 70
     8
 71
     3
 72
    13
 73
     9
 74
     0
 42
0.000000001
 43
0.00000001
 40
0.0
 40
0.0
 40
0.0
 40
0.0
 40
0.1436817584227078
 40
0.2896128899910152
 40
0.425471137718416
 40
0.5627814455502984
 40
0.778723973587048
 40
1.0
 40
1.0
 40
1.0
 40
1.0
 10
901.6479227748675
 20
923.6114444361208
 30
0.0
 10
901.6288815759028
 20
924.5441700713712
 30
0.0
 10
901.5905010833363
 20
926.4242233903099
 30
0.0
 10
901.5250886162873
 20
929.2789805406467
 30
0.0
 10
901.4758673694184
 20
932.1029651800532
 30
0.0
 10
901.4390279872465
 20
935.380052263434
 30
0.0
 10
901.4648596250646
 20
939.1962862735306
 30
0.0
 10
901.5193582694374
 20
941.904885668189
 30
0.0
 10
901.5469399979551
 20
943.2757060624626
 30
0.0
  0
ARC
  5
172
330
1F
100
AcDbEntity
  8
0
  6
Continuous
 62
     8
370
    18
100
AcDbCircle
 10
901.7209942144
 20
948.7031423505
 30
0.0
 40
5.430226471408255
100
AcDbArc
 50
268.1631925552
 51
290.28762721
  0
SPLINE
  5
173
330
1F
100
AcDbEntity
  8
0
  6
Continuous
 62
     8
370
    18
100
AcDbSpline
210
0.0
220
0.0
230
1.0
 70
     8
 71
     3
 72
    13
 73
     9
 74
     0
 42
0.000000001
 43
0.00000001
 40
0.0
 40
0.0
 40
0.0
 40
0.0
 40
0.2027299767790309
 40
0.41132823968522
 40
0.6140610633746089
 40
0.8226668372537688
 40
0.911099727678664
 40
0.9999999999999999
 40
0.9999999999999999
 40
0.9999999999999999
 40
0.9999999999999999
 10
904.970905499739
 20
943.8747768333802
 30
0.0
 10
904.9861316275438
 20
942.5726391658449
 30
0.0
 10
905.0170246234724
 20
939.9306717413682
 30
0.0
 10
905.0397875233268
 20
935.662446508268
 30
0.0
 10
904.9870185971391
 20
931.2682465847728
 30
0.0
 10
904.9326004586927
 20
927.7295504192947
 30
0.0
 10
904.8920555187605
 20
925.059845732186
 30
0.0
 10
904.8766728282307
 20
923.8638121176836
 30
0.0
 10
904.8689612115428
 20
923.2642191685245
 30
0.0
  0
ARC
  5
174
330
1F
100
AcDbEntity
  8
0
  6
Continuous
 62
     8
370
    18
100
AcDbCircle
 10
904.8736128838
 20
928.3219118192
 30
0.0
 40
5.057694789836175
100
AcDbArc
 50
255.2593224014
 51
269.947303814
  0
ARC
  5
175
330
1F
100
AcDbEntity
  8
0
  6
Continuous
 62
     8
370
    18
100
AcDbCircle
 10
904.9429261841
 20
940.3602995598
 30
0.0
 40
3.514588645696697
100
AcDbArc
 50
89.543868773
 51
112.3962449547
  0
SPLINE
  5
176
330
1F
100
AcDbEntity
  8
0
  6
Continuous
 62
     8
370
    18
100
AcDbSpline
210
0.0
220
0.0
230
1.0
 70
     8
 71
     3
 72
    12
 73
     8
 74
     0
 42
0.000000001
 43
0.00000001
 40
0.0
 40
0.0
 40
0.0
 40
0.0
 40
0.1139159269059944
 40
0.3258009088085494
 40
0.5443041886655143
 40
0.8274327407183973
 40
1.0
 40
1.0
 40
1.0
 40
1.0
 10
823.574784735531
 20
923.4455616748714
 30
0.0
 10
823.5751566151516
 20
924.1990331586217
 30
0.0
 10
823.5762201952998
 20
926.3539705833919
 30
0.0
 10
823.5825717826543
 20
930.1088775615876
 30
0.0
 10
823.5960818772082
 20
935.0547550757403
 30
0.0
 10
823.597825491839
 20
939.6632509752277
 30
0.0
 10
823.6022423353587
 20
942.5192127607588
 30
0.0
 10
823.6039149480135
 20
943.6007357541321
 30
0.0
  0
ARC
  5
177
330
1F
100
AcDbEntity
  8
0
  6
Continuous
 62
     8
370
    18
100
AcDbCircle
 10
824.9555274747
 20
940.4085993079
 30
0.0
 40
3.46649556662616
100
AcDbArc
 50
89.2238649506
 51
112.9487422267
  0
SPLINE
  5
178
330
1F
100
AcDbEntity
  8
0
  6
Continuous
 62
     8
370
    18
100
AcDbSpline
210
0.0
220
0.0
230
1.0
 70
     8
 71
     3
 72
    13
 73
     9
 74
     0
 42
0.000000001
 43
0.00000001
 40
0.0
 40
0.0
 40
0.0
 40
0.0
 40
0.2029467742027866
 40
0.4117773519856945
 40
0.6147258594307153
 40
0.8235672334127769
 40
0.9115535143092925
 40
0.9999999999999999
 40
0.9999999999999999
 40
0.9999999999999999
 40
0.9999999999999999
 10
824.9341808130266
 20
923.2642191685245
 30
0.0
 10
824.9441404038939
 20
924.6468739171931
 30
0.0
 10
824.9643483326491
 20
927.4522691414027
 30
0.0
 10
825.0042283135525
 20
931.8256691572504
 30
0.0
 10
825.0324101976547
 20
936.2192108908041
 30
0.0
 10
825.0218580014008
 20
939.6581640479955
 30
0.0
 10
825.008743738754
 20
942.1987188048215
 30
0.0
 10
825.0045739223913
 20
943.3151201552341
 30
0.0
 10
825.0024835759642
 20
943.8747768333802
 30
0.0
  0
ARC
  5
179
330
1F
100
AcDbEntity
  8
0
  6
Continuous
 62
     8
370
    18
100
AcDbCircle
 10
824.8951463318
 20
928.1574904554
 30
0.0
 40
4.893426976807467
100
AcDbArc
 50
254.3462356244
 51
270.4570487635
  0
SPLINE
  5
17A
330
1F
100
AcDbEntity
  8
0
  6
Continuous
 62
     8
370
    18
100
AcDbSpline
210
0.0
220
0.0
230
1.0
 70
     8
 71
     3
 72
    13
 73
     9
 74
     0
 42
0.000000001
 43
0.00000001
 40
0.0
 40
0.0
 40
0.0
 40
0.0
 40
0.2029467742027866
 40
0.4117773519856945
 40
0.6147258594307153
 40
0.8235672334127769
 40
0.9115535143092925
 40
0.9999999999999999
 40
0.9999999999999999
 40
0.9999999999999999
 40
0.9999999999999999
 10
911.1606476814555
 20
923.2642191685245
 30
0.0
 10
911.1506880905882
 20
924.6468739171931
 30
0.0
 10
911.130480161833
 20
927.4522691414027
 30
0.0
 10
911.0906001809296
 20
931.8256691572504
 30
0.0
 10
911.0624182968274
 20
936.2192108908041
 30
0.0
 10
911.0729704930814
 20
939.6581640479955
 30
0.0
 10
911.0860847557282
 20
942.1987188048215
 30
0.0
 10
911.0902545720909
 20
943.3151201552341
 30
0.0
 10
911.0923449185179
 20
943.8747768333802
 30
0.0
  0
ARC
  5
17B
330
1F
100
AcDbEntity
  8
0
  6
Continuous
 62
     8
370
    18
100
AcDbCircle
 10
911.1393010198
 20
940.4085993079
 30
0.0
 40
3.46649556662616
100
AcDbArc
 50
67.0512577733
 51
90.7761350494
  0
SPLINE
  5
17C
330
1F
100
AcDbEntity
  8
0
  6
Continuous
 62
     8
370
    18
100
AcDbSpline
210
0.0
220
0.0
230
1.0
 70
     8
 71
     3
 72
    12
 73
     8
 74
     0
 42
0.000000001
 43
0.00000001
 40
0.0
 40
0.0
 40
0.0
 40
0.0
 40
0.1139185701341838
 40
0.3290869588708605
 40
0.5442936150078438
 40
0.827428736584325
 40
1.0
 40
1.0
 40
1.0
 40
1.0
 10
912.5200437589511
 20
923.4455616748714
 30
0.0
 10
912.519675311924
 20
924.1990155423292
 30
0.0
 10
912.5186109454071
 20
926.3755864174647
 30
0.0
 10
912.5120878637241
 20
930.1325355107517
 30
0.0
 10
912.4987685739147
 20
935.0771481902876
 30
0.0
 10
912.4969982316353
 20
939.663278374192
 30
0.0
 10
912.4925848486538
 20
942.5192202865301
 30
0.0
 10
912.4909135464686
 20
943.6007357541321
 30
0.0
  0
ARC
  5
17D
330
1F
100
AcDbEntity
  8
0
  6
Continuous
 62
     8
370
    18
100
AcDbCircle
 10
911.1996821627
 20
928.1574904554
 30
0.0
 40
4.893426976807529
100
AcDbArc
 50
269.5429512365
 51
285.6537643756
  0
SPLINE
  5
17E
330
1F
100
AcDbEntity
  8
0
  6
Continuous
 62
     8
370
    18
100
AcDbSpline
210
0.0
220
0.0
230
1.0
 70
     8
 71
     3
 72
    12
 73
     8
 74
     0
 42
0.000000001
 43
0.00000001
 40
0.0
 40
0.0
 40
0.0
 40
0.0
 40
0.1720163517392766
 40
0.4559765852483131
 40
0.6679924881472422
 40
0.8863162030497851
 40
1.0
 40
1.0
 40
1.0
 40
1.0
 10
914.557743432749
 20
943.2209884396718
 30
0.0
 10
914.5760575367855
 20
942.1732855228549
 30
0.0
 10
914.6246040995746
 20
939.3960611861309
 30
0.0
 10
914.6557234783207
 20
934.9743769208948
 30
0.0
 10
914.5977928606059
 20
930.18563548049
 30
0.0
 10
914.5370633710128
 20
926.5434850914526
 30
0.0
 10
914.5062088920175
 20
924.4121464392348
 30
0.0
 10
914.4956439071907
 20
923.6823476789034
 30
0.0
  0
ARC
  5
17F
330
1F
100
AcDbEntity
  8
0
  6
Continuous
 62
     8
370
    18
100
AcDbCircle
 10
914.3918037734
 20
916.1887240488
 30
0.0
 40
7.494343058818886
100
AcDbArc
 50
89.206095618
 51
104.4630966537
  0
ARC
  5
180
330
1F
100
AcDbEntity
  8
0
  6
Continuous
 62
     8
370
    18
100
AcDbCircle
 10
914.4540804005
 20
948.4711718427
 30
0.0
 40
5.251206698429991
100
AcDbArc
 50
248.0467083646
 51
271.13113812
  0
ARC
  5
181
330
1F
100
AcDbEntity
  8
0
  6
Continuous
 62
     8
370
    18
100
AcDbCircle
 10
821.7030247211
 20
916.1887240497
 30
0.0
 40
7.494343057918915
100
AcDbArc
 50
75.536903345
 51
90.7939043825
  0
SPLINE
  5
182
330
1F
100
AcDbEntity
  8
0
  6
Continuous
 62
     8
370
    18
100
AcDbSpline
210
0.0
220
0.0
230
1.0
 70
     8
 71
     3
 72
    12
 73
     8
 74
     0
 42
0.000000001
 43
0.00000001
 40
0.0
 40
0.0
 40
0.0
 40
0.0
 40
0.1720163517394592
 40
0.4559765852487093
 40
0.6679924881477979
 40
0.886316203050505
 40
1.0
 40
1.0
 40
1.0
 40
1.0
 10
821.5370850617331
 20
943.2209884396727
 30
0.0
 10
821.5187709576967
 20
942.1732855228556
 30
0.0
 10
821.4702243949075
 20
939.3960611861312
 30
0.0
 10
821.4391050161614
 20
934.9743769208948
 30
0.0
 10
821.4970356338763
 20
930.1856354804899
 30
0.0
 10
821.5577651234693
 20
926.5434850914579
 30
0.0
 10
821.5886196024646
 20
924.4121464392451
 30
0.0
 10
821.5991845872913
 20
923.6823476789189
 30
0.0
  0
ARC
  5
183
330
1F
100
AcDbEntity
  8
0
  6
Continuous
 62
     8
370
    18
100
AcDbCircle
 10
821.640748094
 20
948.4711718427
 30
0.0
 40
5.251206698457208
100
AcDbArc
 50
268.86886188
 51
291.9532916353
  0
SPLINE
  5
184
330
1F
100
AcDbEntity
  8
0
  6
Continuous
 62
     8
370
    18
100
AcDbSpline
210
0.0
220
0.0
230
1.0
 70
     8
 71
     3
 72
    18
 73
    14
 74
     0
 42
0.000000001
 43
0.00000001
 40
0.0
 40
0.0
 40
0.0
 40
0.0
 40
0.1170843799009933
 40
0.2372819249028628
 40
0.33007470220776
 40
0.4254586925014793
 40
0.4734360164953278
 40
0.5731168771933322
 40
0.6761579172513447
 40
0.7772864519268955
 40
0.881133213239925
 40
0.9999978571948126
 40
1.0
 40
1.0
 40
1.0
 40
1.0
 10
850.2943712317688
 20
918.5768888142326
 30
0.0
 10
849.6421471439982
 20
919.3280195563028
 30
0.0
 10
848.3203569347055
 20
920.8502529104262
 30
0.0
 10
846.859148360731
 20
923.3908966365618
 30
0.0
 10
845.8293260398802
 20
925.9939496649391
 30
0.0
 10
845.3213811825589
 20
928.1257175611612
 30
0.0
 10
845.0396346295644
 20
930.370422104127
 30
0.0
 10
845.0099599227749
 20
932.7216603939936
 30
0.0
 10
845.3974748288731
 20
935.5213626299313
 30
0.0
 10
846.1811632520007
 20
938.2387300801086
 30
0.0
 10
847.3922168967002
 20
940.8919237783858
 30
0.0
 10
848.4713069898413
 20
942.5295532670239
 30
0.0
 10
849.1044959107267
 20
943.3385738714992
 30
0.0
 10
849.1045073251893
 20
943.3385884556702
 30
0.0
  0
SPLINE
  5
185
330
1F
100
AcDbEntity
  8
0
  6
Continuous
 62
     8
370
    18
100
AcDbSpline
210
0.0
220
0.0
230
1.0
 70
     8
 71
     3
 72
    12
 73
     8
 74
     0
 42
0.000000001
 43
0.00000001
 40
0.0
 40
0.0
 40
0.0
 40
0.0
 40
0.0000046503675272
 40
0.371397884343038
 40
0.6812676171491646
 40
0.9999954071658927
 40
1.0
 40
1.0
 40
1.0
 40
1.0
 10
849.1045073251893
 20
943.3385884556702
 30
0.0
 10
849.1045178925982
 20
943.3386035672968
 30
0.0
 10
849.9484755472528
 20
944.5454815414164
 30
0.0
 10
851.7356123016506
 20
946.6200955294657
 30
0.0
 10
854.9084969584553
 20
949.1479272365913
 30
0.0
 10
857.1851970084979
 20
950.4054908182302
 30
0.0
 10
858.3949476180746
 20
950.9460421844748
 30
0.0
 10
858.3949650502032
 20
950.9460499736512
 30
0.0
  0
SPLINE
  5
186
330
1F
100
AcDbEntity
  8
0
  6
Continuous
 62
     8
370
    18
100
AcDbSpline
210
0.0
220
0.0
230
1.0
 70
     8
 71
     3
 72
    13
 73
     9
 74
     0
 42
0.000000001
 43
0.00000001
 40
0.0
 40
0.0
 40
0.0
 40
0.0
 40
0.0000060748835873
 40
0.0389961893340878
 40
0.4427059282785942
 40
0.8520774557676244
 40
0.9999939251164126
 40
1.0
 40
1.0
 40
1.0
 40
1.0
 10
858.3949650502032
 20
950.9460499736512
 30
0.0
 10
858.3949839567862
 20
950.9460554017693
 30
0.0
 10
858.5163500169883
 20
950.9808998422109
 30
0.0
 10
859.8967132057245
 20
951.3669191343913
 30
0.0
 10
862.5942280609693
 20
951.9391672927749
 30
0.0
 10
865.7261421101117
 20
952.2602603060702
 30
0.0
 10
867.5604502495014
 20
952.3039159072335
 30
0.0
 10
868.0473942494231
 20
952.3055877364013
 30
0.0
 10
868.047414247241
 20
952.30558780506
 30
0.0
  0
ARC
  5
187
330
1F
100
AcDbEntity
  8
0
  6
Continuous
 62
     8
370
    18
100
AcDbCircle
 10
852.229246553
 20
915.6101331677
 30
0.0
 40
3.541946015256218
100
AcDbArc
 50
94.7268731721
 51
123.1118118867
  0
LINE
  5
188
330
1F
100
AcDbEntity
  8
0
  6
Continuous
 62
     8
370
    18
100
AcDbLine
 10
831.1239229947
 20
943.8747768334
 30
0.0
 11
825.002483576
 21
943.8747768334
 31
0.0
  0
LINE
  5
189
330
1F
100
AcDbEntity
  8
0
  6
Continuous
 62
     8
370
    18
100
AcDbLine
 10
831.2258672829
 20
923.2642191685
 30
0.0
 11
824.934180813
 21
923.2642191685
 31
0.0
  0
LINE
  5
18A
330
1F
100
AcDbEntity
  8
0
  6
Continuous
 62
     8
370
    18
100
AcDbLine
 10
904.9709054997
 20
943.8747768334
 30
0.0
 11
911.0923449185
 21
943.8747768334
 31
0.0
  0
LINE
  5
18B
330
1F
100
AcDbEntity
  8
0
  6
Continuous
 62
     8
370
    18
100
AcDbLine
 10
904.8689612115
 20
923.2642191685
 30
0.0
 11
911.1606476815
 21
923.2642191685
 31
0.0
  0
SPLINE
  5
18C
330
1F
100
AcDbEntity
  8
0
  6
Continuous
 62
     8
370
    18
100
AcDbSpline
210
0.0
220
0.0
230
1.0
 70
     8
 71
     3
 72
    11
 73
     7
 74
     0
 42
0.000000001
 43
0.00000001
 40
0.0
 40
0.0
 40
0.0
 40
0.0
 40
0.2462626445433219
 40
0.4941955352616852
 40
0.7464627646446226
 40
1.0
 40
1.0
 40
1.0
 40
1.0
 10
833.9933880860968
 20
918.6346381047181
 30
0.0
 10
834.0634572815543
 20
919.0178876195631
 30
0.0
 10
834.2040709081915
 20
919.7869859920705
 30
0.0
 10
834.3262803995964
 20
921.0134229589676
 30
0.0
 10
834.4119826876808
 20
922.2864640174695
 30
0.0
 10
834.4352452392725
 20
923.1690456159278
 30
0.0
 10
834.4469057196144
 20
923.6114444361208
 30
0.0
  0
SPLINE
  5
18D
330
1F
100
AcDbEntity
  8
0
  6
Continuous
 62
     8
370
    18
100
AcDbSpline
210
0.0
220
0.0
230
1.0
 70
     8
 71
     3
 72
    12
 73
     8
 74
     0
 42
0.000000001
 43
0.00000001
 40
0.0
 40
0.0
 40
0.0
 40
0.0
 40
0.1229311840443857
 40
0.3421870394857947
 40
0.5614466570298368
 40
0.7807202463634095
 40
0.9999999999999999
 40
0.9999999999999999
 40
0.9999999999999999
 40
0.9999999999999999
 10
834.5478884965271
 20
943.2757060624626
 30
0.0
 10
834.5464177507454
 20
943.3876022090595
 30
0.0
 10
834.5423238330892
 20
943.6990724957203
 30
0.0
 10
834.5360844448335
 20
944.2090475452441
 30
0.0
 10
834.5282251558152
 20
944.8053416740889
 30
0.0
 10
834.5203756343133
 20
945.4002768582885
 30
0.0
 10
834.5153141842763
 20
945.7954599284209
 30
0.0
 10
834.5127834236861
 20
945.9930542408325
 30
0.0
  0
SPLINE
  5
18E
330
1F
100
AcDbEntity
  8
0
  6
Continuous
 62
     8
370
    18
100
AcDbSpline
210
0.0
220
0.0
230
1.0
 70
     8
 71
     3
 72
    13
 73
     9
 74
     0
 42
0.000000001
 43
0.00000001
 40
0.0
 40
0.0
 40
0.0
 40
0.0
 40
0.2367907207557277
 40
0.4727251677986177
 40
0.6779786081237317
 40
0.8068813697292122
 40
0.9029811039670017
 40
0.9999999999999999
 40
0.9999999999999999
 40
0.9999999999999999
 40
0.9999999999999999
 10
834.5127834236861
 20
945.9930542408325
 30
0.0
 10
834.4963022875347
 20
946.4774785407213
 30
0.0
 10
834.4633996136977
 20
947.4445753835358
 30
0.0
 10
834.1773629570387
 20
948.7957437326469
 30
0.0
 10
833.666504962238
 20
949.8662320163991
 30
0.0
 10
832.9859981193908
 20
950.5052215367733
 30
0.0
 10
832.3203749138285
 20
950.8250779517
 30
0.0
 10
831.8705271897418
 20
950.8643474222151
 30
0.0
 10
831.6445327866505
 20
950.8840756103856
 30
0.0
  0
SPLINE
  5
18F
330
1F
100
AcDbEntity
  8
0
  6
Continuous
 62
     8
370
    18
100
AcDbSpline
210
0.0
220
0.0
230
1.0
 70
     8
 71
     3
 72
    11
 73
     7
 74
     0
 42
0.000000001
 43
0.00000001
 40
0.0
 40
0.0
 40
0.0
 40
0.0
 40
0.2499912677933776
 40
0.499986756231606
 40
0.749992678491824
 40
0.9999999999999999
 40
0.9999999999999999
 40
0.9999999999999999
 40
0.9999999999999999
 10
831.6445327866505
 20
950.8840756103856
 30
0.0
 10
831.0520427292277
 20
950.8895734653131
 30
0.0
 10
829.8670526112721
 20
950.9005692679892
 30
0.0
 10
828.0896945989681
 20
950.9219262577215
 30
0.0
 10
826.3125030397858
 20
950.9487991773019
 30
0.0
 10
825.127734599037
 20
950.9657491080416
 30
0.0
 10
824.5353487209217
 20
950.974224097128
 30
0.0
  0
SPLINE
  5
190
330
1F
100
AcDbEntity
  8
0
  6
Continuous
 62
     8
370
    18
100
AcDbSpline
210
0.0
220
0.0
230
1.0
 70
     8
 71
     3
 72
    10
 73
     6
 74
     0
 42
0.000000001
 43
0.00000001
 40
0.0
 40
0.0
 40
0.0
 40
0.0
 40
0.4993573099105828
 40
0.9998128115878191
 40
0.9999999999999999
 40
0.9999999999999999
 40
0.9999999999999999
 40
0.9999999999999999
 10
824.5353487209217
 20
950.974224097128
 30
0.0
 10
824.4819917167252
 20
950.9741474770277
 30
0.0
 10
824.3751603650562
 20
950.9739940683233
 30
0.0
 10
824.268407339754
 20
950.968379326806
 30
0.0
 10
824.2150714652562
 20
950.9646143419365
 30
0.0
 10
824.215051523174
 20
950.9646129342229
 30
0.0
  0
SPLINE
  5
191
330
1F
100
AcDbEntity
  8
0
  6
Continuous
 62
     8
370
    18
100
AcDbSpline
210
0.0
220
0.0
230
1.0
 70
     8
 71
     3
 72
    14
 73
    10
 74
     0
 42
0.000000001
 43
0.00000001
 40
0.0
 40
0.0
 40
0.0
 40
0.0
 40
0.0000086772972158
 40
0.0546554576672726
 40
0.1545956188497724
 40
0.2815115513695412
 40
0.475779184152882
 40
0.7372214479202454
 40
0.9999999999999999
 40
0.9999999999999999
 40
0.9999999999999999
 40
0.9999999999999999
 10
824.215051523174
 20
950.9646129342229
 30
0.0
 10
824.2150316802866
 20
950.9646108133895
 30
0.0
 10
824.0900478217306
 20
950.9512523780112
 30
0.0
 10
823.7395909174766
 20
950.8868511737206
 30
0.0
 10
823.1493767665908
 20
950.6308649884899
 30
0.0
 10
822.4673731354394
 20
950.0149283848325
 30
0.0
 10
821.9166462196876
 20
948.9392543385579
 30
0.0
 10
821.6092095620918
 20
947.5184383141202
 30
0.0
 10
821.579207788718
 20
946.4594246526494
 30
0.0
 10
821.5641686633559
 20
945.9285680590513
 30
0.0
  0
SPLINE
  5
192
330
1F
100
AcDbEntity
  8
0
  6
Continuous
 62
     8
370
    18
100
AcDbSpline
210
0.0
220
0.0
230
1.0
 70
     8
 71
     3
 72
    10
 73
     6
 74
     0
 42
0.000000001
 43
0.00000001
 40
0.0
 40
0.0
 40
0.0
 40
0.0
 40
0.4999712442950899
 40
0.7499826264318651
 40
1.0
 40
1.0
 40
1.0
 40
1.0
 10
821.5641686633559
 20
945.9285680590513
 30
0.0
 10
821.5596656248742
 20
945.4791261023051
 30
0.0
 10
821.5529108351421
 20
944.8049400106144
 30
0.0
 10
821.5437363455125
 20
943.9009639477672
 30
0.0
 10
821.5393021740366
 20
943.4476487529381
 30
0.0
 10
821.5370850617331
 20
943.2209884396727
 30
0.0
  0
SPLINE
  5
193
330
1F
100
AcDbEntity
  8
0
  6
Continuous
 62
     8
370
    18
100
AcDbSpline
210
0.0
220
0.0
230
1.0
 70
     8
 71
     3
 72
    11
 73
     7
 74
     0
 42
0.000000001
 43
0.00000001
 40
0.0
 40
0.0
 40
0.0
 40
0.0
 40
0.2471593440128845
 40
0.495347434190765
 40
0.746978390568939
 40
1.0
 40
1.0
 40
1.0
 40
1.0
 10
821.5991845872913
 20
923.6823476789189
 30
0.0
 10
821.6081995184786
 20
923.2449337128884
 30
0.0
 10
821.6262669035126
 20
922.368285141831
 30
0.0
 10
821.6988149084273
 20
921.0862229340187
 30
0.0
 10
821.8056171919108
 20
919.8267471809942
 30
0.0
 10
821.9355699328396
 20
919.0240370804853
 30
0.0
 10
822.0007253563678
 20
918.6215760304526
 30
0.0
  0
SPLINE
  5
194
330
1F
100
AcDbEntity
  8
0
  6
Continuous
 62
     8
370
    18
100
AcDbSpline
210
0.0
220
0.0
230
1.0
 70
     8
 71
     3
 72
    18
 73
    14
 74
     0
 42
0.000000001
 43
0.00000001
 40
0.0
 40
0.0
 40
0.0
 40
0.0
 40
0.0523730000254506
 40
0.1524774488988087
 40
0.2527454654215873
 40
0.3528294914886486
 40
0.4529446917616016
 40
0.5565696869728504
 40
0.6602042581553615
 40
0.7756279704749326
 40
0.8910143299899644
 40
0.9999989407468236
 40
1.0
 40
1.0
 40
1.0
 40
1.0
 10
822.0007253563675
 20
918.6215760304526
 30
0.0
 10
821.0120968259539
 20
918.6269984325659
 30
0.0
 10
818.1338283259099
 20
918.6427850791342
 30
0.0
 10
813.3704515836603
 20
918.5191867792728
 30
0.0
 10
807.9351948484957
 20
918.2533911809359
 30
0.0
 10
802.8279432308005
 20
918.1681459284858
 30
0.0
 10
798.113480042043
 20
918.067072573167
 30
0.0
 10
793.9064005687824
 20
917.982234197895
 30
0.0
 10
790.1615823646252
 20
917.9045371132718
 30
0.0
 10
787.1248446033427
 20
917.8504751785574
 30
0.0
 10
785.0289454051685
 20
917.80519559384
 30
0.0
 10
784.3649052592106
 20
917.7644612149551
 30
0.0
 10
784.2165775007339
 20
917.7471694582957
 30
0.0
 10
784.2165760591073
 20
917.7471692902337
 30
0.0
  0
SPLINE
  5
195
330
1F
100
AcDbEntity
  8
0
  6
Continuous
 62
     8
370
    18
100
AcDbSpline
210
0.0
220
0.0
230
1.0
 70
    24
 71
     3
 72
    13
 73
     9
 74
     0
 42
0.000000001
 43
0.00000001
 40
0.0
 40
0.0
 40
0.0
 40
0.0
 40
0.011033813517655
 40
0.1238791831256936
 40
0.2424431658814009
 40
0.3676203809258454
 40
0.4940963046860045
 40
1.0
 40
1.0
 40
1.0
 40
1.0
 10
868.047414247241
 20
952.3055878050698
 30
0.0
 10
868.047414247241
 20
952.3205639433068
 30
0.0
 10
868.047414247241
 20
952.4887045202904
 30
0.0
 10
868.047414247241
 20
952.7911087587273
 30
0.0
 10
868.047414247241
 20
953.1177158228418
 30
0.0
 10
868.047414247241
 20
953.9934349107381
 30
0.0
 10
868.047414247241
 20
955.6004942246705
 30
0.0
 10
868.047414247241
 20
956.9807882073511
 30
0.0
 10
868.047414247241
 20
958.085023393615
 30
0.0
  0
SPLINE
  5
196
330
1F
100
AcDbEntity
  8
0
  6
Continuous
 62
     8
370
    18
100
AcDbSpline
210
0.0
220
0.0
230
1.0
 70
     8
 71
     3
 72
    10
 73
     6
 74
     0
 42
0.000000001
 43
0.00000001
 40
0.0
 40
0.0
 40
0.0
 40
0.0
 40
0.1324174185454049
 40
0.566189053550618
 40
1.0
 40
1.0
 40
1.0
 40
1.0
 10
850.2943712317688
 20
918.5768888142326
 30
0.0
 10
849.574919302194
 20
918.5784990023931
 30
0.0
 10
846.4986940475733
 20
918.5853838285788
 30
0.0
 10
841.0650899716361
 20
918.6093721166019
 30
0.0
 10
836.3506932533622
 20
918.6262158542746
 30
0.0
 10
833.9933880860968
 20
918.6346381047181
 30
0.0
  0
SPLINE
  5
197
330
1F
100
AcDbEntity
  8
0
  6
Continuous
 62
     8
370
    18
100
AcDbSpline
210
0.0
220
0.0
230
1.0
 70
     8
 71
     3
 72
    13
 73
     9
 74
     0
 42
0.000000001
 43
0.00000001
 40
0.0
 40
0.0
 40
0.0
 40
0.0
 40
0.0000053737334978
 40
0.0906707942514915
 40
0.428417950533722
 40
0.7661993120302162
 40
0.9999947023277419
 40
1.0
 40
1.0
 40
1.0
 40
1.0
 10
950.243612523911
 20
942.245875750387
 30
0.0
 10
950.243610247527
 20
942.2458928855057
 30
0.0
 10
950.2052009107915
 20
942.5350130703209
 30
0.0
 10
950.0381419169942
 20
943.8858826455744
 30
0.0
 10
949.89667701453
 20
946.1666226652435
 30
0.0
 10
950.0004985954034
 20
948.5339785327312
 30
0.0
 10
950.1885042674282
 20
949.7948446973396
 30
0.0
 10
950.2752241839586
 20
950.2670708330305
 30
0.0
 10
950.2752261489387
 20
950.2670815331669
 30
0.0
  0
SPLINE
  5
198
330
1F
100
AcDbEntity
  8
0
  6
Continuous
 62
     8
370
    18
100
AcDbSpline
210
0.0
220
0.0
230
1.0
 70
     8
 71
     3
 72
    16
 73
    12
 74
     0
 42
0.000000001
 43
0.00000001
 40
0.0
 40
0.0
 40
0.0
 40
0.0
 40
0.1394094534900458
 40
0.2827549548329892
 40
0.4174662298324164
 40
0.5565082610192974
 40
0.6798003195682379
 40
0.8081263295826786
 40
0.903292353507241
 40
0.9999977543174701
 40
1.0
 40
1.0
 40
1.0
 40
1.0
 10
947.0501402205725
 20
917.8841372901576
 30
0.0
 10
947.3318930463378
 20
918.8163840302003
 30
0.0
 10
947.9033536290234
 20
920.7071983062408
 30
0.0
 10
948.832039061405
 20
923.9267642843807
 30
0.0
 10
949.6957749106832
 20
927.3692445590203
 30
0.0
 10
950.3506313656136
 20
930.8337968346721
 30
0.0
 10
950.7125863316088
 20
934.3129478044408
 30
0.0
 10
950.7018334186298
 20
937.3485961276912
 30
0.0
 10
950.5033606497129
 20
940.0088356617496
 30
0.0
 10
950.331960316213
 20
941.5136831601521
 30
0.0
 10
950.2436145754186
 20
942.2458587482782
 30
0.0
 10
950.243612523911
 20
942.245875750387
 30
0.0
  0
SPLINE
  5
199
330
1F
100
AcDbEntity
  8
0
  6
Continuous
 62
     8
370
    18
100
AcDbSpline
210
0.0
220
0.0
230
1.0
 70
     8
 71
     3
 72
    15
 73
    11
 74
     0
 42
0.000000001
 43
0.00000001
 40
0.0
 40
0.0
 40
0.0
 40
0.0
 40
0.0741043092108414
 40
0.2157454416471949
 40
0.3576180114207959
 40
0.4992302469455339
 40
0.6408865918967264
 40
0.7875090630818132
 40
0.9341450836288823
 40
1.0
 40
1.0
 40
1.0
 40
1.0
 10
914.0941031381153
 20
918.621576030453
 30
0.0
 10
915.0827325528729
 20
918.626998442407
 30
0.0
 10
917.9610036275744
 20
918.6427851176257
 30
0.0
 10
922.7243473626422
 20
918.5191864504616
 30
0.0
 10
928.159742249988
 20
918.2533923894779
 30
0.0
 10
933.2664812210382
 20
918.1681414323115
 30
0.0
 10
937.9828791922508
 20
918.0670896071936
 30
0.0
 10
942.1824915591781
 20
917.9821681381873
 30
0.0
 10
945.1508432693553
 20
917.9213114905732
 30
0.0
 10
946.6007782472999
 20
917.8929324772625
 30
0.0
 10
947.0501402205725
 20
917.8841372901576
 30
0.0
  0
SPLINE
  5
19A
330
1F
100
AcDbEntity
  8
0
  6
Continuous
 62
     8
370
    18
100
AcDbSpline
210
0.0
220
0.0
230
1.0
 70
     8
 71
     3
 72
    11
 73
     7
 74
     0
 42
0.000000001
 43
0.00000001
 40
0.0
 40
0.0
 40
0.0
 40
0.0
 40
0.2471593440107341
 40
0.4953474341893469
 40
0.7469783905682629
 40
1.0
 40
1.0
 40
1.0
 40
1.0
 10
914.4956439071907
 20
923.6823476789034
 30
0.0
 10
914.4866289760034
 20
923.2449337128782
 30
0.0
 10
914.4685615909692
 20
922.368285141826
 30
0.0
 10
914.3960135860549
 20
921.0862229340187
 30
0.0
 10
914.2892113025712
 20
919.8267471809942
 30
0.0
 10
914.159258561643
 20
919.0240370804855
 30
0.0
 10
914.0941031381153
 20
918.621576030453
 30
0.0
  0
SPLINE
  5
19B
330
1F
100
AcDbEntity
  8
0
  6
Continuous
 62
     8
370
    18
100
AcDbSpline
210
0.0
220
0.0
230
1.0
 70
     8
 71
     3
 72
    10
 73
     6
 74
     0
 42
0.000000001
 43
0.00000001
 40
0.0
 40
0.0
 40
0.0
 40
0.0
 40
0.4999712442949162
 40
0.7499826264316035
 40
1.0
 40
1.0
 40
1.0
 40
1.0
 10
914.5306598311265
 20
945.9285680590513
 30
0.0
 10
914.5351628696079
 20
945.4791261023051
 30
0.0
 10
914.54191765934
 20
944.8049400106144
 30
0.0
 10
914.5510921489697
 20
943.9009639477667
 30
0.0
 10
914.5555263204456
 20
943.4476487529374
 30
0.0
 10
914.557743432749
 20
943.2209884396718
 30
0.0
  0
SPLINE
  5
19C
330
1F
100
AcDbEntity
  8
0
  6
Continuous
 62
     8
370
    18
100
AcDbSpline
210
0.0
220
0.0
230
1.0
 70
     8
 71
     3
 72
    14
 73
    10
 74
     0
 42
0.000000001
 43
0.00000001
 40
0.0
 40
0.0
 40
0.0
 40
0.0
 40
0.0000086772971397
 40
0.0546554576672007
 40
0.1545956188497082
 40
0.2815115513694868
 40
0.4757791841528425
 40
0.737221447920226
 40
1.0
 40
1.0
 40
1.0
 40
1.0
 10
911.8797769713087
 20
950.9646129342228
 30
0.0
 10
911.8797968141959
 20
950.9646108133895
 30
0.0
 10
912.0047806727488
 20
950.9512523779447
 30
0.0
 10
912.355237577008
 20
950.8868511737779
 30
0.0
 10
912.9454517278904
 20
950.6308649884655
 30
0.0
 10
913.6274553590432
 20
950.0149283848439
 30
0.0
 10
914.1781822747945
 20
948.939254338553
 30
0.0
 10
914.4856189323905
 20
947.5184383141217
 30
0.0
 10
914.5156207057641
 20
946.45942465265
 30
0.0
 10
914.5306598311265
 20
945.9285680590513
 30
0.0
  0
SPLINE
  5
19D
330
1F
100
AcDbEntity
  8
0
  6
Continuous
 62
     8
370
    18
100
AcDbSpline
210
0.0
220
0.0
230
1.0
 70
     8
 71
     3
 72
    10
 73
     6
 74
     0
 42
0.000000001
 43
0.00000001
 40
0.0
 40
0.0
 40
0.0
 40
0.0
 40
0.4993573099097663
 40
0.9998128115861746
 40
0.9999999999999999
 40
0.9999999999999999
 40
0.9999999999999999
 40
0.9999999999999999
 10
911.5594797735605
 20
950.974224097128
 30
0.0
 10
911.6128367777563
 20
950.9741474770287
 30
0.0
 10
911.7196681294242
 20
950.9739940683269
 30
0.0
 10
911.8264211547322
 20
950.9683793267973
 30
0.0
 10
911.8797570292264
 20
950.9646143419365
 30
0.0
 10
911.8797769713087
 20
950.9646129342228
 30
0.0
  0
SPLINE
  5
19E
330
1F
100
AcDbEntity
  8
0
  6
Continuous
 62
     8
370
    18
100
AcDbSpline
210
0.0
220
0.0
230
1.0
 70
     8
 71
     3
 72
    11
 73
     7
 74
     0
 42
0.000000001
 43
0.00000001
 40
0.0
 40
0.0
 40
0.0
 40
0.0
 40
0.2499912677933776
 40
0.499986756231606
 40
0.749992678491824
 40
0.9999999999999999
 40
0.9999999999999999
 40
0.9999999999999999
 40
0.9999999999999999
 10
904.4502957078316
 20
950.8840756103856
 30
0.0
 10
905.0427857652545
 20
950.8895734653131
 30
0.0
 10
906.22777588321
 20
950.9005692679892
 30
0.0
 10
908.0051338955141
 20
950.9219262577215
 30
0.0
 10
909.7823254546963
 20
950.9487991773019
 30
0.0
 10
910.9670938954451
 20
950.9657491080416
 30
0.0
 10
911.5594797735605
 20
950.974224097128
 30
0.0
  0
SPLINE
  5
19F
330
1F
100
AcDbEntity
  8
0
  6
Continuous
 62
     8
370
    18
100
AcDbSpline
210
0.0
220
0.0
230
1.0
 70
     8
 71
     3
 72
    13
 73
     9
 74
     0
 42
0.000000001
 43
0.00000001
 40
0.0
 40
0.0
 40
0.0
 40
0.0
 40
0.2367907207557302
 40
0.4727251677986195
 40
0.6779786081237328
 40
0.8068813697292129
 40
0.902981103967002
 40
1.0
 40
1.0
 40
1.0
 40
1.0
 10
901.582045070796
 20
945.9930542408325
 30
0.0
 10
901.5985262069473
 20
946.4774785407213
 30
0.0
 10
901.6314288807845
 20
947.4445753835358
 30
0.0
 10
901.9174655374435
 20
948.7957437326469
 30
0.0
 10
902.4283235322441
 20
949.8662320163991
 30
0.0
 10
903.1088303750913
 20
950.5052215367733
 30
0.0
 10
903.7744535806537
 20
950.8250779517
 30
0.0
 10
904.2243013047404
 20
950.8643474222151
 30
0.0
 10
904.4502957078316
 20
950.8840756103856
 30
0.0
  0
SPLINE
  5
1A0
330
1F
100
AcDbEntity
  8
0
  6
Continuous
 62
     8
370
    18
100
AcDbSpline
210
0.0
220
0.0
230
1.0
 70
     8
 71
     3
 72
    12
 73
     8
 74
     0
 42
0.000000001
 43
0.00000001
 40
0.0
 40
0.0
 40
0.0
 40
0.0
 40
0.1229311840443852
 40
0.3421870394857955
 40
0.5614466570298391
 40
0.7807202463634133
 40
1.0
 40
1.0
 40
1.0
 40
1.0
 10
901.5469399979551
 20
943.2757060624626
 30
0.0
 10
901.5484107437368
 20
943.3876022090595
 30
0.0
 10
901.552504661393
 20
943.6990724957203
 30
0.0
 10
901.5587440496487
 20
944.2090475452441
 30
0.0
 10
901.5666033386669
 20
944.8053416740889
 30
0.0
 10
901.5744528601689
 20
945.4002768582885
 30
0.0
 10
901.5795143102057
 20
945.7954599284209
 30
0.0
 10
901.582045070796
 20
945.9930542408325
 30
0.0
  0
SPLINE
  5
1A1
330
1F
100
AcDbEntity
  8
0
  6
Continuous
 62
     8
370
    18
100
AcDbSpline
210
0.0
220
0.0
230
1.0
 70
     8
 71
     3
 72
    11
 73
     7
 74
     0
 42
0.000000001
 43
0.00000001
 40
0.0
 40
0.0
 40
0.0
 40
0.0
 40
0.2462626445433955
 40
0.4941955352617339
 40
0.7464627646446479
 40
1.0
 40
1.0
 40
1.0
 40
1.0
 10
902.1014404083853
 20
918.6346381047176
 30
0.0
 10
902.0313712129279
 20
919.0178876195629
 30
0.0
 10
901.8907575862906
 20
919.7869859920704
 30
0.0
 10
901.7685480948858
 20
921.0134229589676
 30
0.0
 10
901.6828458068014
 20
922.2864640174695
 30
0.0
 10
901.6595832552094
 20
923.1690456159278
 30
0.0
 10
901.6479227748675
 20
923.6114444361208
 30
0.0
  0
SPLINE
  5
1A2
330
1F
100
AcDbEntity
  8
0
  6
Continuous
 62
     8
370
    18
100
AcDbSpline
210
0.0
220
0.0
230
1.0
 70
     8
 71
     3
 72
    10
 73
     6
 74
     0
 42
0.000000001
 43
0.00000001
 40
0.0
 40
0.0
 40
0.0
 40
0.0
 40
0.1324174185454166
 40
0.5661890535506258
 40
1.0
 40
1.0
 40
1.0
 40
1.0
 10
885.8004572627132
 20
918.5768888142327
 30
0.0
 10
886.5199091922881
 20
918.5784990023932
 30
0.0
 10
889.5961344469089
 20
918.5853838285786
 30
0.0
 10
895.0297385228461
 20
918.6093721166023
 30
0.0
 10
899.74413524112
 20
918.6262158542744
 30
0.0
 10
902.1014404083853
 20
918.6346381047176
 30
0.0
  0
SPLINE
  5
1A3
330
1F
100
AcDbEntity
  8
0
  6
Continuous
 62
     8
370
    18
100
AcDbSpline
210
0.0
220
0.0
230
1.0
 70
     8
 71
     3
 72
    11
 73
     7
 74
     0
 42
0.000000001
 43
0.00000001
 40
0.0
 40
0.0
 40
0.0
 40
0.0
 40
0.0000075172908922
 40
0.4486753649769379
 40
0.9105406426921422
 40
1.0
 40
1.0
 40
1.0
 40
1.0
 10
950.2752261489387
 20
950.2670815331669
 30
0.0
 10
950.2752298030592
 20
950.2670897173757
 30
0.0
 10
950.4933288338868
 20
950.7555705929194
 30
0.0
 10
950.8071131166072
 20
951.5417900434743
 30
0.0
 10
950.9333020004827
 20
952.0137297229128
 30
0.0
 10
950.9774732441789
 20
952.1578921487339
 30
0.0
 10
950.9846405841117
 20
952.1812843157851
 30
0.0
  0
SPLINE
  5
1A4
330
1F
100
AcDbEntity
  8
0
  6
Continuous
 62
     8
370
    18
100
AcDbSpline
210
0.0
220
0.0
230
1.0
 70
     8
 71
     3
 72
    11
 73
     7
 74
     0
 42
0.000000001
 43
0.00000001
 40
0.0
 40
0.0
 40
0.0
 40
0.0
 40
0.3674155899718484
 40
0.7400731437703043
 40
0.8699218969645784
 40
1.0
 40
1.0
 40
1.0
 40
1.0
 10
832.5081187388206
 20
923.4306791600873
 30
0.0
 10
832.507747670782
 20
922.8036420310168
 30
0.0
 10
832.5070002406313
 20
921.540621756326
 30
0.0
 10
832.5045990901368
 20
920.1529505188854
 30
0.0
 10
832.4961256383178
 20
919.1889458723974
 30
0.0
 10
832.4884148278353
 20
918.8071204432922
 30
0.0
 10
832.4845560207269
 20
918.6160392744238
 30
0.0
  0
SPLINE
  5
1A5
330
1F
100
AcDbEntity
  8
0
  6
Continuous
 62
     8
370
    18
100
AcDbSpline
210
0.0
220
0.0
230
1.0
 70
     8
 71
     3
 72
    17
 73
    13
 74
     0
 42
0.000000001
 43
0.00000001
 40
0.0
 40
0.0
 40
0.0
 40
0.0
 40
0.34659561001329
 40
0.5797997290136763
 40
0.7338947238710047
 40
0.8810219207409974
 40
0.9331891565949291
 40
0.9524593563030743
 40
0.9753918570412521
 40
0.986724340314446
 40
0.9980977605384078
 40
1.0
 40
1.0
 40
1.0
 40
1.0
 10
832.4845560207269
 20
918.6160392744238
 30
0.0
 10
832.4745389976804
 20
918.2353783179109
 30
0.0
 10
832.4577820997853
 20
917.5985926430325
 30
0.0
 10
832.439987729704
 20
916.8643284227142
 30
0.0
 10
832.4048947094188
 20
916.3560193111613
 30
0.0
 10
832.3561949437327
 20
916.0356762735818
 30
0.0
 10
832.2738375331103
 20
915.8483778089436
 30
0.0
 10
832.2138012570641
 20
915.7748266968066
 30
0.0
 10
832.1644293717351
 20
915.7377764353321
 30
0.0
 10
832.1061220316393
 20
915.7196368050306
 30
0.0
 10
832.0709473680092
 20
915.717359340295
 30
0.0
 10
832.052492316346
 20
915.7185062472
 30
0.0
 10
832.0498479334401
 20
915.7186705849148
 30
0.0
  0
SPLINE
  5
1A6
330
1F
100
AcDbEntity
  8
0
  6
Continuous
 62
     8
370
    18
100
AcDbSpline
210
0.0
220
0.0
230
1.0
 70
     8
 71
     3
 72
    13
 73
     9
 74
     0
 42
0.000000001
 43
0.00000001
 40
0.0
 40
0.0
 40
0.0
 40
0.0
 40
0.2478822118510327
 40
0.5026960354996699
 40
0.5906876656854307
 40
0.6789803873276633
 40
0.8384693780655406
 40
1.0
 40
1.0
 40
1.0
 40
1.0
 10
831.2258672829394
 20
923.2642191685245
 30
0.0
 10
831.2409405667573
 20
922.5165106907832
 30
0.0
 10
831.2715086335847
 20
921.0001853172791
 30
0.0
 10
831.3810773850108
 20
919.3953675104517
 30
0.0
 10
831.4942610404349
 20
918.317075157374
 30
0.0
 10
831.5967321881093
 20
917.5201524391003
 30
0.0
 10
831.7606821185433
 20
916.6163840512833
 30
0.0
 10
831.9530515160463
 20
916.0191744581739
 30
0.0
 10
832.0498479334401
 20
915.7186705849149
 30
0.0
  0
SPLINE
  5
1A7
330
1F
100
AcDbEntity
  8
0
  6
Continuous
 62
     8
370
    18
100
AcDbSpline
210
0.0
220
0.0
230
1.0
 70
     8
 71
     3
 72
    13
 73
     9
 74
     0
 42
0.000000001
 43
0.00000001
 40
0.0
 40
0.0
 40
0.0
 40
0.0
 40
0.2478822118510333
 40
0.5026960354996712
 40
0.5906876656854319
 40
0.6789803873276651
 40
0.8384693780655428
 40
1.0
 40
1.0
 40
1.0
 40
1.0
 10
904.8689612115428
 20
923.2642191685245
 30
0.0
 10
904.8538879277248
 20
922.5165106907832
 30
0.0
 10
904.8233198608974
 20
921.000185317279
 30
0.0
 10
904.7137511094714
 20
919.3953675104517
 30
0.0
 10
904.6005674540472
 20
918.317075157374
 30
0.0
 10
904.4980963063729
 20
917.5201524391003
 30
0.0
 10
904.3341463759389
 20
916.6163840512833
 30
0.0
 10
904.1417769784358
 20
916.019174458174
 30
0.0
 10
904.044980561042
 20
915.7186705849149
 30
0.0
  0
SPLINE
  5
1A8
330
1F
100
AcDbEntity
  8
0
  6
Continuous
 62
     8
370
    18
100
AcDbSpline
210
0.0
220
0.0
230
1.0
 70
     8
 71
     3
 72
    17
 73
    13
 74
     0
 42
0.000000001
 43
0.00000001
 40
0.0
 40
0.0
 40
0.0
 40
0.0
 40
0.346595610013285
 40
0.5797997290136782
 40
0.7338947238710084
 40
0.8810219207410016
 40
0.9331891565949326
 40
0.9524593563030789
 40
0.9753918570412515
 40
0.986724340314446
 40
0.9980977605384078
 40
1.0
 40
1.0
 40
1.0
 40
1.0
 10
903.6102724737552
 20
918.6160392744238
 30
0.0
 10
903.6202894968018
 20
918.2353783179109
 30
0.0
 10
903.6370463946969
 20
917.5985926430326
 30
0.0
 10
903.6548407647782
 20
916.8643284227142
 30
0.0
 10
903.6899337850633
 20
916.3560193111613
 30
0.0
 10
903.7386335507495
 20
916.0356762735818
 30
0.0
 10
903.8209909613719
 20
915.8483778089436
 30
0.0
 10
903.881027237418
 20
915.7748266968066
 30
0.0
 10
903.9303991227471
 20
915.7377764353322
 30
0.0
 10
903.9887064628429
 20
915.7196368050306
 30
0.0
 10
904.0238811264729
 20
915.717359340295
 30
0.0
 10
904.0423361781361
 20
915.7185062472003
 30
0.0
 10
904.044980561042
 20
915.7186705849149
 30
0.0
  0
SPLINE
  5
1A9
330
1F
100
AcDbEntity
  8
0
  6
Continuous
 62
     8
370
    18
100
AcDbSpline
210
0.0
220
0.0
230
1.0
 70
     8
 71
     3
 72
    11
 73
     7
 74
     0
 42
0.000000001
 43
0.00000001
 40
0.0
 40
0.0
 40
0.0
 40
0.0
 40
0.3674155899718488
 40
0.7400731437703051
 40
0.8699218969645793
 40
1.0
 40
1.0
 40
1.0
 40
1.0
 10
903.5867097556616
 20
923.4306791600873
 30
0.0
 10
903.5870808237001
 20
922.8036420310168
 30
0.0
 10
903.5878282538508
 20
921.540621756326
 30
0.0
 10
903.5902294043453
 20
920.1529505188854
 30
0.0
 10
903.5987028561643
 20
919.1889458723974
 30
0.0
 10
903.6064136666469
 20
918.8071204432922
 30
0.0
 10
903.6102724737552
 20
918.6160392744238
 30
0.0
  0
SPLINE
  5
1AA
330
1F
100
AcDbEntity
  8
0
  6
Continuous
 62
     8
370
    18
100
AcDbSpline
210
0.0
220
0.0
230
1.0
 70
     8
 71
     3
 72
    11
 73
     7
 74
     0
 42
0.000000001
 43
0.00000001
 40
0.0
 40
0.0
 40
0.0
 40
0.0
 40
0.3598580230790382
 40
0.7246062069006078
 40
0.8621677510649479
 40
1.0
 40
1.0
 40
1.0
 40
1.0
 10
912.5175619078165
 20
918.5446850926625
 30
0.0
 10
912.5208140040681
 20
919.0909814412934
 30
0.0
 10
912.5273623897602
 20
920.1909978356427
 30
0.0
 10
912.5213038867613
 20
921.6259291438665
 30
0.0
 10
912.5201883307888
 20
922.7221786808401
 30
0.0
 10
912.5200919811334
 20
923.2042760472334
 30
0.0
 10
912.5200437589511
 20
923.4455616748714
 30
0.0
  0
SPLINE
  5
1AB
330
1F
100
AcDbEntity
  8
0
  6
Continuous
 62
     8
370
    18
100
AcDbSpline
210
0.0
220
0.0
230
1.0
 70
     8
 71
     3
 72
    16
 73
    12
 74
     0
 42
0.000000001
 43
0.00000001
 40
0.0
 40
0.0
 40
0.0
 40
0.0
 40
0.0117733620155407
 40
0.0227113902881392
 40
0.0341085178796153
 40
0.0448724470144663
 40
0.0843977891274266
 40
0.1801725761900179
 40
0.6004756555876829
 40
0.7301077904365172
 40
1.0
 40
1.0
 40
1.0
 40
1.0
 10
912.0797064605553
 20
915.4114019882597
 30
0.0
 10
912.0969675407953
 20
915.4080486208369
 30
0.0
 10
912.130265007535
 20
915.4015798113139
 30
0.0
 10
912.1847934661733
 20
915.4036433494999
 30
0.0
 10
912.2332044650461
 20
915.417283534372
 30
0.0
 10
912.305153565608
 20
915.4578614772716
 30
0.0
 10
912.3991622153459
 20
915.5885279673023
 30
0.0
 10
912.5242710401285
 20
916.1159168456307
 30
0.0
 10
912.5038396047177
 20
916.7969864419862
 30
0.0
 10
912.5069436553126
 20
917.7275576469166
 30
0.0
 10
912.5132808908429
 20
918.2152395022935
 30
0.0
 10
912.5175619078165
 20
918.5446850926625
 30
0.0
  0
SPLINE
  5
1AC
330
1F
100
AcDbEntity
  8
0
  6
Continuous
 62
     8
370
    18
100
AcDbSpline
210
0.0
220
0.0
230
1.0
 70
     8
 71
     3
 72
    12
 73
     8
 74
     0
 42
0.000000001
 43
0.00000001
 40
0.0
 40
0.0
 40
0.0
 40
0.0
 40
0.0542100646910344
 40
0.3612059465304504
 40
0.5267652948496016
 40
0.7633787062243832
 40
1.0
 40
1.0
 40
1.0
 40
1.0
 10
912.0797064605553
 20
915.4114019882597
 30
0.0
 10
912.0409746493123
 20
915.5091652866228
 30
0.0
 10
911.7829015291154
 20
916.1605698721437
 30
0.0
 10
911.5154249915107
 20
917.3236737450358
 30
0.0
 10
911.3142389547081
 20
919.1595216826912
 30
0.0
 10
911.1932080142121
 20
920.9985972960947
 30
0.0
 10
911.1715012462269
 20
922.5090034917228
 30
0.0
 10
911.1606476814555
 20
923.2642191685245
 30
0.0
  0
SPLINE
  5
1AD
330
1F
100
AcDbEntity
  8
0
  6
Continuous
 62
     8
370
    18
100
AcDbSpline
210
0.0
220
0.0
230
1.0
 70
     8
 71
     3
 72
    16
 73
    12
 74
     0
 42
0.000000001
 43
0.00000001
 40
0.0
 40
0.0
 40
0.0
 40
0.0
 40
0.0117733620155407
 40
0.0227113902881392
 40
0.0341085178796153
 40
0.0448724470144662
 40
0.0843977891274265
 40
0.1801725761900124
 40
0.6004756555876829
 40
0.7301077904365104
 40
1.0
 40
1.0
 40
1.0
 40
1.0
 10
824.0151220339269
 20
915.4114019882597
 30
0.0
 10
823.9978609536869
 20
915.4080486208369
 30
0.0
 10
823.9645634869473
 20
915.401579811314
 30
0.0
 10
823.9100350283088
 20
915.4036433494999
 30
0.0
 10
823.861624029436
 20
915.417283534372
 30
0.0
 10
823.7896749288742
 20
915.4578614772716
 30
0.0
 10
823.6956662791363
 20
915.5885279673023
 30
0.0
 10
823.5705574543537
 20
916.1159168456307
 30
0.0
 10
823.5909888897645
 20
916.7969864419863
 30
0.0
 10
823.5878848391695
 20
917.7275576469164
 30
0.0
 10
823.5815476036393
 20
918.2152395022935
 30
0.0
 10
823.5772665866657
 20
918.5446850926625
 30
0.0
  0
SPLINE
  5
1AE
330
1F
100
AcDbEntity
  8
0
  6
Continuous
 62
     8
370
    18
100
AcDbSpline
210
0.0
220
0.0
230
1.0
 70
     8
 71
     3
 72
    11
 73
     7
 74
     0
 42
0.000000001
 43
0.00000001
 40
0.0
 40
0.0
 40
0.0
 40
0.0
 40
0.3598580230790382
 40
0.7246062069006078
 40
0.8621677510649479
 40
1.0
 40
1.0
 40
1.0
 40
1.0
 10
823.5772665866657
 20
918.5446850926625
 30
0.0
 10
823.574014490414
 20
919.0909814412934
 30
0.0
 10
823.5674661047219
 20
920.1909978356427
 30
0.0
 10
823.5735246077209
 20
921.6259291438665
 30
0.0
 10
823.5746401636934
 20
922.7221786808401
 30
0.0
 10
823.5747365133487
 20
923.2042760472334
 30
0.0
 10
823.574784735531
 20
923.4455616748714
 30
0.0
  0
SPLINE
  5
1AF
330
1F
100
AcDbEntity
  8
0
  6
Continuous
 62
     8
370
    18
100
AcDbSpline
210
0.0
220
0.0
230
1.0
 70
     8
 71
     3
 72
    12
 73
     8
 74
     0
 42
0.000000001
 43
0.00000001
 40
0.0
 40
0.0
 40
0.0
 40
0.0
 40
0.0542100646910322
 40
0.3612059465304506
 40
0.5267652948496011
 40
0.7633787062243833
 40
0.9999999999999999
 40
0.9999999999999999
 40
0.9999999999999999
 40
0.9999999999999999
 10
824.0151220339269
 20
915.4114019882597
 30
0.0
 10
824.0538538451699
 20
915.5091652866228
 30
0.0
 10
824.3119269653668
 20
916.1605698721436
 30
0.0
 10
824.5794035029714
 20
917.3236737450358
 30
0.0
 10
824.780589539774
 20
919.1595216826912
 30
0.0
 10
824.90162048027
 20
920.9985972960948
 30
0.0
 10
824.9233272482553
 20
922.5090034917228
 30
0.0
 10
824.9341808130266
 20
923.2642191685245
 30
0.0
  0
LINE
  5
1B0
330
1F
100
AcDbEntity
  8
0
  6
Continuous
 62
     8
370
    18
100
AcDbLine
 10
904.044980561
 20
915.7186705849
 30
0.0
 11
912.0797064606
 21
915.4114019883
 31
0.0
  0
LINE
  5
1B1
330
1F
100
AcDbEntity
  8
0
  6
Continuous
 62
     8
370
    18
100
AcDbLine
 10
832.0498479334
 20
915.7186705849
 30
0.0
 11
824.0151220339
 21
915.4114019883
 31
0.0
  0
ARC
  5
1B2
330
1F
100
AcDbEntity
  8
0
  6
Continuous
 62
     8
370
    18
100
AcDbCircle
 10
902.7964750953
 20
913.8080207642
 30
0.0
 40
4.876403199924999
100
AcDbArc
 50
80.3932584449
 51
98.1942841504
  0
ARC
  5
1B3
330
1F
100
AcDbEntity
  8
0
  6
Continuous
 62
     8
370
    18
100
AcDbCircle
 10
833.2983533992
 20
913.8080207642
 30
0.0
 40
4.876403199897503
100
AcDbArc
 50
81.8057158496
 51
99.6067415552
  0
ARC
  5
1B4
330
1F
100
AcDbEntity
  8
0
  6
Continuous
 62
     8
370
    18
100
AcDbCircle
 10
913.5332759261
 20
913.9197214154
 30
0.0
 40
4.735183627157068
100
AcDbArc
 50
83.1980176218
 51
102.3864072814
  0
ARC
  5
1B5
330
1F
100
AcDbEntity
  8
0
  6
Continuous
 62
     8
370
    18
100
AcDbCircle
 10
822.5615525684
 20
913.9197214154
 30
0.0
 40
4.735183627176642
100
AcDbArc
 50
77.6135927186
 51
96.8019823782
  0
SPLINE
  5
1B6
330
1F
100
AcDbEntity
  8
0
  6
Continuous
 62
     8
370
    18
100
AcDbSpline
210
0.0
220
0.0
230
1.0
 70
     8
 71
     3
 72
    13
 73
     9
 74
     0
 42
0.000000001
 43
0.00000001
 40
0.0
 40
0.0
 40
0.0
 40
0.0
 40
0.3455606136556855
 40
0.7377948233629013
 40
0.8482878985160512
 40
0.909143358859354
 40
0.9540191324658096
 40
1.0
 40
1.0
 40
1.0
 40
1.0
 10
822.0007253563678
 20
918.6215760304526
 30
0.0
 10
822.1107132657636
 20
918.1204046843596
 30
0.0
 10
822.3455447453306
 20
917.0503706291082
 30
0.0
 10
822.695363489558
 20
915.9632704826977
 30
0.0
 10
823.2493226358062
 20
915.3830887349317
 30
0.0
 10
823.5586773966677
 20
915.2237728592072
 30
0.0
 10
823.8174797717952
 20
915.1589712468292
 30
0.0
 10
823.9804926239054
 20
915.158914084189
 30
0.0
 10
824.0629904167486
 20
915.1588851552328
 30
0.0
  0
SPLINE
  5
1B7
330
1F
100
AcDbEntity
  8
0
  6
Continuous
 62
     8
370
    18
100
AcDbSpline
210
0.0
220
0.0
230
1.0
 70
     8
 71
     3
 72
    11
 73
     7
 74
     0
 42
0.000000001
 43
0.00000001
 40
0.0
 40
0.0
 40
0.0
 40
0.0
 40
0.2499068565621712
 40
0.4998445626142471
 40
0.7498974475611084
 40
1.0
 40
1.0
 40
1.0
 40
1.0
 10
824.0629904167486
 20
915.1588851552328
 30
0.0
 10
824.7290255932595
 20
915.1909929873697
 30
0.0
 10
826.0611781642953
 20
915.2552126151611
 30
0.0
 10
828.0622544545296
 20
915.3390862750019
 30
0.0
 10
830.0655595945735
 20
915.4121540971626
 30
0.0
 10
831.4027822656781
 20
915.4481526753772
 30
0.0
 10
832.0714599970858
 20
915.466153751888
 30
0.0
  0
SPLINE
  5
1B8
330
1F
100
AcDbEntity
  8
0
  6
Continuous
 62
     8
370
    18
100
AcDbSpline
210
0.0
220
0.0
230
1.0
 70
     8
 71
     3
 72
    14
 73
    10
 74
     0
 42
0.000000001
 43
0.00000001
 40
0.0
 40
0.0
 40
0.0
 40
0.0
 40
0.0519065920714218
 40
0.1222358501282174
 40
0.188460532770752
 40
0.3425806135662339
 40
0.4883356727123476
 40
0.6976961013112917
 40
1.0
 40
1.0
 40
1.0
 40
1.0
 10
832.0714599970858
 20
915.466153751888
 30
0.0
 10
832.1549093275346
 20
915.473338138597
 30
0.0
 10
832.3514257899527
 20
915.490256791546
 30
0.0
 10
832.613950688103
 20
915.6038960496952
 30
0.0
 10
832.9287048965487
 20
915.8398338592674
 30
0.0
 10
833.2002715840863
 20
916.212671236577
 30
0.0
 10
833.4711888920041
 20
916.7799027738749
 30
0.0
 10
833.738098498552
 20
917.5669485189828
 30
0.0
 10
833.8985747565999
 20
918.2381033088176
 30
0.0
 10
833.9933880860968
 20
918.6346381047181
 30
0.0
  0
SPLINE
  5
1B9
330
1F
100
AcDbEntity
  8
0
  6
Continuous
 62
     8
370
    18
100
AcDbSpline
210
0.0
220
0.0
230
1.0
 70
     8
 71
     3
 72
     9
 73
     5
 74
     0
 42
0.000000001
 43
0.00000001
 40
0.0
 40
0.0
 40
0.0
 40
0.0
 40
0.0293344768637993
 40
1.0
 40
1.0
 40
1.0
 40
1.0
 10
868.047414247241
 20
911.6350233936149
 30
0.0
 10
868.0393532299031
 20
911.6350196511513
 30
0.0
 10
867.7645565333256
 20
911.6348920721373
 30
0.0
 10
867.4901360332364
 20
911.6600350823018
 30
0.0
 10
867.2237655149581
 20
911.6844405354161
 30
0.0
  0
SPLINE
  5
1BA
330
1F
100
AcDbEntity
  8
0
  6
Continuous
 62
     8
370
    18
100
AcDbSpline
210
0.0
220
0.0
230
1.0
 70
     8
 71
     3
 72
    12
 73
     8
 74
     0
 42
0.000000001
 43
0.00000001
 40
0.0
 40
0.0
 40
0.0
 40
0.0
 40
0.1168311330920582
 40
0.3726334449299158
 40
0.6338270238932947
 40
0.8149152954169149
 40
1.0
 40
1.0
 40
1.0
 40
1.0
 10
866.6820385709717
 20
911.7179190061198
 30
0.0
 10
866.0056454843458
 20
911.7471428070288
 30
0.0
 10
863.8482865738782
 20
911.8403522565866
 30
0.0
 10
860.2084094152798
 20
912.6499421140721
 30
0.0
 10
856.3120310627129
 20
914.1832227649431
 30
0.0
 10
852.9569633307027
 20
916.1638774365333
 30
0.0
 10
851.1883362309318
 20
917.7667205142857
 30
0.0
 10
850.2943712317688
 20
918.5768888142326
 30
0.0
  0
SPLINE
  5
1BB
330
1F
100
AcDbEntity
  8
0
  6
Continuous
 62
     8
370
    18
100
AcDbSpline
210
0.0
220
0.0
230
1.0
 70
     8
 71
     3
 72
    14
 73
    10
 74
     0
 42
0.000000001
 43
0.00000001
 40
0.0
 40
0.0
 40
0.0
 40
0.0
 40
0.0519065920714866
 40
0.1222358501282887
 40
0.1884605327708265
 40
0.3425806135663116
 40
0.4883356727124315
 40
0.697696101311388
 40
1.0
 40
1.0
 40
1.0
 40
1.0
 10
904.0233684973963
 20
915.4661537518868
 30
0.0
 10
903.9399191669474
 20
915.4733381385963
 30
0.0
 10
903.7434027045297
 20
915.4902567915462
 30
0.0
 10
903.4808778063791
 20
915.6038960496951
 30
0.0
 10
903.1661235979335
 20
915.8398338592674
 30
0.0
 10
902.8945569103959
 20
916.212671236577
 30
0.0
 10
902.6236396024781
 20
916.7799027738749
 30
0.0
 10
902.3567299959303
 20
917.5669485189827
 30
0.0
 10
902.1962537378822
 20
918.2381033088171
 30
0.0
 10
902.1014404083853
 20
918.6346381047176
 30
0.0
  0
SPLINE
  5
1BC
330
1F
100
AcDbEntity
  8
0
  6
Continuous
 62
     8
370
    18
100
AcDbSpline
210
0.0
220
0.0
230
1.0
 70
     8
 71
     3
 72
    11
 73
     7
 74
     0
 42
0.000000001
 43
0.00000001
 40
0.0
 40
0.0
 40
0.0
 40
0.0
 40
0.249906856562332
 40
0.4998445626143539
 40
0.7498974475611629
 40
1.0
 40
1.0
 40
1.0
 40
1.0
 10
912.0318380777353
 20
915.1588851552331
 30
0.0
 10
911.3658029012239
 20
915.1909929873699
 30
0.0
 10
910.0336503301875
 20
915.2552126151611
 30
0.0
 10
908.0325740399526
 20
915.3390862750017
 30
0.0
 10
906.0292688999086
 20
915.4121540971627
 30
0.0
 10
904.6920462288041
 20
915.4481526753765
 30
0.0
 10
904.0233684973963
 20
915.4661537518868
 30
0.0
  0
SPLINE
  5
1BD
330
1F
100
AcDbEntity
  8
0
  6
Continuous
 62
     8
370
    18
100
AcDbSpline
210
0.0
220
0.0
230
1.0
 70
     8
 71
     3
 72
    13
 73
     9
 74
     0
 42
0.000000001
 43
0.00000001
 40
0.0
 40
0.0
 40
0.0
 40
0.0
 40
0.3455606136558518
 40
0.737794823363167
 40
0.8482878985163456
 40
0.9091433588596638
 40
0.9540191324661307
 40
1.0
 40
1.0
 40
1.0
 40
1.0
 10
914.0941031381153
 20
918.621576030453
 30
0.0
 10
913.984115228719
 20
918.12040468436
 30
0.0
 10
913.7492837491513
 20
917.0503706291083
 30
0.0
 10
913.3994650049242
 20
915.9632704826976
 30
0.0
 10
912.845505858676
 20
915.3830887349317
 30
0.0
 10
912.5361510978145
 20
915.2237728592072
 30
0.0
 10
912.2773487226876
 20
915.1589712468292
 30
0.0
 10
912.114335870578
 20
915.1589140841891
 30
0.0
 10
912.0318380777353
 20
915.1588851552331
 30
0.0
  0
SPLINE
  5
1BE
330
1F
100
AcDbEntity
  8
0
  6
Continuous
 62
     8
370
    18
100
AcDbSpline
210
0.0
220
0.0
230
1.0
 70
     8
 71
     3
 72
    13
 73
     9
 74
     0
 42
0.000000001
 43
0.00000001
 40
0.0
 40
0.0
 40
0.0
 40
0.0
 40
0.0016043355124024
 40
0.272792605906232
 40
0.4428579083924353
 40
0.615972383532482
 40
0.8046605251224437
 40
0.9999999999999999
 40
0.9999999999999999
 40
0.9999999999999999
 40
0.9999999999999999
 10
939.7389935445373
 20
911.6350233936149
 30
0.0
 10
939.7444483947127
 20
911.6350261236332
 30
0.0
 10
940.6719618622335
 20
911.6354903212975
 30
0.0
 10
942.0847981880681
 20
911.8333206497423
 30
0.0
 10
943.8054878208414
 20
912.6623128256364
 30
0.0
 10
945.1081336949799
 20
913.8056637397449
 30
0.0
 10
946.2643334392295
 20
915.46184775548
 30
0.0
 10
946.7851975161701
 20
917.067437873201
 30
0.0
 10
947.0501402205725
 20
917.8841372901576
 30
0.0
  0
SPLINE
  5
1BF
330
1F
100
AcDbEntity
  8
0
  6
Continuous
 62
     8
370
    18
100
AcDbSpline
210
0.0
220
0.0
230
1.0
 70
     8
 71
     3
 72
    13
 73
     9
 74
     0
 42
0.000000001
 43
0.00000001
 40
0.0
 40
0.0
 40
0.0
 40
0.0
 40
0.1765903405244139
 40
0.3535107282095488
 40
0.5953143040081184
 40
0.8373696963545593
 40
0.9987093023973762
 40
1.0
 40
1.0
 40
1.0
 40
1.0
 10
885.8004572627132
 20
918.5768888142327
 30
0.0
 10
884.8793749208271
 20
917.7443315083289
 30
0.0
 10
883.0354887351267
 20
916.0776608477923
 30
0.0
 10
879.5888347088512
 20
914.0901745443342
 30
0.0
 10
875.6028262769731
 20
912.5453375807027
 30
0.0
 10
871.5991451979289
 20
911.77611702714
 30
0.0
 10
869.0711641647072
 20
911.6353185786277
 30
0.0
 10
868.0554751519091
 20
911.6350257178724
 30
0.0
 10
868.047414247241
 20
911.6350233936149
 30
0.0
  0
LINE
  5
1C0
330
1F
100
AcDbEntity
  8
0
  6
Continuous
 62
     8
370
    18
100
AcDbLine
 10
904.9395284208
 20
946.5963048998
 30
0.0
 11
904.9709054997
 21
943.8747768334
 31
0.0
  0
SPLINE
  5
1C1
330
1F
100
AcDbEntity
  8
0
  6
Continuous
 62
     8
370
    18
100
AcDbSpline
210
0.0
220
0.0
230
1.0
 70
     8
 71
     3
 72
     9
 73
     5
 74
     0
 42
0.000000001
 43
0.00000001
 40
0.0
 40
0.0
 40
0.0
 40
0.0
 40
0.8741204396861999
 40
1.0
 40
1.0
 40
1.0
 40
1.0
 10
903.6001170839951
 20
946.3349204357798
 30
0.0
 10
903.6012288432953
 20
945.5433180247417
 30
0.0
 10
903.6025007038419
 20
944.6377192364071
 30
0.0
 10
903.6036845107778
 20
943.7247149041879
 30
0.0
 10
903.6038335278744
 20
943.6097863202834
 30
0.0
  0
ARC
  5
1C2
330
1F
100
AcDbEntity
  8
0
  6
Continuous
 62
     8
370
    18
100
AcDbCircle
 10
904.9143075446
 20
943.1630818903
 30
0.0
 40
3.433315645976088
100
AcDbArc
 50
89.5791057648
 51
112.5057341721
  0
SPLINE
  5
1C3
330
1F
100
AcDbEntity
  8
0
  6
Continuous
 62
     8
370
    18
100
AcDbSpline
210
0.0
220
0.0
230
1.0
 70
     8
 71
     3
 72
     9
 73
     5
 74
     0
 42
0.000000001
 43
0.00000001
 40
0.0
 40
0.0
 40
0.0
 40
0.0
 40
0.8741204396861999
 40
1.0
 40
1.0
 40
1.0
 40
1.0
 10
832.4947114104871
 20
946.3349204357798
 30
0.0
 10
832.4935996511869
 20
945.5433180247417
 30
0.0
 10
832.4923277906403
 20
944.6377192364071
 30
0.0
 10
832.4911439837043
 20
943.7247149041879
 30
0.0
 10
832.4909949666078
 20
943.6097863202834
 30
0.0
  0
LINE
  5
1C4
330
1F
100
AcDbEntity
  8
0
  6
Continuous
 62
     8
370
    18
100
AcDbLine
 10
831.1553000737
 20
946.5963048998
 30
0.0
 11
831.1239229947
 21
943.8747768334
 31
0.0
  0
ARC
  5
1C5
330
1F
100
AcDbEntity
  8
0
  6
Continuous
 62
     8
370
    18
100
AcDbCircle
 10
831.1805209499
 20
943.1630818903
 30
0.0
 40
3.433315645975956
100
AcDbArc
 50
67.4942658279
 51
90.4208942352
  0
LINE
  5
1C6
330
1F
100
AcDbEntity
  8
0
  6
Continuous
 62
     8
370
    18
100
AcDbLine
 10
823.603914948
 20
943.6007357541
 30
0.0
 11
823.5995131274
 21
946.3189080877
 31
0.0
  0
ARC
  5
1C7
330
1F
100
AcDbEntity
  8
0
  6
Continuous
 62
     8
370
    18
100
AcDbCircle
 10
824.9395031669
 20
943.2248265828
 30
0.0
 40
3.371781971732851
100
AcDbArc
 50
89.2310445
 51
113.4165528547
  0
LINE
  5
1C8
330
1F
100
AcDbEntity
  8
0
  6
Continuous
 62
     8
370
    18
100
AcDbLine
 10
825.002483576
 20
943.8747768334
 30
0.0
 11
824.9847538377
 21
946.5963048998
 31
0.0
  0
LINE
  5
1C9
330
1F
100
AcDbEntity
  8
0
  6
Continuous
 62
     8
370
    18
100
AcDbLine
 10
911.0923449185
 20
943.8747768334
 30
0.0
 11
911.1100746568
 21
946.5963048998
 31
0.0
  0
ARC
  5
1CA
330
1F
100
AcDbEntity
  8
0
  6
Continuous
 62
     8
370
    18
100
AcDbCircle
 10
911.1553253276
 20
943.2248265828
 30
0.0
 40
3.371781971733192
100
AcDbArc
 50
66.5834471453
 51
90.7689555
  0
LINE
  5
1CB
330
1F
100
AcDbEntity
  8
0
  6
Continuous
 62
     8
370
    18
100
AcDbLine
 10
912.4909135465
 20
943.6007357541
 30
0.0
 11
912.495315367
 21
946.3189080877
 31
0.0
  0
LINE
  5
1CC
330
1F
100
AcDbEntity
  8
0
  6
Continuous
 62
     8
370
    18
100
AcDbLine
 10
831.1553000737
 20
946.5963048998
 30
0.0
 11
824.9847538377
 21
946.5963048998
 31
0.0
  0
LINE
  5
1CD
330
1F
100
AcDbEntity
  8
0
  6
Continuous
 62
     8
370
    18
100
AcDbLine
 10
904.9395284208
 20
946.5963048998
 30
0.0
 11
911.1100746568
 21
946.5963048998
 31
0.0
  0
ARC
  5
1CE
330
1F
100
AcDbEntity
  8
0
  6
Continuous
 62
     8
370
    18
100
AcDbCircle
 10
901.72865114
 20
951.2550017344
 30
0.0
 40
5.263989434305572
100
AcDbArc
 50
268.4040630365
 51
290.8254619764
  0
ARC
  5
1CF
330
1F
100
AcDbEntity
  8
0
  6
Continuous
 62
     8
370
    18
100
AcDbCircle
 10
834.3661773545
 20
951.2550017344
 30
0.0
 40
5.263989434304616
100
AcDbArc
 50
249.1745380236
 51
271.5959369635
  0
ARC
  5
1D0
330
1F
100
AcDbEntity
  8
0
  6
Continuous
 62
     8
370
    18
100
AcDbCircle
 10
821.6444198475
 20
951.0117193212
 30
0.0
 40
5.083784712846647
100
AcDbArc
 50
269.0955075017
 51
292.6173188939
  0
ARC
  5
1D1
330
1F
100
AcDbEntity
  8
0
  6
Continuous
 62
     8
370
    18
100
AcDbCircle
 10
914.450408647
 20
951.0117193212
 30
0.0
 40
5.083784712847049
100
AcDbArc
 50
247.3826811061
 51
270.9044924983
  0
ARC
  5
1D2
330
1F
100
AcDbEntity
  8
0
  6
Continuous
 62
     8
370
    18
100
AcDbCircle
 10
920.025509337
 20
914.2237677834
 30
0.0
 40
16.05029701739325
100
AcDbArc
 50
174.6558034199
 51
175.560533909
  0
ARC
  5
1D3
330
1F
100
AcDbEntity
  8
0
  6
Continuous
 62
     8
370
    18
100
AcDbCircle
 10
816.0693191563
 20
914.2237677833
 30
0.0
 40
16.05029701852875
100
AcDbArc
 50
4.439466091
 51
5.3441965801
  0
ARC
  5
1D4
330
1F
100
AcDbEntity
  8
0
  6
Continuous
 62
     8
370
    18
100
AcDbCircle
 10
817.483812706
 20
914.0424980716
 30
0.0
 40
6.673222570070454
100
AcDbArc
 50
9.6304973659
 51
11.8373353031
  0
ARC
  5
1D5
330
1F
100
AcDbEntity
  8
0
  6
Continuous
 62
     8
370
    18
100
AcDbCircle
 10
918.6110157939
 20
914.0424980706
 30
0.0
 40
6.67322257563113
100
AcDbArc
 50
168.1626646982
 51
170.3695026336
  0
SPLINE
  5
1D6
330
1F
100
AcDbEntity
  8
0
  6
Continuous
 62
     8
370
    18
100
AcDbSpline
210
0.0
220
0.0
230
1.0
 70
     8
 71
     3
 72
    15
 73
    11
 74
     0
 42
0.000000001
 43
0.00000001
 40
0.0
 40
0.0
 40
0.0
 40
0.0
 40
0.0357295768982803
 40
0.055902385631869
 40
0.0935770997983535
 40
0.1154709098174174
 40
0.2166995392891656
 40
0.4238827620184527
 40
0.9068299214990583
 40
1.0
 40
1.0
 40
1.0
 40
1.0
 10
831.6274171346907
 20
949.9990483453644
 30
0.0
 10
831.6867876621478
 20
950.0009420456241
 30
0.0
 10
831.7796786059876
 20
950.0039049232003
 30
0.0
 10
831.9277725437432
 20
949.9629880387739
 30
0.0
 10
832.0357857983394
 20
949.9012380444244
 30
0.0
 10
832.2050191179861
 20
949.7453074641754
 30
0.0
 10
832.3978712980373
 20
949.351270331973
 30
0.0
 10
832.5189838039961
 20
948.3572866482754
 30
0.0
 10
832.4946732327203
 20
947.2972666981908
 30
0.0
 10
832.4947060958406
 20
946.4688866332646
 30
0.0
 10
832.4947114104871
 20
946.3349204357798
 30
0.0
  0
SPLINE
  5
1D7
330
1F
100
AcDbEntity
  8
0
  6
Continuous
 62
     8
370
    18
100
AcDbSpline
210
0.0
220
0.0
230
1.0
 70
     8
 71
     3
 72
    11
 73
     7
 74
     0
 42
0.000000001
 43
0.00000001
 40
0.0
 40
0.0
 40
0.0
 40
0.0
 40
0.168844766510026
 40
0.3388483789551301
 40
0.6648683581705661
 40
1.0
 40
1.0
 40
1.0
 40
1.0
 10
831.6274171346907
 20
949.9990483453644
 30
0.0
 10
831.579369433037
 20
949.8485067189469
 30
0.0
 10
831.482944260055
 20
949.5463902415978
 30
0.0
 10
831.3330897839757
 20
948.8691903365024
 30
0.0
 10
831.1953719456184
 20
947.9211956855183
 30
0.0
 10
831.1687795254744
 20
947.0419741595144
 30
0.0
 10
831.155300073652
 20
946.5963048997525
 30
0.0
  0
SPLINE
  5
1D8
330
1F
100
AcDbEntity
  8
0
  6
Continuous
 62
     8
370
    18
100
AcDbSpline
210
0.0
220
0.0
230
1.0
 70
     8
 71
     3
 72
    15
 73
    11
 74
     0
 42
0.000000001
 43
0.00000001
 40
0.0
 40
0.0
 40
0.0
 40
0.0
 40
0.0357295768982803
 40
0.055902385631869
 40
0.0935770997983535
 40
0.1154709098174174
 40
0.2166995392891656
 40
0.4238827620184527
 40
0.9068299214990583
 40
1.0
 40
1.0
 40
1.0
 40
1.0
 10
904.4674113597914
 20
949.9990483453644
 30
0.0
 10
904.4080408323343
 20
950.0009420456241
 30
0.0
 10
904.3151498884946
 20
950.0039049232003
 30
0.0
 10
904.1670559507389
 20
949.9629880387739
 30
0.0
 10
904.0590426961428
 20
949.9012380444244
 30
0.0
 10
903.889809376496
 20
949.7453074641754
 30
0.0
 10
903.6969571964448
 20
949.351270331973
 30
0.0
 10
903.5758446904861
 20
948.3572866482754
 30
0.0
 10
903.6001552617619
 20
947.2972666981908
 30
0.0
 10
903.6001223986416
 20
946.4688866332646
 30
0.0
 10
903.6001170839951
 20
946.3349204357798
 30
0.0
  0
SPLINE
  5
1D9
330
1F
100
AcDbEntity
  8
0
  6
Continuous
 62
     8
370
    18
100
AcDbSpline
210
0.0
220
0.0
230
1.0
 70
     8
 71
     3
 72
    11
 73
     7
 74
     0
 42
0.000000001
 43
0.00000001
 40
0.0
 40
0.0
 40
0.0
 40
0.0
 40
0.168844766510026
 40
0.3388483789551301
 40
0.6648683581705661
 40
1.0
 40
1.0
 40
1.0
 40
1.0
 10
904.4674113597914
 20
949.9990483453644
 30
0.0
 10
904.5154590614452
 20
949.8485067189469
 30
0.0
 10
904.6118842344272
 20
949.5463902415978
 30
0.0
 10
904.7617387105065
 20
948.8691903365024
 30
0.0
 10
904.8994565488638
 20
947.9211956855183
 30
0.0
 10
904.9260489690078
 20
947.0419741595144
 30
0.0
 10
904.9395284208301
 20
946.5963048997525
 30
0.0
  0
SPLINE
  5
1DA
330
1F
100
AcDbEntity
  8
0
  6
Continuous
 62
     8
370
    18
100
AcDbSpline
210
0.0
220
0.0
230
1.0
 70
     8
 71
     3
 72
    11
 73
     7
 74
     0
 42
0.000000001
 43
0.00000001
 40
0.0
 40
0.0
 40
0.0
 40
0.0
 40
0.316635143085861
 40
0.642169966751822
 40
0.8203579608774892
 40
1.0
 40
1.0
 40
1.0
 40
1.0
 10
911.1100746567688
 20
946.5963048997525
 30
0.0
 10
911.1213108060604
 20
947.0287471958559
 30
0.0
 10
911.1440989196811
 20
947.905786466369
 30
0.0
 10
911.2797544901654
 20
948.8690706811057
 30
0.0
 10
911.4372780784789
 20
949.5822496534523
 30
0.0
 10
911.5435708282682
 20
949.9048611541541
 30
0.0
 10
911.5969331638519
 20
950.0668223716194
 30
0.0
  0
SPLINE
  5
1DB
330
1F
100
AcDbEntity
  8
0
  6
Continuous
 62
     8
370
    18
100
AcDbSpline
210
0.0
220
0.0
230
1.0
 70
     8
 71
     3
 72
    14
 73
    10
 74
     0
 42
0.000000001
 43
0.00000001
 40
0.0
 40
0.0
 40
0.0
 40
0.0
 40
0.6113158653943795
 40
0.7934072053583402
 40
0.8854170307688746
 40
0.9194198313361064
 40
0.943450187052995
 40
0.9749897870426378
 40
1.0
 40
1.0
 40
1.0
 40
1.0
 10
912.4953153670359
 20
946.3189080877264
 30
0.0
 10
912.5221245106725
 20
947.2012314083212
 30
0.0
 10
912.5569192361733
 20
948.3463704757719
 30
0.0
 10
912.4003132077966
 20
949.4820265885525
 30
0.0
 10
912.1952261659437
 20
949.8597736504273
 30
0.0
 10
912.0092471342341
 20
950.0008145444363
 30
0.0
 10
911.8722882508307
 20
950.0580197803639
 30
0.0
 10
911.733407518208
 20
950.0803575858304
 30
0.0
 10
911.6387827418505
 20
950.0709729170131
 30
0.0
 10
911.5969331638519
 20
950.0668223716194
 30
0.0
  0
SPLINE
  5
1DC
330
1F
100
AcDbEntity
  8
0
  6
Continuous
 62
     8
370
    18
100
AcDbSpline
210
0.0
220
0.0
230
1.0
 70
     8
 71
     3
 72
    14
 73
    10
 74
     0
 42
0.000000001
 43
0.00000001
 40
0.0
 40
0.0
 40
0.0
 40
0.0
 40
0.6113158653943795
 40
0.7934072053583402
 40
0.8854170307688746
 40
0.9194198313361064
 40
0.943450187052995
 40
0.9749897870426378
 40
1.0
 40
1.0
 40
1.0
 40
1.0
 10
823.5995131274462
 20
946.3189080877264
 30
0.0
 10
823.5727039838097
 20
947.2012314083212
 30
0.0
 10
823.5379092583089
 20
948.3463704757719
 30
0.0
 10
823.6945152866856
 20
949.4820265885525
 30
0.0
 10
823.8996023285384
 20
949.8597736504273
 30
0.0
 10
824.085581360248
 20
950.0008145444363
 30
0.0
 10
824.2225402436515
 20
950.0580197803639
 30
0.0
 10
824.3614209762742
 20
950.0803575858304
 30
0.0
 10
824.4560457526317
 20
950.0709729170131
 30
0.0
 10
824.4978953306303
 20
950.0668223716194
 30
0.0
  0
SPLINE
  5
1DD
330
1F
100
AcDbEntity
  8
0
  6
Continuous
 62
     8
370
    18
100
AcDbSpline
210
0.0
220
0.0
230
1.0
 70
     8
 71
     3
 72
    11
 73
     7
 74
     0
 42
0.000000001
 43
0.00000001
 40
0.0
 40
0.0
 40
0.0
 40
0.0
 40
0.316635143085861
 40
0.642169966751822
 40
0.8203579608774892
 40
1.0
 40
1.0
 40
1.0
 40
1.0
 10
824.9847538377134
 20
946.5963048997525
 30
0.0
 10
824.9735176884218
 20
947.0287471958559
 30
0.0
 10
824.950729574801
 20
947.905786466369
 30
0.0
 10
824.8150740043168
 20
948.8690706811057
 30
0.0
 10
824.6575504160032
 20
949.5822496534523
 30
0.0
 10
824.5512576662139
 20
949.9048611541541
 30
0.0
 10
824.4978953306303
 20
950.0668223716194
 30
0.0
  0
LINE
  5
1DE
330
1F
100
AcDbEntity
  8
0
  6
Continuous
 62
     8
370
    18
100
AcDbLine
 10
911.5969331639
 20
950.0668223716
 30
0.0
 11
904.4674113598
 21
949.9990483454
 31
0.0
  0
LINE
  5
1DF
330
1F
100
AcDbEntity
  8
0
  6
Continuous
 62
     8
370
    18
100
AcDbLine
 10
824.4978953306
 20
950.0668223716
 30
0.0
 11
831.6274171347
 21
949.9990483454
 31
0.0
  0
ARC
  5
1E0
330
1F
100
AcDbEntity
  8
0
  6
Continuous
 62
     8
370
    18
100
AcDbCircle
 10
954.4180776797
 20
952.2887570512
 30
0.0
 40
42.87875244652046
100
AcDbArc
 50
181.7567906902
 51
182.9703411536
  0
ARC
  5
1E1
330
1F
100
AcDbEntity
  8
0
  6
Continuous
 62
     8
370
    18
100
AcDbCircle
 10
781.6767508148
 20
952.2887570512
 30
0.0
 40
42.87875244652057
100
AcDbArc
 50
357.0296588464
 51
358.2432093098
  0
ARC
  5
1E2
330
1F
100
AcDbEntity
  8
0
  6
Continuous
 62
     8
370
    18
100
AcDbCircle
 10
997.8502750814
 20
952.2476702532
 30
0.0
 40
93.40993275517123
100
AcDbArc
 50
180.8364313175
 51
181.3793928307
  0
ARC
  5
1E3
330
1F
100
AcDbEntity
  8
0
  6
Continuous
 62
     8
370
    18
100
AcDbCircle
 10
738.2445534131
 20
952.2476702532
 30
0.0
 40
93.40993275517134
100
AcDbArc
 50
358.6206071693
 51
359.1635686825
  0
SPLINE
  5
1E4
330
1F
100
AcDbEntity
  8
0
  6
Continuous
 62
     8
370
    18
100
AcDbSpline
210
0.0
220
0.0
230
1.0
 70
     8
 71
     3
 72
    20
 73
    16
 74
     0
 42
0.000000001
 43
0.00000001
 40
0.0
 40
0.0
 40
0.0
 40
0.0
 40
0.0262949951381536
 40
0.1141805994167154
 40
0.2050009162995116
 40
0.301821359164353
 40
0.4001096700271503
 40
0.4957119737796381
 40
0.5689984974216388
 40
0.6442268808353192
 40
0.7075782994275369
 40
0.7721105905636338
 40
0.8325062307491625
 40
0.8941019040528454
 40
1.0
 40
1.0
 40
1.0
 40
1.0
 10
947.9907548682327
 20
918.1808876608195
 30
0.0
 10
948.0665698647383
 20
918.4661072731607
 30
0.0
 10
948.3957808685932
 20
919.7046146823242
 30
0.0
 10
949.0531518707476
 20
922.1781231086177
 30
0.0
 10
949.9497048128355
 20
925.8474500351932
 30
0.0
 10
950.7557099116477
 20
929.9646197435889
 30
0.0
 10
951.2117336621002
 20
934.3253100986911
 30
0.0
 10
951.0898587468077
 20
938.2365804240961
 30
0.0
 10
950.7426485649407
 20
941.5333297901781
 30
0.0
 10
950.4813264002129
 20
944.1457033012549
 30
0.0
 10
950.4805900940072
 20
946.418364519554
 30
0.0
 10
950.6242145640035
 20
948.2760489607664
 30
0.0
 10
950.939571691721
 20
949.8410540881672
 30
0.0
 10
951.1416712070801
 20
951.3555657827579
 30
0.0
 10
951.0454662563229
 20
951.8614429760565
 30
0.0
 10
950.9846405841117
 20
952.1812843157851
 30
0.0
  0
ARC
  5
1E5
330
1F
100
AcDbEntity
  8
0
  6
Continuous
 62
     8
370
    18
100
AcDbCircle
 10
948.3171101886
 20
915.507317475
 30
0.0
 40
2.693415180358777
100
AcDbArc
 50
96.9595071703
 51
118.0599624147
  0
ARC
  5
1E6
330
1F
100
AcDbEntity
  8
0
  6
Continuous
 62
     8
370
    18
100
AcDbCircle
 10
952.9740779665
 20
954.4313012018
 30
0.0
 40
3.003404249505406
100
AcDbArc
 50
228.5172796838
 51
270.3109595547
  0
SPLINE
  5
1E7
330
1F
100
AcDbEntity
  8
0
  6
Continuous
 62
     8
370
    18
100
AcDbSpline
210
0.0
220
0.0
230
1.0
 70
     8
 71
     3
 72
    22
 73
    18
 74
     0
 42
0.000000001
 43
0.00000001
 40
0.0
 40
0.0
 40
0.0
 40
0.0
 40
0.0604782955210948
 40
0.1209107522713745
 40
0.188474913944386
 40
0.2560958620764553
 40
0.3308528003812595
 40
0.4056041325902898
 40
0.4728286997367326
 40
0.5400039932488327
 40
0.6145903506605177
 40
0.6892095991779486
 40
0.6973759092103057
 40
0.7789456219531089
 40
0.8605868885159248
 40
0.9302996545740236
 40
1.0
 40
1.0
 40
1.0
 40
1.0
 10
952.990378166494
 20
951.4279411851893
 30
0.0
 10
953.0256322759307
 20
951.2671741648901
 30
0.0
 10
953.0961137743906
 20
950.9457619756524
 30
0.0
 10
953.1332948134209
 20
949.9972008415256
 30
0.0
 10
952.8088114105498
 20
948.6739538293261
 30
0.0
 10
952.4019216161372
 20
946.8758670935684
 30
0.0
 10
952.3092181527629
 20
944.6112834998362
 30
0.0
 10
952.5664162702744
 20
942.0312703429374
 30
0.0
 10
952.97856017752
 20
939.3134743633224
 30
0.0
 10
953.220551030083
 20
936.4104863934829
 30
0.0
 10
953.1517559603476
 20
933.2695123157855
 30
0.0
 10
952.8505477821353
 20
930.9731113069286
 30
0.0
 10
952.4085263565448
 20
928.6217154828189
 30
0.0
 10
951.8249268790452
 20
926.2109256330334
 30
0.0
 10
950.8800342564356
 20
923.1393758865877
 30
0.0
 10
949.9565600858415
 20
920.4240597916287
 30
0.0
 10
949.4261639173038
 20
918.9118669518764
 30
0.0
 10
949.1609894601373
 20
918.1558378943553
 30
0.0
  0
ARC
  5
1E8
330
1F
100
AcDbEntity
  8
0
  6
Continuous
 62
     8
370
    18
100
AcDbCircle
 10
948.4921861696
 20
914.2588554442
 30
0.0
 40
3.953956253958014
100
AcDbArc
 50
80.261721698
 51
97.2857328838
  0
SPLINE
  5
1E9
330
1F
100
AcDbEntity
  8
0
  6
Continuous
 62
     8
370
    18
100
AcDbSpline
210
0.0
220
0.0
230
1.0
 70
     8
 71
     3
 72
    11
 73
     7
 74
     0
 42
0.000000001
 43
0.00000001
 40
0.0
 40
0.0
 40
0.0
 40
0.0
 40
0.2101620489852546
 40
0.6011741985698233
 40
0.9956880907203882
 40
0.9999999999999999
 40
0.9999999999999999
 40
0.9999999999999999
 40
0.9999999999999999
 10
943.7974142472416
 20
912.3064958416122
 30
0.0
 10
943.534299100439
 20
912.2152456851569
 30
0.0
 10
942.7816511400938
 20
911.9542221562127
 30
0.0
 10
941.4483459487088
 20
911.7023473297379
 30
0.0
 10
940.3276265343463
 20
911.635253259037
 30
0.0
 10
939.7452894875454
 20
911.635025852226
 30
0.0
 10
939.7389935445373
 20
911.6350233936149
 30
0.0
  0
SPLINE
  5
1EA
330
1F
100
AcDbEntity
  8
0
  6
Continuous
 62
     8
370
    18
100
AcDbSpline
210
0.0
220
0.0
230
1.0
 70
     8
 71
     3
 72
    12
 73
     8
 74
     0
 42
0.000000001
 43
0.00000001
 40
0.0
 40
0.0
 40
0.0
 40
0.0
 40
0.2467373750775709
 40
0.5009759128091705
 40
0.7464462631527631
 40
0.996904547814918
 40
1.0
 40
1.0
 40
1.0
 40
1.0
 10
949.1609894601373
 20
918.1558378943553
 30
0.0
 10
948.8690418514944
 20
917.445328470725
 30
0.0
 10
948.2762710169732
 20
916.0027091393376
 30
0.0
 10
947.0167329337955
 20
914.3672354757196
 30
0.0
 10
945.5336356406227
 20
913.1094459745458
 30
0.0
 10
944.4064858014103
 20
912.5374283876886
 30
0.0
 10
943.8047602742458
 20
912.3092811247336
 30
0.0
 10
943.7974142472416
 20
912.3064958416122
 30
0.0
  0
SPLINE
  5
1EB
330
1F
100
AcDbEntity
  8
0
  6
Continuous
 62
     8
370
    18
100
AcDbSpline
210
0.0
220
0.0
230
1.0
 70
     8
 71
     3
 72
    10
 73
     6
 74
     0
 42
0.000000001
 43
0.00000001
 40
0.0
 40
0.0
 40
0.0
 40
0.0
 40
0.0157305655563108
 40
0.5063466828768558
 40
0.9999999999999999
 40
0.9999999999999999
 40
0.9999999999999999
 40
0.9999999999999999
 10
952.9682351717951
 20
951.6350233936149
 30
0.0
 10
952.967789102224
 20
951.6350113294109
 30
0.0
 10
952.9534306961708
 20
951.6346229981905
 30
0.0
 10
952.9476709673534
 20
951.6029774379409
 30
0.0
 10
952.9761131783555
 20
951.4864065053125
 30
0.0
 10
952.9903781664942
 20
951.4279411851892
 30
0.0
  0
SPLINE
  5
1EC
330
1F
100
AcDbEntity
  8
0
  6
Continuous
 62
     8
370
    18
100
AcDbSpline
210
0.0
220
0.0
230
1.0
 70
     8
 71
     3
 72
    12
 73
     8
 74
     0
 42
0.000000001
 43
0.00000001
 40
0.0
 40
0.0
 40
0.0
 40
0.0
 40
0.3107222013442917
 40
0.6300915284038195
 40
0.7856616918457197
 40
0.8925423191164954
 40
1.0
 40
1.0
 40
1.0
 40
1.0
 10
943.7974142472416
 20
912.3064958416122
 30
0.0
 10
944.3483453732762
 20
912.6549674931475
 30
0.0
 10
945.4655395542729
 20
913.3616084559477
 30
0.0
 10
946.6121177875393
 20
914.8667344845663
 30
0.0
 10
947.3166019908693
 20
916.2551978516158
 30
0.0
 10
947.7082775482843
 20
917.2374913025361
 30
0.0
 10
947.8964269128265
 20
917.8658582997693
 30
0.0
 10
947.9907548682327
 20
918.1808876608195
 30
0.0
  0
LINE
  5
1ED
330
1F
100
AcDbEntity
  8
0
  6
Continuous
 62
     8
370
    18
100
AcDbLine
 10
1458.0474142472
 20
970.0814618932
 30
0.0
 11
278.0474142472
 21
970.0814618932
 31
0.0
  0
LINE
  5
1EE
330
1F
100
AcDbEntity
  8
0
  6
Continuous
 62
     8
370
    18
100
AcDbLine
 10
278.0474142472
 20
979.5814618932
 30
0.0
 11
1458.0474142472
 21
979.5814618932
 31
0.0
  0
LINE
  5
1EF
330
1F
100
AcDbEntity
  8
0
  6
Continuous
 62
     8
370
    18
100
AcDbLine
 10
278.0474142472
 20
966.8433803825
 30
0.0
 11
1458.0474142472
 21
966.8433803825
 31
0.0
  0
LINE
  5
1F0
330
1F
100
AcDbEntity
  8
0
  6
Continuous
 62
     8
370
    18
100
AcDbLine
 10
278.0474142472
 20
964.8465970413
 30
0.0
 11
1458.0474142472
 21
964.8465970413
 31
0.0
  0
LINE
  5
1F1
330
1F
100
AcDbEntity
  8
0
  6
Continuous
 62
     8
370
    18
100
AcDbLine
 10
278.0474142472
 20
963.0862894724
 30
0.0
 11
785.1759514679
 21
963.0862894724
 31
0.0
  0
LINE
  5
1F2
330
1F
100
AcDbEntity
  8
0
  6
Continuous
 62
     8
370
    18
100
AcDbLine
 10
950.9188770266
 20
963.0862894724
 30
0.0
 11
1458.0474142472
 21
963.0862894724
 31
0.0
  0
SPLINE
  5
1F3
330
1F
100
AcDbEntity
  8
0
  6
Continuous
 62
     8
370
    18
100
AcDbSpline
210
0.0
220
0.0
230
1.0
 70
     8
 71
     3
 72
    10
 73
     6
 74
     0
 42
0.000000001
 43
0.00000001
 40
0.0
 40
0.0
 40
0.0
 40
0.0
 40
0.5
 40
0.5
 40
1.0
 40
1.0
 40
1.0
 40
1.0
 10
815.0474142472411
 20
962.8603903067382
 30
0.0
 10
813.9806019898954
 20
962.8603903067382
 30
0.0
 10
812.9210845784393
 20
962.8419376898801
 30
0.0
 10
810.8159581436121
 20
962.7889140834837
 30
0.0
 10
809.7703458229047
 20
962.754444106363
 30
0.0
 10
808.7313021401457
 20
962.7398069704195
 30
0.0
  0
ARC
  5
1F4
330
1F
100
AcDbEntity
  8
0
  6
Continuous
 62
     8
370
    18
100
AcDbCircle
 10
805.5607385666
 20
963.1013981497
 30
0.0
 40
3.191116035874316
100
AcDbArc
 50
353.4937367838
 51
30.6135263841
  0
LINE
  5
1F5
330
1F
100
AcDbEntity
  8
0
  6
Continuous
 62
     8
370
    18
100
AcDbLine
 10
815.0474142472
 20
962.8603903067
 30
0.0
 11
815.0474142472
 21
964.7454247404
 31
0.0
  0
SPLINE
  5
1F6
330
1F
100
AcDbEntity
  8
0
  6
Continuous
 62
     8
370
    18
100
AcDbSpline
210
0.0
220
0.0
230
1.0
 70
     8
 71
     3
 72
    10
 73
     6
 74
     0
 42
0.000000001
 43
0.00000001
 40
0.0
 40
0.0
 40
0.0
 40
0.0
 40
0.5
 40
0.5
 40
1.0
 40
1.0
 40
1.0
 40
1.0
 10
927.3635263543364
 20
962.7398069705545
 30
0.0
 10
926.3244826715782
 20
962.7544441064987
 30
0.0
 10
925.2788703508702
 20
962.7889140834837
 30
0.0
 10
923.1737439160429
 20
962.8419376898801
 30
0.0
 10
922.1142265045825
 20
962.8603903064416
 30
0.0
 10
921.0474142472385
 20
962.8603903064414
 30
0.0
  0
LINE
  5
1F7
330
1F
100
AcDbEntity
  8
0
  6
Continuous
 62
     8
370
    18
100
AcDbLine
 10
921.0474142472
 20
962.8603903066
 30
0.0
 11
921.0474142472
 21
964.7454247404
 31
0.0
  0
ARC
  5
1F8
330
1F
100
AcDbEntity
  8
0
  6
Continuous
 62
     8
370
    18
100
AcDbCircle
 10
930.5340899275
 20
963.1013981497
 30
0.0
 40
3.191116035542057
100
AcDbArc
 50
149.386473613
 51
186.5062632177
  0
LINE
  5
1F9
330
1F
100
AcDbEntity
  8
0
  6
Continuous
 62
     8
370
    18
100
AcDbLine
 10
921.0474142472
 20
962.8603903066
 30
0.0
 11
815.0474142472
 21
962.8603903067
 31
0.0
  0
ELLIPSE
  5
1FA
330
1F
100
AcDbEntity
  8
0
  6
Continuous
 62
     8
370
    18
100
AcDbEllipse
 10
921.0474142472
 20
961.0801906326
 30
0.0
 11
28.0
 21
0.0
 31
0.0
210
0.0
220
0.0
230
1.0
 40
0.0608401234
 41
0.009448938617684
 42
1.343262674843449
  0
ARC
  5
1FB
330
1F
100
AcDbEntity
  8
0
  6
Continuous
 62
     8
370
    18
100
AcDbCircle
 10
951.0455651964
 20
961.0935798239
 30
0.0
 40
1.999402726573784
100
AcDbArc
 50
93.4033047991
 51
179.9224253183
  0
ELLIPSE
  5
1FC
330
1F
100
AcDbEntity
  8
0
  6
Continuous
 62
     8
370
    18
100
AcDbEllipse
 10
815.0474142472
 20
961.0801906326
 30
0.0
 11
27.99999999999989
 21
0.0
 31
0.0
210
0.0
220
0.0
230
1.0
 40
0.0608401234
 41
1.798329978746349
 42
3.132143714972111
  0
ARC
  5
1FD
330
1F
100
AcDbEntity
  8
0
  6
Continuous
 62
     8
370
    18
100
AcDbCircle
 10
785.0492632981
 20
961.0935798239
 30
0.0
 40
1.999402726573975
100
AcDbArc
 50
0.0775746817
 51
86.5966952046
  0
LINE
  5
1FE
330
1F
100
AcDbEntity
  8
0
  6
Continuous
 62
     8
370
    18
100
AcDbLine
 10
815.0474142472
 20
962.8603903067
 30
0.0
 11
815.0474142472
 21
958.0850233937
 31
0.0
  0
LINE
  5
1FF
330
1F
100
AcDbEntity
  8
0
  6
Continuous
 62
     8
370
    18
100
AcDbLine
 10
921.0474142472
 20
962.8603903066
 30
0.0
 11
921.0474142472
 21
958.0850233937
 31
0.0
  0
LINE
  5
200
330
1F
100
AcDbEntity
  8
0
  6
Continuous
 62
     8
370
    18
100
AcDbLine
 10
815.0474142472
 20
960.9350233936
 30
0.0
 11
815.0474142472
 21
960.7922218653
 31
0.0
  0
LINE
  5
201
330
1F
100
AcDbEntity
  8
0
  6
Continuous
 62
     8
370
    18
100
AcDbLine
 10
815.0474142472
 20
960.7922218653
 30
0.0
 11
787.107386666
 21
960.7922218653
 31
0.0
  0
LINE
  5
202
330
1F
100
AcDbEntity
  8
0
  6
Continuous
 62
     8
370
    18
100
AcDbLine
 10
921.0474142472
 20
960.9350233936
 30
0.0
 11
921.0474142472
 21
960.7922218653
 31
0.0
  0
LINE
  5
203
330
1F
100
AcDbEntity
  8
0
  6
Continuous
 62
     8
370
    18
100
AcDbLine
 10
815.0474142472
 20
960.7922218653
 30
0.0
 11
921.0474142472
 21
960.7922218653
 31
0.0
  0
LINE
  5
204
330
1F
100
AcDbEntity
  8
0
  6
Continuous
 62
     8
370
    18
100
AcDbLine
 10
921.0474142472
 20
960.7922218653
 30
0.0
 11
948.9874418285
 21
960.7922218653
 31
0.0
  0
LINE
  5
205
330
1F
100
AcDbEntity
  8
0
  6
Continuous
 62
     8
370
    18
100
AcDbLine
 10
815.0474142472
 20
960.7922218653
 30
0.0
 11
815.0474142472
 21
959.8704545001
 31
0.0
  0
LINE
  5
206
330
1F
100
AcDbEntity
  8
0
  6
Continuous
 62
     8
370
    18
100
AcDbLine
 10
921.0474142472
 20
960.7922218653
 30
0.0
 11
921.0474142472
 21
959.8704545001
 31
0.0
  0
LINE
  5
207
330
1F
100
AcDbEntity
  8
0
  6
Continuous
 62
     8
370
    18
100
AcDbLine
 10
996.241362705
 20
911.6350233936
 30
0.0
 11
996.241362705
 21
951.6350233936
 31
0.0
  0
LINE
  5
208
330
1F
100
AcDbEntity
  8
0
  6
Continuous
 62
     8
370
    18
100
AcDbLine
 10
996.8471609412
 20
951.5732215655
 30
0.0
 11
996.8471609412
 21
911.6968252218
 31
0.0
  0
LINE
  5
209
330
1F
100
AcDbEntity
  8
0
  6
Continuous
 62
     8
370
    18
100
AcDbLine
 10
1480.5474142472
 20
968.0814618932
 30
0.0
 11
1480.5474142472
 21
969.0814618932
 31
0.0
  0
LINE
  5
20A
330
1F
100
AcDbEntity
  8
0
  6
Continuous
 62
     8
370
    18
100
AcDbLine
 10
255.5474142472
 20
969.0814618932
 30
0.0
 11
255.5474142472
 21
968.0814618932
 31
0.0
  0
LINE
  5
20B
330
1F
100
AcDbEntity
  8
0
  6
Continuous
 62
     8
370
    18
100
AcDbLine
 10
1458.0474142472
 20
962.3556024148
 30
0.0
 11
1460.0474142472
 21
962.3556024148
 31
0.0
  0
LINE
  5
20C
330
1F
100
AcDbEntity
  8
0
  6
Continuous
 62
     8
370
    18
100
AcDbLine
 10
1460.0474142472
 20
960.5429868407
 30
0.0
 11
1458.0474142472
 21
960.5429868407
 31
0.0
  0
LINE
  5
20D
330
1F
100
AcDbEntity
  8
0
  6
Continuous
 62
     8
370
    18
100
AcDbLine
 10
1458.0474142472
 20
953.2846875561
 30
0.0
 11
1460.0474142472
 21
953.2846875561
 31
0.0
  0
LINE
  5
20E
330
1F
100
AcDbEntity
  8
0
  6
Continuous
 62
     8
370
    18
100
AcDbLine
 10
1460.0474142472
 20
951.472071982
 30
0.0
 11
1458.0474142472
 21
951.472071982
 31
0.0
  0
LINE
  5
20F
330
1F
100
AcDbEntity
  8
0
  6
Continuous
 62
     8
370
    18
100
AcDbLine
 10
1458.0474142472
 20
917.1814618932
 30
0.0
 11
1460.0474142472
 21
917.1814618932
 31
0.0
  0
LINE
  5
210
330
1F
100
AcDbEntity
  8
0
  6
Continuous
 62
     8
370
    18
100
AcDbLine
 10
276.0474142472
 20
962.3556024148
 30
0.0
 11
278.0474142472
 21
962.3556024148
 31
0.0
  0
LINE
  5
211
330
1F
100
AcDbEntity
  8
0
  6
Continuous
 62
     8
370
    18
100
AcDbLine
 10
278.0474142472
 20
960.5429868407
 30
0.0
 11
276.0474142472
 21
960.5429868407
 31
0.0
  0
LINE
  5
212
330
1F
100
AcDbEntity
  8
0
  6
Continuous
 62
     8
370
    18
100
AcDbLine
 10
276.0474142472
 20
953.2846875561
 30
0.0
 11
278.0474142472
 21
953.2846875561
 31
0.0
  0
LINE
  5
213
330
1F
100
AcDbEntity
  8
0
  6
Continuous
 62
     8
370
    18
100
AcDbLine
 10
278.0474142472
 20
951.472071982
 30
0.0
 11
276.0474142472
 21
951.472071982
 31
0.0
  0
LINE
  5
214
330
1F
100
AcDbEntity
  8
0
  6
Continuous
 62
     8
370
    18
100
AcDbLine
 10
276.0474142472
 20
917.1814618932
 30
0.0
 11
278.0474142472
 21
917.1814618932
 31
0.0
  0
LINE
  5
215
330
1F
100
AcDbEntity
  8
0
  6
Continuous
 62
     7
370
    35
100
AcDbLine
 10
1458.0474142472
 20
683.5401227277
 30
0.0
 11
278.0474142472
 21
683.5401227277
 31
0.0
  0
LINE
  5
216
330
1F
100
AcDbEntity
  8
0
  6
Continuous
 62
     7
370
    35
100
AcDbLine
 10
1458.0474142472
 20
680.5401227277
 30
0.0
 11
278.0474142472
 21
680.5401227277
 31
0.0
  0
LINE
  5
217
330
1F
100
AcDbEntity
  8
0
  6
Continuous
 62
     7
370
    35
100
AcDbLine
 10
1458.0474142472
 20
683.45433629
 30
0.0
 11
1458.0474142472
 21
680.6259091653
 31
0.0
  0
LINE
  5
218
330
1F
100
AcDbEntity
  8
0
  6
Continuous
 62
     7
370
    35
100
AcDbLine
 10
278.0474142472
 20
680.6259091653
 30
0.0
 11
278.0474142472
 21
683.45433629
 31
0.0
  0
LINE
  5
219
330
1F
100
AcDbEntity
  8
0
  6
Continuous
 62
     7
370
    35
100
AcDbLine
 10
278.0474142472
 20
616.5401227277
 30
0.0
 11
1458.0474142472
 21
616.5401227277
 31
0.0
  0
LINE
  5
21A
330
1F
100
AcDbEntity
  8
0
  6
Continuous
 62
     7
370
    35
100
AcDbLine
 10
278.0474142472
 20
613.5401227277
 30
0.0
 11
1458.0474142472
 21
613.5401227277
 31
0.0
  0
LINE
  5
21B
330
1F
100
AcDbEntity
  8
0
  6
Continuous
 62
     7
370
    35
100
AcDbLine
 10
278.0474142472
 20
613.6259091653
 30
0.0
 11
278.0474142472
 21
616.45433629
 31
0.0
  0
LINE
  5
21C
330
1F
100
AcDbEntity
  8
0
  6
Continuous
 62
     7
370
    35
100
AcDbLine
 10
1458.0474142472
 20
616.45433629
 30
0.0
 11
1458.0474142472
 21
613.6259091653
 31
0.0
  0
LINE
  5
21D
330
1F
100
AcDbEntity
  8
0
  6
Continuous
 62
     7
370
    35
100
AcDbLine
 10
1458.0474142472
 20
684.5401227277
 30
0.0
 11
1458.0474142472
 21
683.5401227277
 31
0.0
  0
LINE
  5
21E
330
1F
100
AcDbEntity
  8
0
  6
Continuous
 62
     7
370
    35
100
AcDbLine
 10
278.0474142472
 20
683.5401227277
 30
0.0
 11
278.0474142472
 21
684.5401227277
 31
0.0
  0
LINE
  5
21F
330
1F
100
AcDbEntity
  8
0
  6
Continuous
 62
     7
370
    35
100
AcDbLine
 10
1458.0474142472
 20
612.5401227277
 30
0.0
 11
1458.0474142472
 21
613.5401227277
 31
0.0
  0
LINE
  5
220
330
1F
100
AcDbEntity
  8
0
  6
Continuous
 62
     7
370
    35
100
AcDbLine
 10
278.0474142472
 20
613.5401227277
 30
0.0
 11
278.0474142472
 21
612.5401227277
 31
0.0
  0
LINE
  5
221
330
1F
100
AcDbEntity
  8
0
  6
Continuous
 62
     7
370
    35
100
AcDbLine
 10
278.0474142472
 20
714.0401227277
 30
0.0
 11
1458.0474142472
 21
714.0401227277
 31
0.0
  0
LINE
  5
222
330
1F
100
AcDbEntity
  8
0
  6
Continuous
 62
     7
370
    35
100
AcDbLine
 10
1458.0474142472
 20
714.0401227277
 30
0.0
 11
1458.0474142472
 21
684.5401227277
 31
0.0
  0
LINE
  5
223
330
1F
100
AcDbEntity
  8
0
  6
Continuous
 62
     7
370
    35
100
AcDbLine
 10
278.0474142472
 20
684.5401227277
 30
0.0
 11
278.0474142472
 21
714.0401227277
 31
0.0
  0
LINE
  5
224
330
1F
100
AcDbEntity
  8
0
  6
Continuous
 62
     7
370
    35
100
AcDbLine
 10
1458.0474142472
 20
583.0401227277
 30
0.0
 11
278.0474142472
 21
583.0401227277
 31
0.0
  0
LINE
  5
225
330
1F
100
AcDbEntity
  8
0
  6
Continuous
 62
     7
370
    35
100
AcDbLine
 10
1458.0474142472
 20
612.5401227277
 30
0.0
 11
1458.0474142472
 21
583.0401227277
 31
0.0
  0
LINE
  5
226
330
1F
100
AcDbEntity
  8
0
  6
Continuous
 62
     7
370
    35
100
AcDbLine
 10
278.0474142472
 20
583.0401227277
 30
0.0
 11
278.0474142472
 21
612.5401227277
 31
0.0
  0
SPLINE
  5
227
330
1F
100
AcDbEntity
  8
0
  6
Continuous
 62
     7
370
    35
100
AcDbSpline
210
0.0
220
0.0
230
1.0
 70
     8
 71
     3
 72
     8
 73
     4
 74
     0
 42
0.000000001
 43
0.00000001
 40
0.0
 40
0.0
 40
0.0
 40
0.0
 40
1.0
 40
1.0
 40
1.0
 40
1.0
 10
921.047414247241
 20
677.7959069262674
 30
0.0
 10
923.3045365042536
 20
677.7959069262674
 30
0.0
 10
925.5613652220405
 20
677.7279157202236
 30
0.0
 10
927.814677219129
 20
677.5970171018791
 30
0.0
  0
LINE
  5
228
330
1F
100
AcDbEntity
  8
0
  6
Continuous
 62
     7
370
    35
100
AcDbLine
 10
815.0474142472
 20
677.7959069263
 30
0.0
 11
921.0474142472
 21
677.7959069263
 31
0.0
  0
SPLINE
  5
229
330
1F
100
AcDbEntity
  8
0
  6
Continuous
 62
     7
370
    35
100
AcDbSpline
210
0.0
220
0.0
230
1.0
 70
     8
 71
     3
 72
     8
 73
     4
 74
     0
 42
0.000000001
 43
0.00000001
 40
0.0
 40
0.0
 40
0.0
 40
0.0
 40
1.0
 40
1.0
 40
1.0
 40
1.0
 10
808.2801512753532
 20
677.5970171018791
 30
0.0
 10
810.5334629657465
 20
677.7279157021945
 30
0.0
 10
812.7902870960102
 20
677.7959069262674
 30
0.0
 10
815.0474142472411
 20
677.7959069262674
 30
0.0
  0
SPLINE
  5
22A
330
1F
100
AcDbEntity
  8
0
  6
Continuous
 62
     7
370
    35
100
AcDbSpline
210
0.0
220
0.0
230
1.0
 70
     8
 71
     3
 72
    22
 73
    18
 74
     0
 42
0.000000001
 43
0.00000001
 40
3.369126305560274
 40
3.369126305560274
 40
3.369126305560274
 40
3.369126305560274
 40
3.535853022596993
 40
3.535853022596993
 40
3.702579739633712
 40
3.702579739633712
 40
3.869306456670431
 40
3.869306456670431
 40
4.036033173707151
 40
4.036033173707151
 40
4.20275989074387
 40
4.20275989074387
 40
4.369486607780589
 40
4.369486607780589
 40
4.536213324817307
 40
4.536213324817307
 40
4.702940041854027
 40
4.702940041854027
 40
4.702940041854027
 40
4.702940041854027
 10
785.0487534738672
 20
648.6537098894426
 30
0.0
 10
785.0645072374483
 20
650.320912473343
 30
0.0
 10
785.2195644557676
 20
651.9867576182294
 30
0.0
 10
785.8039940053285
 20
655.2696772595148
 30
0.0
 10
786.2333587268799
 20
656.8866996905317
 30
0.0
 10
787.3545022285648
 20
660.0271067530264
 30
0.0
 10
788.0462665890117
 20
661.55045099388
 30
0.0
 10
789.673030849117
 20
664.4612511092402
 30
0.0
 10
790.6080098260027
 20
665.8486695462329
 30
0.0
 10
792.6952790353805
 20
668.4491361422729
 30
0.0
 10
793.8475424222744
 20
669.6621508551882
 30
0.0
 10
796.3374293740319
 20
671.8801639834192
 30
0.0
 10
797.6750209149934
 20
672.8851338715621
 30
0.0
 10
800.4984724173005
 20
674.6591803432356
 30
0.0
 10
801.9842960645739
 20
675.4282341097099
 30
0.0
 10
805.0630080249196
 20
676.7091134696658
 30
0.0
 10
806.6558472389823
 20
677.2209203889064
 30
0.0
 10
808.2801512753532
 20
677.5970171018791
 30
0.0
  0
SPLINE
  5
22B
330
1F
100
AcDbEntity
  8
0
  6
Continuous
 62
     7
370
    35
100
AcDbSpline
210
0.0
220
0.0
230
1.0
 70
     8
 71
     3
 72
     8
 73
     4
 74
     0
 42
0.000000001
 43
0.00000001
 40
0.0
 40
0.0
 40
0.0
 40
0.0
 40
0.0000569949035218
 40
0.0000569949035218
 40
0.0000569949035218
 40
0.0000569949035218
 10
785.0477475865041
 20
648.5968155152309
 30
0.0
 10
785.0479708087645
 20
648.6157819515566
 30
0.0
 10
785.048306316998
 20
648.6347473983534
 30
0.0
 10
785.0487534738672
 20
648.6537098894426
 30
0.0
  0
SPLINE
  5
22C
330
1F
100
AcDbEntity
  8
0
  6
Continuous
 62
     7
370
    35
100
AcDbSpline
210
0.0
220
0.0
230
1.0
 70
     8
 71
     3
 72
     8
 73
     4
 74
     0
 42
0.000000001
 43
0.00000001
 40
0.0
 40
0.0
 40
0.0
 40
0.0
 40
0.0000569949035218
 40
0.0000569949035218
 40
0.0000569949035218
 40
0.0000569949035218
 10
951.0460750206149
 20
648.6537098894426
 30
0.0
 10
951.0465221774841
 20
648.6347473983534
 30
0.0
 10
951.0468576857177
 20
648.6157819515566
 30
0.0
 10
951.047080907978
 20
648.5968155152309
 30
0.0
  0
SPLINE
  5
22D
330
1F
100
AcDbEntity
  8
0
  6
Continuous
 62
     7
370
    35
100
AcDbSpline
210
0.0
220
0.0
230
1.0
 70
     8
 71
     3
 72
    22
 73
    18
 74
     0
 42
0.000000001
 43
0.00000001
 40
1.580245265325559
 40
1.580245265325559
 40
1.580245265325559
 40
1.580245265325559
 40
1.746971982362278
 40
1.746971982362278
 40
1.913698699398998
 40
1.913698699398998
 40
2.080425416435717
 40
2.080425416435717
 40
2.247152133472436
 40
2.247152133472436
 40
2.413878850509155
 40
2.413878850509155
 40
2.580605567545874
 40
2.580605567545874
 40
2.747332284582593
 40
2.747332284582593
 40
2.914059001619312
 40
2.914059001619312
 40
2.914059001619312
 40
2.914059001619312
 10
927.814677219129
 20
677.5970171018791
 30
0.0
 10
929.4389812554998
 20
677.2209203889064
 30
0.0
 10
931.0318204695625
 20
676.7091134696658
 30
0.0
 10
934.1105324299083
 20
675.4282341097099
 30
0.0
 10
935.5963560771818
 20
674.6591803432354
 30
0.0
 10
938.4198075794887
 20
672.8851338715621
 30
0.0
 10
939.7573991204503
 20
671.8801639834192
 30
0.0
 10
942.2472860722077
 20
669.6621508551882
 30
0.0
 10
943.3995494591018
 20
668.4491361422729
 30
0.0
 10
945.4868186684795
 20
665.8486695462327
 30
0.0
 10
946.4217976453652
 20
664.4612511092402
 30
0.0
 10
948.0485619054706
 20
661.55045099388
 30
0.0
 10
948.7403262659174
 20
660.0271067530265
 30
0.0
 10
949.8614697676022
 20
656.8866996905317
 30
0.0
 10
950.2908344891537
 20
655.2696772595148
 30
0.0
 10
950.8752640387146
 20
651.9867576182294
 30
0.0
 10
951.0303212570338
 20
650.3209124733429
 30
0.0
 10
951.0460750206149
 20
648.6537098894426
 30
0.0
  0
SPLINE
  5
22E
330
1F
100
AcDbEntity
  8
0
  6
Continuous
 62
     7
370
    35
100
AcDbSpline
210
0.0
220
0.0
230
1.0
 70
     8
 71
     3
 72
    14
 73
    10
 74
     0
 42
0.000000001
 43
0.00000001
 40
0.0
 40
0.0
 40
0.0
 40
0.0
 40
0.25
 40
0.25
 40
0.5
 40
0.5
 40
0.75
 40
0.75
 40
1.0
 40
1.0
 40
1.0
 40
1.0
 10
927.814677219129
 20
677.5968155152309
 30
0.0
 10
931.0632662881058
 20
676.8446264894795
 30
0.0
 10
934.1846303260284
 20
675.546001992424
 30
0.0
 10
939.8315333306423
 20
671.997909049077
 30
0.0
 10
942.3559148544127
 20
669.7491678536446
 30
0.0
 10
946.5304532731684
 20
664.5482346615646
 30
0.0
 10
948.1797545150748
 20
661.5971086976255
 30
0.0
 10
950.4220415184446
 20
655.3162945726361
 30
0.0
 10
951.014567679448
 20
651.9878937869561
 30
0.0
 10
951.0460750206149
 20
648.6535083027943
 30
0.0
  0
LINE
  5
22F
330
1F
100
AcDbEntity
  8
0
  6
Continuous
 62
     7
370
    35
100
AcDbLine
 10
927.8146772191
 20
677.5970171019
 30
0.0
 11
927.8146772191
 21
677.5968155152
 31
0.0
  0
SPLINE
  5
230
330
1F
100
AcDbEntity
  8
0
  6
Continuous
 62
     7
370
    35
100
AcDbSpline
210
0.0
220
0.0
230
1.0
 70
     8
 71
     3
 72
    14
 73
    10
 74
     0
 42
0.000000001
 43
0.00000001
 40
0.0
 40
0.0
 40
0.0
 40
0.0
 40
0.2499999999999999
 40
0.2499999999999999
 40
0.4999999999999999
 40
0.4999999999999999
 40
0.7499999999999999
 40
0.7499999999999999
 40
1.0
 40
1.0
 40
1.0
 40
1.0
 10
951.0460750206149
 20
648.4267371525408
 30
0.0
 10
951.014567679448
 20
645.0923516683789
 30
0.0
 10
950.4220415184446
 20
641.7639508826989
 30
0.0
 10
948.1797545150748
 20
635.4831367577095
 30
0.0
 10
946.5304532731684
 20
632.5320107937706
 30
0.0
 10
942.3559148544127
 20
627.3310776016905
 30
0.0
 10
939.8315333306423
 20
625.0823364062582
 30
0.0
 10
934.1846303260284
 20
621.5342434629111
 30
0.0
 10
931.0632662881059
 20
620.2356189658555
 30
0.0
 10
927.814677219129
 20
619.4834299401041
 30
0.0
  0
ARC
  5
231
330
1F
100
AcDbEntity
  8
0
  6
Continuous
 62
     7
370
    35
100
AcDbCircle
 10
921.0474142472
 20
648.5401227277
 30
0.0
 40
27.00000000000015
100
AcDbArc
 50
283.0367179551
 51
359.4586157013
  0
LINE
  5
232
330
1F
100
AcDbEntity
  8
0
  6
Continuous
 62
     7
370
    35
100
AcDbLine
 10
927.8146772191
 20
619.4832283535
 30
0.0
 11
927.8146772191
 21
619.4834299401
 31
0.0
  0
SPLINE
  5
233
330
1F
100
AcDbEntity
  8
0
  6
Continuous
 62
     7
370
    35
100
AcDbSpline
210
0.0
220
0.0
230
1.0
 70
     8
 71
     3
 72
    22
 73
    18
 74
     0
 42
0.000000001
 43
0.00000001
 40
3.369126305560276
 40
3.369126305560276
 40
3.369126305560276
 40
3.369126305560276
 40
3.535853022596996
 40
3.535853022596996
 40
3.702579739633714
 40
3.702579739633714
 40
3.869306456670433
 40
3.869306456670433
 40
4.036033173707152
 40
4.036033173707152
 40
4.20275989074387
 40
4.20275989074387
 40
4.369486607780589
 40
4.369486607780589
 40
4.536213324817308
 40
4.536213324817308
 40
4.702940041854027
 40
4.702940041854027
 40
4.702940041854027
 40
4.702940041854027
 10
951.0460750206149
 20
648.4265355658924
 30
0.0
 10
951.0303212570338
 20
646.7593329819921
 30
0.0
 10
950.8752640387146
 20
645.0934878371056
 30
0.0
 10
950.2908344891537
 20
641.8105681958202
 30
0.0
 10
949.8614697676021
 20
640.193545764803
 30
0.0
 10
948.7403262659172
 20
637.0531387023085
 30
0.0
 10
948.0485619054706
 20
635.529794461455
 30
0.0
 10
946.4217976453652
 20
632.618994346095
 30
0.0
 10
945.4868186684795
 20
631.2315759091023
 30
0.0
 10
943.3995494591018
 20
628.6311093130621
 30
0.0
 10
942.2472860722078
 20
627.4180946001469
 30
0.0
 10
939.7573991204503
 20
625.200081471916
 30
0.0
 10
938.4198075794887
 20
624.195111583773
 30
0.0
 10
935.5963560771818
 20
622.4210651120995
 30
0.0
 10
934.1105324299083
 20
621.652011345625
 30
0.0
 10
931.0318204695625
 20
620.3711319856692
 30
0.0
 10
929.4389812554999
 20
619.8593250664287
 30
0.0
 10
927.814677219129
 20
619.4832283534558
 30
0.0
  0
SPLINE
  5
234
330
1F
100
AcDbEntity
  8
0
  6
Continuous
 62
     7
370
    35
100
AcDbSpline
210
0.0
220
0.0
230
1.0
 70
     8
 71
     3
 72
    14
 73
    10
 74
     0
 42
0.000000001
 43
0.00000001
 40
0.0
 40
0.0
 40
0.0
 40
0.0
 40
0.25
 40
0.25
 40
0.5
 40
0.5
 40
0.75
 40
0.75
 40
1.0
 40
1.0
 40
1.0
 40
1.0
 10
808.2801512753531
 20
619.4834299401042
 30
0.0
 10
805.0315622063763
 20
620.2356189658556
 30
0.0
 10
801.9101981684538
 20
621.5342434629111
 30
0.0
 10
796.2632951638399
 20
625.0823364062582
 30
0.0
 10
793.7389136400692
 20
627.3310776016905
 30
0.0
 10
789.5643752213138
 20
632.5320107937706
 30
0.0
 10
787.9150739794073
 20
635.4831367577095
 30
0.0
 10
785.6727869760375
 20
641.7639508826989
 30
0.0
 10
785.0802608150342
 20
645.0923516683789
 30
0.0
 10
785.0487534738672
 20
648.4267371525408
 30
0.0
  0
ARC
  5
235
330
1F
100
AcDbEntity
  8
0
  6
Continuous
 62
     7
370
    35
100
AcDbCircle
 10
815.0474142472
 20
648.5401227277
 30
0.0
 40
27.00000000000015
100
AcDbArc
 50
180.5413842987
 51
256.9632820449
  0
LINE
  5
236
330
1F
100
AcDbEntity
  8
0
  6
Continuous
 62
     7
370
    35
100
AcDbLine
 10
808.2801512754
 20
619.4832283535
 30
0.0
 11
808.2801512754
 21
619.4834299401
 31
0.0
  0
SPLINE
  5
237
330
1F
100
AcDbEntity
  8
0
  6
Continuous
 62
     7
370
    35
100
AcDbSpline
210
0.0
220
0.0
230
1.0
 70
     8
 71
     3
 72
    22
 73
    18
 74
     0
 42
0.000000001
 43
0.00000001
 40
1.580245265325559
 40
1.580245265325559
 40
1.580245265325559
 40
1.580245265325559
 40
1.746971982362278
 40
1.746971982362278
 40
1.913698699398996
 40
1.913698699398996
 40
2.080425416435715
 40
2.080425416435715
 40
2.247152133472434
 40
2.247152133472434
 40
2.413878850509152
 40
2.413878850509152
 40
2.580605567545871
 40
2.580605567545871
 40
2.74733228458259
 40
2.74733228458259
 40
2.914059001619308
 40
2.914059001619308
 40
2.914059001619308
 40
2.914059001619308
 10
808.2801512753531
 20
619.4832283534558
 30
0.0
 10
806.6558472389822
 20
619.8593250664287
 30
0.0
 10
805.0630080249193
 20
620.3711319856693
 30
0.0
 10
801.9842960645738
 20
621.652011345625
 30
0.0
 10
800.4984724173004
 20
622.4210651120997
 30
0.0
 10
797.6750209149933
 20
624.195111583773
 30
0.0
 10
796.3374293740318
 20
625.200081471916
 30
0.0
 10
793.8475424222744
 20
627.4180946001469
 30
0.0
 10
792.6952790353804
 20
628.6311093130622
 30
0.0
 10
790.6080098260027
 20
631.2315759091023
 30
0.0
 10
789.6730308491169
 20
632.618994346095
 30
0.0
 10
788.0462665890116
 20
635.5297944614551
 30
0.0
 10
787.3545022285648
 20
637.0531387023086
 30
0.0
 10
786.2333587268799
 20
640.1935457648033
 30
0.0
 10
785.8039940053285
 20
641.8105681958205
 30
0.0
 10
785.2195644557676
 20
645.0934878371057
 30
0.0
 10
785.0645072374483
 20
646.7593329819921
 30
0.0
 10
785.0487534738672
 20
648.4265355658924
 30
0.0
  0
ARC
  5
238
330
1F
100
AcDbEntity
  8
0
  6
Continuous
 62
     7
370
    35
100
AcDbCircle
 10
921.0474142472
 20
648.5401227277
 30
0.0
 40
27.00000000000005
100
AcDbArc
 50
0.5413842987
 51
76.9632820449
  0
SPLINE
  5
239
330
1F
100
AcDbEntity
  8
0
  6
Continuous
 62
     7
370
    35
100
AcDbSpline
210
0.0
220
0.0
230
1.0
 70
     8
 71
     3
 72
    14
 73
    10
 74
     0
 42
0.000000001
 43
0.00000001
 40
0.0
 40
0.0
 40
0.0
 40
0.0
 40
0.25
 40
0.25
 40
0.5
 40
0.5
 40
0.75
 40
0.75
 40
1.0
 40
1.0
 40
1.0
 40
1.0
 10
785.0487534738672
 20
648.6535083027943
 30
0.0
 10
785.0802608150342
 20
651.9878937869561
 30
0.0
 10
785.6727869760375
 20
655.3162945726361
 30
0.0
 10
787.9150739794073
 20
661.5971086976255
 30
0.0
 10
789.5643752213138
 20
664.5482346615646
 30
0.0
 10
793.7389136400694
 20
669.7491678536446
 30
0.0
 10
796.2632951638399
 20
671.997909049077
 30
0.0
 10
801.910198168454
 20
675.546001992424
 30
0.0
 10
805.0315622063764
 20
676.8446264894795
 30
0.0
 10
808.2801512753532
 20
677.5968155152309
 30
0.0
  0
ARC
  5
23A
330
1F
100
AcDbEntity
  8
0
  6
Continuous
 62
     7
370
    35
100
AcDbCircle
 10
815.0474142472
 20
648.5401227277
 30
0.0
 40
27.00000000000005
100
AcDbArc
 50
103.0367179551
 51
179.4586157013
  0
LINE
  5
23B
330
1F
100
AcDbEntity
  8
0
  6
Continuous
 62
     7
370
    35
100
AcDbLine
 10
808.2801512754
 20
677.5970171019
 30
0.0
 11
808.2801512754
 21
677.5968155152
 31
0.0
  0
SPLINE
  5
23C
330
1F
100
AcDbEntity
  8
0
  6
Continuous
 62
     7
370
    35
100
AcDbSpline
210
0.0
220
0.0
230
1.0
 70
     8
 71
     3
 72
     8
 73
     4
 74
     0
 42
0.000000001
 43
0.00000001
 40
0.0
 40
0.0
 40
0.0
 40
0.0
 40
0.0000569949035229
 40
0.0000569949035229
 40
0.0000569949035229
 40
0.0000569949035229
 10
785.0487534738672
 20
648.4265355658924
 30
0.0
 10
785.048306316998
 20
648.445498056982
 30
0.0
 10
785.0479708087645
 20
648.4644635037793
 30
0.0
 10
785.0477475865041
 20
648.4834299401051
 30
0.0
  0
SPLINE
  5
23D
330
1F
100
AcDbEntity
  8
0
  6
Continuous
 62
     7
370
    35
100
AcDbSpline
210
0.0
220
0.0
230
1.0
 70
     8
 71
     3
 72
     8
 73
     4
 74
     0
 42
0.000000001
 43
0.00000001
 40
0.0
 40
0.0
 40
0.0
 40
0.0
 40
1.0
 40
1.0
 40
1.0
 40
1.0
 10
815.0474142472411
 20
619.2843385290676
 30
0.0
 10
812.7902919902285
 20
619.2843385290676
 30
0.0
 10
810.5334632724415
 20
619.3523297351114
 30
0.0
 10
808.2801512753531
 20
619.4832283534558
 30
0.0
  0
LINE
  5
23E
330
1F
100
AcDbEntity
  8
0
  6
Continuous
 62
     7
370
    35
100
AcDbLine
 10
921.0474142472
 20
619.2843385291
 30
0.0
 11
815.0474142472
 21
619.2843385291
 31
0.0
  0
SPLINE
  5
23F
330
1F
100
AcDbEntity
  8
0
  6
Continuous
 62
     7
370
    35
100
AcDbSpline
210
0.0
220
0.0
230
1.0
 70
     8
 71
     3
 72
     8
 73
     4
 74
     0
 42
0.000000001
 43
0.00000001
 40
0.0
 40
0.0
 40
0.0
 40
0.0
 40
1.0
 40
1.0
 40
1.0
 40
1.0
 10
927.814677219129
 20
619.483228353456
 30
0.0
 10
925.5613655287358
 20
619.3523297531406
 30
0.0
 10
923.304541398472
 20
619.2843385290676
 30
0.0
 10
921.047414247241
 20
619.2843385290676
 30
0.0
  0
SPLINE
  5
240
330
1F
100
AcDbEntity
  8
0
  6
Continuous
 62
     7
370
    35
100
AcDbSpline
210
0.0
220
0.0
230
1.0
 70
     8
 71
     3
 72
     8
 73
     4
 74
     0
 42
0.000000001
 43
0.00000001
 40
0.0
 40
0.0
 40
0.0
 40
0.0
 40
0.0000569949035229
 40
0.0000569949035229
 40
0.0000569949035229
 40
0.0000569949035229
 10
951.0470809079784
 20
648.4834299401051
 30
0.0
 10
951.0468576857181
 20
648.4644635037793
 30
0.0
 10
951.0465221774841
 20
648.445498056982
 30
0.0
 10
951.0460750206149
 20
648.4265355658924
 30
0.0
  0
SPLINE
  5
241
330
1F
100
AcDbEntity
  8
0
  6
Continuous
 62
     7
370
    35
100
AcDbSpline
210
0.0
220
0.0
230
1.0
 70
     8
 71
     3
 72
    10
 73
     6
 74
     0
 42
0.000000001
 43
0.00000001
 40
0.0
 40
0.0
 40
0.0
 40
0.0
 40
0.5
 40
0.5
 40
1.0
 40
1.0
 40
1.0
 40
1.0
 10
815.0474142472411
 20
619.2901227276675
 30
0.0
 10
813.9044540992837
 20
619.2901227276675
 30
0.0
 10
812.7692606215402
 20
619.3063967464959
 30
0.0
 10
810.5137342891693
 20
619.370831138505
 30
0.0
 10
809.3933983431134
 20
619.418988715811
 30
0.0
 10
808.2801512753531
 20
619.4834299401041
 30
0.0
  0
SPLINE
  5
242
330
1F
100
AcDbEntity
  8
0
  6
Continuous
 62
     7
370
    35
100
AcDbSpline
210
0.0
220
0.0
230
1.0
 70
     8
 71
     3
 72
    10
 73
     6
 74
     0
 42
0.000000001
 43
0.00000001
 40
0.0
 40
0.0
 40
0.0
 40
0.0
 40
0.5
 40
0.5
 40
1.0
 40
1.0
 40
1.0
 40
1.0
 10
815.0474142472411
 20
621.5401227276675
 30
0.0
 10
814.018674514153
 20
621.5401227276675
 30
0.0
 10
812.9969950378538
 20
621.5987162646766
 30
0.0
 10
810.9670694552083
 20
621.8306789386922
 30
0.0
 10
809.9588199384431
 20
622.0040356529796
 30
0.0
 10
808.956877572542
 20
622.2360286924389
 30
0.0
  0
SPLINE
  5
243
330
1F
100
AcDbEntity
  8
0
  6
Continuous
 62
     7
370
    35
100
AcDbSpline
210
0.0
220
0.0
230
1.0
 70
     8
 71
     3
 72
    10
 73
     6
 74
     0
 42
0.000000001
 43
0.00000001
 40
0.0
 40
0.0
 40
0.0
 40
0.0
 40
0.5
 40
0.5
 40
1.0
 40
1.0
 40
1.0
 40
1.0
 10
927.8146772191291
 20
619.4834299401041
 30
0.0
 10
926.7014301513688
 20
619.418988715811
 30
0.0
 10
925.5810942053129
 20
619.370831138505
 30
0.0
 10
923.3255678729419
 20
619.3063967464959
 30
0.0
 10
922.1903743951984
 20
619.2901227276675
 30
0.0
 10
921.047414247241
 20
619.2901227276675
 30
0.0
  0
SPLINE
  5
244
330
1F
100
AcDbEntity
  8
0
  6
Continuous
 62
     7
370
    35
100
AcDbSpline
210
0.0
220
0.0
230
1.0
 70
     8
 71
     3
 72
    10
 73
     6
 74
     0
 42
0.000000001
 43
0.00000001
 40
0.0
 40
0.0
 40
0.0
 40
0.0
 40
0.5
 40
0.5
 40
1.0
 40
1.0
 40
1.0
 40
1.0
 10
927.1379509219402
 20
622.2360286924389
 30
0.0
 10
926.1360085560382
 20
622.0040356529794
 30
0.0
 10
925.1277590392717
 20
621.8306789386919
 30
0.0
 10
923.0978334566244
 20
621.5987162646763
 30
0.0
 10
922.0761539803303
 20
621.5401227276675
 30
0.0
 10
921.047414247241
 20
621.5401227276675
 30
0.0
  0
SPLINE
  5
245
330
1F
100
AcDbEntity
  8
0
  6
Continuous
 62
     7
370
    35
100
AcDbSpline
210
0.0
220
0.0
230
1.0
 70
     8
 71
     3
 72
    10
 73
     6
 74
     0
 42
0.000000001
 43
0.00000001
 40
0.0
 40
0.0
 40
0.0
 40
0.0
 40
0.5
 40
0.5
 40
1.0
 40
1.0
 40
1.0
 40
1.0
 10
808.2801512753532
 20
677.596815515231
 30
0.0
 10
809.3933983431134
 20
677.661256739524
 30
0.0
 10
810.5137342891694
 20
677.7094143168299
 30
0.0
 10
812.7692606215403
 20
677.7738487088392
 30
0.0
 10
813.9044540992837
 20
677.7901227276675
 30
0.0
 10
815.0474142472411
 20
677.7901227276675
 30
0.0
  0
SPLINE
  5
246
330
1F
100
AcDbEntity
  8
0
  6
Continuous
 62
     7
370
    35
100
AcDbSpline
210
0.0
220
0.0
230
1.0
 70
     8
 71
     3
 72
    10
 73
     6
 74
     0
 42
0.000000001
 43
0.00000001
 40
0.0
 40
0.0
 40
0.0
 40
0.0
 40
0.5
 40
0.5
 40
1.0
 40
1.0
 40
1.0
 40
1.0
 10
808.956877572542
 20
674.844216762896
 30
0.0
 10
809.958819938444
 20
675.0762098023556
 30
0.0
 10
810.9670694552104
 20
675.2495665166432
 30
0.0
 10
812.9969950378578
 20
675.4815291906588
 30
0.0
 10
814.0186745141518
 20
675.5401227276675
 30
0.0
 10
815.0474142472411
 20
675.5401227276675
 30
0.0
  0
SPLINE
  5
247
330
1F
100
AcDbEntity
  8
0
  6
Continuous
 62
     7
370
    35
100
AcDbSpline
210
0.0
220
0.0
230
1.0
 70
     8
 71
     3
 72
    10
 73
     6
 74
     0
 42
0.000000001
 43
0.00000001
 40
0.0
 40
0.0
 40
0.0
 40
0.0
 40
0.5
 40
0.5
 40
1.0
 40
1.0
 40
1.0
 40
1.0
 10
921.047414247241
 20
677.7901227276675
 30
0.0
 10
922.1903743951984
 20
677.7901227276675
 30
0.0
 10
923.3255678729419
 20
677.7738487088392
 30
0.0
 10
925.5810942053128
 20
677.7094143168299
 30
0.0
 10
926.7014301513688
 20
677.661256739524
 30
0.0
 10
927.814677219129
 20
677.596815515231
 30
0.0
  0
SPLINE
  5
248
330
1F
100
AcDbEntity
  8
0
  6
Continuous
 62
     7
370
    35
100
AcDbSpline
210
0.0
220
0.0
230
1.0
 70
     8
 71
     3
 72
    10
 73
     6
 74
     0
 42
0.000000001
 43
0.00000001
 40
0.0
 40
0.0
 40
0.0
 40
0.0
 40
0.5
 40
0.5
 40
1.0
 40
1.0
 40
1.0
 40
1.0
 10
921.047414247241
 20
675.5401227276675
 30
0.0
 10
922.0761539803292
 20
675.5401227276675
 30
0.0
 10
923.0978334566283
 20
675.4815291906584
 30
0.0
 10
925.1277590392737
 20
675.2495665166427
 30
0.0
 10
926.1360085560391
 20
675.0762098023554
 30
0.0
 10
927.1379509219402
 20
674.844216762896
 30
0.0
  0
LINE
  5
249
330
1F
100
AcDbEntity
  8
0
  6
Continuous
 62
     7
370
    35
100
AcDbLine
 10
815.0474142472
 20
619.2901227277
 30
0.0
 11
921.0474142472
 21
619.2901227277
 31
0.0
  0
LINE
  5
24A
330
1F
100
AcDbEntity
  8
0
  6
Continuous
 62
     7
370
    35
100
AcDbLine
 10
921.0474142472
 20
621.5401227277
 30
0.0
 11
815.0474142472
 21
621.5401227277
 31
0.0
  0
LINE
  5
24B
330
1F
100
AcDbEntity
  8
0
  6
Continuous
 62
     7
370
    35
100
AcDbLine
 10
921.0474142472
 20
677.7901227277
 30
0.0
 11
815.0474142472
 21
677.7901227277
 31
0.0
  0
LINE
  5
24C
330
1F
100
AcDbEntity
  8
0
  6
Continuous
 62
     7
370
    35
100
AcDbLine
 10
815.0474142472
 20
675.5401227277
 30
0.0
 11
921.0474142472
 21
675.5401227277
 31
0.0
  0
SPLINE
  5
24D
330
1F
100
AcDbEntity
  8
0
  6
Continuous
 62
     7
370
    35
100
AcDbSpline
210
0.0
220
0.0
230
1.0
 70
     8
 71
     3
 72
     8
 73
     4
 74
     0
 42
0.000000001
 43
0.00000001
 40
0.0
 40
0.0
 40
0.0
 40
0.0
 40
1.0
 40
1.0
 40
1.0
 40
1.0
 10
951.0460750206149
 20
648.6535083027943
 30
0.0
 10
951.0478606959744
 20
648.5779179193764
 30
0.0
 10
951.0478606959744
 20
648.5023275359586
 30
0.0
 10
951.0460750206149
 20
648.4267371525408
 30
0.0
  0
SPLINE
  5
24E
330
1F
100
AcDbEntity
  8
0
  6
Continuous
 62
     7
370
    35
100
AcDbSpline
210
0.0
220
0.0
230
1.0
 70
     8
 71
     3
 72
     8
 73
     4
 74
     0
 42
0.000000001
 43
0.00000001
 40
0.0
 40
0.0
 40
0.0
 40
0.0
 40
1.0
 40
1.0
 40
1.0
 40
1.0
 10
948.0462089432775
 20
648.7952402717027
 30
0.0
 10
948.0478160511011
 20
648.6251619090126
 30
0.0
 10
948.0478160511011
 20
648.4550835463225
 30
0.0
 10
948.0462089432775
 20
648.2850051836324
 30
0.0
  0
SPLINE
  5
24F
330
1F
100
AcDbEntity
  8
0
  6
Continuous
 62
     7
370
    35
100
AcDbSpline
210
0.0
220
0.0
230
1.0
 70
     8
 71
     3
 72
     8
 73
     4
 74
     0
 42
0.000000001
 43
0.00000001
 40
0.0
 40
0.0
 40
0.0
 40
0.0
 40
0.0001133855751267
 40
0.0001133855751267
 40
0.0001133855751267
 40
0.0001133855751267
 10
951.047080907978
 20
648.4834299401042
 30
0.0
 10
951.0475249860064
 20
648.5211617399351
 30
0.0
 10
951.0475249860062
 20
648.5590837154094
 30
0.0
 10
951.0470809079779
 20
648.5968155152403
 30
0.0
  0
SPLINE
  5
250
330
1F
100
AcDbEntity
  8
0
  6
Continuous
 62
     7
370
    35
100
AcDbSpline
210
0.0
220
0.0
230
1.0
 70
     8
 71
     3
 72
     8
 73
     4
 74
     0
 42
0.000000001
 43
0.00000001
 40
0.0
 40
0.0
 40
0.0
 40
0.0
 40
1.0
 40
1.0
 40
1.0
 40
1.0
 10
788.0486195512046
 20
648.2850051836324
 30
0.0
 10
788.047012443381
 20
648.4550835463225
 30
0.0
 10
788.047012443381
 20
648.6251619090126
 30
0.0
 10
788.0486195512046
 20
648.7952402717027
 30
0.0
  0
SPLINE
  5
251
330
1F
100
AcDbEntity
  8
0
  6
Continuous
 62
     7
370
    35
100
AcDbSpline
210
0.0
220
0.0
230
1.0
 70
     8
 71
     3
 72
     8
 73
     4
 74
     0
 42
0.000000001
 43
0.00000001
 40
0.0
 40
0.0
 40
0.0
 40
0.0
 40
1.0
 40
1.0
 40
1.0
 40
1.0
 10
785.0487534738674
 20
648.4267371525408
 30
0.0
 10
785.0469677985078
 20
648.5023275359586
 30
0.0
 10
785.0469677985078
 20
648.5779179193764
 30
0.0
 10
785.0487534738674
 20
648.6535083027943
 30
0.0
  0
SPLINE
  5
252
330
1F
100
AcDbEntity
  8
0
  6
Continuous
 62
     7
370
    35
100
AcDbSpline
210
0.0
220
0.0
230
1.0
 70
     8
 71
     3
 72
     8
 73
     4
 74
     0
 42
0.000000001
 43
0.00000001
 40
0.0
 40
0.0
 40
0.0
 40
0.0
 40
0.0001133855751265
 40
0.0001133855751265
 40
0.0001133855751265
 40
0.0001133855751265
 10
785.0477475865042
 20
648.5968155152309
 30
0.0
 10
785.0473035084759
 20
648.5590837154032
 30
0.0
 10
785.0473035084759
 20
648.5211617399322
 30
0.0
 10
785.0477475865041
 20
648.4834299401043
 30
0.0
  0
SPLINE
  5
253
330
1F
100
AcDbEntity
  8
0
  6
Continuous
 62
     7
370
    35
100
AcDbSpline
210
0.0
220
0.0
230
1.0
 70
     8
 71
     3
 72
     9
 73
     5
 74
     0
 42
0.000000001
 43
0.00000001
 40
0.0
 40
0.0
 40
0.0
 40
0.0
 40
0.4946096718337124
 40
1.0
 40
1.0
 40
1.0
 40
1.0
 10
825.0474142472436
 20
643.6069482250404
 30
0.0
 10
825.0298948784105
 20
643.1258600468842
 30
0.0
 10
824.9944742834829
 20
642.1531977526498
 30
0.0
 10
824.7509088015738
 20
641.2148374440749
 30
0.0
 10
824.6278131627417
 20
640.7405992197861
 30
0.0
  0
SPLINE
  5
254
330
1F
100
AcDbEntity
  8
0
  6
Continuous
 62
     7
370
    35
100
AcDbSpline
210
0.0
220
0.0
230
1.0
 70
     8
 71
     3
 72
    16
 73
    12
 74
     0
 42
0.000000001
 43
0.00000001
 40
0.0
 40
0.0
 40
0.0
 40
0.0
 40
0.6093642604474535
 40
0.7233750503865236
 40
0.8172213162014321
 40
0.8496365726793015
 40
0.8823612341653048
 40
0.9067814804498373
 40
0.9311421346350485
 40
0.9706402276062258
 40
1.0
 40
1.0
 40
1.0
 40
1.0
 10
817.0816928043927
 20
631.6824844699449
 30
0.0
 10
816.5048585348037
 20
631.3848293939953
 30
0.0
 10
815.8200997691316
 20
631.0314836703643
 30
0.0
 10
815.1528567979399
 20
630.5057453467068
 30
0.0
 10
814.9826033999561
 20
630.3205923366494
 30
0.0
 10
814.9143299392763
 20
630.1719360364762
 30
0.0
 10
814.9026907982806
 20
630.078335371094
 30
0.0
 10
814.9272162464921
 20
629.9943726860851
 30
0.0
 10
814.983478954134
 20
629.9162336989118
 30
0.0
 10
815.0665511167981
 20
629.8540365030746
 30
0.0
 10
815.1349719852448
 20
629.8221465738445
 30
0.0
 10
815.1641454299041
 20
629.808549273683
 30
0.0
  0
SPLINE
  5
255
330
1F
100
AcDbEntity
  8
0
  6
Continuous
 62
     7
370
    35
100
AcDbSpline
210
0.0
220
0.0
230
1.0
 70
     8
 71
     3
 72
    13
 73
     9
 74
     0
 42
0.000000001
 43
0.00000001
 40
0.0
 40
0.0
 40
0.0
 40
0.0
 40
0.158507776389143
 40
0.3168380823631892
 40
0.4791716695216454
 40
0.6493085002787197
 40
0.8235953482371967
 40
1.0
 40
1.0
 40
1.0
 40
1.0
 10
802.5198020100859
 20
644.2189700671881
 30
0.0
 10
802.8123771638449
 20
643.2086446153833
 30
0.0
 10
803.3971998947911
 20
641.1891249047118
 30
0.0
 10
804.8932264464771
 20
638.3685221531515
 30
0.0
 10
806.8199051161829
 20
635.7384713451672
 30
0.0
 10
809.2189795139616
 20
633.3755387489188
 30
0.0
 10
812.0113057866959
 20
631.3196464038423
 30
0.0
 10
814.1089763155819
 20
630.3142721143355
 30
0.0
 10
815.1641454299041
 20
629.808549273683
 30
0.0
  0
SPLINE
  5
256
330
1F
100
AcDbEntity
  8
0
  6
Continuous
 62
     7
370
    35
100
AcDbSpline
210
0.0
220
0.0
230
1.0
 70
     8
 71
     3
 72
     9
 73
     5
 74
     0
 42
0.000000001
 43
0.00000001
 40
0.0
 40
0.0
 40
0.0
 40
0.0
 40
0.4781757401206171
 40
0.9999999999999999
 40
0.9999999999999999
 40
0.9999999999999999
 40
0.9999999999999999
 10
802.5198020100859
 20
652.8612753881472
 30
0.0
 10
802.2730756184203
 20
651.485029318277
 30
0.0
 10
801.7571013207629
 20
648.6069116004633
 30
0.0
 10
802.2582765940388
 20
645.7235684648879
 30
0.0
 10
802.5198020100859
 20
644.2189700671881
 30
0.0
  0
SPLINE
  5
257
330
1F
100
AcDbEntity
  8
0
  6
Continuous
 62
     7
370
    35
100
AcDbSpline
210
0.0
220
0.0
230
1.0
 70
     8
 71
     3
 72
    13
 73
     9
 74
     0
 42
0.000000001
 43
0.00000001
 40
0.0
 40
0.0
 40
0.0
 40
0.0
 40
0.1585077763891434
 40
0.3168380823631905
 40
0.4791716695216466
 40
0.6493085002787214
 40
0.8235953482372058
 40
1.0
 40
1.0
 40
1.0
 40
1.0
 10
802.5198020100859
 20
652.8612753881472
 30
0.0
 10
802.8123771638449
 20
653.871600839952
 30
0.0
 10
803.397199894791
 20
655.8911205506234
 30
0.0
 10
804.8932264464772
 20
658.7117233021837
 30
0.0
 10
806.8199051161829
 20
661.3417741101681
 30
0.0
 10
809.2189795139618
 20
663.7047067064166
 30
0.0
 10
812.0113057866956
 20
665.7605990514933
 30
0.0
 10
814.1089763155818
 20
666.7659733409997
 30
0.0
 10
815.1641454299041
 20
667.271696181652
 30
0.0
  0
SPLINE
  5
258
330
1F
100
AcDbEntity
  8
0
  6
Continuous
 62
     7
370
    35
100
AcDbSpline
210
0.0
220
0.0
230
1.0
 70
     8
 71
     3
 72
    16
 73
    12
 74
     0
 42
0.000000001
 43
0.00000001
 40
0.0
 40
0.0
 40
0.0
 40
0.0
 40
0.6093642604474542
 40
0.7233750503865221
 40
0.8172213162014309
 40
0.8496365726793004
 40
0.8823612341653067
 40
0.906781480449837
 40
0.9311421346350484
 40
0.9706402276062258
 40
1.0
 40
1.0
 40
1.0
 40
1.0
 10
817.0816928043927
 20
665.39776098539
 30
0.0
 10
816.5048585348037
 20
665.6954160613395
 30
0.0
 10
815.8200997691316
 20
666.0487617849707
 30
0.0
 10
815.1528567979399
 20
666.5745001086282
 30
0.0
 10
814.9826033999561
 20
666.7596531186856
 30
0.0
 10
814.9143299392763
 20
666.908309418859
 30
0.0
 10
814.9026907982806
 20
667.0019100842411
 30
0.0
 10
814.9272162464921
 20
667.0858727692502
 30
0.0
 10
814.983478954134
 20
667.1640117564232
 30
0.0
 10
815.0665511167981
 20
667.2262089522605
 30
0.0
 10
815.1349719852449
 20
667.2580988814905
 30
0.0
 10
815.1641454299041
 20
667.271696181652
 30
0.0
  0
SPLINE
  5
259
330
1F
100
AcDbEntity
  8
0
  6
Continuous
 62
     7
370
    35
100
AcDbSpline
210
0.0
220
0.0
230
1.0
 70
     8
 71
     3
 72
    11
 73
     7
 74
     0
 42
0.000000001
 43
0.00000001
 40
0.0
 40
0.0
 40
0.0
 40
0.0
 40
0.2606216717114562
 40
0.4632004480831475
 40
0.6713667795621414
 40
0.9999999999999999
 40
0.9999999999999999
 40
0.9999999999999999
 40
0.9999999999999999
 10
824.6278131627417
 20
656.3396462355491
 30
0.0
 10
824.2609317920804
 20
657.3413644153596
 30
0.0
 10
823.608876979571
 20
659.1217087232377
 30
0.0
 10
822.0715121177482
 20
661.3767083453007
 30
0.0
 10
820.0567463332574
 20
663.5913425256467
 30
0.0
 10
818.2114182474281
 20
664.7118046236167
 30
0.0
 10
817.0816928043927
 20
665.39776098539
 30
0.0
  0
SPLINE
  5
25A
330
1F
100
AcDbEntity
  8
0
  6
Continuous
 62
     7
370
    35
100
AcDbSpline
210
0.0
220
0.0
230
1.0
 70
     8
 71
     3
 72
     9
 73
     5
 74
     0
 42
0.000000001
 43
0.00000001
 40
0.0
 40
0.0
 40
0.0
 40
0.0
 40
0.4946096718337031
 40
1.0
 40
1.0
 40
1.0
 40
1.0
 10
825.0474142472436
 20
653.473297230295
 30
0.0
 10
825.0298948784105
 20
653.954385408451
 30
0.0
 10
824.9944742834829
 20
654.9270477026853
 30
0.0
 10
824.7509088015738
 20
655.8654080112602
 30
0.0
 10
824.6278131627417
 20
656.3396462355491
 30
0.0
  0
LINE
  5
25B
330
1F
100
AcDbEntity
  8
0
  6
Continuous
 62
     7
370
    35
100
AcDbLine
 10
825.0474142472
 20
653.4732972303
 30
0.0
 11
825.0474142472
 21
643.606948225
 31
0.0
  0
SPLINE
  5
25C
330
1F
100
AcDbEntity
  8
0
  6
Continuous
 62
     7
370
    35
100
AcDbSpline
210
0.0
220
0.0
230
1.0
 70
     8
 71
     3
 72
    11
 73
     7
 74
     0
 42
0.000000001
 43
0.00000001
 40
0.0
 40
0.0
 40
0.0
 40
0.0
 40
0.260621671711448
 40
0.4632004480831398
 40
0.6713667795621328
 40
1.0
 40
1.0
 40
1.0
 40
1.0
 10
824.6278131627417
 20
640.7405992197861
 30
0.0
 10
824.2609317920804
 20
639.7388810399757
 30
0.0
 10
823.6088769795709
 20
637.9585367320974
 30
0.0
 10
822.0715121177483
 20
635.7035371100346
 30
0.0
 10
820.0567463332574
 20
633.4889029296885
 30
0.0
 10
818.2114182474281
 20
632.3684408317184
 30
0.0
 10
817.0816928043927
 20
631.6824844699449
 30
0.0
  0
SPLINE
  5
25D
330
1F
100
AcDbEntity
  8
0
  6
Continuous
 62
     7
370
    35
100
AcDbSpline
210
0.0
220
0.0
230
1.0
 70
     8
 71
     3
 72
     9
 73
     5
 74
     0
 42
0.000000001
 43
0.00000001
 40
0.0
 40
0.0
 40
0.0
 40
0.0
 40
0.4946096718337005
 40
1.0
 40
1.0
 40
1.0
 40
1.0
 10
911.0474142472385
 20
653.4732972302946
 30
0.0
 10
911.0649336160717
 20
653.9543854084509
 30
0.0
 10
911.1003542109991
 20
654.9270477026852
 30
0.0
 10
911.3439196929083
 20
655.8654080112601
 30
0.0
 10
911.4670153317404
 20
656.3396462355489
 30
0.0
  0
SPLINE
  5
25E
330
1F
100
AcDbEntity
  8
0
  6
Continuous
 62
     7
370
    35
100
AcDbSpline
210
0.0
220
0.0
230
1.0
 70
     8
 71
     3
 72
    16
 73
    12
 74
     0
 42
0.000000001
 43
0.00000001
 40
0.0
 40
0.0
 40
0.0
 40
0.0
 40
0.6093642604474571
 40
0.7233750503865222
 40
0.8172213162014308
 40
0.8496365726793003
 40
0.8823612341653092
 40
0.9067814804498371
 40
0.9311421346350484
 40
0.9706402276062257
 40
0.9999999999999999
 40
0.9999999999999999
 40
0.9999999999999999
 40
0.9999999999999999
 10
919.0131356900895
 20
665.39776098539
 30
0.0
 10
919.5899699596785
 20
665.6954160613395
 30
0.0
 10
920.2747287253505
 20
666.0487617849707
 30
0.0
 10
920.9419716965423
 20
666.5745001086282
 30
0.0
 10
921.112225094526
 20
666.7596531186856
 30
0.0
 10
921.1804985552059
 20
666.908309418859
 30
0.0
 10
921.1921376962016
 20
667.001910084241
 30
0.0
 10
921.1676122479901
 20
667.0858727692502
 30
0.0
 10
921.1113495403482
 20
667.1640117564232
 30
0.0
 10
921.028277377684
 20
667.2262089522604
 30
0.0
 10
920.9598565092374
 20
667.2580988814905
 30
0.0
 10
920.930683064578
 20
667.271696181652
 30
0.0
  0
SPLINE
  5
25F
330
1F
100
AcDbEntity
  8
0
  6
Continuous
 62
     7
370
    35
100
AcDbSpline
210
0.0
220
0.0
230
1.0
 70
     8
 71
     3
 72
    13
 73
     9
 74
     0
 42
0.000000001
 43
0.00000001
 40
0.0
 40
0.0
 40
0.0
 40
0.0
 40
0.1585077763891429
 40
0.3168380823631891
 40
0.4791716695216451
 40
0.6493085002787193
 40
0.8235953482371966
 40
1.0
 40
1.0
 40
1.0
 40
1.0
 10
933.5750264843963
 20
652.8612753881469
 30
0.0
 10
933.2824513306373
 20
653.8716008399517
 30
0.0
 10
932.6976285996911
 20
655.8911205506232
 30
0.0
 10
931.201602048005
 20
658.7117233021835
 30
0.0
 10
929.2749233782993
 20
661.3417741101678
 30
0.0
 10
926.8758489805206
 20
663.7047067064165
 30
0.0
 10
924.0835227077863
 20
665.7605990514927
 30
0.0
 10
921.9858521789002
 20
666.7659733409996
 30
0.0
 10
920.930683064578
 20
667.271696181652
 30
0.0
  0
SPLINE
  5
260
330
1F
100
AcDbEntity
  8
0
  6
Continuous
 62
     7
370
    35
100
AcDbSpline
210
0.0
220
0.0
230
1.0
 70
     8
 71
     3
 72
     9
 73
     5
 74
     0
 42
0.000000001
 43
0.00000001
 40
0.0
 40
0.0
 40
0.0
 40
0.0
 40
0.4781757401206185
 40
0.9999999999999999
 40
0.9999999999999999
 40
0.9999999999999999
 40
0.9999999999999999
 10
933.5750264843963
 20
652.8612753881469
 30
0.0
 10
933.8217528760619
 20
651.4850293182769
 30
0.0
 10
934.3377271737193
 20
648.6069116004629
 30
0.0
 10
933.8365519004434
 20
645.7235684648878
 30
0.0
 10
933.5750264843963
 20
644.218970067188
 30
0.0
  0
SPLINE
  5
261
330
1F
100
AcDbEntity
  8
0
  6
Continuous
 62
     7
370
    35
100
AcDbSpline
210
0.0
220
0.0
230
1.0
 70
     8
 71
     3
 72
    13
 73
     9
 74
     0
 42
0.000000001
 43
0.00000001
 40
0.0
 40
0.0
 40
0.0
 40
0.0
 40
0.1585077763891435
 40
0.3168380823631907
 40
0.4791716695216468
 40
0.6493085002787218
 40
0.8235953482372058
 40
1.0
 40
1.0
 40
1.0
 40
1.0
 10
933.5750264843963
 20
644.218970067188
 30
0.0
 10
933.2824513306373
 20
643.208644615383
 30
0.0
 10
932.6976285996911
 20
641.1891249047115
 30
0.0
 10
931.2016020480049
 20
638.3685221531514
 30
0.0
 10
929.2749233782993
 20
635.7384713451669
 30
0.0
 10
926.8758489805203
 20
633.3755387489185
 30
0.0
 10
924.0835227077865
 20
631.319646403842
 30
0.0
 10
921.9858521789002
 20
630.3142721143353
 30
0.0
 10
920.930683064578
 20
629.808549273683
 30
0.0
  0
SPLINE
  5
262
330
1F
100
AcDbEntity
  8
0
  6
Continuous
 62
     7
370
    35
100
AcDbSpline
210
0.0
220
0.0
230
1.0
 70
     8
 71
     3
 72
    16
 73
    12
 74
     0
 42
0.000000001
 43
0.00000001
 40
0.0
 40
0.0
 40
0.0
 40
0.0
 40
0.6093642604474564
 40
0.7233750503865237
 40
0.817221316201432
 40
0.8496365726793013
 40
0.8823612341653073
 40
0.9067814804498374
 40
0.9311421346350486
 40
0.9706402276062258
 40
1.0
 40
1.0
 40
1.0
 40
1.0
 10
919.0131356900895
 20
631.6824844699449
 30
0.0
 10
919.5899699596785
 20
631.3848293939953
 30
0.0
 10
920.2747287253505
 20
631.0314836703643
 30
0.0
 10
920.9419716965423
 20
630.5057453467068
 30
0.0
 10
921.112225094526
 20
630.3205923366494
 30
0.0
 10
921.1804985552059
 20
630.1719360364762
 30
0.0
 10
921.1921376962016
 20
630.078335371094
 30
0.0
 10
921.1676122479901
 20
629.9943726860851
 30
0.0
 10
921.1113495403482
 20
629.9162336989118
 30
0.0
 10
921.028277377684
 20
629.8540365030746
 30
0.0
 10
920.9598565092373
 20
629.8221465738445
 30
0.0
 10
920.930683064578
 20
629.808549273683
 30
0.0
  0
SPLINE
  5
263
330
1F
100
AcDbEntity
  8
0
  6
Continuous
 62
     7
370
    35
100
AcDbSpline
210
0.0
220
0.0
230
1.0
 70
     8
 71
     3
 72
    11
 73
     7
 74
     0
 42
0.000000001
 43
0.00000001
 40
0.0
 40
0.0
 40
0.0
 40
0.0
 40
0.260621671711453
 40
0.4632004480831458
 40
0.6713667795621405
 40
0.9999999999999999
 40
0.9999999999999999
 40
0.9999999999999999
 40
0.9999999999999999
 10
911.4670153317404
 20
640.740599219786
 30
0.0
 10
911.8338967024017
 20
639.7388810399756
 30
0.0
 10
912.4859515149111
 20
637.9585367320973
 30
0.0
 10
914.023316376734
 20
635.7035371100345
 30
0.0
 10
916.0380821612246
 20
633.4889029296884
 30
0.0
 10
917.883410247054
 20
632.3684408317183
 30
0.0
 10
919.0131356900895
 20
631.6824844699449
 30
0.0
  0
SPLINE
  5
264
330
1F
100
AcDbEntity
  8
0
  6
Continuous
 62
     7
370
    35
100
AcDbSpline
210
0.0
220
0.0
230
1.0
 70
     8
 71
     3
 72
     9
 73
     5
 74
     0
 42
0.000000001
 43
0.00000001
 40
0.0
 40
0.0
 40
0.0
 40
0.0
 40
0.4946096718337097
 40
1.0
 40
1.0
 40
1.0
 40
1.0
 10
911.0474142472385
 20
643.6069482250402
 30
0.0
 10
911.0649336160717
 20
643.125860046884
 30
0.0
 10
911.1003542109991
 20
642.1531977526497
 30
0.0
 10
911.3439196929082
 20
641.2148374440748
 30
0.0
 10
911.4670153317404
 20
640.740599219786
 30
0.0
  0
LINE
  5
265
330
1F
100
AcDbEntity
  8
0
  6
Continuous
 62
     7
370
    35
100
AcDbLine
 10
911.0474142472
 20
653.4732972303
 30
0.0
 11
911.0474142472
 21
643.606948225
 31
0.0
  0
SPLINE
  5
266
330
1F
100
AcDbEntity
  8
0
  6
Continuous
 62
     7
370
    35
100
AcDbSpline
210
0.0
220
0.0
230
1.0
 70
     8
 71
     3
 72
    11
 73
     7
 74
     0
 42
0.000000001
 43
0.00000001
 40
0.0
 40
0.0
 40
0.0
 40
0.0
 40
0.2606216717114507
 40
0.4632004480831412
 40
0.6713667795621343
 40
1.0
 40
1.0
 40
1.0
 40
1.0
 10
911.4670153317404
 20
656.3396462355489
 30
0.0
 10
911.8338967024017
 20
657.3413644153593
 30
0.0
 10
912.4859515149112
 20
659.1217087232376
 30
0.0
 10
914.023316376734
 20
661.3767083453004
 30
0.0
 10
916.0380821612248
 20
663.5913425256465
 30
0.0
 10
917.883410247054
 20
664.7118046236167
 30
0.0
 10
919.0131356900895
 20
665.39776098539
 30
0.0
  0
SPLINE
  5
267
330
1F
100
AcDbEntity
  8
0
  6
Continuous
 62
     7
370
    35
100
AcDbSpline
210
0.0
220
0.0
230
1.0
 70
     8
 71
     3
 72
    17
 73
    13
 74
     0
 42
0.000000001
 43
0.00000001
 40
0.0
 40
0.0
 40
0.0
 40
0.0
 40
0.0352127301800318
 40
0.176861631680786
 40
0.2808325704307556
 40
0.3877934996385764
 40
0.4930479341421665
 40
0.5965428442053771
 40
0.7000016886007037
 40
0.8034759650084132
 40
0.9098495553099569
 40
1.0
 40
1.0
 40
1.0
 40
1.0
 10
815.0415097762744
 20
626.8028503319897
 30
0.0
 10
814.6413284341927
 20
626.8102543391888
 30
0.0
 10
812.6313529291145
 20
626.847442162669
 30
0.0
 10
809.4542050063143
 20
627.4033370921694
 30
0.0
 10
805.6845737395956
 20
628.8061920710257
 30
0.0
 10
802.5679016648483
 20
630.6310633781039
 30
0.0
 10
799.7836101605386
 20
632.9194858412061
 30
0.0
 10
797.4522469609548
 20
635.6163295492388
 30
0.0
 10
795.5925738908653
 20
638.6334819304375
 30
0.0
 10
794.2344178847542
 20
641.9388033040067
 30
0.0
 10
793.4404977391871
 20
645.2791948366283
 30
0.0
 10
793.3503255487775
 20
647.5146596316647
 30
0.0
 10
793.3089613305818
 20
648.5401227276677
 30
0.0
  0
SPLINE
  5
268
330
1F
100
AcDbEntity
  8
0
  6
Continuous
 62
     7
370
    35
100
AcDbSpline
210
0.0
220
0.0
230
1.0
 70
     8
 71
     3
 72
    17
 73
    13
 74
     0
 42
0.000000001
 43
0.00000001
 40
0.0
 40
0.0
 40
0.0
 40
0.0
 40
0.035214099368698
 40
0.176868508652279
 40
0.282315260467134
 40
0.387783752186613
 40
0.4930422793344894
 40
0.5965412136257896
 40
0.7000040808468523
 40
0.8049238598612684
 40
0.9098460499592917
 40
1.0
 40
1.0
 40
1.0
 40
1.0
 10
815.0415097762744
 20
670.2773951233454
 30
0.0
 10
814.6413398115458
 20
670.2699612440038
 30
0.0
 10
812.6314214510633
 20
670.2326233828567
 30
0.0
 10
809.4363403814331
 20
669.6771843827786
 30
0.0
 10
805.6726737427986
 20
668.2586895225131
 30
0.0
 10
802.5536945296735
 20
666.4403757808706
 30
0.0
 10
799.7837905027179
 20
664.1602585028645
 30
0.0
 10
797.452508909422
 20
661.4639202896589
 30
0.0
 10
795.5827037792
 20
658.4332364222292
 30
0.0
 10
794.2342079942309
 20
655.1238018534482
 30
0.0
 10
793.4387085483072
 20
651.7848005538873
 30
0.0
 10
793.3499711138672
 20
649.5656825571343
 30
0.0
 10
793.3089613305818
 20
648.5401227276677
 30
0.0
  0
SPLINE
  5
269
330
1F
100
AcDbEntity
  8
0
  6
Continuous
 62
     7
370
    35
100
AcDbSpline
210
0.0
220
0.0
230
1.0
 70
     8
 71
     3
 72
    17
 73
    13
 74
     0
 42
0.000000001
 43
0.00000001
 40
0.0
 40
0.0
 40
0.0
 40
0.0
 40
0.0352140993686984
 40
0.1768685086522799
 40
0.282315260467135
 40
0.3877837521866142
 40
0.4930422793344869
 40
0.5965412136257874
 40
0.7000040808468503
 40
0.8049238598612674
 40
0.9098460499592917
 40
1.0
 40
1.0
 40
1.0
 40
1.0
 10
921.0533187182077
 20
670.2773951233454
 30
0.0
 10
921.4534886829364
 20
670.2699612440035
 30
0.0
 10
923.4634070434189
 20
670.2326233828556
 30
0.0
 10
926.6584881130491
 20
669.6771843827783
 30
0.0
 10
930.4221547516836
 20
668.2586895225126
 30
0.0
 10
933.5411339648086
 20
666.4403757808701
 30
0.0
 10
936.3110379917644
 20
664.1602585028644
 30
0.0
 10
938.64231958506
 20
661.4639202896585
 30
0.0
 10
940.5121247152822
 20
658.4332364222289
 30
0.0
 10
941.8606205002512
 20
655.1238018534481
 30
0.0
 10
942.656119946175
 20
651.7848005538871
 30
0.0
 10
942.7448573806149
 20
649.5656825571341
 30
0.0
 10
942.7858671639003
 20
648.5401227276674
 30
0.0
  0
SPLINE
  5
26A
330
1F
100
AcDbEntity
  8
0
  6
Continuous
 62
     7
370
    35
100
AcDbSpline
210
0.0
220
0.0
230
1.0
 70
     8
 71
     3
 72
    17
 73
    13
 74
     0
 42
0.000000001
 43
0.00000001
 40
0.0
 40
0.0
 40
0.0
 40
0.0
 40
0.0352127301800313
 40
0.1768616316807852
 40
0.2808325704307546
 40
0.3877934996385751
 40
0.493047934142169
 40
0.5965428442053792
 40
0.7000016886007056
 40
0.8034759650084152
 40
0.9098495553099568
 40
1.0
 40
1.0
 40
1.0
 40
1.0
 10
921.0533187182077
 20
626.8028503319897
 30
0.0
 10
921.4535000602895
 20
626.8102543391886
 30
0.0
 10
923.4634755653676
 20
626.8474421626682
 30
0.0
 10
926.6406234881679
 20
627.4033370921692
 30
0.0
 10
930.4102547548865
 20
628.8061920710253
 30
0.0
 10
933.5269268296339
 20
630.6310633781035
 30
0.0
 10
936.3112183339434
 20
632.919485841206
 30
0.0
 10
938.6425815335274
 20
635.6163295492387
 30
0.0
 10
940.5022546036168
 20
638.6334819304374
 30
0.0
 10
941.8604106097281
 20
641.9388033040066
 30
0.0
 10
942.6543307552951
 20
645.2791948366281
 30
0.0
 10
942.7445029457047
 20
647.5146596316645
 30
0.0
 10
942.7858671639003
 20
648.5401227276674
 30
0.0
  0
LINE
  5
26B
330
1F
100
AcDbEntity
  8
0
  6
Continuous
 62
     7
370
    35
100
AcDbLine
 10
868.0474142472
 20
670.2813951952
 30
0.0
 11
815.0415097763
 21
670.2773951233
 31
0.0
  0
LINE
  5
26C
330
1F
100
AcDbEntity
  8
0
  6
Continuous
 62
     7
370
    35
100
AcDbLine
 10
868.0474142472
 20
626.7988502602
 30
0.0
 11
815.0415097763
 21
626.802850332
 31
0.0
  0
LINE
  5
26D
330
1F
100
AcDbEntity
  8
0
  6
Continuous
 62
     7
370
    35
100
AcDbLine
 10
868.0474142472
 20
670.2813951952
 30
0.0
 11
921.0533187182
 21
670.2773951233
 31
0.0
  0
LINE
  5
26E
330
1F
100
AcDbEntity
  8
0
  6
Continuous
 62
     7
370
    35
100
AcDbLine
 10
868.0474142472
 20
626.7988502602
 30
0.0
 11
921.0533187182
 21
626.802850332
 31
0.0
  0
LINE
  5
26F
330
1F
100
AcDbEntity
  8
0
  6
Continuous
 62
     7
370
    35
100
AcDbLine
 10
911.12435026
 20
654.5401227277
 30
0.0
 11
824.9704782345
 21
654.5401227277
 31
0.0
  0
LINE
  5
270
330
1F
100
AcDbEntity
  8
0
  6
Continuous
 62
     7
370
    35
100
AcDbLine
 10
911.12435026
 20
642.5401227277
 30
0.0
 11
824.9704782345
 21
642.5401227277
 31
0.0
  0
LINE
  5
271
330
1F
100
AcDbEntity
  8
0
  6
Continuous
 62
     7
370
    35
100
AcDbLine
 10
815.0474142472
 20
670.2901227277
 30
0.0
 11
921.0474142472
 21
670.2901227277
 31
0.0
  0
ARC
  5
272
330
1F
100
AcDbEntity
  8
0
  6
Continuous
 62
     7
370
    35
100
AcDbCircle
 10
815.0474142472
 20
648.5401227277
 30
0.0
 40
21.75000000000011
100
AcDbArc
 50
90.0
 51
270.0
  0
LINE
  5
273
330
1F
100
AcDbEntity
  8
0
  6
Continuous
 62
     7
370
    35
100
AcDbLine
 10
815.0474142472
 20
626.7901227277
 30
0.0
 11
921.0474142472
 21
626.7901227277
 31
0.0
  0
ARC
  5
274
330
1F
100
AcDbEntity
  8
0
  6
Continuous
 62
     7
370
    35
100
AcDbCircle
 10
921.0474142472
 20
648.5401227277
 30
0.0
 40
21.75000000000011
100
AcDbArc
 50
270.0
 51
90.0
  0
LINE
  5
275
330
1F
100
AcDbEntity
  8
0
  6
Continuous
 62
     7
370
    35
100
AcDbLine
 10
1458.0474142472
 20
714.0401227277
 30
0.0
 11
1480.5474142472
 21
714.0401227277
 31
0.0
  0
ARC
  5
276
330
1F
100
AcDbEntity
  8
0
  6
Continuous
 62
     7
370
    35
100
AcDbCircle
 10
1480.5474142472
 20
704.0401227277
 30
0.0
 40
10.00000000000023
100
AcDbArc
 50
0.0
 51
90.0
  0
LINE
  5
277
330
1F
100
AcDbEntity
  8
0
  6
Continuous
 62
     7
370
    35
100
AcDbLine
 10
1490.5474142472
 20
704.0401227277
 30
0.0
 11
1490.5474142472
 21
593.0401227277
 31
0.0
  0
ARC
  5
278
330
1F
100
AcDbEntity
  8
0
  6
Continuous
 62
     7
370
    35
100
AcDbCircle
 10
1480.5474142472
 20
593.0401227277
 30
0.0
 40
10.0
100
AcDbArc
 50
270.0
 51
0.0
  0
LINE
  5
279
330
1F
100
AcDbEntity
  8
0
  6
Continuous
 62
     7
370
    35
100
AcDbLine
 10
1480.5474142472
 20
583.0401227277
 30
0.0
 11
1458.0474142472
 21
583.0401227277
 31
0.0
  0
LINE
  5
27A
330
1F
100
AcDbEntity
  8
0
  6
Continuous
 62
     7
370
    35
100
AcDbLine
 10
278.0474142472
 20
583.0401227277
 30
0.0
 11
255.5474142472
 21
583.0401227277
 31
0.0
  0
ARC
  5
27B
330
1F
100
AcDbEntity
  8
0
  6
Continuous
 62
     7
370
    35
100
AcDbCircle
 10
255.5474142472
 20
593.0401227277
 30
0.0
 40
10.00000000000011
100
AcDbArc
 50
180.0
 51
270.0
  0
LINE
  5
27C
330
1F
100
AcDbEntity
  8
0
  6
Continuous
 62
     7
370
    35
100
AcDbLine
 10
245.5474142472
 20
593.0401227277
 30
0.0
 11
245.5474142472
 21
704.0401227277
 31
0.0
  0
ARC
  5
27D
330
1F
100
AcDbEntity
  8
0
  6
Continuous
 62
     7
370
    35
100
AcDbCircle
 10
255.5474142472
 20
704.0401227277
 30
0.0
 40
10.0
100
AcDbArc
 50
90.0
 51
180.0
  0
LINE
  5
27E
330
1F
100
AcDbEntity
  8
0
  6
Continuous
 62
     7
370
    35
100
AcDbLine
 10
255.5474142472
 20
714.0401227277
 30
0.0
 11
278.0474142472
 21
714.0401227277
 31
0.0
  0
LINE
  5
27F
330
1F
100
AcDbEntity
  8
0
  6
Continuous
 62
     7
370
    35
100
AcDbLine
 10
1458.0474142472
 20
683.5401227277
 30
0.0
 11
1460.0474142472
 21
683.5401227277
 31
0.0
  0
LINE
  5
280
330
1F
100
AcDbEntity
  8
0
  6
Continuous
 62
     7
370
    35
100
AcDbLine
 10
1460.0474142472
 20
683.5401227277
 30
0.0
 11
1460.0474142472
 21
613.5401227277
 31
0.0
  0
LINE
  5
281
330
1F
100
AcDbEntity
  8
0
  6
Continuous
 62
     7
370
    35
100
AcDbLine
 10
1460.0474142472
 20
613.5401227277
 30
0.0
 11
1458.0474142472
 21
613.5401227277
 31
0.0
  0
LINE
  5
282
330
1F
100
AcDbEntity
  8
0
  6
Continuous
 62
     7
370
    35
100
AcDbLine
 10
1458.0474142472
 20
613.5401227277
 30
0.0
 11
1458.0474142472
 21
613.6259091653
 31
0.0
  0
LINE
  5
283
330
1F
100
AcDbEntity
  8
0
  6
Continuous
 62
     7
370
    35
100
AcDbLine
 10
1458.0474142472
 20
616.45433629
 30
0.0
 11
1458.0474142472
 21
680.6259091653
 31
0.0
  0
LINE
  5
284
330
1F
100
AcDbEntity
  8
0
  6
Continuous
 62
     7
370
    35
100
AcDbLine
 10
1458.0474142472
 20
683.45433629
 30
0.0
 11
1458.0474142472
 21
683.5401227277
 31
0.0
  0
LINE
  5
285
330
1F
100
AcDbEntity
  8
0
  6
Continuous
 62
     7
370
    35
100
AcDbLine
 10
278.0474142472
 20
613.5401227277
 30
0.0
 11
276.0474142472
 21
613.5401227277
 31
0.0
  0
LINE
  5
286
330
1F
100
AcDbEntity
  8
0
  6
Continuous
 62
     7
370
    35
100
AcDbLine
 10
276.0474142472
 20
613.5401227277
 30
0.0
 11
276.0474142472
 21
683.5401227277
 31
0.0
  0
LINE
  5
287
330
1F
100
AcDbEntity
  8
0
  6
Continuous
 62
     7
370
    35
100
AcDbLine
 10
278.0474142472
 20
683.5401227277
 30
0.0
 11
278.0474142472
 21
683.45433629
 31
0.0
  0
LINE
  5
288
330
1F
100
AcDbEntity
  8
0
  6
Continuous
 62
     7
370
    35
100
AcDbLine
 10
278.0474142472
 20
680.6259091653
 30
0.0
 11
278.0474142472
 21
616.45433629
 31
0.0
  0
LINE
  5
289
330
1F
100
AcDbEntity
  8
0
  6
Continuous
 62
     7
370
    35
100
AcDbLine
 10
278.0474142472
 20
613.6259091653
 30
0.0
 11
278.0474142472
 21
613.5401227277
 31
0.0
  0
LINE
  5
28A
330
1F
100
AcDbEntity
  8
0
  6
Continuous
 62
     7
370
    35
100
AcDbLine
 10
276.0474142472
 20
683.5401227277
 30
0.0
 11
278.0474142472
 21
683.5401227277
 31
0.0
  0
LINE
  5
28B
330
1F
100
AcDbEntity
  8
0
  6
Continuous
 62
     8
370
    18
100
AcDbLine
 10
1458.0474142472
 20
684.5401227277
 30
0.0
 11
278.0474142472
 21
684.5401227277
 31
0.0
  0
LINE
  5
28C
330
1F
100
AcDbEntity
  8
0
  6
Continuous
 62
     8
370
    18
100
AcDbLine
 10
278.0474142472
 20
612.5401227277
 30
0.0
 11
1458.0474142472
 21
612.5401227277
 31
0.0
  0
LINE
  5
28D
330
1F
100
AcDbEntity
  8
0
  6
Continuous
 62
     8
370
    18
100
AcDbLine
 10
278.0474142472
 20
679.5968155152
 30
0.0
 11
1458.0474142472
 21
679.5968155152
 31
0.0
  0
LINE
  5
28E
330
1F
100
AcDbEntity
  8
0
  6
Continuous
 62
     8
370
    18
100
AcDbLine
 10
278.0474142472
 20
617.4834299401
 30
0.0
 11
1458.0474142472
 21
617.4834299401
 31
0.0
  0
LINE
  5
28F
330
1F
100
AcDbEntity
  8
0
  6
Continuous
 62
     8
370
    18
100
AcDbLine
 10
278.0474142472
 20
648.5968155152
 30
0.0
 11
785.0477475865
 21
648.5968155152
 31
0.0
  0
LINE
  5
290
330
1F
100
AcDbEntity
  8
0
  6
Continuous
 62
     8
370
    18
100
AcDbLine
 10
951.047080908
 20
648.5968155152
 30
0.0
 11
1458.0474142472
 21
648.5968155152
 31
0.0
  0
LINE
  5
291
330
1F
100
AcDbEntity
  8
0
  6
Continuous
 62
     8
370
    18
100
AcDbLine
 10
951.0460750206
 20
648.6537098894
 30
0.0
 11
951.0460750206
 21
648.6535083028
 31
0.0
  0
ARC
  5
292
330
1F
100
AcDbEntity
  8
0
  6
Continuous
 62
     8
370
    18
100
AcDbCircle
 10
874.7977036469
 20
607.9086949736
 30
0.0
 40
54.2657716825461
100
AcDbArc
 50
12.3156445559
 51
15.3088218734
  0
ARC
  5
293
330
1F
100
AcDbEntity
  8
0
  6
Continuous
 62
     8
370
    18
100
AcDbCircle
 10
950.1730663182
 20
635.0865356471
 30
0.0
 40
13.36873667926132
100
AcDbArc
 50
86.2557918319
 51
99.1541892989
  0
LINE
  5
294
330
1F
100
AcDbEntity
  8
0
  6
Continuous
 62
     8
370
    18
100
AcDbLine
 10
951.0460750206
 20
648.4265355659
 30
0.0
 11
951.0460750206
 21
648.4267371525
 31
0.0
  0
ARC
  5
295
330
1F
100
AcDbEntity
  8
0
  6
Continuous
 62
     8
370
    18
100
AcDbCircle
 10
785.9217621762
 20
635.0865356471
 30
0.0
 40
13.36873667926277
100
AcDbArc
 50
80.8458107011
 51
93.7442081681
  0
ARC
  5
296
330
1F
100
AcDbEntity
  8
0
  6
Continuous
 62
     8
370
    18
100
AcDbCircle
 10
861.2971248473
 20
607.9086949737
 30
0.0
 40
54.26577168227642
100
AcDbArc
 50
164.6911781266
 51
167.6843554441
  0
LINE
  5
297
330
1F
100
AcDbEntity
  8
0
  6
Continuous
 62
     8
370
    18
100
AcDbLine
 10
785.0487534739
 20
648.4265355659
 30
0.0
 11
785.0487534739
 21
648.4267371525
 31
0.0
  0
ARC
  5
298
330
1F
100
AcDbEntity
  8
0
  6
Continuous
 62
     8
370
    18
100
AcDbCircle
 10
950.1730663182
 20
661.9937098082
 30
0.0
 40
13.36873667923936
100
AcDbArc
 50
260.8458107011
 51
273.7442081681
  0
ARC
  5
299
330
1F
100
AcDbEntity
  8
0
  6
Continuous
 62
     8
370
    18
100
AcDbCircle
 10
874.7977036469
 20
689.1715504817
 30
0.0
 40
54.26577168256998
100
AcDbArc
 50
344.6911781266
 51
347.6843554441
  0
ARC
  5
29A
330
1F
100
AcDbEntity
  8
0
  6
Continuous
 62
     8
370
    18
100
AcDbCircle
 10
861.2971248476
 20
689.1715504817
 30
0.0
 40
54.26577168256998
100
AcDbArc
 50
192.3156445559
 51
195.3088218734
  0
ARC
  5
29B
330
1F
100
AcDbEntity
  8
0
  6
Continuous
 62
     8
370
    18
100
AcDbCircle
 10
785.9217621762
 20
661.9937098082
 30
0.0
 40
13.36873667924073
100
AcDbArc
 50
266.2557918319
 51
279.1541892989
  0
LINE
  5
29C
330
1F
100
AcDbEntity
  8
0
  6
Continuous
 62
     8
370
    18
100
AcDbLine
 10
785.0487534739
 20
648.6537098894
 30
0.0
 11
785.0487534739
 21
648.6535083028
 31
0.0
  0
LINE
  5
29D
330
1F
100
AcDbEntity
  8
0
  6
Continuous
 62
     8
370
    18
100
AcDbLine
 10
278.0474142472
 20
648.4834299401
 30
0.0
 11
785.0477475865
 21
648.4834299401
 31
0.0
  0
LINE
  5
29E
330
1F
100
AcDbEntity
  8
0
  6
Continuous
 62
     8
370
    18
100
AcDbLine
 10
951.047080908
 20
648.4834299401
 30
0.0
 11
1458.0474142472
 21
648.4834299401
 31
0.0
  0
LINE
  5
29F
330
1F
100
AcDbEntity
  8
0
  6
Continuous
 62
     8
370
    18
100
AcDbLine
 10
815.0474142472
 20
621.5401227277
 30
0.0
 11
815.0474142472
 21
619.2901227277
 31
0.0
  0
LINE
  5
2A0
330
1F
100
AcDbEntity
  8
0
  6
Continuous
 62
     8
370
    18
100
AcDbLine
 10
921.0474142472
 20
621.5401227277
 30
0.0
 11
921.0474142472
 21
619.2901227277
 31
0.0
  0
LINE
  5
2A1
330
1F
100
AcDbEntity
  8
0
  6
Continuous
 62
     8
370
    18
100
AcDbLine
 10
815.0474142472
 20
677.7959069263
 30
0.0
 11
815.0474142472
 21
677.7901227277
 31
0.0
  0
LINE
  5
2A2
330
1F
100
AcDbEntity
  8
0
  6
Continuous
 62
     8
370
    18
100
AcDbLine
 10
815.0474142472
 20
677.7901227277
 30
0.0
 11
815.0474142472
 21
675.5401227277
 31
0.0
  0
LINE
  5
2A3
330
1F
100
AcDbEntity
  8
0
  6
Continuous
 62
     8
370
    18
100
AcDbLine
 10
921.0474142472
 20
677.7901227277
 30
0.0
 11
921.0474142472
 21
675.5401227277
 31
0.0
  0
LINE
  5
2A4
330
1F
100
AcDbEntity
  8
0
  6
Continuous
 62
     8
370
    18
100
AcDbLine
 10
921.0474142472
 20
677.7959069263
 30
0.0
 11
921.0474142472
 21
677.7901227277
 31
0.0
  0
LINE
  5
2A5
330
1F
100
AcDbEntity
  8
0
  6
Continuous
 62
     8
370
    18
100
AcDbLine
 10
815.0474142472
 20
619.2843385291
 30
0.0
 11
815.0474142472
 21
619.2901227277
 31
0.0
  0
LINE
  5
2A6
330
1F
100
AcDbEntity
  8
0
  6
Continuous
 62
     8
370
    18
100
AcDbLine
 10
921.0474142472
 20
619.2843385291
 30
0.0
 11
921.0474142472
 21
619.2901227277
 31
0.0
  0
SPLINE
  5
2A7
330
1F
100
AcDbEntity
  8
0
  6
Continuous
 62
     8
370
    18
100
AcDbSpline
210
0.0
220
0.0
230
1.0
 70
     8
 71
     3
 72
    17
 73
    13
 74
     0
 42
0.000000001
 43
0.00000001
 40
0.0
 40
0.0
 40
0.0
 40
0.0
 40
0.0000017599180569
 40
0.1227053397328989
 40
0.2502071717394769
 40
0.3526128094214137
 40
0.4578053944919549
 40
0.4930427252802659
 40
0.6348536903675568
 40
0.7415522131116642
 40
0.8461670224033155
 40
0.9999999999999999
 40
0.9999999999999999
 40
0.9999999999999999
 40
0.9999999999999999
 10
815.0415094153411
 20
626.7984104075504
 30
0.0
 10
815.0414894153414
 20
626.7984104091959
 30
0.0
 10
813.6470456488214
 20
626.7985251306015
 30
0.0
 10
810.798251339112
 20
627.0847835152124
 30
0.0
 10
806.9316153727385
 20
628.2351976716917
 30
0.0
 10
803.5343280598709
 20
629.9909892827882
 30
0.0
 10
801.3029384837085
 20
631.6376345347868
 30
0.0
 10
798.9424502804694
 20
633.8096028294387
 30
0.0
 10
796.8876636751069
 20
636.3392488330244
 30
0.0
 10
794.9969293393772
 20
639.8909826189
 30
0.0
 10
793.6232784951085
 20
643.8417108854337
 30
0.0
 10
793.4234583221081
 20
646.7870196340291
 30
0.0
 10
793.3045216015944
 20
648.5401227276677
 30
0.0
  0
LINE
  5
2A8
330
1F
100
AcDbEntity
  8
0
  6
Continuous
 62
     8
370
    18
100
AcDbLine
 10
793.3089613306
 20
648.5401227277
 30
0.0
 11
793.3045216016
 21
648.5401227277
 31
0.0
  0
LINE
  5
2A9
330
1F
100
AcDbEntity
  8
0
  6
Continuous
 62
     8
370
    18
100
AcDbLine
 10
815.0415097763
 20
626.802850332
 30
0.0
 11
815.0415094153
 21
626.7984104076
 31
0.0
  0
LWPOLYLINE
  5
2AA
330
1F
100
AcDbEntity
  8
0
  6
Continuous
 62
     8
370
    18
100
AcDbPolyline
 90
        3
 70
   128
 43
0.0
 10
815.0415094153
 20
626.7984104076
 10
815.0415087162
 20
626.7928714039
 10
815.0415084417
 20
626.7901235295
  0
SPLINE
  5
2AB
330
1F
100
AcDbEntity
  8
0
  6
Continuous
 62
     8
370
    18
100
AcDbSpline
210
0.0
220
0.0
230
1.0
 70
     8
 71
     3
 72
    17
 73
    13
 74
     0
 42
0.000000001
 43
0.00000001
 40
0.0
 40
0.0
 40
0.0
 40
0.0
 40
0.0000017599180569
 40
0.1227053397328982
 40
0.2502071717394759
 40
0.3526128094214188
 40
0.4578053944919601
 40
0.4930427252802668
 40
0.6348536903675577
 40
0.7415522131116653
 40
0.8461670224033166
 40
1.0
 40
1.0
 40
1.0
 40
1.0
 10
815.0415094153411
 20
670.2818350477846
 30
0.0
 10
815.0414894153414
 20
670.2818350461392
 30
0.0
 10
813.6470456489831
 20
670.2817203247332
 30
0.0
 10
810.7982513390333
 20
669.9954619401233
 30
0.0
 10
806.9316153727553
 20
668.8450477836438
 30
0.0
 10
803.5343280598665
 20
667.0892561725468
 30
0.0
 10
801.3029384837089
 20
665.4426109205482
 30
0.0
 10
798.942450280469
 20
663.2706426258966
 30
0.0
 10
796.8876636751069
 20
660.7409966223108
 30
0.0
 10
794.9969293393772
 20
657.1892628364352
 30
0.0
 10
793.6232784951085
 20
653.2385345699015
 30
0.0
 10
793.4234583221081
 20
650.2932258213062
 30
0.0
 10
793.3045216015944
 20
648.5401227276677
 30
0.0
  0
LWPOLYLINE
  5
2AC
330
1F
100
AcDbEntity
  8
0
  6
Continuous
 62
     8
370
    18
100
AcDbPolyline
 90
        3
 70
   128
 43
0.0
 10
815.0415094153
 20
670.2818350478
 10
815.0415087162
 20
670.2873740514
 10
815.0415084417
 20
670.2901219259
  0
LINE
  5
2AD
330
1F
100
AcDbEntity
  8
0
  6
Continuous
 62
     8
370
    18
100
AcDbLine
 10
815.0415097763
 20
670.2773951233
 30
0.0
 11
815.0415094153
 21
670.2818350478
 31
0.0
  0
SPLINE
  5
2AE
330
1F
100
AcDbEntity
  8
0
  6
Continuous
 62
     8
370
    18
100
AcDbSpline
210
0.0
220
0.0
230
1.0
 70
     8
 71
     3
 72
    17
 73
    13
 74
     0
 42
0.000000001
 43
0.00000001
 40
0.0
 40
0.0
 40
0.0
 40
0.0
 40
0.0000017599180569
 40
0.1227053397328997
 40
0.2502071717394774
 40
0.3526128094214174
 40
0.4578053944919589
 40
0.4930427252802678
 40
0.6348536903675589
 40
0.7415522131116665
 40
0.8461670224033151
 40
1.0
 40
1.0
 40
1.0
 40
1.0
 10
921.053319079141
 20
670.2818350477846
 30
0.0
 10
921.0533390791408
 20
670.2818350461392
 30
0.0
 10
922.4477828454997
 20
670.2817203247336
 30
0.0
 10
925.2965771554486
 20
669.9954619401226
 30
0.0
 10
929.1632131217268
 20
668.8450477836434
 30
0.0
 10
932.5605004346156
 20
667.0892561725465
 30
0.0
 10
934.7918900107733
 20
665.4426109205478
 30
0.0
 10
937.1523782140132
 20
663.2706426258962
 30
0.0
 10
939.2071648193753
 20
660.7409966223106
 30
0.0
 10
941.097899155105
 20
657.189262836435
 30
0.0
 10
942.4715499993737
 20
653.2385345699013
 30
0.0
 10
942.671370172374
 20
650.2932258213059
 30
0.0
 10
942.7903068928878
 20
648.5401227276674
 30
0.0
  0
LWPOLYLINE
  5
2AF
330
1F
100
AcDbEntity
  8
0
  6
Continuous
 62
     8
370
    18
100
AcDbPolyline
 90
        3
 70
   128
 43
0.0
 10
921.0533190791
 20
670.2818350478
 10
921.0533197783
 20
670.2873740514
 10
921.0533200527
 20
670.2901219259
  0
LINE
  5
2B0
330
1F
100
AcDbEntity
  8
0
  6
Continuous
 62
     8
370
    18
100
AcDbLine
 10
942.7858671639
 20
648.5401227277
 30
0.0
 11
942.7903068929
 21
648.5401227277
 31
0.0
  0
LINE
  5
2B1
330
1F
100
AcDbEntity
  8
0
  6
Continuous
 62
     8
370
    18
100
AcDbLine
 10
921.0533187182
 20
670.2773951233
 30
0.0
 11
921.0533190791
 21
670.2818350478
 31
0.0
  0
SPLINE
  5
2B2
330
1F
100
AcDbEntity
  8
0
  6
Continuous
 62
     8
370
    18
100
AcDbSpline
210
0.0
220
0.0
230
1.0
 70
     8
 71
     3
 72
    17
 73
    13
 74
     0
 42
0.000000001
 43
0.00000001
 40
0.0
 40
0.0
 40
0.0
 40
0.0
 40
0.0000017599180569
 40
0.1227053397328981
 40
0.2502071717394753
 40
0.352612809421415
 40
0.457805394491956
 40
0.4930427252802648
 40
0.6348536903675555
 40
0.7415522131116628
 40
0.8461670224033169
 40
1.0
 40
1.0
 40
1.0
 40
1.0
 10
921.053319079141
 20
626.7984104075504
 30
0.0
 10
921.0533390791408
 20
626.7984104091959
 30
0.0
 10
922.4477828456605
 20
626.7985251306018
 30
0.0
 10
925.2965771553703
 20
627.0847835152117
 30
0.0
 10
929.1632131217436
 20
628.2351976716913
 30
0.0
 10
932.5605004346113
 20
629.9909892827881
 30
0.0
 10
934.7918900107735
 20
631.6376345347867
 30
0.0
 10
937.1523782140129
 20
633.8096028294384
 30
0.0
 10
939.2071648193753
 20
636.3392488330239
 30
0.0
 10
941.097899155105
 20
639.8909826188998
 30
0.0
 10
942.4715499993737
 20
643.8417108854335
 30
0.0
 10
942.671370172374
 20
646.7870196340288
 30
0.0
 10
942.7903068928878
 20
648.5401227276674
 30
0.0
  0
LINE
  5
2B3
330
1F
100
AcDbEntity
  8
0
  6
Continuous
 62
     8
370
    18
100
AcDbLine
 10
921.0533187182
 20
626.802850332
 30
0.0
 11
921.0533190791
 21
626.7984104076
 31
0.0
  0
LWPOLYLINE
  5
2B4
330
1F
100
AcDbEntity
  8
0
  6
Continuous
 62
     8
370
    18
100
AcDbPolyline
 90
        3
 70
   128
 43
0.0
 10
921.0533190791
 20
626.7984104076
 10
921.0533197783
 20
626.7928714039
 10
921.0533200527
 20
626.7901235295
  0
SPLINE
  5
2B5
330
1F
100
AcDbEntity
  8
0
  6
Continuous
 62
     8
370
    18
100
AcDbSpline
210
0.0
220
0.0
230
1.0
 70
     8
 71
     3
 72
     9
 73
     5
 74
     0
 42
0.000000001
 43
0.00000001
 40
0.0
 40
0.0
 40
0.0
 40
0.0
 40
0.1546895589893172
 40
1.0
 40
1.0
 40
1.0
 40
1.0
 10
815.1641454299041
 20
667.271696181652
 30
0.0
 10
815.4071978864738
 20
667.1990216466523
 30
0.0
 10
816.978425176523
 20
666.7292127243535
 30
0.0
 10
818.402543085344
 20
665.9129346953098
 30
0.0
 10
819.6063648229004
 20
665.2229263545914
 30
0.0
  0
ARC
  5
2B6
330
1F
100
AcDbEntity
  8
0
  6
Continuous
 62
     8
370
    18
100
AcDbCircle
 10
821.0627814998
 20
663.7765963694
 30
0.0
 40
2.052564240820681
100
AcDbArc
 50
135.1990950654
 51
168.3527908008
  0
ARC
  5
2B7
330
1F
100
AcDbEntity
  8
0
  6
Continuous
 62
     8
370
    18
100
AcDbCircle
 10
821.0627814998
 20
633.3036490859
 30
0.0
 40
2.052564240821978
100
AcDbArc
 50
191.6472091992
 51
224.8009049346
  0
SPLINE
  5
2B8
330
1F
100
AcDbEntity
  8
0
  6
Continuous
 62
     8
370
    18
100
AcDbSpline
210
0.0
220
0.0
230
1.0
 70
     8
 71
     3
 72
    11
 73
     7
 74
     0
 42
0.000000001
 43
0.00000001
 40
0.0
 40
0.0
 40
0.0
 40
0.0
 40
0.0771531718714959
 40
0.1543573881090453
 40
0.5727608612303011
 40
1.0
 40
1.0
 40
1.0
 40
1.0
 10
815.1641454299041
 20
629.808549273683
 30
0.0
 10
815.2856993059368
 20
629.8442058051078
 30
0.0
 10
815.5288874777748
 20
629.9155424582387
 30
0.0
 10
816.4224158977123
 20
630.2075501541808
 30
0.0
 10
817.8352636888724
 20
630.7751222389327
 30
0.0
 10
819.0118997653384
 20
631.4940828024941
 30
0.0
 10
819.6063648229004
 20
631.8573191007437
 30
0.0
  0
SPLINE
  5
2B9
330
1F
100
AcDbEntity
  8
0
  6
Continuous
 62
     8
370
    18
100
AcDbSpline
210
0.0
220
0.0
230
1.0
 70
     8
 71
     3
 72
    11
 73
     7
 74
     0
 42
0.000000001
 43
0.00000001
 40
0.0
 40
0.0
 40
0.0
 40
0.0
 40
0.0771531718714945
 40
0.1543573881090452
 40
0.5727608612302947
 40
1.0
 40
1.0
 40
1.0
 40
1.0
 10
920.930683064578
 20
629.808549273683
 30
0.0
 10
920.8091291885454
 20
629.8442058051077
 30
0.0
 10
920.5659410167074
 20
629.9155424582386
 30
0.0
 10
919.6724125967698
 20
630.207550154181
 30
0.0
 10
918.2595648056096
 20
630.7751222389323
 30
0.0
 10
917.0829287291438
 20
631.494082802494
 30
0.0
 10
916.4884636715817
 20
631.8573191007436
 30
0.0
  0
ARC
  5
2BA
330
1F
100
AcDbEntity
  8
0
  6
Continuous
 62
     8
370
    18
100
AcDbCircle
 10
915.0320469947
 20
633.3036490859
 30
0.0
 40
2.052564240819581
100
AcDbArc
 50
315.1990950654
 51
348.3527908008
  0
ARC
  5
2BB
330
1F
100
AcDbEntity
  8
0
  6
Continuous
 62
     8
370
    18
100
AcDbCircle
 10
915.0320469947
 20
663.7765963694
 30
0.0
 40
2.052564240820681
100
AcDbArc
 50
11.6472091992
 51
44.8009049346
  0
SPLINE
  5
2BC
330
1F
100
AcDbEntity
  8
0
  6
Continuous
 62
     8
370
    18
100
AcDbSpline
210
0.0
220
0.0
230
1.0
 70
     8
 71
     3
 72
     9
 73
     5
 74
     0
 42
0.000000001
 43
0.00000001
 40
0.0
 40
0.0
 40
0.0
 40
0.0
 40
0.1546895589893174
 40
1.0
 40
1.0
 40
1.0
 40
1.0
 10
920.930683064578
 20
667.271696181652
 30
0.0
 10
920.6876306080084
 20
667.1990216466523
 30
0.0
 10
919.1164033179591
 20
666.7292127243535
 30
0.0
 10
917.6922854091382
 20
665.9129346953098
 30
0.0
 10
916.4884636715817
 20
665.2229263545914
 30
0.0
  0
SPLINE
  5
2BD
330
1F
100
AcDbEntity
  8
0
  6
Continuous
 62
     8
370
    18
100
AcDbSpline
210
0.0
220
0.0
230
1.0
 70
     8
 71
     3
 72
    14
 73
    10
 74
     0
 42
0.000000001
 43
0.00000001
 40
0.0
 40
0.0
 40
0.0
 40
0.0
 40
0.1114289230463662
 40
0.4958785649708809
 40
0.7046555305635169
 40
0.8301760374267304
 40
0.9121018798664131
 40
0.9942797082137673
 40
1.0
 40
1.0
 40
1.0
 40
1.0
 10
819.6063648229004
 20
631.8573191007437
 30
0.0
 10
819.7257558685425
 20
631.9396514659968
 30
0.0
 10
820.2570672979705
 20
632.3060451635773
 30
0.0
 10
820.9313588213303
 20
632.9388163143014
 30
0.0
 10
821.3892226090923
 20
633.7298008290016
 30
0.0
 10
821.4736803594258
 20
634.2399955628645
 30
0.0
 10
821.3912160665736
 20
634.5843241685287
 30
0.0
 10
821.2715091229512
 20
634.7620238892614
 30
0.0
 10
821.1907978497451
 20
634.8374064586842
 30
0.0
 10
821.1855452683192
 20
634.8423122552136
 30
0.0
  0
SPLINE
  5
2BE
330
1F
100
AcDbEntity
  8
0
  6
Continuous
 62
     8
370
    18
100
AcDbSpline
210
0.0
220
0.0
230
1.0
 70
     8
 71
     3
 72
    14
 73
    10
 74
     0
 42
0.000000001
 43
0.00000001
 40
0.0
 40
0.0
 40
0.0
 40
0.0
 40
0.1114289230463694
 40
0.4958785649708564
 40
0.7046555305635075
 40
0.8301760374267138
 40
0.912101879866411
 40
0.9942797082137677
 40
1.0
 40
1.0
 40
1.0
 40
1.0
 10
819.6063648229004
 20
665.2229263545914
 30
0.0
 10
819.7257558685425
 20
665.1405939893383
 30
0.0
 10
820.2570672979705
 20
664.7742002917578
 30
0.0
 10
820.9313588213303
 20
664.1414291410339
 30
0.0
 10
821.3892226090923
 20
663.3504446263336
 30
0.0
 10
821.4736803594258
 20
662.8402498924708
 30
0.0
 10
821.3912160665736
 20
662.4959212868067
 30
0.0
 10
821.2715091229513
 20
662.3182215660737
 30
0.0
 10
821.190797849745
 20
662.2428389966509
 30
0.0
 10
821.1855452683192
 20
662.2379332001215
 30
0.0
  0
ARC
  5
2BF
330
1F
100
AcDbEntity
  8
0
  6
Continuous
 62
     8
370
    18
100
AcDbCircle
 10
822.0474142472
 20
648.5401227277
 30
0.0
 40
20.0
100
AcDbArc
 50
90.0
 51
167.5224163015
  0
LINE
  5
2C0
330
1F
100
AcDbEntity
  8
0
  6
Continuous
 62
     8
370
    18
100
AcDbLine
 10
822.0474142472
 20
661.2527735146
 30
0.0
 11
822.0474142472
 21
668.5401227277
 31
0.0
  0
LINE
  5
2C1
330
1F
100
AcDbEntity
  8
0
  6
Continuous
 62
     8
370
    18
100
AcDbLine
 10
822.0474142472
 20
635.8274719408
 30
0.0
 11
822.0474142472
 21
628.5401227277
 31
0.0
  0
ARC
  5
2C2
330
1F
100
AcDbEntity
  8
0
  6
Continuous
 62
     8
370
    18
100
AcDbCircle
 10
822.0474142472
 20
648.5401227277
 30
0.0
 40
20.00000000000011
100
AcDbArc
 50
192.4775836985
 51
270.0
  0
ARC
  5
2C3
330
1F
100
AcDbEntity
  8
0
  6
Continuous
 62
     8
370
    18
100
AcDbCircle
 10
914.0474142472
 20
648.5401227277
 30
0.0
 40
19.99999999999989
100
AcDbArc
 50
270.0
 51
347.5224163015
  0
LINE
  5
2C4
330
1F
100
AcDbEntity
  8
0
  6
Continuous
 62
     8
370
    18
100
AcDbLine
 10
914.0474142472
 20
635.8274719408
 30
0.0
 11
914.0474142472
 21
628.5401227277
 31
0.0
  0
LINE
  5
2C5
330
1F
100
AcDbEntity
  8
0
  6
Continuous
 62
     8
370
    18
100
AcDbLine
 10
914.0474142472
 20
661.2527735146
 30
0.0
 11
914.0474142472
 21
668.5401227277
 31
0.0
  0
ARC
  5
2C6
330
1F
100
AcDbEntity
  8
0
  6
Continuous
 62
     8
370
    18
100
AcDbCircle
 10
914.0474142472
 20
648.5401227277
 30
0.0
 40
20.00000000000011
100
AcDbArc
 50
12.4775836985
 51
90.0
  0
SPLINE
  5
2C7
330
1F
100
AcDbEntity
  8
0
  6
Continuous
 62
     8
370
    18
100
AcDbSpline
210
0.0
220
0.0
230
1.0
 70
     8
 71
     3
 72
    14
 73
    10
 74
     0
 42
0.000000001
 43
0.00000001
 40
0.0
 40
0.0
 40
0.0
 40
0.0
 40
0.1114289230463655
 40
0.495878564970896
 40
0.704655530563517
 40
0.8301760374267437
 40
0.9121018798664137
 40
0.9942797082137674
 40
1.0
 40
1.0
 40
1.0
 40
1.0
 10
916.4884636715817
 20
665.2229263545914
 30
0.0
 10
916.3690726259397
 20
665.1405939893383
 30
0.0
 10
915.8377611965117
 20
664.7742002917578
 30
0.0
 10
915.163469673152
 20
664.1414291410335
 30
0.0
 10
914.7056058853899
 20
663.3504446263333
 30
0.0
 10
914.6211481350564
 20
662.8402498924704
 30
0.0
 10
914.7036124279088
 20
662.4959212868065
 30
0.0
 10
914.8233193715308
 20
662.3182215660736
 30
0.0
 10
914.9040306447371
 20
662.2428389966508
 30
0.0
 10
914.909283226163
 20
662.2379332001213
 30
0.0
  0
SPLINE
  5
2C8
330
1F
100
AcDbEntity
  8
0
  6
Continuous
 62
     8
370
    18
100
AcDbSpline
210
0.0
220
0.0
230
1.0
 70
     8
 71
     3
 72
    14
 73
    10
 74
     0
 42
0.000000001
 43
0.00000001
 40
0.0
 40
0.0
 40
0.0
 40
0.0
 40
0.1114289230463698
 40
0.4958785649708428
 40
0.7046555305635082
 40
0.8301760374267009
 40
0.9121018798664108
 40
0.9942797082137677
 40
1.0
 40
1.0
 40
1.0
 40
1.0
 10
916.4884636715817
 20
631.8573191007437
 30
0.0
 10
916.3690726259397
 20
631.9396514659968
 30
0.0
 10
915.8377611965118
 20
632.3060451635772
 30
0.0
 10
915.1634696731517
 20
632.938816314301
 30
0.0
 10
914.7056058853899
 20
633.7298008290014
 30
0.0
 10
914.6211481350564
 20
634.2399955628641
 30
0.0
 10
914.7036124279085
 20
634.5843241685284
 30
0.0
 10
914.8233193715309
 20
634.7620238892612
 30
0.0
 10
914.9040306447372
 20
634.8374064586841
 30
0.0
 10
914.909283226163
 20
634.8423122552135
 30
0.0
  0
LINE
  5
2C9
330
1F
100
AcDbEntity
  8
0
  6
Continuous
 62
     8
370
    18
100
AcDbLine
 10
868.0474142472
 20
670.2858351196
 30
0.0
 11
815.0415279301
 21
670.2818350492
 31
0.0
  0
LINE
  5
2CA
330
1F
100
AcDbEntity
  8
0
  6
Continuous
 62
     8
370
    18
100
AcDbLine
 10
868.0474142472
 20
670.2858351196
 30
0.0
 11
868.0474142472
 21
670.2813951952
 31
0.0
  0
LINE
  5
2CB
330
1F
100
AcDbEntity
  8
0
  6
Continuous
 62
     8
370
    18
100
AcDbLine
 10
868.0474142472
 20
626.7944103357
 30
0.0
 11
815.0415279301
 21
626.7984104062
 31
0.0
  0
LINE
  5
2CC
330
1F
100
AcDbEntity
  8
0
  6
Continuous
 62
     8
370
    18
100
AcDbLine
 10
868.0474142472
 20
626.7944103357
 30
0.0
 11
868.0474142472
 21
626.7988502602
 31
0.0
  0
LINE
  5
2CD
330
1F
100
AcDbEntity
  8
0
  6
Continuous
 62
     8
370
    18
100
AcDbLine
 10
868.0474142472
 20
670.2858351196
 30
0.0
 11
921.0533005644
 21
670.2818350492
 31
0.0
  0
LINE
  5
2CE
330
1F
100
AcDbEntity
  8
0
  6
Continuous
 62
     8
370
    18
100
AcDbLine
 10
868.0474142472
 20
626.7944103357
 30
0.0
 11
921.0533005644
 21
626.7984104062
 31
0.0
  0
LINE
  5
2CF
330
1F
100
AcDbEntity
  8
0
  6
Continuous
 62
     8
370
    18
100
AcDbLine
 10
822.0474142472
 20
668.5401227277
 30
0.0
 11
914.0474142472
 21
668.5401227277
 31
0.0
  0
LINE
  5
2D0
330
1F
100
AcDbEntity
  8
0
  6
Continuous
 62
     8
370
    18
100
AcDbLine
 10
822.0474142472
 20
628.5401227277
 30
0.0
 11
914.0474142472
 21
628.5401227277
 31
0.0
  0
LINE
  5
2D1
330
1F
100
AcDbEntity
  8
0
  6
Continuous
 62
     8
370
    18
100
AcDbLine
 10
815.0415279301
 20
670.2818350492
 30
0.0
 11
815.0415273047
 21
670.290121931
 31
0.0
  0
LINE
  5
2D2
330
1F
100
AcDbEntity
  8
0
  6
Continuous
 62
     8
370
    18
100
AcDbLine
 10
815.0415279301
 20
626.7984104062
 30
0.0
 11
815.0415273047
 21
626.7901235244
 31
0.0
  0
LINE
  5
2D3
330
1F
100
AcDbEntity
  8
0
  6
Continuous
 62
     8
370
    18
100
AcDbLine
 10
921.0533005644
 20
670.2818350492
 30
0.0
 11
921.0533011898
 21
670.290121931
 31
0.0
  0
LINE
  5
2D4
330
1F
100
AcDbEntity
  8
0
  6
Continuous
 62
     8
370
    18
100
AcDbLine
 10
921.0533005644
 20
626.7984104062
 30
0.0
 11
921.0533011898
 21
626.7901235244
 31
0.0
  0
LINE
  5
2D5
330
1F
100
AcDbEntity
  8
0
  6
Continuous
 62
     8
370
    18
100
AcDbLine
 10
921.0474142472
 20
670.2901227277
 30
0.0
 11
921.0474142472
 21
674.7901227277
 31
0.0
  0
LINE
  5
2D6
330
1F
100
AcDbEntity
  8
0
  6
Continuous
 62
     8
370
    18
100
AcDbLine
 10
815.0474142472
 20
670.2901227277
 30
0.0
 11
815.0474142472
 21
674.7901227277
 31
0.0
  0
LINE
  5
2D7
330
1F
100
AcDbEntity
  8
0
  6
Continuous
 62
     8
370
    18
100
AcDbLine
 10
815.0474142472
 20
674.7901227277
 30
0.0
 11
921.0474142472
 21
674.7901227277
 31
0.0
  0
LINE
  5
2D8
330
1F
100
AcDbEntity
  8
0
  6
Continuous
 62
     8
370
    18
100
AcDbLine
 10
921.0474142472
 20
674.7901227277
 30
0.0
 11
921.0474142472
 21
675.5401227277
 31
0.0
  0
LINE
  5
2D9
330
1F
100
AcDbEntity
  8
0
  6
Continuous
 62
     8
370
    18
100
AcDbLine
 10
815.0474142472
 20
674.7901227277
 30
0.0
 11
815.0474142472
 21
675.5401227277
 31
0.0
  0
LINE
  5
2DA
330
1F
100
AcDbEntity
  8
0
  6
Continuous
 62
     8
370
    18
100
AcDbLine
 10
815.0474142472
 20
626.7901227277
 30
0.0
 11
815.0474142472
 21
622.2901227277
 31
0.0
  0
ARC
  5
2DB
330
1F
100
AcDbEntity
  8
0
  6
Continuous
 62
     8
370
    18
100
AcDbCircle
 10
815.0474142472
 20
648.5401227277
 30
0.0
 40
26.25000000000011
100
AcDbArc
 50
90.0
 51
270.0
  0
LINE
  5
2DC
330
1F
100
AcDbEntity
  8
0
  6
Continuous
 62
     8
370
    18
100
AcDbLine
 10
815.0474142472
 20
622.2901227277
 30
0.0
 11
815.0474142472
 21
621.5401227277
 31
0.0
  0
LINE
  5
2DD
330
1F
100
AcDbEntity
  8
0
  6
Continuous
 62
     8
370
    18
100
AcDbLine
 10
921.0474142472
 20
626.7901227277
 30
0.0
 11
921.0474142472
 21
622.2901227277
 31
0.0
  0
LINE
  5
2DE
330
1F
100
AcDbEntity
  8
0
  6
Continuous
 62
     8
370
    18
100
AcDbLine
 10
815.0474142472
 20
622.2901227277
 30
0.0
 11
921.0474142472
 21
622.2901227277
 31
0.0
  0
LINE
  5
2DF
330
1F
100
AcDbEntity
  8
0
  6
Continuous
 62
     8
370
    18
100
AcDbLine
 10
921.0474142472
 20
622.2901227277
 30
0.0
 11
921.0474142472
 21
621.5401227277
 31
0.0
  0
ARC
  5
2E0
330
1F
100
AcDbEntity
  8
0
  6
Continuous
 62
     8
370
    18
100
AcDbCircle
 10
921.0474142472
 20
648.5401227277
 30
0.0
 40
26.25000000000011
100
AcDbArc
 50
270.0
 51
90.0
  0
CIRCLE
  5
2E1
330
1F
100
AcDbEntity
  8
0
  6
Continuous
 62
     8
370
    18
100
AcDbCircle
 10
868.0474142472
 20
648.5401227277
 30
0.0
 40
3.548336454629634
  0
CIRCLE
  5
2E2
330
1F
100
AcDbEntity
  8
0
  6
Continuous
 62
     8
370
    18
100
AcDbCircle
 10
868.0474142472
 20
648.5401227277
 30
0.0
 40
5.614709433546636
  0
ARC
  5
2E3
330
1F
100
AcDbEntity
  8
0
  6
Continuous
 62
     8
370
    18
100
AcDbCircle
 10
868.0474142472
 20
648.5401227277
 30
0.0
 40
7.463480267439865
100
AcDbArc
 50
126.4944476701
 51
233.5055523299
  0
ARC
  5
2E4
330
1F
100
AcDbEntity
  8
0
  6
Continuous
 62
     8
370
    18
100
AcDbCircle
 10
868.0474142472
 20
648.5401227277
 30
0.0
 40
7.463480267439797
100
AcDbArc
 50
306.4944476701
 51
53.5055523299
  0
ARC
  5
2E5
330
1F
100
AcDbEntity
  8
0
  6
Continuous
 62
     8
370
    18
100
AcDbCircle
 10
868.0474142472
 20
648.5401227277
 30
0.0
 40
8.284968901367037
100
AcDbArc
 50
133.5974061618
 51
226.4025938382
  0
ARC
  5
2E6
330
1F
100
AcDbEntity
  8
0
  6
Continuous
 62
     8
370
    18
100
AcDbCircle
 10
868.0474142472
 20
648.5401227277
 30
0.0
 40
8.284968901367037
100
AcDbArc
 50
313.5974061618
 51
46.4025938382
  0
SPLINE
  5
2E7
330
1F
100
AcDbEntity
  8
0
  6
Continuous
 62
     7
370
    35
100
AcDbSpline
210
0.0
220
0.0
230
1.0
 70
     8
 71
     3
 72
    17
 73
    13
 74
     0
 42
0.000000001
 43
0.00000001
 40
0.0
 40
0.0
 40
0.0
 40
0.0
 40
0.0702026966706765
 40
0.1824286802458059
 40
0.2461441681140988
 40
0.2805238659324511
 40
0.3158068661075868
 40
0.3880511621648134
 40
0.4635434474981144
 40
0.6275681193036596
 40
0.8119867147887581
 40
1.0
 40
1.0
 40
1.0
 40
1.0
 10
1795.695326037367
 20
950.916369452382
 30
0.0
 10
1795.503240341669
 20
951.2098369224404
 30
0.0
 10
1795.004086582312
 20
951.9724412923123
 30
0.0
 10
1794.033154401973
 20
952.6404546368034
 30
0.0
 10
1793.190285903539
 20
952.9495109046826
 30
0.0
 10
1792.819675612514
 20
953.3265629741745
 30
0.0
 10
1792.655001455666
 20
953.8060400118903
 30
0.0
 10
1792.717094616943
 20
954.3330029852821
 30
0.0
 10
1792.690692154716
 20
955.0462387450932
 30
0.0
 10
1792.705049177971
 20
955.6639289042839
 30
0.0
 10
1792.699916721054
 20
956.044047935314
 30
0.0
 10
1792.700635123091
 20
956.0715942834189
 30
0.0
 10
1792.700997791095
 20
956.0855003953046
 30
0.0
  0
SPLINE
  5
2E8
330
1F
100
AcDbEntity
  8
0
  6
Continuous
 62
     7
370
    35
100
AcDbSpline
210
0.0
220
0.0
230
1.0
 70
     8
 71
     3
 72
    17
 73
    13
 74
     0
 42
0.000000001
 43
0.00000001
 40
0.0
 40
0.0
 40
0.0
 40
0.0
 40
0.1890801208207842
 40
0.3745451547229855
 40
0.5395005445916011
 40
0.6154211925171031
 40
0.688075421242252
 40
0.7235586262111674
 40
0.7581334032539672
 40
0.8222104291445675
 40
0.93507321173826
 40
1.0
 40
1.0
 40
1.0
 40
1.0
 10
1735.700985132583
 20
956.0855003952933
 30
0.0
 10
1735.701347759383
 20
956.0715943334067
 30
0.0
 10
1735.7020660798
 20
956.044048084344
 30
0.0
 10
1735.69693420397
 20
955.6639283481788
 30
0.0
 10
1735.711289600098
 20
955.0462401634691
 30
0.0
 10
1735.684890128572
 20
954.333000774511
 30
0.0
 10
1735.746976254211
 20
953.8060463387075
 30
0.0
 10
1735.582316039166
 20
953.3265523829201
 30
0.0
 10
1735.211653046422
 20
952.9495642657807
 30
0.0
 10
1734.369266684832
 20
952.6399229356898
 30
0.0
 10
1733.417734105712
 20
951.9906885466318
 30
0.0
 10
1732.932717545852
 20
951.2532489383511
 30
0.0
 10
1732.755594853368
 20
950.9839441356438
 30
0.0
  0
ARC
  5
2E9
330
1F
100
AcDbEntity
  8
0
  6
Continuous
 62
     7
370
    35
100
AcDbCircle
 10
1741.7109782934
 20
926.6348990658
 30
0.0
 40
14.99987568081311
100
AcDbArc
 50
226.8610757221
 51
269.924195537
  0
ARC
  5
2EA
330
1F
100
AcDbEntity
  8
0
  6
Continuous
 62
     7
370
    35
100
AcDbCircle
 10
1786.6910048445
 20
926.6348979935
 30
0.0
 40
14.99987460814336
100
AcDbArc
 50
270.0758036504
 51
312.1690218565
  0
SPLINE
  5
2EB
330
1F
100
AcDbEntity
  8
0
  6
Continuous
 62
     7
370
    35
100
AcDbSpline
210
0.0
220
0.0
230
1.0
 70
     8
 71
     3
 72
    14
 73
    10
 74
     0
 42
0.000000001
 43
0.00000001
 40
0.0
 40
0.0
 40
0.0
 40
0.0
 40
0.3118518498221857
 40
0.5835247383133882
 40
0.7472368347626215
 40
0.8165073455902414
 40
0.8691914210033074
 40
0.9293786199987066
 40
1.0
 40
1.0
 40
1.0
 40
1.0
 10
1796.580884097875
 20
950.0120027406168
 30
0.0
 10
1796.47094500936
 20
950.0924503528373
 30
0.0
 10
1796.265231373566
 20
950.2429807149167
 30
0.0
 10
1796.041278807581
 20
950.4776422258622
 30
0.0
 10
1795.903138183839
 20
950.6495029557739
 30
0.0
 10
1795.843616294964
 20
950.7316965886123
 30
0.0
 10
1795.820365530828
 20
950.7650837577407
 30
0.0
 10
1795.808155853528
 20
950.7831339938303
 30
0.0
 10
1795.807885837423
 20
950.7835601799948
 30
0.0
 10
1795.807740060211
 20
950.783790270829
 30
0.0
  0
SPLINE
  5
2EC
330
1F
100
AcDbEntity
  8
0
  6
Continuous
 62
     7
370
    35
100
AcDbSpline
210
0.0
220
0.0
230
1.0
 70
     8
 71
     3
 72
    12
 73
     8
 74
     0
 42
0.000000001
 43
0.00000001
 40
0.0
 40
0.0
 40
0.0
 40
0.0
 40
0.1249100435430754
 40
0.23707769543205
 40
0.3308192653644264
 40
0.4814606093991075
 40
1.0
 40
1.0
 40
1.0
 40
1.0
 10
1732.593070674111
 20
950.7820390958732
 30
0.0
 10
1732.593191985428
 20
950.782204947193
 30
0.0
 10
1732.593422232784
 20
950.7825197309169
 30
0.0
 10
1732.574246272174
 20
950.7542377735965
 30
0.0
 10
1732.533189445032
 20
950.6965320990431
 30
0.0
 10
1732.406802811542
 20
950.5280821891886
 30
0.0
 10
1732.268455923489
 20
950.3893068629973
 30
0.0
 10
1732.161252731124
 20
950.2817716795274
 30
0.0
  0
SPLINE
  5
2ED
330
1F
100
AcDbEntity
  8
0
  6
Continuous
 62
     7
370
    35
100
AcDbSpline
210
0.0
220
0.0
230
1.0
 70
     8
 71
     3
 72
    12
 73
     8
 74
     0
 42
0.000000001
 43
0.00000001
 40
0.0
 40
0.0
 40
0.0
 40
0.0
 40
0.0910374224994435
 40
0.2353541285776847
 40
0.3547454600417107
 40
0.5766251016162852
 40
1.0
 40
1.0
 40
1.0
 40
1.0
 10
1796.746905093358
 20
915.5294136253657
 30
0.0
 10
1796.745939912465
 20
915.5285750362593
 30
0.0
 10
1796.743444682461
 20
915.5264070771611
 30
0.0
 10
1796.757859591858
 20
915.5387774075402
 30
0.0
 10
1796.79334796155
 20
915.5680384418279
 30
0.0
 10
1796.87181549655
 20
915.6315789155121
 30
0.0
 10
1796.946141695654
 20
915.6795633559904
 30
0.0
 10
1796.994909809699
 20
915.7110476871394
 30
0.0
  0
SPLINE
  5
2EE
330
1F
100
AcDbEntity
  8
0
  6
Continuous
 62
     7
370
    35
100
AcDbSpline
210
0.0
220
0.0
230
1.0
 70
     8
 71
     3
 72
    13
 73
     9
 74
     0
 42
0.000000001
 43
0.00000001
 40
0.0
 40
0.0
 40
0.0
 40
0.0
 40
0.319254761133066
 40
0.6030634358537637
 40
0.7318310646969118
 40
0.8311168408135213
 40
0.9400008211070658
 40
1.0
 40
1.0
 40
1.0
 40
1.0
 10
1731.407754959938
 20
915.7125659817412
 30
0.0
 10
1731.444418281476
 20
915.688798215161
 30
0.0
 10
1731.513674284356
 20
915.6439015598204
 30
0.0
 10
1731.591583634607
 20
915.5818854179471
 30
0.0
 10
1731.634762870559
 20
915.546566062814
 30
0.0
 10
1731.65155861216
 20
915.5324033938468
 30
0.0
 10
1731.658509652954
 20
915.5264395425975
 30
0.0
 10
1731.657530589399
 20
915.5272874027222
 30
0.0
 10
1731.657182757149
 20
915.5275886222845
 30
0.0
  0
SPLINE
  5
2EF
330
1F
100
AcDbEntity
  8
0
  6
Continuous
 62
     7
370
    35
100
AcDbSpline
210
0.0
220
0.0
230
1.0
 70
     8
 71
     3
 72
    10
 73
     6
 74
     0
 42
0.000000001
 43
0.00000001
 40
0.0
 40
0.0
 40
0.0
 40
0.0
 40
0.2926068144135033
 40
0.7936688105150788
 40
1.0
 40
1.0
 40
1.0
 40
1.0
 10
1795.917083448586
 20
951.6545875559943
 30
0.0
 10
1795.815284485263
 20
951.6598819993452
 30
0.0
 10
1795.539164251037
 20
951.6742426852543
 30
0.0
 10
1795.198347444571
 20
951.7717423315581
 30
0.0
 10
1794.979639327448
 20
951.8755850128765
 30
0.0
 10
1794.915846931825
 20
951.9058736619506
 30
0.0
  0
ARC
  5
2F0
330
1F
100
AcDbEntity
  8
0
  6
Continuous
 62
     7
370
    35
100
AcDbCircle
 10
1795.7009914618
 20
922.6350233936
 30
0.0
 40
11.00000000000023
100
AcDbArc
 50
270.0
 51
0.0
  0
LINE
  5
2F1
330
1F
100
AcDbEntity
  8
0
  6
Continuous
 62
     7
370
    35
100
AcDbLine
 10
1786.2141366715
 20
911.6350233936
 30
0.0
 11
1795.7009914618
 21
911.6350233936
 31
0.0
  0
SPLINE
  5
2F2
330
1F
100
AcDbEntity
  8
0
  6
Continuous
 62
     7
370
    35
100
AcDbSpline
210
0.0
220
0.0
230
1.0
 70
     8
 71
     3
 72
    13
 73
     9
 74
     0
 42
0.000000001
 43
0.00000001
 40
0.0
 40
0.0
 40
0.0
 40
0.0
 40
0.012506388010174
 40
0.1462174501551545
 40
0.2953845425436692
 40
0.4584621322676312
 40
0.7227547063749153
 40
1.0
 40
1.0
 40
1.0
 40
1.0
 10
1792.70100902084
 20
955.0408325908838
 30
0.0
 10
1792.701008683518
 20
955.0930872105483
 30
0.0
 10
1792.701004739743
 20
955.7040179796849
 30
0.0
 10
1792.701002227292
 20
956.4834907655984
 30
0.0
 10
1792.700997112483
 20
957.2780264183411
 30
0.0
 10
1792.700993510021
 20
957.8198540314465
 30
0.0
 10
1792.70099148079
 20
958.06263938277
 30
0.0
 10
1792.700991468256
 20
958.0774440222355
 30
0.0
 10
1792.700991461839
 20
958.085023393615
 30
0.0
  0
LINE
  5
2F3
330
1F
100
AcDbEntity
  8
0
  6
Continuous
 62
     7
370
    35
100
AcDbLine
 10
1799.2009914618
 20
981.0814618932
 30
0.0
 11
1729.2009914618
 21
981.0814618932
 31
0.0
  0
LWPOLYLINE
  5
2F4
330
1F
100
AcDbEntity
  8
0
  6
Continuous
 62
     7
370
    35
100
AcDbPolyline
 90
        3
 70
   128
 43
0.0
 10
1731.2009914618
 20
966.8433803825
 10
1731.2367036949
 20
966.4671177498
 10
1731.3259914618
 20
966.1474098371
  0
ARC
  5
2F5
330
1F
100
AcDbEntity
  8
0
  6
Continuous
 62
     7
370
    35
100
AcDbCircle
 10
1800.2009914618
 20
970.0814618932
 30
0.0
 40
1.000000000000227
100
AcDbArc
 50
180.0
 51
270.0
  0
LWPOLYLINE
  5
2F6
330
1F
100
AcDbEntity
  8
0
  6
Continuous
 62
     7
370
    35
100
AcDbPolyline
 90
        3
 70
   128
 43
0.0
 10
1797.2009914618
 20
966.8433803825
 10
1797.1652792288
 20
966.4671177498
 10
1797.0759914618
 20
966.1474098371
  0
ARC
  5
2F7
330
1F
100
AcDbEntity
  8
0
  6
Continuous
 62
     7
370
    35
100
AcDbCircle
 10
1728.2009914618
 20
970.0814618932
 30
0.0
 40
1.0
100
AcDbArc
 50
270.0
 51
0.0
  0
LINE
  5
2F8
330
1F
100
AcDbEntity
  8
0
  6
Continuous
 62
     7
370
    35
100
AcDbLine
 10
1797.2009914618
 20
966.8433803825
 30
0.0
 11
1797.2009914618
 21
968.0814618932
 31
0.0
  0
LINE
  5
2F9
330
1F
100
AcDbEntity
  8
0
  6
Continuous
 62
     7
370
    35
100
AcDbLine
 10
1731.2009914618
 20
968.0814618932
 30
0.0
 11
1731.2009914618
 21
966.8433803825
 31
0.0
  0
LINE
  5
2FA
330
1F
100
AcDbEntity
  8
0
  6
Continuous
 62
     7
370
    35
100
AcDbLine
 10
1792.2009914618
 20
958.8082120597
 30
0.0
 11
1792.2009914618
 21
958.0850233937
 31
0.0
  0
LINE
  5
2FB
330
1F
100
AcDbEntity
  8
0
  6
Continuous
 62
     7
370
    35
100
AcDbLine
 10
1736.2009914618
 20
958.8082120597
 30
0.0
 11
1736.2009914618
 21
958.0850233937
 31
0.0
  0
LINE
  5
2FC
330
1F
100
AcDbEntity
  8
0
  6
Continuous
 62
     7
370
    35
100
AcDbLine
 10
1736.2009914618
 20
958.0850233937
 30
0.0
 11
1737.7518745608
 21
958.0850233937
 31
0.0
  0
LINE
  5
2FD
330
1F
100
AcDbEntity
  8
0
  6
Continuous
 62
     7
370
    35
100
AcDbLine
 10
1790.6501083629
 20
958.0850233937
 30
0.0
 11
1792.2009914618
 21
958.0850233937
 31
0.0
  0
SPLINE
  5
2FE
330
1F
100
AcDbEntity
  8
0
  6
Continuous
 62
     7
370
    35
100
AcDbSpline
210
0.0
220
0.0
230
1.0
 70
     8
 71
     3
 72
     9
 73
     5
 74
     0
 42
0.000000001
 43
0.00000001
 40
0.0
 40
0.0
 40
0.0
 40
0.0
 40
0.0494865767864555
 40
1.0
 40
1.0
 40
1.0
 40
1.0
 10
1795.815559432324
 20
950.7722624373384
 30
0.0
 10
1795.812525812002
 20
950.7770460083196
 30
0.0
 10
1795.751223929374
 20
950.8737100188855
 30
0.0
 10
1795.746063577888
 20
950.8790243076141
 30
0.0
 10
1795.741158594533
 20
950.8840756103856
 30
0.0
  0
SPLINE
  5
2FF
330
1F
100
AcDbEntity
  8
0
  6
Continuous
 62
     7
370
    35
100
AcDbSpline
210
0.0
220
0.0
230
1.0
 70
     8
 71
     3
 72
    14
 73
    10
 74
     0
 42
0.000000001
 43
0.00000001
 40
0.0
 40
0.0
 40
0.0
 40
0.0
 40
0.0000086772972158
 40
0.0546554576672725
 40
0.1545956188497723
 40
0.2815115513695418
 40
0.4757791841528815
 40
0.7372214479202452
 40
1.0
 40
1.0
 40
1.0
 40
1.0
 10
1795.610287558913
 20
950.9646129342229
 30
0.0
 10
1795.61028858075
 20
950.9646108133895
 30
0.0
 10
1795.616724799307
 20
950.9512523780002
 30
0.0
 10
1795.651457963641
 20
950.8868511737301
 30
0.0
 10
1795.800609623935
 20
950.6308649884858
 30
0.0
 10
1796.165212696279
 20
950.0149283848343
 30
0.0
 10
1796.795575364131
 20
948.9392543385572
 30
0.0
 10
1797.606773792344
 20
947.5184383141205
 30
0.0
 10
1798.187859726298
 20
946.4594246526497
 30
0.0
 10
1798.479143314706
 20
945.9285680590513
 30
0.0
  0
SPLINE
  5
300
330
1F
100
AcDbEntity
  8
0
  6
Continuous
 62
     7
370
    35
100
AcDbSpline
210
0.0
220
0.0
230
1.0
 70
     8
 71
     3
 72
    12
 73
     8
 74
     0
 42
0.000000001
 43
0.00000001
 40
0.0
 40
0.0
 40
0.0
 40
0.0
 40
0.1720163517394594
 40
0.4559765852487093
 40
0.6679924881477979
 40
0.886316203050505
 40
1.0
 40
1.0
 40
1.0
 40
1.0
 10
1799.912927906987
 20
943.2209884396727
 30
0.0
 10
1800.394771887542
 20
942.1732855228556
 30
0.0
 10
1801.672031698336
 20
939.3960611861312
 30
0.0
 10
1802.63189718384
 20
934.9743769208948
 30
0.0
 10
1802.832413132257
 20
930.1856354804899
 30
0.0
 10
1802.374014569691
 20
926.5434850914579
 30
0.0
 10
1801.73841207191
 20
924.4121464392451
 30
0.0
 10
1801.520773305561
 20
923.6823476789189
 30
0.0
  0
SPLINE
  5
301
330
1F
100
AcDbEntity
  8
0
  6
Continuous
 62
     7
370
    35
100
AcDbSpline
210
0.0
220
0.0
230
1.0
 70
    24
 71
     3
 72
     9
 73
     5
 74
     0
 42
0.000000001
 43
0.00000001
 40
0.0
 40
0.0
 40
0.0
 40
0.0
 40
0.5076026287551308
 40
1.0
 40
1.0
 40
1.0
 40
1.0
 10
1764.200991461839
 20
927.406262217963
 30
0.0
 10
1764.200991461839
 20
925.8785608232345
 30
0.0
 10
1764.200991461839
 20
922.8689203915548
 30
0.0
 10
1764.200991461839
 20
920.2721680727824
 30
0.0
 10
1764.200991461839
 20
918.9935340572448
 30
0.0
  0
SPLINE
  5
302
330
1F
100
AcDbEntity
  8
0
  6
Continuous
 62
     7
370
    35
100
AcDbSpline
210
0.0
220
0.0
230
1.0
 70
    24
 71
     3
 72
    13
 73
     9
 74
     0
 42
0.000000001
 43
0.00000001
 40
0.0
 40
0.0
 40
0.0
 40
0.0
 40
0.369646740583238
 40
0.7491634169652781
 40
0.8272821692919357
 40
0.9051799160500804
 40
0.9820955461384859
 40
1.0
 40
1.0
 40
1.0
 40
1.0
 10
1792.700991461839
 20
958.085023393615
 30
0.0
 10
1792.71282242696
 20
958.085023393615
 30
0.0
 10
1792.736800255744
 20
958.085023393615
 30
0.0
 10
1792.602346194279
 20
958.085023393615
 30
0.0
 10
1792.766780432977
 20
958.085023393615
 30
0.0
 10
1792.450494609122
 20
958.0850233936147
 30
0.0
 10
1791.659737704673
 20
958.0850233936147
 30
0.0
 10
1790.810471512718
 20
958.0850233936148
 30
0.0
 10
1790.65010836267
 20
958.0850233936148
 30
0.0
  0
SPLINE
  5
303
330
1F
100
AcDbEntity
  8
0
  6
Continuous
 62
     7
370
    35
100
AcDbSpline
210
0.0
220
0.0
230
1.0
 70
     8
 71
     3
 72
    14
 73
    10
 74
     0
 42
0.000000001
 43
0.00000001
 40
0.0
 40
0.0
 40
0.0
 40
0.0
 40
0.0000086772972158
 40
0.0546554576672729
 40
0.1545956188497734
 40
0.2815115513695373
 40
0.4757791841528858
 40
0.7372214479202471
 40
0.9999999999999999
 40
0.9999999999999999
 40
0.9999999999999999
 40
0.9999999999999999
 10
1732.791695364765
 20
950.9646129342227
 30
0.0
 10
1732.791694342927
 20
950.9646108133894
 30
0.0
 10
1732.7852581244
 20
950.9512523780038
 30
0.0
 10
1732.750524960011
 20
950.8868511737264
 30
0.0
 10
1732.601373299753
 20
950.630864988487
 30
0.0
 10
1732.236770227394
 20
950.0149283848334
 30
0.0
 10
1731.606407559549
 20
948.9392543385574
 30
0.0
 10
1730.795209131333
 20
947.5184383141201
 30
0.0
 10
1730.214123197379
 20
946.4594246526493
 30
0.0
 10
1729.922839608971
 20
945.9285680590509
 30
0.0
  0
SPLINE
  5
304
330
1F
100
AcDbEntity
  8
0
  6
Continuous
 62
     7
370
    35
100
AcDbSpline
210
0.0
220
0.0
230
1.0
 70
     8
 71
     3
 72
     9
 73
     5
 74
     0
 42
0.000000001
 43
0.00000001
 40
0.0
 40
0.0
 40
0.0
 40
0.0
 40
0.0487880016067872
 40
1.0
 40
1.0
 40
1.0
 40
1.0
 10
1732.586556512282
 20
950.7724720890956
 30
0.0
 10
1732.589544474835
 20
950.7771836324763
 30
0.0
 10
1732.650788273607
 20
950.8737553965481
 30
0.0
 10
1732.655931771877
 20
950.8790445265072
 30
0.0
 10
1732.660824329144
 20
950.8840756103854
 30
0.0
  0
LINE
  5
305
330
1F
100
AcDbEntity
  8
0
  6
Continuous
 62
     7
370
    35
100
AcDbLine
 10
1735.7009914618
 20
954.6688995892
 30
0.0
 11
1735.7009914618
 21
958.0850233936
 31
0.0
  0
SPLINE
  5
306
330
1F
100
AcDbEntity
  8
0
  6
Continuous
 62
     7
370
    35
100
AcDbSpline
210
0.0
220
0.0
230
1.0
 70
     8
 71
     3
 72
    12
 73
     8
 74
     0
 42
0.000000001
 43
0.00000001
 40
0.0
 40
0.0
 40
0.0
 40
0.0
 40
0.1720163517394572
 40
0.455976585248709
 40
0.6679924881477985
 40
0.8863162030505047
 40
1.0
 40
1.0
 40
1.0
 40
1.0
 10
1728.48905501669
 20
943.2209884396725
 30
0.0
 10
1728.007211036135
 20
942.1732855228554
 30
0.0
 10
1726.729951225342
 20
939.3960611861309
 30
0.0
 10
1725.770085739838
 20
934.9743769208944
 30
0.0
 10
1725.569569791421
 20
930.1856354804895
 30
0.0
 10
1726.027968353987
 20
926.5434850914577
 30
0.0
 10
1726.663570851767
 20
924.4121464392449
 30
0.0
 10
1726.881209618117
 20
923.6823476789185
 30
0.0
  0
SPLINE
  5
307
330
1F
100
AcDbEntity
  8
0
  6
Continuous
 62
     7
370
    35
100
AcDbSpline
210
0.0
220
0.0
230
1.0
 70
    24
 71
     3
 72
    13
 73
     9
 74
     0
 42
0.000000001
 43
0.00000001
 40
0.0
 40
0.0
 40
0.0
 40
0.0
 40
0.3696467405832344
 40
0.7491634169652709
 40
0.8272821692919278
 40
0.9051799160500718
 40
0.9820955461384765
 40
1.0
 40
1.0
 40
1.0
 40
1.0
 10
1735.700991461839
 20
958.0850233936148
 30
0.0
 10
1735.689160496717
 20
958.0850233936148
 30
0.0
 10
1735.665182667933
 20
958.0850233936148
 30
0.0
 10
1735.799636729398
 20
958.0850233936147
 30
0.0
 10
1735.635202490701
 20
958.0850233936148
 30
0.0
 10
1735.951488314555
 20
958.0850233936146
 30
0.0
 10
1736.742245219004
 20
958.0850233936146
 30
0.0
 10
1737.59151141096
 20
958.0850233936146
 30
0.0
 10
1737.751874561008
 20
958.0850233936147
 30
0.0
  0
SPLINE
  5
308
330
1F
100
AcDbEntity
  8
0
  6
Continuous
 62
     7
370
    35
100
AcDbSpline
210
0.0
220
0.0
230
1.0
 70
    24
 71
     3
 72
    12
 73
     8
 74
     0
 42
0.000000001
 43
0.00000001
 40
0.0
 40
0.0
 40
0.0
 40
0.0
 40
0.1408006786044993
 40
0.3784804122976904
 40
0.6230118132640773
 40
0.8098917120669654
 40
1.0
 40
1.0
 40
1.0
 40
1.0
 10
1764.200991461839
 20
915.1814618931661
 30
0.0
 10
1764.200991461839
 20
914.8597220386267
 30
0.0
 10
1764.200991461839
 20
913.9948665989684
 30
0.0
 10
1764.200991461839
 20
912.9543453028742
 30
0.0
 10
1764.200991461839
 20
912.1493364280975
 30
0.0
 10
1764.200991461839
 20
911.7109137935671
 30
0.0
 10
1764.200991461839
 20
911.6604642042175
 30
0.0
 10
1764.200991461839
 20
911.6350233936149
 30
0.0
  0
SPLINE
  5
309
330
1F
100
AcDbEntity
  8
0
  6
Continuous
 62
     7
370
    35
100
AcDbSpline
210
0.0
220
0.0
230
1.0
 70
    24
 71
     3
 72
    17
 73
    13
 74
     0
 42
0.000000001
 43
0.00000001
 40
0.0
 40
0.0
 40
0.0
 40
0.0
 40
0.0569795784918696
 40
0.1353024541387427
 40
0.2160128774647651
 40
0.2868547793927169
 40
0.3593481415837865
 40
0.4253072501105585
 40
0.4928579495997135
 40
0.5565942236326092
 40
0.6223126637270948
 40
0.9999999999999999
 40
0.9999999999999999
 40
0.9999999999999999
 40
0.9999999999999999
 10
1764.200991461839
 20
911.6350233936149
 30
0.0
 10
1763.15061102947
 20
911.6350233936149
 30
0.0
 10
1760.656400752026
 20
911.6350233936149
 30
0.0
 10
1756.837535743751
 20
911.6350233936149
 30
0.0
 10
1753.070169571343
 20
911.6350233936149
 30
0.0
 10
1749.77512839928
 20
911.6350233936149
 30
0.0
 10
1747.094609248805
 20
911.6350233936149
 30
0.0
 10
1744.904341985682
 20
911.6350233936149
 30
0.0
 10
1743.310440299799
 20
911.6350233936148
 30
0.0
 10
1742.258347065191
 20
911.6350233936149
 30
0.0
 10
1741.60303765806
 20
911.6350233936149
 30
0.0
 10
1741.662460761548
 20
911.6350233936149
 30
0.0
 10
1741.713076596671
 20
911.6350233936149
 30
0.0
  0
SPLINE
  5
30A
330
1F
100
AcDbEntity
  8
0
  6
Continuous
 62
     7
370
    35
100
AcDbSpline
210
0.0
220
0.0
230
1.0
 70
    24
 71
     3
 72
    17
 73
    13
 74
     0
 42
0.000000001
 43
0.00000001
 40
0.0
 40
0.0
 40
0.0
 40
0.0
 40
0.0569845589005255
 40
0.1364939970869603
 40
0.2160235345599425
 40
0.2876998720940938
 40
0.3593687415705817
 40
0.4261501537101999
 40
0.4928872867049951
 40
0.5575313349414277
 40
0.6222797705528472
 40
1.0
 40
1.0
 40
1.0
 40
1.0
 10
1764.200991461839
 20
911.6350233936149
 30
0.0
 10
1765.251446408742
 20
911.6350233936149
 30
0.0
 10
1767.767580555061
 20
911.6350233936149
 30
0.0
 10
1771.58313014657
 20
911.6350233936149
 30
0.0
 10
1775.363685261875
 20
911.6350233936149
 30
0.0
 10
1778.636882582732
 20
911.6350233936149
 30
0.0
 10
1781.328265974731
 20
911.635023393615
 30
0.0
 10
1783.500813009347
 20
911.6350233936149
 30
0.0
 10
1785.114408623895
 20
911.6350233936149
 30
0.0
 10
1786.107840244973
 20
911.6350233936149
 30
0.0
 10
1786.866356413333
 20
911.635023393615
 30
0.0
 10
1786.767561423619
 20
911.635023393615
 30
0.0
 10
1786.683223550387
 20
911.635023393615
 30
0.0
  0
SPLINE
  5
30B
330
1F
100
AcDbEntity
  8
0
  6
Continuous
 62
     7
370
    35
100
AcDbSpline
210
0.0
220
0.0
230
1.0
 70
     8
 71
     3
 72
    13
 73
     9
 74
     0
 42
0.000000001
 43
0.00000001
 40
0.0
 40
0.0
 40
0.0
 40
0.0
 40
0.2029467742027867
 40
0.4117773519856945
 40
0.6147258594307154
 40
0.8235672334127772
 40
0.9115535143092925
 40
1.0
 40
1.0
 40
1.0
 40
1.0
 10
1802.785233284039
 20
923.2642191685245
 30
0.0
 10
1803.18829657588
 20
924.6468739171931
 30
0.0
 10
1804.006108712334
 20
927.4522691414027
 30
0.0
 10
1804.315522868483
 20
931.8256691572504
 30
0.0
 10
1803.937062366913
 20
936.2192108908041
 30
0.0
 10
1803.023939458804
 20
939.6581640479955
 30
0.0
 10
1802.023272742001
 20
942.1987188048215
 30
0.0
 10
1801.46139250767
 20
943.3151201552341
 30
0.0
 10
1801.179719590179
 20
943.8747768333802
 30
0.0
  0
SPLINE
  5
30C
330
1F
100
AcDbEntity
  8
0
  6
Continuous
 62
     7
370
    35
100
AcDbSpline
210
0.0
220
0.0
230
1.0
 70
     8
 71
     3
 72
    13
 73
     9
 74
     0
 42
0.000000001
 43
0.00000001
 40
0.0
 40
0.0
 40
0.0
 40
0.0
 40
0.2029467742027859
 40
0.411777351985694
 40
0.6147258594307149
 40
0.8235672334127754
 40
0.9115535143092929
 40
1.0
 40
1.0
 40
1.0
 40
1.0
 10
1725.616749639639
 20
923.2642191685242
 30
0.0
 10
1725.213686347798
 20
924.6468739171928
 30
0.0
 10
1724.395874211344
 20
927.4522691414023
 30
0.0
 10
1724.086460055195
 20
931.8256691572502
 30
0.0
 10
1724.464920556765
 20
936.2192108908038
 30
0.0
 10
1725.378043464874
 20
939.6581640479952
 30
0.0
 10
1726.378710181676
 20
942.1987188048213
 30
0.0
 10
1726.940590416008
 20
943.3151201552338
 30
0.0
 10
1727.222263333499
 20
943.87477683338
 30
0.0
  0
SPLINE
  5
30D
330
1F
100
AcDbEntity
  8
0
  6
Continuous
 62
     7
370
    35
100
AcDbSpline
210
0.0
220
0.0
230
1.0
 70
     8
 71
     3
 72
    12
 73
     8
 74
     0
 42
0.000000001
 43
0.00000001
 40
0.0
 40
0.0
 40
0.0
 40
0.0
 40
0.0542100646910267
 40
0.361205946530443
 40
0.526765294849601
 40
0.7633787062243829
 40
1.0
 40
1.0
 40
1.0
 40
1.0
 10
1731.878798993816
 20
915.4114019882596
 30
0.0
 10
1731.725517243186
 20
915.5091652866225
 30
0.0
 10
1730.704188821279
 20
916.1605698721436
 30
0.0
 10
1729.319593670745
 20
917.3236737450355
 30
0.0
 10
1727.734797543539
 20
919.1595216826909
 30
0.0
 10
1726.520678306162
 20
920.9985972960943
 30
0.0
 10
1725.918062540956
 20
922.5090034917224
 30
0.0
 10
1725.616749639639
 20
923.2642191685242
 30
0.0
  0
SPLINE
  5
30E
330
1F
100
AcDbEntity
  8
0
  6
Continuous
 62
     7
370
    35
100
AcDbSpline
210
0.0
220
0.0
230
1.0
 70
     8
 71
     3
 72
    12
 73
     8
 74
     0
 42
0.000000001
 43
0.00000001
 40
0.0
 40
0.0
 40
0.0
 40
0.0
 40
0.0542100646910325
 40
0.3612059465304517
 40
0.5267652948496013
 40
0.7633787062243834
 40
1.0
 40
1.0
 40
1.0
 40
1.0
 10
1796.523183929861
 20
915.4114019882597
 30
0.0
 10
1796.676465680492
 20
915.5091652866228
 30
0.0
 10
1797.697794102399
 20
916.1605698721436
 30
0.0
 10
1799.082389252933
 20
917.3236737450358
 30
0.0
 10
1800.667185380139
 20
919.1595216826912
 30
0.0
 10
1801.881304617516
 20
920.9985972960948
 30
0.0
 10
1802.483920382722
 20
922.5090034917228
 30
0.0
 10
1802.785233284039
 20
923.2642191685245
 30
0.0
  0
SPLINE
  5
30F
330
1F
100
AcDbEntity
  8
0
  6
Continuous
 62
     7
370
    35
100
AcDbSpline
210
0.0
220
0.0
230
1.0
 70
     8
 71
     3
 72
    11
 73
     7
 74
     0
 42
0.000000001
 43
0.00000001
 40
0.0
 40
0.0
 40
0.0
 40
0.0
 40
0.3166502316689809
 40
0.6422005680136298
 40
0.8852711377571079
 40
1.0
 40
1.0
 40
1.0
 40
1.0
 10
1728.700158220313
 20
946.5963048997522
 30
0.0
 10
1728.966181977599
 20
947.0287172688169
 30
0.0
 10
1729.505706635876
 20
947.9056958440914
 30
0.0
 10
1730.470962204494
 20
948.9455785481965
 30
0.0
 10
1731.297282634441
 20
949.6461710658764
 30
0.0
 10
1731.760802303873
 20
949.9646891315608
 30
0.0
 10
1731.909430500419
 20
950.0668223716191
 30
0.0
  0
SPLINE
  5
310
330
1F
100
AcDbEntity
  8
0
  6
Continuous
 62
     7
370
    35
100
AcDbSpline
210
0.0
220
0.0
230
1.0
 70
     8
 71
     3
 72
    11
 73
     7
 74
     0
 42
0.000000001
 43
0.00000001
 40
0.0
 40
0.0
 40
0.0
 40
0.0
 40
0.31663514308586
 40
0.6421699667518235
 40
0.8203579608774889
 40
0.9999999999999999
 40
0.9999999999999999
 40
0.9999999999999999
 40
0.9999999999999999
 10
1799.701824703364
 20
946.5963048997525
 30
0.0
 10
1799.435859349272
 20
947.0287471958559
 30
0.0
 10
1798.896453138924
 20
947.905786466369
 30
0.0
 10
1798.001163709633
 20
948.8690706811057
 30
0.0
 10
1797.185786352063
 20
949.5822496534523
 30
0.0
 10
1796.724255544148
 20
949.9048611541541
 30
0.0
 10
1796.492552423259
 20
950.0668223716194
 30
0.0
  0
LINE
  5
311
330
1F
100
AcDbEntity
  8
0
  6
Continuous
 62
     7
370
    35
100
AcDbLine
 10
1801.1797195902
 20
943.8747768334
 30
0.0
 11
1799.7018247034
 21
946.5963048998
 31
0.0
  0
LINE
  5
312
330
1F
100
AcDbEntity
  8
0
  6
Continuous
 62
     7
370
    35
100
AcDbLine
 10
1727.2222633335
 20
943.8747768334
 30
0.0
 11
1728.7001582203
 21
946.5963048998
 31
0.0
  0
LINE
  5
313
330
1F
100
AcDbEntity
  8
0
  6
Continuous
 62
     7
370
    35
100
AcDbLine
 10
1796.9972587106
 20
915.7186705849
 30
0.0
 11
1796.9836043798
 21
915.709820616
 31
0.0
  0
LINE
  5
314
330
1F
100
AcDbEntity
  8
0
  6
Continuous
 62
     7
370
    35
100
AcDbLine
 10
1796.4925524233
 20
950.0668223716
 30
0.0
 11
1796.5933476241
 21
949.9990483454
 31
0.0
  0
ARC
  5
315
330
1F
100
AcDbEntity
  8
0
  6
Continuous
 62
     7
370
    35
100
AcDbCircle
 10
1730.1199275168
 20
952.477890447
 30
0.0
 40
2.999398629803478
100
AcDbArc
 50
304.2645941136
 51
312.8939997992
  0
LINE
  5
316
330
1F
100
AcDbEntity
  8
0
  6
Continuous
 62
     7
370
    35
100
AcDbLine
 10
1731.9094305004
 20
950.0668223716
 30
0.0
 11
1731.8086352996
 21
949.9990483454
 31
0.0
  0
SPLINE
  5
317
330
1F
100
AcDbEntity
  8
0
  6
Continuous
 62
     7
370
    35
100
AcDbSpline
210
0.0
220
0.0
230
1.0
 70
     8
 71
     3
 72
     9
 73
     5
 74
     0
 42
0.000000001
 43
0.00000001
 40
0.0
 40
0.0
 40
0.0
 40
0.0
 40
0.6590643911408998
 40
1.0
 40
1.0
 40
1.0
 40
1.0
 10
1796.03266703324
 20
951.6363876072295
 30
0.0
 10
1795.717191313228
 20
951.6623818345
 30
0.0
 10
1795.238519237703
 20
951.7018229386167
 30
0.0
 10
1794.837843405712
 20
951.9560009945967
 30
0.0
 10
1794.701238746978
 20
952.0426593448709
 30
0.0
  0
ARC
  5
318
330
1F
100
AcDbEntity
  8
0
  6
Continuous
 62
     7
370
    35
100
AcDbCircle
 10
1795.7009844806
 20
940.6413823652
 30
0.0
 40
11.00000698123831
100
AcDbArc
 50
0.0000092142
 51
88.2721018854
  0
SPLINE
  5
319
330
1F
100
AcDbEntity
  8
0
  6
Continuous
 62
     7
370
    35
100
AcDbSpline
210
0.0
220
0.0
230
1.0
 70
    24
 71
     3
 72
    19
 73
    15
 74
     0
 42
0.000000001
 43
0.00000001
 40
0.0
 40
0.0
 40
0.0
 40
0.0
 40
0.0003400432997567
 40
0.1018635778277049
 40
0.2035434036526506
 40
0.3480218784455774
 40
0.4928620408160625
 40
0.5714933381061477
 40
0.6496296261320142
 40
0.7087399627822194
 40
0.7683238584295661
 40
0.8224306267254518
 40
0.892610163227093
 40
1.0
 40
1.0
 40
1.0
 40
1.0
 10
1806.700991461839
 20
940.6413841342376
 30
0.0
 10
1806.700991461839
 20
940.6413863440896
 30
0.0
 10
1806.700991461839
 20
940.6420483286785
 30
0.0
 10
1806.700991461838
 20
940.4726113758641
 30
0.0
 10
1806.700991461839
 20
939.6871525036513
 30
0.0
 10
1806.700991461839
 20
938.2869957216878
 30
0.0
 10
1806.700991461839
 20
936.621253883695
 30
0.0
 10
1806.700991461839
 20
935.1314035475415
 30
0.0
 10
1806.700991461839
 20
933.8833138282341
 30
0.0
 10
1806.700991461839
 20
932.5475629893172
 30
0.0
 10
1806.700991461839
 20
931.234792129871
 30
0.0
 10
1806.700991461839
 20
929.8588517578554
 30
0.0
 10
1806.700991461839
 20
928.4447672826884
 30
0.0
 10
1806.700991461839
 20
927.6156326573496
 30
0.0
 10
1806.700991461839
 20
927.1141912745484
 30
0.0
  0
SPLINE
  5
31A
330
1F
100
AcDbEntity
  8
0
  6
Continuous
 62
     7
370
    35
100
AcDbSpline
210
0.0
220
0.0
230
1.0
 70
    24
 71
     3
 72
     9
 73
     5
 74
     0
 42
0.000000001
 43
0.00000001
 40
0.0
 40
0.0
 40
0.0
 40
0.0
 40
0.4979466281839556
 40
1.0
 40
1.0
 40
1.0
 40
1.0
 10
1806.700991461839
 20
927.1141912745484
 30
0.0
 10
1806.700991461839
 20
926.4834237789911
 30
0.0
 10
1806.700991461839
 20
925.2166866231283
 30
0.0
 10
1806.700991461839
 20
924.1625427220629
 30
0.0
 10
1806.700991461839
 20
923.6333062221537
 30
0.0
  0
LINE
  5
31B
330
1F
100
AcDbEntity
  8
0
  6
Continuous
 62
     7
370
    35
100
AcDbLine
 10
1806.7009914618
 20
923.6333062222
 30
0.0
 11
1806.7009914618
 21
922.6350233936
 31
0.0
  0
LINE
  5
31C
330
1F
100
AcDbEntity
  8
0
  6
Continuous
 62
     7
370
    35
100
AcDbLine
 10
1698.7009914618
 20
968.0814618932
 30
0.0
 11
1698.7009914618
 21
969.0814618932
 31
0.0
  0
LINE
  5
31D
330
1F
100
AcDbEntity
  8
0
  6
Continuous
 62
     7
370
    35
100
AcDbLine
 10
1698.7009914618
 20
969.0814618932
 30
0.0
 11
1708.7009914618
 21
969.0814618932
 31
0.0
  0
LINE
  5
31E
330
1F
100
AcDbEntity
  8
0
  6
Continuous
 62
     7
370
    35
100
AcDbLine
 10
1708.7009914618
 20
968.0814618932
 30
0.0
 11
1698.7009914618
 21
968.0814618932
 31
0.0
  0
LINE
  5
31F
330
1F
100
AcDbEntity
  8
0
  6
Continuous
 62
     7
370
    35
100
AcDbLine
 10
1829.7009914618
 20
969.0814618932
 30
0.0
 11
1829.7009914618
 21
968.0814618932
 31
0.0
  0
LINE
  5
320
330
1F
100
AcDbEntity
  8
0
  6
Continuous
 62
     7
370
    35
100
AcDbLine
 10
1819.7009914618
 20
969.0814618932
 30
0.0
 11
1829.7009914618
 21
969.0814618932
 31
0.0
  0
LINE
  5
321
330
1F
100
AcDbEntity
  8
0
  6
Continuous
 62
     7
370
    35
100
AcDbLine
 10
1829.7009914618
 20
968.0814618932
 30
0.0
 11
1819.7009914618
 21
968.0814618932
 31
0.0
  0
LINE
  5
322
330
1F
100
AcDbEntity
  8
0
  6
Continuous
 62
     7
370
    35
100
AcDbLine
 10
1819.7009914618
 20
969.0814618932
 30
0.0
 11
1708.7009914618
 21
969.0814618932
 31
0.0
  0
LINE
  5
323
330
1F
100
AcDbEntity
  8
0
  6
Continuous
 62
     7
370
    35
100
AcDbLine
 10
1819.7009914618
 20
968.0814618932
 30
0.0
 11
1708.7009914618
 21
968.0814618932
 31
0.0
  0
LINE
  5
324
330
1F
100
AcDbEntity
  8
0
  6
Continuous
 62
     7
370
    35
100
AcDbLine
 10
1778.2009914618
 20
945.1814618932
 30
0.0
 11
1778.2009914618
 21
935.1814618932
 31
0.0
  0
ARC
  5
325
330
1F
100
AcDbEntity
  8
0
  6
Continuous
 62
     7
370
    35
100
AcDbCircle
 10
1771.7009914618
 20
945.1814618932
 30
0.0
 40
6.5
100
AcDbArc
 50
0.0
 51
180.0
  0
ARC
  5
326
330
1F
100
AcDbEntity
  8
0
  6
Continuous
 62
     7
370
    35
100
AcDbCircle
 10
1747.2009914618
 20
951.472071982
 30
0.0
 40
2.000000000000233
100
AcDbArc
 50
0.0
 51
65.0
  0
ARC
  5
327
330
1F
100
AcDbEntity
  8
0
  6
Continuous
 62
     7
370
    35
100
AcDbCircle
 10
1733.3259914618
 20
962.3556024148
 30
0.0
 40
2.000000000000528
100
AcDbArc
 50
180.0
 51
245.0
  0
LINE
  5
328
330
1F
100
AcDbEntity
  8
0
  6
Continuous
 62
     7
370
    35
100
AcDbLine
 10
1729.2009914618
 20
980.0814618932
 30
0.0
 11
1729.2009914618
 21
969.0814618932
 31
0.0
  0
LINE
  5
329
330
1F
100
AcDbEntity
  8
0
  6
Continuous
 62
     7
370
    35
100
AcDbLine
 10
1799.2009914618
 20
969.0814618932
 30
0.0
 11
1799.2009914618
 21
980.0814618932
 31
0.0
  0
CIRCLE
  5
32A
330
1F
100
AcDbEntity
  8
0
  6
Continuous
 62
     7
370
    35
100
AcDbCircle
 10
1764.2009914618
 20
923.1814618932
 30
0.0
 40
4.249999999999773
  0
LINE
  5
32B
330
1F
100
AcDbEntity
  8
0
  6
Continuous
 62
     7
370
    35
100
AcDbLine
 10
1750.2009914618
 20
945.1814618932
 30
0.0
 11
1750.2009914618
 21
935.1814618932
 31
0.0
  0
ARC
  5
32C
330
1F
100
AcDbEntity
  8
0
  6
Continuous
 62
     7
370
    35
100
AcDbCircle
 10
1756.7009914618
 20
935.1814618932
 30
0.0
 40
6.500000000000227
100
AcDbArc
 50
180.0
 51
0.0
  0
LINE
  5
32D
330
1F
100
AcDbEntity
  8
0
  6
Continuous
 62
     7
370
    35
100
AcDbLine
 10
1763.2009914618
 20
935.1814618932
 30
0.0
 11
1763.2009914618
 21
945.1814618932
 31
0.0
  0
ARC
  5
32E
330
1F
100
AcDbEntity
  8
0
  6
Continuous
 62
     7
370
    35
100
AcDbCircle
 10
1756.7009914618
 20
945.1814618932
 30
0.0
 40
6.500000000000227
100
AcDbArc
 50
0.0
 51
180.0
  0
ARC
  5
32F
330
1F
100
AcDbEntity
  8
0
  6
Continuous
 62
     7
370
    35
100
AcDbCircle
 10
1777.2009914618
 20
917.1814618932
 30
0.0
 40
1.999999999999886
100
AcDbArc
 50
270.0
 51
0.0
  0
ARC
  5
330
330
1F
100
AcDbEntity
  8
0
  6
Continuous
 62
     7
370
    35
100
AcDbCircle
 10
1781.2009914618
 20
951.472071982
 30
0.0
 40
2.0
100
AcDbArc
 50
115.0
 51
180.0
  0
ARC
  5
331
330
1F
100
AcDbEntity
  8
0
  6
Continuous
 62
     7
370
    35
100
AcDbCircle
 10
1795.0759914618
 20
962.3556024148
 30
0.0
 40
1.999999999999545
100
AcDbArc
 50
295.0
 51
0.0
  0
LINE
  5
332
330
1F
100
AcDbEntity
  8
0
  6
Continuous
 62
     7
370
    35
100
AcDbLine
 10
1751.2009914618
 20
915.1814618932
 30
0.0
 11
1777.2009914618
 21
915.1814618932
 31
0.0
  0
ARC
  5
333
330
1F
100
AcDbEntity
  8
0
  6
Continuous
 62
     7
370
    35
100
AcDbCircle
 10
1771.7009914618
 20
935.1814618932
 30
0.0
 40
6.500000000000227
100
AcDbArc
 50
180.0
 51
0.0
  0
LINE
  5
334
330
1F
100
AcDbEntity
  8
0
  6
Continuous
 62
     7
370
    35
100
AcDbLine
 10
1732.4807549384
 20
960.5429868407
 30
0.0
 11
1748.0462279853
 21
953.2846875561
 31
0.0
  0
LINE
  5
335
330
1F
100
AcDbEntity
  8
0
  6
Continuous
 62
     7
370
    35
100
AcDbLine
 10
1731.3259914618
 20
968.0814618932
 30
0.0
 11
1731.3259914618
 21
962.3556024148
 31
0.0
  0
LINE
  5
336
330
1F
100
AcDbEntity
  8
0
  6
Continuous
 62
     7
370
    35
100
AcDbLine
 10
1797.0759914618
 20
962.3556024148
 30
0.0
 11
1797.0759914618
 21
968.0814618932
 31
0.0
  0
LINE
  5
337
330
1F
100
AcDbEntity
  8
0
  6
Continuous
 62
     7
370
    35
100
AcDbLine
 10
1780.3557549384
 20
953.2846875561
 30
0.0
 11
1795.9212279853
 21
960.5429868407
 31
0.0
  0
LINE
  5
338
330
1F
100
AcDbEntity
  8
0
  6
Continuous
 62
     7
370
    35
100
AcDbLine
 10
1779.2009914618
 20
917.1814618932
 30
0.0
 11
1779.2009914618
 21
951.472071982
 31
0.0
  0
ARC
  5
339
330
1F
100
AcDbEntity
  8
0
  6
Continuous
 62
     7
370
    35
100
AcDbCircle
 10
1751.2009914618
 20
917.1814618932
 30
0.0
 40
1.999999999999886
100
AcDbArc
 50
180.0
 51
270.0
  0
LINE
  5
33A
330
1F
100
AcDbEntity
  8
0
  6
Continuous
 62
     7
370
    35
100
AcDbLine
 10
1749.2009914618
 20
951.472071982
 30
0.0
 11
1749.2009914618
 21
917.1814618932
 31
0.0
  0
LINE
  5
33B
330
1F
100
AcDbEntity
  8
0
  6
Continuous
 62
     7
370
    35
100
AcDbLine
 10
1765.2009914618
 20
935.1814618932
 30
0.0
 11
1765.2009914618
 21
945.1814618932
 31
0.0
  0
LINE
  5
33C
330
1F
100
AcDbEntity
  8
0
  6
Continuous
 62
     7
370
    35
100
AcDbLine
 10
1729.2009914618
 20
980.0814618932
 30
0.0
 11
1729.2009914618
 21
981.0814618932
 31
0.0
  0
LINE
  5
33D
330
1F
100
AcDbEntity
  8
0
  6
Continuous
 62
     7
370
    35
100
AcDbLine
 10
1799.2009914618
 20
981.0814618932
 30
0.0
 11
1799.2009914618
 21
980.0814618932
 31
0.0
  0
LINE
  5
33E
330
1F
100
AcDbEntity
  8
0
  6
Continuous
 62
     8
370
    18
100
AcDbLine
 10
1731.2009914618
 20
966.8433803825
 30
0.0
 11
1731.3259914618
 21
966.8433803825
 31
0.0
  0
LINE
  5
33F
330
1F
100
AcDbEntity
  8
0
  6
Continuous
 62
     8
370
    18
100
AcDbLine
 10
1797.0759914618
 20
966.8433803825
 30
0.0
 11
1797.2009914618
 21
966.8433803825
 31
0.0
  0
SPLINE
  5
340
330
1F
100
AcDbEntity
  8
0
  6
Continuous
 62
     8
370
    18
100
AcDbSpline
210
0.0
220
0.0
230
1.0
 70
     8
 71
     3
 72
    11
 73
     7
 74
     0
 42
0.000000001
 43
0.00000001
 40
0.0
 40
0.0
 40
0.0
 40
0.0
 40
0.2499912677933776
 40
0.499986756231606
 40
0.749992678491824
 40
0.9999999999999999
 40
0.9999999999999999
 40
0.9999999999999999
 40
0.9999999999999999
 10
1795.741158594533
 20
950.8840756103856
 30
0.0
 10
1795.733400965505
 20
950.8895734653131
 30
0.0
 10
1795.717885576474
 20
950.9005692679892
 30
0.0
 10
1795.687192393262
 20
950.9219262577215
 30
0.0
 10
1795.650027111629
 20
950.9487991773019
 30
0.0
 10
1795.622717712434
 20
950.9657491080416
 30
0.0
 10
1795.609062974624
 20
950.974224097128
 30
0.0
  0
SPLINE
  5
341
330
1F
100
AcDbEntity
  8
0
  6
Continuous
 62
     8
370
    18
100
AcDbSpline
210
0.0
220
0.0
230
1.0
 70
     8
 71
     3
 72
    10
 73
     6
 74
     0
 42
0.000000001
 43
0.00000001
 40
0.0
 40
0.0
 40
0.0
 40
0.0
 40
0.4993573099105828
 40
0.9998128115878191
 40
0.9999999999999999
 40
0.9999999999999999
 40
0.9999999999999999
 40
0.9999999999999999
 10
1795.609062974624
 20
950.974224097128
 30
0.0
 10
1795.608322138807
 20
950.9741474770277
 30
0.0
 10
1795.606838837917
 20
950.9739940683233
 30
0.0
 10
1795.608746742538
 20
950.968379326806
 30
0.0
 10
1795.610286983023
 20
950.9646143419365
 30
0.0
 10
1795.610287558913
 20
950.9646129342229
 30
0.0
  0
SPLINE
  5
342
330
1F
100
AcDbEntity
  8
0
  6
Continuous
 62
     8
370
    18
100
AcDbSpline
210
0.0
220
0.0
230
1.0
 70
     8
 71
     3
 72
    10
 73
     6
 74
     0
 42
0.000000001
 43
0.00000001
 40
0.0
 40
0.0
 40
0.0
 40
0.0
 40
0.4999712442950889
 40
0.7499826264318666
 40
1.0
 40
1.0
 40
1.0
 40
1.0
 10
1798.479143314706
 20
945.9285680590513
 30
0.0
 10
1798.72147983805
 20
945.4791261023051
 30
0.0
 10
1799.084997108956
 20
944.8049400106144
 30
0.0
 10
1799.560230583611
 20
943.9009639477672
 30
0.0
 10
1799.795361193403
 20
943.4476487529381
 30
0.0
 10
1799.912927906987
 20
943.2209884396727
 30
0.0
  0
SPLINE
  5
343
330
1F
100
AcDbEntity
  8
0
  6
Continuous
 62
     8
370
    18
100
AcDbSpline
210
0.0
220
0.0
230
1.0
 70
     8
 71
     3
 72
    11
 73
     7
 74
     0
 42
0.000000001
 43
0.00000001
 40
0.0
 40
0.0
 40
0.0
 40
0.0
 40
0.2471593440128842
 40
0.4953474341907654
 40
0.746978390568938
 40
1.0
 40
1.0
 40
1.0
 40
1.0
 10
1801.520773305561
 20
923.6823476789189
 30
0.0
 10
1801.368037832268
 20
923.2449337128884
 30
0.0
 10
1801.061931158019
 20
922.368285141831
 30
0.0
 10
1800.501386290663
 20
921.0862229340189
 30
0.0
 10
1799.870475779345
 20
919.826747180994
 30
0.0
 10
1799.386396605379
 20
919.0240370804853
 30
0.0
 10
1799.143690038551
 20
918.6215760304526
 30
0.0
  0
SPLINE
  5
344
330
1F
100
AcDbEntity
  8
0
  6
Continuous
 62
     8
370
    18
100
AcDbSpline
210
0.0
220
0.0
230
1.0
 70
     8
 71
     3
 72
    15
 73
    11
 74
     0
 42
0.000000001
 43
0.00000001
 40
0.0
 40
0.0
 40
0.0
 40
0.0
 40
0.0726415246631796
 40
0.2114867271185356
 40
0.3505587984459
 40
0.4893756744012161
 40
0.6282357890834533
 40
0.7719640009808401
 40
0.9157054947821142
 40
1.0
 40
1.0
 40
1.0
 40
1.0
 10
1799.143690038551
 20
918.6215760304526
 30
0.0
 10
1799.126148126668
 20
918.62699835603
 30
0.0
 10
1799.075077040967
 20
918.6427847797738
 30
0.0
 10
1798.519506325781
 20
918.5191893365294
 30
0.0
 10
1796.814484882901
 20
918.253381781768
 30
0.0
 10
1794.296445906467
 20
918.1681808964846
 30
0.0
 10
1790.994872564566
 20
918.0669400948044
 30
0.0
 10
1786.948254745273
 20
917.9827479626193
 30
0.0
 10
1782.991157045145
 20
917.916115268095
 30
0.0
 10
1780.223914705661
 20
917.8898291582145
 30
0.0
 10
1779.200991461839
 20
917.880112382635
 30
0.0
  0
LINE
  5
345
330
1F
100
AcDbEntity
  8
0
  6
Continuous
 62
     8
370
    18
100
AcDbLine
 10
1729.922839609
 20
945.9285680591
 30
0.0
 11
1728.4890550167
 21
943.2209884397
 31
0.0
  0
SPLINE
  5
346
330
1F
100
AcDbEntity
  8
0
  6
Continuous
 62
     8
370
    18
100
AcDbSpline
210
0.0
220
0.0
230
1.0
 70
     8
 71
     3
 72
     9
 73
     5
 74
     0
 42
0.000000001
 43
0.00000001
 40
0.0
 40
0.0
 40
0.0
 40
0.0
 40
0.9998127596651308
 40
0.9999999999999999
 40
0.9999999999999999
 40
0.9999999999999999
 40
0.9999999999999999
 10
1732.792919949053
 20
950.9742240971278
 30
0.0
 10
1732.793845746914
 20
950.9731785096627
 30
0.0
 10
1732.794771718153
 20
950.972132726385
 30
0.0
 10
1732.791695940674
 20
950.9646143419676
 30
0.0
 10
1732.791695364765
 20
950.9646129342227
 30
0.0
  0
SPLINE
  5
347
330
1F
100
AcDbEntity
  8
0
  6
Continuous
 62
     8
370
    18
100
AcDbSpline
210
0.0
220
0.0
230
1.0
 70
     8
 71
     3
 72
     9
 73
     5
 74
     0
 42
0.000000001
 43
0.00000001
 40
0.0
 40
0.0
 40
0.0
 40
0.0
 40
0.4999863548673911
 40
1.0
 40
1.0
 40
1.0
 40
1.0
 10
1732.660824329144
 20
950.8840756103854
 30
0.0
 10
1732.677338907963
 20
950.8959482734423
 30
0.0
 10
1732.710368967
 20
950.9196942475904
 30
0.0
 10
1732.765402454409
 20
950.9560471499218
 30
0.0
 10
1732.792919949053
 20
950.9742240971278
 30
0.0
  0
SPLINE
  5
348
330
1F
100
AcDbEntity
  8
0
  6
Continuous
 62
     8
370
    18
100
AcDbSpline
210
0.0
220
0.0
230
1.0
 70
     8
 71
     3
 72
    15
 73
    11
 74
     0
 42
0.000000001
 43
0.00000001
 40
0.0
 40
0.0
 40
0.0
 40
0.0
 40
0.0726415246631714
 40
0.2114867271185274
 40
0.3505587984458922
 40
0.4893756744012084
 40
0.628235789083446
 40
0.7719640009808322
 40
0.9157054947821057
 40
1.0
 40
1.0
 40
1.0
 40
1.0
 10
1729.258292885127
 20
918.6215760304524
 30
0.0
 10
1729.27583479701
 20
918.6269983560298
 30
0.0
 10
1729.32690588271
 20
918.6427847797736
 30
0.0
 10
1729.882476597897
 20
918.519189336529
 30
0.0
 10
1731.587498040777
 20
918.2533817817678
 30
0.0
 10
1734.105537017211
 20
918.1681808964844
 30
0.0
 10
1737.407110359112
 20
918.0669400948041
 30
0.0
 10
1741.453728178405
 20
917.982747962619
 30
0.0
 10
1745.410825878533
 20
917.9161152680949
 30
0.0
 10
1748.178068218017
 20
917.8898291582144
 30
0.0
 10
1749.200991461839
 20
917.8801123826349
 30
0.0
  0
SPLINE
  5
349
330
1F
100
AcDbEntity
  8
0
  6
Continuous
 62
     8
370
    18
100
AcDbSpline
210
0.0
220
0.0
230
1.0
 70
     8
 71
     3
 72
     9
 73
     5
 74
     0
 42
0.000000001
 43
0.00000001
 40
0.0
 40
0.0
 40
0.0
 40
0.0
 40
0.4953960175050939
 40
1.0
 40
1.0
 40
1.0
 40
1.0
 10
1726.881209618117
 20
923.6823476789185
 30
0.0
 10
1727.199200578928
 20
922.807996337222
 30
0.0
 10
1727.84109302371
 20
921.0430420162323
 30
0.0
 10
1728.783001909972
 20
919.4336710362588
 30
0.0
 10
1729.258292885127
 20
918.6215760304524
 30
0.0
  0
SPLINE
  5
34A
330
1F
100
AcDbEntity
  8
0
  6
Continuous
 62
     8
370
    18
100
AcDbSpline
210
0.0
220
0.0
230
1.0
 70
     8
 71
     3
 72
    13
 73
     9
 74
     0
 42
0.000000001
 43
0.00000001
 40
0.0
 40
0.0
 40
0.0
 40
0.0
 40
0.3455606136556951
 40
0.7377948233629158
 40
0.8482878985160528
 40
0.9091433588593544
 40
0.9540191324658089
 40
1.0
 40
1.0
 40
1.0
 40
1.0
 10
1729.258292885127
 20
918.6215760304524
 30
0.0
 10
1729.596735494331
 20
918.1204046843594
 30
0.0
 10
1730.319332906215
 20
917.0503706291079
 30
0.0
 10
1731.354487989748
 20
915.9632704826976
 30
0.0
 10
1731.984392720711
 20
915.3830887349313
 30
0.0
 10
1732.161826532767
 20
915.223772859207
 30
0.0
 10
1732.232025491855
 20
915.1589712468289
 30
0.0
 10
1732.22805428164
 20
915.1589140841888
 30
0.0
 10
1732.226044525516
 20
915.1588851552326
 30
0.0
  0
SPLINE
  5
34B
330
1F
100
AcDbEntity
  8
0
  6
Continuous
 62
     8
370
    18
100
AcDbSpline
210
0.0
220
0.0
230
1.0
 70
     8
 71
     3
 72
     9
 73
     5
 74
     0
 42
0.000000001
 43
0.00000001
 40
0.0
 40
0.0
 40
0.0
 40
0.0
 40
0.4998468996431861
 40
1.0
 40
1.0
 40
1.0
 40
1.0
 10
1732.226044525516
 20
915.1588851552326
 30
0.0
 10
1732.120471077141
 20
915.2224771019572
 30
0.0
 10
1731.909259507256
 20
915.3496999511333
 30
0.0
 10
1731.788680669504
 20
915.4273278950583
 30
0.0
 10
1731.728372789965
 20
915.4661537518865
 30
0.0
  0
SPLINE
  5
34C
330
1F
100
AcDbEntity
  8
0
  6
Continuous
 62
     8
370
    18
100
AcDbSpline
210
0.0
220
0.0
230
1.0
 70
     8
 71
     3
 72
    13
 73
     9
 74
     0
 42
0.000000001
 43
0.00000001
 40
0.0
 40
0.0
 40
0.0
 40
0.0
 40
0.3455606136556855
 40
0.7377948233628997
 40
0.8482878985160512
 40
0.909143358859354
 40
0.9540191324658096
 40
1.0
 40
1.0
 40
1.0
 40
1.0
 10
1799.143690038551
 20
918.6215760304526
 30
0.0
 10
1798.805247429347
 20
918.1204046843596
 30
0.0
 10
1798.082650017462
 20
917.0503706291082
 30
0.0
 10
1797.04749493393
 20
915.9632704826976
 30
0.0
 10
1796.417590202967
 20
915.3830887349317
 30
0.0
 10
1796.24015639091
 20
915.2237728592072
 30
0.0
 10
1796.169957431822
 20
915.1589712468292
 30
0.0
 10
1796.173928642038
 20
915.158914084189
 30
0.0
 10
1796.175938398161
 20
915.1588851552328
 30
0.0
  0
SPLINE
  5
34D
330
1F
100
AcDbEntity
  8
0
  6
Continuous
 62
     8
370
    18
100
AcDbSpline
210
0.0
220
0.0
230
1.0
 70
     8
 71
     3
 72
    11
 73
     7
 74
     0
 42
0.000000001
 43
0.00000001
 40
0.0
 40
0.0
 40
0.0
 40
0.0
 40
0.2499068565621712
 40
0.4998445626142471
 40
0.7498974475611084
 40
1.0
 40
1.0
 40
1.0
 40
1.0
 10
1796.175938398161
 20
915.1588851552328
 30
0.0
 10
1796.229770131559
 20
915.1909929873697
 30
0.0
 10
1796.337440243556
 20
915.2552126151611
 30
0.0
 10
1796.473321572802
 20
915.3390862750019
 30
0.0
 10
1796.589508843253
 20
915.4121540971626
 30
0.0
 10
1796.645574514377
 20
915.4481526753772
 30
0.0
 10
1796.673610133715
 20
915.466153751888
 30
0.0
  0
SPLINE
  5
34E
330
1F
100
AcDbEntity
  8
0
  6
Continuous
 62
     8
370
    18
100
AcDbSpline
210
0.0
220
0.0
230
1.0
 70
     8
 71
     3
 72
     9
 73
     5
 74
     0
 42
0.000000001
 43
0.00000001
 40
0.0
 40
0.0
 40
0.0
 40
0.0
 40
0.7340356503358367
 40
1.0
 40
1.0
 40
1.0
 40
1.0
 10
1796.673610133715
 20
915.466153751888
 30
0.0
 10
1796.679162429416
 20
915.4701685971379
 30
0.0
 10
1796.686726497589
 20
915.475638147899
 30
0.0
 10
1796.733809264218
 20
915.5177602975591
 30
0.0
 10
1796.746331601625
 20
915.5289632876998
 30
0.0
  0
SPLINE
  5
34F
330
1F
100
AcDbEntity
  8
0
  6
Continuous
 62
     8
370
    18
100
AcDbSpline
210
0.0
220
0.0
230
1.0
 70
     8
 71
     3
 72
    12
 73
     8
 74
     0
 42
0.000000001
 43
0.00000001
 40
0.0
 40
0.0
 40
0.0
 40
0.0
 40
0.1139159269059944
 40
0.3258009088085494
 40
0.5443041886655143
 40
0.8274327407183973
 40
1.0
 40
1.0
 40
1.0
 40
1.0
 10
1802.283923301578
 20
923.4455616748714
 30
0.0
 10
1802.515167291025
 20
924.1990331586217
 30
0.0
 10
1803.17652785723
 20
926.3539705833919
 30
0.0
 10
1803.69956006391
 20
930.1088775615876
 30
0.0
 10
1803.548423947309
 20
935.0547550757403
 30
0.0
 10
1802.529107309217
 20
939.6632509752277
 30
0.0
 10
1801.187519132948
 20
942.5192127607588
 30
0.0
 10
1800.679473658522
 20
943.6007357541321
 30
0.0
  0
ARC
  5
350
330
1F
100
AcDbEntity
  8
0
  6
Continuous
 62
     8
370
    18
100
AcDbCircle
 10
1796.9015566246
 20
907.4466416403
 30
0.0
 40
16.88002705320615
100
AcDbArc
 50
71.4059989949
 51
74.1184304799
  0
ARC
  5
351
330
1F
100
AcDbEntity
  8
0
  6
Continuous
 62
     8
370
    18
100
AcDbCircle
 10
1791.197378969
 20
961.7774520364
 30
0.0
 40
20.50129592262649
100
AcDbArc
 50
295.1583766345
 51
297.5493192595
  0
ARC
  5
352
330
1F
100
AcDbEntity
  8
0
  6
Continuous
 62
     8
370
    18
100
AcDbCircle
 10
1731.5004262991
 20
907.4466416404
 30
0.0
 40
16.88002705310226
100
AcDbArc
 50
105.88156952
 51
108.5940010051
  0
SPLINE
  5
353
330
1F
100
AcDbEntity
  8
0
  6
Continuous
 62
     8
370
    18
100
AcDbSpline
210
0.0
220
0.0
230
1.0
 70
     8
 71
     3
 72
    12
 73
     8
 74
     0
 42
0.000000001
 43
0.00000001
 40
0.0
 40
0.0
 40
0.0
 40
0.0
 40
0.1139185701341841
 40
0.3290869588708606
 40
0.5442936150078432
 40
0.8274287365843254
 40
1.0
 40
1.0
 40
1.0
 40
1.0
 10
1726.1180596221
 20
923.4455616748713
 30
0.0
 10
1725.886686014161
 20
924.199015542329
 30
0.0
 10
1725.218295979859
 20
926.3755864174644
 30
0.0
 10
1724.705888896383
 20
930.1325355107515
 30
0.0
 10
1724.856871866234
 20
935.0771481902874
 30
0.0
 10
1725.87313826394
 20
939.6632783741918
 30
0.0
 10
1727.214535933599
 20
942.5192202865298
 30
0.0
 10
1727.722509265156
 20
943.6007357541317
 30
0.0
  0
ARC
  5
354
330
1F
100
AcDbEntity
  8
0
  6
Continuous
 62
     8
370
    18
100
AcDbCircle
 10
1737.2046039546
 20
961.7774520362
 30
0.0
 40
20.50129592240198
100
AcDbArc
 50
242.4506807405
 51
244.8416233655
  0
ARC
  5
355
330
1F
100
AcDbEntity
  8
0
  6
Continuous
 62
     8
370
    18
100
AcDbCircle
 10
1729.0749691147
 20
917.9496864852
 30
0.0
 40
0.6964504044248148
100
AcDbArc
 50
74.7384391007
 51
121.314184164
  0
SPLINE
  5
356
330
1F
100
AcDbEntity
  8
0
  6
Continuous
 62
     8
370
    18
100
AcDbSpline
210
0.0
220
0.0
230
1.0
 70
     8
 71
     3
 72
    11
 73
     7
 74
     0
 42
0.000000001
 43
0.00000001
 40
0.0
 40
0.0
 40
0.0
 40
0.0
 40
0.3598580230790387
 40
0.7246062069006077
 40
0.8621677510649567
 40
1.0
 40
1.0
 40
1.0
 40
1.0
 10
1728.713002509951
 20
918.5446850926622
 30
0.0
 10
1728.327700070831
 20
919.0909814412931
 30
0.0
 10
1727.551859264137
 20
920.1909978356425
 30
0.0
 10
1726.830964030683
 20
921.6259291438662
 30
0.0
 10
1726.373002958743
 20
922.7221786808399
 30
0.0
 10
1726.203096405521
 20
923.2042760472331
 30
0.0
 10
1726.1180596221
 20
923.4455616748713
 30
0.0
  0
SPLINE
  5
357
330
1F
100
AcDbEntity
  8
0
  6
Continuous
 62
     8
370
    18
100
AcDbSpline
210
0.0
220
0.0
230
1.0
 70
     8
 71
     3
 72
    11
 73
     7
 74
     0
 42
0.000000001
 43
0.00000001
 40
0.0
 40
0.0
 40
0.0
 40
0.0
 40
0.3598580230790382
 40
0.724606206900608
 40
0.8621677510649471
 40
1.0
 40
1.0
 40
1.0
 40
1.0
 10
1799.688980413726
 20
918.5446850926625
 30
0.0
 10
1800.074282852847
 20
919.0909814412934
 30
0.0
 10
1800.850123659541
 20
920.1909978356427
 30
0.0
 10
1801.571018892995
 20
921.6259291438665
 30
0.0
 10
1802.028979964935
 20
922.7221786808402
 30
0.0
 10
1802.198886518157
 20
923.2042760472334
 30
0.0
 10
1802.283923301578
 20
923.4455616748714
 30
0.0
  0
ARC
  5
358
330
1F
100
AcDbEntity
  8
0
  6
Continuous
 62
     8
370
    18
100
AcDbCircle
 10
1799.327013809
 20
917.9496864852
 30
0.0
 40
0.6964504044254979
100
AcDbArc
 50
58.685815836
 51
105.2615608992
  0
ARC
  5
359
330
1F
100
AcDbEntity
  8
0
  6
Continuous
 62
     8
370
    18
100
AcDbCircle
 10
1798.1499794457
 20
952.5643766204
 30
0.0
 40
2.997472528736843
100
AcDbArc
 50
212.0390940145
 51
236.4309513429
  0
SPLINE
  5
35A
330
1F
100
AcDbEntity
  8
0
  6
Continuous
 62
     8
370
    18
100
AcDbSpline
210
0.0
220
0.0
230
1.0
 70
     8
 71
     3
 72
    14
 73
    10
 74
     0
 42
0.000000001
 43
0.00000001
 40
0.0
 40
0.0
 40
0.0
 40
0.0
 40
0.6113158653943812
 40
0.7934072053583402
 40
0.8854170307688746
 40
0.9194198313361064
 40
0.943450187052995
 40
0.9749897870426378
 40
1.0
 40
1.0
 40
1.0
 40
1.0
 10
1799.218280603911
 20
946.3189080877264
 30
0.0
 10
1798.661823653624
 20
947.2012314083212
 30
0.0
 10
1797.939616070243
 20
948.3463704757719
 30
0.0
 10
1796.954938820386
 20
949.4820265885525
 30
0.0
 10
1796.629898580414
 20
949.8597736504273
 30
0.0
 10
1796.516844756779
 20
950.0008145444363
 30
0.0
 10
1796.476474814485
 20
950.058019780364
 30
0.0
 10
1796.46836272669
 20
950.0803575858304
 30
0.0
 10
1796.485134702925
 20
950.0709729170131
 30
0.0
 10
1796.492552423259
 20
950.0668223716194
 30
0.0
  0
ARC
  5
35B
330
1F
100
AcDbEntity
  8
0
  6
Continuous
 62
     8
370
    18
100
AcDbCircle
 10
1786.5901712439
 20
969.336178224
 30
0.0
 40
26.25383534900509
100
AcDbArc
 50
296.9264954204
 51
298.7507702117
  0
ARC
  5
35C
330
1F
100
AcDbEntity
  8
0
  6
Continuous
 62
     8
370
    18
100
AcDbCircle
 10
1741.81181168
 20
969.3361782245
 30
0.0
 40
26.25383534957322
100
AcDbArc
 50
241.2492297883
 51
243.0735045795
  0
SPLINE
  5
35D
330
1F
100
AcDbEntity
  8
0
  6
Continuous
 62
     8
370
    18
100
AcDbSpline
210
0.0
220
0.0
230
1.0
 70
     8
 71
     3
 72
    14
 73
    10
 74
     0
 42
0.000000001
 43
0.00000001
 40
0.0
 40
0.0
 40
0.0
 40
0.0
 40
0.6113158653943663
 40
0.7934072053583408
 40
0.8854170307688748
 40
0.9194198313361065
 40
0.9434501870529951
 40
0.9749897870426378
 40
1.0
 40
1.0
 40
1.0
 40
1.0
 10
1729.183702319767
 20
946.3189080877262
 30
0.0
 10
1729.740159270053
 20
947.201231408321
 30
0.0
 10
1730.462366853434
 20
948.3463704757718
 30
0.0
 10
1731.447044103292
 20
949.4820265885521
 30
0.0
 10
1731.772084343263
 20
949.8597736504272
 30
0.0
 10
1731.885138166899
 20
950.000814544436
 30
0.0
 10
1731.925508109193
 20
950.0580197803638
 30
0.0
 10
1731.933620196988
 20
950.08035758583
 30
0.0
 10
1731.916848220753
 20
950.070972917013
 30
0.0
 10
1731.909430500419
 20
950.0668223716191
 30
0.0
  0
ARC
  5
35E
330
1F
100
AcDbEntity
  8
0
  6
Continuous
 62
     8
370
    18
100
AcDbCircle
 10
1730.2520034779
 20
952.5643766204
 30
0.0
 40
2.997472528732324
100
AcDbArc
 50
303.5690486571
 51
327.9609059855
  0
LINE
  5
35F
330
1F
100
AcDbEntity
  8
0
  6
Continuous
 62
     8
370
    18
100
AcDbLine
 10
1727.7225092652
 20
943.6007357541
 30
0.0
 11
1729.1837023198
 21
946.3189080877
 31
0.0
  0
LINE
  5
360
330
1F
100
AcDbEntity
  8
0
  6
Continuous
 62
     8
370
    18
100
AcDbLine
 10
1800.6794736585
 20
943.6007357541
 30
0.0
 11
1799.2182806039
 21
946.3189080877
 31
0.0
  0
ARC
  5
361
330
1F
100
AcDbEntity
  8
0
  6
Continuous
 62
     8
370
    18
100
AcDbCircle
 10
1730.3141750142
 20
912.8948141504
 30
0.0
 40
2.963319514173789
100
AcDbArc
 50
49.8209532532
 51
58.1297763967
  0
SPLINE
  5
362
330
1F
100
AcDbEntity
  8
0
  6
Continuous
 62
     8
370
    18
100
AcDbSpline
210
0.0
220
0.0
230
1.0
 70
     8
 71
     3
 72
    16
 73
    12
 74
     0
 42
0.000000001
 43
0.00000001
 40
0.0
 40
0.0
 40
0.0
 40
0.0
 40
0.0117733620155407
 40
0.0227113902881393
 40
0.0341085178796155
 40
0.0448724470144666
 40
0.084397789127413
 40
0.1801725761900056
 40
0.600475655587692
 40
0.7301077904364985
 40
1.0
 40
1.0
 40
1.0
 40
1.0
 10
1731.878798993816
 20
915.4114019882595
 30
0.0
 10
1731.884372356678
 20
915.4080486208366
 30
0.0
 10
1731.895123645818
 20
915.4015798113138
 30
0.0
 10
1731.895450051074
 20
915.4036433494998
 30
0.0
 10
1731.879594426699
 20
915.4172835343719
 30
0.0
 10
1731.828476732924
 20
915.4578614772714
 30
0.0
 10
1731.657968790464
 20
915.5885279673022
 30
0.0
 10
1730.983719854484
 20
916.1159168456306
 30
0.0
 10
1730.233563730056
 20
916.7969864419858
 30
0.0
 10
1729.360723820918
 20
917.7275576469162
 30
0.0
 10
1728.974147733744
 20
918.2152395022931
 30
0.0
 10
1728.713002509951
 20
918.5446850926622
 30
0.0
  0
SPLINE
  5
363
330
1F
100
AcDbEntity
  8
0
  6
Continuous
 62
     8
370
    18
100
AcDbSpline
210
0.0
220
0.0
230
1.0
 70
     8
 71
     3
 72
    16
 73
    12
 74
     0
 42
0.000000001
 43
0.00000001
 40
0.0
 40
0.0
 40
0.0
 40
0.0
 40
0.0117733620155407
 40
0.0227113902881392
 40
0.0341085178796152
 40
0.0448724470144661
 40
0.0843977891274284
 40
0.1801725761900122
 40
0.6004756555876817
 40
0.7301077904365111
 40
1.0
 40
1.0
 40
1.0
 40
1.0
 10
1796.523183929861
 20
915.4114019882597
 30
0.0
 10
1796.517610566999
 20
915.4080486208369
 30
0.0
 10
1796.50685927786
 20
915.401579811314
 30
0.0
 10
1796.506532872603
 20
915.4036433494999
 30
0.0
 10
1796.522388496979
 20
915.417283534372
 30
0.0
 10
1796.573506190754
 20
915.4578614772716
 30
0.0
 10
1796.744014133214
 20
915.5885279673023
 30
0.0
 10
1797.418263069194
 20
916.1159168456307
 30
0.0
 10
1798.168419193622
 20
916.7969864419863
 30
0.0
 10
1799.04125910276
 20
917.7275576469164
 30
0.0
 10
1799.427835189934
 20
918.2152395022935
 30
0.0
 10
1799.688980413726
 20
918.5446850926625
 30
0.0
  0
ARC
  5
364
330
1F
100
AcDbEntity
  8
0
  6
Continuous
 62
     8
370
    18
100
AcDbCircle
 10
1798.0878079095
 20
912.8948141504
 30
0.0
 40
2.963319514176188
100
AcDbArc
 50
121.8702236032
 51
130.1790467467
  0
ARC
  5
365
330
1F
100
AcDbEntity
  8
0
  6
Continuous
 62
     8
370
    18
100
AcDbCircle
 10
1793.8854962665
 20
956.5963487204
 30
0.0
 40
14.66438151348022
100
AcDbArc
 50
297.6001215934
 51
299.8288543736
  0
ARC
  5
366
330
1F
100
AcDbEntity
  8
0
  6
Continuous
 62
     8
370
    18
100
AcDbCircle
 10
1798.2722297458
 20
911.5718952575
 30
0.0
 40
12.53306185159856
100
AcDbArc
 50
68.8944075233
 51
71.3317007916
  0
ARC
  5
367
330
1F
100
AcDbEntity
  8
0
  6
Continuous
 62
     8
370
    18
100
AcDbCircle
 10
1734.5164866571
 20
956.5963487202
 30
0.0
 40
14.66438151322601
100
AcDbArc
 50
240.1711456264
 51
242.3998784066
  0
ARC
  5
368
330
1F
100
AcDbEntity
  8
0
  6
Continuous
 62
     8
370
    18
100
AcDbCircle
 10
1730.1297531778
 20
911.5718952576
 30
0.0
 40
12.53306185146799
100
AcDbArc
 50
108.6682992084
 51
111.1055924767
  0
ARC
  5
369
330
1F
100
AcDbEntity
  8
0
  6
Continuous
 62
     8
370
    18
100
AcDbCircle
 10
1736.5074876718
 20
959.6455036941
 30
0.0
 40
15.2064454209521
100
AcDbArc
 50
239.1079369152
 51
241.2084941517
  0
ARC
  5
36A
330
1F
100
AcDbEntity
  8
0
  6
Continuous
 62
     8
370
    18
100
AcDbCircle
 10
1791.8944952519
 20
959.645503694
 30
0.0
 40
15.20644542076663
100
AcDbArc
 50
298.7915058483
 51
300.8920630848
  0
ARC
  5
36B
330
1F
100
AcDbEntity
  8
0
  6
Continuous
 62
     8
370
    18
100
AcDbCircle
 10
1798.6714340155
 20
913.2392278343
 30
0.0
 40
2.991738508831439
100
AcDbArc
 50
124.0281034348
 51
131.8959735505
  0
ARC
  5
36C
330
1F
100
AcDbEntity
  8
0
  6
Continuous
 62
     8
370
    18
100
AcDbCircle
 10
1729.7305489081
 20
913.2392278343
 30
0.0
 40
2.991738508843156
100
AcDbArc
 50
48.1040264495
 51
55.9718965653
  0
ARC
  5
36D
330
1F
100
AcDbEntity
  8
0
  6
Continuous
 62
     8
370
    18
100
AcDbCircle
 10
1798.2820805162
 20
952.4779203893
 30
0.0
 40
2.99943751248555
100
AcDbArc
 50
212.0988262037
 51
235.735331513
  0
ARC
  5
36E
330
1F
100
AcDbEntity
  8
0
  6
Continuous
 62
     8
370
    18
100
AcDbCircle
 10
1730.1198829633
 20
952.4779357607
 30
0.0
 40
2.99946215234028
100
AcDbArc
 50
312.8940341439
 51
327.9011224249
  0
SPLINE
  5
36F
330
1F
100
AcDbEntity
  8
0
  6
Continuous
 62
     8
370
    18
100
AcDbSpline
210
0.0
220
0.0
230
1.0
 70
     8
 71
     3
 72
    11
 73
     7
 74
     0
 42
0.000000001
 43
0.00000001
 40
0.0
 40
0.0
 40
0.0
 40
0.0
 40
0.2426985957037864
 40
0.5047456086937568
 40
0.766441299788719
 40
1.0
 40
1.0
 40
1.0
 40
1.0
 10
1798.360897819545
 20
948.4181646736489
 30
0.0
 10
1798.108352529404
 20
948.8919264072847
 30
0.0
 10
1797.583128533668
 20
949.8772191071715
 30
0.0
 10
1796.86864082251
 20
950.8723541618017
 30
0.0
 10
1796.192789851884
 20
951.5205742053616
 30
0.0
 10
1796.083980707256
 20
951.5992735269225
 30
0.0
 10
1796.03266703324
 20
951.6363876072295
 30
0.0
  0
ARC
  5
370
330
1F
100
AcDbEntity
  8
0
  6
Continuous
 62
     8
370
    18
100
AcDbCircle
 10
1797.7849567972
 20
927.657301571
 30
0.0
 40
8.932560827387817
100
AcDbArc
 50
287.5397504291
 51
356.514198663
  0
SPLINE
  5
371
330
1F
100
AcDbEntity
  8
0
  6
Continuous
 62
     8
370
    18
100
AcDbSpline
210
0.0
220
0.0
230
1.0
 70
     8
 71
     3
 72
    11
 73
     7
 74
     0
 42
0.000000001
 43
0.00000001
 40
0.0
 40
0.0
 40
0.0
 40
0.0
 40
0.2352104509735715
 40
0.4712568957191052
 40
0.7971477029156918
 40
1.0
 40
1.0
 40
1.0
 40
1.0
 10
1795.700991461839
 20
913.8534296792565
 30
0.0
 10
1796.0636906075
 20
914.1341959403048
 30
0.0
 10
1796.790378017677
 20
914.6967263723359
 30
0.0
 10
1797.970897813238
 20
915.8153561049728
 30
0.0
 10
1799.06922176685
 20
917.0067010293822
 30
0.0
 10
1799.733537084826
 20
918.0284437136789
 30
0.0
 10
1799.988401663009
 20
918.4204353044166
 30
0.0
  0
SPLINE
  5
372
330
1F
100
AcDbEntity
  8
0
  6
Continuous
 62
     8
370
    18
100
AcDbSpline
210
0.0
220
0.0
230
1.0
 70
     8
 71
     3
 72
    10
 73
     6
 74
     0
 42
0.000000001
 43
0.00000001
 40
0.0
 40
0.0
 40
0.0
 40
0.0
 40
0.4338511233655628
 40
0.8744573306290886
 40
1.0
 40
1.0
 40
1.0
 40
1.0
 10
1795.700991461839
 20
913.8534296792565
 30
0.0
 10
1794.666369039017
 20
913.4000690957068
 30
0.0
 10
1792.581015070009
 20
912.4862890814294
 30
0.0
 10
1790.081964386019
 20
911.885587240358
 30
0.0
 10
1788.653003547774
 20
911.8029639508757
 30
0.0
 10
1788.336133612208
 20
911.784642359609
 30
0.0
  0
LWPOLYLINE
  5
373
330
1F
100
AcDbEntity
  8
0
  6
Continuous
 62
     8
370
    18
100
AcDbPolyline
 90
        9
 70
   128
 43
0.0
 10
1806.7009914618
 20
923.6333062222
 10
1806.4896295463
 20
921.7253469581
 10
1805.8636663195
 20
919.8907094986
 10
1804.8471571972
 20
918.1998979323
 10
1803.4791660549
 20
916.7178891995
 10
1801.8122640251
 20
915.5016360647
 10
1799.9105092179
 20
914.5978784537
 10
1797.846985004
 20
914.0413472647
 10
1795.7009914618
 20
913.8534296793
  0
LINE
  5
374
330
1F
100
AcDbEntity
  8
0
  6
Continuous
 62
     8
370
    18
100
AcDbLine
 10
1795.7009914618
 20
911.6350233936
 30
0.0
 11
1795.7009914618
 21
913.8534296793
 31
0.0
  0
LINE
  5
375
330
1F
100
AcDbEntity
  8
0
  6
Continuous
 62
     8
370
    18
100
AcDbLine
 10
1708.7009914618
 20
969.0814618932
 30
0.0
 11
1708.7009914618
 21
968.0814618932
 31
0.0
  0
LINE
  5
376
330
1F
100
AcDbEntity
  8
0
  6
Continuous
 62
     8
370
    18
100
AcDbLine
 10
1819.7009914618
 20
968.0814618932
 30
0.0
 11
1819.7009914618
 21
969.0814618932
 31
0.0
  0
LINE
  5
377
330
1F
100
AcDbEntity
  8
0
  6
Continuous
 62
     8
370
    18
100
AcDbLine
 10
1799.2009914618
 20
980.0814618932
 30
0.0
 11
1729.2009914618
 21
980.0814618932
 31
0.0
  0
ENDSEC
  0
SECTION
  2
OBJECTS
  0
DICTIONARY
  5
C
330
0
100
AcDbDictionary
281
     1
  3
ACAD_GROUP
350
D
  3
ACAD_LAYOUT
350
1A
  3
ACAD_MLINESTYLE
350
17
  3
ACAD_PLOTSETTINGS
350
19
  3
ACAD_PLOTSTYLENAME
350
E
  3
ACAD_SCALELIST
350
47
  0
DICTIONARY
  5
D
102
{ACAD_REACTORS
330
C
102
}
330
C
100
AcDbDictionary
281
     1
  0
DICTIONARY
  5
1A
102
{ACAD_REACTORS
330
C
102
}
330
C
100
AcDbDictionary
281
     1
  3
Layout1
350
1E
  3
Layout2
350
26
  3
Model
350
22
  0
DICTIONARY
  5
17
102
{ACAD_REACTORS
330
C
102
}
330
C
100
AcDbDictionary
281
     1
  3
Standard
350
18
  0
DICTIONARY
  5
19
102
{ACAD_REACTORS
330
C
102
}
330
C
100
AcDbDictionary
281
     1
  0
ACDBDICTIONARYWDFLT
  5
E
102
{ACAD_REACTORS
330
C
102
}
330
C
100
AcDbDictionary
281
     1
  3
Normal
350
F
100
AcDbDictionaryWithDefault
340
F
  0
DICTIONARY
  5
47
102
{ACAD_REACTORS
330
C
102
}
330
C
100
AcDbDictionary
281
     1
  3
A0
350
48
  3
A1
350
49
  3
A2
350
4A
  3
A3
350
4B
  3
A4
350
4C
  3
A5
350
4D
  3
A6
350
4E
  3
A7
350
4F
  3
A8
350
50
  3
A9
350
51
  3
B0
350
52
  3
B1
350
53
  3
B2
350
54
  3
B3
350
55
  3
B4
350
56
  3
B5
350
57
  3
B6
350
58
  3
B7
350
59
  3
B8
350
5A
  3
B9
350
5B
  3
C0
350
5C
  3
C1
350
5D
  3
C2
350
5E
  3
C3
350
5F
  3
C4
350
60
  3
C5
350
61
  3
C6
350
62
  3
C7
350
63
  3
C8
350
64
  3
C9
350
65
  3
D0
350
66
  3
D1
350
67
  3
D2
350
68
  0
LAYOUT
  5
1E
102
{ACAD_REACTORS
330
1A
102
}
330
1A
100
AcDbPlotSettings
  1

  2
none_device
  4

  6

 40
0.0
 41
0.0
 42
0.0
 43
0.0
 44
0.0
 45
0.0
 46
0.0
 47
0.0
 48
0.0
 49
0.0
140
0.0
141
0.0
142
1.0
143
1.0
 70
   688
 72
     1
 73
     0
 74
     5
  7

 75
    16
147
1.0
148
0.0
149
0.0
100
AcDbLayout
  1
Layout1
 70
     1
 71
     1
 10
0.0
 20
0.0
 11
420.0
 21
297.0
 12
0.0
 22
0.0
 32
0.0
 14
1.0000000000E+20
 24
1.0000000000E+20
 34
1.0000000000E+20
 15
-1.0000000000E+20
 25
-1.0000000000E+20
 35
-1.0000000000E+20
146
0.0
 13
0.0
 23
0.0
 33
0.0
 16
1.0
 26
0.0
 36
0.0
 17
0.0
 27
1.0
 37
0.0
 76
     0
330
1B
  0
LAYOUT
  5
26
102
{ACAD_REACTORS
330
1A
102
}
330
1A
100
AcDbPlotSettings
  1

  2
none_device
  4

  6

 40
0.0
 41
0.0
 42
0.0
 43
0.0
 44
0.0
 45
0.0
 46
0.0
 47
0.0
 48
0.0
 49
0.0
140
0.0
141
0.0
142
1.0
143
1.0
 70
   688
 72
     1
 73
     0
 74
     5
  7

 75
    16
147
1.0
148
0.0
149
0.0
100
AcDbLayout
  1
Layout2
 70
     1
 71
     2
 10
0.0
 20
0.0
 11
0.0
 21
0.0
 12
0.0
 22
0.0
 32
0.0
 14
0.0
 24
0.0
 34
0.0
 15
0.0
 25
0.0
 35
0.0
146
0.0
 13
0.0
 23
0.0
 33
0.0
 16
1.0
 26
0.0
 36
0.0
 17
0.0
 27
1.0
 37
0.0
 76
     0
330
23
  0
LAYOUT
  5
22
102
{ACAD_REACTORS
330
1A
102
}
330
1A
100
AcDbPlotSettings
  1

  2
none_device
  4
Letter_(8.50_x_11.00_Inches)
  6

 40
6.35
 41
6.35
 42
6.35000508
 43
6.35000508
 44
215.9
 45
279.4
 46
0.0
 47
0.0
 48
0.0
 49
0.0
140
0.0
141
0.0
142
1.0
143
1.0
 70
  1712
 72
     1
 73
     0
 74
     0
  7

 75
     0
147
1.0
148
0.0
149
0.0
100
AcDbLayout
  1
Model
 70
     1
 71
     0
 10
0.0
 20
0.0
 11
2100.0
 21
1485.0
 12
0.0
 22
0.0
 32
0.0
 14
0.0
 24
0.0
 34
0.0
 15
2100.0
 25
1485.0
 35
0.0
146
0.0
 13
0.0
 23
0.0
 33
0.0
 16
1.0
 26
0.0
 36
0.0
 17
0.0
 27
1.0
 37
0.0
 76
     0
330
1F
331
29
  0
MLINESTYLE
  5
18
102
{ACAD_REACTORS
330
17
102
}
330
17
100
AcDbMlineStyle
  2
Standard
 70
     0
  3

 62
   256
 51
90.0
 52
90.0
 71
     2
 49
0.5
 62
   256
  6
BYLAYER
 49
-0.5
 62
   256
  6
BYLAYER
  0
ACDBPLACEHOLDER
  5
F
102
{ACAD_REACTORS
330
E
102
}
330
E
  0
SCALE
  5
48
102
{ACAD_REACTORS
330
47
102
}
330
47
100
AcDbScale
 70
     0
300
1:1
140
1.0
141
1.0
290
     1
  0
SCALE
  5
49
102
{ACAD_REACTORS
330
47
102
}
330
47
100
AcDbScale
 70
     0
300
1:2
140
1.0
141
2.0
290
     0
  0
SCALE
  5
4A
102
{ACAD_REACTORS
330
47
102
}
330
47
100
AcDbScale
 70
     0
300
1:4
140
1.0
141
4.0
290
     0
  0
SCALE
  5
4B
102
{ACAD_REACTORS
330
47
102
}
330
47
100
AcDbScale
 70
     0
300
1:5
140
1.0
141
5.0
290
     0
  0
SCALE
  5
4C
102
{ACAD_REACTORS
330
47
102
}
330
47
100
AcDbScale
 70
     0
300
1:8
140
1.0
141
8.0
290
     0
  0
SCALE
  5
4D
102
{ACAD_REACTORS
330
47
102
}
330
47
100
AcDbScale
 70
     0
300
1:10
140
1.0
141
10.0
290
     0
  0
SCALE
  5
4E
102
{ACAD_REACTORS
330
47
102
}
330
47
100
AcDbScale
 70
     0
300
1:16
140
1.0
141
16.0
290
     0
  0
SCALE
  5
4F
102
{ACAD_REACTORS
330
47
102
}
330
47
100
AcDbScale
 70
     0
300
1:20
140
1.0
141
20.0
290
     0
  0
SCALE
  5
50
102
{ACAD_REACTORS
330
47
102
}
330
47
100
AcDbScale
 70
     0
300
1:30
140
1.0
141
30.0
290
     0
  0
SCALE
  5
51
102
{ACAD_REACTORS
330
47
102
}
330
47
100
AcDbScale
 70
     0
300
1:40
140
1.0
141
40.0
290
     0
  0
SCALE
  5
52
102
{ACAD_REACTORS
330
47
102
}
330
47
100
AcDbScale
 70
     0
300
1:50
140
1.0
141
50.0
290
     0
  0
SCALE
  5
53
102
{ACAD_REACTORS
330
47
102
}
330
47
100
AcDbScale
 70
     0
300
1:100
140
1.0
141
100.0
290
     0
  0
SCALE
  5
54
102
{ACAD_REACTORS
330
47
102
}
330
47
100
AcDbScale
 70
     0
300
2:1
140
2.0
141
1.0
290
     0
  0
SCALE
  5
55
102
{ACAD_REACTORS
330
47
102
}
330
47
100
AcDbScale
 70
     0
300
4:1
140
4.0
141
1.0
290
     0
  0
SCALE
  5
56
102
{ACAD_REACTORS
330
47
102
}
330
47
100
AcDbScale
 70
     0
300
8:1
140
8.0
141
1.0
290
     0
  0
SCALE
  5
57
102
{ACAD_REACTORS
330
47
102
}
330
47
100
AcDbScale
 70
     0
300
10:1
140
10.0
141
1.0
290
     0
  0
SCALE
  5
58
102
{ACAD_REACTORS
330
47
102
}
330
47
100
AcDbScale
 70
     0
300
100:1
140
100.0
141
1.0
290
     0
  0
SCALE
  5
59
102
{ACAD_REACTORS
330
47
102
}
330
47
100
AcDbScale
 70
     0
300
1/128" = 1'-0"
140
0.0078125
141
12.0
290
     0
  0
SCALE
  5
5A
102
{ACAD_REACTORS
330
47
102
}
330
47
100
AcDbScale
 70
     0
300
1/64" = 1'-0"
140
0.015625
141
12.0
290
     0
  0
SCALE
  5
5B
102
{ACAD_REACTORS
330
47
102
}
330
47
100
AcDbScale
 70
     0
300
1/32" = 1'-0"
140
0.03125
141
12.0
290
     0
  0
SCALE
  5
5C
102
{ACAD_REACTORS
330
47
102
}
330
47
100
AcDbScale
 70
     0
300
1/16" = 1'-0"
140
0.0625
141
12.0
290
     0
  0
SCALE
  5
5D
102
{ACAD_REACTORS
330
47
102
}
330
47
100
AcDbScale
 70
     0
300
3/32" = 1'-0"
140
0.09375
141
12.0
290
     0
  0
SCALE
  5
5E
102
{ACAD_REACTORS
330
47
102
}
330
47
100
AcDbScale
 70
     0
300
1/8" = 1'-0"
140
0.125
141
12.0
290
     0
  0
SCALE
  5
5F
102
{ACAD_REACTORS
330
47
102
}
330
47
100
AcDbScale
 70
     0
300
3/16" = 1'-0"
140
0.1875
141
12.0
290
     0
  0
SCALE
  5
60
102
{ACAD_REACTORS
330
47
102
}
330
47
100
AcDbScale
 70
     0
300
1/4" = 1'-0"
140
0.25
141
12.0
290
     0
  0
SCALE
  5
61
102
{ACAD_REACTORS
330
47
102
}
330
47
100
AcDbScale
 70
     0
300
3/8" = 1'-0"
140
0.375
141
12.0
290
     0
  0
SCALE
  5
62
102
{ACAD_REACTORS
330
47
102
}
330
47
100
AcDbScale
 70
     0
300
1/2" = 1'-0"
140
0.5
141
12.0
290
     0
  0
SCALE
  5
63
102
{ACAD_REACTORS
330
47
102
}
330
47
100
AcDbScale
 70
     0
300
3/4" = 1'-0"
140
0.75
141
12.0
290
     0
  0
SCALE
  5
64
102
{ACAD_REACTORS
330
47
102
}
330
47
100
AcDbScale
 70
     0
300
1" = 1'-0"
140
1.0
141
12.0
290
     0
  0
SCALE
  5
65
102
{ACAD_REACTORS
330
47
102
}
330
47
100
AcDbScale
 70
     0
300
1-1/2" = 1'-0"
140
1.5
141
12.0
290
     0
  0
SCALE
  5
66
102
{ACAD_REACTORS
330
47
102
}
330
47
100
AcDbScale
 70
     0
300
3" = 1'-0"
140
3.0
141
12.0
290
     0
  0
SCALE
  5
67
102
{ACAD_REACTORS
330
47
102
}
330
47
100
AcDbScale
 70
     0
300
6" = 1'-0"
140
6.0
141
12.0
290
     0
  0
SCALE
  5
68
102
{ACAD_REACTORS
330
47
102
}
330
47
100
AcDbScale
 70
     0
300
1'-0" = 1'-0"
140
12.0
141
12.0
290
     0
  0
ENDSEC
  0
EOF
