  0
SECTION
  2
HEADER
  9
$ACADVER
  1
AC1015
  9
$ACADMAINTVER
 70
     6
  9
$DWGCODEPAGE
  3
ANSI_1252
  9
$INSBASE
 10
0.0
 20
0.0
 30
0.0
  9
$EXTMIN
 10
0.0
 20
0.0
 30
0.0
  9
$EXTMAX
 10
2100.0
 20
1485.0
 30
0.0
  9
$LIMMIN
 10
0.0
 20
0.0
  9
$LIMMAX
 10
2100.0
 20
1485.0
  9
$ORTHOMODE
 70
     0
  9
$REGENMODE
 70
     1
  9
$FILLMODE
 70
     1
  9
$QTEXTMODE
 70
     0
  9
$MIRRTEXT
 70
     1
  9
$LTSCALE
 40
5.0
  9
$ATTMODE
 70
     1
  9
$TEXTSIZE
 40
12.5
  9
$TRACEWID
 40
1.0
  9
$TEXTSTYLE
  7
Standard
  9
$CLAYER
  8
0
  9
$CELTYPE
  6
ByLayer
  9
$CECOLOR
 62
   256
  9
$CELTSCALE
 40
1.0
  9
$DISPSILH
 70
     0
  9
$DIMSCALE
 40
1.0
  9
$DIMASZ
 40
12.5
  9
$DIMEXO
 40
0.0
  9
$DIMDLI
 40
3.75
  9
$DIMRND
 40
0.0
  9
$DIMDLE
 40
0.0
  9
$DIMEXE
 40
5.0
  9
$DIMTP
 40
0.0
  9
$DIMTM
 40
0.0
  9
$DIMTXT
 40
12.5
  9
$DIMCEN
 40
2.5
  9
$DIMTSZ
 40
0.0
  9
$DIMTOL
 70
     0
  9
$DIMLIM
 70
     0
  9
$DIMTIH
 70
     1
  9
$DIMTOH
 70
     1
  9
$DIMSE1
 70
     0
  9
$DIMSE2
 70
     0
  9
$DIMTAD
 70
     1
  9
$DIMZIN
 70
     0
  9
$DIMBLK
  1

  9
$DIMASO
 70
     1
  9
$DIMSHO
 70
     1
  9
$DIMPOST
  1

  9
$DIMAPOST
  1

  9
$DIMALT
 70
     0
  9
$DIMALTD
 70
     3
  9
$DIMALTF
 40
0.0393700787
  9
$DIMLFAC
 40
1.0
  9
$DIMTOFL
 70
     1
  9
$DIMTVP
 40
0.0
  9
$DIMTIX
 70
     0
  9
$DIMSOXD
 70
     0
  9
$DIMSAH
 70
     0
  9
$DIMBLK1
  1

  9
$DIMBLK2
  1

  9
$DIMSTYLE
  2
ISO-25
  9
$DIMCLRD
 70
     0
  9
$DIMCLRE
 70
     0
  9
$DIMCLRT
 70
     0
  9
$DIMTFAC
 40
1.0
  9
$DIMGAP
 40
7.62
  9
$DIMJUST
 70
     0
  9
$DIMSD1
 70
     0
  9
$DIMSD2
 70
     0
  9
$DIMTOLJ
 70
     0
  9
$DIMTZIN
 70
     0
  9
$DIMALTZ
 70
     0
  9
$DIMALTTZ
 70
     0
  9
$DIMUPT
 70
     0
  9
$DIMDEC
 70
     2
  9
$DIMTDEC
 70
     2
  9
$DIMALTU
 70
     2
  9
$DIMALTTD
 70
     3
  9
$DIMTXSTY
  7
Standard
  9
$DIMAUNIT
 70
     0
  9
$DIMADEC
 70
     2
  9
$DIMALTRND
 40
0.0
  9
$DIMAZIN
 70
     0
  9
$DIMDSEP
 70
    44
  9
$DIMATFIT
 70
     3
  9
$DIMFRAC
 70
     0
  9
$DIMLDRBLK
  1

  9
$DIMLUNIT
 70
     2
  9
$DIMLWD
 70
    -2
  9
$DIMLWE
 70
    -2
  9
$DIMTMOVE
 70
     0
  9
$LUNITS
 70
     2
  9
$LUPREC
 70
     1
  9
$SKETCHINC
 40
1.0
  9
$FILLETRAD
 40
10.0
  9
$AUNITS
 70
     0
  9
$AUPREC
 70
     2
  9
$MENU
  1
.
  9
$ELEVATION
 40
0.0
  9
$PELEVATION
 40
0.0
  9
$THICKNESS
 40
0.0
  9
$LIMCHECK
 70
     0
  9
$CHAMFERA
 40
0.0
  9
$CHAMFERB
 40
0.0
  9
$CHAMFERC
 40
0.0
  9
$CHAMFERD
 40
0.0
  9
$SKPOLY
 70
     0
  9
$TDCREATE
 40
2458906.500661296
  9
$TDUCREATE
 40
2458906.27149463
  9
$TDUPDATE
 40
2458906.500673079
  9
$TDUUPDATE
 40
2458906.271506412
  9
$TDINDWG
 40
0.0000000116
  9
$TDUSRTIMER
 40
0.0000000116
  9
$USRTIMER
 70
     1
  9
$ANGBASE
 50
0.0
  9
$ANGDIR
 70
     0
  9
$PDMODE
 70
     0
  9
$PDSIZE
 40
-1.0
  9
$PLINEWID
 40
0.0
  9
$SPLFRAME
 70
     0
  9
$SPLINETYPE
 70
     6
  9
$SPLINESEGS
 70
     8
  9
$HANDSEED
  5
379
  9
$SURFTAB1
 70
     6
  9
$SURFTAB2
 70
     6
  9
$SURFTYPE
 70
     6
  9
$SURFU
 70
     6
  9
$SURFV
 70
     6
  9
$UCSBASE
  2

  9
$UCSNAME
  2

  9
$UCSORG
 10
0.0
 20
0.0
 30
0.0
  9
$UCSXDIR
 10
1.0
 20
0.0
 30
0.0
  9
$UCSYDIR
 10
0.0
 20
1.0
 30
0.0
  9
$UCSORTHOREF
  2

  9
$UCSORTHOVIEW
 70
     0
  9
$UCSORGTOP
 10
0.0
 20
0.0
 30
0.0
  9
$UCSORGBOTTOM
 10
0.0
 20
0.0
 30
0.0
  9
$UCSORGLEFT
 10
0.0
 20
0.0
 30
0.0
  9
$UCSORGRIGHT
 10
0.0
 20
0.0
 30
0.0
  9
$UCSORGFRONT
 10
0.0
 20
0.0
 30
0.0
  9
$UCSORGBACK
 10
0.0
 20
0.0
 30
0.0
  9
$PUCSBASE
  2

  9
$PUCSNAME
  2

  9
$PUCSORG
 10
0.0
 20
0.0
 30
0.0
  9
$PUCSXDIR
 10
1.0
 20
0.0
 30
0.0
  9
$PUCSYDIR
 10
0.0
 20
1.0
 30
0.0
  9
$PUCSORTHOREF
  2

  9
$PUCSORTHOVIEW
 70
     0
  9
$PUCSORGTOP
 10
0.0
 20
0.0
 30
0.0
  9
$PUCSORGBOTTOM
 10
0.0
 20
0.0
 30
0.0
  9
$PUCSORGLEFT
 10
0.0
 20
0.0
 30
0.0
  9
$PUCSORGRIGHT
 10
0.0
 20
0.0
 30
0.0
  9
$PUCSORGFRONT
 10
0.0
 20
0.0
 30
0.0
  9
$PUCSORGBACK
 10
0.0
 20
0.0
 30
0.0
  9
$USERI1
 70
     0
  9
$USERI2
 70
     0
  9
$USERI3
 70
     0
  9
$USERI4
 70
     0
  9
$USERI5
 70
     0
  9
$USERR1
 40
0.0
  9
$USERR2
 40
0.0
  9
$USERR3
 40
0.0
  9
$USERR4
 40
0.0
  9
$USERR5
 40
0.0
  9
$WORLDVIEW
 70
     1
  9
$SHADEDGE
 70
     3
  9
$SHADEDIF
 70
    70
  9
$TILEMODE
 70
     1
  9
$MAXACTVP
 70
    64
  9
$PINSBASE
 10
0.0
 20
0.0
 30
0.0
  9
$PLIMCHECK
 70
     0
  9
$PEXTMIN
 10
1.0000000000E+20
 20
1.0000000000E+20
 30
1.0000000000E+20
  9
$PEXTMAX
 10
-1.0000000000E+20
 20
-1.0000000000E+20
 30
-1.0000000000E+20
  9
$PLIMMIN
 10
0.0
 20
0.0
  9
$PLIMMAX
 10
420.0
 20
297.0
  9
$UNITMODE
 70
     0
  9
$VISRETAIN
 70
     1
  9
$PLINEGEN
 70
     0
  9
$PSLTSCALE
 70
     1
  9
$TREEDEPTH
 70
  3020
  9
$CMLSTYLE
  2
Standard
  9
$CMLJUST
 70
     0
  9
$CMLSCALE
 40
20.0
  9
$PROXYGRAPHICS
 70
     1
  9
$MEASUREMENT
 70
     1
  9
$CELWEIGHT
370
    -1
  9
$ENDCAPS
280
     0
  9
$JOINSTYLE
280
     0
  9
$LWDISPLAY
290
     1
  9
$INSUNITS
 70
     4
  9
$HYPERLINKBASE
  1

  9
$STYLESHEET
  1

  9
$XEDIT
290
     1
  9
$CEPSNTYPE
380
     0
  9
$PSTYLEMODE
290
     1
  9
$FINGERPRINTGUID
  2
{9e776b16-ff5a-48f5-85c2-3646ed424d79}
  9
$VERSIONGUID
  2
{FAEB1C32-E019-11D5-929B-00C0DF256EC4}
  9
$EXTNAMES
290
     1
  9
$PSVPSCALE
 40
0.0
  9
$OLESTARTUP
290
     0
  0
ENDSEC
  0
SECTION
  2
CLASSES
  0
CLASS
  1
ACDBDICTIONARYWDFLT
  2
AcDbDictionaryWithDefault
  3
ObjectDBX Classes
 90
        0
280
     0
281
     0
  0
CLASS
  1
VISUALSTYLE
  2
AcDbVisualStyle
  3
ObjectDBX Classes
 90
     4095
280
     0
281
     0
  0
CLASS
  1
MATERIAL
  2
AcDbMaterial
  3
ObjectDBX Classes
 90
     1153
280
     0
281
     0
  0
CLASS
  1
SCALE
  2
AcDbScale
  3
ObjectDBX Classes
 90
     1153
280
     0
281
     0
  0
CLASS
  1
TABLESTYLE
  2
AcDbTableStyle
  3
ObjectDBX Classes
 90
     4095
280
     0
281
     0
  0
CLASS
  1
MLEADERSTYLE
  2
AcDbMLeaderStyle
  3
ACDB_MLEADERSTYLE_CLASS
 90
     4095
280
     0
281
     0
  0
CLASS
  1
SUN
  2
AcDbSun
  3
SCENEOE
 90
     1153
280
     0
281
     0
  0
CLASS
  1
ACDBPLACEHOLDER
  2
AcDbPlaceHolder
  3
ObjectDBX Classes
 90
        0
280
     0
281
     0
  0
CLASS
  1
LAYOUT
  2
AcDbLayout
  3
ObjectDBX Classes
 90
        0
280
     0
281
     0
  0
ENDSEC
  0
SECTION
  2
TABLES
  0
TABLE
  2
VPORT
  5
8
330
0
100
AcDbSymbolTable
 70
     1
  0
VPORT
  5
29
330
8
100
AcDbSymbolTableRecord
100
AcDbViewportTableRecord
  2
*Active
 70
     0
 10
0.0
 20
0.0
 11
1.0
 21
1.0
 12
1050.0
 22
742.5
 13
0.0
 23
0.0
 14
10.0
 24
10.0
 15
10.0
 25
10.0
 16
0.0
 26
0.0
 36
1.0
 17
0.0
 27
0.0
 37
0.0
 40
1485.0
 41
1.4141414141
 42
50.0
 43
0.0
 44
0.0
 50
0.0
 51
0.0
 71
     0
 72
  2000
 73
     1
 74
     3
 75
     0
 76
     0
 77
     0
 78
     0
281
     0
 65
     1
110
0.0
120
0.0
130
0.0
111
1.0
121
0.0
131
0.0
112
0.0
122
1.0
132
0.0
 79
     0
146
0.0
  0
ENDTAB
  0
TABLE
  2
LTYPE
  5
5
330
0
100
AcDbSymbolTable
 70
     6
  0
LTYPE
  5
14
330
5
100
AcDbSymbolTableRecord
100
AcDbLinetypeTableRecord
  2
ByBlock
 70
     0
  3

 72
    65
 73
     0
 40
0.0
  0
LTYPE
  5
15
330
5
100
AcDbSymbolTableRecord
100
AcDbLinetypeTableRecord
  2
ByLayer
 70
     0
  3

 72
    65
 73
     0
 40
0.0
  0
LTYPE
  5
16
330
5
100
AcDbSymbolTableRecord
100
AcDbLinetypeTableRecord
  2
Continuous
 70
     0
  3
Solid line
 72
    65
 73
     0
 40
0.0
  0
LTYPE
  5
6E
330
5
100
AcDbSymbolTableRecord
100
AcDbLinetypeTableRecord
  2
HIDDEN
 70
     0
  3
Hidden __ __ __ __ __ __ __ __ __ __ __ __ __ __
 72
    65
 73
     2
 40
1.905
 49
1.27
 74
     0
 49
-0.635
 74
     0
  0
LTYPE
  5
6F
330
5
100
AcDbSymbolTableRecord
100
AcDbLinetypeTableRecord
  2
PHANTOM
 70
     0
  3
Phantom ______  __  __  ______  __  __  ______
 72
    65
 73
     6
 40
12.7
 49
6.35
 74
     0
 49
-1.27
 74
     0
 49
1.27
 74
     0
 49
-1.27
 74
     0
 49
1.27
 74
     0
 49
-1.27
 74
     0
  0
LTYPE
  5
70
330
5
100
AcDbSymbolTableRecord
100
AcDbLinetypeTableRecord
  2
CENTER
 70
     0
  3
Center ____ _ ____ _ ____ _ ____ _ ____ _ ____
 72
    65
 73
     4
 40
10.16
 49
6.35
 74
     0
 49
-1.27
 74
     0
 49
1.27
 74
     0
 49
-1.27
 74
     0
  0
LTYPE
  5
71
330
5
100
AcDbSymbolTableRecord
100
AcDbLinetypeTableRecord
  2
CENTERX2
 70
     0
  3
Center (2x) ________  __  ________  __  _____
 72
    65
 73
     4
 40
20.32
 49
12.7
 74
     0
 49
-2.54
 74
     0
 49
2.54
 74
     0
 49
-2.54
 74
     0
  0
LTYPE
  5
72
330
5
100
AcDbSymbolTableRecord
100
AcDbLinetypeTableRecord
  2
DOT2
 70
     0
  3
Dot (.5x) ........................................
 72
    65
 73
     2
 40
0.635
 49
0.0
 74
     0
 49
-0.635
 74
     0
  0
ENDTAB
  0
TABLE
  2
LAYER
  5
2
330
0
100
AcDbSymbolTable
 70
    10
  0
LAYER
  5
10
330
2
100
AcDbSymbolTableRecord
100
AcDbLayerTableRecord
  2
0
 70
     0
 62
     7
  6
Continuous
370
    -3
390
F
  0
LAYER
  5
73
330
2
100
AcDbSymbolTableRecord
100
AcDbLayerTableRecord
  2
DIMENSION
 70
     0
 62
     7
  6
Continuous
370
    -3
390
F
  0
LAYER
  5
74
330
2
100
AcDbSymbolTableRecord
100
AcDbLayerTableRecord
  2
NOTES
 70
     0
 62
     7
  6
Continuous
370
    -3
390
F
  0
LAYER
  5
75
330
2
100
AcDbSymbolTableRecord
100
AcDbLayerTableRecord
  2
TABLES
 70
     0
 62
     7
  6
Continuous
370
    -3
390
F
  0
LAYER
  5
76
330
2
100
AcDbSymbolTableRecord
100
AcDbLayerTableRecord
  2
INVISIBLE
 70
     0
 62
    -7
  6
Continuous
290
     0
370
    -3
390
F
  0
LAYER
  5
77
330
2
100
AcDbSymbolTableRecord
100
AcDbLayerTableRecord
  2
WEP
 70
     0
 62
  -150
  6
Continuous
290
     0
370
    -3
390
F
  0
LAYER
  5
78
330
2
100
AcDbSymbolTableRecord
100
AcDbLayerTableRecord
  2
EMP
 70
     0
 62
     1
  6
Continuous
370
    -3
390
F
  0
LAYER
  5
79
330
2
100
AcDbSymbolTableRecord
100
AcDbLayerTableRecord
  2
MARKETING_DRW
 70
     0
 62
    -7
  6
Continuous
290
     0
370
    -3
390
F
  0
LAYER
  5
7A
330
2
100
AcDbSymbolTableRecord
100
AcDbLayerTableRecord
  2
SINGLE_ARTICLE_DRW
 70
     0
 62
    -7
  6
Continuous
290
     0
370
    -3
390
F
  0
LAYER
  5
7B
330
2
100
AcDbSymbolTableRecord
100
AcDbLayerTableRecord
  2
TABLE_DRW
 70
     0
 62
     7
  6
Continuous
370
    -3
390
F
  0
ENDTAB
  0
TABLE
  2
STYLE
  5
3
330
0
100
AcDbSymbolTable
 70
     2
  0
STYLE
  5
11
330
3
100
AcDbSymbolTableRecord
100
AcDbTextStyleTableRecord
  2
Standard
 70
     0
 40
0.0
 41
1.0
 50
0.0
 71
     0
 42
12.5
  3
txt
  4

  0
STYLE
  5
B5
330
3
100
AcDbSymbolTableRecord
100
AcDbTextStyleTableRecord
  2
SLDTEXTSTYLE0
 70
     0
 40
0.0
 41
0.605
 50
0.0
 71
     0
 42
12.5
  3
TXT
  4

  0
ENDTAB
  0
TABLE
  2
VIEW
  5
6
330
0
100
AcDbSymbolTable
 70
     0
  0
ENDTAB
  0
TABLE
  2
UCS
  5
7
330
0
100
AcDbSymbolTable
 70
     0
  0
ENDTAB
  0
TABLE
  2
APPID
  5
9
330
0
100
AcDbSymbolTable
 70
     1
  0
APPID
  5
12
330
9
100
AcDbSymbolTableRecord
100
AcDbRegAppTableRecord
  2
ACAD
 70
     0
  0
ENDTAB
  0
TABLE
  2
DIMSTYLE
  5
A
330
0
100
AcDbSymbolTable
 70
     1
100
AcDbDimStyleTable
  0
DIMSTYLE
105
27
330
A
100
AcDbSymbolTableRecord
100
AcDbDimStyleTableRecord
  2
ISO-25
 70
     0
 41
2.5
 42
0.625
 43
3.75
 44
1.25
 73
     0
 74
     0
 77
     1
 78
     8
140
2.5
141
2.5
143
0.0393700787
147
0.625
171
     3
172
     1
178
     0
271
     2
272
     2
274
     3
278
    44
283
     0
284
     8
340
11
  0
ENDTAB
  0
TABLE
  2
BLOCK_RECORD
  5
1
330
0
100
AcDbSymbolTable
 70
     3
  0
BLOCK_RECORD
  5
1F
330
1
100
AcDbSymbolTableRecord
100
AcDbBlockTableRecord
  2
*Model_Space
340
22
  0
BLOCK_RECORD
  5
1B
330
1
100
AcDbSymbolTableRecord
100
AcDbBlockTableRecord
  2
*Paper_Space
340
1E
  0
BLOCK_RECORD
  5
23
330
1
100
AcDbSymbolTableRecord
100
AcDbBlockTableRecord
  2
*Paper_Space0
340
26
  0
BLOCK_RECORD
  5
C8
330
1
100
AcDbSymbolTableRecord
100
AcDbBlockTableRecord
  2
SW_NOTE_0
340
0
102
{BLKREFS
331
CE
102
}
  0
BLOCK_RECORD
  5
E7
330
1
100
AcDbSymbolTableRecord
100
AcDbBlockTableRecord
  2
SW_NOTE_0_1
340
0
102
{BLKREFS
331
ED
102
}
  0
ENDTAB
  0
ENDSEC
  0
SECTION
  2
BLOCKS
  0
BLOCK
  5
20
330
1F
100
AcDbEntity
  8
0
100
AcDbBlockBegin
  2
*Model_Space
 70
     0
 10
0.0
 20
0.0
 30
0.0
  3
*Model_Space
  1

  0
ENDBLK
  5
21
330
1F
100
AcDbEntity
  8
0
100
AcDbBlockEnd
  0
BLOCK
  5
1C
330
1B
100
AcDbEntity
 67
     1
  8
0
100
AcDbBlockBegin
  2
*Paper_Space
 70
     0
 10
0.0
 20
0.0
 30
0.0
  3
*Paper_Space
  1

  0
ENDBLK
  5
1D
330
1B
100
AcDbEntity
 67
     1
  8
0
100
AcDbBlockEnd
  0
BLOCK
  5
24
330
23
100
AcDbEntity
  8
0
100
AcDbBlockBegin
  2
*Paper_Space0
 70
     0
 10
0.0
 20
0.0
 30
0.0
  3
*Paper_Space0
  1

  0
ENDBLK
  5
25
330
23
100
AcDbEntity
  8
0
100
AcDbBlockEnd
  0
BLOCK
  5
C9
330
C8
100
AcDbEntity
  8
0
100
AcDbBlockBegin
  2
SW_NOTE_0
 70
     0
 10
0.0
 20
0.0
 30
0.0
  3
SW_NOTE_0
  1

  0
MTEXT
  5
CB
330
C8
100
AcDbEntity
  8
SINGLE_ARTICLE_DRW
 62
     0
100
AcDbMText
 10
0.0
 20
11.6016096579
 30
0.0
 40
9.0
 41
0.0
 71
     1
 72
     1
  1
The reproduction, distribution and utilization of this document as well as the communication of its contents to
  7
SLDTEXTSTYLE0
 73
     1
 44
1.0
  0
MTEXT
  5
CC
330
C8
100
AcDbEntity
  8
SINGLE_ARTICLE_DRW
 62
     0
100
AcDbMText
 10
0.0
 20
0.0016098055
 30
0.0
 40
9.0
 41
0.0
 71
     1
 72
     1
  1
others without express authorization is prohibited. Offenders will be held liable for the payment of damages.
  7
SLDTEXTSTYLE0
 73
     1
 44
1.0
  0
MTEXT
  5
CD
330
C8
100
AcDbEntity
  8
SINGLE_ARTICLE_DRW
 62
     0
100
AcDbMText
 10
0.0
 20
-11.598390047
 30
0.0
 40
9.0
 41
0.0
 71
     1
 72
     1
  1
All rights reserved in the event of the grant of a patent, utility model or design. Observe copyright by ISO 16016
  7
SLDTEXTSTYLE0
 73
     1
 44
1.0
  0
ENDBLK
  5
CA
330
C8
100
AcDbEntity
  8
0
100
AcDbBlockEnd
  0
BLOCK
  5
E8
330
E7
100
AcDbEntity
  8
0
100
AcDbBlockBegin
  2
SW_NOTE_0_1
 70
     0
 10
0.0
 20
0.0
 30
0.0
  3
SW_NOTE_0_1
  1

  0
MTEXT
  5
EA
330
E7
100
AcDbEntity
  8
MARKETING_DRW
 62
     0
100
AcDbMText
 10
0.0
 20
11.6016096579
 30
0.0
 40
9.0
 41
0.0
 71
     1
 72
     1
  1
The reproduction, distribution and utilization of this document as well as the communication of its contents to
  7
SLDTEXTSTYLE0
 73
     1
 44
1.0
  0
MTEXT
  5
EB
330
E7
100
AcDbEntity
  8
MARKETING_DRW
 62
     0
100
AcDbMText
 10
0.0
 20
-0.0233903849
 30
0.0
 40
9.0
 41
0.0
 71
     1
 72
     1
  1
others without express authorization is prohibited. Offenders will be held liable for the payment of damages.
  7
SLDTEXTSTYLE0
 73
     1
 44
1.0
  0
MTEXT
  5
EC
330
E7
100
AcDbEntity
  8
MARKETING_DRW
 62
     0
100
AcDbMText
 10
0.0
 20
-11.6483904277
 30
0.0
 40
9.0
 41
0.0
 71
     1
 72
     1
  1
All rights reserved in the event of the grant of a patent, utility model or design. Observe copyright by ISO 16016
  7
SLDTEXTSTYLE0
 73
     1
 44
1.0
  0
ENDBLK
  5
E9
330
E7
100
AcDbEntity
  8
0
100
AcDbBlockEnd
  0
ENDSEC
  0
SECTION
  2
ENTITIES
  0
LINE
  5
7C
330
1F
100
AcDbEntity
  8
SINGLE_ARTICLE_DRW
 62
     7
100
AcDbLine
 10
1955.0
 20
200.0
 30
0.0
 11
1980.0
 21
200.0
 31
0.0
  0
LINE
  5
7D
330
1F
100
AcDbEntity
  8
SINGLE_ARTICLE_DRW
  6
CENTERX2
 62
     7
100
AcDbLine
 10
1967.5
 20
212.5
 30
0.0
 11
1967.5
 21
187.5
 31
0.0
  0
LINE
  5
7E
330
1F
100
AcDbEntity
  8
SINGLE_ARTICLE_DRW
  6
CENTERX2
 62
     7
100
AcDbLine
 10
1915.0
 20
200.0
 30
0.0
 11
1950.0
 21
200.0
 31
0.0
  0
LINE
  5
7F
330
1F
100
AcDbEntity
  8
SINGLE_ARTICLE_DRW
 62
     7
100
AcDbLine
 10
1920.0
 20
194.95
 30
0.0
 11
1945.0
 21
190.0
 31
0.0
  0
LINE
  5
80
330
1F
100
AcDbEntity
  8
SINGLE_ARTICLE_DRW
 62
     7
100
AcDbLine
 10
1920.0
 20
205.05
 30
0.0
 11
1920.0
 21
194.95
 31
0.0
  0
LINE
  5
81
330
1F
100
AcDbEntity
  8
SINGLE_ARTICLE_DRW
 62
     7
100
AcDbLine
 10
1945.0
 20
210.0
 30
0.0
 11
1920.0
 21
205.05
 31
0.0
  0
LINE
  5
82
330
1F
100
AcDbEntity
  8
SINGLE_ARTICLE_DRW
 62
     7
100
AcDbLine
 10
1945.0
 20
190.0
 30
0.0
 11
1945.0
 21
210.0
 31
0.0
  0
LINE
  5
83
330
1F
100
AcDbEntity
  8
SINGLE_ARTICLE_DRW
 62
     7
100
AcDbLine
 10
2050.0
 20
50.0
 30
0.0
 11
2050.0
 21
340.0
 31
0.0
  0
LINE
  5
84
330
1F
100
AcDbEntity
  8
SINGLE_ARTICLE_DRW
 62
     7
100
AcDbLine
 10
1150.0
 20
340.0
 30
0.0
 11
1150.0
 21
50.0
 31
0.0
  0
LINE
  5
85
330
1F
100
AcDbEntity
  8
SINGLE_ARTICLE_DRW
 62
     7
100
AcDbLine
 10
1700.0
 20
95.0
 30
0.0
 11
1700.0
 21
50.0
 31
0.0
  0
LINE
  5
86
330
1F
100
AcDbEntity
  8
SINGLE_ARTICLE_DRW
 62
     7
100
AcDbLine
 10
1850.0
 20
50.0
 30
0.0
 11
1850.0
 21
95.0
 31
0.0
  0
LINE
  5
87
330
1F
100
AcDbEntity
  8
SINGLE_ARTICLE_DRW
 62
     7
100
AcDbLine
 10
2000.0
 20
95.0
 30
0.0
 11
2000.0
 21
50.0
 31
0.0
  0
LINE
  5
88
330
1F
100
AcDbEntity
  8
SINGLE_ARTICLE_DRW
 62
     7
100
AcDbLine
 10
1900.0
 20
320.0
 30
0.0
 11
1900.0
 21
185.0
 31
0.0
  0
LINE
  5
89
330
1F
100
AcDbEntity
  8
SINGLE_ARTICLE_DRW
 62
     7
100
AcDbLine
 10
2050.0
 20
320.0
 30
0.0
 11
1150.0
 21
320.0
 31
0.0
  0
LINE
  5
8A
330
1F
100
AcDbEntity
  8
SINGLE_ARTICLE_DRW
 62
     7
100
AcDbLine
 10
1800.0
 20
95.0
 30
0.0
 11
1800.0
 21
50.0
 31
0.0
  0
LINE
  5
8B
330
1F
100
AcDbEntity
  8
SINGLE_ARTICLE_DRW
 62
     7
100
AcDbLine
 10
2050.0
 20
275.0
 30
0.0
 11
1400.0
 21
275.0
 31
0.0
  0
LINE
  5
8C
330
1F
100
AcDbEntity
  8
SINGLE_ARTICLE_DRW
 62
     7
100
AcDbLine
 10
1650.0
 20
230.0
 30
0.0
 11
1650.0
 21
185.0
 31
0.0
  0
LINE
  5
8D
330
1F
100
AcDbEntity
  8
SINGLE_ARTICLE_DRW
 62
     7
100
AcDbLine
 10
2050.0
 20
230.0
 30
0.0
 11
1400.0
 21
230.0
 31
0.0
  0
LINE
  5
8E
330
1F
100
AcDbEntity
  8
SINGLE_ARTICLE_DRW
 62
     7
100
AcDbLine
 10
1400.0
 20
320.0
 30
0.0
 11
1400.0
 21
185.0
 31
0.0
  0
LINE
  5
8F
330
1F
100
AcDbEntity
  8
SINGLE_ARTICLE_DRW
 62
     7
100
AcDbLine
 10
2000.0
 20
230.0
 30
0.0
 11
2000.0
 21
185.0
 31
0.0
  0
LINE
  5
90
330
1F
100
AcDbEntity
  8
SINGLE_ARTICLE_DRW
 62
     7
100
AcDbLine
 10
2050.0
 20
95.0
 30
0.0
 11
1150.0
 21
95.0
 31
0.0
  0
LINE
  5
91
330
1F
100
AcDbEntity
  8
SINGLE_ARTICLE_DRW
 62
     7
100
AcDbLine
 10
1650.0
 20
275.0
 30
0.0
 11
1650.0
 21
320.0
 31
0.0
  0
LINE
  5
92
330
1F
100
AcDbEntity
  8
SINGLE_ARTICLE_DRW
 62
     7
100
AcDbLine
 10
1150.0
 20
340.0
 30
0.0
 11
2050.0
 21
340.0
 31
0.0
  0
LINE
  5
93
330
1F
100
AcDbEntity
  8
SINGLE_ARTICLE_DRW
 62
     7
100
AcDbLine
 10
1150.0
 20
185.0
 30
0.0
 11
2050.0
 21
185.0
 31
0.0
  0
LINE
  5
94
330
1F
100
AcDbEntity
  8
SINGLE_ARTICLE_DRW
 62
     7
100
AcDbLine
 10
1150.0
 20
50.0
 30
0.0
 11
2050.0
 21
50.0
 31
0.0
  0
LINE
  5
95
330
1F
100
AcDbEntity
  8
SINGLE_ARTICLE_DRW
 62
     7
100
AcDbLine
 10
1400.0
 20
275.0
 30
0.0
 11
1150.0
 21
275.0
 31
0.0
  0
LINE
  5
96
330
1F
100
AcDbEntity
  8
MARKETING_DRW
  6
CENTERX2
100
AcDbLine
 10
1955.0
 20
200.0
 30
0.0
 11
1980.0
 21
200.0
 31
0.0
  0
LINE
  5
97
330
1F
100
AcDbEntity
  8
MARKETING_DRW
  6
CENTERX2
100
AcDbLine
 10
1967.5
 20
212.5
 30
0.0
 11
1967.5
 21
187.5
 31
0.0
  0
LINE
  5
98
330
1F
100
AcDbEntity
  8
MARKETING_DRW
  6
CENTERX2
100
AcDbLine
 10
1915.0
 20
200.0
 30
0.0
 11
1950.0
 21
200.0
 31
0.0
  0
LINE
  5
99
330
1F
100
AcDbEntity
  8
MARKETING_DRW
100
AcDbLine
 10
1920.0
 20
194.95
 30
0.0
 11
1945.0
 21
190.0
 31
0.0
  0
LINE
  5
9A
330
1F
100
AcDbEntity
  8
MARKETING_DRW
100
AcDbLine
 10
1920.0
 20
205.05
 30
0.0
 11
1920.0
 21
194.95
 31
0.0
  0
LINE
  5
9B
330
1F
100
AcDbEntity
  8
MARKETING_DRW
100
AcDbLine
 10
1945.0
 20
210.0
 30
0.0
 11
1920.0
 21
205.05
 31
0.0
  0
LINE
  5
9C
330
1F
100
AcDbEntity
  8
MARKETING_DRW
100
AcDbLine
 10
1945.0
 20
190.0
 30
0.0
 11
1945.0
 21
210.0
 31
0.0
  0
LINE
  5
9D
330
1F
100
AcDbEntity
  8
MARKETING_DRW
100
AcDbLine
 10
2050.0
 20
50.0
 30
0.0
 11
2050.0
 21
230.0
 31
0.0
  0
LINE
  5
9E
330
1F
100
AcDbEntity
  8
MARKETING_DRW
100
AcDbLine
 10
1150.0
 20
50.0
 30
0.0
 11
2050.0
 21
50.0
 31
0.0
  0
LINE
  5
9F
330
1F
100
AcDbEntity
  8
MARKETING_DRW
100
AcDbLine
 10
1150.0
 20
275.0
 30
0.0
 11
1150.0
 21
50.0
 31
0.0
  0
LINE
  5
A0
330
1F
100
AcDbEntity
  8
MARKETING_DRW
100
AcDbLine
 10
1150.0
 20
275.0
 30
0.0
 11
1650.0
 21
275.0
 31
0.0
  0
LINE
  5
A1
330
1F
100
AcDbEntity
  8
MARKETING_DRW
 62
     7
100
AcDbLine
 10
1850.0
 20
50.0
 30
0.0
 11
1850.0
 21
95.0
 31
0.0
  0
LINE
  5
A2
330
1F
100
AcDbEntity
  8
MARKETING_DRW
100
AcDbLine
 10
2000.0
 20
95.0
 30
0.0
 11
2000.0
 21
50.0
 31
0.0
  0
LINE
  5
A3
330
1F
100
AcDbEntity
  8
MARKETING_DRW
100
AcDbLine
 10
1650.0
 20
275.0
 30
0.0
 11
1650.0
 21
230.0
 31
0.0
  0
LINE
  5
A4
330
1F
100
AcDbEntity
  8
MARKETING_DRW
100
AcDbLine
 10
2050.0
 20
230.0
 30
0.0
 11
1400.0
 21
230.0
 31
0.0
  0
LINE
  5
A5
330
1F
100
AcDbEntity
  8
MARKETING_DRW
100
AcDbLine
 10
1400.0
 20
275.0
 30
0.0
 11
1400.0
 21
185.0
 31
0.0
  0
LINE
  5
A6
330
1F
100
AcDbEntity
  8
MARKETING_DRW
100
AcDbLine
 10
2000.0
 20
230.0
 30
0.0
 11
2000.0
 21
185.0
 31
0.0
  0
LINE
  5
A7
330
1F
100
AcDbEntity
  8
MARKETING_DRW
100
AcDbLine
 10
2050.0
 20
95.0
 30
0.0
 11
1150.0
 21
95.0
 31
0.0
  0
LINE
  5
A8
330
1F
100
AcDbEntity
  8
MARKETING_DRW
100
AcDbLine
 10
1150.0
 20
185.0
 30
0.0
 11
2050.0
 21
185.0
 31
0.0
  0
LINE
  5
A9
330
1F
100
AcDbEntity
  8
MARKETING_DRW
100
AcDbLine
 10
1150.0
 20
50.0
 30
0.0
 11
2050.0
 21
50.0
 31
0.0
  0
LINE
  5
AA
330
1F
100
AcDbEntity
  8
MARKETING_DRW
100
AcDbLine
 10
1900.0
 20
230.0
 30
0.0
 11
1900.0
 21
185.0
 31
0.0
  0
LINE
  5
AB
330
1F
100
AcDbEntity
  8
MARKETING_DRW
100
AcDbLine
 10
1650.0
 20
275.0
 30
0.0
 11
1900.0
 21
275.0
 31
0.0
  0
LINE
  5
AC
330
1F
100
AcDbEntity
  8
MARKETING_DRW
100
AcDbLine
 10
1900.0
 20
275.0
 30
0.0
 11
1900.0
 21
230.0
 31
0.0
  0
LINE
  5
AD
330
1F
100
AcDbEntity
  8
MARKETING_DRW
100
AcDbLine
 10
1900.0
 20
275.0
 30
0.0
 11
2050.0
 21
275.0
 31
0.0
  0
LINE
  5
AE
330
1F
100
AcDbEntity
  8
MARKETING_DRW
100
AcDbLine
 10
2050.0
 20
275.0
 30
0.0
 11
2050.0
 21
230.0
 31
0.0
  0
LINE
  5
AF
330
1F
100
AcDbEntity
  8
MARKETING_DRW
100
AcDbLine
 10
1825.0
 20
275.0
 30
0.0
 11
1825.0
 21
230.0
 31
0.0
  0
LINE
  5
B0
330
1F
100
AcDbEntity
  8
MARKETING_DRW
100
AcDbLine
 10
1650.0
 20
230.0
 30
0.0
 11
1650.0
 21
185.0
 31
0.0
  0
CIRCLE
  5
B1
330
1F
100
AcDbEntity
  8
SINGLE_ARTICLE_DRW
 62
     7
100
AcDbCircle
 10
1967.5
 20
200.0
 30
0.0
 40
5.000000000000224
  0
CIRCLE
  5
B2
330
1F
100
AcDbEntity
  8
SINGLE_ARTICLE_DRW
 62
     7
100
AcDbCircle
 10
1967.5
 20
200.0
 30
0.0
 40
10.00000000000024
  0
CIRCLE
  5
B3
330
1F
100
AcDbEntity
  8
MARKETING_DRW
100
AcDbCircle
 10
1967.5
 20
200.0
 30
0.0
 40
5.000000000000224
  0
CIRCLE
  5
B4
330
1F
100
AcDbEntity
  8
MARKETING_DRW
100
AcDbCircle
 10
1967.5
 20
200.0
 30
0.0
 40
10.00000000000024
  0
MTEXT
  5
B6
330
1F
100
AcDbEntity
  8
SINGLE_ARTICLE_DRW
100
AcDbMText
 10
1155.0
 20
179.9766099061
 30
0.0
 40
9.0
 41
0.0
 71
     1
 72
     1
  1
title:
  7
SLDTEXTSTYLE0
 73
     1
 44
1.0
  0
MTEXT
  5
B7
330
1F
100
AcDbEntity
  8
SINGLE_ARTICLE_DRW
100
AcDbMText
 10
1155.0
 20
314.9766099061
 30
0.0
 40
9.0
 41
0.0
 71
     1
 72
     1
  1
technical reference:
  7
SLDTEXTSTYLE0
 73
     1
 44
1.0
  0
MTEXT
  5
B8
330
1F
100
AcDbEntity
  8
SINGLE_ARTICLE_DRW
100
AcDbMText
 10
2024.7829862405
 20
69.9675136777
 30
0.0
 40
12.5
 41
0.0
 71
     2
 72
     1
  1
1/1
  7
SLDTEXTSTYLE0
 73
     1
 44
1.0
  0
MTEXT
  5
B9
330
1F
100
AcDbEntity
  8
SINGLE_ARTICLE_DRW
100
AcDbMText
 10
2024.7829862405
 20
204.9675136777
 30
0.0
 40
12.5
 41
0.0
 71
     2
 72
     1
  1
1:5
  7
SLDTEXTSTYLE0
 73
     1
 44
1.0
  0
MTEXT
  5
BA
330
1F
100
AcDbEntity
  8
SINGLE_ARTICLE_DRW
100
AcDbMText
 10
1405.0
 20
314.9766099061
 30
0.0
 40
9.0
 41
0.0
 71
     1
 72
     1
  1
general tolerance:
  7
SLDTEXTSTYLE0
 73
     1
 44
1.0
  0
MTEXT
  5
BB
330
1F
100
AcDbEntity
  8
SINGLE_ARTICLE_DRW
100
AcDbMText
 10
1905.0
 20
249.9675136777
 30
0.0
 40
12.5
 41
0.0
 71
     1
 72
     1
  1
production drw.
  7
SLDTEXTSTYLE0
 73
     1
 44
1.0
  0
MTEXT
  5
BC
330
1F
100
AcDbEntity
  8
SINGLE_ARTICLE_DRW
100
AcDbMText
 10
1405.0
 20
269.9766099061
 30
0.0
 40
9.0
 41
0.0
 71
     1
 72
     1
  1
material:
  7
SLDTEXTSTYLE0
 73
     1
 44
1.0
  0
MTEXT
  5
BD
330
1F
100
AcDbEntity
  8
SINGLE_ARTICLE_DRW
100
AcDbMText
 10
1905.0
 20
224.9766099061
 30
0.0
 40
9.0
 41
0.0
 71
     1
 72
     1
  1
projection:ISO-E
  7
SLDTEXTSTYLE0
 73
     1
 44
1.0
  0
MTEXT
  5
BE
330
1F
100
AcDbEntity
  8
SINGLE_ARTICLE_DRW
100
AcDbMText
 10
2024.7500000913
 20
89.9766099061
 30
0.0
 40
9.0
 41
0.0
 71
     2
 72
     1
  1
sheet:
  7
SLDTEXTSTYLE0
 73
     1
 44
1.0
  0
MTEXT
  5
BF
330
1F
100
AcDbEntity
  8
SINGLE_ARTICLE_DRW
100
AcDbMText
 10
1855.0
 20
89.9766099061
 30
0.0
 40
9.0
 41
0.0
 71
     1
 72
     1
  1
release date:
  7
SLDTEXTSTYLE0
 73
     1
 44
1.0
  0
MTEXT
  5
C0
330
1F
100
AcDbEntity
  8
SINGLE_ARTICLE_DRW
100
AcDbMText
 10
1655.0
 20
224.9766099061
 30
0.0
 40
9.0
 41
0.0
 71
     1
 72
     1
  1
reviewed by:
  7
SLDTEXTSTYLE0
 73
     1
 44
1.0
  0
MTEXT
  5
C1
330
1F
100
AcDbEntity
  8
SINGLE_ARTICLE_DRW
100
AcDbMText
 10
1824.8125000894
 20
89.9766099061
 30
0.0
 40
9.0
 41
0.0
 71
     2
 72
     1
  1
index:
  7
SLDTEXTSTYLE0
 73
     1
 44
1.0
  0
MTEXT
  5
C2
330
1F
100
AcDbEntity
  8
SINGLE_ARTICLE_DRW
100
AcDbMText
 10
1905.0
 20
269.9766099061
 30
0.0
 40
9.0
 41
0.0
 71
     1
 72
     1
  1
documenttype:
  7
SLDTEXTSTYLE0
 73
     1
 44
1.0
  0
MTEXT
  5
C3
330
1F
100
AcDbEntity
  8
SINGLE_ARTICLE_DRW
100
AcDbMText
 10
1749.034373872
 20
89.9766099061
 30
0.0
 40
9.0
 41
0.0
 71
     2
 72
     1
  1
drawing-no.:
  7
SLDTEXTSTYLE0
 73
     1
 44
1.0
  0
MTEXT
  5
C4
330
1F
100
AcDbEntity
  8
SINGLE_ARTICLE_DRW
100
AcDbMText
 10
1905.0
 20
314.9766099061
 30
0.0
 40
9.0
 41
0.0
 71
     1
 72
     1
  1
weight:
  7
SLDTEXTSTYLE0
 73
     1
 44
1.0
  0
MTEXT
  5
C5
330
1F
100
AcDbEntity
  8
SINGLE_ARTICLE_DRW
100
AcDbMText
 10
2024.8750000875
 20
224.9766099061
 30
0.0
 40
9.0
 41
0.0
 71
     2
 72
     1
  1
scale:
  7
SLDTEXTSTYLE0
 73
     1
 44
1.0
  0
MTEXT
  5
C6
330
1F
100
AcDbEntity
  8
SINGLE_ARTICLE_DRW
100
AcDbMText
 10
1655.0
 20
314.9766099061
 30
0.0
 40
9.0
 41
0.0
 71
     1
 72
     1
  1
surface:
  7
SLDTEXTSTYLE0
 73
     1
 44
1.0
  0
MTEXT
  5
C7
330
1F
100
AcDbEntity
  8
SINGLE_ARTICLE_DRW
100
AcDbMText
 10
1405.0
 20
224.9766099061
 30
0.0
 40
9.0
 41
0.0
 71
     1
 72
     1
  1
created by:
  7
SLDTEXTSTYLE0
 73
     1
 44
1.0
  0
INSERT
  5
CE
330
1F
100
AcDbEntity
  8
SINGLE_ARTICLE_DRW
100
AcDbBlockReference
  2
SW_NOTE_0
 10
1155.0
 20
78.4000001475
 30
0.0
  0
MTEXT
  5
CF
330
1F
100
AcDbEntity
  8
SINGLE_ARTICLE_DRW
100
AcDbMText
 10
1155.0
 20
114.9675136777
 30
0.0
 40
12.5
 41
0.0
 71
     1
 72
     1
  1
ZB Duschrinne C mit Spalt und Flansch, mit DN40 Seitenauslaß, mit FAT GV25, International
  7
SLDTEXTSTYLE0
 73
     1
 44
1.0
  0
MTEXT
  5
D0
330
1F
100
AcDbEntity
  8
SINGLE_ARTICLE_DRW
100
AcDbMText
 10
1155.0
 20
137.4675136777
 30
0.0
 40
12.5
 41
0.0
 71
     1
 72
     1
  1
ASM Shower Channel C with gap and flange, with DN40 Side outlet, with FAT GV25 L980, International
  7
SLDTEXTSTYLE0
 73
     1
 44
1.0
  0
MTEXT
  5
D1
330
1F
100
AcDbEntity
  8
SINGLE_ARTICLE_DRW
100
AcDbMText
 10
1155.0
 20
295.0022357116
 30
0.0
 40
12.5
 41
0.0
 71
     1
 72
     1
  1
Bohms, Michael
  7
SLDTEXTSTYLE0
 73
     1
 44
1.0
  0
MTEXT
  5
D2
330
1F
100
AcDbEntity
  8
SINGLE_ARTICLE_DRW
100
AcDbMText
 10
1749.0407964215
 20
69.9675136777
 30
0.0
 40
12.5
 41
0.0
 71
     2
 72
     1
  1
1088219-O
  7
SLDTEXTSTYLE0
 73
     1
 44
1.0
  0
MTEXT
  5
D3
330
1F
100
AcDbEntity
  8
SINGLE_ARTICLE_DRW
100
AcDbMText
 10
1824.7395830229
 20
69.9675136777
 30
0.0
 40
12.5
 41
0.0
 71
     2
 72
     1
  1
001
  7
SLDTEXTSTYLE0
 73
     1
 44
1.0
  0
MTEXT
  5
D4
330
1F
100
AcDbEntity
  8
SINGLE_ARTICLE_DRW
100
AcDbMText
 10
1155.0
 20
159.9675136777
 30
0.0
 40
12.5
 41
0.0
 71
     1
 72
     1
  1
ACO ShowerDrain
  7
SLDTEXTSTYLE0
 73
     1
 44
1.0
  0
MTEXT
  5
D5
330
1F
100
AcDbEntity
  8
SINGLE_ARTICLE_DRW
100
AcDbMText
 10
1155.0
 20
334.9766099061
 30
0.0
 40
9.0
 41
0.0
 71
     1
 72
     1
  1
modification:
  7
SLDTEXTSTYLE0
 73
     1
 44
1.0
  0
MTEXT
  5
D6
330
1F
100
AcDbEntity
  8
SINGLE_ARTICLE_DRW
100
AcDbMText
 10
1905.0
 20
294.9675136777
 30
0.0
 40
12.5
 41
0.0
 71
     1
 72
     1
  1
1.962 kg
  7
SLDTEXTSTYLE0
 73
     1
 44
1.0
  0
MTEXT
  5
D7
330
1F
100
AcDbEntity
  8
MARKETING_DRW
100
AcDbMText
 10
1155.0
 20
114.9675136777
 30
0.0
 40
12.5
 41
0.0
 71
     1
 72
     1
  1
ZB Duschrinne C mit Spalt und Flansch, mit DN40 Seitenauslaß, mit FAT GV25, International
  7
SLDTEXTSTYLE0
 73
     1
 44
1.0
  0
MTEXT
  5
D8
330
1F
100
AcDbEntity
  8
MARKETING_DRW
100
AcDbMText
 10
1155.0
 20
137.4675136777
 30
0.0
 40
12.5
 41
0.0
 71
     1
 72
     1
  1
ASM Shower Channel C with gap and flange, with DN40 Side outlet, with FAT GV25 L980, International
  7
SLDTEXTSTYLE0
 73
     1
 44
1.0
  0
MTEXT
  5
D9
330
1F
100
AcDbEntity
  8
MARKETING_DRW
100
AcDbMText
 10
1736.5407964215
 20
249.9675136777
 30
0.0
 40
12.5
 41
0.0
 71
     2
 72
     1
  1
1088219-O
  7
SLDTEXTSTYLE0
 73
     1
 44
1.0
  0
MTEXT
  5
DA
330
1F
100
AcDbEntity
  8
MARKETING_DRW
100
AcDbMText
 10
1862.2395830229
 20
252.0971433073
 30
0.0
 40
12.5
 41
0.0
 71
     2
 72
     1
  1
001
  7
SLDTEXTSTYLE0
 73
     1
 44
1.0
  0
MTEXT
  5
DB
330
1F
100
AcDbEntity
  8
MARKETING_DRW
100
AcDbMText
 10
1155.0
 20
159.9675136777
 30
0.0
 40
12.5
 41
0.0
 71
     1
 72
     1
  1
ACO ShowerDrain
  7
SLDTEXTSTYLE0
 73
     1
 44
1.0
  0
MTEXT
  5
DC
330
1F
100
AcDbEntity
  8
MARKETING_DRW
100
AcDbMText
 10
1905.0
 20
269.9766099061
 30
0.0
 40
9.0
 41
0.0
 71
     1
 72
     1
  1
documenttype:
  7
SLDTEXTSTYLE0
 73
     1
 44
1.0
  0
MTEXT
  5
DD
330
1F
100
AcDbEntity
  8
MARKETING_DRW
100
AcDbMText
 10
1655.0
 20
224.9766099061
 30
0.0
 40
9.0
 41
0.0
 71
     1
 72
     1
  1
reviewed by:
  7
SLDTEXTSTYLE0
 73
     1
 44
1.0
  0
MTEXT
  5
DE
330
1F
100
AcDbEntity
  8
MARKETING_DRW
100
AcDbMText
 10
1736.534373872
 20
270.0578764559
 30
0.0
 40
9.0
 41
0.0
 71
     2
 72
     1
  1
drawing-no.:
  7
SLDTEXTSTYLE0
 73
     1
 44
1.0
  0
MTEXT
  5
DF
330
1F
100
AcDbEntity
  8
MARKETING_DRW
100
AcDbMText
 10
1905.0
 20
224.9766099061
 30
0.0
 40
9.0
 41
0.0
 71
     1
 72
     1
  1
projection:ISO-E
  7
SLDTEXTSTYLE0
 73
     1
 44
1.0
  0
MTEXT
  5
E0
330
1F
100
AcDbEntity
  8
MARKETING_DRW
100
AcDbMText
 10
2024.7500000913
 20
89.9766099061
 30
0.0
 40
9.0
 41
0.0
 71
     2
 72
     1
  1
sheet:
  7
SLDTEXTSTYLE0
 73
     1
 44
1.0
  0
MTEXT
  5
E1
330
1F
100
AcDbEntity
  8
MARKETING_DRW
100
AcDbMText
 10
2024.7829862405
 20
69.9675136777
 30
0.0
 40
12.5
 41
0.0
 71
     2
 72
     1
  1
1/1
  7
SLDTEXTSTYLE0
 73
     1
 44
1.0
  0
MTEXT
  5
E2
330
1F
100
AcDbEntity
  8
MARKETING_DRW
100
AcDbMText
 10
1855.0
 20
89.9766099061
 30
0.0
 40
9.0
 41
0.0
 71
     1
 72
     1
  1
release date:
  7
SLDTEXTSTYLE0
 73
     1
 44
1.0
  0
MTEXT
  5
E3
330
1F
100
AcDbEntity
  8
MARKETING_DRW
100
AcDbMText
 10
1862.3125000894
 20
269.9766099061
 30
0.0
 40
9.0
 41
0.0
 71
     2
 72
     1
  1
index:
  7
SLDTEXTSTYLE0
 73
     1
 44
1.0
  0
MTEXT
  5
E4
330
1F
100
AcDbEntity
  8
MARKETING_DRW
100
AcDbMText
 10
1155.0
 20
179.9766099061
 30
0.0
 40
9.0
 41
0.0
 71
     1
 72
     1
  1
title:
  7
SLDTEXTSTYLE0
 73
     1
 44
1.0
  0
MTEXT
  5
E5
330
1F
100
AcDbEntity
  8
MARKETING_DRW
100
AcDbMText
 10
2024.8750000875
 20
224.9766099061
 30
0.0
 40
9.0
 41
0.0
 71
     2
 72
     1
  1
scale:
  7
SLDTEXTSTYLE0
 73
     1
 44
1.0
  0
MTEXT
  5
E6
330
1F
100
AcDbEntity
  8
MARKETING_DRW
100
AcDbMText
 10
2024.7829862405
 20
204.9675136777
 30
0.0
 40
12.5
 41
0.0
 71
     2
 72
     1
  1
1:5
  7
SLDTEXTSTYLE0
 73
     1
 44
1.0
  0
INSERT
  5
ED
330
1F
100
AcDbEntity
  8
MARKETING_DRW
100
AcDbBlockReference
  2
SW_NOTE_0_1
 10
1155.0
 20
78.3750002482
 30
0.0
  0
MTEXT
  5
EE
330
1F
100
AcDbEntity
  8
MARKETING_DRW
100
AcDbMText
 10
1905.0
 20
249.9675136777
 30
0.0
 40
12.5
 41
0.0
 71
     1
 72
     1
  1
marketing drw.
  7
SLDTEXTSTYLE0
 73
     1
 44
1.0
  0
MTEXT
  5
EF
330
1F
100
AcDbEntity
  8
MARKETING_DRW
100
AcDbMText
 10
1405.0
 20
224.9766099061
 30
0.0
 40
9.0
 41
0.0
 71
     1
 72
     1
  1
created by:
  7
SLDTEXTSTYLE0
 73
     1
 44
1.0
  0
LINE
  5
F0
330
1F
100
AcDbEntity
  8
0
  6
Continuous
 62
     7
370
    35
100
AcDbLine
 10
1313.7866999615
 20
981.0814618932
 30
0.0
 11
333.7866999615
 21
981.0814618932
 31
0.0
  0
LINE
  5
F1
330
1F
100
AcDbEntity
  8
0
  6
Continuous
 62
     7
370
    35
100
AcDbLine
 10
742.7866999615
 20
961.0962868816
 30
0.0
 11
742.7866999615
 21
958.085023394
 31
0.0
  0
LINE
  5
F2
330
1F
100
AcDbEntity
  8
0
  6
Continuous
 62
     7
370
    35
100
AcDbLine
 10
904.7866999615
 20
958.085023394
 30
0.0
 11
904.7866999615
 21
961.0962868816
 31
0.0
  0
ARC
  5
F3
330
1F
100
AcDbEntity
  8
0
  6
Continuous
 62
     7
370
    35
100
AcDbCircle
 10
740.7866999615
 20
961.0882452343
 30
0.0
 40
1.999999999999866
100
AcDbArc
 50
0.2172817996
 51
85.9305858724
  0
ARC
  5
F4
330
1F
100
AcDbEntity
  8
0
  6
Continuous
 62
     7
370
    35
100
AcDbCircle
 10
906.7866999615
 20
961.0882452343
 30
0.0
 40
1.999999999999998
100
AcDbArc
 50
94.065898605
 51
179.7696267909
  0
LINE
  5
F5
330
1F
100
AcDbEntity
  8
0
  6
Continuous
 62
     7
370
    35
100
AcDbLine
 10
333.7866999615
 20
963.0830728135
 30
0.0
 11
740.9275619051
 21
963.0830728135
 31
0.0
  0
LINE
  5
F6
330
1F
100
AcDbEntity
  8
0
  6
Continuous
 62
     7
370
    35
100
AcDbLine
 10
906.645838018
 20
963.0830728135
 30
0.0
 11
1313.7866999615
 21
963.0830728135
 31
0.0
  0
LINE
  5
F7
330
1F
100
AcDbEntity
  8
0
  6
Continuous
 62
     7
370
    35
100
AcDbLine
 10
895.4782792588
 20
911.6350233936
 30
0.0
 11
912.2866999615
 21
911.6350233936
 31
0.0
  0
LINE
  5
F8
330
1F
100
AcDbEntity
  8
0
  6
Continuous
 62
     7
370
    35
100
AcDbLine
 10
912.2866999615
 20
951.6350233936
 30
0.0
 11
908.7075208861
 21
951.6350233936
 31
0.0
  0
LINE
  5
F9
330
1F
100
AcDbEntity
  8
0
  6
Continuous
 62
     7
370
    35
100
AcDbLine
 10
912.2866999615
 20
911.6350233936
 30
0.0
 11
951.9806484193
 21
911.6350233936
 31
0.0
  0
LINE
  5
FA
330
1F
100
AcDbEntity
  8
0
  6
Continuous
 62
     7
370
    35
100
AcDbLine
 10
951.9806484193
 20
951.6350233936
 30
0.0
 11
912.2866999615
 21
951.6350233936
 31
0.0
  0
ARC
  5
FB
330
1F
100
AcDbEntity
  8
0
  6
Continuous
 62
     7
370
    35
100
AcDbCircle
 10
951.9806484193
 20
948.6350233936
 30
0.0
 40
3.000000000000119
100
AcDbArc
 50
78.3499964744
 51
90.0
  0
ARC
  5
FC
330
1F
100
AcDbEntity
  8
0
  6
Continuous
 62
     7
370
    35
100
AcDbCircle
 10
951.9806484193
 20
914.6350233936
 30
0.0
 40
3.000000000000119
100
AcDbArc
 50
270.0
 51
281.6500035256
  0
LINE
  5
FD
330
1F
100
AcDbEntity
  8
0
  6
Continuous
 62
     7
370
    35
100
AcDbLine
 10
952.5864466555
 20
911.6968252218
 30
0.0
 11
957.2866999615
 21
912.6659243077
 31
0.0
  0
LINE
  5
FE
330
1F
100
AcDbEntity
  8
0
  6
Continuous
 62
     7
370
    35
100
AcDbLine
 10
957.2866999615
 20
950.6041224795
 30
0.0
 11
952.5864466555
 21
951.5732215655
 31
0.0
  0
LINE
  5
FF
330
1F
100
AcDbEntity
  8
0
  6
Continuous
 62
     7
370
    35
100
AcDbLine
 10
333.7866999615
 20
969.0814618932
 30
0.0
 11
333.7866999615
 21
968.0814618932
 31
0.0
  0
LINE
  5
100
330
1F
100
AcDbEntity
  8
0
  6
Continuous
 62
     7
370
    35
100
AcDbLine
 10
1313.7866999615
 20
969.0814618932
 30
0.0
 11
333.7866999615
 21
969.0814618932
 31
0.0
  0
LINE
  5
101
330
1F
100
AcDbEntity
  8
0
  6
Continuous
 62
     7
370
    35
100
AcDbLine
 10
1313.7866999615
 20
969.0814618932
 30
0.0
 11
1313.7866999615
 21
968.0814618932
 31
0.0
  0
LINE
  5
102
330
1F
100
AcDbEntity
  8
0
  6
Continuous
 62
     7
370
    35
100
AcDbLine
 10
1313.7866999615
 20
968.0814618932
 30
0.0
 11
333.7866999615
 21
968.0814618932
 31
0.0
  0
LINE
  5
103
330
1F
100
AcDbEntity
  8
0
  6
Continuous
 62
     7
370
    35
100
AcDbLine
 10
333.7866999615
 20
970.0814618932
 30
0.0
 11
333.7866999615
 21
969.0814618932
 31
0.0
  0
LINE
  5
104
330
1F
100
AcDbEntity
  8
0
  6
Continuous
 62
     7
370
    35
100
AcDbLine
 10
1313.7866999615
 20
969.0814618932
 30
0.0
 11
1313.7866999615
 21
970.0814618932
 31
0.0
  0
LINE
  5
105
330
1F
100
AcDbEntity
  8
0
  6
Continuous
 62
     7
370
    35
100
AcDbLine
 10
1313.7866999615
 20
979.5814618932
 30
0.0
 11
1313.7866999615
 21
970.0814618932
 31
0.0
  0
LINE
  5
106
330
1F
100
AcDbEntity
  8
0
  6
Continuous
 62
     7
370
    35
100
AcDbLine
 10
333.7866999615
 20
970.0814618932
 30
0.0
 11
333.7866999615
 21
979.5814618932
 31
0.0
  0
LINE
  5
107
330
1F
100
AcDbEntity
  8
0
  6
Continuous
 62
     7
370
    35
100
AcDbLine
 10
1313.7866999615
 20
981.0814618932
 30
0.0
 11
1313.7866999615
 21
980.0814618932
 31
0.0
  0
LINE
  5
108
330
1F
100
AcDbEntity
  8
0
  6
Continuous
 62
     7
370
    35
100
AcDbLine
 10
333.7866999615
 20
980.0814618932
 30
0.0
 11
333.7866999615
 21
981.0814618932
 31
0.0
  0
LINE
  5
109
330
1F
100
AcDbEntity
  8
0
  6
Continuous
 62
     7
370
    35
100
AcDbLine
 10
333.7866999615
 20
966.8433803825
 30
0.0
 11
333.7866999615
 21
968.0814618932
 31
0.0
  0
LINE
  5
10A
330
1F
100
AcDbEntity
  8
0
  6
Continuous
 62
     7
370
    35
100
AcDbLine
 10
1313.7866999615
 20
966.8433803825
 30
0.0
 11
1313.7866999615
 21
968.0814618932
 31
0.0
  0
LINE
  5
10B
330
1F
100
AcDbEntity
  8
0
  6
Continuous
 62
     7
370
    35
100
AcDbLine
 10
1313.7866999615
 20
966.1474098371
 30
0.0
 11
1313.7866999615
 21
966.8433803825
 31
0.0
  0
LINE
  5
10C
330
1F
100
AcDbEntity
  8
0
  6
Continuous
 62
     7
370
    35
100
AcDbLine
 10
333.7866999615
 20
966.8433803825
 30
0.0
 11
333.7866999615
 21
966.1474098371
 31
0.0
  0
SPLINE
  5
10D
330
1F
100
AcDbEntity
  8
0
  6
Continuous
 62
     7
370
    35
100
AcDbSpline
210
0.0
220
0.0
230
1.0
 70
     8
 71
     3
 72
     8
 73
     4
 74
     0
 42
0.000000001
 43
0.00000001
 40
0.0000000000000255
 40
0.0000000000000255
 40
0.0000000000000255
 40
0.0000000000000255
 40
0.0000564308016788
 40
0.0000564308016788
 40
0.0000564308016788
 40
0.0000564308016788
 10
906.6581627408927
 20
963.0862894723851
 30
0.0
 10
906.6633251447053
 20
963.0873149315203
 30
0.0
 10
906.6663359126018
 20
963.0883900557847
 30
0.0
 10
906.6661584640178
 20
963.0894564148161
 30
0.0
  0
SPLINE
  5
10E
330
1F
100
AcDbEntity
  8
0
  6
Continuous
 62
     7
370
    35
100
AcDbSpline
210
0.0
220
0.0
230
1.0
 70
     8
 71
     3
 72
    14
 73
    10
 74
     0
 42
0.000000001
 43
0.00000001
 40
0.0
 40
0.0
 40
0.0
 40
0.0
 40
0.25
 40
0.25
 40
0.5
 40
0.5
 40
0.75
 40
0.75
 40
1.0
 40
1.0
 40
1.0
 40
1.0
 10
906.6661584641472
 20
963.0894564148163
 30
0.0
 10
906.6347858162687
 20
963.2779871185497
 30
0.0
 10
906.0458469040284
 20
963.465982463455
 30
0.0
 10
903.8141263394514
 20
963.8211857880416
 30
0.0
 10
902.1738812197674
 20
963.9879700353627
 30
0.0
 10
898.0164634626841
 20
964.2822737757621
 30
0.0
 10
895.5037020968402
 20
964.4094685532884
 30
0.0
 10
889.8758895593136
 20
964.6103671071619
 30
0.0
 10
886.7666830971846
 20
964.683861898219
 30
0.0
 10
883.5270315242335
 20
964.7264567764247
 30
0.0
  0
SPLINE
  5
10F
330
1F
100
AcDbEntity
  8
0
  6
Continuous
 62
     7
370
    35
100
AcDbSpline
210
0.0
220
0.0
230
1.0
 70
     8
 71
     3
 72
    14
 73
    10
 74
     0
 42
0.000000001
 43
0.00000001
 40
0.0
 40
0.0
 40
0.0
 40
0.0
 40
0.125
 40
0.125
 40
0.2500000000000001
 40
0.2500000000000001
 40
0.5
 40
0.5
 40
1.0
 40
1.0
 40
1.0
 40
1.0
 10
883.5270315242063
 20
964.7264567764174
 30
0.0
 10
883.25098508376
 20
964.7300862298464
 30
0.0
 10
882.9716904898637
 20
964.7319711857072
 30
0.0
 10
882.4117954500456
 20
964.7350397587192
 30
0.0
 10
882.1310959265503
 20
964.7361701639264
 30
0.0
 10
881.2883341089442
 20
964.7392051670072
 30
0.0
 10
880.7257970039324
 20
964.7406851859423
 30
0.0
 10
879.0383529738167
 20
964.7442761302519
 30
0.0
 10
877.9127990990831
 20
964.7454247404152
 30
0.0
 10
876.7866999615273
 20
964.7454247404152
 30
0.0
  0
LINE
  5
110
330
1F
100
AcDbEntity
  8
0
  6
Continuous
 62
     7
370
    35
100
AcDbLine
 10
876.7866999615
 20
964.7454247404
 30
0.0
 11
770.7866999615
 21
964.7454247404
 31
0.0
  0
SPLINE
  5
111
330
1F
100
AcDbEntity
  8
0
  6
Continuous
 62
     7
370
    35
100
AcDbSpline
210
0.0
220
0.0
230
1.0
 70
     8
 71
     3
 72
    14
 73
    10
 74
     0
 42
0.000000001
 43
0.00000001
 40
0.0
 40
0.0
 40
0.0
 40
0.0
 40
0.5
 40
0.5
 40
0.7500000000000016
 40
0.7500000000000016
 40
0.8750000000000008
 40
0.8750000000000008
 40
1.0
 40
1.0
 40
1.0
 40
1.0
 10
770.7866999615273
 20
964.7454247404152
 30
0.0
 10
769.6607974252298
 20
964.7454247404152
 30
0.0
 10
768.5353420025668
 20
964.7442765372542
 30
0.0
 10
766.8478864028152
 20
964.7406858996044
 30
0.0
 10
766.2854290467826
 20
964.739206004565
 30
0.0
 10
765.4430811313019
 20
964.7361731974572
 30
0.0
 10
765.1624686580175
 20
964.7350436376511
 30
0.0
 10
764.6024037443186
 20
964.731975845924
 30
0.0
 10
764.3218306285848
 20
964.7300785486549
 30
0.0
 10
764.0463683988482
 20
964.7264567764174
 30
0.0
  0
SPLINE
  5
112
330
1F
100
AcDbEntity
  8
0
  6
Continuous
 62
     7
370
    35
100
AcDbSpline
210
0.0
220
0.0
230
1.0
 70
     8
 71
     3
 72
    14
 73
    10
 74
     0
 42
0.000000001
 43
0.00000001
 40
0.0
 40
0.0
 40
0.0
 40
0.0
 40
0.25
 40
0.25
 40
0.5
 40
0.5
 40
0.75
 40
0.75
 40
1.0
 40
1.0
 40
1.0
 40
1.0
 10
764.0463683988211
 20
964.7264567764247
 30
0.0
 10
760.8067167297248
 20
964.6838618969548
 30
0.0
 10
757.6978407175989
 20
964.6103778387179
 30
0.0
 10
752.0696082967054
 20
964.4094664185022
 30
0.0
 10
749.55703815002
 20
964.2822795312754
 30
0.0
 10
745.399596002097
 20
963.9879769503862
 30
0.0
 10
743.7592563097872
 20
963.8211803832377
 30
0.0
 10
741.5276653262213
 20
963.4660029937727
 30
0.0
 10
740.9386141075155
 20
963.277987122935
 30
0.0
 10
740.9072414589074
 20
963.0894564148163
 30
0.0
  0
SPLINE
  5
113
330
1F
100
AcDbEntity
  8
0
  6
Continuous
 62
     7
370
    35
100
AcDbSpline
210
0.0
220
0.0
230
1.0
 70
     8
 71
     3
 72
     8
 73
     4
 74
     0
 42
0.000000001
 43
0.00000001
 40
0.0000000000000194
 40
0.0000000000000194
 40
0.0000000000000194
 40
0.0000000000000194
 40
0.0000564308016788
 40
0.0000564308016788
 40
0.0000564308016788
 40
0.0000564308016788
 10
740.9072414590368
 20
963.0894564148161
 30
0.0
 10
740.9070640104528
 20
963.0883900557847
 30
0.0
 10
740.9100747783494
 20
963.0873149315203
 30
0.0
 10
740.9152371821621
 20
963.0862894723851
 30
0.0
  0
LINE
  5
114
330
1F
100
AcDbEntity
  8
0
  6
Continuous
 62
     7
370
    35
100
AcDbLine
 10
742.7866999615
 20
958.0850233937
 30
0.0
 11
770.7866999615
 21
958.0850233937
 31
0.0
  0
LINE
  5
115
330
1F
100
AcDbEntity
  8
0
  6
Continuous
 62
     7
370
    35
100
AcDbLine
 10
770.7866999615
 20
958.0850233937
 30
0.0
 11
876.7866999615
 21
958.0850233937
 31
0.0
  0
LINE
  5
116
330
1F
100
AcDbEntity
  8
0
  6
Continuous
 62
     7
370
    35
100
AcDbLine
 10
876.7866999615
 20
958.0850233937
 30
0.0
 11
897.9408563108
 21
958.0850233937
 31
0.0
  0
LINE
  5
117
330
1F
100
AcDbEntity
  8
0
  6
Continuous
 62
     7
370
    35
100
AcDbLine
 10
898.5759062283
 20
958.0850233937
 30
0.0
 11
904.7866999615
 21
958.0850233937
 31
0.0
  0
SPLINE
  5
118
330
1F
100
AcDbEntity
  8
0
  6
Continuous
 62
     7
370
    35
100
AcDbSpline
210
0.0
220
0.0
230
1.0
 70
    24
 71
     3
 72
     9
 73
     5
 74
     0
 42
0.000000001
 43
0.00000001
 40
0.0
 40
0.0
 40
0.0
 40
0.0
 40
0.1857572773171746
 40
1.0
 40
1.0
 40
1.0
 40
1.0
 10
740.9276306934311
 20
963.0836737960946
 30
0.0
 10
740.9285683458253
 20
963.0834759026095
 30
0.0
 10
740.9336160748171
 20
963.0824105689234
 30
0.0
 10
740.923485736453
 20
963.0845485978724
 30
0.0
 10
740.9152371821617
 20
963.0862894723851
 30
0.0
  0
LINE
  5
119
330
1F
100
AcDbEntity
  8
0
  6
Continuous
 62
     7
370
    35
100
AcDbLine
 10
906.6581627409
 20
963.0862894724
 30
0.0
 11
906.6457510542
 21
963.0836699601
 31
0.0
  0
ARC
  5
11A
330
1F
100
AcDbEntity
  8
0
  6
Continuous
 62
     7
370
    35
100
AcDbCircle
 10
823.7866999615
 20
931.6350233936
 30
0.0
 40
20.00000000000004
100
AcDbArc
 50
242.7578274734
 51
297.2421725266
  0
SPLINE
  5
11B
330
1F
100
AcDbEntity
  8
0
  6
Continuous
 62
     7
370
    35
100
AcDbSpline
210
0.0
220
0.0
230
1.0
 70
     8
 71
     3
 72
    23
 73
    19
 74
     0
 42
0.000000001
 43
0.00000001
 40
0.0
 40
0.0
 40
0.0
 40
0.0
 40
0.0758439674746767
 40
0.0948049593331002
 40
0.1128914355571506
 40
0.1336676542610458
 40
0.1567718346598163
 40
0.2022013669991182
 40
0.242481634199558
 40
0.2818986298408139
 40
0.320602194477951
 40
0.3951163817032078
 40
0.463208186290198
 40
0.5251873670652979
 40
0.5924928344462255
 40
0.7259812554141637
 40
0.8620429027987477
 40
1.0
 40
1.0
 40
1.0
 40
1.0
 10
742.2866999615272
 20
958.0850233936148
 30
0.0
 10
742.2706954379069
 20
956.9812534535913
 30
0.0
 10
742.2506897833833
 20
955.6015410287109
 30
0.0
 10
742.3162009597332
 20
954.0021968802674
 30
0.0
 10
742.1709484808688
 20
953.0957666814875
 30
0.0
 10
741.2614787007086
 20
952.7296028993751
 30
0.0
 10
740.2650573917662
 20
951.9359520168674
 30
0.0
 10
739.2685832075593
 20
950.6593194792115
 30
0.0
 10
738.6862920510631
 20
948.9395943824859
 30
0.0
 10
738.0637056005687
 20
947.3475757950063
 30
0.0
 10
737.3145194508395
 20
945.2722969471589
 30
0.0
 10
736.4554328905948
 20
942.7982623055718
 30
0.0
 10
735.5466428310253
 20
939.981227907127
 30
0.0
 10
735.0015790196063
 20
937.1753864472132
 30
0.0
 10
734.6601931151956
 20
933.3863492173139
 30
0.0
 10
735.0484143871636
 20
928.5006566512595
 30
0.0
 10
736.7278099031184
 20
922.7797742028977
 30
0.0
 10
738.8748938610362
 20
919.4324223917267
 30
0.0
 10
739.9558617733935
 20
917.7471692902337
 30
0.0
  0
SPLINE
  5
11C
330
1F
100
AcDbEntity
  8
0
  6
Continuous
 62
     7
370
    35
100
AcDbSpline
210
0.0
220
0.0
230
1.0
 70
    24
 71
     3
 72
    19
 73
    15
 74
     0
 42
0.000000001
 43
0.00000001
 40
0.0
 40
0.0
 40
0.0
 40
0.0
 40
0.2409129494906413
 40
0.4882585144584838
 40
0.5391714996611927
 40
0.5899404470637029
 40
0.6400693113877648
 40
0.6899887485684958
 40
0.7400419491330548
 40
0.7904190815941273
 40
0.8413201881352514
 40
0.8929676782752878
 40
0.9456873804469079
 40
1.0
 40
1.0
 40
1.0
 40
1.0
 10
823.7866999615273
 20
958.085023393615
 30
0.0
 10
815.9406589600844
 20
958.085023393615
 30
0.0
 10
800.0390798550823
 20
958.085023393615
 30
0.0
 10
782.4736553352809
 20
958.085023393615
 30
0.0
 10
771.111766588352
 20
958.085023393615
 30
0.0
 10
766.1560013700353
 20
958.0850233936147
 30
0.0
 10
761.3716406106904
 20
958.0850233936147
 30
0.0
 10
756.8880626456861
 20
958.085023393615
 30
0.0
 10
752.8098123607153
 20
958.085023393615
 30
0.0
 10
749.2365604177041
 20
958.085023393615
 30
0.0
 10
746.2701546732964
 20
958.085023393615
 30
0.0
 10
744.0401284538189
 20
958.0850233936148
 30
0.0
 10
742.5668183568271
 20
958.0850233936148
 30
0.0
 10
742.3809946057426
 20
958.0850233936148
 30
0.0
 10
742.2866999615272
 20
958.0850233936148
 30
0.0
  0
SPLINE
  5
11D
330
1F
100
AcDbEntity
  8
0
  6
Continuous
 62
     7
370
    35
100
AcDbSpline
210
0.0
220
0.0
230
1.0
 70
    24
 71
     3
 72
    19
 73
    15
 74
     0
 42
0.000000001
 43
0.00000001
 40
0.0
 40
0.0
 40
0.0
 40
0.0
 40
0.2409129494906413
 40
0.4882585144584838
 40
0.5391714996611927
 40
0.5899404470637029
 40
0.6400693113877648
 40
0.6899887485684958
 40
0.7400419491330548
 40
0.7904190815941273
 40
0.8413201881352514
 40
0.8929676782752878
 40
0.9456873804469079
 40
1.0
 40
1.0
 40
1.0
 40
1.0
 10
823.7866999615273
 20
958.085023393615
 30
0.0
 10
831.6327409629702
 20
958.085023393615
 30
0.0
 10
847.5343200679723
 20
958.085023393615
 30
0.0
 10
865.0997445877737
 20
958.085023393615
 30
0.0
 10
876.4616333347027
 20
958.085023393615
 30
0.0
 10
881.4173985530193
 20
958.0850233936147
 30
0.0
 10
886.2017593123642
 20
958.0850233936147
 30
0.0
 10
890.6853372773685
 20
958.085023393615
 30
0.0
 10
894.7635875623392
 20
958.085023393615
 30
0.0
 10
898.3368395053506
 20
958.085023393615
 30
0.0
 10
901.3032452497582
 20
958.085023393615
 30
0.0
 10
903.5332714692358
 20
958.0850233936148
 30
0.0
 10
905.0065815662275
 20
958.0850233936148
 30
0.0
 10
905.192405317312
 20
958.0850233936148
 30
0.0
 10
905.2866999615273
 20
958.0850233936148
 30
0.0
  0
SPLINE
  5
11E
330
1F
100
AcDbEntity
  8
0
  6
Continuous
 62
     7
370
    35
100
AcDbSpline
210
0.0
220
0.0
230
1.0
 70
     8
 71
     3
 72
    12
 73
     8
 74
     0
 42
0.000000001
 43
0.00000001
 40
0.0
 40
0.0
 40
0.0
 40
0.0
 40
0.5113573105439846
 40
0.6391966381109017
 40
0.7611397820034745
 40
0.8740152375255743
 40
1.0
 40
1.0
 40
1.0
 40
1.0
 10
905.2866999615273
 20
958.0850233936148
 30
0.0
 10
905.3014059675554
 20
956.9804928835877
 30
0.0
 10
905.3197884750886
 20
955.5998297462028
 30
0.0
 10
905.2595925094257
 20
954.0035988322933
 30
0.0
 10
905.3837473084004
 20
953.1539937935413
 30
0.0
 10
906.1410506212402
 20
952.8066404332243
 30
0.0
 10
906.5484500618655
 20
952.5074673936384
 30
0.0
 10
906.7633293841313
 20
952.3496711534478
 30
0.0
  0
SPLINE
  5
11F
330
1F
100
AcDbEntity
  8
0
  6
Continuous
 62
     7
370
    35
100
AcDbSpline
210
0.0
220
0.0
230
1.0
 70
     8
 71
     3
 72
    12
 73
     8
 74
     0
 42
0.000000001
 43
0.00000001
 40
0.0
 40
0.0
 40
0.0
 40
0.0
 40
0.0187022824907647
 40
0.2635054426144014
 40
0.5085219380108147
 40
0.7541594978531969
 40
1.0
 40
1.0
 40
1.0
 40
1.0
 10
906.7239262983979
 20
952.1812843157851
 30
0.0
 10
906.7239905263842
 20
952.1834357713897
 30
0.0
 10
906.7248954653382
 20
952.2137486629658
 30
0.0
 10
906.727002565517
 20
952.2636438536406
 30
0.0
 10
906.7333753264049
 20
952.3139858604975
 30
0.0
 10
906.7442241683049
 20
952.3447746783444
 30
0.0
 10
906.7569592259923
 20
952.3480385458386
 30
0.0
 10
906.7633293841313
 20
952.3496711534478
 30
0.0
  0
SPLINE
  5
120
330
1F
100
AcDbEntity
  8
0
  6
Continuous
 62
     7
370
    35
100
AcDbSpline
210
0.0
220
0.0
230
1.0
 70
     8
 71
     3
 72
    13
 73
     9
 74
     0
 42
0.000000001
 43
0.00000001
 40
0.0
 40
0.0
 40
0.0
 40
0.0
 40
0.1771815196505908
 40
0.3595140594802965
 40
0.536691256885091
 40
0.7189759962167965
 40
0.8582847046484902
 40
1.0
 40
1.0
 40
1.0
 40
1.0
 10
739.9558617733935
 20
917.7471692902337
 30
0.0
 10
740.4826655730087
 20
917.100891006683
 30
0.0
 10
741.5515884094466
 20
915.7895458408241
 30
0.0
 10
743.5354642292148
 20
914.2063593012444
 30
0.0
 10
745.7547242045057
 20
912.9438382127648
 30
0.0
 10
747.9700171260337
 20
912.1514356130898
 30
0.0
 10
750.1088258784131
 20
911.7104392948172
 30
0.0
 10
751.4292531832481
 20
911.6603051375525
 30
0.0
 10
752.0951206642312
 20
911.6350233936149
 30
0.0
  0
SPLINE
  5
121
330
1F
100
AcDbEntity
  8
0
  6
Continuous
 62
     7
370
    35
100
AcDbSpline
210
0.0
220
0.0
230
1.0
 70
    24
 71
     3
 72
    19
 73
    15
 74
     0
 42
0.000000001
 43
0.00000001
 40
0.0
 40
0.0
 40
0.0
 40
0.0
 40
0.0382207566244327
 40
0.0915494292491335
 40
0.1448915828931537
 40
0.1929664281754644
 40
0.2410362644725358
 40
0.2858279790996494
 40
0.330589994761807
 40
0.3739481339232561
 40
0.4173762879190923
 40
0.6722423197123589
 40
0.9271575473554007
 40
1.0
 40
1.0
 40
1.0
 40
1.0
 10
752.0951206642312
 20
911.6350233936149
 30
0.0
 10
752.2607971397588
 20
911.6350233936149
 30
0.0
 10
752.6576387544764
 20
911.6350233936149
 30
0.0
 10
754.0303103733813
 20
911.6350233936149
 30
0.0
 10
756.1138338336114
 20
911.6350233936149
 30
0.0
 10
758.6982314148938
 20
911.6350233936149
 30
0.0
 10
761.5636485327501
 20
911.635023393615
 30
0.0
 10
764.72772769359
 20
911.6350233936149
 30
0.0
 10
768.0669692293085
 20
911.635023393615
 30
0.0
 10
771.6107577724068
 20
911.6350233936149
 30
0.0
 10
781.0950679888031
 20
911.635023393615
 30
0.0
 10
796.4724079000333
 20
911.6350233936149
 30
0.0
 10
812.658751974142
 20
911.635023393615
 30
0.0
 10
821.7632682208299
 20
911.635023393615
 30
0.0
 10
823.7866999615273
 20
911.635023393615
 30
0.0
  0
SPLINE
  5
122
330
1F
100
AcDbEntity
  8
0
  6
Continuous
 62
     7
370
    35
100
AcDbSpline
210
0.0
220
0.0
230
1.0
 70
    24
 71
     3
 72
    19
 73
    15
 74
     0
 42
0.000000001
 43
0.00000001
 40
0.0
 40
0.0
 40
0.0
 40
0.0
 40
0.0382184429616673
 40
0.0907526742552615
 40
0.1448883276233774
 40
0.1924047757928812
 40
0.2410289232739625
 40
0.2852702899838307
 40
0.3305791993120217
 40
0.3733296235550279
 40
0.4174095644875306
 40
0.6721476066227443
 40
0.9271619568147014
 40
1.0
 40
1.0
 40
1.0
 40
1.0
 10
895.4782792588236
 20
911.6350233936149
 30
0.0
 10
895.3124098146503
 20
911.6350233936149
 30
0.0
 10
894.9185398798902
 20
911.6350233936149
 30
0.0
 10
893.5567317267353
 20
911.6350233936149
 30
0.0
 10
891.4793293773885
 20
911.6350233936149
 30
0.0
 10
888.8875186978014
 20
911.6350233936149
 30
0.0
 10
886.0327230829112
 20
911.6350233936149
 30
0.0
 10
882.8609825734083
 20
911.6350233936149
 30
0.0
 10
879.5333587701527
 20
911.635023393615
 30
0.0
 10
875.9880343794575
 20
911.635023393615
 30
0.0
 10
866.4889260742714
 20
911.6350233936149
 30
0.0
 10
851.1087322093465
 20
911.635023393615
 30
0.0
 10
834.9175681879666
 20
911.635023393615
 30
0.0
 10
825.810084067029
 20
911.6350233936149
 30
0.0
 10
823.7866999615273
 20
911.6350233936149
 30
0.0
  0
LINE
  5
123
330
1F
100
AcDbEntity
  8
0
  6
Continuous
 62
     7
370
    35
100
AcDbLine
 10
912.2866999615
 20
951.6350233936
 30
0.0
 11
912.2866999615
 21
911.6350233936
 31
0.0
  0
SPLINE
  5
124
330
1F
100
AcDbEntity
  8
0
  6
Continuous
 62
     7
370
    35
100
AcDbSpline
210
0.0
220
0.0
230
1.0
 70
     8
 71
     3
 72
    10
 73
     6
 74
     0
 42
0.000000001
 43
0.00000001
 40
0.0
 40
0.0
 40
0.0
 40
0.0
 40
0.4996662810113345
 40
0.9790557875044539
 40
1.0
 40
1.0
 40
1.0
 40
1.0
 10
906.7633293841313
 20
952.3496711534478
 30
0.0
 10
907.0547339353527
 20
952.1488339657443
 30
0.0
 10
907.6257176563294
 20
951.7553096907639
 30
0.0
 10
908.3419479150709
 20
951.6368720366307
 30
0.0
 10
908.6928326794182
 20
951.6350976694854
 30
0.0
 10
908.7075208860831
 20
951.6350233936149
 30
0.0
  0
LINE
  5
125
330
1F
100
AcDbEntity
  8
0
  6
Continuous
 62
     7
370
    35
100
AcDbLine
 10
770.7866999615
 20
961.1350233936
 30
0.0
 11
742.9866999615
 21
961.1350233936
 31
0.0
  0
LINE
  5
126
330
1F
100
AcDbEntity
  8
0
  6
Continuous
 62
     7
370
    35
100
AcDbLine
 10
876.7866999615
 20
961.1350233936
 30
0.0
 11
904.5866999615
 21
961.1350233936
 31
0.0
  0
LINE
  5
127
330
1F
100
AcDbEntity
  8
0
  6
Continuous
 62
     7
370
    35
100
AcDbLine
 10
912.2866999615
 20
931.6350233936
 30
0.0
 11
912.2866999615
 21
951.6350233936
 31
0.0
  0
LINE
  5
128
330
1F
100
AcDbEntity
  8
0
  6
Continuous
 62
     7
370
    35
100
AcDbLine
 10
912.2866999615
 20
911.6350233936
 30
0.0
 11
912.2866999615
 21
931.6350233936
 31
0.0
  0
LINE
  5
129
330
1F
100
AcDbEntity
  8
0
  6
Continuous
 62
     7
370
    35
100
AcDbLine
 10
957.2866999615
 20
931.6350233936
 30
0.0
 11
957.2866999615
 21
950.6041224795
 31
0.0
  0
LINE
  5
12A
330
1F
100
AcDbEntity
  8
0
  6
Continuous
 62
     7
370
    35
100
AcDbLine
 10
957.2866999615
 20
912.6659243077
 30
0.0
 11
957.2866999615
 21
931.6350233936
 31
0.0
  0
LINE
  5
12B
330
1F
100
AcDbEntity
  8
0
  6
Continuous
 62
     7
370
    35
100
AcDbLine
 10
301.2866999615
 20
968.0814618932
 30
0.0
 11
301.2866999615
 21
969.0814618932
 31
0.0
  0
LINE
  5
12C
330
1F
100
AcDbEntity
  8
0
  6
Continuous
 62
     7
370
    35
100
AcDbLine
 10
301.2866999615
 20
969.0814618932
 30
0.0
 11
311.2866999615
 21
969.0814618932
 31
0.0
  0
LINE
  5
12D
330
1F
100
AcDbEntity
  8
0
  6
Continuous
 62
     7
370
    35
100
AcDbLine
 10
311.2866999615
 20
968.0814618932
 30
0.0
 11
301.2866999615
 21
968.0814618932
 31
0.0
  0
LINE
  5
12E
330
1F
100
AcDbEntity
  8
0
  6
Continuous
 62
     7
370
    35
100
AcDbLine
 10
333.7866999615
 20
969.0814618932
 30
0.0
 11
311.2866999615
 21
969.0814618932
 31
0.0
  0
LINE
  5
12F
330
1F
100
AcDbEntity
  8
0
  6
Continuous
 62
     7
370
    35
100
AcDbLine
 10
333.7866999615
 20
968.0814618932
 30
0.0
 11
311.2866999615
 21
968.0814618932
 31
0.0
  0
LINE
  5
130
330
1F
100
AcDbEntity
  8
0
  6
Continuous
 62
     7
370
    35
100
AcDbLine
 10
1346.2866999615
 20
969.0814618932
 30
0.0
 11
1346.2866999615
 21
968.0814618932
 31
0.0
  0
LINE
  5
131
330
1F
100
AcDbEntity
  8
0
  6
Continuous
 62
     7
370
    35
100
AcDbLine
 10
1346.2866999615
 20
968.0814618932
 30
0.0
 11
1336.2866999615
 21
968.0814618932
 31
0.0
  0
LINE
  5
132
330
1F
100
AcDbEntity
  8
0
  6
Continuous
 62
     7
370
    35
100
AcDbLine
 10
1336.2866999615
 20
969.0814618932
 30
0.0
 11
1346.2866999615
 21
969.0814618932
 31
0.0
  0
LINE
  5
133
330
1F
100
AcDbEntity
  8
0
  6
Continuous
 62
     7
370
    35
100
AcDbLine
 10
1336.2866999615
 20
968.0814618932
 30
0.0
 11
1313.7866999615
 21
968.0814618932
 31
0.0
  0
LINE
  5
134
330
1F
100
AcDbEntity
  8
0
  6
Continuous
 62
     7
370
    35
100
AcDbLine
 10
1336.2866999615
 20
969.0814618932
 30
0.0
 11
1313.7866999615
 21
969.0814618932
 31
0.0
  0
LINE
  5
135
330
1F
100
AcDbEntity
  8
0
  6
Continuous
 62
     7
370
    35
100
AcDbLine
 10
1313.7866999615
 20
980.0814618932
 30
0.0
 11
1313.7866999615
 21
970.0814618932
 31
0.0
  0
LINE
  5
136
330
1F
100
AcDbEntity
  8
0
  6
Continuous
 62
     7
370
    35
100
AcDbLine
 10
1315.7866999615
 20
980.0814618932
 30
0.0
 11
1315.7866999615
 21
969.0814618932
 31
0.0
  0
ARC
  5
137
330
1F
100
AcDbEntity
  8
0
  6
Continuous
 62
     7
370
    35
100
AcDbCircle
 10
1314.7866999615
 20
980.0814618932
 30
0.0
 40
1.000000000000227
100
AcDbArc
 50
0.0
 51
180.0
  0
LINE
  5
138
330
1F
100
AcDbEntity
  8
0
  6
Continuous
 62
     7
370
    35
100
AcDbLine
 10
1313.7866999615
 20
966.1474098371
 30
0.0
 11
1313.7866999615
 21
962.3556024148
 31
0.0
  0
LINE
  5
139
330
1F
100
AcDbEntity
  8
0
  6
Continuous
 62
     7
370
    35
100
AcDbLine
 10
1315.7866999615
 20
968.0814618932
 30
0.0
 11
1315.7866999615
 21
962.3556024148
 31
0.0
  0
LINE
  5
13A
330
1F
100
AcDbEntity
  8
0
  6
Continuous
 62
     7
370
    35
100
AcDbLine
 10
1313.7866999615
 20
960.5429868407
 30
0.0
 11
1313.7866999615
 21
962.3556024148
 31
0.0
  0
LINE
  5
13B
330
1F
100
AcDbEntity
  8
0
  6
Continuous
 62
     7
370
    35
100
AcDbLine
 10
1315.7866999615
 20
962.3556024148
 30
0.0
 11
1315.7866999615
 21
960.5429868407
 31
0.0
  0
LINE
  5
13C
330
1F
100
AcDbEntity
  8
0
  6
Continuous
 62
     7
370
    35
100
AcDbLine
 10
1313.7866999615
 20
960.5429868407
 30
0.0
 11
1313.7866999615
 21
953.2846875561
 31
0.0
  0
LINE
  5
13D
330
1F
100
AcDbEntity
  8
0
  6
Continuous
 62
     7
370
    35
100
AcDbLine
 10
1315.7866999615
 20
960.5429868407
 30
0.0
 11
1315.7866999615
 21
953.2846875561
 31
0.0
  0
LINE
  5
13E
330
1F
100
AcDbEntity
  8
0
  6
Continuous
 62
     7
370
    35
100
AcDbLine
 10
1313.7866999615
 20
951.472071982
 30
0.0
 11
1313.7866999615
 21
953.2846875561
 31
0.0
  0
LINE
  5
13F
330
1F
100
AcDbEntity
  8
0
  6
Continuous
 62
     7
370
    35
100
AcDbLine
 10
1315.7866999615
 20
953.2846875561
 30
0.0
 11
1315.7866999615
 21
951.472071982
 31
0.0
  0
LINE
  5
140
330
1F
100
AcDbEntity
  8
0
  6
Continuous
 62
     7
370
    35
100
AcDbLine
 10
1313.7866999615
 20
951.472071982
 30
0.0
 11
1313.7866999615
 21
917.1814618932
 31
0.0
  0
LINE
  5
141
330
1F
100
AcDbEntity
  8
0
  6
Continuous
 62
     7
370
    35
100
AcDbLine
 10
1315.7866999615
 20
951.472071982
 30
0.0
 11
1315.7866999615
 21
917.1814618932
 31
0.0
  0
LINE
  5
142
330
1F
100
AcDbEntity
  8
0
  6
Continuous
 62
     7
370
    35
100
AcDbLine
 10
1315.7866999615
 20
915.1814618932
 30
0.0
 11
1313.7866999615
 21
915.1814618932
 31
0.0
  0
LINE
  5
143
330
1F
100
AcDbEntity
  8
0
  6
Continuous
 62
     7
370
    35
100
AcDbLine
 10
1313.7866999615
 20
915.1814618932
 30
0.0
 11
1313.7866999615
 21
917.1814618932
 31
0.0
  0
LINE
  5
144
330
1F
100
AcDbEntity
  8
0
  6
Continuous
 62
     7
370
    35
100
AcDbLine
 10
1315.7866999615
 20
917.1814618932
 30
0.0
 11
1315.7866999615
 21
915.1814618932
 31
0.0
  0
LINE
  5
145
330
1F
100
AcDbEntity
  8
0
  6
Continuous
 62
     7
370
    35
100
AcDbLine
 10
331.7866999615
 20
969.0814618932
 30
0.0
 11
331.7866999615
 21
980.0814618932
 31
0.0
  0
ARC
  5
146
330
1F
100
AcDbEntity
  8
0
  6
Continuous
 62
     7
370
    35
100
AcDbCircle
 10
332.7866999615
 20
980.0814618932
 30
0.0
 40
1.000000000000057
100
AcDbArc
 50
0.0
 51
180.0
  0
LINE
  5
147
330
1F
100
AcDbEntity
  8
0
  6
Continuous
 62
     7
370
    35
100
AcDbLine
 10
333.7866999615
 20
970.0814618932
 30
0.0
 11
333.7866999615
 21
980.0814618932
 31
0.0
  0
LINE
  5
148
330
1F
100
AcDbEntity
  8
0
  6
Continuous
 62
     7
370
    35
100
AcDbLine
 10
331.7866999615
 20
962.3556024148
 30
0.0
 11
331.7866999615
 21
968.0814618932
 31
0.0
  0
LINE
  5
149
330
1F
100
AcDbEntity
  8
0
  6
Continuous
 62
     7
370
    35
100
AcDbLine
 10
333.7866999615
 20
962.3556024148
 30
0.0
 11
333.7866999615
 21
966.1474098371
 31
0.0
  0
LINE
  5
14A
330
1F
100
AcDbEntity
  8
0
  6
Continuous
 62
     7
370
    35
100
AcDbLine
 10
331.7866999615
 20
960.5429868407
 30
0.0
 11
331.7866999615
 21
962.3556024148
 31
0.0
  0
LINE
  5
14B
330
1F
100
AcDbEntity
  8
0
  6
Continuous
 62
     7
370
    35
100
AcDbLine
 10
333.7866999615
 20
962.3556024148
 30
0.0
 11
333.7866999615
 21
960.5429868407
 31
0.0
  0
LINE
  5
14C
330
1F
100
AcDbEntity
  8
0
  6
Continuous
 62
     7
370
    35
100
AcDbLine
 10
331.7866999615
 20
953.2846875561
 30
0.0
 11
331.7866999615
 21
960.5429868407
 31
0.0
  0
LINE
  5
14D
330
1F
100
AcDbEntity
  8
0
  6
Continuous
 62
     7
370
    35
100
AcDbLine
 10
333.7866999615
 20
953.2846875561
 30
0.0
 11
333.7866999615
 21
960.5429868407
 31
0.0
  0
LINE
  5
14E
330
1F
100
AcDbEntity
  8
0
  6
Continuous
 62
     7
370
    35
100
AcDbLine
 10
331.7866999615
 20
951.472071982
 30
0.0
 11
331.7866999615
 21
953.2846875561
 31
0.0
  0
LINE
  5
14F
330
1F
100
AcDbEntity
  8
0
  6
Continuous
 62
     7
370
    35
100
AcDbLine
 10
333.7866999615
 20
953.2846875561
 30
0.0
 11
333.7866999615
 21
951.472071982
 31
0.0
  0
LINE
  5
150
330
1F
100
AcDbEntity
  8
0
  6
Continuous
 62
     7
370
    35
100
AcDbLine
 10
331.7866999615
 20
917.1814618932
 30
0.0
 11
331.7866999615
 21
951.472071982
 31
0.0
  0
LINE
  5
151
330
1F
100
AcDbEntity
  8
0
  6
Continuous
 62
     7
370
    35
100
AcDbLine
 10
333.7866999615
 20
917.1814618932
 30
0.0
 11
333.7866999615
 21
951.472071982
 31
0.0
  0
LINE
  5
152
330
1F
100
AcDbEntity
  8
0
  6
Continuous
 62
     7
370
    35
100
AcDbLine
 10
333.7866999615
 20
915.1814618932
 30
0.0
 11
331.7866999615
 21
915.1814618932
 31
0.0
  0
LINE
  5
153
330
1F
100
AcDbEntity
  8
0
  6
Continuous
 62
     7
370
    35
100
AcDbLine
 10
331.7866999615
 20
915.1814618932
 30
0.0
 11
331.7866999615
 21
917.1814618932
 31
0.0
  0
LINE
  5
154
330
1F
100
AcDbEntity
  8
0
  6
Continuous
 62
     7
370
    35
100
AcDbLine
 10
333.7866999615
 20
917.1814618932
 30
0.0
 11
333.7866999615
 21
915.1814618932
 31
0.0
  0
LINE
  5
155
330
1F
100
AcDbEntity
  8
0
  6
Continuous
 62
     8
370
    18
100
AcDbLine
 10
1313.7866999615
 20
970.0814618932
 30
0.0
 11
333.7866999615
 21
970.0814618932
 31
0.0
  0
LINE
  5
156
330
1F
100
AcDbEntity
  8
0
  6
Continuous
 62
     8
370
    18
100
AcDbLine
 10
333.7866999615
 20
979.5814618932
 30
0.0
 11
1313.7866999615
 21
979.5814618932
 31
0.0
  0
LINE
  5
157
330
1F
100
AcDbEntity
  8
0
  6
Continuous
 62
     8
370
    18
100
AcDbLine
 10
333.7866999615
 20
966.8433803825
 30
0.0
 11
1313.7866999615
 21
966.8433803825
 31
0.0
  0
LINE
  5
158
330
1F
100
AcDbEntity
  8
0
  6
Continuous
 62
     8
370
    18
100
AcDbLine
 10
333.7866999615
 20
964.8465970413
 30
0.0
 11
1313.7866999615
 21
964.8465970413
 31
0.0
  0
LINE
  5
159
330
1F
100
AcDbEntity
  8
0
  6
Continuous
 62
     8
370
    18
100
AcDbLine
 10
333.7866999615
 20
963.0862894724
 30
0.0
 11
740.9152371822
 21
963.0862894724
 31
0.0
  0
LINE
  5
15A
330
1F
100
AcDbEntity
  8
0
  6
Continuous
 62
     8
370
    18
100
AcDbLine
 10
906.6581627409
 20
963.0862894724
 30
0.0
 11
1313.7866999615
 21
963.0862894724
 31
0.0
  0
SPLINE
  5
15B
330
1F
100
AcDbEntity
  8
0
  6
Continuous
 62
     8
370
    18
100
AcDbSpline
210
0.0
220
0.0
230
1.0
 70
     8
 71
     3
 72
    10
 73
     6
 74
     0
 42
0.000000001
 43
0.00000001
 40
0.0
 40
0.0
 40
0.0
 40
0.0
 40
0.5
 40
0.5
 40
1.0
 40
1.0
 40
1.0
 40
1.0
 10
770.7866999615273
 20
962.8603903067382
 30
0.0
 10
769.7198877041817
 20
962.8603903067382
 30
0.0
 10
768.6603702927256
 20
962.8419376898801
 30
0.0
 10
766.5552438578983
 20
962.7889140834837
 30
0.0
 10
765.5096315371909
 20
962.754444106363
 30
0.0
 10
764.470587854432
 20
962.7398069704195
 30
0.0
  0
ARC
  5
15C
330
1F
100
AcDbEntity
  8
0
  6
Continuous
 62
     8
370
    18
100
AcDbCircle
 10
761.3000242809
 20
963.1013981497
 30
0.0
 40
3.191116035874316
100
AcDbArc
 50
353.4937367838
 51
30.6135263841
  0
LINE
  5
15D
330
1F
100
AcDbEntity
  8
0
  6
Continuous
 62
     8
370
    18
100
AcDbLine
 10
770.7866999615
 20
962.8603903067
 30
0.0
 11
770.7866999615
 21
964.7454247404
 31
0.0
  0
SPLINE
  5
15E
330
1F
100
AcDbEntity
  8
0
  6
Continuous
 62
     8
370
    18
100
AcDbSpline
210
0.0
220
0.0
230
1.0
 70
     8
 71
     3
 72
    10
 73
     6
 74
     0
 42
0.000000001
 43
0.00000001
 40
0.0
 40
0.0
 40
0.0
 40
0.0
 40
0.5
 40
0.5
 40
1.0
 40
1.0
 40
1.0
 40
1.0
 10
883.1028120686227
 20
962.7398069705545
 30
0.0
 10
882.0637683858644
 20
962.7544441064987
 30
0.0
 10
881.0181560651564
 20
962.7889140834837
 30
0.0
 10
878.9130296303291
 20
962.8419376898801
 30
0.0
 10
877.8535122188687
 20
962.8603903064416
 30
0.0
 10
876.7866999615248
 20
962.8603903064414
 30
0.0
  0
LINE
  5
15F
330
1F
100
AcDbEntity
  8
0
  6
Continuous
 62
     8
370
    18
100
AcDbLine
 10
876.7866999615
 20
962.8603903066
 30
0.0
 11
876.7866999615
 21
964.7454247404
 31
0.0
  0
ARC
  5
160
330
1F
100
AcDbEntity
  8
0
  6
Continuous
 62
     8
370
    18
100
AcDbCircle
 10
886.2733756418
 20
963.1013981497
 30
0.0
 40
3.191116035541921
100
AcDbArc
 50
149.386473613
 51
186.5062632177
  0
LINE
  5
161
330
1F
100
AcDbEntity
  8
0
  6
Continuous
 62
     8
370
    18
100
AcDbLine
 10
876.7866999615
 20
962.8603903066
 30
0.0
 11
770.7866999615
 21
962.8603903067
 31
0.0
  0
ELLIPSE
  5
162
330
1F
100
AcDbEntity
  8
0
  6
Continuous
 62
     8
370
    18
100
AcDbEllipse
 10
876.7866999615
 20
961.0801906326
 30
0.0
 11
27.99999999999989
 21
0.0
 31
0.0
210
0.0
220
0.0
230
1.0
 40
0.0608401234
 41
0.009448938617684
 42
1.343262674843448
  0
ARC
  5
163
330
1F
100
AcDbEntity
  8
0
  6
Continuous
 62
     8
370
    18
100
AcDbCircle
 10
906.7848509107
 20
961.0935798239
 30
0.0
 40
1.999402726573784
100
AcDbArc
 50
93.4033047991
 51
179.9224253183
  0
ELLIPSE
  5
164
330
1F
100
AcDbEntity
  8
0
  6
Continuous
 62
     8
370
    18
100
AcDbEllipse
 10
770.7866999615
 20
961.0801906326
 30
0.0
 11
28.0
 21
0.0
 31
0.0
210
0.0
220
0.0
230
1.0
 40
0.0608401234
 41
1.798329978746344
 42
3.132143714972111
  0
ARC
  5
165
330
1F
100
AcDbEntity
  8
0
  6
Continuous
 62
     8
370
    18
100
AcDbCircle
 10
740.7885490124
 20
961.0935798239
 30
0.0
 40
1.999402726574312
100
AcDbArc
 50
0.0775746817
 51
86.5966952046
  0
LINE
  5
166
330
1F
100
AcDbEntity
  8
0
  6
Continuous
 62
     8
370
    18
100
AcDbLine
 10
770.7866999615
 20
962.8603903067
 30
0.0
 11
770.7866999615
 21
958.0850233937
 31
0.0
  0
LINE
  5
167
330
1F
100
AcDbEntity
  8
0
  6
Continuous
 62
     8
370
    18
100
AcDbLine
 10
876.7866999615
 20
962.8603903066
 30
0.0
 11
876.7866999615
 21
958.0850233937
 31
0.0
  0
SPLINE
  5
168
330
1F
100
AcDbEntity
  8
0
  6
Continuous
 62
     8
370
    18
100
AcDbSpline
210
0.0
220
0.0
230
1.0
 70
     8
 71
     3
 72
    11
 73
     7
 74
     0
 42
0.000000001
 43
0.00000001
 40
0.0
 40
0.0
 40
0.0
 40
0.0
 40
0.2086522750571034
 40
0.418046149825147
 40
0.7071398446856855
 40
1.0
 40
1.0
 40
1.0
 40
1.0
 10
814.6316508094209
 20
913.8534296792565
 30
0.0
 10
814.1080257070287
 20
914.134406271398
 30
0.0
 10
813.0589144143436
 20
914.6973581131817
 30
0.0
 10
811.3485384570873
 20
915.8124160976328
 30
0.0
 10
809.5023600837126
 20
917.2208693760978
 30
0.0
 10
808.2878434161673
 20
918.4975571632393
 30
0.0
 10
807.6766548489259
 20
919.1400324789674
 30
0.0
  0
LINE
  5
169
330
1F
100
AcDbEntity
  8
0
  6
Continuous
 62
     8
370
    18
100
AcDbLine
 10
807.6766548489
 20
919.140032479
 30
0.0
 11
813.5590959344
 21
927.1141912745
 31
0.0
  0
SPLINE
  5
16A
330
1F
100
AcDbEntity
  8
0
  6
Continuous
 62
     8
370
    18
100
AcDbSpline
210
0.0
220
0.0
230
1.0
 70
     8
 71
     3
 72
     9
 73
     5
 74
     0
 42
0.000000001
 43
0.00000001
 40
0.0
 40
0.0
 40
0.0
 40
0.0
 40
0.4979466281839556
 40
1.0
 40
1.0
 40
1.0
 40
1.0
 10
813.5590959343751
 20
927.1141912745484
 30
0.0
 10
814.5426709289433
 20
926.4834237789911
 30
0.0
 10
816.5179328122404
 20
925.2166866231283
 30
0.0
 10
818.6143929580152
 20
924.1625427220629
 30
0.0
 10
819.6669278430794
 20
923.6333062221537
 30
0.0
  0
LINE
  5
16B
330
1F
100
AcDbEntity
  8
0
  6
Continuous
 62
     8
370
    18
100
AcDbLine
 10
819.6669278431
 20
923.6333062222
 30
0.0
 11
814.6316508094
 21
913.8534296793
 31
0.0
  0
ARC
  5
16C
330
1F
100
AcDbEntity
  8
0
  6
Continuous
 62
     8
370
    18
100
AcDbCircle
 10
823.7866999615
 20
931.6350233936
 30
0.0
 40
9.000000000000014
100
AcDbArc
 50
242.7578274734
 51
297.2421725266
  0
LINE
  5
16D
330
1F
100
AcDbEntity
  8
0
  6
Continuous
 62
     8
370
    18
100
AcDbLine
 10
827.90647208
 20
923.6333062222
 30
0.0
 11
832.9417491136
 21
913.8534296793
 31
0.0
  0
SPLINE
  5
16E
330
1F
100
AcDbEntity
  8
0
  6
Continuous
 62
     8
370
    18
100
AcDbSpline
210
0.0
220
0.0
230
1.0
 70
     8
 71
     3
 72
    20
 73
    16
 74
     0
 42
0.000000001
 43
0.00000001
 40
0.0
 40
0.0
 40
0.0
 40
0.0
 40
0.0991423914481115
 40
0.1909579967922171
 40
0.2834490201131823
 40
0.3743163084071862
 40
0.4461862568119869
 40
0.5184421762495504
 40
0.5908322179839122
 40
0.6638400079808534
 40
0.7368167649629367
 40
0.8091054166526845
 40
0.8751601672161242
 40
0.9411263593187081
 40
1.0
 40
1.0
 40
1.0
 40
1.0
 10
807.6766548489259
 20
919.1400324789674
 30
0.0
 10
806.7818791669104
 20
920.2763609686224
 30
0.0
 10
805.0584532002747
 20
922.4650413999998
 30
0.0
 10
803.4094285981647
 20
926.5178542354445
 30
0.0
 10
802.7101109251139
 20
930.8181426486309
 30
0.0
 10
803.0365683169978
 20
934.8518920101226
 30
0.0
 10
804.0625394506395
 20
938.3518431680311
 30
0.0
 10
805.5166503592292
 20
941.287324175825
 30
0.0
 10
807.4115702927947
 20
943.9022597413259
 30
0.0
 10
809.6868264695361
 20
946.2318494387225
 30
0.0
 10
812.2821093206067
 20
948.2321039347026
 30
0.0
 10
815.1014013161082
 20
949.7967091048415
 30
0.0
 10
818.0268528887252
 20
950.8783374156226
 30
0.0
 10
820.9012251484958
 20
951.5192652408772
 30
0.0
 10
822.8620078079987
 20
951.5988540503143
 30
0.0
 10
823.7866999609395
 20
951.6363876072295
 30
0.0
  0
LWPOLYLINE
  5
16F
330
1F
100
AcDbEntity
  8
0
  6
Continuous
 62
     8
370
    18
100
AcDbPolyline
 90
        9
 70
   128
 43
0.0
 10
823.7866999609
 20
951.6363876072
 10
823.7880792873
 20
951.3696505012
 10
823.789265443
 20
950.7062620973
 10
823.790214573
 20
949.6707495654
 10
823.7908915854
 20
948.3013984582
 10
823.7912714494
 20
946.6488371962
 10
823.7913401205
 20
944.7741652053
 10
823.7910950596
 20
942.7466939144
 10
823.7905453292
 20
940.6413841342
  0
SPLINE
  5
170
330
1F
100
AcDbEntity
  8
0
  6
Continuous
 62
     8
370
    18
100
AcDbSpline
210
0.0
220
0.0
230
1.0
 70
     8
 71
     3
 72
    19
 73
    15
 74
     0
 42
0.000000001
 43
0.00000001
 40
0.0
 40
0.0
 40
0.0
 40
0.0
 40
0.0003400432997567
 40
0.101863577827705
 40
0.2035434036526508
 40
0.3480218784455775
 40
0.4928620408160624
 40
0.5714933381061476
 40
0.6496296261320141
 40
0.7087399627822192
 40
0.7683238584295659
 40
0.8224306267254516
 40
0.8926101632270932
 40
0.9999999999999999
 40
0.9999999999999999
 40
0.9999999999999999
 40
0.9999999999999999
 10
823.7905453291643
 20
940.6413841342376
 30
0.0
 10
823.7879817559505
 20
940.6413863440896
 30
0.0
 10
823.0200362037873
 20
940.6420483286785
 30
0.0
 10
821.4814969658012
 20
940.4726113758641
 30
0.0
 10
818.9679661892258
 20
939.6871525036513
 30
0.0
 10
816.352726968846
 20
938.2869957216878
 30
0.0
 10
814.1272860778345
 20
936.621253883695
 30
0.0
 10
812.4087165484331
 20
935.1314035475415
 30
0.0
 10
811.3404103197171
 20
933.8833138282341
 30
0.0
 10
810.673446449725
 20
932.5475629893172
 30
0.0
 10
810.4094671398024
 20
931.234792129871
 30
0.0
 10
810.792087903583
 20
929.8588517578554
 30
0.0
 10
811.8656737192374
 20
928.4447672826884
 30
0.0
 10
812.9209121913722
 20
927.6156326573496
 30
0.0
 10
813.5590959343751
 20
927.1141912745484
 30
0.0
  0
SPLINE
  5
171
330
1F
100
AcDbEntity
  8
0
  6
Continuous
 62
     8
370
    18
100
AcDbSpline
210
0.0
220
0.0
230
1.0
 70
     8
 71
     3
 72
     9
 73
     5
 74
     0
 42
0.000000001
 43
0.00000001
 40
0.0
 40
0.0
 40
0.0
 40
0.0
 40
0.499262191895927
 40
1.0
 40
1.0
 40
1.0
 40
1.0
 10
827.9064720799752
 20
923.6333062221537
 30
0.0
 10
828.9531198391721
 20
924.1596388386137
 30
0.0
 10
831.0495088231293
 20
925.2138596969188
 30
0.0
 10
833.0250672115036
 20
926.4801245750127
 30
0.0
 10
834.0143039886798
 20
927.1141912745487
 30
0.0
  0
LINE
  5
172
330
1F
100
AcDbEntity
  8
0
  6
Continuous
 62
     8
370
    18
100
AcDbLine
 10
839.8967450741
 20
919.140032479
 30
0.0
 11
834.0143039887
 21
927.1141912745
 31
0.0
  0
SPLINE
  5
173
330
1F
100
AcDbEntity
  8
0
  6
Continuous
 62
     8
370
    18
100
AcDbSpline
210
0.0
220
0.0
230
1.0
 70
     8
 71
     3
 72
    10
 73
     6
 74
     0
 42
0.000000001
 43
0.00000001
 40
0.0
 40
0.0
 40
0.0
 40
0.0
 40
0.007620465689513
 40
0.4952213558631353
 40
1.0
 40
1.0
 40
1.0
 40
1.0
 10
839.8967450741279
 20
919.1400324789691
 30
0.0
 10
839.8813997212109
 20
919.1226054501007
 30
0.0
 10
838.8841711019357
 20
917.9900976459064
 30
0.0
 10
836.6635437666289
 20
915.9670152107807
 30
0.0
 10
834.19658142577
 20
914.5660416492065
 30
0.0
 10
832.9417491136337
 20
913.8534296792565
 30
0.0
  0
SPLINE
  5
174
330
1F
100
AcDbEntity
  8
0
  6
Continuous
 62
     8
370
    18
100
AcDbSpline
210
0.0
220
0.0
230
1.0
 70
     8
 71
     3
 72
    21
 73
    17
 74
     0
 42
0.000000001
 43
0.00000001
 40
0.0
 40
0.0
 40
0.0
 40
0.0
 40
0.0576002388844429
 40
0.1369497178327891
 40
0.2164254191351556
 40
0.2512387799067723
 40
0.3302379980378698
 40
0.4092811694446127
 40
0.4704859267255841
 40
0.5267631221523622
 40
0.5830126331096095
 40
0.6699453461182453
 40
0.7487340976142717
 40
0.839517584114902
 40
0.9196605608136237
 40
1.0
 40
1.0
 40
1.0
 40
1.0
 10
823.7866999609395
 20
951.6363876072295
 30
0.0
 10
824.6911552494496
 20
951.6002041468977
 30
0.0
 10
826.8415785628379
 20
951.514174734891
 30
0.0
 10
830.0996507896216
 20
950.7380162166972
 30
0.0
 10
832.8257215265385
 20
949.6021747547007
 30
0.0
 10
835.3698681485108
 20
948.1451417974558
 30
0.0
 10
837.700555790312
 20
946.4148202861242
 30
0.0
 10
839.9983598502757
 20
944.0806292847558
 30
0.0
 10
841.7370167630313
 20
941.7555798871474
 30
0.0
 10
842.9912750387568
 20
939.4613648975287
 30
0.0
 10
844.0971991905988
 20
936.6122753174943
 30
0.0
 10
844.7703559617462
 20
933.1906831377536
 30
0.0
 10
844.6899623547126
 20
929.1234408148819
 30
0.0
 10
843.7505416351996
 20
925.3126605293389
 30
0.0
 10
842.0887709330245
 20
921.8728023790876
 30
0.0
 10
840.6280164453808
 20
920.051698910306
 30
0.0
 10
839.8967450741279
 20
919.1400324789691
 30
0.0
  0
SPLINE
  5
175
330
1F
100
AcDbEntity
  8
0
  6
Continuous
 62
     8
370
    18
100
AcDbSpline
210
0.0
220
0.0
230
1.0
 70
     8
 71
     3
 72
    17
 73
    13
 74
     0
 42
0.000000001
 43
0.00000001
 40
0.0
 40
0.0
 40
0.0
 40
0.0
 40
0.0789144527054624
 40
0.157159304448163
 40
0.2135614770373519
 40
0.2600875689337677
 40
0.3261379151498182
 40
0.4287697285227801
 40
0.5974697941885977
 40
0.7661237400516273
 40
0.9416481750856451
 40
1.0
 40
1.0
 40
1.0
 40
1.0
 10
834.0143039886798
 20
927.1141912745487
 30
0.0
 10
834.4868265391328
 20
927.4761368545375
 30
0.0
 10
835.4278622153532
 20
928.1969568520028
 30
0.0
 10
836.5042779439088
 20
929.4152571785805
 30
0.0
 10
837.0785666789296
 20
930.6911713250873
 30
0.0
 10
837.0724087181032
 20
931.9929600043502
 30
0.0
 10
836.4936965191641
 20
933.5412075263147
 30
0.0
 10
834.8624614693529
 20
935.5315068628531
 30
0.0
 10
832.2755561946042
 20
937.6300504189478
 30
0.0
 10
828.9394217113647
 20
939.5983128209308
 30
0.0
 10
825.9930593563056
 20
940.549841784224
 30
0.0
 10
824.2303412267541
 20
940.6231050452077
 30
0.0
 10
823.7905453291643
 20
940.6413841342376
 30
0.0
  0
SPLINE
  5
176
330
1F
100
AcDbEntity
  8
0
  6
Continuous
 62
     8
370
    18
100
AcDbSpline
210
0.0
220
0.0
230
1.0
 70
     8
 71
     3
 72
    12
 73
     8
 74
     0
 42
0.000000001
 43
0.00000001
 40
0.0
 40
0.0
 40
0.0
 40
0.0
 40
0.0000060747676147
 40
0.3367382319790154
 40
0.6739281751819063
 40
0.9999939252323861
 40
1.0
 40
1.0
 40
1.0
 40
1.0
 10
823.7866999615273
 20
952.30558780506
 30
0.0
 10
823.7867199593453
 20
952.3055877364014
 30
0.0
 10
824.8952446451117
 20
952.3017818364009
 30
0.0
 10
827.1134159893452
 20
952.1890078717161
 30
0.0
 10
830.333841279884
 20
951.7253810776284
 30
0.0
 10
832.4242924020249
 20
951.2374173401386
 30
0.0
 10
833.439130251982
 20
950.9460554017684
 30
0.0
 10
833.4391491585652
 20
950.9460499736512
 30
0.0
  0
SPLINE
  5
177
330
1F
100
AcDbEntity
  8
0
  6
Continuous
 62
     8
370
    18
100
AcDbSpline
210
0.0
220
0.0
230
1.0
 70
     8
 71
     3
 72
    12
 73
     8
 74
     0
 42
0.000000001
 43
0.00000001
 40
0.0
 40
0.0
 40
0.0
 40
0.0
 40
0.0000045934994813
 40
0.4143973137483382
 40
0.7071737974593577
 40
0.9999953489587674
 40
0.9999999999999999
 40
0.9999999999999999
 40
0.9999999999999999
 40
0.9999999999999999
 10
833.4391491585652
 20
950.9460499736512
 30
0.0
 10
833.4391665906936
 20
950.9460421844748
 30
0.0
 10
835.0117861652251
 20
950.2433505279462
 30
0.0
 10
837.5394178778614
 20
948.7633195152512
 30
0.0
 10
840.570676628407
 20
946.0949636971719
 30
0.0
 10
842.0642798825113
 20
944.2900206904156
 30
0.0
 10
842.7295963161703
 20
943.3386035672969
 30
0.0
 10
842.7296068835791
 20
943.3385884556702
 30
0.0
  0
SPLINE
  5
178
330
1F
100
AcDbEntity
  8
0
  6
Continuous
 62
     8
370
    18
100
AcDbSpline
210
0.0
220
0.0
230
1.0
 70
     8
 71
     3
 72
    17
 73
    13
 74
     0
 42
0.000000001
 43
0.00000001
 40
0.0
 40
0.0
 40
0.0
 40
0.0
 40
0.000002143486621
 40
0.1054365485713195
 40
0.2108191839906569
 40
0.3104189083164539
 40
0.4099793386234709
 40
0.5136815324828885
 40
0.6173574802953452
 40
0.7205640036179434
 40
0.8238693169887324
 40
0.9999999999999999
 40
0.9999999999999999
 40
0.9999999999999999
 40
0.9999999999999999
 10
842.7296068835791
 20
943.3385884556702
 30
0.0
 10
842.7296182980418
 20
943.3385738714993
 30
0.0
 10
843.2910874253713
 20
942.621189103396
 30
0.0
 10
844.3223081445838
 20
941.0843250842594
 30
0.0
 10
845.5269833294016
 20
938.5702894005774
 30
0.0
 10
846.3464992719589
 20
935.905303704226
 30
0.0
 10
846.794963372354
 20
933.1295756214043
 30
0.0
 10
846.8177972004153
 20
930.2541421502754
 30
0.0
 10
846.3990380069727
 20
927.3803070122395
 30
0.0
 10
845.5332770120893
 20
924.6670777927538
 30
0.0
 10
844.0427285205626
 20
921.5634908001471
 30
0.0
 10
842.5074444646108
 20
919.7315655530197
 30
0.0
 10
841.5397429769994
 20
918.5768888142327
 30
0.0
  0
ARC
  5
179
330
1F
100
AcDbEntity
  8
0
  6
Continuous
 62
     8
370
    18
100
AcDbCircle
 10
839.6048676557
 20
915.6101331677
 30
0.0
 40
3.541946015257198
100
AcDbArc
 50
56.8881881133
 51
85.2731268278
  0
SPLINE
  5
17A
330
1F
100
AcDbEntity
  8
0
  6
Continuous
 62
     8
370
    18
100
AcDbSpline
210
0.0
220
0.0
230
1.0
 70
     8
 71
     3
 72
     9
 73
     5
 74
     0
 42
0.000000001
 43
0.00000001
 40
0.0
 40
0.0
 40
0.0
 40
0.0
 40
0.4770884652791004
 40
1.0
 40
1.0
 40
1.0
 40
1.0
 10
823.7866999609395
 20
951.6363876072295
 30
0.0
 10
823.7866999611848
 20
951.670966577824
 30
0.0
 10
823.7866999616991
 20
951.7434457365353
 30
0.0
 10
823.7866999615861
 20
952.1125689953141
 30
0.0
 10
823.786699961527
 20
952.3055878050632
 30
0.0
  0
SPLINE
  5
17B
330
1F
100
AcDbEntity
  8
0
  6
Continuous
 62
     8
370
    18
100
AcDbSpline
210
0.0
220
0.0
230
1.0
 70
     8
 71
     3
 72
    13
 73
     9
 74
     0
 42
0.000000001
 43
0.00000001
 40
0.0
 40
0.0
 40
0.0
 40
0.0
 40
0.1436817584227077
 40
0.2896128899910153
 40
0.4254711377184157
 40
0.5627814455502981
 40
0.7787239735870475
 40
1.0
 40
1.0
 40
1.0
 40
1.0
 10
790.1861914339006
 20
923.6114444361208
 30
0.0
 10
790.2052326328654
 20
924.5441700713712
 30
0.0
 10
790.2436131254321
 20
926.4242233903099
 30
0.0
 10
790.309025592481
 20
929.2789805406467
 30
0.0
 10
790.3582468393499
 20
932.1029651800532
 30
0.0
 10
790.3950862215219
 20
935.380052263434
 30
0.0
 10
790.3692545837038
 20
939.1962862735306
 30
0.0
 10
790.314755939331
 20
941.904885668189
 30
0.0
 10
790.2871742108133
 20
943.2757060624626
 30
0.0
  0
ARC
  5
17C
330
1F
100
AcDbEntity
  8
0
  6
Continuous
 62
     8
370
    18
100
AcDbCircle
 10
789.9607304767
 20
915.5420586309
 30
0.0
 40
8.072534912702164
100
AcDbArc
 50
88.399555844
 51
102.2537357991
  0
SPLINE
  5
17D
330
1F
100
AcDbEntity
  8
0
  6
Continuous
 62
     8
370
    18
100
AcDbSpline
210
0.0
220
0.0
230
1.0
 70
     8
 71
     3
 72
    13
 73
     9
 74
     0
 42
0.000000001
 43
0.00000001
 40
0.0
 40
0.0
 40
0.0
 40
0.0
 40
0.2149368602724793
 40
0.4364871802266582
 40
0.5720189549561249
 40
0.7091058686892354
 40
0.8535021383530079
 40
1.0
 40
1.0
 40
1.0
 40
1.0
 10
788.230280680894
 20
943.6097863202834
 30
0.0
 10
788.2319341387172
 20
942.250994913331
 30
0.0
 10
788.235291930126
 20
939.4916030203582
 30
0.0
 10
788.2375100105648
 20
935.5855520973788
 30
0.0
 10
788.2447833652208
 20
932.1751666866705
 30
0.0
 10
788.247983377947
 20
929.285211847869
 30
0.0
 10
788.2484684570097
 20
926.3387418023707
 30
0.0
 10
788.247760825192
 20
924.4046909515449
 30
0.0
 10
788.2474044531068
 20
923.4306791600873
 30
0.0
  0
ARC
  5
17E
330
1F
100
AcDbEntity
  8
0
  6
Continuous
 62
     8
370
    18
100
AcDbCircle
 10
790.1131199944
 20
948.7031423505
 30
0.0
 40
5.430226471408746
100
AcDbArc
 50
249.71237279
 51
271.8368074448
  0
SPLINE
  5
17F
330
1F
100
AcDbEntity
  8
0
  6
Continuous
 62
     8
370
    18
100
AcDbSpline
210
0.0
220
0.0
230
1.0
 70
     8
 71
     3
 72
    13
 73
     9
 74
     0
 42
0.000000001
 43
0.00000001
 40
0.0
 40
0.0
 40
0.0
 40
0.0
 40
0.2149368602724793
 40
0.4364871802266582
 40
0.5720189549561249
 40
0.7091058686892354
 40
0.8535021383530079
 40
1.0
 40
1.0
 40
1.0
 40
1.0
 10
859.3431192421607
 20
943.6097863202834
 30
0.0
 10
859.3414657843375
 20
942.250994913331
 30
0.0
 10
859.3381079929287
 20
939.4916030203582
 30
0.0
 10
859.3358899124897
 20
935.5855520973788
 30
0.0
 10
859.3286165578338
 20
932.1751666866705
 30
0.0
 10
859.3254165451077
 20
929.285211847869
 30
0.0
 10
859.3249314660449
 20
926.3387418023707
 30
0.0
 10
859.3256390978627
 20
924.4046909515449
 30
0.0
 10
859.3259954699478
 20
923.4306791600873
 30
0.0
  0
ARC
  5
180
330
1F
100
AcDbEntity
  8
0
  6
Continuous
 62
     8
370
    18
100
AcDbCircle
 10
857.6126694463
 20
915.5420586309
 30
0.0
 40
8.072534912694001
100
AcDbArc
 50
77.7462642009
 51
91.600444156
  0
SPLINE
  5
181
330
1F
100
AcDbEntity
  8
0
  6
Continuous
 62
     8
370
    18
100
AcDbSpline
210
0.0
220
0.0
230
1.0
 70
     8
 71
     3
 72
    13
 73
     9
 74
     0
 42
0.000000001
 43
0.00000001
 40
0.0
 40
0.0
 40
0.0
 40
0.0
 40
0.1436817584227077
 40
0.2896128899910153
 40
0.4254711377184155
 40
0.562781445550298
 40
0.7787239735870475
 40
1.0
 40
1.0
 40
1.0
 40
1.0
 10
857.3872084891537
 20
923.6114444361208
 30
0.0
 10
857.368167290189
 20
924.5441700713712
 30
0.0
 10
857.3297867976227
 20
926.4242233903099
 30
0.0
 10
857.2643743305736
 20
929.2789805406467
 30
0.0
 10
857.2151530837046
 20
932.1029651800532
 30
0.0
 10
857.1783137015328
 20
935.380052263434
 30
0.0
 10
857.2041453393508
 20
939.1962862735306
 30
0.0
 10
857.2586439837236
 20
941.904885668189
 30
0.0
 10
857.2862257122413
 20
943.2757060624626
 30
0.0
  0
ARC
  5
182
330
1F
100
AcDbEntity
  8
0
  6
Continuous
 62
     8
370
    18
100
AcDbCircle
 10
857.4602799287
 20
948.7031423505
 30
0.0
 40
5.430226471409958
100
AcDbArc
 50
268.1631925552
 51
290.28762721
  0
SPLINE
  5
183
330
1F
100
AcDbEntity
  8
0
  6
Continuous
 62
     8
370
    18
100
AcDbSpline
210
0.0
220
0.0
230
1.0
 70
     8
 71
     3
 72
    13
 73
     9
 74
     0
 42
0.000000001
 43
0.00000001
 40
0.0
 40
0.0
 40
0.0
 40
0.0
 40
0.2027299767790308
 40
0.4113282396852199
 40
0.6140610633746088
 40
0.8226668372537688
 40
0.911099727678664
 40
0.9999999999999999
 40
0.9999999999999999
 40
0.9999999999999999
 40
0.9999999999999999
 10
860.7101912140253
 20
943.8747768333802
 30
0.0
 10
860.72541734183
 20
942.5726391658449
 30
0.0
 10
860.7563103377586
 20
939.9306717413682
 30
0.0
 10
860.779073237613
 20
935.662446508268
 30
0.0
 10
860.7263043114253
 20
931.2682465847728
 30
0.0
 10
860.6718861729789
 20
927.7295504192947
 30
0.0
 10
860.6313412330467
 20
925.059845732186
 30
0.0
 10
860.6159585425169
 20
923.8638121176836
 30
0.0
 10
860.608246925829
 20
923.2642191685245
 30
0.0
  0
ARC
  5
184
330
1F
100
AcDbEntity
  8
0
  6
Continuous
 62
     8
370
    18
100
AcDbCircle
 10
860.6128985981
 20
928.3219118192
 30
0.0
 40
5.057694789835076
100
AcDbArc
 50
255.2593224014
 51
269.947303814
  0
ARC
  5
185
330
1F
100
AcDbEntity
  8
0
  6
Continuous
 62
     8
370
    18
100
AcDbCircle
 10
860.6822118984
 20
940.3602995598
 30
0.0
 40
3.51458864569585
100
AcDbArc
 50
89.543868773
 51
112.3962449547
  0
ARC
  5
186
330
1F
100
AcDbEntity
  8
0
  6
Continuous
 62
     8
370
    18
100
AcDbCircle
 10
786.960501325
 20
928.3219118192
 30
0.0
 40
5.057694789833837
100
AcDbArc
 50
270.052696186
 51
284.7406775986
  0
SPLINE
  5
187
330
1F
100
AcDbEntity
  8
0
  6
Continuous
 62
     8
370
    18
100
AcDbSpline
210
0.0
220
0.0
230
1.0
 70
     8
 71
     3
 72
    13
 73
     9
 74
     0
 42
0.000000001
 43
0.00000001
 40
0.0
 40
0.0
 40
0.0
 40
0.0
 40
0.2027299767790308
 40
0.4113282396852199
 40
0.6140610633746088
 40
0.8226668372537688
 40
0.911099727678664
 40
0.9999999999999999
 40
0.9999999999999999
 40
0.9999999999999999
 40
0.9999999999999999
 10
786.8632087090293
 20
943.8747768333802
 30
0.0
 10
786.8479825812245
 20
942.5726391658449
 30
0.0
 10
786.817089585296
 20
939.9306717413682
 30
0.0
 10
786.7943266854415
 20
935.662446508268
 30
0.0
 10
786.8470956116292
 20
931.2682465847728
 30
0.0
 10
786.9015137500757
 20
927.7295504192947
 30
0.0
 10
786.9420586900079
 20
925.059845732186
 30
0.0
 10
786.9574413805377
 20
923.8638121176836
 30
0.0
 10
786.9651529972256
 20
923.2642191685245
 30
0.0
  0
ARC
  5
188
330
1F
100
AcDbEntity
  8
0
  6
Continuous
 62
     8
370
    18
100
AcDbCircle
 10
786.8911880246
 20
940.3602995598
 30
0.0
 40
3.514588645696549
100
AcDbArc
 50
67.6037550453
 51
90.456131227
  0
SPLINE
  5
189
330
1F
100
AcDbEntity
  8
0
  6
Continuous
 62
     8
370
    18
100
AcDbSpline
210
0.0
220
0.0
230
1.0
 70
     8
 71
     3
 72
    12
 73
     8
 74
     0
 42
0.000000001
 43
0.00000001
 40
0.0
 40
0.0
 40
0.0
 40
0.0
 40
0.1139185701341837
 40
0.3290869588708604
 40
0.5442936150078436
 40
0.827428736584325
 40
0.9999999999999999
 40
0.9999999999999999
 40
0.9999999999999999
 40
0.9999999999999999
 10
779.3140704498172
 20
923.4455616748714
 30
0.0
 10
779.3144388968444
 20
924.1990155423292
 30
0.0
 10
779.3155032633613
 20
926.3755864174647
 30
0.0
 10
779.3220263450443
 20
930.1325355107517
 30
0.0
 10
779.3353456348536
 20
935.0771481902876
 30
0.0
 10
779.337115977133
 20
939.663278374192
 30
0.0
 10
779.3415293601146
 20
942.5192202865301
 30
0.0
 10
779.3432006622999
 20
943.6007357541321
 30
0.0
  0
ARC
  5
18A
330
1F
100
AcDbEntity
  8
0
  6
Continuous
 62
     8
370
    18
100
AcDbCircle
 10
777.4423104354
 20
916.1887240497
 30
0.0
 40
7.49434305791846
100
AcDbArc
 50
75.536903345
 51
90.7939043825
  0
SPLINE
  5
18B
330
1F
100
AcDbEntity
  8
0
  6
Continuous
 62
     8
370
    18
100
AcDbSpline
210
0.0
220
0.0
230
1.0
 70
     8
 71
     3
 72
    12
 73
     8
 74
     0
 42
0.000000001
 43
0.00000001
 40
0.0
 40
0.0
 40
0.0
 40
0.0
 40
0.1720195714147643
 40
0.4559851198824037
 40
0.6711971521951586
 40
0.8863140752009719
 40
1.0
 40
1.0
 40
1.0
 40
1.0
 10
777.2763707760195
 20
943.2209884396727
 30
0.0
 10
777.2580710206433
 20
942.1732790310142
 30
0.0
 10
777.2095624929195
 20
939.3960374858809
 30
0.0
 10
777.1779051690605
 20
934.9533996500913
 30
0.0
 10
777.2376728395268
 20
930.1638278591412
 30
0.0
 10
777.2972363291125
 20
926.5228282863652
 30
0.0
 10
777.3278763100842
 20
924.4121349294088
 30
0.0
 10
777.3384703015776
 20
923.6823476789189
 30
0.0
  0
ARC
  5
18C
330
1F
100
AcDbEntity
  8
0
  6
Continuous
 62
     8
370
    18
100
AcDbCircle
 10
777.3800338082
 20
948.4711718427
 30
0.0
 40
5.251206698458491
100
AcDbArc
 50
268.86886188
 51
291.9532916353
  0
ARC
  5
18D
330
1F
100
AcDbEntity
  8
0
  6
Continuous
 62
     8
370
    18
100
AcDbCircle
 10
780.694813189
 20
940.4085993079
 30
0.0
 40
3.466495566624873
100
AcDbArc
 50
89.2238649506
 51
112.9487422267
  0
SPLINE
  5
18E
330
1F
100
AcDbEntity
  8
0
  6
Continuous
 62
     8
370
    18
100
AcDbSpline
210
0.0
220
0.0
230
1.0
 70
     8
 71
     3
 72
    13
 73
     9
 74
     0
 42
0.000000001
 43
0.00000001
 40
0.0
 40
0.0
 40
0.0
 40
0.0
 40
0.2029467742027861
 40
0.411777351985694
 40
0.614725859430715
 40
0.8235672334127762
 40
0.9115535143092925
 40
0.9999999999999999
 40
0.9999999999999999
 40
0.9999999999999999
 40
0.9999999999999999
 10
780.6734665273128
 20
923.2642191685245
 30
0.0
 10
780.6834261181801
 20
924.6468739171931
 30
0.0
 10
780.7036340469353
 20
927.4522691414027
 30
0.0
 10
780.7435140278387
 20
931.8256691572504
 30
0.0
 10
780.7716959119409
 20
936.2192108908041
 30
0.0
 10
780.7611437156871
 20
939.6581640479955
 30
0.0
 10
780.7480294530403
 20
942.1987188048215
 30
0.0
 10
780.7438596366775
 20
943.3151201552341
 30
0.0
 10
780.7417692902504
 20
943.8747768333802
 30
0.0
  0
ARC
  5
18F
330
1F
100
AcDbEntity
  8
0
  6
Continuous
 62
     8
370
    18
100
AcDbCircle
 10
780.6344320461
 20
928.1574904554
 30
0.0
 40
4.893426976809091
100
AcDbArc
 50
254.3462356244
 51
270.4570487635
  0
SPLINE
  5
190
330
1F
100
AcDbEntity
  8
0
  6
Continuous
 62
     8
370
    18
100
AcDbSpline
210
0.0
220
0.0
230
1.0
 70
     8
 71
     3
 72
    13
 73
     9
 74
     0
 42
0.000000001
 43
0.00000001
 40
0.0
 40
0.0
 40
0.0
 40
0.0
 40
0.2029467742027861
 40
0.411777351985694
 40
0.614725859430715
 40
0.8235672334127762
 40
0.9115535143092925
 40
0.9999999999999999
 40
0.9999999999999999
 40
0.9999999999999999
 40
0.9999999999999999
 10
866.8999333957419
 20
923.2642191685245
 30
0.0
 10
866.8899738048746
 20
924.6468739171931
 30
0.0
 10
866.8697658761193
 20
927.4522691414027
 30
0.0
 10
866.8298858952159
 20
931.8256691572504
 30
0.0
 10
866.8017040111137
 20
936.2192108908041
 30
0.0
 10
866.8122562073676
 20
939.6581640479955
 30
0.0
 10
866.8253704700144
 20
942.1987188048215
 30
0.0
 10
866.8295402863771
 20
943.3151201552341
 30
0.0
 10
866.8316306328041
 20
943.8747768333802
 30
0.0
  0
ARC
  5
191
330
1F
100
AcDbEntity
  8
0
  6
Continuous
 62
     8
370
    18
100
AcDbCircle
 10
866.8785867341
 20
940.4085993079
 30
0.0
 40
3.46649556662616
100
AcDbArc
 50
67.0512577733
 51
90.7761350494
  0
SPLINE
  5
192
330
1F
100
AcDbEntity
  8
0
  6
Continuous
 62
     8
370
    18
100
AcDbSpline
210
0.0
220
0.0
230
1.0
 70
     8
 71
     3
 72
    12
 73
     8
 74
     0
 42
0.000000001
 43
0.00000001
 40
0.0
 40
0.0
 40
0.0
 40
0.0
 40
0.1139185701341837
 40
0.3290869588708604
 40
0.5442936150078436
 40
0.827428736584325
 40
0.9999999999999999
 40
0.9999999999999999
 40
0.9999999999999999
 40
0.9999999999999999
 10
868.2593294732375
 20
923.4455616748714
 30
0.0
 10
868.2589610262103
 20
924.1990155423292
 30
0.0
 10
868.2578966596933
 20
926.3755864174647
 30
0.0
 10
868.2513735780103
 20
930.1325355107517
 30
0.0
 10
868.2380542882009
 20
935.0771481902876
 30
0.0
 10
868.2362839459216
 20
939.663278374192
 30
0.0
 10
868.2318705629401
 20
942.5192202865301
 30
0.0
 10
868.2301992607548
 20
943.6007357541321
 30
0.0
  0
ARC
  5
193
330
1F
100
AcDbEntity
  8
0
  6
Continuous
 62
     8
370
    18
100
AcDbCircle
 10
866.938967877
 20
928.1574904554
 30
0.0
 40
4.893426976809481
100
AcDbArc
 50
269.5429512365
 51
285.6537643756
  0
SPLINE
  5
194
330
1F
100
AcDbEntity
  8
0
  6
Continuous
 62
     8
370
    18
100
AcDbSpline
210
0.0
220
0.0
230
1.0
 70
     8
 71
     3
 72
    12
 73
     8
 74
     0
 42
0.000000001
 43
0.00000001
 40
0.0
 40
0.0
 40
0.0
 40
0.0
 40
0.1720195714145817
 40
0.4559851198820075
 40
0.6711971521946006
 40
0.8863140752002521
 40
1.0
 40
1.0
 40
1.0
 40
1.0
 10
870.2970291470352
 20
943.2209884396718
 30
0.0
 10
870.3153289024112
 20
942.1732790310135
 30
0.0
 10
870.363837430135
 20
939.3960374858805
 30
0.0
 10
870.3954947539941
 20
934.9533996500912
 30
0.0
 10
870.3357270835278
 20
930.1638278591412
 30
0.0
 10
870.276163593942
 20
926.5228282863599
 30
0.0
 10
870.2455236129703
 20
924.4121349293985
 30
0.0
 10
870.2349296214769
 20
923.6823476789034
 30
0.0
  0
ARC
  5
195
330
1F
100
AcDbEntity
  8
0
  6
Continuous
 62
     8
370
    18
100
AcDbCircle
 10
870.1310894877
 20
916.1887240488
 30
0.0
 40
7.494343058817039
100
AcDbArc
 50
89.206095618
 51
104.4630966537
  0
ARC
  5
196
330
1F
100
AcDbEntity
  8
0
  6
Continuous
 62
     8
370
    18
100
AcDbCircle
 10
870.1933661148
 20
948.4711718427
 30
0.0
 40
5.25120669843056
100
AcDbArc
 50
248.0467083646
 51
271.13113812
  0
SPLINE
  5
197
330
1F
100
AcDbEntity
  8
0
  6
Continuous
 62
     8
370
    18
100
AcDbSpline
210
0.0
220
0.0
230
1.0
 70
     8
 71
     3
 72
    18
 73
    14
 74
     0
 42
0.000000001
 43
0.00000001
 40
0.0
 40
0.0
 40
0.0
 40
0.0
 40
0.1187379263355179
 40
0.2372884429469907
 40
0.331404675419057
 40
0.4254648559184061
 40
0.4734453088865539
 40
0.5747497371190675
 40
0.6761505261757316
 40
0.7786173354757666
 40
0.8811254610126253
 40
0.9999978570550635
 40
0.9999999999999999
 40
0.9999999999999999
 40
0.9999999999999999
 40
0.9999999999999999
 10
806.033656946055
 20
918.5768888142326
 30
0.0
 10
805.372931061412
 20
919.3397257720575
 30
0.0
 10
804.052522147257
 20
920.8641956658066
 30
0.0
 10
802.5859951625499
 20
923.4140700563844
 30
0.0
 10
801.5675167589742
 20
926.0072244395409
 30
0.0
 10
801.0590437180264
 20
928.137825844138
 30
0.0
 10
800.7765512486039
 20
930.3854596578389
 30
0.0
 10
800.7558806058599
 20
932.7364053988697
 30
0.0
 10
801.1404732772646
 20
935.5487823988185
 30
0.0
 10
801.9278714033425
 20
938.248602886526
 30
0.0
 10
803.1370110720056
 20
940.9024104156103
 30
0.0
 10
804.2105927073742
 20
942.5295532650324
 30
0.0
 10
804.843781625013
 20
943.3385738714992
 30
0.0
 10
804.8437930394756
 20
943.3385884556702
 30
0.0
  0
SPLINE
  5
198
330
1F
100
AcDbEntity
  8
0
  6
Continuous
 62
     8
370
    18
100
AcDbSpline
210
0.0
220
0.0
230
1.0
 70
     8
 71
     3
 72
    12
 73
     8
 74
     0
 42
0.000000001
 43
0.00000001
 40
0.0
 40
0.0
 40
0.0
 40
0.0
 40
0.0000046504629869
 40
0.3714055081554352
 40
0.6857565680976182
 40
0.9999954070716139
 40
0.9999999999999999
 40
0.9999999999999999
 40
0.9999999999999999
 40
0.9999999999999999
 10
804.8437930394756
 20
943.3385884556702
 30
0.0
 10
804.8438036068844
 20
943.3386035672968
 30
0.0
 10
805.6877612629506
 20
944.5454815390611
 30
0.0
 10
807.4859306046291
 20
946.634682728926
 30
0.0
 10
810.6651332815627
 20
949.1552938703148
 30
0.0
 10
812.941545040636
 20
950.4131147618426
 30
0.0
 10
814.1342333323608
 20
950.946042184475
 30
0.0
 10
814.1342507644894
 20
950.9460499736512
 30
0.0
  0
SPLINE
  5
199
330
1F
100
AcDbEntity
  8
0
  6
Continuous
 62
     8
370
    18
100
AcDbSpline
210
0.0
220
0.0
230
1.0
 70
     8
 71
     3
 72
    13
 73
     9
 74
     0
 42
0.000000001
 43
0.00000001
 40
0.0
 40
0.0
 40
0.0
 40
0.0
 40
0.0000060747469312
 40
0.038995312104522
 40
0.445866675347901
 40
0.8520807833242775
 40
0.9999939252530687
 40
1.0
 40
1.0
 40
1.0
 40
1.0
 10
814.1342507644894
 20
950.9460499736512
 30
0.0
 10
814.1342696710724
 20
950.9460554017693
 30
0.0
 10
814.2556357312152
 20
950.9808998426955
 30
0.0
 10
815.645896069229
 20
951.3695739494151
 30
0.0
 10
818.3433299804072
 20
951.945210547522
 30
0.0
 10
821.4758191811347
 20
952.2600765682051
 30
0.0
 10
823.2997359636803
 20
952.3039159088079
 30
0.0
 10
823.7866799637093
 20
952.3055877364013
 30
0.0
 10
823.7866999615273
 20
952.30558780506
 30
0.0
  0
ARC
  5
19A
330
1F
100
AcDbEntity
  8
0
  6
Continuous
 62
     8
370
    18
100
AcDbCircle
 10
807.9685322673
 20
915.6101331677
 30
0.0
 40
3.541946015257492
100
AcDbArc
 50
94.7268731721
 51
123.1118118866
  0
LINE
  5
19B
330
1F
100
AcDbEntity
  8
0
  6
Continuous
 62
     8
370
    18
100
AcDbLine
 10
860.710191214
 20
943.8747768334
 30
0.0
 11
866.8316306328
 21
943.8747768334
 31
0.0
  0
LINE
  5
19C
330
1F
100
AcDbEntity
  8
0
  6
Continuous
 62
     8
370
    18
100
AcDbLine
 10
860.6082469258
 20
923.2642191685
 30
0.0
 11
866.8999333957
 21
923.2642191685
 31
0.0
  0
LINE
  5
19D
330
1F
100
AcDbEntity
  8
0
  6
Continuous
 62
     8
370
    18
100
AcDbLine
 10
786.863208709
 20
943.8747768334
 30
0.0
 11
780.7417692903
 21
943.8747768334
 31
0.0
  0
LINE
  5
19E
330
1F
100
AcDbEntity
  8
0
  6
Continuous
 62
     8
370
    18
100
AcDbLine
 10
786.9651529972
 20
923.2642191685
 30
0.0
 11
780.6734665273
 21
923.2642191685
 31
0.0
  0
SPLINE
  5
19F
330
1F
100
AcDbEntity
  8
0
  6
Continuous
 62
     8
370
    18
100
AcDbSpline
210
0.0
220
0.0
230
1.0
 70
     8
 71
     3
 72
    11
 73
     7
 74
     0
 42
0.000000001
 43
0.00000001
 40
0.0
 40
0.0
 40
0.0
 40
0.0
 40
0.2462626445433189
 40
0.4941955352616855
 40
0.7464627646446217
 40
1.0
 40
1.0
 40
1.0
 40
1.0
 10
789.732673800383
 20
918.6346381047181
 30
0.0
 10
789.8027429958407
 20
919.0178876195631
 30
0.0
 10
789.9433566224777
 20
919.7869859920705
 30
0.0
 10
790.0655661138826
 20
921.0134229589675
 30
0.0
 10
790.1512684019671
 20
922.2864640174695
 30
0.0
 10
790.1745309535588
 20
923.1690456159278
 30
0.0
 10
790.1861914339006
 20
923.6114444361208
 30
0.0
  0
SPLINE
  5
1A0
330
1F
100
AcDbEntity
  8
0
  6
Continuous
 62
     8
370
    18
100
AcDbSpline
210
0.0
220
0.0
230
1.0
 70
     8
 71
     3
 72
    12
 73
     8
 74
     0
 42
0.000000001
 43
0.00000001
 40
0.0
 40
0.0
 40
0.0
 40
0.0
 40
0.1229311840443857
 40
0.3421870394857947
 40
0.5614466570298305
 40
0.7807202463634116
 40
1.0
 40
1.0
 40
1.0
 40
1.0
 10
790.2871742108133
 20
943.2757060624626
 30
0.0
 10
790.2857034650317
 20
943.3876022090595
 30
0.0
 10
790.2816095473754
 20
943.6990724957203
 30
0.0
 10
790.2753701591198
 20
944.2090475452441
 30
0.0
 10
790.2675108701014
 20
944.8053416740889
 30
0.0
 10
790.2596613485995
 20
945.4002768582885
 30
0.0
 10
790.2545998985626
 20
945.7954599284209
 30
0.0
 10
790.2520691379723
 20
945.9930542408325
 30
0.0
  0
SPLINE
  5
1A1
330
1F
100
AcDbEntity
  8
0
  6
Continuous
 62
     8
370
    18
100
AcDbSpline
210
0.0
220
0.0
230
1.0
 70
     8
 71
     3
 72
    13
 73
     9
 74
     0
 42
0.000000001
 43
0.00000001
 40
0.0
 40
0.0
 40
0.0
 40
0.0
 40
0.2367907207557268
 40
0.472725167798616
 40
0.6779786081237332
 40
0.8068813697292118
 40
0.9029811039670015
 40
0.9999999999999999
 40
0.9999999999999999
 40
0.9999999999999999
 40
0.9999999999999999
 10
790.2520691379723
 20
945.9930542408325
 30
0.0
 10
790.2355880018209
 20
946.4774785407213
 30
0.0
 10
790.2026853279839
 20
947.4445753835358
 30
0.0
 10
789.916648671325
 20
948.7957437326469
 30
0.0
 10
789.4057906765242
 20
949.8662320163991
 30
0.0
 10
788.725283833677
 20
950.5052215367733
 30
0.0
 10
788.0596606281147
 20
950.8250779517
 30
0.0
 10
787.6098129040281
 20
950.8643474222151
 30
0.0
 10
787.3838185009367
 20
950.8840756103856
 30
0.0
  0
SPLINE
  5
1A2
330
1F
100
AcDbEntity
  8
0
  6
Continuous
 62
     8
370
    18
100
AcDbSpline
210
0.0
220
0.0
230
1.0
 70
     8
 71
     3
 72
    11
 73
     7
 74
     0
 42
0.000000001
 43
0.00000001
 40
0.0
 40
0.0
 40
0.0
 40
0.0
 40
0.2499912677933776
 40
0.499986756231606
 40
0.749992678491824
 40
0.9999999999999999
 40
0.9999999999999999
 40
0.9999999999999999
 40
0.9999999999999999
 10
787.3838185009367
 20
950.8840756103856
 30
0.0
 10
786.791328443514
 20
950.8895734653131
 30
0.0
 10
785.6063383255583
 20
950.9005692679892
 30
0.0
 10
783.8289803132543
 20
950.9219262577215
 30
0.0
 10
782.051788754072
 20
950.9487991773019
 30
0.0
 10
780.8670203133232
 20
950.9657491080416
 30
0.0
 10
780.274634435208
 20
950.974224097128
 30
0.0
  0
SPLINE
  5
1A3
330
1F
100
AcDbEntity
  8
0
  6
Continuous
 62
     8
370
    18
100
AcDbSpline
210
0.0
220
0.0
230
1.0
 70
     8
 71
     3
 72
    10
 73
     6
 74
     0
 42
0.000000001
 43
0.00000001
 40
0.0
 40
0.0
 40
0.0
 40
0.0
 40
0.4993573099105828
 40
0.9998128115878191
 40
0.9999999999999999
 40
0.9999999999999999
 40
0.9999999999999999
 40
0.9999999999999999
 10
780.274634435208
 20
950.974224097128
 30
0.0
 10
780.2212774310115
 20
950.9741474770277
 30
0.0
 10
780.1144460793424
 20
950.9739940683233
 30
0.0
 10
780.0076930540404
 20
950.968379326806
 30
0.0
 10
779.9543571795424
 20
950.9646143419365
 30
0.0
 10
779.9543372374602
 20
950.9646129342229
 30
0.0
  0
SPLINE
  5
1A4
330
1F
100
AcDbEntity
  8
0
  6
Continuous
 62
     8
370
    18
100
AcDbSpline
210
0.0
220
0.0
230
1.0
 70
     8
 71
     3
 72
    14
 73
    10
 74
     0
 42
0.000000001
 43
0.00000001
 40
0.0
 40
0.0
 40
0.0
 40
0.0
 40
0.0000086772972158
 40
0.0546554576672727
 40
0.1545956188497727
 40
0.2815115513695397
 40
0.4757791841528837
 40
0.7372214479202449
 40
1.0
 40
1.0
 40
1.0
 40
1.0
 10
779.9543372374602
 20
950.9646129342229
 30
0.0
 10
779.9543173945729
 20
950.9646108133895
 30
0.0
 10
779.8293335359878
 20
950.9512523780002
 30
0.0
 10
779.478876631788
 20
950.8868511737301
 30
0.0
 10
778.8886624808664
 20
950.6308649884858
 30
0.0
 10
778.2066588497306
 20
950.0149283848343
 30
0.0
 10
777.6559319339715
 20
948.9392543385572
 30
0.0
 10
777.3484952763786
 20
947.5184383141205
 30
0.0
 10
777.3184935030044
 20
946.4594246526497
 30
0.0
 10
777.3034543776421
 20
945.9285680590513
 30
0.0
  0
SPLINE
  5
1A5
330
1F
100
AcDbEntity
  8
0
  6
Continuous
 62
     8
370
    18
100
AcDbSpline
210
0.0
220
0.0
230
1.0
 70
     8
 71
     3
 72
    10
 73
     6
 74
     0
 42
0.000000001
 43
0.00000001
 40
0.0
 40
0.0
 40
0.0
 40
0.0
 40
0.4999712442950933
 40
0.7499826264318604
 40
1.0
 40
1.0
 40
1.0
 40
1.0
 10
777.3034543776421
 20
945.9285680590513
 30
0.0
 10
777.2989513391606
 20
945.4791261023051
 30
0.0
 10
777.2921965494284
 20
944.8049400106144
 30
0.0
 10
777.2830220597987
 20
943.9009639477672
 30
0.0
 10
777.2785878883229
 20
943.4476487529379
 30
0.0
 10
777.2763707760195
 20
943.2209884396727
 30
0.0
  0
SPLINE
  5
1A6
330
1F
100
AcDbEntity
  8
0
  6
Continuous
 62
     8
370
    18
100
AcDbSpline
210
0.0
220
0.0
230
1.0
 70
     8
 71
     3
 72
    11
 73
     7
 74
     0
 42
0.000000001
 43
0.00000001
 40
0.0
 40
0.0
 40
0.0
 40
0.0
 40
0.2471593440128853
 40
0.4953474341907638
 40
0.746978390568942
 40
1.0
 40
1.0
 40
1.0
 40
1.0
 10
777.3384703015776
 20
923.6823476789189
 30
0.0
 10
777.3474852327648
 20
923.2449337128884
 30
0.0
 10
777.3655526177989
 20
922.368285141831
 30
0.0
 10
777.4381006227135
 20
921.0862229340187
 30
0.0
 10
777.5449029061969
 20
919.8267471809942
 30
0.0
 10
777.6748556471258
 20
919.0240370804853
 30
0.0
 10
777.740011070654
 20
918.6215760304526
 30
0.0
  0
SPLINE
  5
1A7
330
1F
100
AcDbEntity
  8
0
  6
Continuous
 62
     8
370
    18
100
AcDbSpline
210
0.0
220
0.0
230
1.0
 70
     8
 71
     3
 72
    18
 73
    14
 74
     0
 42
0.000000001
 43
0.00000001
 40
0.0
 40
0.0
 40
0.0
 40
0.0
 40
0.0523730000254506
 40
0.1524774488988087
 40
0.2527454654215874
 40
0.3528294914886487
 40
0.4529446917616018
 40
0.5565696869728506
 40
0.6602042581553617
 40
0.7756279704749326
 40
0.8910143299899644
 40
0.9999989407468236
 40
1.0
 40
1.0
 40
1.0
 40
1.0
 10
777.7400110706538
 20
918.6215760304526
 30
0.0
 10
776.7513825402401
 20
918.6269984325659
 30
0.0
 10
773.8731140401961
 20
918.6427850791342
 30
0.0
 10
769.1097372979465
 20
918.5191867792728
 30
0.0
 10
763.6744805627819
 20
918.2533911809356
 30
0.0
 10
758.5672289450869
 20
918.1681459284858
 30
0.0
 10
753.8527657563292
 20
918.067072573167
 30
0.0
 10
749.6456862830686
 20
917.982234197895
 30
0.0
 10
745.9008680789115
 20
917.9045371132718
 30
0.0
 10
742.8641303176289
 20
917.8504751785574
 30
0.0
 10
740.7682311194548
 20
917.80519559384
 30
0.0
 10
740.1041909734968
 20
917.7644612149551
 30
0.0
 10
739.9558632150203
 20
917.7471694582957
 30
0.0
 10
739.9558617733935
 20
917.7471692902337
 30
0.0
  0
SPLINE
  5
1A8
330
1F
100
AcDbEntity
  8
0
  6
Continuous
 62
     8
370
    18
100
AcDbSpline
210
0.0
220
0.0
230
1.0
 70
    24
 71
     3
 72
    13
 73
     9
 74
     0
 42
0.000000001
 43
0.00000001
 40
0.0
 40
0.0
 40
0.0
 40
0.0
 40
0.011033813517655
 40
0.1238791831256935
 40
0.2424431658814008
 40
0.3676203809258458
 40
0.4940963046860048
 40
1.0
 40
1.0
 40
1.0
 40
1.0
 10
823.7866999615273
 20
952.3055878050698
 30
0.0
 10
823.7866999615273
 20
952.3205639433068
 30
0.0
 10
823.7866999615273
 20
952.4887045202904
 30
0.0
 10
823.7866999615273
 20
952.7911087587273
 30
0.0
 10
823.7866999615273
 20
953.1177158228418
 30
0.0
 10
823.7866999615273
 20
953.9934349107381
 30
0.0
 10
823.7866999615273
 20
955.6004942246705
 30
0.0
 10
823.7866999615273
 20
956.9807882073511
 30
0.0
 10
823.7866999615273
 20
958.085023393615
 30
0.0
  0
SPLINE
  5
1A9
330
1F
100
AcDbEntity
  8
0
  6
Continuous
 62
     8
370
    18
100
AcDbSpline
210
0.0
220
0.0
230
1.0
 70
     8
 71
     3
 72
    10
 73
     6
 74
     0
 42
0.000000001
 43
0.00000001
 40
0.0
 40
0.0
 40
0.0
 40
0.0
 40
0.1324174185454049
 40
0.566189053550618
 40
1.0
 40
1.0
 40
1.0
 40
1.0
 10
806.033656946055
 20
918.5768888142326
 30
0.0
 10
805.3142050164802
 20
918.5784990023931
 30
0.0
 10
802.2379797618595
 20
918.5853838285788
 30
0.0
 10
796.8043756859223
 20
918.6093721166019
 30
0.0
 10
792.0899789676484
 20
918.6262158542746
 30
0.0
 10
789.732673800383
 20
918.6346381047181
 30
0.0
  0
SPLINE
  5
1AA
330
1F
100
AcDbEntity
  8
0
  6
Continuous
 62
     8
370
    18
100
AcDbSpline
210
0.0
220
0.0
230
1.0
 70
     8
 71
     3
 72
    13
 73
     9
 74
     0
 42
0.000000001
 43
0.00000001
 40
0.0
 40
0.0
 40
0.0
 40
0.0
 40
0.0000053737334978
 40
0.0906707942514912
 40
0.4284179505337227
 40
0.7661993120302169
 40
0.9999947023277419
 40
1.0
 40
1.0
 40
1.0
 40
1.0
 10
905.9828982381972
 20
942.245875750387
 30
0.0
 10
905.9828959618133
 20
942.2458928855057
 30
0.0
 10
905.9444866250778
 20
942.5350130703406
 30
0.0
 10
905.7774276312756
 20
943.8858826455391
 30
0.0
 10
905.6359627288833
 20
946.1666226652575
 30
0.0
 10
905.7397843094808
 20
948.5339785327286
 30
0.0
 10
905.9277899820205
 20
949.7948446973396
 30
0.0
 10
906.0145098982449
 20
950.2670708330305
 30
0.0
 10
906.014511863225
 20
950.2670815331671
 30
0.0
  0
SPLINE
  5
1AB
330
1F
100
AcDbEntity
  8
0
  6
Continuous
 62
     8
370
    18
100
AcDbSpline
210
0.0
220
0.0
230
1.0
 70
     8
 71
     3
 72
    16
 73
    12
 74
     0
 42
0.000000001
 43
0.00000001
 40
0.0
 40
0.0
 40
0.0
 40
0.0
 40
0.1413878465932815
 40
0.282774501414807
 40
0.4197422161094511
 40
0.5565426439818638
 40
0.6823117952647065
 40
0.80811275117892
 40
0.904027607112817
 40
0.9999977541095809
 40
1.0
 40
1.0
 40
1.0
 40
1.0
 10
902.7894259348587
 20
917.8841372901576
 30
0.0
 10
903.0759074693052
 20
918.8302591538378
 30
0.0
 10
903.6488681234177
 20
920.7224949062457
 30
0.0
 10
904.5805468860304
 20
923.9598142617989
 30
0.0
 10
905.4373813111329
 20
927.3898249489325
 30
0.0
 10
906.1013719731075
 20
930.8748999372042
 30
0.0
 10
906.4357883064774
 20
934.3354207350561
 30
0.0
 10
906.4429625797893
 20
937.3765374596542
 30
0.0
 10
906.2408913029896
 20
940.014180539971
 30
0.0
 10
906.0705662404093
 20
941.5193170412256
 30
0.0
 10
905.9829002897051
 20
942.2458587482784
 30
0.0
 10
905.9828982381972
 20
942.245875750387
 30
0.0
  0
SPLINE
  5
1AC
330
1F
100
AcDbEntity
  8
0
  6
Continuous
 62
     8
370
    18
100
AcDbSpline
210
0.0
220
0.0
230
1.0
 70
     8
 71
     3
 72
    15
 73
    11
 74
     0
 42
0.000000001
 43
0.00000001
 40
0.0
 40
0.0
 40
0.0
 40
0.0
 40
0.0741043092108414
 40
0.2157454416471949
 40
0.357618011420796
 40
0.499230246945534
 40
0.6408865918967264
 40
0.7875090630818133
 40
0.9341450836288824
 40
1.0
 40
1.0
 40
1.0
 40
1.0
 10
869.8333888524015
 20
918.621576030453
 30
0.0
 10
870.8220182671591
 20
918.626998442407
 30
0.0
 10
873.7002893418606
 20
918.6427851176257
 30
0.0
 10
878.4636330769284
 20
918.5191864504616
 30
0.0
 10
883.8990279642742
 20
918.2533923894779
 30
0.0
 10
889.0057669353245
 20
918.1681414323115
 30
0.0
 10
893.722164906537
 20
918.0670896071936
 30
0.0
 10
897.9217772734644
 20
917.9821681381873
 30
0.0
 10
900.8901289836416
 20
917.9213114905732
 30
0.0
 10
902.3400639615861
 20
917.8929324772625
 30
0.0
 10
902.7894259348587
 20
917.8841372901576
 30
0.0
  0
SPLINE
  5
1AD
330
1F
100
AcDbEntity
  8
0
  6
Continuous
 62
     8
370
    18
100
AcDbSpline
210
0.0
220
0.0
230
1.0
 70
     8
 71
     3
 72
    11
 73
     7
 74
     0
 42
0.000000001
 43
0.00000001
 40
0.0
 40
0.0
 40
0.0
 40
0.0
 40
0.2471593440107337
 40
0.4953474341893456
 40
0.7469783905682658
 40
1.0
 40
1.0
 40
1.0
 40
1.0
 10
870.2349296214769
 20
923.6823476789034
 30
0.0
 10
870.2259146902896
 20
923.2449337128782
 30
0.0
 10
870.2078473052554
 20
922.368285141826
 30
0.0
 10
870.1352993003411
 20
921.0862229340187
 30
0.0
 10
870.0284970168575
 20
919.8267471809943
 30
0.0
 10
869.8985442759292
 20
919.0240370804855
 30
0.0
 10
869.8333888524015
 20
918.621576030453
 30
0.0
  0
SPLINE
  5
1AE
330
1F
100
AcDbEntity
  8
0
  6
Continuous
 62
     8
370
    18
100
AcDbSpline
210
0.0
220
0.0
230
1.0
 70
     8
 71
     3
 72
    10
 73
     6
 74
     0
 42
0.000000001
 43
0.00000001
 40
0.0
 40
0.0
 40
0.0
 40
0.0
 40
0.4999712442949195
 40
0.7499826264315987
 40
1.0
 40
1.0
 40
1.0
 40
1.0
 10
870.2699455454127
 20
945.9285680590513
 30
0.0
 10
870.2744485838941
 20
945.4791261023051
 30
0.0
 10
870.2812033736262
 20
944.8049400106144
 30
0.0
 10
870.2903778632559
 20
943.9009639477667
 30
0.0
 10
870.2948120347318
 20
943.4476487529374
 30
0.0
 10
870.2970291470352
 20
943.2209884396718
 30
0.0
  0
SPLINE
  5
1AF
330
1F
100
AcDbEntity
  8
0
  6
Continuous
 62
     8
370
    18
100
AcDbSpline
210
0.0
220
0.0
230
1.0
 70
     8
 71
     3
 72
    14
 73
    10
 74
     0
 42
0.000000001
 43
0.00000001
 40
0.0
 40
0.0
 40
0.0
 40
0.0
 40
0.0000086772971397
 40
0.0546554576672009
 40
0.1545956188497086
 40
0.2815115513694853
 40
0.4757791841528443
 40
0.7372214479202256
 40
1.0
 40
1.0
 40
1.0
 40
1.0
 10
867.6190626855949
 20
950.9646129342228
 30
0.0
 10
867.6190825284822
 20
950.9646108133895
 30
0.0
 10
867.7440663870642
 20
950.9512523779373
 30
0.0
 10
868.0945232912691
 20
950.8868511737842
 30
0.0
 10
868.6847374421872
 20
950.6308649884628
 30
0.0
 10
869.3667410733244
 20
950.014928384845
 30
0.0
 10
869.9174679890829
 20
948.9392543385525
 30
0.0
 10
870.224904646676
 20
947.5184383141218
 30
0.0
 10
870.2549064200502
 20
946.45942465265
 30
0.0
 10
870.2699455454127
 20
945.9285680590513
 30
0.0
  0
SPLINE
  5
1B0
330
1F
100
AcDbEntity
  8
0
  6
Continuous
 62
     8
370
    18
100
AcDbSpline
210
0.0
220
0.0
230
1.0
 70
     8
 71
     3
 72
    10
 73
     6
 74
     0
 42
0.000000001
 43
0.00000001
 40
0.0
 40
0.0
 40
0.0
 40
0.0
 40
0.4993573099097663
 40
0.9998128115861746
 40
0.9999999999999999
 40
0.9999999999999999
 40
0.9999999999999999
 40
0.9999999999999999
 10
867.2987654878467
 20
950.974224097128
 30
0.0
 10
867.3521224920426
 20
950.9741474770287
 30
0.0
 10
867.4589538437106
 20
950.9739940683269
 30
0.0
 10
867.5657068690184
 20
950.9683793267973
 30
0.0
 10
867.6190427435126
 20
950.9646143419365
 30
0.0
 10
867.6190626855949
 20
950.9646129342228
 30
0.0
  0
SPLINE
  5
1B1
330
1F
100
AcDbEntity
  8
0
  6
Continuous
 62
     8
370
    18
100
AcDbSpline
210
0.0
220
0.0
230
1.0
 70
     8
 71
     3
 72
    11
 73
     7
 74
     0
 42
0.000000001
 43
0.00000001
 40
0.0
 40
0.0
 40
0.0
 40
0.0
 40
0.2499912677933776
 40
0.499986756231606
 40
0.749992678491824
 40
0.9999999999999999
 40
0.9999999999999999
 40
0.9999999999999999
 40
0.9999999999999999
 10
860.189581422118
 20
950.8840756103856
 30
0.0
 10
860.7820714795407
 20
950.8895734653131
 30
0.0
 10
861.9670615974962
 20
950.9005692679892
 30
0.0
 10
863.7444196098003
 20
950.9219262577215
 30
0.0
 10
865.5216111689825
 20
950.9487991773019
 30
0.0
 10
866.7063796097315
 20
950.9657491080416
 30
0.0
 10
867.2987654878467
 20
950.974224097128
 30
0.0
  0
SPLINE
  5
1B2
330
1F
100
AcDbEntity
  8
0
  6
Continuous
 62
     8
370
    18
100
AcDbSpline
210
0.0
220
0.0
230
1.0
 70
     8
 71
     3
 72
    13
 73
     9
 74
     0
 42
0.000000001
 43
0.00000001
 40
0.0
 40
0.0
 40
0.0
 40
0.0
 40
0.2367907207557286
 40
0.4727251677986172
 40
0.6779786081237339
 40
0.8068813697292122
 40
0.9029811039670017
 40
0.9999999999999999
 40
0.9999999999999999
 40
0.9999999999999999
 40
0.9999999999999999
 10
857.3213307850822
 20
945.9930542408325
 30
0.0
 10
857.3378119212335
 20
946.4774785407213
 30
0.0
 10
857.3707145950707
 20
947.4445753835358
 30
0.0
 10
857.6567512517297
 20
948.7957437326469
 30
0.0
 10
858.1676092465304
 20
949.8662320163991
 30
0.0
 10
858.8481160893775
 20
950.5052215367733
 30
0.0
 10
859.5137392949399
 20
950.8250779517
 30
0.0
 10
859.9635870190266
 20
950.8643474222151
 30
0.0
 10
860.189581422118
 20
950.8840756103856
 30
0.0
  0
SPLINE
  5
1B3
330
1F
100
AcDbEntity
  8
0
  6
Continuous
 62
     8
370
    18
100
AcDbSpline
210
0.0
220
0.0
230
1.0
 70
     8
 71
     3
 72
    12
 73
     8
 74
     0
 42
0.000000001
 43
0.00000001
 40
0.0
 40
0.0
 40
0.0
 40
0.0
 40
0.1229311840443849
 40
0.3421870394857948
 40
0.5614466570298317
 40
0.7807202463634136
 40
1.0
 40
1.0
 40
1.0
 40
1.0
 10
857.2862257122414
 20
943.2757060624626
 30
0.0
 10
857.287696458023
 20
943.3876022090595
 30
0.0
 10
857.2917903756793
 20
943.6990724957203
 30
0.0
 10
857.2980297639349
 20
944.2090475452441
 30
0.0
 10
857.3058890529533
 20
944.8053416740889
 30
0.0
 10
857.3137385744552
 20
945.4002768582885
 30
0.0
 10
857.3188000244919
 20
945.7954599284209
 30
0.0
 10
857.3213307850822
 20
945.9930542408325
 30
0.0
  0
SPLINE
  5
1B4
330
1F
100
AcDbEntity
  8
0
  6
Continuous
 62
     8
370
    18
100
AcDbSpline
210
0.0
220
0.0
230
1.0
 70
     8
 71
     3
 72
    11
 73
     7
 74
     0
 42
0.000000001
 43
0.00000001
 40
0.0
 40
0.0
 40
0.0
 40
0.0
 40
0.2462626445433925
 40
0.494195535261734
 40
0.746462764644647
 40
1.0
 40
1.0
 40
1.0
 40
1.0
 10
857.8407261226715
 20
918.6346381047176
 30
0.0
 10
857.7706569272141
 20
919.0178876195629
 30
0.0
 10
857.630043300577
 20
919.7869859920704
 30
0.0
 10
857.507833809172
 20
921.0134229589675
 30
0.0
 10
857.4221315210876
 20
922.2864640174695
 30
0.0
 10
857.3988689694958
 20
923.1690456159278
 30
0.0
 10
857.3872084891537
 20
923.6114444361208
 30
0.0
  0
SPLINE
  5
1B5
330
1F
100
AcDbEntity
  8
0
  6
Continuous
 62
     8
370
    18
100
AcDbSpline
210
0.0
220
0.0
230
1.0
 70
     8
 71
     3
 72
    10
 73
     6
 74
     0
 42
0.000000001
 43
0.00000001
 40
0.0
 40
0.0
 40
0.0
 40
0.0
 40
0.1324174185454166
 40
0.5661890535506258
 40
1.0
 40
1.0
 40
1.0
 40
1.0
 10
841.5397429769994
 20
918.5768888142327
 30
0.0
 10
842.2591949065743
 20
918.5784990023932
 30
0.0
 10
845.3354201611951
 20
918.5853838285786
 30
0.0
 10
850.7690242371323
 20
918.6093721166023
 30
0.0
 10
855.4834209554064
 20
918.6262158542744
 30
0.0
 10
857.8407261226715
 20
918.6346381047176
 30
0.0
  0
SPLINE
  5
1B6
330
1F
100
AcDbEntity
  8
0
  6
Continuous
 62
     8
370
    18
100
AcDbSpline
210
0.0
220
0.0
230
1.0
 70
     8
 71
     3
 72
    11
 73
     7
 74
     0
 42
0.000000001
 43
0.00000001
 40
0.0
 40
0.0
 40
0.0
 40
0.0
 40
0.0000075172908922
 40
0.4486753649769363
 40
0.9105406426921417
 40
1.0
 40
1.0
 40
1.0
 40
1.0
 10
906.014511863225
 20
950.2670815331671
 30
0.0
 10
906.0145155173454
 20
950.2670897173758
 30
0.0
 10
906.2326145478966
 20
950.755570592954
 30
0.0
 10
906.5463988310321
 20
951.541790043457
 30
0.0
 10
906.6725877147637
 20
952.0137297229135
 30
0.0
 10
906.7167589584643
 20
952.1578921487339
 30
0.0
 10
906.7239262983979
 20
952.1812843157851
 30
0.0
  0
SPLINE
  5
1B7
330
1F
100
AcDbEntity
  8
0
  6
Continuous
 62
     8
370
    18
100
AcDbSpline
210
0.0
220
0.0
230
1.0
 70
     8
 71
     3
 72
    13
 73
     9
 74
     0
 42
0.000000001
 43
0.00000001
 40
0.0
 40
0.0
 40
0.0
 40
0.0
 40
0.2478822118510326
 40
0.5026960354996697
 40
0.5906876656854327
 40
0.6789803873276657
 40
0.8384693780655398
 40
1.0
 40
1.0
 40
1.0
 40
1.0
 10
860.608246925829
 20
923.2642191685245
 30
0.0
 10
860.5931736420112
 20
922.5165106907832
 30
0.0
 10
860.5626055751836
 20
921.0001853172791
 30
0.0
 10
860.4530368237577
 20
919.3953675104516
 30
0.0
 10
860.3398531683334
 20
918.317075157374
 30
0.0
 10
860.2373820206591
 20
917.5201524391003
 30
0.0
 10
860.0734320902251
 20
916.6163840512833
 30
0.0
 10
859.8810626927221
 20
916.019174458174
 30
0.0
 10
859.7842662753283
 20
915.7186705849149
 30
0.0
  0
SPLINE
  5
1B8
330
1F
100
AcDbEntity
  8
0
  6
Continuous
 62
     8
370
    18
100
AcDbSpline
210
0.0
220
0.0
230
1.0
 70
     8
 71
     3
 72
    17
 73
    13
 74
     0
 42
0.000000001
 43
0.00000001
 40
0.0
 40
0.0
 40
0.0
 40
0.0
 40
0.3465956100132825
 40
0.5797997290136739
 40
0.7338947238710104
 40
0.8810219207410025
 40
0.9331891565949331
 40
0.9524593563030792
 40
0.9753918570412516
 40
0.9867243403144461
 40
0.9980977605384078
 40
0.9999999999999999
 40
0.9999999999999999
 40
0.9999999999999999
 40
0.9999999999999999
 10
859.3495581880414
 20
918.6160392744238
 30
0.0
 10
859.359575211088
 20
918.2353783179109
 30
0.0
 10
859.3763321089831
 20
917.5985926430326
 30
0.0
 10
859.3941264790643
 20
916.8643284227142
 30
0.0
 10
859.4292194993495
 20
916.3560193111614
 30
0.0
 10
859.4779192650357
 20
916.0356762735818
 30
0.0
 10
859.560276675658
 20
915.8483778089436
 30
0.0
 10
859.6203129517042
 20
915.7748266968066
 30
0.0
 10
859.6696848370333
 20
915.7377764353322
 30
0.0
 10
859.7279921771291
 20
915.7196368050306
 30
0.0
 10
859.763166840759
 20
915.7173593402952
 30
0.0
 10
859.7816218924223
 20
915.7185062472003
 30
0.0
 10
859.7842662753283
 20
915.7186705849149
 30
0.0
  0
SPLINE
  5
1B9
330
1F
100
AcDbEntity
  8
0
  6
Continuous
 62
     8
370
    18
100
AcDbSpline
210
0.0
220
0.0
230
1.0
 70
     8
 71
     3
 72
    11
 73
     7
 74
     0
 42
0.000000001
 43
0.00000001
 40
0.0
 40
0.0
 40
0.0
 40
0.0
 40
0.3674155899718522
 40
0.7400731437703099
 40
0.8699218969645791
 40
1.0
 40
1.0
 40
1.0
 40
1.0
 10
859.3259954699478
 20
923.4306791600873
 30
0.0
 10
859.3263665379864
 20
922.8036420310168
 30
0.0
 10
859.327113968137
 20
921.540621756326
 30
0.0
 10
859.3295151186315
 20
920.1529505188854
 30
0.0
 10
859.3379885704505
 20
919.1889458723974
 30
0.0
 10
859.3456993809332
 20
918.8071204432922
 30
0.0
 10
859.3495581880414
 20
918.6160392744238
 30
0.0
  0
SPLINE
  5
1BA
330
1F
100
AcDbEntity
  8
0
  6
Continuous
 62
     8
370
    18
100
AcDbSpline
210
0.0
220
0.0
230
1.0
 70
     8
 71
     3
 72
    11
 73
     7
 74
     0
 42
0.000000001
 43
0.00000001
 40
0.0
 40
0.0
 40
0.0
 40
0.0
 40
0.3674155899718519
 40
0.7400731437703092
 40
0.8699218969645783
 40
1.0
 40
1.0
 40
1.0
 40
1.0
 10
788.2474044531068
 20
923.4306791600873
 30
0.0
 10
788.2470333850683
 20
922.8036420310168
 30
0.0
 10
788.2462859549177
 20
921.540621756326
 30
0.0
 10
788.243884804423
 20
920.1529505188854
 30
0.0
 10
788.2354113526042
 20
919.1889458723974
 30
0.0
 10
788.2277005421215
 20
918.8071204432922
 30
0.0
 10
788.2238417350133
 20
918.6160392744238
 30
0.0
  0
SPLINE
  5
1BB
330
1F
100
AcDbEntity
  8
0
  6
Continuous
 62
     8
370
    18
100
AcDbSpline
210
0.0
220
0.0
230
1.0
 70
     8
 71
     3
 72
    17
 73
    13
 74
     0
 42
0.000000001
 43
0.00000001
 40
0.0
 40
0.0
 40
0.0
 40
0.0
 40
0.3465956100132816
 40
0.5797997290136745
 40
0.73389472387101
 40
0.8810219207410023
 40
0.9331891565949327
 40
0.952459356303079
 40
0.9753918570412521
 40
0.9867243403144461
 40
0.9980977605384078
 40
1.0
 40
1.0
 40
1.0
 40
1.0
 10
788.2238417350133
 20
918.6160392744238
 30
0.0
 10
788.2138247119666
 20
918.2353783179109
 30
0.0
 10
788.1970678140715
 20
917.5985926430325
 30
0.0
 10
788.1792734439902
 20
916.8643284227142
 30
0.0
 10
788.144180423705
 20
916.3560193111614
 30
0.0
 10
788.095480658019
 20
916.0356762735817
 30
0.0
 10
788.0131232473965
 20
915.8483778089436
 30
0.0
 10
787.9530869713503
 20
915.7748266968066
 30
0.0
 10
787.9037150860213
 20
915.7377764353322
 30
0.0
 10
787.8454077459255
 20
915.7196368050306
 30
0.0
 10
787.8102330822954
 20
915.717359340295
 30
0.0
 10
787.7917780306324
 20
915.7185062472003
 30
0.0
 10
787.7891336477263
 20
915.7186705849149
 30
0.0
  0
SPLINE
  5
1BC
330
1F
100
AcDbEntity
  8
0
  6
Continuous
 62
     8
370
    18
100
AcDbSpline
210
0.0
220
0.0
230
1.0
 70
     8
 71
     3
 72
    13
 73
     9
 74
     0
 42
0.000000001
 43
0.00000001
 40
0.0
 40
0.0
 40
0.0
 40
0.0
 40
0.2478822118510325
 40
0.5026960354996697
 40
0.5906876656854333
 40
0.6789803873276659
 40
0.8384693780655399
 40
1.0
 40
1.0
 40
1.0
 40
1.0
 10
786.9651529972256
 20
923.2642191685245
 30
0.0
 10
786.9802262810435
 20
922.5165106907832
 30
0.0
 10
787.0107943478711
 20
921.0001853172791
 30
0.0
 10
787.120363099297
 20
919.3953675104516
 30
0.0
 10
787.2335467547211
 20
918.317075157374
 30
0.0
 10
787.3360179023955
 20
917.5201524391003
 30
0.0
 10
787.4999678328295
 20
916.6163840512833
 30
0.0
 10
787.6923372303326
 20
916.019174458174
 30
0.0
 10
787.7891336477263
 20
915.7186705849149
 30
0.0
  0
SPLINE
  5
1BD
330
1F
100
AcDbEntity
  8
0
  6
Continuous
 62
     8
370
    18
100
AcDbSpline
210
0.0
220
0.0
230
1.0
 70
     8
 71
     3
 72
    11
 73
     7
 74
     0
 42
0.000000001
 43
0.00000001
 40
0.0
 40
0.0
 40
0.0
 40
0.0
 40
0.3598580230790381
 40
0.7246062069006076
 40
0.8621677510649506
 40
1.0
 40
1.0
 40
1.0
 40
1.0
 10
868.2568476221027
 20
918.5446850926625
 30
0.0
 10
868.2600997183545
 20
919.0909814412934
 30
0.0
 10
868.2666481040465
 20
920.1909978356427
 30
0.0
 10
868.2605896010476
 20
921.6259291438665
 30
0.0
 10
868.259474045075
 20
922.7221786808401
 30
0.0
 10
868.2593776954196
 20
923.2042760472334
 30
0.0
 10
868.2593294732375
 20
923.4455616748714
 30
0.0
  0
SPLINE
  5
1BE
330
1F
100
AcDbEntity
  8
0
  6
Continuous
 62
     8
370
    18
100
AcDbSpline
210
0.0
220
0.0
230
1.0
 70
     8
 71
     3
 72
    16
 73
    12
 74
     0
 42
0.000000001
 43
0.00000001
 40
0.0
 40
0.0
 40
0.0
 40
0.0
 40
0.0117733620155408
 40
0.0227113902881393
 40
0.0341085178796155
 40
0.0448724470144665
 40
0.0843977891274208
 40
0.1801725761900126
 40
0.6004756555876865
 40
0.7301077904365088
 40
1.0
 40
1.0
 40
1.0
 40
1.0
 10
867.8189921748415
 20
915.4114019882597
 30
0.0
 10
867.8362532550815
 20
915.4080486208369
 30
0.0
 10
867.8695507218212
 20
915.4015798113139
 30
0.0
 10
867.9240791804596
 20
915.4036433495002
 30
0.0
 10
867.9724901793323
 20
915.417283534372
 30
0.0
 10
868.0444392798942
 20
915.4578614772716
 30
0.0
 10
868.1384479296322
 20
915.5885279673023
 30
0.0
 10
868.2635567544146
 20
916.115916845631
 30
0.0
 10
868.2431253190039
 20
916.7969864419862
 30
0.0
 10
868.2462293695988
 20
917.7275576469166
 30
0.0
 10
868.2525666051291
 20
918.2152395022935
 30
0.0
 10
868.2568476221027
 20
918.5446850926625
 30
0.0
  0
SPLINE
  5
1BF
330
1F
100
AcDbEntity
  8
0
  6
Continuous
 62
     8
370
    18
100
AcDbSpline
210
0.0
220
0.0
230
1.0
 70
     8
 71
     3
 72
    12
 73
     8
 74
     0
 42
0.000000001
 43
0.00000001
 40
0.0
 40
0.0
 40
0.0
 40
0.0
 40
0.0542100646910311
 40
0.3612059465304472
 40
0.5267652948496011
 40
0.7633787062243824
 40
1.0
 40
1.0
 40
1.0
 40
1.0
 10
867.8189921748415
 20
915.4114019882597
 30
0.0
 10
867.7802603635984
 20
915.5091652866228
 30
0.0
 10
867.5221872434016
 20
916.1605698721437
 30
0.0
 10
867.2547107057969
 20
917.3236737450358
 30
0.0
 10
867.0535246689943
 20
919.159521682691
 30
0.0
 10
866.9324937284983
 20
920.9985972960948
 30
0.0
 10
866.9107869605131
 20
922.5090034917228
 30
0.0
 10
866.8999333957419
 20
923.2642191685245
 30
0.0
  0
SPLINE
  5
1C0
330
1F
100
AcDbEntity
  8
0
  6
Continuous
 62
     8
370
    18
100
AcDbSpline
210
0.0
220
0.0
230
1.0
 70
     8
 71
     3
 72
    16
 73
    12
 74
     0
 42
0.000000001
 43
0.00000001
 40
0.0
 40
0.0
 40
0.0
 40
0.0
 40
0.0117733620155408
 40
0.0227113902881393
 40
0.0341085178796155
 40
0.0448724470144665
 40
0.0843977891274208
 40
0.1801725761900126
 40
0.6004756555876865
 40
0.7301077904365088
 40
1.0
 40
1.0
 40
1.0
 40
1.0
 10
779.7544077482131
 20
915.4114019882597
 30
0.0
 10
779.7371466679731
 20
915.4080486208369
 30
0.0
 10
779.7038492012334
 20
915.4015798113139
 30
0.0
 10
779.649320742595
 20
915.4036433495002
 30
0.0
 10
779.6009097437224
 20
915.417283534372
 30
0.0
 10
779.5289606431604
 20
915.4578614772716
 30
0.0
 10
779.4349519934224
 20
915.5885279673023
 30
0.0
 10
779.30984316864
 20
916.115916845631
 30
0.0
 10
779.3302746040507
 20
916.7969864419862
 30
0.0
 10
779.3271705534557
 20
917.7275576469166
 30
0.0
 10
779.3208333179255
 20
918.2152395022935
 30
0.0
 10
779.3165523009519
 20
918.5446850926625
 30
0.0
  0
SPLINE
  5
1C1
330
1F
100
AcDbEntity
  8
0
  6
Continuous
 62
     8
370
    18
100
AcDbSpline
210
0.0
220
0.0
230
1.0
 70
     8
 71
     3
 72
    11
 73
     7
 74
     0
 42
0.000000001
 43
0.00000001
 40
0.0
 40
0.0
 40
0.0
 40
0.0
 40
0.3598580230790381
 40
0.7246062069006076
 40
0.8621677510649506
 40
1.0
 40
1.0
 40
1.0
 40
1.0
 10
779.3165523009519
 20
918.5446850926625
 30
0.0
 10
779.3133002047002
 20
919.0909814412934
 30
0.0
 10
779.3067518190082
 20
920.1909978356427
 30
0.0
 10
779.3128103220071
 20
921.6259291438665
 30
0.0
 10
779.3139258779796
 20
922.7221786808401
 30
0.0
 10
779.314022227635
 20
923.2042760472334
 30
0.0
 10
779.3140704498172
 20
923.4455616748714
 30
0.0
  0
SPLINE
  5
1C2
330
1F
100
AcDbEntity
  8
0
  6
Continuous
 62
     8
370
    18
100
AcDbSpline
210
0.0
220
0.0
230
1.0
 70
     8
 71
     3
 72
    12
 73
     8
 74
     0
 42
0.000000001
 43
0.00000001
 40
0.0
 40
0.0
 40
0.0
 40
0.0
 40
0.0542100646910311
 40
0.3612059465304472
 40
0.5267652948496006
 40
0.7633787062243824
 40
1.0
 40
1.0
 40
1.0
 40
1.0
 10
779.7544077482131
 20
915.4114019882597
 30
0.0
 10
779.7931395594562
 20
915.5091652866228
 30
0.0
 10
780.051212679653
 20
916.1605698721437
 30
0.0
 10
780.3186892172577
 20
917.3236737450358
 30
0.0
 10
780.5198752540603
 20
919.159521682691
 30
0.0
 10
780.6409061945562
 20
920.9985972960947
 30
0.0
 10
780.6626129625416
 20
922.5090034917228
 30
0.0
 10
780.6734665273128
 20
923.2642191685245
 30
0.0
  0
LINE
  5
1C3
330
1F
100
AcDbEntity
  8
0
  6
Continuous
 62
     8
370
    18
100
AcDbLine
 10
787.7891336477
 20
915.7186705849
 30
0.0
 11
779.7544077482
 21
915.4114019883
 31
0.0
  0
LINE
  5
1C4
330
1F
100
AcDbEntity
  8
0
  6
Continuous
 62
     8
370
    18
100
AcDbLine
 10
859.7842662753
 20
915.7186705849
 30
0.0
 11
867.8189921748
 21
915.4114019883
 31
0.0
  0
ARC
  5
1C5
330
1F
100
AcDbEntity
  8
0
  6
Continuous
 62
     8
370
    18
100
AcDbCircle
 10
858.5357608096
 20
913.8080207642
 30
0.0
 40
4.876403199925317
100
AcDbArc
 50
80.3932584449
 51
98.1942841503
  0
ARC
  5
1C6
330
1F
100
AcDbEntity
  8
0
  6
Continuous
 62
     8
370
    18
100
AcDbCircle
 10
789.0376391135
 20
913.8080207642
 30
0.0
 40
4.876403199896474
100
AcDbArc
 50
81.8057158496
 51
99.6067415552
  0
ARC
  5
1C7
330
1F
100
AcDbEntity
  8
0
  6
Continuous
 62
     8
370
    18
100
AcDbCircle
 10
869.2725616404
 20
913.9197214154
 30
0.0
 40
4.735183627156942
100
AcDbArc
 50
83.1980176218
 51
102.3864072814
  0
ARC
  5
1C8
330
1F
100
AcDbEntity
  8
0
  6
Continuous
 62
     8
370
    18
100
AcDbCircle
 10
778.3008382827
 20
913.9197214154
 30
0.0
 40
4.735183627175966
100
AcDbArc
 50
77.6135927186
 51
96.8019823782
  0
SPLINE
  5
1C9
330
1F
100
AcDbEntity
  8
0
  6
Continuous
 62
     8
370
    18
100
AcDbSpline
210
0.0
220
0.0
230
1.0
 70
     8
 71
     3
 72
    13
 73
     9
 74
     0
 42
0.000000001
 43
0.00000001
 40
0.0
 40
0.0
 40
0.0
 40
0.0
 40
0.3455606136556853
 40
0.7377948233629059
 40
0.8482878985160514
 40
0.9091433588593542
 40
0.9540191324658096
 40
1.0
 40
1.0
 40
1.0
 40
1.0
 10
777.7400110706538
 20
918.6215760304526
 30
0.0
 10
777.8499989800498
 20
918.1204046843596
 30
0.0
 10
778.0848304596169
 20
917.0503706291082
 30
0.0
 10
778.4346492038442
 20
915.9632704826976
 30
0.0
 10
778.9886083500925
 20
915.3830887349317
 30
0.0
 10
779.2979631109539
 20
915.2237728592072
 30
0.0
 10
779.5567654860814
 20
915.1589712468292
 30
0.0
 10
779.7197783381916
 20
915.158914084189
 30
0.0
 10
779.8022761310349
 20
915.1588851552328
 30
0.0
  0
SPLINE
  5
1CA
330
1F
100
AcDbEntity
  8
0
  6
Continuous
 62
     8
370
    18
100
AcDbSpline
210
0.0
220
0.0
230
1.0
 70
     8
 71
     3
 72
    11
 73
     7
 74
     0
 42
0.000000001
 43
0.00000001
 40
0.0
 40
0.0
 40
0.0
 40
0.0
 40
0.2499068565621712
 40
0.4998445626142471
 40
0.7498974475611084
 40
1.0
 40
1.0
 40
1.0
 40
1.0
 10
779.8022761310349
 20
915.1588851552328
 30
0.0
 10
780.4683113075457
 20
915.1909929873697
 30
0.0
 10
781.8004638785815
 20
915.2552126151611
 30
0.0
 10
783.8015401688159
 20
915.3390862750019
 30
0.0
 10
785.8048453088599
 20
915.4121540971626
 30
0.0
 10
787.1420679799643
 20
915.4481526753772
 30
0.0
 10
787.810745711372
 20
915.466153751888
 30
0.0
  0
SPLINE
  5
1CB
330
1F
100
AcDbEntity
  8
0
  6
Continuous
 62
     8
370
    18
100
AcDbSpline
210
0.0
220
0.0
230
1.0
 70
     8
 71
     3
 72
    14
 73
    10
 74
     0
 42
0.000000001
 43
0.00000001
 40
0.0
 40
0.0
 40
0.0
 40
0.0
 40
0.0519065920714217
 40
0.122235850128214
 40
0.1884605327707527
 40
0.3425806135662292
 40
0.4883356727123482
 40
0.697696101311292
 40
1.0
 40
1.0
 40
1.0
 40
1.0
 10
787.810745711372
 20
915.466153751888
 30
0.0
 10
787.8941950418208
 20
915.473338138597
 30
0.0
 10
788.0907115042389
 20
915.490256791546
 30
0.0
 10
788.3532364023893
 20
915.6038960496952
 30
0.0
 10
788.6679906108349
 20
915.8398338592674
 30
0.0
 10
788.9395572983725
 20
916.212671236577
 30
0.0
 10
789.2104746062903
 20
916.7799027738749
 30
0.0
 10
789.4773842128382
 20
917.5669485189828
 30
0.0
 10
789.6378604708862
 20
918.2381033088176
 30
0.0
 10
789.732673800383
 20
918.6346381047181
 30
0.0
  0
SPLINE
  5
1CC
330
1F
100
AcDbEntity
  8
0
  6
Continuous
 62
     8
370
    18
100
AcDbSpline
210
0.0
220
0.0
230
1.0
 70
     8
 71
     3
 72
     9
 73
     5
 74
     0
 42
0.000000001
 43
0.00000001
 40
0.0
 40
0.0
 40
0.0
 40
0.0
 40
0.0293344768637993
 40
1.0
 40
1.0
 40
1.0
 40
1.0
 10
823.7866999615273
 20
911.635023393615
 30
0.0
 10
823.7786389441894
 20
911.6350196511513
 30
0.0
 10
823.5038422476118
 20
911.6348920721373
 30
0.0
 10
823.2294217475227
 20
911.6600350823018
 30
0.0
 10
822.9630512292443
 20
911.6844405354161
 30
0.0
  0
SPLINE
  5
1CD
330
1F
100
AcDbEntity
  8
0
  6
Continuous
 62
     8
370
    18
100
AcDbSpline
210
0.0
220
0.0
230
1.0
 70
     8
 71
     3
 72
    12
 73
     8
 74
     0
 42
0.000000001
 43
0.00000001
 40
0.0
 40
0.0
 40
0.0
 40
0.0
 40
0.1168311330920578
 40
0.3726334449299154
 40
0.6338270238932939
 40
0.8149152954169141
 40
1.0
 40
1.0
 40
1.0
 40
1.0
 10
822.4213242852579
 20
911.7179190061198
 30
0.0
 10
821.744931198632
 20
911.7471428070288
 30
0.0
 10
819.5875722881644
 20
911.8403522565866
 30
0.0
 10
815.947695129566
 20
912.6499421140721
 30
0.0
 10
812.0513167769991
 20
914.1832227649431
 30
0.0
 10
808.6962490449889
 20
916.1638774365333
 30
0.0
 10
806.927621945218
 20
917.7667205142857
 30
0.0
 10
806.033656946055
 20
918.5768888142326
 30
0.0
  0
SPLINE
  5
1CE
330
1F
100
AcDbEntity
  8
0
  6
Continuous
 62
     8
370
    18
100
AcDbSpline
210
0.0
220
0.0
230
1.0
 70
     8
 71
     3
 72
    14
 73
    10
 74
     0
 42
0.000000001
 43
0.00000001
 40
0.0
 40
0.0
 40
0.0
 40
0.0
 40
0.0519065920714865
 40
0.122235850128282
 40
0.1884605327708238
 40
0.3425806135663084
 40
0.4883356727124333
 40
0.6976961013113879
 40
1.0
 40
1.0
 40
1.0
 40
1.0
 10
859.7626542116825
 20
915.4661537518868
 30
0.0
 10
859.6792048812337
 20
915.4733381385963
 30
0.0
 10
859.482688418816
 20
915.4902567915462
 30
0.0
 10
859.2201635206652
 20
915.6038960496951
 30
0.0
 10
858.9054093122197
 20
915.8398338592675
 30
0.0
 10
858.633842624682
 20
916.212671236577
 30
0.0
 10
858.3629253167643
 20
916.7799027738749
 30
0.0
 10
858.0960157102166
 20
917.5669485189827
 30
0.0
 10
857.9355394521684
 20
918.2381033088171
 30
0.0
 10
857.8407261226715
 20
918.6346381047176
 30
0.0
  0
SPLINE
  5
1CF
330
1F
100
AcDbEntity
  8
0
  6
Continuous
 62
     8
370
    18
100
AcDbSpline
210
0.0
220
0.0
230
1.0
 70
     8
 71
     3
 72
    11
 73
     7
 74
     0
 42
0.000000001
 43
0.00000001
 40
0.0
 40
0.0
 40
0.0
 40
0.0
 40
0.249906856562332
 40
0.4998445626143539
 40
0.7498974475611629
 40
1.0
 40
1.0
 40
1.0
 40
1.0
 10
867.7711237920216
 20
915.1588851552331
 30
0.0
 10
867.1050886155101
 20
915.1909929873699
 30
0.0
 10
865.7729360444737
 20
915.2552126151611
 30
0.0
 10
863.7718597542388
 20
915.3390862750017
 30
0.0
 10
861.7685546141948
 20
915.4121540971627
 30
0.0
 10
860.4313319430903
 20
915.4481526753765
 30
0.0
 10
859.7626542116825
 20
915.4661537518868
 30
0.0
  0
SPLINE
  5
1D0
330
1F
100
AcDbEntity
  8
0
  6
Continuous
 62
     8
370
    18
100
AcDbSpline
210
0.0
220
0.0
230
1.0
 70
     8
 71
     3
 72
    13
 73
     9
 74
     0
 42
0.000000001
 43
0.00000001
 40
0.0
 40
0.0
 40
0.0
 40
0.0
 40
0.3455606136558517
 40
0.7377948233631717
 40
0.8482878985163457
 40
0.9091433588596638
 40
0.9540191324661307
 40
1.0
 40
1.0
 40
1.0
 40
1.0
 10
869.8333888524015
 20
918.621576030453
 30
0.0
 10
869.7234009430052
 20
918.12040468436
 30
0.0
 10
869.4885694634376
 20
917.0503706291083
 30
0.0
 10
869.1387507192105
 20
915.9632704826976
 30
0.0
 10
868.5847915729622
 20
915.3830887349317
 30
0.0
 10
868.2754368121007
 20
915.2237728592072
 30
0.0
 10
868.0166344369738
 20
915.1589712468292
 30
0.0
 10
867.8536215848642
 20
915.1589140841891
 30
0.0
 10
867.7711237920216
 20
915.1588851552331
 30
0.0
  0
SPLINE
  5
1D1
330
1F
100
AcDbEntity
  8
0
  6
Continuous
 62
     8
370
    18
100
AcDbSpline
210
0.0
220
0.0
230
1.0
 70
     8
 71
     3
 72
    13
 73
     9
 74
     0
 42
0.000000001
 43
0.00000001
 40
0.0
 40
0.0
 40
0.0
 40
0.0
 40
0.0016043355124024
 40
0.2727926059062322
 40
0.4428579083924353
 40
0.6159723835324815
 40
0.8046605251224438
 40
1.0
 40
1.0
 40
1.0
 40
1.0
 10
895.4782792588236
 20
911.6350233936149
 30
0.0
 10
895.483734108999
 20
911.6350261236332
 30
0.0
 10
896.411247576519
 20
911.6354903212983
 30
0.0
 10
897.8240839023545
 20
911.833320649742
 30
0.0
 10
899.5447735351277
 20
912.6623128256364
 30
0.0
 10
900.8474194092661
 20
913.8056637397449
 30
0.0
 10
902.003619153516
 20
915.46184775548
 30
0.0
 10
902.5244832304563
 20
917.0674378732012
 30
0.0
 10
902.7894259348587
 20
917.8841372901576
 30
0.0
  0
SPLINE
  5
1D2
330
1F
100
AcDbEntity
  8
0
  6
Continuous
 62
     8
370
    18
100
AcDbSpline
210
0.0
220
0.0
230
1.0
 70
     8
 71
     3
 72
    13
 73
     9
 74
     0
 42
0.000000001
 43
0.00000001
 40
0.0
 40
0.0
 40
0.0
 40
0.0
 40
0.1765903405244141
 40
0.3535107282095494
 40
0.5953143040081186
 40
0.8373696963545593
 40
0.9987093023973763
 40
1.0
 40
1.0
 40
1.0
 40
1.0
 10
841.5397429769994
 20
918.5768888142327
 30
0.0
 10
840.6186606351133
 20
917.7443315083289
 30
0.0
 10
838.774774449413
 20
916.0776608477923
 30
0.0
 10
835.3281204231374
 20
914.0901745443342
 30
0.0
 10
831.3421119912593
 20
912.5453375807026
 30
0.0
 10
827.3384309122151
 20
911.7761170271405
 30
0.0
 10
824.8104498789935
 20
911.6353185786273
 30
0.0
 10
823.7947608661954
 20
911.6350257178724
 30
0.0
 10
823.7866999615273
 20
911.635023393615
 30
0.0
  0
SPLINE
  5
1D3
330
1F
100
AcDbEntity
  8
0
  6
Continuous
 62
     8
370
    18
100
AcDbSpline
210
0.0
220
0.0
230
1.0
 70
     8
 71
     3
 72
     9
 73
     5
 74
     0
 42
0.000000001
 43
0.00000001
 40
0.0
 40
0.0
 40
0.0
 40
0.0
 40
0.8741204396862008
 40
1.0
 40
1.0
 40
1.0
 40
1.0
 10
788.2339971247733
 20
946.3349204357798
 30
0.0
 10
788.2328853654731
 20
945.5433180247417
 30
0.0
 10
788.2316135049265
 20
944.6377192364071
 30
0.0
 10
788.2304296979905
 20
943.7247149041879
 30
0.0
 10
788.230280680894
 20
943.6097863202834
 30
0.0
  0
LINE
  5
1D4
330
1F
100
AcDbEntity
  8
0
  6
Continuous
 62
     8
370
    18
100
AcDbLine
 10
786.8945857879
 20
946.5963048998
 30
0.0
 11
786.863208709
 21
943.8747768334
 31
0.0
  0
ARC
  5
1D5
330
1F
100
AcDbEntity
  8
0
  6
Continuous
 62
     8
370
    18
100
AcDbCircle
 10
786.9198066642
 20
943.1630818903
 30
0.0
 40
3.433315645975161
100
AcDbArc
 50
67.4942658279
 51
90.4208942352
  0
LINE
  5
1D6
330
1F
100
AcDbEntity
  8
0
  6
Continuous
 62
     8
370
    18
100
AcDbLine
 10
860.6788141351
 20
946.5963048998
 30
0.0
 11
860.710191214
 21
943.8747768334
 31
0.0
  0
SPLINE
  5
1D7
330
1F
100
AcDbEntity
  8
0
  6
Continuous
 62
     8
370
    18
100
AcDbSpline
210
0.0
220
0.0
230
1.0
 70
     8
 71
     3
 72
     9
 73
     5
 74
     0
 42
0.000000001
 43
0.00000001
 40
0.0
 40
0.0
 40
0.0
 40
0.0
 40
0.8741204396862008
 40
1.0
 40
1.0
 40
1.0
 40
1.0
 10
859.3394027982813
 20
946.3349204357798
 30
0.0
 10
859.3405145575815
 20
945.5433180247417
 30
0.0
 10
859.3417864181281
 20
944.6377192364071
 30
0.0
 10
859.342970225064
 20
943.7247149041879
 30
0.0
 10
859.3431192421607
 20
943.6097863202834
 30
0.0
  0
ARC
  5
1D8
330
1F
100
AcDbEntity
  8
0
  6
Continuous
 62
     8
370
    18
100
AcDbCircle
 10
860.6535932588
 20
943.1630818903
 30
0.0
 40
3.433315645976446
100
AcDbArc
 50
89.5791057648
 51
112.5057341721
  0
LINE
  5
1D9
330
1F
100
AcDbEntity
  8
0
  6
Continuous
 62
     8
370
    18
100
AcDbLine
 10
779.3432006623
 20
943.6007357541
 30
0.0
 11
779.3387988417
 21
946.3189080877
 31
0.0
  0
ARC
  5
1DA
330
1F
100
AcDbEntity
  8
0
  6
Continuous
 62
     8
370
    18
100
AcDbCircle
 10
780.6787888812
 20
943.2248265828
 30
0.0
 40
3.371781971733645
100
AcDbArc
 50
89.2310445
 51
113.4165528547
  0
LINE
  5
1DB
330
1F
100
AcDbEntity
  8
0
  6
Continuous
 62
     8
370
    18
100
AcDbLine
 10
780.7417692903
 20
943.8747768334
 30
0.0
 11
780.724039552
 21
946.5963048998
 31
0.0
  0
LINE
  5
1DC
330
1F
100
AcDbEntity
  8
0
  6
Continuous
 62
     8
370
    18
100
AcDbLine
 10
866.8316306328
 20
943.8747768334
 30
0.0
 11
866.8493603711
 21
946.5963048998
 31
0.0
  0
ARC
  5
1DD
330
1F
100
AcDbEntity
  8
0
  6
Continuous
 62
     8
370
    18
100
AcDbCircle
 10
866.8946110419
 20
943.2248265828
 30
0.0
 40
3.371781971732853
100
AcDbArc
 50
66.5834471453
 51
90.7689555
  0
LINE
  5
1DE
330
1F
100
AcDbEntity
  8
0
  6
Continuous
 62
     8
370
    18
100
AcDbLine
 10
868.2301992608
 20
943.6007357541
 30
0.0
 11
868.2346010813
 21
946.3189080877
 31
0.0
  0
LINE
  5
1DF
330
1F
100
AcDbEntity
  8
0
  6
Continuous
 62
     8
370
    18
100
AcDbLine
 10
786.8945857879
 20
946.5963048998
 30
0.0
 11
780.724039552
 21
946.5963048998
 31
0.0
  0
LINE
  5
1E0
330
1F
100
AcDbEntity
  8
0
  6
Continuous
 62
     8
370
    18
100
AcDbLine
 10
860.6788141351
 20
946.5963048998
 30
0.0
 11
866.8493603711
 21
946.5963048998
 31
0.0
  0
ARC
  5
1E1
330
1F
100
AcDbEntity
  8
0
  6
Continuous
 62
     8
370
    18
100
AcDbCircle
 10
857.4679368543
 20
951.2550017344
 30
0.0
 40
5.263989434302183
100
AcDbArc
 50
268.4040630365
 51
290.8254619764
  0
ARC
  5
1E2
330
1F
100
AcDbEntity
  8
0
  6
Continuous
 62
     8
370
    18
100
AcDbCircle
 10
790.1054630688
 20
951.2550017344
 30
0.0
 40
5.26398943430536
100
AcDbArc
 50
249.1745380236
 51
271.5959369635
  0
ARC
  5
1E3
330
1F
100
AcDbEntity
  8
0
  6
Continuous
 62
     8
370
    18
100
AcDbCircle
 10
777.3837055618
 20
951.0117193212
 30
0.0
 40
5.083784712846901
100
AcDbArc
 50
269.0955075017
 51
292.6173188939
  0
ARC
  5
1E4
330
1F
100
AcDbEntity
  8
0
  6
Continuous
 62
     8
370
    18
100
AcDbCircle
 10
870.1896943613
 20
951.0117193212
 30
0.0
 40
5.083784712847574
100
AcDbArc
 50
247.3826811061
 51
270.9044924983
  0
ARC
  5
1E5
330
1F
100
AcDbEntity
  8
0
  6
Continuous
 62
     8
370
    18
100
AcDbCircle
 10
875.7647950529
 20
914.2237677832
 30
0.0
 40
16.05029701893975
100
AcDbArc
 50
174.6558034199
 51
175.560533909
  0
ARC
  5
1E6
330
1F
100
AcDbEntity
  8
0
  6
Continuous
 62
     8
370
    18
100
AcDbCircle
 10
771.8086048706
 20
914.2237677833
 30
0.0
 40
16.05029701852839
100
AcDbArc
 50
4.439466091
 51
5.3441965801
  0
ARC
  5
1E7
330
1F
100
AcDbEntity
  8
0
  6
Continuous
 62
     8
370
    18
100
AcDbCircle
 10
773.22309842
 20
914.0424980715
 30
0.0
 40
6.673222570433744
100
AcDbArc
 50
9.630497366
 51
11.8373353031
  0
ARC
  5
1E8
330
1F
100
AcDbEntity
  8
0
  6
Continuous
 62
     8
370
    18
100
AcDbCircle
 10
874.3503015079
 20
914.0424980707
 30
0.0
 40
6.673222575269841
100
AcDbArc
 50
168.1626646982
 51
170.3695026336
  0
SPLINE
  5
1E9
330
1F
100
AcDbEntity
  8
0
  6
Continuous
 62
     8
370
    18
100
AcDbSpline
210
0.0
220
0.0
230
1.0
 70
     8
 71
     3
 72
    15
 73
    11
 74
     0
 42
0.000000001
 43
0.00000001
 40
0.0
 40
0.0
 40
0.0
 40
0.0
 40
0.0357295768982802
 40
0.0559023856318687
 40
0.0935770997983524
 40
0.1154709098174171
 40
0.2166995392891657
 40
0.4238827620184559
 40
0.90682992149906
 40
1.0
 40
1.0
 40
1.0
 40
1.0
 10
787.366702848977
 20
949.9990483453644
 30
0.0
 10
787.426073376434
 20
950.0009420456241
 30
0.0
 10
787.5189643202738
 20
950.0039049232003
 30
0.0
 10
787.6670582580294
 20
949.9629880387739
 30
0.0
 10
787.7750715126256
 20
949.9012380444244
 30
0.0
 10
787.9443048322723
 20
949.7453074641754
 30
0.0
 10
788.1371570123235
 20
949.351270331973
 30
0.0
 10
788.2582695182823
 20
948.3572866482754
 30
0.0
 10
788.2339589470064
 20
947.2972666981908
 30
0.0
 10
788.2339918101268
 20
946.4688866332646
 30
0.0
 10
788.2339971247733
 20
946.3349204357798
 30
0.0
  0
SPLINE
  5
1EA
330
1F
100
AcDbEntity
  8
0
  6
Continuous
 62
     8
370
    18
100
AcDbSpline
210
0.0
220
0.0
230
1.0
 70
     8
 71
     3
 72
    11
 73
     7
 74
     0
 42
0.000000001
 43
0.00000001
 40
0.0
 40
0.0
 40
0.0
 40
0.0
 40
0.1688447665100251
 40
0.3388483789551348
 40
0.6648683581705619
 40
1.0
 40
1.0
 40
1.0
 40
1.0
 10
787.366702848977
 20
949.9990483453644
 30
0.0
 10
787.3186551473233
 20
949.8485067189469
 30
0.0
 10
787.2222299743412
 20
949.5463902415978
 30
0.0
 10
787.0723754982619
 20
948.8691903365024
 30
0.0
 10
786.9346576599046
 20
947.9211956855183
 30
0.0
 10
786.9080652397606
 20
947.0419741595144
 30
0.0
 10
786.8945857879382
 20
946.5963048997525
 30
0.0
  0
SPLINE
  5
1EB
330
1F
100
AcDbEntity
  8
0
  6
Continuous
 62
     8
370
    18
100
AcDbSpline
210
0.0
220
0.0
230
1.0
 70
     8
 71
     3
 72
    15
 73
    11
 74
     0
 42
0.000000001
 43
0.00000001
 40
0.0
 40
0.0
 40
0.0
 40
0.0
 40
0.0357295768982802
 40
0.0559023856318687
 40
0.0935770997983524
 40
0.1154709098174171
 40
0.2166995392891657
 40
0.4238827620184559
 40
0.90682992149906
 40
1.0
 40
1.0
 40
1.0
 40
1.0
 10
860.2066970740776
 20
949.9990483453644
 30
0.0
 10
860.1473265466205
 20
950.0009420456241
 30
0.0
 10
860.0544356027809
 20
950.0039049232003
 30
0.0
 10
859.9063416650251
 20
949.9629880387739
 30
0.0
 10
859.7983284104291
 20
949.9012380444244
 30
0.0
 10
859.6290950907822
 20
949.7453074641754
 30
0.0
 10
859.436242910731
 20
949.351270331973
 30
0.0
 10
859.3151304047724
 20
948.3572866482754
 30
0.0
 10
859.3394409760483
 20
947.2972666981908
 30
0.0
 10
859.3394081129278
 20
946.4688866332646
 30
0.0
 10
859.3394027982813
 20
946.3349204357798
 30
0.0
  0
SPLINE
  5
1EC
330
1F
100
AcDbEntity
  8
0
  6
Continuous
 62
     8
370
    18
100
AcDbSpline
210
0.0
220
0.0
230
1.0
 70
     8
 71
     3
 72
    11
 73
     7
 74
     0
 42
0.000000001
 43
0.00000001
 40
0.0
 40
0.0
 40
0.0
 40
0.0
 40
0.1688447665100251
 40
0.3388483789551348
 40
0.6648683581705619
 40
1.0
 40
1.0
 40
1.0
 40
1.0
 10
860.2066970740776
 20
949.9990483453644
 30
0.0
 10
860.2547447757314
 20
949.8485067189469
 30
0.0
 10
860.3511699487135
 20
949.5463902415978
 30
0.0
 10
860.5010244247928
 20
948.8691903365024
 30
0.0
 10
860.6387422631501
 20
947.9211956855183
 30
0.0
 10
860.6653346832941
 20
947.0419741595144
 30
0.0
 10
860.6788141351165
 20
946.5963048997525
 30
0.0
  0
SPLINE
  5
1ED
330
1F
100
AcDbEntity
  8
0
  6
Continuous
 62
     8
370
    18
100
AcDbSpline
210
0.0
220
0.0
230
1.0
 70
     8
 71
     3
 72
    11
 73
     7
 74
     0
 42
0.000000001
 43
0.00000001
 40
0.0
 40
0.0
 40
0.0
 40
0.0
 40
0.316635143085864
 40
0.6421699667518175
 40
0.8203579608774902
 40
0.9999999999999999
 40
0.9999999999999999
 40
0.9999999999999999
 40
0.9999999999999999
 10
866.849360371055
 20
946.5963048997525
 30
0.0
 10
866.8605965203466
 20
947.0287471958559
 30
0.0
 10
866.8833846339675
 20
947.905786466369
 30
0.0
 10
867.0190402044516
 20
948.8690706811057
 30
0.0
 10
867.1765637927651
 20
949.5822496534521
 30
0.0
 10
867.2828565425544
 20
949.9048611541541
 30
0.0
 10
867.3362188781381
 20
950.0668223716194
 30
0.0
  0
SPLINE
  5
1EE
330
1F
100
AcDbEntity
  8
0
  6
Continuous
 62
     8
370
    18
100
AcDbSpline
210
0.0
220
0.0
230
1.0
 70
     8
 71
     3
 72
    14
 73
    10
 74
     0
 42
0.000000001
 43
0.00000001
 40
0.0
 40
0.0
 40
0.0
 40
0.0
 40
0.6113158653943744
 40
0.7934072053583403
 40
0.8854170307688746
 40
0.9194198313361064
 40
0.943450187052995
 40
0.9749897870426378
 40
1.0
 40
1.0
 40
1.0
 40
1.0
 10
868.2346010813221
 20
946.3189080877264
 30
0.0
 10
868.2614102249588
 20
947.2012314083212
 30
0.0
 10
868.2962049504595
 20
948.3463704757719
 30
0.0
 10
868.1395989220828
 20
949.4820265885523
 30
0.0
 10
867.9345118802299
 20
949.8597736504273
 30
0.0
 10
867.7485328485203
 20
950.0008145444363
 30
0.0
 10
867.6115739651169
 20
950.0580197803639
 30
0.0
 10
867.4726932324942
 20
950.0803575858304
 30
0.0
 10
867.3780684561368
 20
950.0709729170131
 30
0.0
 10
867.3362188781381
 20
950.0668223716194
 30
0.0
  0
SPLINE
  5
1EF
330
1F
100
AcDbEntity
  8
0
  6
Continuous
 62
     8
370
    18
100
AcDbSpline
210
0.0
220
0.0
230
1.0
 70
     8
 71
     3
 72
    14
 73
    10
 74
     0
 42
0.000000001
 43
0.00000001
 40
0.0
 40
0.0
 40
0.0
 40
0.0
 40
0.6113158653943744
 40
0.7934072053583403
 40
0.8854170307688746
 40
0.9194198313361064
 40
0.943450187052995
 40
0.9749897870426378
 40
1.0
 40
1.0
 40
1.0
 40
1.0
 10
779.3387988417325
 20
946.3189080877264
 30
0.0
 10
779.3119896980959
 20
947.2012314083212
 30
0.0
 10
779.2771949725952
 20
948.3463704757719
 30
0.0
 10
779.4338010009719
 20
949.4820265885523
 30
0.0
 10
779.6388880428246
 20
949.8597736504273
 30
0.0
 10
779.8248670745344
 20
950.0008145444363
 30
0.0
 10
779.9618259579378
 20
950.0580197803639
 30
0.0
 10
780.1007066905605
 20
950.0803575858304
 30
0.0
 10
780.1953314669179
 20
950.0709729170131
 30
0.0
 10
780.2371810449166
 20
950.0668223716194
 30
0.0
  0
SPLINE
  5
1F0
330
1F
100
AcDbEntity
  8
0
  6
Continuous
 62
     8
370
    18
100
AcDbSpline
210
0.0
220
0.0
230
1.0
 70
     8
 71
     3
 72
    11
 73
     7
 74
     0
 42
0.000000001
 43
0.00000001
 40
0.0
 40
0.0
 40
0.0
 40
0.0
 40
0.316635143085864
 40
0.6421699667518175
 40
0.8203579608774902
 40
0.9999999999999999
 40
0.9999999999999999
 40
0.9999999999999999
 40
0.9999999999999999
 10
780.7240395519996
 20
946.5963048997525
 30
0.0
 10
780.712803402708
 20
947.0287471958559
 30
0.0
 10
780.6900152890872
 20
947.905786466369
 30
0.0
 10
780.5543597186031
 20
948.8690706811057
 30
0.0
 10
780.3968361302894
 20
949.5822496534521
 30
0.0
 10
780.2905433805001
 20
949.9048611541541
 30
0.0
 10
780.2371810449166
 20
950.0668223716194
 30
0.0
  0
LINE
  5
1F1
330
1F
100
AcDbEntity
  8
0
  6
Continuous
 62
     8
370
    18
100
AcDbLine
 10
867.3362188781
 20
950.0668223716
 30
0.0
 11
860.2066970741
 21
949.9990483454
 31
0.0
  0
LINE
  5
1F2
330
1F
100
AcDbEntity
  8
0
  6
Continuous
 62
     8
370
    18
100
AcDbLine
 10
780.2371810449
 20
950.0668223716
 30
0.0
 11
787.366702849
 21
949.9990483454
 31
0.0
  0
ARC
  5
1F3
330
1F
100
AcDbEntity
  8
0
  6
Continuous
 62
     8
370
    18
100
AcDbCircle
 10
737.4160365275
 20
952.2887570513
 30
0.0
 40
42.87875244801801
100
AcDbArc
 50
357.0296588464
 51
358.2432093098
  0
ARC
  5
1F4
330
1F
100
AcDbEntity
  8
0
  6
Continuous
 62
     8
370
    18
100
AcDbCircle
 10
910.157363394
 20
952.2887570512
 30
0.0
 40
42.87875244652046
100
AcDbArc
 50
181.7567906902
 51
182.9703411536
  0
ARC
  5
1F5
330
1F
100
AcDbEntity
  8
0
  6
Continuous
 62
     8
370
    18
100
AcDbCircle
 10
953.5895607897
 20
952.2476702531
 30
0.0
 40
93.40993274919428
100
AcDbArc
 50
180.8364313175
 51
181.3793928307
  0
ARC
  5
1F6
330
1F
100
AcDbEntity
  8
0
  6
Continuous
 62
     8
370
    18
100
AcDbCircle
 10
693.9838391274
 20
952.2476702532
 30
0.0
 40
93.40993275517123
100
AcDbArc
 50
358.6206071693
 51
359.1635686825
  0
SPLINE
  5
1F7
330
1F
100
AcDbEntity
  8
0
  6
Continuous
 62
     8
370
    18
100
AcDbSpline
210
0.0
220
0.0
230
1.0
 70
     8
 71
     3
 72
    20
 73
    16
 74
     0
 42
0.000000001
 43
0.00000001
 40
0.0
 40
0.0
 40
0.0
 40
0.0
 40
0.0262964893541074
 40
0.1156644945178818
 40
0.205007509204419
 40
0.3018334539014401
 40
0.4001273500081755
 40
0.4957350863719557
 40
0.5699648411426507
 40
0.6442426960664245
 40
0.7081833843876608
 40
0.7721296613135545
 40
0.8331603083653203
 40
0.8940958863820435
 40
1.0
 40
1.0
 40
1.0
 40
1.0
 10
903.730040582519
 20
918.1808876608195
 30
0.0
 10
903.8058339161134
 20
918.466097636489
 30
0.0
 10
904.1392091244912
 20
919.7205870560857
 30
0.0
 10
904.7994813600359
 20
922.1981836844712
 30
0.0
 10
905.6925954375977
 20
925.8684771276936
 30
0.0
 10
906.49522689665
 20
929.9648104866026
 30
0.0
 10
906.9506992039607
 20
934.3248826327845
 30
0.0
 10
906.829637683801
 20
938.2516602386493
 30
0.0
 10
906.4776401918617
 20
941.5415760128757
 30
0.0
 10
906.2199771022158
 20
944.1650326692546
 30
0.0
 10
906.2216668788617
 20
946.4227865299628
 30
0.0
 10
906.3692231626161
 20
948.2903857451672
 30
0.0
 10
906.6626547609743
 20
949.8353344334759
 30
0.0
 10
906.8887007739493
 20
951.3628745936867
 30
0.0
 10
906.787906834139
 20
951.8635027400868
 30
0.0
 10
906.7239262983979
 20
952.1812843157851
 30
0.0
  0
ARC
  5
1F8
330
1F
100
AcDbEntity
  8
0
  6
Continuous
 62
     8
370
    18
100
AcDbCircle
 10
904.0563959029
 20
915.507317475
 30
0.0
 40
2.69341518035996
100
AcDbArc
 50
96.9595071703
 51
118.0599624147
  0
ARC
  5
1F9
330
1F
100
AcDbEntity
  8
0
  6
Continuous
 62
     8
370
    18
100
AcDbCircle
 10
908.7133636808
 20
954.4313012018
 30
0.0
 40
3.003404249505682
100
AcDbArc
 50
228.5172796838
 51
270.3109595548
  0
SPLINE
  5
1FA
330
1F
100
AcDbEntity
  8
0
  6
Continuous
 62
     8
370
    18
100
AcDbSpline
210
0.0
220
0.0
230
1.0
 70
     8
 71
     3
 72
    22
 73
    18
 74
     0
 42
0.000000001
 43
0.00000001
 40
0.0
 40
0.0
 40
0.0
 40
0.0
 40
0.0604782955210947
 40
0.1209107522713745
 40
0.188474913944386
 40
0.2560958620764554
 40
0.3308528003812595
 40
0.4056041325902898
 40
0.4728286997367325
 40
0.5400039932488326
 40
0.6145903506605176
 40
0.6892095991779483
 40
0.6973759092103055
 40
0.7789456219531085
 40
0.8605868885159245
 40
0.9302996545740235
 40
1.0
 40
1.0
 40
1.0
 40
1.0
 10
908.7296638807803
 20
951.4279411851893
 30
0.0
 10
908.7649179902169
 20
951.2671741648901
 30
0.0
 10
908.8353994886769
 20
950.9457619756524
 30
0.0
 10
908.872580527707
 20
949.9972008415256
 30
0.0
 10
908.5480971248361
 20
948.6739538293261
 30
0.0
 10
908.1412073304235
 20
946.8758670935684
 30
0.0
 10
908.0485038670491
 20
944.6112834998362
 30
0.0
 10
908.3057019845605
 20
942.0312703429374
 30
0.0
 10
908.7178458918062
 20
939.3134743633224
 30
0.0
 10
908.9598367443692
 20
936.4104863934829
 30
0.0
 10
908.8910416746337
 20
933.2695123157855
 30
0.0
 10
908.5898334964215
 20
930.9731113069286
 30
0.0
 10
908.1478120708312
 20
928.6217154828187
 30
0.0
 10
907.5642125933313
 20
926.2109256330335
 30
0.0
 10
906.6193199707218
 20
923.1393758865877
 30
0.0
 10
905.6958458001277
 20
920.4240597916286
 30
0.0
 10
905.16544963159
 20
918.9118669518764
 30
0.0
 10
904.9002751744235
 20
918.155837894355
 30
0.0
  0
ARC
  5
1FB
330
1F
100
AcDbEntity
  8
0
  6
Continuous
 62
     8
370
    18
100
AcDbCircle
 10
904.2314718839
 20
914.2588554442
 30
0.0
 40
3.953956253944613
100
AcDbArc
 50
80.261721698
 51
97.2857328838
  0
SPLINE
  5
1FC
330
1F
100
AcDbEntity
  8
0
  6
Continuous
 62
     8
370
    18
100
AcDbSpline
210
0.0
220
0.0
230
1.0
 70
     8
 71
     3
 72
    11
 73
     7
 74
     0
 42
0.000000001
 43
0.00000001
 40
0.0
 40
0.0
 40
0.0
 40
0.0
 40
0.2101620489852545
 40
0.6011741985698237
 40
0.9956880907203883
 40
1.0
 40
1.0
 40
1.0
 40
1.0
 10
899.5366999615278
 20
912.3064958416122
 30
0.0
 10
899.2735848147252
 20
912.2152456851569
 30
0.0
 10
898.52093685438
 20
911.9542221562125
 30
0.0
 10
897.1876316629948
 20
911.7023473297381
 30
0.0
 10
896.0669122486331
 20
911.6352532590367
 30
0.0
 10
895.4845752018316
 20
911.635025852226
 30
0.0
 10
895.4782792588236
 20
911.6350233936149
 30
0.0
  0
SPLINE
  5
1FD
330
1F
100
AcDbEntity
  8
0
  6
Continuous
 62
     8
370
    18
100
AcDbSpline
210
0.0
220
0.0
230
1.0
 70
     8
 71
     3
 72
    12
 73
     8
 74
     0
 42
0.000000001
 43
0.00000001
 40
0.0
 40
0.0
 40
0.0
 40
0.0
 40
0.2467373750775693
 40
0.5009759128091695
 40
0.7464462631527627
 40
0.996904547814918
 40
1.0
 40
1.0
 40
1.0
 40
1.0
 10
904.9002751744235
 20
918.155837894355
 30
0.0
 10
904.6083275657807
 20
917.4453284707248
 30
0.0
 10
904.0155567312594
 20
916.0027091393376
 30
0.0
 10
902.7560186480817
 20
914.3672354757196
 30
0.0
 10
901.2729213549089
 20
913.1094459745457
 30
0.0
 10
900.1457715156968
 20
912.5374283876887
 30
0.0
 10
899.544045988532
 20
912.3092811247336
 30
0.0
 10
899.5366999615278
 20
912.3064958416122
 30
0.0
  0
SPLINE
  5
1FE
330
1F
100
AcDbEntity
  8
0
  6
Continuous
 62
     8
370
    18
100
AcDbSpline
210
0.0
220
0.0
230
1.0
 70
     8
 71
     3
 72
    10
 73
     6
 74
     0
 42
0.000000001
 43
0.00000001
 40
0.0
 40
0.0
 40
0.0
 40
0.0
 40
0.0157305655563109
 40
0.5063466828768566
 40
1.0
 40
1.0
 40
1.0
 40
1.0
 10
908.7075208860813
 20
951.6350233936149
 30
0.0
 10
908.7070748165102
 20
951.6350113294109
 30
0.0
 10
908.6927164104568
 20
951.6346229981905
 30
0.0
 10
908.6869566816396
 20
951.6029774379409
 30
0.0
 10
908.7153988926418
 20
951.4864065053125
 30
0.0
 10
908.7296638807804
 20
951.4279411851893
 30
0.0
  0
SPLINE
  5
1FF
330
1F
100
AcDbEntity
  8
0
  6
Continuous
 62
     8
370
    18
100
AcDbSpline
210
0.0
220
0.0
230
1.0
 70
     8
 71
     3
 72
    12
 73
     8
 74
     0
 42
0.000000001
 43
0.00000001
 40
0.0
 40
0.0
 40
0.0
 40
0.0
 40
0.3107222013442915
 40
0.6300915284038188
 40
0.7856616918457197
 40
0.8925423191164947
 40
1.0
 40
1.0
 40
1.0
 40
1.0
 10
899.5366999615278
 20
912.3064958416122
 30
0.0
 10
900.0876310875623
 20
912.6549674931475
 30
0.0
 10
901.204825268559
 20
913.3616084559477
 30
0.0
 10
902.3514035018255
 20
914.8667344845663
 30
0.0
 10
903.0558877051556
 20
916.2551978516158
 30
0.0
 10
903.4475632625705
 20
917.2374913025361
 30
0.0
 10
903.6357126271128
 20
917.8658582997693
 30
0.0
 10
903.730040582519
 20
918.1808876608195
 30
0.0
  0
LINE
  5
200
330
1F
100
AcDbEntity
  8
0
  6
Continuous
 62
     8
370
    18
100
AcDbLine
 10
770.7866999615
 20
960.9350233936
 30
0.0
 11
770.7866999615
 21
960.7922218653
 31
0.0
  0
LINE
  5
201
330
1F
100
AcDbEntity
  8
0
  6
Continuous
 62
     8
370
    18
100
AcDbLine
 10
770.7866999615
 20
960.7922218653
 30
0.0
 11
742.8466723803
 21
960.7922218653
 31
0.0
  0
LINE
  5
202
330
1F
100
AcDbEntity
  8
0
  6
Continuous
 62
     8
370
    18
100
AcDbLine
 10
876.7866999615
 20
960.9350233936
 30
0.0
 11
876.7866999615
 21
960.7922218653
 31
0.0
  0
LINE
  5
203
330
1F
100
AcDbEntity
  8
0
  6
Continuous
 62
     8
370
    18
100
AcDbLine
 10
770.7866999615
 20
960.7922218653
 30
0.0
 11
876.7866999615
 21
960.7922218653
 31
0.0
  0
LINE
  5
204
330
1F
100
AcDbEntity
  8
0
  6
Continuous
 62
     8
370
    18
100
AcDbLine
 10
876.7866999615
 20
960.7922218653
 30
0.0
 11
904.7267275428
 21
960.7922218653
 31
0.0
  0
LINE
  5
205
330
1F
100
AcDbEntity
  8
0
  6
Continuous
 62
     8
370
    18
100
AcDbLine
 10
770.7866999615
 20
960.7922218653
 30
0.0
 11
770.7866999615
 21
959.8704545001
 31
0.0
  0
LINE
  5
206
330
1F
100
AcDbEntity
  8
0
  6
Continuous
 62
     8
370
    18
100
AcDbLine
 10
876.7866999615
 20
960.7922218653
 30
0.0
 11
876.7866999615
 21
959.8704545001
 31
0.0
  0
LINE
  5
207
330
1F
100
AcDbEntity
  8
0
  6
Continuous
 62
     8
370
    18
100
AcDbLine
 10
951.9806484193
 20
911.6350233936
 30
0.0
 11
951.9806484193
 21
951.6350233936
 31
0.0
  0
LINE
  5
208
330
1F
100
AcDbEntity
  8
0
  6
Continuous
 62
     8
370
    18
100
AcDbLine
 10
952.5864466555
 20
951.5732215655
 30
0.0
 11
952.5864466555
 21
911.6968252218
 31
0.0
  0
LINE
  5
209
330
1F
100
AcDbEntity
  8
0
  6
Continuous
 62
     8
370
    18
100
AcDbLine
 10
311.2866999615
 20
969.0814618932
 30
0.0
 11
311.2866999615
 21
968.0814618932
 31
0.0
  0
LINE
  5
20A
330
1F
100
AcDbEntity
  8
0
  6
Continuous
 62
     8
370
    18
100
AcDbLine
 10
1336.2866999615
 20
968.0814618932
 30
0.0
 11
1336.2866999615
 21
969.0814618932
 31
0.0
  0
LINE
  5
20B
330
1F
100
AcDbEntity
  8
0
  6
Continuous
 62
     8
370
    18
100
AcDbLine
 10
1313.7866999615
 20
962.3556024148
 30
0.0
 11
1315.7866999615
 21
962.3556024148
 31
0.0
  0
LINE
  5
20C
330
1F
100
AcDbEntity
  8
0
  6
Continuous
 62
     8
370
    18
100
AcDbLine
 10
1315.7866999615
 20
960.5429868407
 30
0.0
 11
1313.7866999615
 21
960.5429868407
 31
0.0
  0
LINE
  5
20D
330
1F
100
AcDbEntity
  8
0
  6
Continuous
 62
     8
370
    18
100
AcDbLine
 10
1313.7866999615
 20
953.2846875561
 30
0.0
 11
1315.7866999615
 21
953.2846875561
 31
0.0
  0
LINE
  5
20E
330
1F
100
AcDbEntity
  8
0
  6
Continuous
 62
     8
370
    18
100
AcDbLine
 10
1315.7866999615
 20
951.472071982
 30
0.0
 11
1313.7866999615
 21
951.472071982
 31
0.0
  0
LINE
  5
20F
330
1F
100
AcDbEntity
  8
0
  6
Continuous
 62
     8
370
    18
100
AcDbLine
 10
1313.7866999615
 20
917.1814618932
 30
0.0
 11
1315.7866999615
 21
917.1814618932
 31
0.0
  0
LINE
  5
210
330
1F
100
AcDbEntity
  8
0
  6
Continuous
 62
     8
370
    18
100
AcDbLine
 10
331.7866999615
 20
962.3556024148
 30
0.0
 11
333.7866999615
 21
962.3556024148
 31
0.0
  0
LINE
  5
211
330
1F
100
AcDbEntity
  8
0
  6
Continuous
 62
     8
370
    18
100
AcDbLine
 10
333.7866999615
 20
960.5429868407
 30
0.0
 11
331.7866999615
 21
960.5429868407
 31
0.0
  0
LINE
  5
212
330
1F
100
AcDbEntity
  8
0
  6
Continuous
 62
     8
370
    18
100
AcDbLine
 10
331.7866999615
 20
953.2846875561
 30
0.0
 11
333.7866999615
 21
953.2846875561
 31
0.0
  0
LINE
  5
213
330
1F
100
AcDbEntity
  8
0
  6
Continuous
 62
     8
370
    18
100
AcDbLine
 10
333.7866999615
 20
951.472071982
 30
0.0
 11
331.7866999615
 21
951.472071982
 31
0.0
  0
LINE
  5
214
330
1F
100
AcDbEntity
  8
0
  6
Continuous
 62
     8
370
    18
100
AcDbLine
 10
331.7866999615
 20
917.1814618932
 30
0.0
 11
333.7866999615
 21
917.1814618932
 31
0.0
  0
LINE
  5
215
330
1F
100
AcDbEntity
  8
0
  6
Continuous
 62
     7
370
    35
100
AcDbLine
 10
1313.7866999615
 20
686.8670665216
 30
0.0
 11
333.7866999615
 21
686.8670665216
 31
0.0
  0
LINE
  5
216
330
1F
100
AcDbEntity
  8
0
  6
Continuous
 62
     7
370
    35
100
AcDbLine
 10
1313.7866999615
 20
683.8670665216
 30
0.0
 11
333.7866999615
 21
683.8670665216
 31
0.0
  0
LINE
  5
217
330
1F
100
AcDbEntity
  8
0
  6
Continuous
 62
     7
370
    35
100
AcDbLine
 10
1313.7866999615
 20
686.781280084
 30
0.0
 11
1313.7866999615
 21
683.9528529592
 31
0.0
  0
LINE
  5
218
330
1F
100
AcDbEntity
  8
0
  6
Continuous
 62
     7
370
    35
100
AcDbLine
 10
333.7866999615
 20
683.9528529592
 30
0.0
 11
333.7866999615
 21
686.781280084
 31
0.0
  0
LINE
  5
219
330
1F
100
AcDbEntity
  8
0
  6
Continuous
 62
     7
370
    35
100
AcDbLine
 10
333.7866999615
 20
619.8670665216
 30
0.0
 11
1313.7866999615
 21
619.8670665216
 31
0.0
  0
LINE
  5
21A
330
1F
100
AcDbEntity
  8
0
  6
Continuous
 62
     7
370
    35
100
AcDbLine
 10
333.7866999615
 20
616.8670665216
 30
0.0
 11
1313.7866999615
 21
616.8670665216
 31
0.0
  0
LINE
  5
21B
330
1F
100
AcDbEntity
  8
0
  6
Continuous
 62
     7
370
    35
100
AcDbLine
 10
333.7866999615
 20
616.9528529592
 30
0.0
 11
333.7866999615
 21
619.781280084
 31
0.0
  0
LINE
  5
21C
330
1F
100
AcDbEntity
  8
0
  6
Continuous
 62
     7
370
    35
100
AcDbLine
 10
1313.7866999615
 20
619.781280084
 30
0.0
 11
1313.7866999615
 21
616.9528529592
 31
0.0
  0
LINE
  5
21D
330
1F
100
AcDbEntity
  8
0
  6
Continuous
 62
     7
370
    35
100
AcDbLine
 10
1313.7866999615
 20
687.8670665216
 30
0.0
 11
1313.7866999615
 21
686.8670665216
 31
0.0
  0
LINE
  5
21E
330
1F
100
AcDbEntity
  8
0
  6
Continuous
 62
     7
370
    35
100
AcDbLine
 10
333.7866999615
 20
686.8670665216
 30
0.0
 11
333.7866999615
 21
687.8670665216
 31
0.0
  0
LINE
  5
21F
330
1F
100
AcDbEntity
  8
0
  6
Continuous
 62
     7
370
    35
100
AcDbLine
 10
1313.7866999615
 20
615.8670665216
 30
0.0
 11
1313.7866999615
 21
616.8670665216
 31
0.0
  0
LINE
  5
220
330
1F
100
AcDbEntity
  8
0
  6
Continuous
 62
     7
370
    35
100
AcDbLine
 10
333.7866999615
 20
616.8670665216
 30
0.0
 11
333.7866999615
 21
615.8670665216
 31
0.0
  0
LINE
  5
221
330
1F
100
AcDbEntity
  8
0
  6
Continuous
 62
     7
370
    35
100
AcDbLine
 10
333.7866999615
 20
717.3670665216
 30
0.0
 11
1313.7866999615
 21
717.3670665216
 31
0.0
  0
LINE
  5
222
330
1F
100
AcDbEntity
  8
0
  6
Continuous
 62
     7
370
    35
100
AcDbLine
 10
1313.7866999615
 20
717.3670665216
 30
0.0
 11
1313.7866999615
 21
687.8670665216
 31
0.0
  0
LINE
  5
223
330
1F
100
AcDbEntity
  8
0
  6
Continuous
 62
     7
370
    35
100
AcDbLine
 10
333.7866999615
 20
687.8670665216
 30
0.0
 11
333.7866999615
 21
717.3670665216
 31
0.0
  0
LINE
  5
224
330
1F
100
AcDbEntity
  8
0
  6
Continuous
 62
     7
370
    35
100
AcDbLine
 10
1313.7866999615
 20
586.3670665216
 30
0.0
 11
333.7866999615
 21
586.3670665216
 31
0.0
  0
LINE
  5
225
330
1F
100
AcDbEntity
  8
0
  6
Continuous
 62
     7
370
    35
100
AcDbLine
 10
333.7866999615
 20
586.3670665216
 30
0.0
 11
333.7866999615
 21
615.8670665216
 31
0.0
  0
LINE
  5
226
330
1F
100
AcDbEntity
  8
0
  6
Continuous
 62
     7
370
    35
100
AcDbLine
 10
1313.7866999615
 20
615.8670665216
 30
0.0
 11
1313.7866999615
 21
586.3670665216
 31
0.0
  0
SPLINE
  5
227
330
1F
100
AcDbEntity
  8
0
  6
Continuous
 62
     7
370
    35
100
AcDbSpline
210
0.0
220
0.0
230
1.0
 70
     8
 71
     3
 72
     8
 73
     4
 74
     0
 42
0.000000001
 43
0.00000001
 40
0.0
 40
0.0
 40
0.0
 40
0.0
 40
1.0
 40
1.0
 40
1.0
 40
1.0
 10
876.7866999615273
 20
681.1228507201789
 30
0.0
 10
879.0438222185398
 20
681.1228507201789
 30
0.0
 10
881.3006509363267
 20
681.0548595141349
 30
0.0
 10
883.5539629334152
 20
680.9239608957905
 30
0.0
  0
LINE
  5
228
330
1F
100
AcDbEntity
  8
0
  6
Continuous
 62
     7
370
    35
100
AcDbLine
 10
770.7866999615
 20
681.1228507202
 30
0.0
 11
876.7866999615
 21
681.1228507202
 31
0.0
  0
SPLINE
  5
229
330
1F
100
AcDbEntity
  8
0
  6
Continuous
 62
     7
370
    35
100
AcDbSpline
210
0.0
220
0.0
230
1.0
 70
     8
 71
     3
 72
     8
 73
     4
 74
     0
 42
0.000000001
 43
0.00000001
 40
0.0
 40
0.0
 40
0.0
 40
0.0
 40
1.0
 40
1.0
 40
1.0
 40
1.0
 10
764.0194369896394
 20
680.9239608957905
 30
0.0
 10
766.2727486800328
 20
681.0548594961059
 30
0.0
 10
768.5295728102965
 20
681.1228507201789
 30
0.0
 10
770.7866999615273
 20
681.1228507201789
 30
0.0
  0
SPLINE
  5
22A
330
1F
100
AcDbEntity
  8
0
  6
Continuous
 62
     7
370
    35
100
AcDbSpline
210
0.0
220
0.0
230
1.0
 70
     8
 71
     3
 72
    22
 73
    18
 74
     0
 42
0.000000001
 43
0.00000001
 40
3.369126305560274
 40
3.369126305560274
 40
3.369126305560274
 40
3.369126305560274
 40
3.535853022596993
 40
3.535853022596993
 40
3.702579739633712
 40
3.702579739633712
 40
3.869306456670431
 40
3.869306456670431
 40
4.036033173707151
 40
4.036033173707151
 40
4.20275989074387
 40
4.20275989074387
 40
4.369486607780589
 40
4.369486607780589
 40
4.536213324817307
 40
4.536213324817307
 40
4.702940041854027
 40
4.702940041854027
 40
4.702940041854027
 40
4.702940041854027
 10
740.7880391881534
 20
651.9806536833539
 30
0.0
 10
740.8037929517345
 20
653.6478562672545
 30
0.0
 10
740.9588501700538
 20
655.3137014121407
 30
0.0
 10
741.5432797196147
 20
658.5966210534261
 30
0.0
 10
741.9726444411662
 20
660.2136434844432
 30
0.0
 10
743.093787942851
 20
663.3540505469377
 30
0.0
 10
743.785552303298
 20
664.8773947877913
 30
0.0
 10
745.4123165634032
 20
667.7881949031515
 30
0.0
 10
746.3472955402889
 20
669.1756133401443
 30
0.0
 10
748.4345647496668
 20
671.7760799361843
 30
0.0
 10
749.5868281365606
 20
672.9890946490996
 30
0.0
 10
752.0767150883181
 20
675.2071077773305
 30
0.0
 10
753.4143066292796
 20
676.2120776654734
 30
0.0
 10
756.2377581315867
 20
677.9861241371468
 30
0.0
 10
757.7235817788601
 20
678.7551779036213
 30
0.0
 10
760.8022937392058
 20
680.0360572635772
 30
0.0
 10
762.3951329532686
 20
680.5478641828178
 30
0.0
 10
764.0194369896394
 20
680.9239608957905
 30
0.0
  0
SPLINE
  5
22B
330
1F
100
AcDbEntity
  8
0
  6
Continuous
 62
     7
370
    35
100
AcDbSpline
210
0.0
220
0.0
230
1.0
 70
     8
 71
     3
 72
     8
 73
     4
 74
     0
 42
0.000000001
 43
0.00000001
 40
0.0
 40
0.0
 40
0.0
 40
0.0
 40
0.0000569949035218
 40
0.0000569949035218
 40
0.0000569949035218
 40
0.0000569949035218
 10
740.7870333007902
 20
651.9237593091423
 30
0.0
 10
740.7872565230506
 20
651.942725745468
 30
0.0
 10
740.7875920312842
 20
651.9616911922648
 30
0.0
 10
740.7880391881534
 20
651.9806536833539
 30
0.0
  0
SPLINE
  5
22C
330
1F
100
AcDbEntity
  8
0
  6
Continuous
 62
     7
370
    35
100
AcDbSpline
210
0.0
220
0.0
230
1.0
 70
     8
 71
     3
 72
     8
 73
     4
 74
     0
 42
0.000000001
 43
0.00000001
 40
0.0
 40
0.0
 40
0.0
 40
0.0
 40
0.0000569949035218
 40
0.0000569949035218
 40
0.0000569949035218
 40
0.0000569949035218
 10
906.7853607349012
 20
651.9806536833539
 30
0.0
 10
906.7858078917703
 20
651.9616911922648
 30
0.0
 10
906.7861434000039
 20
651.942725745468
 30
0.0
 10
906.7863666222644
 20
651.9237593091423
 30
0.0
  0
SPLINE
  5
22D
330
1F
100
AcDbEntity
  8
0
  6
Continuous
 62
     7
370
    35
100
AcDbSpline
210
0.0
220
0.0
230
1.0
 70
     8
 71
     3
 72
    22
 73
    18
 74
     0
 42
0.000000001
 43
0.00000001
 40
1.580245265325559
 40
1.580245265325559
 40
1.580245265325559
 40
1.580245265325559
 40
1.746971982362278
 40
1.746971982362278
 40
1.913698699398998
 40
1.913698699398998
 40
2.080425416435717
 40
2.080425416435717
 40
2.247152133472436
 40
2.247152133472436
 40
2.413878850509155
 40
2.413878850509155
 40
2.580605567545874
 40
2.580605567545874
 40
2.747332284582593
 40
2.747332284582593
 40
2.914059001619312
 40
2.914059001619312
 40
2.914059001619312
 40
2.914059001619312
 10
883.5539629334152
 20
680.9239608957905
 30
0.0
 10
885.178266969786
 20
680.5478641828178
 30
0.0
 10
886.7711061838487
 20
680.0360572635772
 30
0.0
 10
889.8498181441945
 20
678.7551779036213
 30
0.0
 10
891.3356417914681
 20
677.9861241371468
 30
0.0
 10
894.159093293775
 20
676.2120776654734
 30
0.0
 10
895.4966848347365
 20
675.2071077773305
 30
0.0
 10
897.9865717864939
 20
672.9890946490996
 30
0.0
 10
899.138835173388
 20
671.7760799361843
 30
0.0
 10
901.2261043827657
 20
669.1756133401441
 30
0.0
 10
902.1610833596515
 20
667.7881949031515
 30
0.0
 10
903.7878476197568
 20
664.8773947877913
 30
0.0
 10
904.4796119802036
 20
663.3540505469379
 30
0.0
 10
905.6007554818884
 20
660.2136434844432
 30
0.0
 10
906.0301202034399
 20
658.5966210534261
 30
0.0
 10
906.6145497530008
 20
655.3137014121407
 30
0.0
 10
906.7696069713201
 20
653.6478562672543
 30
0.0
 10
906.7853607349012
 20
651.9806536833539
 30
0.0
  0
SPLINE
  5
22E
330
1F
100
AcDbEntity
  8
0
  6
Continuous
 62
     7
370
    35
100
AcDbSpline
210
0.0
220
0.0
230
1.0
 70
     8
 71
     3
 72
    14
 73
    10
 74
     0
 42
0.000000001
 43
0.00000001
 40
0.0
 40
0.0
 40
0.0
 40
0.0
 40
0.25
 40
0.25
 40
0.5
 40
0.5
 40
0.75
 40
0.75
 40
1.0
 40
1.0
 40
1.0
 40
1.0
 10
883.5539629334152
 20
680.9237593091423
 30
0.0
 10
886.802552002392
 20
680.1715702833909
 30
0.0
 10
889.9239160403146
 20
678.8729457863353
 30
0.0
 10
895.5708190449285
 20
675.3248528429883
 30
0.0
 10
898.095200568699
 20
673.076111647556
 30
0.0
 10
902.2697389874547
 20
667.875178455476
 30
0.0
 10
903.919040229361
 20
664.9240524915368
 30
0.0
 10
906.1613272327309
 20
658.6432383665475
 30
0.0
 10
906.7538533937342
 20
655.3148375808674
 30
0.0
 10
906.7853607349012
 20
651.9804520967057
 30
0.0
  0
LINE
  5
22F
330
1F
100
AcDbEntity
  8
0
  6
Continuous
 62
     7
370
    35
100
AcDbLine
 10
883.5539629334
 20
680.9239608958
 30
0.0
 11
883.5539629334
 21
680.9237593091
 31
0.0
  0
LINE
  5
230
330
1F
100
AcDbEntity
  8
0
  6
Continuous
 62
     7
370
    35
100
AcDbLine
 10
883.5539629334
 20
622.8101721474
 30
0.0
 11
883.5539629334
 21
622.810373734
 31
0.0
  0
SPLINE
  5
231
330
1F
100
AcDbEntity
  8
0
  6
Continuous
 62
     7
370
    35
100
AcDbSpline
210
0.0
220
0.0
230
1.0
 70
     8
 71
     3
 72
    14
 73
    10
 74
     0
 42
0.000000001
 43
0.00000001
 40
0.0
 40
0.0
 40
0.0
 40
0.0
 40
0.2499999999999999
 40
0.2499999999999999
 40
0.4999999999999999
 40
0.4999999999999999
 40
0.7499999999999999
 40
0.7499999999999999
 40
1.0
 40
1.0
 40
1.0
 40
1.0
 10
906.7853607349012
 20
651.7536809464522
 30
0.0
 10
906.7538533937342
 20
648.4192954622903
 30
0.0
 10
906.1613272327309
 20
645.0908946766102
 30
0.0
 10
903.919040229361
 20
638.8100805516209
 30
0.0
 10
902.2697389874547
 20
635.858954587682
 30
0.0
 10
898.095200568699
 20
630.6580213956018
 30
0.0
 10
895.5708190449285
 20
628.4092802001695
 30
0.0
 10
889.9239160403146
 20
624.8611872568225
 30
0.0
 10
886.8025520023922
 20
623.5625627597668
 30
0.0
 10
883.5539629334152
 20
622.8103737340155
 30
0.0
  0
SPLINE
  5
232
330
1F
100
AcDbEntity
  8
0
  6
Continuous
 62
     7
370
    35
100
AcDbSpline
210
0.0
220
0.0
230
1.0
 70
     8
 71
     3
 72
    22
 73
    18
 74
     0
 42
0.000000001
 43
0.00000001
 40
3.369126305560276
 40
3.369126305560276
 40
3.369126305560276
 40
3.369126305560276
 40
3.535853022596996
 40
3.535853022596996
 40
3.702579739633714
 40
3.702579739633714
 40
3.869306456670433
 40
3.869306456670433
 40
4.036033173707152
 40
4.036033173707152
 40
4.20275989074387
 40
4.20275989074387
 40
4.369486607780589
 40
4.369486607780589
 40
4.536213324817308
 40
4.536213324817308
 40
4.702940041854027
 40
4.702940041854027
 40
4.702940041854027
 40
4.702940041854027
 10
906.7853607349012
 20
651.7534793598038
 30
0.0
 10
906.7696069713201
 20
650.0862767759035
 30
0.0
 10
906.6145497530008
 20
648.420431631017
 30
0.0
 10
906.0301202034399
 20
645.1375119897317
 30
0.0
 10
905.6007554818883
 20
643.5204895587144
 30
0.0
 10
904.4796119802035
 20
640.3800824962199
 30
0.0
 10
903.7878476197568
 20
638.8567382553664
 30
0.0
 10
902.1610833596515
 20
635.9459381400063
 30
0.0
 10
901.2261043827657
 20
634.5585197030136
 30
0.0
 10
899.138835173388
 20
631.9580531069735
 30
0.0
 10
897.9865717864941
 20
630.7450383940583
 30
0.0
 10
895.4966848347365
 20
628.5270252658273
 30
0.0
 10
894.159093293775
 20
627.5220553776844
 30
0.0
 10
891.3356417914681
 20
625.7480089060109
 30
0.0
 10
889.8498181441945
 20
624.9789551395364
 30
0.0
 10
886.7711061838487
 20
623.6980757795807
 30
0.0
 10
885.1782669697863
 20
623.1862688603401
 30
0.0
 10
883.5539629334152
 20
622.8101721473672
 30
0.0
  0
ARC
  5
233
330
1F
100
AcDbEntity
  8
0
  6
Continuous
 62
     7
370
    35
100
AcDbCircle
 10
876.7866999615
 20
651.8670665216
 30
0.0
 40
27.00000000000006
100
AcDbArc
 50
283.0367179551
 51
359.4586157013
  0
SPLINE
  5
234
330
1F
100
AcDbEntity
  8
0
  6
Continuous
 62
     7
370
    35
100
AcDbSpline
210
0.0
220
0.0
230
1.0
 70
     8
 71
     3
 72
    14
 73
    10
 74
     0
 42
0.000000001
 43
0.00000001
 40
0.0
 40
0.0
 40
0.0
 40
0.0
 40
0.25
 40
0.25
 40
0.5
 40
0.5
 40
0.75
 40
0.75
 40
1.0
 40
1.0
 40
1.0
 40
1.0
 10
764.0194369896393
 20
622.8103737340156
 30
0.0
 10
760.7708479206625
 20
623.5625627597669
 30
0.0
 10
757.6494838827401
 20
624.8611872568225
 30
0.0
 10
752.0025808781261
 20
628.4092802001695
 30
0.0
 10
749.4781993543555
 20
630.6580213956018
 30
0.0
 10
745.3036609356
 20
635.858954587682
 30
0.0
 10
743.6543596936936
 20
638.8100805516209
 30
0.0
 10
741.4120726903238
 20
645.0908946766102
 30
0.0
 10
740.8195465293205
 20
648.4192954622903
 30
0.0
 10
740.7880391881534
 20
651.7536809464522
 30
0.0
  0
LINE
  5
235
330
1F
100
AcDbEntity
  8
0
  6
Continuous
 62
     7
370
    35
100
AcDbLine
 10
764.0194369896
 20
622.8101721474
 30
0.0
 11
764.0194369896
 21
622.810373734
 31
0.0
  0
SPLINE
  5
236
330
1F
100
AcDbEntity
  8
0
  6
Continuous
 62
     7
370
    35
100
AcDbSpline
210
0.0
220
0.0
230
1.0
 70
     8
 71
     3
 72
    22
 73
    18
 74
     0
 42
0.000000001
 43
0.00000001
 40
1.580245265325559
 40
1.580245265325559
 40
1.580245265325559
 40
1.580245265325559
 40
1.746971982362278
 40
1.746971982362278
 40
1.913698699398996
 40
1.913698699398996
 40
2.080425416435715
 40
2.080425416435715
 40
2.247152133472434
 40
2.247152133472434
 40
2.413878850509152
 40
2.413878850509152
 40
2.580605567545871
 40
2.580605567545871
 40
2.74733228458259
 40
2.74733228458259
 40
2.914059001619308
 40
2.914059001619308
 40
2.914059001619308
 40
2.914059001619308
 10
764.0194369896393
 20
622.8101721473672
 30
0.0
 10
762.3951329532684
 20
623.1862688603401
 30
0.0
 10
760.8022937392057
 20
623.6980757795807
 30
0.0
 10
757.72358177886
 20
624.9789551395365
 30
0.0
 10
756.2377581315866
 20
625.7480089060109
 30
0.0
 10
753.4143066292795
 20
627.5220553776844
 30
0.0
 10
752.076715088318
 20
628.5270252658273
 30
0.0
 10
749.5868281365606
 20
630.7450383940583
 30
0.0
 10
748.4345647496666
 20
631.9580531069737
 30
0.0
 10
746.3472955402889
 20
634.5585197030136
 30
0.0
 10
745.4123165634031
 20
635.9459381400063
 30
0.0
 10
743.7855523032978
 20
638.8567382553666
 30
0.0
 10
743.093787942851
 20
640.38008249622
 30
0.0
 10
741.9726444411662
 20
643.5204895587146
 30
0.0
 10
741.5432797196147
 20
645.1375119897318
 30
0.0
 10
740.9588501700538
 20
648.4204316310171
 30
0.0
 10
740.8037929517345
 20
650.0862767759035
 30
0.0
 10
740.7880391881534
 20
651.7534793598038
 30
0.0
  0
ARC
  5
237
330
1F
100
AcDbEntity
  8
0
  6
Continuous
 62
     7
370
    35
100
AcDbCircle
 10
770.7866999615
 20
651.8670665216
 30
0.0
 40
27.00000000000006
100
AcDbArc
 50
180.5413842987
 51
256.9632820449
  0
ARC
  5
238
330
1F
100
AcDbEntity
  8
0
  6
Continuous
 62
     7
370
    35
100
AcDbCircle
 10
876.7866999615
 20
651.8670665216
 30
0.0
 40
27.00000000000005
100
AcDbArc
 50
0.5413842987
 51
76.9632820449
  0
LINE
  5
239
330
1F
100
AcDbEntity
  8
0
  6
Continuous
 62
     7
370
    35
100
AcDbLine
 10
764.0194369896
 20
680.9239608958
 30
0.0
 11
764.0194369896
 21
680.9237593091
 31
0.0
  0
SPLINE
  5
23A
330
1F
100
AcDbEntity
  8
0
  6
Continuous
 62
     7
370
    35
100
AcDbSpline
210
0.0
220
0.0
230
1.0
 70
     8
 71
     3
 72
    14
 73
    10
 74
     0
 42
0.000000001
 43
0.00000001
 40
0.0
 40
0.0
 40
0.0
 40
0.0
 40
0.25
 40
0.25
 40
0.5
 40
0.5
 40
0.75
 40
0.75
 40
1.0
 40
1.0
 40
1.0
 40
1.0
 10
740.7880391881534
 20
651.9804520967057
 30
0.0
 10
740.8195465293205
 20
655.3148375808674
 30
0.0
 10
741.4120726903238
 20
658.6432383665475
 30
0.0
 10
743.6543596936936
 20
664.9240524915368
 30
0.0
 10
745.3036609356
 20
667.875178455476
 30
0.0
 10
749.4781993543556
 20
673.076111647556
 30
0.0
 10
752.0025808781261
 20
675.3248528429883
 30
0.0
 10
757.6494838827402
 20
678.8729457863353
 30
0.0
 10
760.7708479206626
 20
680.1715702833909
 30
0.0
 10
764.0194369896394
 20
680.9237593091423
 30
0.0
  0
ARC
  5
23B
330
1F
100
AcDbEntity
  8
0
  6
Continuous
 62
     7
370
    35
100
AcDbCircle
 10
770.7866999615
 20
651.8670665216
 30
0.0
 40
27.00000000000005
100
AcDbArc
 50
103.0367179551
 51
179.4586157013
  0
SPLINE
  5
23C
330
1F
100
AcDbEntity
  8
0
  6
Continuous
 62
     7
370
    35
100
AcDbSpline
210
0.0
220
0.0
230
1.0
 70
     8
 71
     3
 72
     8
 73
     4
 74
     0
 42
0.000000001
 43
0.00000001
 40
0.0
 40
0.0
 40
0.0
 40
0.0
 40
0.0000569949035229
 40
0.0000569949035229
 40
0.0000569949035229
 40
0.0000569949035229
 10
740.7880391881534
 20
651.7534793598038
 30
0.0
 10
740.7875920312842
 20
651.7724418508934
 30
0.0
 10
740.7872565230507
 20
651.7914072976906
 30
0.0
 10
740.7870333007903
 20
651.8103737340166
 30
0.0
  0
SPLINE
  5
23D
330
1F
100
AcDbEntity
  8
0
  6
Continuous
 62
     7
370
    35
100
AcDbSpline
210
0.0
220
0.0
230
1.0
 70
     8
 71
     3
 72
     8
 73
     4
 74
     0
 42
0.000000001
 43
0.00000001
 40
0.0
 40
0.0
 40
0.0
 40
0.0
 40
1.0
 40
1.0
 40
1.0
 40
1.0
 10
770.7866999615273
 20
622.6112823229789
 30
0.0
 10
768.5295777045148
 20
622.6112823229789
 30
0.0
 10
766.2727489867277
 20
622.6792735290228
 30
0.0
 10
764.0194369896393
 20
622.8101721473672
 30
0.0
  0
LINE
  5
23E
330
1F
100
AcDbEntity
  8
0
  6
Continuous
 62
     7
370
    35
100
AcDbLine
 10
876.7866999615
 20
622.611282323
 30
0.0
 11
770.7866999615
 21
622.611282323
 31
0.0
  0
SPLINE
  5
23F
330
1F
100
AcDbEntity
  8
0
  6
Continuous
 62
     7
370
    35
100
AcDbSpline
210
0.0
220
0.0
230
1.0
 70
     8
 71
     3
 72
     8
 73
     4
 74
     0
 42
0.000000001
 43
0.00000001
 40
0.0
 40
0.0
 40
0.0
 40
0.0
 40
1.0
 40
1.0
 40
1.0
 40
1.0
 10
883.5539629334152
 20
622.8101721473673
 30
0.0
 10
881.300651243022
 20
622.6792735470519
 30
0.0
 10
879.0438271127582
 20
622.6112823229789
 30
0.0
 10
876.7866999615273
 20
622.6112823229789
 30
0.0
  0
SPLINE
  5
240
330
1F
100
AcDbEntity
  8
0
  6
Continuous
 62
     7
370
    35
100
AcDbSpline
210
0.0
220
0.0
230
1.0
 70
     8
 71
     3
 72
     8
 73
     4
 74
     0
 42
0.000000001
 43
0.00000001
 40
0.0
 40
0.0
 40
0.0
 40
0.0
 40
0.0000569949035229
 40
0.0000569949035229
 40
0.0000569949035229
 40
0.0000569949035229
 10
906.7863666222644
 20
651.8103737340166
 30
0.0
 10
906.7861434000039
 20
651.7914072976906
 30
0.0
 10
906.7858078917703
 20
651.7724418508934
 30
0.0
 10
906.7853607349012
 20
651.7534793598038
 30
0.0
  0
SPLINE
  5
241
330
1F
100
AcDbEntity
  8
0
  6
Continuous
 62
     7
370
    35
100
AcDbSpline
210
0.0
220
0.0
230
1.0
 70
     8
 71
     3
 72
    10
 73
     6
 74
     0
 42
0.000000001
 43
0.00000001
 40
0.0
 40
0.0
 40
0.0
 40
0.0
 40
0.5
 40
0.5
 40
1.0
 40
1.0
 40
1.0
 40
1.0
 10
770.7866999615273
 20
622.6170665215789
 30
0.0
 10
769.6437398135699
 20
622.6170665215789
 30
0.0
 10
768.5085463358264
 20
622.6333405404073
 30
0.0
 10
766.2530200034555
 20
622.6977749324165
 30
0.0
 10
765.1326840573996
 20
622.7459325097224
 30
0.0
 10
764.0194369896393
 20
622.8103737340155
 30
0.0
  0
SPLINE
  5
242
330
1F
100
AcDbEntity
  8
0
  6
Continuous
 62
     7
370
    35
100
AcDbSpline
210
0.0
220
0.0
230
1.0
 70
     8
 71
     3
 72
    10
 73
     6
 74
     0
 42
0.000000001
 43
0.00000001
 40
0.0
 40
0.0
 40
0.0
 40
0.0
 40
0.5
 40
0.5
 40
1.0
 40
1.0
 40
1.0
 40
1.0
 10
770.7866999615273
 20
624.8670665215789
 30
0.0
 10
769.7579602284392
 20
624.8670665215789
 30
0.0
 10
768.73628075214
 20
624.9256600585879
 30
0.0
 10
766.7063551694946
 20
625.1576227326036
 30
0.0
 10
765.6981056527293
 20
625.330979446891
 30
0.0
 10
764.6961632868282
 20
625.5629724863504
 30
0.0
  0
SPLINE
  5
243
330
1F
100
AcDbEntity
  8
0
  6
Continuous
 62
     7
370
    35
100
AcDbSpline
210
0.0
220
0.0
230
1.0
 70
     8
 71
     3
 72
    10
 73
     6
 74
     0
 42
0.000000001
 43
0.00000001
 40
0.0
 40
0.0
 40
0.0
 40
0.0
 40
0.5
 40
0.5
 40
1.0
 40
1.0
 40
1.0
 40
1.0
 10
883.5539629334154
 20
622.8103737340155
 30
0.0
 10
882.440715865655
 20
622.7459325097224
 30
0.0
 10
881.3203799195992
 20
622.6977749324165
 30
0.0
 10
879.0648535872281
 20
622.6333405404073
 30
0.0
 10
877.9296601094846
 20
622.6170665215789
 30
0.0
 10
876.7866999615273
 20
622.6170665215789
 30
0.0
  0
SPLINE
  5
244
330
1F
100
AcDbEntity
  8
0
  6
Continuous
 62
     7
370
    35
100
AcDbSpline
210
0.0
220
0.0
230
1.0
 70
     8
 71
     3
 72
    10
 73
     6
 74
     0
 42
0.000000001
 43
0.00000001
 40
0.0
 40
0.0
 40
0.0
 40
0.0
 40
0.5
 40
0.5
 40
1.0
 40
1.0
 40
1.0
 40
1.0
 10
882.8772366362264
 20
625.5629724863504
 30
0.0
 10
881.8752942703244
 20
625.3309794468909
 30
0.0
 10
880.8670447535579
 20
625.1576227326034
 30
0.0
 10
878.8371191709106
 20
624.9256600585877
 30
0.0
 10
877.8154396946165
 20
624.8670665215789
 30
0.0
 10
876.7866999615273
 20
624.8670665215789
 30
0.0
  0
SPLINE
  5
245
330
1F
100
AcDbEntity
  8
0
  6
Continuous
 62
     7
370
    35
100
AcDbSpline
210
0.0
220
0.0
230
1.0
 70
     8
 71
     3
 72
    10
 73
     6
 74
     0
 42
0.000000001
 43
0.00000001
 40
0.0
 40
0.0
 40
0.0
 40
0.0
 40
0.5
 40
0.5
 40
1.0
 40
1.0
 40
1.0
 40
1.0
 10
764.0194369896394
 20
680.9237593091425
 30
0.0
 10
765.1326840573996
 20
680.9882005334355
 30
0.0
 10
766.2530200034556
 20
681.0363581107414
 30
0.0
 10
768.5085463358265
 20
681.1007925027506
 30
0.0
 10
769.6437398135699
 20
681.1170665215789
 30
0.0
 10
770.7866999615273
 20
681.1170665215789
 30
0.0
  0
SPLINE
  5
246
330
1F
100
AcDbEntity
  8
0
  6
Continuous
 62
     7
370
    35
100
AcDbSpline
210
0.0
220
0.0
230
1.0
 70
     8
 71
     3
 72
    10
 73
     6
 74
     0
 42
0.000000001
 43
0.00000001
 40
0.0
 40
0.0
 40
0.0
 40
0.0
 40
0.5
 40
0.5
 40
1.0
 40
1.0
 40
1.0
 40
1.0
 10
764.6961632868282
 20
678.1711605568075
 30
0.0
 10
765.6981056527303
 20
678.403153596267
 30
0.0
 10
766.7063551694966
 20
678.5765103105546
 30
0.0
 10
768.736280752144
 20
678.80847298457
 30
0.0
 10
769.757960228438
 20
678.8670665215789
 30
0.0
 10
770.7866999615273
 20
678.8670665215789
 30
0.0
  0
SPLINE
  5
247
330
1F
100
AcDbEntity
  8
0
  6
Continuous
 62
     7
370
    35
100
AcDbSpline
210
0.0
220
0.0
230
1.0
 70
     8
 71
     3
 72
    10
 73
     6
 74
     0
 42
0.000000001
 43
0.00000001
 40
0.0
 40
0.0
 40
0.0
 40
0.0
 40
0.5
 40
0.5
 40
1.0
 40
1.0
 40
1.0
 40
1.0
 10
876.7866999615273
 20
681.1170665215789
 30
0.0
 10
877.9296601094846
 20
681.1170665215789
 30
0.0
 10
879.0648535872281
 20
681.1007925027506
 30
0.0
 10
881.320379919599
 20
681.0363581107414
 30
0.0
 10
882.440715865655
 20
680.9882005334355
 30
0.0
 10
883.5539629334152
 20
680.9237593091425
 30
0.0
  0
SPLINE
  5
248
330
1F
100
AcDbEntity
  8
0
  6
Continuous
 62
     7
370
    35
100
AcDbSpline
210
0.0
220
0.0
230
1.0
 70
     8
 71
     3
 72
    10
 73
     6
 74
     0
 42
0.000000001
 43
0.00000001
 40
0.0
 40
0.0
 40
0.0
 40
0.0
 40
0.5
 40
0.5
 40
1.0
 40
1.0
 40
1.0
 40
1.0
 10
876.7866999615273
 20
678.8670665215789
 30
0.0
 10
877.8154396946154
 20
678.8670665215789
 30
0.0
 10
878.8371191709147
 20
678.8084729845698
 30
0.0
 10
880.86704475356
 20
678.5765103105541
 30
0.0
 10
881.8752942703253
 20
678.4031535962667
 30
0.0
 10
882.8772366362264
 20
678.1711605568075
 30
0.0
  0
LINE
  5
249
330
1F
100
AcDbEntity
  8
0
  6
Continuous
 62
     7
370
    35
100
AcDbLine
 10
770.7866999615
 20
622.6170665216
 30
0.0
 11
876.7866999615
 21
622.6170665216
 31
0.0
  0
LINE
  5
24A
330
1F
100
AcDbEntity
  8
0
  6
Continuous
 62
     7
370
    35
100
AcDbLine
 10
876.7866999615
 20
624.8670665216
 30
0.0
 11
770.7866999615
 21
624.8670665216
 31
0.0
  0
LINE
  5
24B
330
1F
100
AcDbEntity
  8
0
  6
Continuous
 62
     7
370
    35
100
AcDbLine
 10
876.7866999615
 20
681.1170665216
 30
0.0
 11
770.7866999615
 21
681.1170665216
 31
0.0
  0
LINE
  5
24C
330
1F
100
AcDbEntity
  8
0
  6
Continuous
 62
     7
370
    35
100
AcDbLine
 10
770.7866999615
 20
678.8670665216
 30
0.0
 11
876.7866999615
 21
678.8670665216
 31
0.0
  0
SPLINE
  5
24D
330
1F
100
AcDbEntity
  8
0
  6
Continuous
 62
     7
370
    35
100
AcDbSpline
210
0.0
220
0.0
230
1.0
 70
     8
 71
     3
 72
     8
 73
     4
 74
     0
 42
0.000000001
 43
0.00000001
 40
0.0
 40
0.0
 40
0.0
 40
0.0
 40
1.0
 40
1.0
 40
1.0
 40
1.0
 10
906.7853607349012
 20
651.9804520967057
 30
0.0
 10
906.7871464102606
 20
651.9048617132878
 30
0.0
 10
906.7871464102606
 20
651.8292713298699
 30
0.0
 10
906.7853607349012
 20
651.7536809464522
 30
0.0
  0
SPLINE
  5
24E
330
1F
100
AcDbEntity
  8
0
  6
Continuous
 62
     7
370
    35
100
AcDbSpline
210
0.0
220
0.0
230
1.0
 70
     8
 71
     3
 72
     8
 73
     4
 74
     0
 42
0.000000001
 43
0.00000001
 40
0.0
 40
0.0
 40
0.0
 40
0.0
 40
1.0
 40
1.0
 40
1.0
 40
1.0
 10
903.7854946575638
 20
652.1221840656141
 30
0.0
 10
903.7871017653873
 20
651.952105702924
 30
0.0
 10
903.7871017653873
 20
651.7820273402339
 30
0.0
 10
903.7854946575638
 20
651.6119489775438
 30
0.0
  0
SPLINE
  5
24F
330
1F
100
AcDbEntity
  8
0
  6
Continuous
 62
     7
370
    35
100
AcDbSpline
210
0.0
220
0.0
230
1.0
 70
     8
 71
     3
 72
     8
 73
     4
 74
     0
 42
0.000000001
 43
0.00000001
 40
0.0
 40
0.0
 40
0.0
 40
0.0
 40
0.0001133855751267
 40
0.0001133855751267
 40
0.0001133855751267
 40
0.0001133855751267
 10
906.7863666222642
 20
651.8103737340156
 30
0.0
 10
906.7868107002923
 20
651.8481055338465
 30
0.0
 10
906.7868107002924
 20
651.8860275093208
 30
0.0
 10
906.7863666222642
 20
651.9237593091517
 30
0.0
  0
SPLINE
  5
250
330
1F
100
AcDbEntity
  8
0
  6
Continuous
 62
     7
370
    35
100
AcDbSpline
210
0.0
220
0.0
230
1.0
 70
     8
 71
     3
 72
     8
 73
     4
 74
     0
 42
0.000000001
 43
0.00000001
 40
0.0
 40
0.0
 40
0.0
 40
0.0
 40
1.0
 40
1.0
 40
1.0
 40
1.0
 10
743.7879052654908
 20
651.6119489775438
 30
0.0
 10
743.7862981576674
 20
651.7820273402339
 30
0.0
 10
743.7862981576674
 20
651.952105702924
 30
0.0
 10
743.7879052654908
 20
652.1221840656141
 30
0.0
  0
SPLINE
  5
251
330
1F
100
AcDbEntity
  8
0
  6
Continuous
 62
     7
370
    35
100
AcDbSpline
210
0.0
220
0.0
230
1.0
 70
     8
 71
     3
 72
     8
 73
     4
 74
     0
 42
0.000000001
 43
0.00000001
 40
0.0
 40
0.0
 40
0.0
 40
0.0
 40
1.0
 40
1.0
 40
1.0
 40
1.0
 10
740.7880391881536
 20
651.7536809464522
 30
0.0
 10
740.786253512794
 20
651.8292713298699
 30
0.0
 10
740.786253512794
 20
651.9048617132878
 30
0.0
 10
740.7880391881536
 20
651.9804520967057
 30
0.0
  0
SPLINE
  5
252
330
1F
100
AcDbEntity
  8
0
  6
Continuous
 62
     7
370
    35
100
AcDbSpline
210
0.0
220
0.0
230
1.0
 70
     8
 71
     3
 72
     8
 73
     4
 74
     0
 42
0.000000001
 43
0.00000001
 40
0.0
 40
0.0
 40
0.0
 40
0.0
 40
0.0001133855751265
 40
0.0001133855751265
 40
0.0001133855751265
 40
0.0001133855751265
 10
740.7870333007902
 20
651.9237593091423
 30
0.0
 10
740.786589222762
 20
651.8860275093145
 30
0.0
 10
740.7865892227622
 20
651.8481055338435
 30
0.0
 10
740.7870333007903
 20
651.8103737340157
 30
0.0
  0
SPLINE
  5
253
330
1F
100
AcDbEntity
  8
0
  6
Continuous
 62
     7
370
    35
100
AcDbSpline
210
0.0
220
0.0
230
1.0
 70
     8
 71
     3
 72
     9
 73
     5
 74
     0
 42
0.000000001
 43
0.00000001
 40
0.0
 40
0.0
 40
0.0
 40
0.0
 40
0.4946096718337113
 40
0.9999999999999999
 40
0.9999999999999999
 40
0.9999999999999999
 40
0.9999999999999999
 10
780.7866999615297
 20
646.9338920189517
 30
0.0
 10
780.7691805926964
 20
646.4528038407955
 30
0.0
 10
780.7337599977689
 20
645.4801415465612
 30
0.0
 10
780.4901945158598
 20
644.5417812379862
 30
0.0
 10
780.3670988770278
 20
644.0675430136974
 30
0.0
  0
SPLINE
  5
254
330
1F
100
AcDbEntity
  8
0
  6
Continuous
 62
     7
370
    35
100
AcDbSpline
210
0.0
220
0.0
230
1.0
 70
     8
 71
     3
 72
    16
 73
    12
 74
     0
 42
0.000000001
 43
0.00000001
 40
0.0
 40
0.0
 40
0.0
 40
0.0
 40
0.6093642604474537
 40
0.7233750503865236
 40
0.8172213162014322
 40
0.8496365726793015
 40
0.8823612341653051
 40
0.9067814804498373
 40
0.9311421346350485
 40
0.9706402276062258
 40
1.0
 40
1.0
 40
1.0
 40
1.0
 10
772.8209785186787
 20
635.0094282638563
 30
0.0
 10
772.2441442490896
 20
634.7117731879068
 30
0.0
 10
771.5593854834175
 20
634.3584274642757
 30
0.0
 10
770.8921425122259
 20
633.8326891406182
 30
0.0
 10
770.7218891142421
 20
633.6475361305609
 30
0.0
 10
770.6536156535622
 20
633.4988798303875
 30
0.0
 10
770.6419765125664
 20
633.4052791650054
 30
0.0
 10
770.6665019607781
 20
633.3213164799964
 30
0.0
 10
770.7227646684199
 20
633.2431774928232
 30
0.0
 10
770.8058368310841
 20
633.1809802969859
 30
0.0
 10
770.8742576995309
 20
633.1490903677559
 30
0.0
 10
770.9034311441901
 20
633.1354930675943
 30
0.0
  0
SPLINE
  5
255
330
1F
100
AcDbEntity
  8
0
  6
Continuous
 62
     7
370
    35
100
AcDbSpline
210
0.0
220
0.0
230
1.0
 70
     8
 71
     3
 72
    13
 73
     9
 74
     0
 42
0.000000001
 43
0.00000001
 40
0.0
 40
0.0
 40
0.0
 40
0.0
 40
0.1585077763891424
 40
0.3168380823631881
 40
0.4791716695216436
 40
0.6493085002787173
 40
0.823595348237194
 40
1.0
 40
1.0
 40
1.0
 40
1.0
 10
758.2590877243716
 20
647.5459138610995
 30
0.0
 10
758.5516628781306
 20
646.5355884092946
 30
0.0
 10
759.136485609077
 20
644.5160686986231
 30
0.0
 10
760.6325121607631
 20
641.6954659470629
 30
0.0
 10
762.5591908304687
 20
639.0654151390786
 30
0.0
 10
764.9582652282476
 20
636.7024825428301
 30
0.0
 10
767.7505915009816
 20
634.6465901977537
 30
0.0
 10
769.8482620298679
 20
633.6412159082469
 30
0.0
 10
770.9034311441901
 20
633.1354930675943
 30
0.0
  0
SPLINE
  5
256
330
1F
100
AcDbEntity
  8
0
  6
Continuous
 62
     7
370
    35
100
AcDbSpline
210
0.0
220
0.0
230
1.0
 70
     8
 71
     3
 72
     9
 73
     5
 74
     0
 42
0.000000001
 43
0.00000001
 40
0.0
 40
0.0
 40
0.0
 40
0.0
 40
0.4781757401206171
 40
0.9999999999999999
 40
0.9999999999999999
 40
0.9999999999999999
 40
0.9999999999999999
 10
758.2590877243716
 20
656.1882191820586
 30
0.0
 10
758.0123613327061
 20
654.8119731121885
 30
0.0
 10
757.4963870350488
 20
651.9338553943746
 30
0.0
 10
757.9975623083246
 20
649.0505122587994
 30
0.0
 10
758.2590877243716
 20
647.5459138610995
 30
0.0
  0
SPLINE
  5
257
330
1F
100
AcDbEntity
  8
0
  6
Continuous
 62
     7
370
    35
100
AcDbSpline
210
0.0
220
0.0
230
1.0
 70
     8
 71
     3
 72
    13
 73
     9
 74
     0
 42
0.000000001
 43
0.00000001
 40
0.0
 40
0.0
 40
0.0
 40
0.0
 40
0.1585077763891428
 40
0.3168380823631893
 40
0.4791716695216448
 40
0.649308500278719
 40
0.8235953482372024
 40
1.0
 40
1.0
 40
1.0
 40
1.0
 10
758.2590877243716
 20
656.1882191820586
 30
0.0
 10
758.5516628781306
 20
657.1985446338633
 30
0.0
 10
759.136485609077
 20
659.2180643445348
 30
0.0
 10
760.6325121607631
 20
662.0386670960951
 30
0.0
 10
762.5591908304687
 20
664.6687179040795
 30
0.0
 10
764.9582652282476
 20
667.0316505003279
 30
0.0
 10
767.7505915009815
 20
669.0875428454046
 30
0.0
 10
769.8482620298679
 20
670.0929171349111
 30
0.0
 10
770.9034311441901
 20
670.5986399755634
 30
0.0
  0
SPLINE
  5
258
330
1F
100
AcDbEntity
  8
0
  6
Continuous
 62
     7
370
    35
100
AcDbSpline
210
0.0
220
0.0
230
1.0
 70
     8
 71
     3
 72
    16
 73
    12
 74
     0
 42
0.000000001
 43
0.00000001
 40
0.0
 40
0.0
 40
0.0
 40
0.0
 40
0.6093642604474542
 40
0.7233750503865221
 40
0.8172213162014309
 40
0.8496365726793004
 40
0.8823612341653067
 40
0.906781480449837
 40
0.9311421346350484
 40
0.9706402276062257
 40
1.0
 40
1.0
 40
1.0
 40
1.0
 10
772.8209785186787
 20
668.7247047793014
 30
0.0
 10
772.2441442490896
 20
669.022359855251
 30
0.0
 10
771.5593854834175
 20
669.375705578882
 30
0.0
 10
770.892142512226
 20
669.9014439025395
 30
0.0
 10
770.7218891142421
 20
670.086596912597
 30
0.0
 10
770.6536156535624
 20
670.2352532127703
 30
0.0
 10
770.6419765125664
 20
670.3288538781525
 30
0.0
 10
770.6665019607781
 20
670.4128165631615
 30
0.0
 10
770.7227646684199
 20
670.4909555503345
 30
0.0
 10
770.8058368310841
 20
670.5531527461719
 30
0.0
 10
770.8742576995309
 20
670.5850426754018
 30
0.0
 10
770.9034311441901
 20
670.5986399755634
 30
0.0
  0
SPLINE
  5
259
330
1F
100
AcDbEntity
  8
0
  6
Continuous
 62
     7
370
    35
100
AcDbSpline
210
0.0
220
0.0
230
1.0
 70
     8
 71
     3
 72
    11
 73
     7
 74
     0
 42
0.000000001
 43
0.00000001
 40
0.0
 40
0.0
 40
0.0
 40
0.0
 40
0.2606216717114558
 40
0.4632004480831471
 40
0.671366779562141
 40
0.9999999999999999
 40
0.9999999999999999
 40
0.9999999999999999
 40
0.9999999999999999
 10
780.3670988770278
 20
659.6665900294604
 30
0.0
 10
780.0002175063664
 20
660.668308209271
 30
0.0
 10
779.348162693857
 20
662.4486525171492
 30
0.0
 10
777.8107978320343
 20
664.7036521392121
 30
0.0
 10
775.7960320475435
 20
666.9182863195582
 30
0.0
 10
773.9507039617141
 20
668.038748417528
 30
0.0
 10
772.8209785186787
 20
668.7247047793014
 30
0.0
  0
SPLINE
  5
25A
330
1F
100
AcDbEntity
  8
0
  6
Continuous
 62
     7
370
    35
100
AcDbSpline
210
0.0
220
0.0
230
1.0
 70
     8
 71
     3
 72
     9
 73
     5
 74
     0
 42
0.000000001
 43
0.00000001
 40
0.0
 40
0.0
 40
0.0
 40
0.0
 40
0.494609671833704
 40
1.0
 40
1.0
 40
1.0
 40
1.0
 10
780.7866999615297
 20
656.8002410242063
 30
0.0
 10
780.7691805926964
 20
657.2813292023625
 30
0.0
 10
780.7337599977689
 20
658.2539914965967
 30
0.0
 10
780.4901945158598
 20
659.1923518051716
 30
0.0
 10
780.3670988770278
 20
659.6665900294604
 30
0.0
  0
LINE
  5
25B
330
1F
100
AcDbEntity
  8
0
  6
Continuous
 62
     7
370
    35
100
AcDbLine
 10
780.7866999615
 20
656.8002410242
 30
0.0
 11
780.7866999615
 21
646.933892019
 31
0.0
  0
SPLINE
  5
25C
330
1F
100
AcDbEntity
  8
0
  6
Continuous
 62
     7
370
    35
100
AcDbSpline
210
0.0
220
0.0
230
1.0
 70
     8
 71
     3
 72
    11
 73
     7
 74
     0
 42
0.000000001
 43
0.00000001
 40
0.0
 40
0.0
 40
0.0
 40
0.0
 40
0.2606216717114483
 40
0.4632004480831401
 40
0.6713667795621332
 40
1.0
 40
1.0
 40
1.0
 40
1.0
 10
780.3670988770278
 20
644.0675430136974
 30
0.0
 10
780.0002175063664
 20
643.0658248338871
 30
0.0
 10
779.348162693857
 20
641.2854805260088
 30
0.0
 10
777.8107978320343
 20
639.030480903946
 30
0.0
 10
775.7960320475433
 20
636.8158467235999
 30
0.0
 10
773.9507039617141
 20
635.6953846256298
 30
0.0
 10
772.8209785186787
 20
635.0094282638563
 30
0.0
  0
SPLINE
  5
25D
330
1F
100
AcDbEntity
  8
0
  6
Continuous
 62
     7
370
    35
100
AcDbSpline
210
0.0
220
0.0
230
1.0
 70
     8
 71
     3
 72
     9
 73
     5
 74
     0
 42
0.000000001
 43
0.00000001
 40
0.0
 40
0.0
 40
0.0
 40
0.0
 40
0.4946096718337015
 40
1.0
 40
1.0
 40
1.0
 40
1.0
 10
866.786699961525
 20
656.800241024206
 30
0.0
 10
866.8042193303583
 20
657.2813292023623
 30
0.0
 10
866.8396399252856
 20
658.2539914965965
 30
0.0
 10
867.0832054071948
 20
659.1923518051715
 30
0.0
 10
867.2063010460269
 20
659.6665900294603
 30
0.0
  0
SPLINE
  5
25E
330
1F
100
AcDbEntity
  8
0
  6
Continuous
 62
     7
370
    35
100
AcDbSpline
210
0.0
220
0.0
230
1.0
 70
     8
 71
     3
 72
    16
 73
    12
 74
     0
 42
0.000000001
 43
0.00000001
 40
0.0
 40
0.0
 40
0.0
 40
0.0
 40
0.6093642604474568
 40
0.7233750503865223
 40
0.8172213162014309
 40
0.8496365726793004
 40
0.882361234165309
 40
0.9067814804498372
 40
0.9311421346350485
 40
0.9706402276062258
 40
1.0
 40
1.0
 40
1.0
 40
1.0
 10
874.752421404376
 20
668.7247047793014
 30
0.0
 10
875.329255673965
 20
669.022359855251
 30
0.0
 10
876.0140144396371
 20
669.375705578882
 30
0.0
 10
876.6812574108286
 20
669.9014439025395
 30
0.0
 10
876.8515108088125
 20
670.086596912597
 30
0.0
 10
876.9197842694924
 20
670.2352532127703
 30
0.0
 10
876.9314234104882
 20
670.3288538781524
 30
0.0
 10
876.9068979622765
 20
670.4128165631615
 30
0.0
 10
876.8506352546348
 20
670.4909555503345
 30
0.0
 10
876.7675630919705
 20
670.5531527461718
 30
0.0
 10
876.6991422235237
 20
670.5850426754018
 30
0.0
 10
876.6699687788646
 20
670.5986399755634
 30
0.0
  0
SPLINE
  5
25F
330
1F
100
AcDbEntity
  8
0
  6
Continuous
 62
     7
370
    35
100
AcDbSpline
210
0.0
220
0.0
230
1.0
 70
     8
 71
     3
 72
    13
 73
     9
 74
     0
 42
0.000000001
 43
0.00000001
 40
0.0
 40
0.0
 40
0.0
 40
0.0
 40
0.1585077763891424
 40
0.3168380823631881
 40
0.4791716695216436
 40
0.6493085002787172
 40
0.823595348237194
 40
1.0
 40
1.0
 40
1.0
 40
1.0
 10
889.314312198683
 20
656.1882191820582
 30
0.0
 10
889.021737044924
 20
657.1985446338631
 30
0.0
 10
888.4369143139777
 20
659.2180643445347
 30
0.0
 10
886.9408877622917
 20
662.0386670960949
 30
0.0
 10
885.0142090925859
 20
664.6687179040791
 30
0.0
 10
882.615134694807
 20
667.0316505003278
 30
0.0
 10
879.822808422073
 20
669.0875428454041
 30
0.0
 10
877.7251378931868
 20
670.092917134911
 30
0.0
 10
876.6699687788646
 20
670.5986399755634
 30
0.0
  0
SPLINE
  5
260
330
1F
100
AcDbEntity
  8
0
  6
Continuous
 62
     7
370
    35
100
AcDbSpline
210
0.0
220
0.0
230
1.0
 70
     8
 71
     3
 72
     9
 73
     5
 74
     0
 42
0.000000001
 43
0.00000001
 40
0.0
 40
0.0
 40
0.0
 40
0.0
 40
0.4781757401206185
 40
0.9999999999999999
 40
0.9999999999999999
 40
0.9999999999999999
 40
0.9999999999999999
 10
889.314312198683
 20
656.1882191820582
 30
0.0
 10
889.5610385903484
 20
654.8119731121883
 30
0.0
 10
890.0770128880059
 20
651.9338553943743
 30
0.0
 10
889.5758376147301
 20
649.0505122587991
 30
0.0
 10
889.314312198683
 20
647.5459138610994
 30
0.0
  0
SPLINE
  5
261
330
1F
100
AcDbEntity
  8
0
  6
Continuous
 62
     7
370
    35
100
AcDbSpline
210
0.0
220
0.0
230
1.0
 70
     8
 71
     3
 72
    13
 73
     9
 74
     0
 42
0.000000001
 43
0.00000001
 40
0.0
 40
0.0
 40
0.0
 40
0.0
 40
0.158507776389143
 40
0.3168380823631895
 40
0.479171669521645
 40
0.6493085002787192
 40
0.8235953482372024
 40
1.0
 40
1.0
 40
1.0
 40
1.0
 10
889.314312198683
 20
647.5459138610994
 30
0.0
 10
889.021737044924
 20
646.5355884092944
 30
0.0
 10
888.4369143139777
 20
644.5160686986229
 30
0.0
 10
886.9408877622916
 20
641.6954659470628
 30
0.0
 10
885.0142090925859
 20
639.0654151390785
 30
0.0
 10
882.615134694807
 20
636.70248254283
 30
0.0
 10
879.8228084220732
 20
634.6465901977533
 30
0.0
 10
877.7251378931869
 20
633.6412159082466
 30
0.0
 10
876.6699687788646
 20
633.1354930675943
 30
0.0
  0
SPLINE
  5
262
330
1F
100
AcDbEntity
  8
0
  6
Continuous
 62
     7
370
    35
100
AcDbSpline
210
0.0
220
0.0
230
1.0
 70
     8
 71
     3
 72
    16
 73
    12
 74
     0
 42
0.000000001
 43
0.00000001
 40
0.0
 40
0.0
 40
0.0
 40
0.0
 40
0.6093642604474564
 40
0.7233750503865237
 40
0.8172213162014321
 40
0.8496365726793013
 40
0.8823612341653074
 40
0.9067814804498375
 40
0.9311421346350487
 40
0.9706402276062259
 40
1.0
 40
1.0
 40
1.0
 40
1.0
 10
874.752421404376
 20
635.0094282638563
 30
0.0
 10
875.329255673965
 20
634.7117731879068
 30
0.0
 10
876.0140144396371
 20
634.3584274642757
 30
0.0
 10
876.6812574108287
 20
633.8326891406182
 30
0.0
 10
876.8515108088125
 20
633.6475361305608
 30
0.0
 10
876.9197842694924
 20
633.4988798303875
 30
0.0
 10
876.9314234104882
 20
633.4052791650054
 30
0.0
 10
876.9068979622765
 20
633.3213164799964
 30
0.0
 10
876.8506352546348
 20
633.2431774928232
 30
0.0
 10
876.7675630919705
 20
633.1809802969859
 30
0.0
 10
876.6991422235237
 20
633.1490903677559
 30
0.0
 10
876.6699687788646
 20
633.1354930675943
 30
0.0
  0
SPLINE
  5
263
330
1F
100
AcDbEntity
  8
0
  6
Continuous
 62
     7
370
    35
100
AcDbSpline
210
0.0
220
0.0
230
1.0
 70
     8
 71
     3
 72
    11
 73
     7
 74
     0
 42
0.000000001
 43
0.00000001
 40
0.0
 40
0.0
 40
0.0
 40
0.0
 40
0.260621671711453
 40
0.4632004480831456
 40
0.6713667795621402
 40
1.0
 40
1.0
 40
1.0
 40
1.0
 10
867.2063010460269
 20
644.0675430136973
 30
0.0
 10
867.5731824166883
 20
643.065824833887
 30
0.0
 10
868.2252372291977
 20
641.2854805260087
 30
0.0
 10
869.7626020910204
 20
639.0304809039459
 30
0.0
 10
871.7773678755111
 20
636.8158467235997
 30
0.0
 10
873.6226959613405
 20
635.6953846256297
 30
0.0
 10
874.752421404376
 20
635.0094282638563
 30
0.0
  0
SPLINE
  5
264
330
1F
100
AcDbEntity
  8
0
  6
Continuous
 62
     7
370
    35
100
AcDbSpline
210
0.0
220
0.0
230
1.0
 70
     8
 71
     3
 72
     9
 73
     5
 74
     0
 42
0.000000001
 43
0.00000001
 40
0.0
 40
0.0
 40
0.0
 40
0.0
 40
0.4946096718337089
 40
1.0
 40
1.0
 40
1.0
 40
1.0
 10
866.7866999615251
 20
646.9338920189516
 30
0.0
 10
866.8042193303583
 20
646.4528038407955
 30
0.0
 10
866.8396399252856
 20
645.4801415465611
 30
0.0
 10
867.0832054071948
 20
644.5417812379861
 30
0.0
 10
867.2063010460269
 20
644.0675430136973
 30
0.0
  0
LINE
  5
265
330
1F
100
AcDbEntity
  8
0
  6
Continuous
 62
     7
370
    35
100
AcDbLine
 10
866.7866999615
 20
656.8002410242
 30
0.0
 11
866.7866999615
 21
646.933892019
 31
0.0
  0
SPLINE
  5
266
330
1F
100
AcDbEntity
  8
0
  6
Continuous
 62
     7
370
    35
100
AcDbSpline
210
0.0
220
0.0
230
1.0
 70
     8
 71
     3
 72
    11
 73
     7
 74
     0
 42
0.000000001
 43
0.00000001
 40
0.0
 40
0.0
 40
0.0
 40
0.0
 40
0.2606216717114508
 40
0.4632004480831414
 40
0.6713667795621346
 40
1.0
 40
1.0
 40
1.0
 40
1.0
 10
867.2063010460269
 20
659.6665900294603
 30
0.0
 10
867.5731824166883
 20
660.6683082092707
 30
0.0
 10
868.2252372291977
 20
662.448652517149
 30
0.0
 10
869.7626020910204
 20
664.7036521392117
 30
0.0
 10
871.7773678755112
 20
666.9182863195579
 30
0.0
 10
873.6226959613405
 20
668.038748417528
 30
0.0
 10
874.752421404376
 20
668.7247047793014
 30
0.0
  0
SPLINE
  5
267
330
1F
100
AcDbEntity
  8
0
  6
Continuous
 62
     7
370
    35
100
AcDbSpline
210
0.0
220
0.0
230
1.0
 70
     8
 71
     3
 72
    17
 73
    13
 74
     0
 42
0.000000001
 43
0.00000001
 40
0.0
 40
0.0
 40
0.0
 40
0.0
 40
0.0352127301800317
 40
0.176861631680788
 40
0.2808325704307573
 40
0.3877934996385778
 40
0.4930479341421679
 40
0.5965428442053781
 40
0.7000016886007044
 40
0.8034759650084139
 40
0.9098495553099571
 40
1.0
 40
1.0
 40
1.0
 40
1.0
 10
770.7807954905605
 20
630.1297941259011
 30
0.0
 10
770.3806141484787
 20
630.1371981331001
 30
0.0
 10
768.3706386434005
 20
630.1743859565804
 30
0.0
 10
765.1934907206003
 20
630.7302808860808
 30
0.0
 10
761.4238594538816
 20
632.1331358649371
 30
0.0
 10
758.3071873791341
 20
633.9580071720152
 30
0.0
 10
755.5228958748246
 20
636.2464296351175
 30
0.0
 10
753.1915326752408
 20
638.9432733431502
 30
0.0
 10
751.3318596051513
 20
641.9604257243489
 30
0.0
 10
749.97370359904
 20
645.2657470979182
 30
0.0
 10
749.1797834534731
 20
648.6061386305397
 30
0.0
 10
749.0896112630635
 20
650.8416034255761
 30
0.0
 10
749.0482470448677
 20
651.8670665215791
 30
0.0
  0
SPLINE
  5
268
330
1F
100
AcDbEntity
  8
0
  6
Continuous
 62
     7
370
    35
100
AcDbSpline
210
0.0
220
0.0
230
1.0
 70
     8
 71
     3
 72
    17
 73
    13
 74
     0
 42
0.000000001
 43
0.00000001
 40
0.0
 40
0.0
 40
0.0
 40
0.0
 40
0.0352140993686979
 40
0.1768685086522811
 40
0.282315260467136
 40
0.3877837521866146
 40
0.4930422793344905
 40
0.5965412136257905
 40
0.700004080846853
 40
0.8049238598612686
 40
0.9098460499592919
 40
1.0
 40
1.0
 40
1.0
 40
1.0
 10
770.7807954905605
 20
673.6043389172568
 30
0.0
 10
770.3806255258318
 20
673.5969050379151
 30
0.0
 10
768.3707071653492
 20
673.559567176768
 30
0.0
 10
765.175626095719
 20
673.00412817669
 30
0.0
 10
761.4119594570845
 20
671.5856333164244
 30
0.0
 10
758.2929802439595
 20
669.7673195747819
 30
0.0
 10
755.5230762170037
 20
667.487202296776
 30
0.0
 10
753.1917946237079
 20
664.7908640835702
 30
0.0
 10
751.3219894934858
 20
661.7601802161406
 30
0.0
 10
749.9734937085167
 20
658.4507456473596
 30
0.0
 10
749.1779942625931
 20
655.1117443477987
 30
0.0
 10
749.0892568281532
 20
652.8926263510457
 30
0.0
 10
749.0482470448677
 20
651.8670665215791
 30
0.0
  0
SPLINE
  5
269
330
1F
100
AcDbEntity
  8
0
  6
Continuous
 62
     7
370
    35
100
AcDbSpline
210
0.0
220
0.0
230
1.0
 70
     8
 71
     3
 72
    17
 73
    13
 74
     0
 42
0.000000001
 43
0.00000001
 40
0.0
 40
0.0
 40
0.0
 40
0.0
 40
0.0352140993686983
 40
0.1768685086522818
 40
0.2823152604671368
 40
0.3877837521866156
 40
0.4930422793344882
 40
0.5965412136257884
 40
0.7000040808468511
 40
0.8049238598612678
 40
0.9098460499592919
 40
1.0
 40
1.0
 40
1.0
 40
1.0
 10
876.792604432494
 20
673.6043389172568
 30
0.0
 10
877.1927743972228
 20
673.5969050379149
 30
0.0
 10
879.2026927577054
 20
673.5595671767671
 30
0.0
 10
882.3977738273356
 20
673.0041281766896
 30
0.0
 10
886.1614404659703
 20
671.585633316424
 30
0.0
 10
889.2804196790952
 20
669.7673195747815
 30
0.0
 10
892.0503237060509
 20
667.4872022967758
 30
0.0
 10
894.3816052993467
 20
664.7908640835701
 30
0.0
 10
896.2514104295688
 20
661.7601802161404
 30
0.0
 10
897.5999062145379
 20
658.4507456473594
 30
0.0
 10
898.3954056604615
 20
655.1117443477984
 30
0.0
 10
898.4841430949015
 20
652.8926263510456
 30
0.0
 10
898.525152878187
 20
651.8670665215787
 30
0.0
  0
SPLINE
  5
26A
330
1F
100
AcDbEntity
  8
0
  6
Continuous
 62
     7
370
    35
100
AcDbSpline
210
0.0
220
0.0
230
1.0
 70
     8
 71
     3
 72
    17
 73
    13
 74
     0
 42
0.000000001
 43
0.00000001
 40
0.0
 40
0.0
 40
0.0
 40
0.0
 40
0.0352127301800313
 40
0.1768616316807873
 40
0.2808325704307564
 40
0.3877934996385767
 40
0.4930479341421701
 40
0.5965428442053802
 40
0.7000016886007062
 40
0.8034759650084157
 40
0.9098495553099571
 40
1.0
 40
1.0
 40
1.0
 40
1.0
 10
876.792604432494
 20
630.1297941259011
 30
0.0
 10
877.1927857745759
 20
630.1371981331
 30
0.0
 10
879.202761279654
 20
630.1743859565796
 30
0.0
 10
882.3799092024544
 20
630.7302808860805
 30
0.0
 10
886.149540469173
 20
632.1331358649367
 30
0.0
 10
889.2662125439205
 20
633.958007172015
 30
0.0
 10
892.05050404823
 20
636.2464296351174
 30
0.0
 10
894.381867247814
 20
638.94327334315
 30
0.0
 10
896.2415403179033
 20
641.9604257243487
 30
0.0
 10
897.5996963240146
 20
645.2657470979179
 30
0.0
 10
898.3936164695816
 20
648.6061386305395
 30
0.0
 10
898.4837886599911
 20
650.8416034255758
 30
0.0
 10
898.525152878187
 20
651.8670665215787
 30
0.0
  0
LINE
  5
26B
330
1F
100
AcDbEntity
  8
0
  6
Continuous
 62
     7
370
    35
100
AcDbLine
 10
823.7866999615
 20
673.6083389891
 30
0.0
 11
770.7807954906
 21
673.6043389173
 31
0.0
  0
LINE
  5
26C
330
1F
100
AcDbEntity
  8
0
  6
Continuous
 62
     7
370
    35
100
AcDbLine
 10
823.7866999615
 20
630.1257940541
 30
0.0
 11
770.7807954906
 21
630.1297941259
 31
0.0
  0
LINE
  5
26D
330
1F
100
AcDbEntity
  8
0
  6
Continuous
 62
     7
370
    35
100
AcDbLine
 10
823.7866999615
 20
673.6083389891
 30
0.0
 11
876.7926044325
 21
673.6043389173
 31
0.0
  0
LINE
  5
26E
330
1F
100
AcDbEntity
  8
0
  6
Continuous
 62
     7
370
    35
100
AcDbLine
 10
823.7866999615
 20
630.1257940541
 30
0.0
 11
876.7926044325
 21
630.1297941259
 31
0.0
  0
LINE
  5
26F
330
1F
100
AcDbEntity
  8
0
  6
Continuous
 62
     7
370
    35
100
AcDbLine
 10
866.8636359742
 20
657.8670665216
 30
0.0
 11
780.7097639488
 21
657.8670665216
 31
0.0
  0
LINE
  5
270
330
1F
100
AcDbEntity
  8
0
  6
Continuous
 62
     7
370
    35
100
AcDbLine
 10
866.8636359742
 20
645.8670665216
 30
0.0
 11
780.7097639488
 21
645.8670665216
 31
0.0
  0
LINE
  5
271
330
1F
100
AcDbEntity
  8
0
  6
Continuous
 62
     7
370
    35
100
AcDbLine
 10
770.7866999615
 20
673.6170665216
 30
0.0
 11
876.7866999615
 21
673.6170665216
 31
0.0
  0
ARC
  5
272
330
1F
100
AcDbEntity
  8
0
  6
Continuous
 62
     7
370
    35
100
AcDbCircle
 10
770.7866999615
 20
651.8670665216
 30
0.0
 40
21.75000000000011
100
AcDbArc
 50
90.0
 51
270.0
  0
LINE
  5
273
330
1F
100
AcDbEntity
  8
0
  6
Continuous
 62
     7
370
    35
100
AcDbLine
 10
770.7866999615
 20
630.1170665216
 30
0.0
 11
876.7866999615
 21
630.1170665216
 31
0.0
  0
ARC
  5
274
330
1F
100
AcDbEntity
  8
0
  6
Continuous
 62
     7
370
    35
100
AcDbCircle
 10
876.7866999615
 20
651.8670665216
 30
0.0
 40
21.75000000000011
100
AcDbArc
 50
270.0
 51
90.0
  0
LINE
  5
275
330
1F
100
AcDbEntity
  8
0
  6
Continuous
 62
     7
370
    35
100
AcDbLine
 10
333.7866999615
 20
586.3670665216
 30
0.0
 11
311.2866999615
 21
586.3670665216
 31
0.0
  0
ARC
  5
276
330
1F
100
AcDbEntity
  8
0
  6
Continuous
 62
     7
370
    35
100
AcDbCircle
 10
311.2866999615
 20
596.3670665216
 30
0.0
 40
10.00000000000034
100
AcDbArc
 50
180.0
 51
270.0
  0
LINE
  5
277
330
1F
100
AcDbEntity
  8
0
  6
Continuous
 62
     7
370
    35
100
AcDbLine
 10
301.2866999615
 20
596.3670665216
 30
0.0
 11
301.2866999615
 21
707.3670665216
 31
0.0
  0
LINE
  5
278
330
1F
100
AcDbEntity
  8
0
  6
Continuous
 62
     7
370
    35
100
AcDbLine
 10
311.2866999615
 20
717.3670665216
 30
0.0
 11
333.7866999615
 21
717.3670665216
 31
0.0
  0
ARC
  5
279
330
1F
100
AcDbEntity
  8
0
  6
Continuous
 62
     7
370
    35
100
AcDbCircle
 10
311.2866999615
 20
707.3670665216
 30
0.0
 40
10.0
100
AcDbArc
 50
90.0
 51
180.0
  0
LINE
  5
27A
330
1F
100
AcDbEntity
  8
0
  6
Continuous
 62
     7
370
    35
100
AcDbLine
 10
1313.7866999615
 20
717.3670665216
 30
0.0
 11
1336.2866999615
 21
717.3670665216
 31
0.0
  0
ARC
  5
27B
330
1F
100
AcDbEntity
  8
0
  6
Continuous
 62
     7
370
    35
100
AcDbCircle
 10
1336.2866999615
 20
707.3670665216
 30
0.0
 40
10.00000000000023
100
AcDbArc
 50
0.0
 51
90.0
  0
LINE
  5
27C
330
1F
100
AcDbEntity
  8
0
  6
Continuous
 62
     7
370
    35
100
AcDbLine
 10
1346.2866999615
 20
707.3670665216
 30
0.0
 11
1346.2866999615
 21
596.3670665216
 31
0.0
  0
ARC
  5
27D
330
1F
100
AcDbEntity
  8
0
  6
Continuous
 62
     7
370
    35
100
AcDbCircle
 10
1336.2866999615
 20
596.3670665216
 30
0.0
 40
10.0
100
AcDbArc
 50
270.0
 51
0.0
  0
LINE
  5
27E
330
1F
100
AcDbEntity
  8
0
  6
Continuous
 62
     7
370
    35
100
AcDbLine
 10
1336.2866999615
 20
586.3670665216
 30
0.0
 11
1313.7866999615
 21
586.3670665216
 31
0.0
  0
LINE
  5
27F
330
1F
100
AcDbEntity
  8
0
  6
Continuous
 62
     7
370
    35
100
AcDbLine
 10
1313.7866999615
 20
686.8670665216
 30
0.0
 11
1315.7866999615
 21
686.8670665216
 31
0.0
  0
LINE
  5
280
330
1F
100
AcDbEntity
  8
0
  6
Continuous
 62
     7
370
    35
100
AcDbLine
 10
1315.7866999615
 20
686.8670665216
 30
0.0
 11
1315.7866999615
 21
616.8670665216
 31
0.0
  0
LINE
  5
281
330
1F
100
AcDbEntity
  8
0
  6
Continuous
 62
     7
370
    35
100
AcDbLine
 10
1315.7866999615
 20
616.8670665216
 30
0.0
 11
1313.7866999615
 21
616.8670665216
 31
0.0
  0
LINE
  5
282
330
1F
100
AcDbEntity
  8
0
  6
Continuous
 62
     7
370
    35
100
AcDbLine
 10
1313.7866999615
 20
616.8670665216
 30
0.0
 11
1313.7866999615
 21
616.9528529592
 31
0.0
  0
LINE
  5
283
330
1F
100
AcDbEntity
  8
0
  6
Continuous
 62
     7
370
    35
100
AcDbLine
 10
1313.7866999615
 20
619.781280084
 30
0.0
 11
1313.7866999615
 21
683.9528529592
 31
0.0
  0
LINE
  5
284
330
1F
100
AcDbEntity
  8
0
  6
Continuous
 62
     7
370
    35
100
AcDbLine
 10
1313.7866999615
 20
686.781280084
 30
0.0
 11
1313.7866999615
 21
686.8670665216
 31
0.0
  0
LINE
  5
285
330
1F
100
AcDbEntity
  8
0
  6
Continuous
 62
     7
370
    35
100
AcDbLine
 10
333.7866999615
 20
616.8670665216
 30
0.0
 11
331.7866999615
 21
616.8670665216
 31
0.0
  0
LINE
  5
286
330
1F
100
AcDbEntity
  8
0
  6
Continuous
 62
     7
370
    35
100
AcDbLine
 10
331.7866999615
 20
616.8670665216
 30
0.0
 11
331.7866999615
 21
686.8670665216
 31
0.0
  0
LINE
  5
287
330
1F
100
AcDbEntity
  8
0
  6
Continuous
 62
     7
370
    35
100
AcDbLine
 10
331.7866999615
 20
686.8670665216
 30
0.0
 11
333.7866999615
 21
686.8670665216
 31
0.0
  0
LINE
  5
288
330
1F
100
AcDbEntity
  8
0
  6
Continuous
 62
     7
370
    35
100
AcDbLine
 10
333.7866999615
 20
686.8670665216
 30
0.0
 11
333.7866999615
 21
686.781280084
 31
0.0
  0
LINE
  5
289
330
1F
100
AcDbEntity
  8
0
  6
Continuous
 62
     7
370
    35
100
AcDbLine
 10
333.7866999615
 20
683.9528529592
 30
0.0
 11
333.7866999615
 21
619.781280084
 31
0.0
  0
LINE
  5
28A
330
1F
100
AcDbEntity
  8
0
  6
Continuous
 62
     7
370
    35
100
AcDbLine
 10
333.7866999615
 20
616.9528529592
 30
0.0
 11
333.7866999615
 21
616.8670665216
 31
0.0
  0
LINE
  5
28B
330
1F
100
AcDbEntity
  8
0
  6
Continuous
 62
     8
370
    18
100
AcDbLine
 10
1313.7866999615
 20
687.8670665216
 30
0.0
 11
333.7866999615
 21
687.8670665216
 31
0.0
  0
LINE
  5
28C
330
1F
100
AcDbEntity
  8
0
  6
Continuous
 62
     8
370
    18
100
AcDbLine
 10
333.7866999615
 20
615.8670665216
 30
0.0
 11
1313.7866999615
 21
615.8670665216
 31
0.0
  0
LINE
  5
28D
330
1F
100
AcDbEntity
  8
0
  6
Continuous
 62
     8
370
    18
100
AcDbLine
 10
333.7866999615
 20
682.9237593091
 30
0.0
 11
1313.7866999615
 21
682.9237593091
 31
0.0
  0
LINE
  5
28E
330
1F
100
AcDbEntity
  8
0
  6
Continuous
 62
     8
370
    18
100
AcDbLine
 10
333.7866999615
 20
620.810373734
 30
0.0
 11
1313.7866999615
 21
620.810373734
 31
0.0
  0
LINE
  5
28F
330
1F
100
AcDbEntity
  8
0
  6
Continuous
 62
     8
370
    18
100
AcDbLine
 10
333.7866999615
 20
651.9237593091
 30
0.0
 11
740.7870333008
 21
651.9237593091
 31
0.0
  0
LINE
  5
290
330
1F
100
AcDbEntity
  8
0
  6
Continuous
 62
     8
370
    18
100
AcDbLine
 10
906.7863666223
 20
651.9237593091
 30
0.0
 11
1313.7866999615
 21
651.9237593091
 31
0.0
  0
LINE
  5
291
330
1F
100
AcDbEntity
  8
0
  6
Continuous
 62
     8
370
    18
100
AcDbLine
 10
906.7853607349
 20
651.9806536834
 30
0.0
 11
906.7853607349
 21
651.9804520967
 31
0.0
  0
LINE
  5
292
330
1F
100
AcDbEntity
  8
0
  6
Continuous
 62
     8
370
    18
100
AcDbLine
 10
906.7853607349
 20
651.7534793598
 30
0.0
 11
906.7853607349
 21
651.7536809465
 31
0.0
  0
ARC
  5
293
330
1F
100
AcDbEntity
  8
0
  6
Continuous
 62
     8
370
    18
100
AcDbCircle
 10
830.5369893611
 20
611.2356387675
 30
0.0
 40
54.26577168262365
100
AcDbArc
 50
12.3156445559
 51
15.3088218734
  0
ARC
  5
294
330
1F
100
AcDbEntity
  8
0
  6
Continuous
 62
     8
370
    18
100
AcDbCircle
 10
905.9123520325
 20
638.413479441
 30
0.0
 40
13.36873667925327
100
AcDbArc
 50
86.2557918319
 51
99.1541892989
  0
LINE
  5
295
330
1F
100
AcDbEntity
  8
0
  6
Continuous
 62
     8
370
    18
100
AcDbLine
 10
740.7880391882
 20
651.7534793598
 30
0.0
 11
740.7880391882
 21
651.7536809465
 31
0.0
  0
ARC
  5
296
330
1F
100
AcDbEntity
  8
0
  6
Continuous
 62
     8
370
    18
100
AcDbCircle
 10
741.6610478905
 20
638.413479441
 30
0.0
 40
13.36873667925417
100
AcDbArc
 50
80.8458107011
 51
93.7442081681
  0
ARC
  5
297
330
1F
100
AcDbEntity
  8
0
  6
Continuous
 62
     8
370
    18
100
AcDbCircle
 10
817.0364105617
 20
611.2356387676
 30
0.0
 40
54.26577168235379
100
AcDbArc
 50
164.6911781266
 51
167.6843554441
  0
ARC
  5
298
330
1F
100
AcDbEntity
  8
0
  6
Continuous
 62
     8
370
    18
100
AcDbCircle
 10
905.9123520325
 20
665.3206536021
 30
0.0
 40
13.36873667923869
100
AcDbArc
 50
260.8458107011
 51
273.7442081681
  0
ARC
  5
299
330
1F
100
AcDbEntity
  8
0
  6
Continuous
 62
     8
370
    18
100
AcDbCircle
 10
830.5369893614
 20
692.4984942756
 30
0.0
 40
54.2657716822965
100
AcDbArc
 50
344.6911781266
 51
347.6843554441
  0
LINE
  5
29A
330
1F
100
AcDbEntity
  8
0
  6
Continuous
 62
     8
370
    18
100
AcDbLine
 10
740.7880391882
 20
651.9806536834
 30
0.0
 11
740.7880391882
 21
651.9804520967
 31
0.0
  0
ARC
  5
29B
330
1F
100
AcDbEntity
  8
0
  6
Continuous
 62
     8
370
    18
100
AcDbCircle
 10
817.0364105619
 20
692.4984942756
 30
0.0
 40
54.26577168256998
100
AcDbArc
 50
192.3156445559
 51
195.3088218734
  0
ARC
  5
29C
330
1F
100
AcDbEntity
  8
0
  6
Continuous
 62
     8
370
    18
100
AcDbCircle
 10
741.6610478905
 20
665.3206536021
 30
0.0
 40
13.36873667923948
100
AcDbArc
 50
266.2557918319
 51
279.1541892989
  0
LINE
  5
29D
330
1F
100
AcDbEntity
  8
0
  6
Continuous
 62
     8
370
    18
100
AcDbLine
 10
333.7866999615
 20
651.810373734
 30
0.0
 11
740.7870333008
 21
651.810373734
 31
0.0
  0
LINE
  5
29E
330
1F
100
AcDbEntity
  8
0
  6
Continuous
 62
     8
370
    18
100
AcDbLine
 10
906.7863666223
 20
651.810373734
 30
0.0
 11
1313.7866999615
 21
651.810373734
 31
0.0
  0
LINE
  5
29F
330
1F
100
AcDbEntity
  8
0
  6
Continuous
 62
     8
370
    18
100
AcDbLine
 10
770.7866999615
 20
624.8670665216
 30
0.0
 11
770.7866999615
 21
622.6170665216
 31
0.0
  0
LINE
  5
2A0
330
1F
100
AcDbEntity
  8
0
  6
Continuous
 62
     8
370
    18
100
AcDbLine
 10
876.7866999615
 20
624.8670665216
 30
0.0
 11
876.7866999615
 21
622.6170665216
 31
0.0
  0
LINE
  5
2A1
330
1F
100
AcDbEntity
  8
0
  6
Continuous
 62
     8
370
    18
100
AcDbLine
 10
770.7866999615
 20
681.1170665216
 30
0.0
 11
770.7866999615
 21
678.8670665216
 31
0.0
  0
LINE
  5
2A2
330
1F
100
AcDbEntity
  8
0
  6
Continuous
 62
     8
370
    18
100
AcDbLine
 10
770.7866999615
 20
681.1228507202
 30
0.0
 11
770.7866999615
 21
681.1170665216
 31
0.0
  0
LINE
  5
2A3
330
1F
100
AcDbEntity
  8
0
  6
Continuous
 62
     8
370
    18
100
AcDbLine
 10
876.7866999615
 20
681.1170665216
 30
0.0
 11
876.7866999615
 21
678.8670665216
 31
0.0
  0
LINE
  5
2A4
330
1F
100
AcDbEntity
  8
0
  6
Continuous
 62
     8
370
    18
100
AcDbLine
 10
876.7866999615
 20
681.1228507202
 30
0.0
 11
876.7866999615
 21
681.1170665216
 31
0.0
  0
LINE
  5
2A5
330
1F
100
AcDbEntity
  8
0
  6
Continuous
 62
     8
370
    18
100
AcDbLine
 10
770.7866999615
 20
622.611282323
 30
0.0
 11
770.7866999615
 21
622.6170665216
 31
0.0
  0
LINE
  5
2A6
330
1F
100
AcDbEntity
  8
0
  6
Continuous
 62
     8
370
    18
100
AcDbLine
 10
876.7866999615
 20
622.611282323
 30
0.0
 11
876.7866999615
 21
622.6170665216
 31
0.0
  0
SPLINE
  5
2A7
330
1F
100
AcDbEntity
  8
0
  6
Continuous
 62
     8
370
    18
100
AcDbSpline
210
0.0
220
0.0
230
1.0
 70
     8
 71
     3
 72
    17
 73
    13
 74
     0
 42
0.000000001
 43
0.00000001
 40
0.0
 40
0.0
 40
0.0
 40
0.0
 40
0.0000017599180569
 40
0.1227053397329009
 40
0.2502071717394787
 40
0.3526128094214154
 40
0.4578053944919564
 40
0.4930427252802671
 40
0.6348536903675576
 40
0.7415522131116647
 40
0.8461670224033158
 40
1.0
 40
1.0
 40
1.0
 40
1.0
 10
770.7807951296271
 20
630.1253542014617
 30
0.0
 10
770.7807751296274
 20
630.1253542031072
 30
0.0
 10
769.3863313629454
 20
630.125468924432
 30
0.0
 10
766.5375370534769
 20
630.4117273091632
 30
0.0
 10
762.6709010870076
 20
631.5621414655947
 30
0.0
 10
759.2736137741612
 20
633.3179330767018
 30
0.0
 10
757.0422241979941
 20
634.964578328698
 30
0.0
 10
754.6817359947555
 20
637.1365466233503
 30
0.0
 10
752.6269493893926
 20
639.6661926269356
 30
0.0
 10
750.7362150536629
 20
643.2179264128114
 30
0.0
 10
749.3625642093942
 20
647.1686546793451
 30
0.0
 10
749.1627440363939
 20
650.1139634279405
 30
0.0
 10
749.0438073158801
 20
651.867066521579
 30
0.0
  0
LINE
  5
2A8
330
1F
100
AcDbEntity
  8
0
  6
Continuous
 62
     8
370
    18
100
AcDbLine
 10
749.0482470449
 20
651.8670665216
 30
0.0
 11
749.0438073159
 21
651.8670665216
 31
0.0
  0
LINE
  5
2A9
330
1F
100
AcDbEntity
  8
0
  6
Continuous
 62
     8
370
    18
100
AcDbLine
 10
770.7807954906
 20
630.1297941259
 30
0.0
 11
770.7807951296
 21
630.1253542015
 31
0.0
  0
LWPOLYLINE
  5
2AA
330
1F
100
AcDbEntity
  8
0
  6
Continuous
 62
     8
370
    18
100
AcDbPolyline
 90
        3
 70
   128
 43
0.0
 10
770.7807951296
 20
630.1253542015
 10
770.7807944305
 20
630.1198151978
 10
770.780794156
 20
630.1170673234
  0
SPLINE
  5
2AB
330
1F
100
AcDbEntity
  8
0
  6
Continuous
 62
     8
370
    18
100
AcDbSpline
210
0.0
220
0.0
230
1.0
 70
     8
 71
     3
 72
    17
 73
    13
 74
     0
 42
0.000000001
 43
0.00000001
 40
0.0
 40
0.0
 40
0.0
 40
0.0
 40
0.0000017599180569
 40
0.1227053397329004
 40
0.2502071717394777
 40
0.35261280942142
 40
0.4578053944919611
 40
0.4930427252802679
 40
0.6348536903675585
 40
0.7415522131116657
 40
0.8461670224033169
 40
1.0
 40
1.0
 40
1.0
 40
1.0
 10
770.7807951296271
 20
673.608778841696
 30
0.0
 10
770.7807751296274
 20
673.6087788400506
 30
0.0
 10
769.3863313632681
 20
673.6086641187259
 30
0.0
 10
766.5375370533196
 20
673.3224057339952
 30
0.0
 10
762.6709010870411
 20
672.1719915775635
 30
0.0
 10
759.2736137741525
 20
670.4161999664559
 30
0.0
 10
757.0422241979949
 20
668.7695547144597
 30
0.0
 10
754.681735994755
 20
666.5975864198078
 30
0.0
 10
752.6269493893927
 20
664.0679404162222
 30
0.0
 10
750.7362150536629
 20
660.5162066303466
 30
0.0
 10
749.3625642093942
 20
656.565478363813
 30
0.0
 10
749.1627440363941
 20
653.6201696152176
 30
0.0
 10
749.0438073158801
 20
651.8670665215791
 30
0.0
  0
LINE
  5
2AC
330
1F
100
AcDbEntity
  8
0
  6
Continuous
 62
     8
370
    18
100
AcDbLine
 10
770.7807954906
 20
673.6043389173
 30
0.0
 11
770.7807951296
 21
673.6087788417
 31
0.0
  0
LWPOLYLINE
  5
2AD
330
1F
100
AcDbEntity
  8
0
  6
Continuous
 62
     8
370
    18
100
AcDbPolyline
 90
        3
 70
   128
 43
0.0
 10
770.7807951296
 20
673.6087788417
 10
770.7807944305
 20
673.6143178454
 10
770.780794156
 20
673.6170657198
  0
SPLINE
  5
2AE
330
1F
100
AcDbEntity
  8
0
  6
Continuous
 62
     8
370
    18
100
AcDbSpline
210
0.0
220
0.0
230
1.0
 70
     8
 71
     3
 72
    17
 73
    13
 74
     0
 42
0.000000001
 43
0.00000001
 40
0.0
 40
0.0
 40
0.0
 40
0.0
 40
0.0000017599180569
 40
0.1227053397329018
 40
0.2502071717394792
 40
0.3526128094214189
 40
0.4578053944919601
 40
0.4930427252802689
 40
0.6348536903675596
 40
0.7415522131116671
 40
0.8461670224033156
 40
1.0
 40
1.0
 40
1.0
 40
1.0
 10
876.7926047934276
 20
673.608778841696
 30
0.0
 10
876.7926247934273
 20
673.6087788400506
 30
0.0
 10
878.1870685599482
 20
673.6086641186454
 30
0.0
 10
881.0358628696562
 20
673.3224057340339
 30
0.0
 10
884.9024988360303
 20
672.1719915775548
 30
0.0
 10
888.2997861488979
 20
670.416199966458
 30
0.0
 10
890.5311757250602
 20
668.7695547144592
 30
0.0
 10
892.8916639282994
 20
666.5975864198076
 30
0.0
 10
894.946450533662
 20
664.067940416222
 30
0.0
 10
896.8371848693915
 20
660.5162066303463
 30
0.0
 10
898.2108357136603
 20
656.5654783638128
 30
0.0
 10
898.4106558866606
 20
653.6201696152174
 30
0.0
 10
898.5295926071744
 20
651.8670665215787
 30
0.0
  0
LWPOLYLINE
  5
2AF
330
1F
100
AcDbEntity
  8
0
  6
Continuous
 62
     8
370
    18
100
AcDbPolyline
 90
        3
 70
   128
 43
0.0
 10
876.7926047934
 20
673.6087788417
 10
876.7926054926
 20
673.6143178454
 10
876.792605767
 20
673.6170657198
  0
LINE
  5
2B0
330
1F
100
AcDbEntity
  8
0
  6
Continuous
 62
     8
370
    18
100
AcDbLine
 10
898.5251528782
 20
651.8670665216
 30
0.0
 11
898.5295926072
 21
651.8670665216
 31
0.0
  0
LINE
  5
2B1
330
1F
100
AcDbEntity
  8
0
  6
Continuous
 62
     8
370
    18
100
AcDbLine
 10
876.7926044325
 20
673.6043389173
 30
0.0
 11
876.7926047934
 21
673.6087788417
 31
0.0
  0
SPLINE
  5
2B2
330
1F
100
AcDbEntity
  8
0
  6
Continuous
 62
     8
370
    18
100
AcDbSpline
210
0.0
220
0.0
230
1.0
 70
     8
 71
     3
 72
    17
 73
    13
 74
     0
 42
0.000000001
 43
0.00000001
 40
0.0
 40
0.0
 40
0.0
 40
0.0
 40
0.0000017599180569
 40
0.1227053397329003
 40
0.2502071717394773
 40
0.3526128094214168
 40
0.4578053944919576
 40
0.4930427252802663
 40
0.6348536903675566
 40
0.7415522131116636
 40
0.8461670224033173
 40
1.0
 40
1.0
 40
1.0
 40
1.0
 10
876.7926047934276
 20
630.1253542014617
 30
0.0
 10
876.7926247934273
 20
630.1253542031072
 30
0.0
 10
878.1870685597864
 20
630.1254689245127
 30
0.0
 10
881.035862869735
 20
630.4117273091234
 30
0.0
 10
884.9024988360135
 20
631.5621414656026
 30
0.0
 10
888.2997861489022
 20
633.3179330766994
 30
0.0
 10
890.5311757250597
 20
634.964578328698
 30
0.0
 10
892.8916639282996
 20
637.1365466233498
 30
0.0
 10
894.9464505336618
 20
639.6661926269355
 30
0.0
 10
896.8371848693916
 20
643.2179264128112
 30
0.0
 10
898.2108357136602
 20
647.1686546793449
 30
0.0
 10
898.4106558866606
 20
650.1139634279401
 30
0.0
 10
898.5295926071744
 20
651.8670665215787
 30
0.0
  0
LINE
  5
2B3
330
1F
100
AcDbEntity
  8
0
  6
Continuous
 62
     8
370
    18
100
AcDbLine
 10
876.7926044325
 20
630.1297941259
 30
0.0
 11
876.7926047934
 21
630.1253542015
 31
0.0
  0
LWPOLYLINE
  5
2B4
330
1F
100
AcDbEntity
  8
0
  6
Continuous
 62
     8
370
    18
100
AcDbPolyline
 90
        3
 70
   128
 43
0.0
 10
876.7926047934
 20
630.1253542015
 10
876.7926054926
 20
630.1198151978
 10
876.792605767
 20
630.1170673234
  0
SPLINE
  5
2B5
330
1F
100
AcDbEntity
  8
0
  6
Continuous
 62
     8
370
    18
100
AcDbSpline
210
0.0
220
0.0
230
1.0
 70
     8
 71
     3
 72
     9
 73
     5
 74
     0
 42
0.000000001
 43
0.00000001
 40
0.0
 40
0.0
 40
0.0
 40
0.0
 40
0.1546895589893172
 40
1.0
 40
1.0
 40
1.0
 40
1.0
 10
770.9034311441901
 20
670.5986399755634
 30
0.0
 10
771.1464836007598
 20
670.5259654405637
 30
0.0
 10
772.717710890809
 20
670.0561565182649
 30
0.0
 10
774.1418287996299
 20
669.2398784892212
 30
0.0
 10
775.3456505371864
 20
668.5498701485028
 30
0.0
  0
ARC
  5
2B6
330
1F
100
AcDbEntity
  8
0
  6
Continuous
 62
     8
370
    18
100
AcDbCircle
 10
776.8020672141
 20
667.1035401633
 30
0.0
 40
2.052564240821552
100
AcDbArc
 50
135.1990950654
 51
168.3527908008
  0
ARC
  5
2B7
330
1F
100
AcDbEntity
  8
0
  6
Continuous
 62
     8
370
    18
100
AcDbCircle
 10
776.8020672141
 20
636.6305928798
 30
0.0
 40
2.05256424081941
100
AcDbArc
 50
191.6472091992
 51
224.8009049346
  0
SPLINE
  5
2B8
330
1F
100
AcDbEntity
  8
0
  6
Continuous
 62
     8
370
    18
100
AcDbSpline
210
0.0
220
0.0
230
1.0
 70
     8
 71
     3
 72
    11
 73
     7
 74
     0
 42
0.000000001
 43
0.00000001
 40
0.0
 40
0.0
 40
0.0
 40
0.0
 40
0.0771531718714959
 40
0.1543573881090453
 40
0.5727608612303011
 40
1.0
 40
1.0
 40
1.0
 40
1.0
 10
770.9034311441901
 20
633.1354930675943
 30
0.0
 10
771.0249850202227
 20
633.1711495990191
 30
0.0
 10
771.2681731920608
 20
633.2424862521502
 30
0.0
 10
772.1617016119984
 20
633.5344939480922
 30
0.0
 10
773.5745494031585
 20
634.102066032844
 30
0.0
 10
774.7511854796244
 20
634.8210265964055
 30
0.0
 10
775.3456505371864
 20
635.1842628946551
 30
0.0
  0
SPLINE
  5
2B9
330
1F
100
AcDbEntity
  8
0
  6
Continuous
 62
     8
370
    18
100
AcDbSpline
210
0.0
220
0.0
230
1.0
 70
     8
 71
     3
 72
    11
 73
     7
 74
     0
 42
0.000000001
 43
0.00000001
 40
0.0
 40
0.0
 40
0.0
 40
0.0
 40
0.0771531718714945
 40
0.1543573881090452
 40
0.5727608612302947
 40
1.0
 40
1.0
 40
1.0
 40
1.0
 10
876.6699687788646
 20
633.1354930675943
 30
0.0
 10
876.5484149028318
 20
633.171149599019
 30
0.0
 10
876.3052267309938
 20
633.2424862521499
 30
0.0
 10
875.4116983110563
 20
633.5344939480925
 30
0.0
 10
873.998850519896
 20
634.1020660328438
 30
0.0
 10
872.8222144434303
 20
634.8210265964053
 30
0.0
 10
872.2277493858683
 20
635.1842628946549
 30
0.0
  0
ARC
  5
2BA
330
1F
100
AcDbEntity
  8
0
  6
Continuous
 62
     8
370
    18
100
AcDbCircle
 10
870.771332709
 20
636.6305928798
 30
0.0
 40
2.052564240824522
100
AcDbArc
 50
315.1990950654
 51
348.3527908008
  0
ARC
  5
2BB
330
1F
100
AcDbEntity
  8
0
  6
Continuous
 62
     8
370
    18
100
AcDbCircle
 10
870.771332709
 20
667.1035401633
 30
0.0
 40
2.052564240824522
100
AcDbArc
 50
11.6472091992
 51
44.8009049346
  0
SPLINE
  5
2BC
330
1F
100
AcDbEntity
  8
0
  6
Continuous
 62
     8
370
    18
100
AcDbSpline
210
0.0
220
0.0
230
1.0
 70
     8
 71
     3
 72
     9
 73
     5
 74
     0
 42
0.000000001
 43
0.00000001
 40
0.0
 40
0.0
 40
0.0
 40
0.0
 40
0.1546895589893174
 40
1.0
 40
1.0
 40
1.0
 40
1.0
 10
876.6699687788646
 20
670.5986399755634
 30
0.0
 10
876.4269163222948
 20
670.5259654405637
 30
0.0
 10
874.8556890322457
 20
670.0561565182649
 30
0.0
 10
873.4315711234248
 20
669.2398784892212
 30
0.0
 10
872.2277493858683
 20
668.5498701485028
 30
0.0
  0
SPLINE
  5
2BD
330
1F
100
AcDbEntity
  8
0
  6
Continuous
 62
     8
370
    18
100
AcDbSpline
210
0.0
220
0.0
230
1.0
 70
     8
 71
     3
 72
    14
 73
    10
 74
     0
 42
0.000000001
 43
0.00000001
 40
0.0
 40
0.0
 40
0.0
 40
0.0
 40
0.1114289230463662
 40
0.4958785649708792
 40
0.7046555305635156
 40
0.8301760374267285
 40
0.9121018798664118
 40
0.994279708213766
 40
1.0
 40
1.0
 40
1.0
 40
1.0
 10
775.3456505371864
 20
635.1842628946551
 30
0.0
 10
775.4650415828285
 20
635.2665952599082
 30
0.0
 10
775.9963530122565
 20
635.6329889574886
 30
0.0
 10
776.6706445356162
 20
636.2657601082127
 30
0.0
 10
777.1285083233782
 20
637.056744622913
 30
0.0
 10
777.2129660737118
 20
637.5669393567758
 30
0.0
 10
777.1305017808595
 20
637.9112679624399
 30
0.0
 10
777.0107948372373
 20
638.0889676831728
 30
0.0
 10
776.9300835640311
 20
638.1643502525957
 30
0.0
 10
776.9248309826052
 20
638.169256049125
 30
0.0
  0
SPLINE
  5
2BE
330
1F
100
AcDbEntity
  8
0
  6
Continuous
 62
     8
370
    18
100
AcDbSpline
210
0.0
220
0.0
230
1.0
 70
     8
 71
     3
 72
    14
 73
    10
 74
     0
 42
0.000000001
 43
0.00000001
 40
0.0
 40
0.0
 40
0.0
 40
0.0
 40
0.1114289230463692
 40
0.4958785649708576
 40
0.7046555305635078
 40
0.8301760374267145
 40
0.9121018798664111
 40
0.9942797082137677
 40
1.0
 40
1.0
 40
1.0
 40
1.0
 10
775.3456505371864
 20
668.5498701485028
 30
0.0
 10
775.4650415828285
 20
668.4675377832497
 30
0.0
 10
775.9963530122565
 20
668.1011440856691
 30
0.0
 10
776.6706445356162
 20
667.4683729349453
 30
0.0
 10
777.1285083233782
 20
666.6773884202449
 30
0.0
 10
777.2129660737118
 20
666.1671936863821
 30
0.0
 10
777.1305017808595
 20
665.8228650807181
 30
0.0
 10
777.0107948372373
 20
665.6451653599852
 30
0.0
 10
776.9300835640311
 20
665.5697827905623
 30
0.0
 10
776.9248309826052
 20
665.5648769940328
 30
0.0
  0
ARC
  5
2BF
330
1F
100
AcDbEntity
  8
0
  6
Continuous
 62
     8
370
    18
100
AcDbCircle
 10
777.7866999615
 20
651.8670665216
 30
0.0
 40
20.0
100
AcDbArc
 50
90.0
 51
167.5224163015
  0
LINE
  5
2C0
330
1F
100
AcDbEntity
  8
0
  6
Continuous
 62
     8
370
    18
100
AcDbLine
 10
777.7866999615
 20
664.5797173085
 30
0.0
 11
777.7866999615
 21
671.8670665216
 31
0.0
  0
LINE
  5
2C1
330
1F
100
AcDbEntity
  8
0
  6
Continuous
 62
     8
370
    18
100
AcDbLine
 10
777.7866999615
 20
639.1544157347
 30
0.0
 11
777.7866999615
 21
631.8670665216
 31
0.0
  0
ARC
  5
2C2
330
1F
100
AcDbEntity
  8
0
  6
Continuous
 62
     8
370
    18
100
AcDbCircle
 10
777.7866999615
 20
651.8670665216
 30
0.0
 40
20.0
100
AcDbArc
 50
192.4775836985
 51
270.0
  0
ARC
  5
2C3
330
1F
100
AcDbEntity
  8
0
  6
Continuous
 62
     8
370
    18
100
AcDbCircle
 10
869.7866999615
 20
651.8670665216
 30
0.0
 40
19.99999999999977
100
AcDbArc
 50
270.0
 51
347.5224163015
  0
LINE
  5
2C4
330
1F
100
AcDbEntity
  8
0
  6
Continuous
 62
     8
370
    18
100
AcDbLine
 10
869.7866999615
 20
639.1544157347
 30
0.0
 11
869.7866999615
 21
631.8670665216
 31
0.0
  0
LINE
  5
2C5
330
1F
100
AcDbEntity
  8
0
  6
Continuous
 62
     8
370
    18
100
AcDbLine
 10
869.7866999615
 20
664.5797173085
 30
0.0
 11
869.7866999615
 21
671.8670665216
 31
0.0
  0
ARC
  5
2C6
330
1F
100
AcDbEntity
  8
0
  6
Continuous
 62
     8
370
    18
100
AcDbCircle
 10
869.7866999615
 20
651.8670665216
 30
0.0
 40
20.00000000000023
100
AcDbArc
 50
12.4775836985
 51
90.0
  0
SPLINE
  5
2C7
330
1F
100
AcDbEntity
  8
0
  6
Continuous
 62
     8
370
    18
100
AcDbSpline
210
0.0
220
0.0
230
1.0
 70
     8
 71
     3
 72
    14
 73
    10
 74
     0
 42
0.000000001
 43
0.00000001
 40
0.0
 40
0.0
 40
0.0
 40
0.0
 40
0.1114289230463656
 40
0.4958785649708928
 40
0.7046555305635158
 40
0.8301760374267407
 40
0.9121018798664124
 40
0.9942797082137663
 40
1.0
 40
1.0
 40
1.0
 40
1.0
 10
872.2277493858683
 20
668.5498701485028
 30
0.0
 10
872.1083583402261
 20
668.4675377832497
 30
0.0
 10
871.5770469107982
 20
668.1011440856691
 30
0.0
 10
870.9027553874384
 20
667.4683729349449
 30
0.0
 10
870.4448915996763
 20
666.6773884202448
 30
0.0
 10
870.3604338493428
 20
666.1671936863819
 30
0.0
 10
870.4428981421951
 20
665.8228650807179
 30
0.0
 10
870.5626050858173
 20
665.645165359985
 30
0.0
 10
870.6433163590235
 20
665.5697827905622
 30
0.0
 10
870.6485689404494
 20
665.5648769940327
 30
0.0
  0
SPLINE
  5
2C8
330
1F
100
AcDbEntity
  8
0
  6
Continuous
 62
     8
370
    18
100
AcDbSpline
210
0.0
220
0.0
230
1.0
 70
     8
 71
     3
 72
    14
 73
    10
 74
     0
 42
0.000000001
 43
0.00000001
 40
0.0
 40
0.0
 40
0.0
 40
0.0
 40
0.1114289230463696
 40
0.4958785649708454
 40
0.7046555305635086
 40
0.830176037426703
 40
0.9121018798664109
 40
0.9942797082137677
 40
1.0
 40
1.0
 40
1.0
 40
1.0
 10
872.2277493858683
 20
635.1842628946549
 30
0.0
 10
872.1083583402261
 20
635.2665952599082
 30
0.0
 10
871.5770469107983
 20
635.6329889574886
 30
0.0
 10
870.9027553874382
 20
636.2657601082124
 30
0.0
 10
870.4448915996763
 20
637.0567446229128
 30
0.0
 10
870.3604338493427
 20
637.5669393567755
 30
0.0
 10
870.4428981421951
 20
637.9112679624398
 30
0.0
 10
870.5626050858173
 20
638.0889676831727
 30
0.0
 10
870.6433163590235
 20
638.1643502525955
 30
0.0
 10
870.6485689404494
 20
638.1692560491249
 30
0.0
  0
LINE
  5
2C9
330
1F
100
AcDbEntity
  8
0
  6
Continuous
 62
     8
370
    18
100
AcDbLine
 10
823.7866999615
 20
673.6127789136
 30
0.0
 11
770.7808136444
 21
673.6087788431
 31
0.0
  0
LINE
  5
2CA
330
1F
100
AcDbEntity
  8
0
  6
Continuous
 62
     8
370
    18
100
AcDbLine
 10
823.7866999615
 20
673.6127789136
 30
0.0
 11
823.7866999615
 21
673.6083389891
 31
0.0
  0
LINE
  5
2CB
330
1F
100
AcDbEntity
  8
0
  6
Continuous
 62
     8
370
    18
100
AcDbLine
 10
823.7866999615
 20
630.1213541296
 30
0.0
 11
770.7808136444
 21
630.1253542001
 31
0.0
  0
LINE
  5
2CC
330
1F
100
AcDbEntity
  8
0
  6
Continuous
 62
     8
370
    18
100
AcDbLine
 10
823.7866999615
 20
630.1213541296
 30
0.0
 11
823.7866999615
 21
630.1257940541
 31
0.0
  0
LINE
  5
2CD
330
1F
100
AcDbEntity
  8
0
  6
Continuous
 62
     8
370
    18
100
AcDbLine
 10
823.7866999615
 20
673.6127789136
 30
0.0
 11
876.7925862787
 21
673.6087788431
 31
0.0
  0
LINE
  5
2CE
330
1F
100
AcDbEntity
  8
0
  6
Continuous
 62
     8
370
    18
100
AcDbLine
 10
823.7866999615
 20
630.1213541296
 30
0.0
 11
876.7925862787
 21
630.1253542001
 31
0.0
  0
LINE
  5
2CF
330
1F
100
AcDbEntity
  8
0
  6
Continuous
 62
     8
370
    18
100
AcDbLine
 10
777.7866999615
 20
671.8670665216
 30
0.0
 11
869.7866999615
 21
671.8670665216
 31
0.0
  0
LINE
  5
2D0
330
1F
100
AcDbEntity
  8
0
  6
Continuous
 62
     8
370
    18
100
AcDbLine
 10
777.7866999615
 20
631.8670665216
 30
0.0
 11
869.7866999615
 21
631.8670665216
 31
0.0
  0
LINE
  5
2D1
330
1F
100
AcDbEntity
  8
0
  6
Continuous
 62
     8
370
    18
100
AcDbLine
 10
770.7808136444
 20
673.6087788431
 30
0.0
 11
770.780813019
 21
673.6170657249
 31
0.0
  0
LINE
  5
2D2
330
1F
100
AcDbEntity
  8
0
  6
Continuous
 62
     8
370
    18
100
AcDbLine
 10
770.7808136444
 20
630.1253542001
 30
0.0
 11
770.780813019
 21
630.1170673183
 31
0.0
  0
LINE
  5
2D3
330
1F
100
AcDbEntity
  8
0
  6
Continuous
 62
     8
370
    18
100
AcDbLine
 10
876.7925862787
 20
673.6087788431
 30
0.0
 11
876.7925869041
 21
673.6170657249
 31
0.0
  0
LINE
  5
2D4
330
1F
100
AcDbEntity
  8
0
  6
Continuous
 62
     8
370
    18
100
AcDbLine
 10
876.7925862787
 20
630.1253542001
 30
0.0
 11
876.7925869041
 21
630.1170673183
 31
0.0
  0
LINE
  5
2D5
330
1F
100
AcDbEntity
  8
0
  6
Continuous
 62
     8
370
    18
100
AcDbLine
 10
876.7866999615
 20
673.6170665216
 30
0.0
 11
876.7866999615
 21
678.1170665216
 31
0.0
  0
LINE
  5
2D6
330
1F
100
AcDbEntity
  8
0
  6
Continuous
 62
     8
370
    18
100
AcDbLine
 10
770.7866999615
 20
673.6170665216
 30
0.0
 11
770.7866999615
 21
678.1170665216
 31
0.0
  0
LINE
  5
2D7
330
1F
100
AcDbEntity
  8
0
  6
Continuous
 62
     8
370
    18
100
AcDbLine
 10
770.7866999615
 20
678.1170665216
 30
0.0
 11
876.7866999615
 21
678.1170665216
 31
0.0
  0
LINE
  5
2D8
330
1F
100
AcDbEntity
  8
0
  6
Continuous
 62
     8
370
    18
100
AcDbLine
 10
876.7866999615
 20
678.1170665216
 30
0.0
 11
876.7866999615
 21
678.8670665216
 31
0.0
  0
LINE
  5
2D9
330
1F
100
AcDbEntity
  8
0
  6
Continuous
 62
     8
370
    18
100
AcDbLine
 10
770.7866999615
 20
678.1170665216
 30
0.0
 11
770.7866999615
 21
678.8670665216
 31
0.0
  0
LINE
  5
2DA
330
1F
100
AcDbEntity
  8
0
  6
Continuous
 62
     8
370
    18
100
AcDbLine
 10
770.7866999615
 20
630.1170665216
 30
0.0
 11
770.7866999615
 21
625.6170665216
 31
0.0
  0
ARC
  5
2DB
330
1F
100
AcDbEntity
  8
0
  6
Continuous
 62
     8
370
    18
100
AcDbCircle
 10
770.7866999615
 20
651.8670665216
 30
0.0
 40
26.25000000000011
100
AcDbArc
 50
90.0
 51
270.0
  0
LINE
  5
2DC
330
1F
100
AcDbEntity
  8
0
  6
Continuous
 62
     8
370
    18
100
AcDbLine
 10
770.7866999615
 20
625.6170665216
 30
0.0
 11
770.7866999615
 21
624.8670665216
 31
0.0
  0
LINE
  5
2DD
330
1F
100
AcDbEntity
  8
0
  6
Continuous
 62
     8
370
    18
100
AcDbLine
 10
876.7866999615
 20
630.1170665216
 30
0.0
 11
876.7866999615
 21
625.6170665216
 31
0.0
  0
LINE
  5
2DE
330
1F
100
AcDbEntity
  8
0
  6
Continuous
 62
     8
370
    18
100
AcDbLine
 10
770.7866999615
 20
625.6170665216
 30
0.0
 11
876.7866999615
 21
625.6170665216
 31
0.0
  0
LINE
  5
2DF
330
1F
100
AcDbEntity
  8
0
  6
Continuous
 62
     8
370
    18
100
AcDbLine
 10
876.7866999615
 20
625.6170665216
 30
0.0
 11
876.7866999615
 21
624.8670665216
 31
0.0
  0
ARC
  5
2E0
330
1F
100
AcDbEntity
  8
0
  6
Continuous
 62
     8
370
    18
100
AcDbCircle
 10
876.7866999615
 20
651.8670665216
 30
0.0
 40
26.25000000000011
100
AcDbArc
 50
270.0
 51
90.0
  0
CIRCLE
  5
2E1
330
1F
100
AcDbEntity
  8
0
  6
Continuous
 62
     8
370
    18
100
AcDbCircle
 10
823.7866999615
 20
651.8670665216
 30
0.0
 40
3.548336454629521
  0
CIRCLE
  5
2E2
330
1F
100
AcDbEntity
  8
0
  6
Continuous
 62
     8
370
    18
100
AcDbCircle
 10
823.7866999615
 20
651.8670665216
 30
0.0
 40
5.614709433546636
  0
ARC
  5
2E3
330
1F
100
AcDbEntity
  8
0
  6
Continuous
 62
     8
370
    18
100
AcDbCircle
 10
823.7866999615
 20
651.8670665216
 30
0.0
 40
7.463480267439956
100
AcDbArc
 50
126.4944476701
 51
233.5055523299
  0
ARC
  5
2E4
330
1F
100
AcDbEntity
  8
0
  6
Continuous
 62
     8
370
    18
100
AcDbCircle
 10
823.7866999615
 20
651.8670665216
 30
0.0
 40
7.463480267439889
100
AcDbArc
 50
306.4944476701
 51
53.5055523299
  0
ARC
  5
2E5
330
1F
100
AcDbEntity
  8
0
  6
Continuous
 62
     8
370
    18
100
AcDbCircle
 10
823.7866999615
 20
651.8670665216
 30
0.0
 40
8.284968901367119
100
AcDbArc
 50
133.5974061618
 51
226.4025938382
  0
ARC
  5
2E6
330
1F
100
AcDbEntity
  8
0
  6
Continuous
 62
     8
370
    18
100
AcDbCircle
 10
823.7866999615
 20
651.8670665216
 30
0.0
 40
8.284968901367119
100
AcDbArc
 50
313.5974061618
 51
46.4025938382
  0
SPLINE
  5
2E7
330
1F
100
AcDbEntity
  8
0
  6
Continuous
 62
     7
370
    35
100
AcDbSpline
210
0.0
220
0.0
230
1.0
 70
     8
 71
     3
 72
    17
 73
    13
 74
     0
 42
0.000000001
 43
0.00000001
 40
0.0
 40
0.0
 40
0.0
 40
0.0
 40
0.0944916342872154
 40
0.20378595748434
 40
0.265837016444894
 40
0.2993186192347891
 40
0.3336799275668065
 40
0.4040369981030286
 40
0.4775572112411298
 40
0.637297094301085
 40
0.8168981540237078
 40
0.9999999999999999
 40
0.9999999999999999
 40
0.9999999999999999
 40
0.9999999999999999
 10
1631.693050199055
 20
950.5951155298605
 30
0.0
 10
1631.430385831914
 20
951.0041287703829
 30
0.0
 10
1630.863909127826
 20
951.8862296618782
 30
0.0
 10
1629.799952115375
 20
952.6425508655753
 30
0.0
 10
1628.955182795042
 20
952.9493005288266
 30
0.0
 10
1628.584780280248
 20
953.3266047301067
 30
0.0
 10
1628.420051157896
 20
953.8060150684105
 30
0.0
 10
1628.482172057137
 20
954.3330117011982
 30
0.0
 10
1628.455757804089
 20
955.0462331531143
 30
0.0
 10
1628.47012124228
 20
955.663931096686
 30
0.0
 10
1628.464986494438
 20
956.0440473477274
 30
0.0
 10
1628.465705218258
 20
956.0715940863088
 30
0.0
 10
1628.466068048707
 20
956.0855003953171
 30
0.0
  0
SPLINE
  5
2E8
330
1F
100
AcDbEntity
  8
0
  6
Continuous
 62
     7
370
    35
100
AcDbSpline
210
0.0
220
0.0
230
1.0
 70
     8
 71
     3
 72
    17
 73
    13
 74
     0
 42
0.000000001
 43
0.00000001
 40
0.0
 40
0.0
 40
0.0
 40
0.0
 40
0.1890801208205382
 40
0.3745451547228605
 40
0.5395005445914649
 40
0.6154211925169183
 40
0.6880754212420026
 40
0.7235586262108875
 40
0.7581334032536761
 40
0.8222104291442774
 40
0.935073211738044
 40
1.0
 40
1.0
 40
1.0
 40
1.0
 10
1571.466055390195
 20
956.0855003952977
 30
0.0
 10
1571.466418016996
 20
956.0715943334112
 30
0.0
 10
1571.467136337413
 20
956.044048084349
 30
0.0
 10
1571.462004461582
 20
955.6639283481844
 30
0.0
 10
1571.47635985771
 20
955.0462401634747
 30
0.0
 10
1571.449960386184
 20
954.3330007745162
 30
0.0
 10
1571.512046511824
 20
953.8060463387128
 30
0.0
 10
1571.347386296782
 20
953.3265523829247
 30
0.0
 10
1570.976723304039
 20
952.9495642657826
 30
0.0
 10
1570.134336942447
 20
952.6399229356915
 30
0.0
 10
1569.182804363325
 20
951.9906885466326
 30
0.0
 10
1568.697787803465
 20
951.2532489383517
 30
0.0
 10
1568.520665110981
 20
950.9839441356438
 30
0.0
  0
ARC
  5
2E9
330
1F
100
AcDbEntity
  8
0
  6
Continuous
 62
     7
370
    35
100
AcDbCircle
 10
1577.476048551
 20
926.6348990658
 30
0.0
 40
14.99987568081195
100
AcDbArc
 50
226.8610757222
 51
269.924195537
  0
ARC
  5
2EA
330
1F
100
AcDbEntity
  8
0
  6
Continuous
 62
     7
370
    35
100
AcDbCircle
 10
1622.4560751021
 20
926.6348979935
 30
0.0
 40
14.99987460814017
100
AcDbArc
 50
270.0758036504
 51
312.1690218566
  0
SPLINE
  5
2EB
330
1F
100
AcDbEntity
  8
0
  6
Continuous
 62
     7
370
    35
100
AcDbSpline
210
0.0
220
0.0
230
1.0
 70
     8
 71
     3
 72
    14
 73
    10
 74
     0
 42
0.000000001
 43
0.00000001
 40
0.0
 40
0.0
 40
0.0
 40
0.0
 40
0.3118518498499798
 40
0.5835247383394309
 40
0.7472368347710596
 40
0.816507345597068
 40
0.8691914210100204
 40
0.9293786200022923
 40
1.0
 40
1.0
 40
1.0
 40
1.0
 10
1632.345954355501
 20
950.0120027406031
 30
0.0
 10
1632.236015266976
 20
950.0924503528328
 30
0.0
 10
1632.030301631171
 20
950.2429807149232
 30
0.0
 10
1631.806349065182
 20
950.4776422258759
 30
0.0
 10
1631.668208441445
 20
950.6495029557829
 30
0.0
 10
1631.608686552575
 20
950.7316965886143
 30
0.0
 10
1631.585435788438
 20
950.7650837577439
 30
0.0
 10
1631.57322611114
 20
950.7831339938308
 30
0.0
 10
1631.572956095035
 20
950.7835601799945
 30
0.0
 10
1631.572810317823
 20
950.7837902708284
 30
0.0
  0
SPLINE
  5
2EC
330
1F
100
AcDbEntity
  8
0
  6
Continuous
 62
     7
370
    35
100
AcDbSpline
210
0.0
220
0.0
230
1.0
 70
     8
 71
     3
 72
    12
 73
     8
 74
     0
 42
0.000000001
 43
0.00000001
 40
0.0
 40
0.0
 40
0.0
 40
0.0
 40
0.124910043556468
 40
0.2370776954556149
 40
0.3308192653965141
 40
0.4814606094423336
 40
1.0
 40
1.0
 40
1.0
 40
1.0
 10
1568.358140931723
 20
950.7820390958735
 30
0.0
 10
1568.358262243041
 20
950.7822049471938
 30
0.0
 10
1568.358492490398
 20
950.7825197309189
 30
0.0
 10
1568.339316529786
 20
950.754237773596
 30
0.0
 10
1568.298259702648
 20
950.6965320990482
 30
0.0
 10
1568.171873069176
 20
950.528082189217
 30
0.0
 10
1568.033526181149
 20
950.3893068630462
 30
0.0
 10
1567.926322988808
 20
950.2817716795959
 30
0.0
  0
SPLINE
  5
2ED
330
1F
100
AcDbEntity
  8
0
  6
Continuous
 62
     7
370
    35
100
AcDbSpline
210
0.0
220
0.0
230
1.0
 70
     8
 71
     3
 72
    12
 73
     8
 74
     0
 42
0.000000001
 43
0.00000001
 40
0.0
 40
0.0
 40
0.0
 40
0.0
 40
0.091037422491221
 40
0.235354128557044
 40
0.3547454600114738
 40
0.5766251016187235
 40
1.0
 40
1.0
 40
1.0
 40
1.0
 10
1632.51197535097
 20
915.5294136253651
 30
0.0
 10
1632.511010170077
 20
915.5285750362585
 30
0.0
 10
1632.508514940072
 20
915.5264070771601
 30
0.0
 10
1632.522929849471
 20
915.5387774075405
 30
0.0
 10
1632.558418219159
 20
915.5680384418248
 30
0.0
 10
1632.636885754167
 20
915.6315789155167
 30
0.0
 10
1632.711211953277
 20
915.6795633559976
 30
0.0
 10
1632.759980067323
 20
915.7110476871467
 30
0.0
  0
SPLINE
  5
2EE
330
1F
100
AcDbEntity
  8
0
  6
Continuous
 62
     7
370
    35
100
AcDbSpline
210
0.0
220
0.0
230
1.0
 70
     8
 71
     3
 72
    13
 73
     9
 74
     0
 42
0.000000001
 43
0.00000001
 40
0.0
 40
0.0
 40
0.0
 40
0.0
 40
0.3192547611993385
 40
0.6030634358807856
 40
0.7318310647201335
 40
0.831116840831861
 40
0.9400008211301438
 40
1.0
 40
1.0
 40
1.0
 40
1.0
 10
1567.17282521754
 20
915.712565981748
 30
0.0
 10
1567.209488539087
 20
915.6887982151618
 30
0.0
 10
1567.278744541972
 20
915.6439015598173
 30
0.0
 10
1567.356653892228
 20
915.581885417941
 30
0.0
 10
1567.399833128175
 20
915.5465660628109
 30
0.0
 10
1567.416628869774
 20
915.5324033938456
 30
0.0
 10
1567.423579910567
 20
915.5264395425971
 30
0.0
 10
1567.422600847012
 20
915.5272874027222
 30
0.0
 10
1567.422253014761
 20
915.5275886222845
 30
0.0
  0
SPLINE
  5
2EF
330
1F
100
AcDbEntity
  8
0
  6
Continuous
 62
     7
370
    35
100
AcDbSpline
210
0.0
220
0.0
230
1.0
 70
     8
 71
     3
 72
    10
 73
     6
 74
     0
 42
0.000000001
 43
0.00000001
 40
0.0
 40
0.0
 40
0.0
 40
0.0
 40
0.2926068144133091
 40
0.7936688105135764
 40
0.9999999999999999
 40
0.9999999999999999
 40
0.9999999999999999
 40
0.9999999999999999
 10
1631.682153706202
 20
951.6545875559939
 30
0.0
 10
1631.58035474288
 20
951.6598819993446
 30
0.0
 10
1631.304234508653
 20
951.6742426852533
 30
0.0
 10
1630.963417702186
 20
951.7717423315573
 30
0.0
 10
1630.744709585061
 20
951.8755850128761
 30
0.0
 10
1630.680917189437
 20
951.9058736619505
 30
0.0
  0
ARC
  5
2F0
330
1F
100
AcDbEntity
  8
0
  6
Continuous
 62
     7
370
    35
100
AcDbCircle
 10
1631.4660617195
 20
922.6350233936
 30
0.0
 40
11.0
100
AcDbArc
 50
270.0
 51
0.0
  0
LINE
  5
2F1
330
1F
100
AcDbEntity
  8
0
  6
Continuous
 62
     7
370
    35
100
AcDbLine
 10
1621.9792069291
 20
911.6350233936
 30
0.0
 11
1631.4660617195
 21
911.6350233936
 31
0.0
  0
SPLINE
  5
2F2
330
1F
100
AcDbEntity
  8
0
  6
Continuous
 62
     7
370
    35
100
AcDbSpline
210
0.0
220
0.0
230
1.0
 70
     8
 71
     3
 72
    13
 73
     9
 74
     0
 42
0.000000001
 43
0.00000001
 40
0.0
 40
0.0
 40
0.0
 40
0.0
 40
0.0125063881746202
 40
0.1462174502972769
 40
0.2953845426609231
 40
0.4584621323577257
 40
0.7227547064210298
 40
0.9999999999999999
 40
0.9999999999999999
 40
0.9999999999999999
 40
0.9999999999999999
 10
1628.466079278453
 20
955.0408325888201
 30
0.0
 10
1628.46607894113
 20
955.093087209187
 30
0.0
 10
1628.466074997355
 20
955.7040179790969
 30
0.0
 10
1628.466072484905
 20
956.4834907656735
 30
0.0
 10
1628.466067370096
 20
957.2780264183209
 30
0.0
 10
1628.466063767633
 20
957.8198540314586
 30
0.0
 10
1628.466061738403
 20
958.0626393827677
 30
0.0
 10
1628.466061725868
 20
958.0774440222347
 30
0.0
 10
1628.466061719451
 20
958.085023393615
 30
0.0
  0
LINE
  5
2F3
330
1F
100
AcDbEntity
  8
0
  6
Continuous
 62
     7
370
    35
100
AcDbLine
 10
1634.9660617195
 20
981.0814618932
 30
0.0
 11
1564.9660617195
 21
981.0814618932
 31
0.0
  0
LWPOLYLINE
  5
2F4
330
1F
100
AcDbEntity
  8
0
  6
Continuous
 62
     7
370
    35
100
AcDbPolyline
 90
        3
 70
   128
 43
0.0
 10
1566.9660617195
 20
966.8433803825
 10
1567.0017739525
 20
966.4671177498
 10
1567.0910617195
 20
966.1474098371
  0
ARC
  5
2F5
330
1F
100
AcDbEntity
  8
0
  6
Continuous
 62
     7
370
    35
100
AcDbCircle
 10
1635.9660617195
 20
970.0814618932
 30
0.0
 40
1.0
100
AcDbArc
 50
180.0
 51
270.0
  0
LWPOLYLINE
  5
2F6
330
1F
100
AcDbEntity
  8
0
  6
Continuous
 62
     7
370
    35
100
AcDbPolyline
 90
        3
 70
   128
 43
0.0
 10
1632.9660617195
 20
966.8433803825
 10
1632.9303494864
 20
966.4671177498
 10
1632.8410617195
 20
966.1474098371
  0
ARC
  5
2F7
330
1F
100
AcDbEntity
  8
0
  6
Continuous
 62
     7
370
    35
100
AcDbCircle
 10
1563.9660617195
 20
970.0814618932
 30
0.0
 40
1.000000000000227
100
AcDbArc
 50
270.0
 51
0.0
  0
LINE
  5
2F8
330
1F
100
AcDbEntity
  8
0
  6
Continuous
 62
     7
370
    35
100
AcDbLine
 10
1632.9660617195
 20
966.8433803825
 30
0.0
 11
1632.9660617195
 21
968.0814618932
 31
0.0
  0
LINE
  5
2F9
330
1F
100
AcDbEntity
  8
0
  6
Continuous
 62
     7
370
    35
100
AcDbLine
 10
1566.9660617195
 20
968.0814618932
 30
0.0
 11
1566.9660617195
 21
966.8433803825
 31
0.0
  0
LINE
  5
2FA
330
1F
100
AcDbEntity
  8
0
  6
Continuous
 62
     7
370
    35
100
AcDbLine
 10
1627.9660617195
 20
958.8082120597
 30
0.0
 11
1627.9660617195
 21
958.0850233937
 31
0.0
  0
LINE
  5
2FB
330
1F
100
AcDbEntity
  8
0
  6
Continuous
 62
     7
370
    35
100
AcDbLine
 10
1571.9660617195
 20
958.8082120597
 30
0.0
 11
1571.9660617195
 21
958.0850233937
 31
0.0
  0
LINE
  5
2FC
330
1F
100
AcDbEntity
  8
0
  6
Continuous
 62
     7
370
    35
100
AcDbLine
 10
1571.9660617195
 20
958.0850233937
 30
0.0
 11
1573.5169448184
 21
958.0850233937
 31
0.0
  0
LINE
  5
2FD
330
1F
100
AcDbEntity
  8
0
  6
Continuous
 62
     7
370
    35
100
AcDbLine
 10
1626.4151786205
 20
958.0850233937
 30
0.0
 11
1627.9660617195
 21
958.0850233937
 31
0.0
  0
SPLINE
  5
2FE
330
1F
100
AcDbEntity
  8
0
  6
Continuous
 62
     7
370
    35
100
AcDbSpline
210
0.0
220
0.0
230
1.0
 70
     8
 71
     3
 72
     9
 73
     5
 74
     0
 42
0.000000001
 43
0.00000001
 40
0.0
 40
0.0
 40
0.0
 40
0.0
 40
0.168636843361843
 40
1.0
 40
1.0
 40
1.0
 40
1.0
 10
1631.606588715554
 20
950.7313489103204
 30
0.0
 10
1631.594339450696
 20
950.7506858070766
 30
0.0
 10
1631.521702507227
 20
950.8653517150166
 30
0.0
 10
1631.513253251805
 20
950.8755757360149
 30
0.0
 10
1631.506228852146
 20
950.8840756103856
 30
0.0
  0
SPLINE
  5
2FF
330
1F
100
AcDbEntity
  8
0
  6
Continuous
 62
     7
370
    35
100
AcDbSpline
210
0.0
220
0.0
230
1.0
 70
     8
 71
     3
 72
    14
 73
    10
 74
     0
 42
0.000000001
 43
0.00000001
 40
0.0
 40
0.0
 40
0.0
 40
0.0
 40
0.0000086772972158
 40
0.0546554576672727
 40
0.1545956188497726
 40
0.2815115513695403
 40
0.4757791841528832
 40
0.7372214479202447
 40
0.9999999999999999
 40
0.9999999999999999
 40
0.9999999999999999
 40
0.9999999999999999
 10
1631.375357816526
 20
950.9646129342229
 30
0.0
 10
1631.375358838362
 20
950.9646108133895
 30
0.0
 10
1631.38179505689
 20
950.9512523780076
 30
0.0
 10
1631.416528221278
 20
950.8868511737238
 30
0.0
 10
1631.565679881537
 20
950.6308649884884
 30
0.0
 10
1631.930282953896
 20
950.0149283848331
 30
0.0
 10
1632.560645621742
 20
948.9392543385577
 30
0.0
 10
1633.371844049958
 20
947.5184383141204
 30
0.0
 10
1633.952929983911
 20
946.4594246526497
 30
0.0
 10
1634.244213572319
 20
945.9285680590513
 30
0.0
  0
SPLINE
  5
300
330
1F
100
AcDbEntity
  8
0
  6
Continuous
 62
     7
370
    35
100
AcDbSpline
210
0.0
220
0.0
230
1.0
 70
     8
 71
     3
 72
    12
 73
     8
 74
     0
 42
0.000000001
 43
0.00000001
 40
0.0
 40
0.0
 40
0.0
 40
0.0
 40
0.1720163517394587
 40
0.4559765852487092
 40
0.6679924881477978
 40
0.886316203050505
 40
1.0
 40
1.0
 40
1.0
 40
1.0
 10
1635.6779981646
 20
943.2209884396727
 30
0.0
 10
1636.159842145155
 20
942.1732855228556
 30
0.0
 10
1637.437101955948
 20
939.3960611861312
 30
0.0
 10
1638.396967441452
 20
934.9743769208948
 30
0.0
 10
1638.597483389869
 20
930.18563548049
 30
0.0
 10
1638.139084827303
 20
926.5434850914579
 30
0.0
 10
1637.503482329523
 20
924.4121464392451
 30
0.0
 10
1637.285843563174
 20
923.6823476789189
 30
0.0
  0
SPLINE
  5
301
330
1F
100
AcDbEntity
  8
0
  6
Continuous
 62
     7
370
    35
100
AcDbSpline
210
0.0
220
0.0
230
1.0
 70
    24
 71
     3
 72
     9
 73
     5
 74
     0
 42
0.000000001
 43
0.00000001
 40
0.0
 40
0.0
 40
0.0
 40
0.0
 40
0.5076026287551308
 40
1.0
 40
1.0
 40
1.0
 40
1.0
 10
1599.966061719451
 20
927.406262217963
 30
0.0
 10
1599.966061719451
 20
925.8785608232345
 30
0.0
 10
1599.966061719451
 20
922.8689203915548
 30
0.0
 10
1599.966061719451
 20
920.2721680727824
 30
0.0
 10
1599.966061719451
 20
918.9935340572448
 30
0.0
  0
SPLINE
  5
302
330
1F
100
AcDbEntity
  8
0
  6
Continuous
 62
     7
370
    35
100
AcDbSpline
210
0.0
220
0.0
230
1.0
 70
    24
 71
     3
 72
    13
 73
     9
 74
     0
 42
0.000000001
 43
0.00000001
 40
0.0
 40
0.0
 40
0.0
 40
0.0
 40
0.3696467405832384
 40
0.7491634169652789
 40
0.8272821692919365
 40
0.9051799160500814
 40
0.9820955461384869
 40
1.0
 40
1.0
 40
1.0
 40
1.0
 10
1628.466061719451
 20
958.085023393615
 30
0.0
 10
1628.477892684572
 20
958.085023393615
 30
0.0
 10
1628.501870513357
 20
958.085023393615
 30
0.0
 10
1628.367416451892
 20
958.085023393615
 30
0.0
 10
1628.531850690589
 20
958.085023393615
 30
0.0
 10
1628.215564866735
 20
958.0850233936147
 30
0.0
 10
1627.424807962286
 20
958.0850233936147
 30
0.0
 10
1626.57554177033
 20
958.0850233936148
 30
0.0
 10
1626.415178620282
 20
958.0850233936148
 30
0.0
  0
SPLINE
  5
303
330
1F
100
AcDbEntity
  8
0
  6
Continuous
 62
     7
370
    35
100
AcDbSpline
210
0.0
220
0.0
230
1.0
 70
     8
 71
     3
 72
    14
 73
    10
 74
     0
 42
0.000000001
 43
0.00000001
 40
0.0
 40
0.0
 40
0.0
 40
0.0
 40
0.0000086772972158
 40
0.0546554576672728
 40
0.154595618849773
 40
0.2815115513695388
 40
0.4757791841528841
 40
0.7372214479202459
 40
1.0
 40
1.0
 40
1.0
 40
1.0
 10
1568.556765622377
 20
950.9646129342227
 30
0.0
 10
1568.55676460054
 20
950.9646108133894
 30
0.0
 10
1568.550328381997
 20
950.9512523780002
 30
0.0
 10
1568.515595217637
 20
950.8868511737296
 30
0.0
 10
1568.36644355736
 20
950.6308649884857
 30
0.0
 10
1568.001840485009
 20
950.014928384834
 30
0.0
 10
1567.37147781716
 20
948.9392543385569
 30
0.0
 10
1566.560279388945
 20
947.5184383141202
 30
0.0
 10
1565.979193454992
 20
946.4594246526493
 30
0.0
 10
1565.687909866584
 20
945.9285680590509
 30
0.0
  0
SPLINE
  5
304
330
1F
100
AcDbEntity
  8
0
  6
Continuous
 62
     7
370
    35
100
AcDbSpline
210
0.0
220
0.0
230
1.0
 70
     8
 71
     3
 72
     9
 73
     5
 74
     0
 42
0.000000001
 43
0.00000001
 40
0.0
 40
0.0
 40
0.0
 40
0.0
 40
0.0487880016052147
 40
1.0
 40
1.0
 40
1.0
 40
1.0
 10
1568.351626769895
 20
950.772472089096
 30
0.0
 10
1568.354614732448
 20
950.7771836324766
 30
0.0
 10
1568.41585853122
 20
950.8737553965482
 30
0.0
 10
1568.421002029489
 20
950.8790445265072
 30
0.0
 10
1568.425894586757
 20
950.8840756103854
 30
0.0
  0
LINE
  5
305
330
1F
100
AcDbEntity
  8
0
  6
Continuous
 62
     7
370
    35
100
AcDbLine
 10
1571.4660617195
 20
954.6688995892
 30
0.0
 11
1571.4660617195
 21
958.0850233936
 31
0.0
  0
SPLINE
  5
306
330
1F
100
AcDbEntity
  8
0
  6
Continuous
 62
     7
370
    35
100
AcDbSpline
210
0.0
220
0.0
230
1.0
 70
     8
 71
     3
 72
    12
 73
     8
 74
     0
 42
0.000000001
 43
0.00000001
 40
0.0
 40
0.0
 40
0.0
 40
0.0
 40
0.172016351739458
 40
0.4559765852487092
 40
0.6679924881477987
 40
0.8863162030505046
 40
1.0
 40
1.0
 40
1.0
 40
1.0
 10
1564.254125274303
 20
943.2209884396725
 30
0.0
 10
1563.772281293748
 20
942.1732855228554
 30
0.0
 10
1562.495021482954
 20
939.3960611861309
 30
0.0
 10
1561.535155997451
 20
934.9743769208944
 30
0.0
 10
1561.334640049033
 20
930.1856354804896
 30
0.0
 10
1561.7930386116
 20
926.5434850914577
 30
0.0
 10
1562.42864110938
 20
924.4121464392449
 30
0.0
 10
1562.646279875729
 20
923.6823476789185
 30
0.0
  0
SPLINE
  5
307
330
1F
100
AcDbEntity
  8
0
  6
Continuous
 62
     7
370
    35
100
AcDbSpline
210
0.0
220
0.0
230
1.0
 70
    24
 71
     3
 72
    13
 73
     9
 74
     0
 42
0.000000001
 43
0.00000001
 40
0.0
 40
0.0
 40
0.0
 40
0.0
 40
0.3696467405832334
 40
0.7491634169652689
 40
0.8272821692919256
 40
0.9051799160500694
 40
0.9820955461384739
 40
1.0
 40
1.0
 40
1.0
 40
1.0
 10
1571.466061719451
 20
958.0850233936148
 30
0.0
 10
1571.45423075433
 20
958.0850233936148
 30
0.0
 10
1571.430252925546
 20
958.0850233936148
 30
0.0
 10
1571.564706987011
 20
958.0850233936147
 30
0.0
 10
1571.400272748313
 20
958.0850233936148
 30
0.0
 10
1571.716558572168
 20
958.0850233936146
 30
0.0
 10
1572.507315476617
 20
958.0850233936146
 30
0.0
 10
1573.356581668572
 20
958.0850233936146
 30
0.0
 10
1573.51694481862
 20
958.0850233936147
 30
0.0
  0
SPLINE
  5
308
330
1F
100
AcDbEntity
  8
0
  6
Continuous
 62
     7
370
    35
100
AcDbSpline
210
0.0
220
0.0
230
1.0
 70
    24
 71
     3
 72
    12
 73
     8
 74
     0
 42
0.000000001
 43
0.00000001
 40
0.0
 40
0.0
 40
0.0
 40
0.0
 40
0.1408006786044993
 40
0.3784804122976904
 40
0.6230118132640773
 40
0.8098917120669654
 40
1.0
 40
1.0
 40
1.0
 40
1.0
 10
1599.966061719451
 20
915.1814618931661
 30
0.0
 10
1599.966061719451
 20
914.8597220386267
 30
0.0
 10
1599.966061719451
 20
913.9948665989684
 30
0.0
 10
1599.966061719451
 20
912.9543453028742
 30
0.0
 10
1599.966061719451
 20
912.1493364280975
 30
0.0
 10
1599.966061719451
 20
911.7109137935671
 30
0.0
 10
1599.966061719451
 20
911.6604642042175
 30
0.0
 10
1599.966061719451
 20
911.6350233936149
 30
0.0
  0
SPLINE
  5
309
330
1F
100
AcDbEntity
  8
0
  6
Continuous
 62
     7
370
    35
100
AcDbSpline
210
0.0
220
0.0
230
1.0
 70
    24
 71
     3
 72
    17
 73
    13
 74
     0
 42
0.000000001
 43
0.00000001
 40
0.0
 40
0.0
 40
0.0
 40
0.0
 40
0.0569795784918701
 40
0.1353024541387439
 40
0.2160128774647671
 40
0.2868547793927196
 40
0.35934814158379
 40
0.4253072501105625
 40
0.4928579495997182
 40
0.5565942236326145
 40
0.6223126637271007
 40
1.0
 40
1.0
 40
1.0
 40
1.0
 10
1599.966061719451
 20
911.6350233936149
 30
0.0
 10
1598.915681287082
 20
911.6350233936149
 30
0.0
 10
1596.421471009639
 20
911.6350233936149
 30
0.0
 10
1592.602606001363
 20
911.6350233936149
 30
0.0
 10
1588.835239828955
 20
911.6350233936149
 30
0.0
 10
1585.540198656893
 20
911.6350233936149
 30
0.0
 10
1582.859679506417
 20
911.6350233936149
 30
0.0
 10
1580.669412243294
 20
911.6350233936149
 30
0.0
 10
1579.075510557411
 20
911.6350233936149
 30
0.0
 10
1578.023417322804
 20
911.6350233936149
 30
0.0
 10
1577.368107915672
 20
911.6350233936149
 30
0.0
 10
1577.42753101916
 20
911.6350233936149
 30
0.0
 10
1577.478146854284
 20
911.6350233936149
 30
0.0
  0
SPLINE
  5
30A
330
1F
100
AcDbEntity
  8
0
  6
Continuous
 62
     7
370
    35
100
AcDbSpline
210
0.0
220
0.0
230
1.0
 70
    24
 71
     3
 72
    17
 73
    13
 74
     0
 42
0.000000001
 43
0.00000001
 40
0.0
 40
0.0
 40
0.0
 40
0.0
 40
0.0569845589005249
 40
0.1364939970869588
 40
0.2160235345599401
 40
0.2876998720940906
 40
0.3593687415705778
 40
0.4261501537101952
 40
0.4928872867049897
 40
0.5575313349414216
 40
0.6222797705528403
 40
1.0
 40
1.0
 40
1.0
 40
1.0
 10
1599.966061719451
 20
911.6350233936149
 30
0.0
 10
1601.016516666354
 20
911.6350233936149
 30
0.0
 10
1603.532650812673
 20
911.6350233936149
 30
0.0
 10
1607.348200404182
 20
911.6350233936149
 30
0.0
 10
1611.128755519488
 20
911.6350233936149
 30
0.0
 10
1614.401952840344
 20
911.6350233936149
 30
0.0
 10
1617.093336232344
 20
911.6350233936149
 30
0.0
 10
1619.26588326696
 20
911.6350233936149
 30
0.0
 10
1620.879478881508
 20
911.6350233936149
 30
0.0
 10
1621.872910502586
 20
911.635023393615
 30
0.0
 10
1622.631426670946
 20
911.635023393615
 30
0.0
 10
1622.532631681232
 20
911.635023393615
 30
0.0
 10
1622.448293807999
 20
911.635023393615
 30
0.0
  0
SPLINE
  5
30B
330
1F
100
AcDbEntity
  8
0
  6
Continuous
 62
     7
370
    35
100
AcDbSpline
210
0.0
220
0.0
230
1.0
 70
     8
 71
     3
 72
    13
 73
     9
 74
     0
 42
0.000000001
 43
0.00000001
 40
0.0
 40
0.0
 40
0.0
 40
0.0
 40
0.2029467742027863
 40
0.4117773519856942
 40
0.6147258594307151
 40
0.8235672334127765
 40
0.9115535143092925
 40
0.9999999999999999
 40
0.9999999999999999
 40
0.9999999999999999
 40
0.9999999999999999
 10
1638.550303541651
 20
923.2642191685245
 30
0.0
 10
1638.953366833493
 20
924.6468739171931
 30
0.0
 10
1639.771178969947
 20
927.4522691414027
 30
0.0
 10
1640.080593126096
 20
931.8256691572506
 30
0.0
 10
1639.702132624525
 20
936.2192108908041
 30
0.0
 10
1638.789009716416
 20
939.6581640479955
 30
0.0
 10
1637.788342999614
 20
942.1987188048215
 30
0.0
 10
1637.226462765282
 20
943.3151201552341
 30
0.0
 10
1636.944789847791
 20
943.8747768333802
 30
0.0
  0
SPLINE
  5
30C
330
1F
100
AcDbEntity
  8
0
  6
Continuous
 62
     7
370
    35
100
AcDbSpline
210
0.0
220
0.0
230
1.0
 70
     8
 71
     3
 72
    13
 73
     9
 74
     0
 42
0.000000001
 43
0.00000001
 40
0.0
 40
0.0
 40
0.0
 40
0.0
 40
0.2029467742027863
 40
0.4117773519856943
 40
0.6147258594307151
 40
0.8235672334127759
 40
0.9115535143092929
 40
0.9999999999999999
 40
0.9999999999999999
 40
0.9999999999999999
 40
0.9999999999999999
 10
1561.381819897251
 20
923.2642191685242
 30
0.0
 10
1560.97875660541
 20
924.6468739171928
 30
0.0
 10
1560.160944468956
 20
927.4522691414023
 30
0.0
 10
1559.851530312807
 20
931.8256691572503
 30
0.0
 10
1560.229990814378
 20
936.2192108908038
 30
0.0
 10
1561.143113722486
 20
939.6581640479952
 30
0.0
 10
1562.143780439289
 20
942.1987188048213
 30
0.0
 10
1562.70566067362
 20
943.3151201552338
 30
0.0
 10
1562.987333591112
 20
943.87477683338
 30
0.0
  0
SPLINE
  5
30D
330
1F
100
AcDbEntity
  8
0
  6
Continuous
 62
     7
370
    35
100
AcDbSpline
210
0.0
220
0.0
230
1.0
 70
     8
 71
     3
 72
    12
 73
     8
 74
     0
 42
0.000000001
 43
0.00000001
 40
0.0
 40
0.0
 40
0.0
 40
0.0
 40
0.05421006469103
 40
0.3612059465304461
 40
0.5267652948496013
 40
0.763378706224383
 40
1.0
 40
1.0
 40
1.0
 40
1.0
 10
1567.643869251429
 20
915.4114019882596
 30
0.0
 10
1567.490587500798
 20
915.5091652866225
 30
0.0
 10
1566.469259078892
 20
916.1605698721434
 30
0.0
 10
1565.084663928358
 20
917.3236737450355
 30
0.0
 10
1563.499867801151
 20
919.1595216826908
 30
0.0
 10
1562.285748563775
 20
920.9985972960943
 30
0.0
 10
1561.683132798568
 20
922.5090034917224
 30
0.0
 10
1561.381819897251
 20
923.2642191685242
 30
0.0
  0
SPLINE
  5
30E
330
1F
100
AcDbEntity
  8
0
  6
Continuous
 62
     7
370
    35
100
AcDbSpline
210
0.0
220
0.0
230
1.0
 70
     8
 71
     3
 72
    12
 73
     8
 74
     0
 42
0.000000001
 43
0.00000001
 40
0.0
 40
0.0
 40
0.0
 40
0.0
 40
0.0542100646910314
 40
0.3612059465304484
 40
0.5267652948496008
 40
0.7633787062243832
 40
1.0
 40
1.0
 40
1.0
 40
1.0
 10
1632.288254187474
 20
915.4114019882597
 30
0.0
 10
1632.441535938104
 20
915.5091652866228
 30
0.0
 10
1633.462864360011
 20
916.1605698721437
 30
0.0
 10
1634.847459510545
 20
917.3236737450358
 30
0.0
 10
1636.432255637751
 20
919.159521682691
 30
0.0
 10
1637.646374875128
 20
920.9985972960948
 30
0.0
 10
1638.248990640334
 20
922.5090034917228
 30
0.0
 10
1638.550303541651
 20
923.2642191685245
 30
0.0
  0
SPLINE
  5
30F
330
1F
100
AcDbEntity
  8
0
  6
Continuous
 62
     7
370
    35
100
AcDbSpline
210
0.0
220
0.0
230
1.0
 70
     8
 71
     3
 72
    11
 73
     7
 74
     0
 42
0.000000001
 43
0.00000001
 40
0.0
 40
0.0
 40
0.0
 40
0.0
 40
0.3166502316689779
 40
0.6422005680136343
 40
0.8852711377571072
 40
1.0
 40
1.0
 40
1.0
 40
1.0
 10
1564.465228477926
 20
946.5963048997522
 30
0.0
 10
1564.731252235212
 20
947.0287172688169
 30
0.0
 10
1565.270776893488
 20
947.9056958440915
 30
0.0
 10
1566.236032462106
 20
948.9455785481965
 30
0.0
 10
1567.062352892053
 20
949.6461710658764
 30
0.0
 10
1567.525872561486
 20
949.9646891315608
 30
0.0
 10
1567.674500758031
 20
950.0668223716191
 30
0.0
  0
SPLINE
  5
310
330
1F
100
AcDbEntity
  8
0
  6
Continuous
 62
     7
370
    35
100
AcDbSpline
210
0.0
220
0.0
230
1.0
 70
     8
 71
     3
 72
    11
 73
     7
 74
     0
 42
0.000000001
 43
0.00000001
 40
0.0
 40
0.0
 40
0.0
 40
0.0
 40
0.3166351430858631
 40
0.642169966751819
 40
0.82035796087749
 40
1.0
 40
1.0
 40
1.0
 40
1.0
 10
1635.466894960977
 20
946.5963048997525
 30
0.0
 10
1635.200929606884
 20
947.0287471958559
 30
0.0
 10
1634.661523396536
 20
947.905786466369
 30
0.0
 10
1633.766233967245
 20
948.8690706811057
 30
0.0
 10
1632.950856609675
 20
949.5822496534523
 30
0.0
 10
1632.489325801761
 20
949.9048611541541
 30
0.0
 10
1632.257622680871
 20
950.0668223716194
 30
0.0
  0
LINE
  5
311
330
1F
100
AcDbEntity
  8
0
  6
Continuous
 62
     7
370
    35
100
AcDbLine
 10
1636.9447898478
 20
943.8747768334
 30
0.0
 11
1635.466894961
 21
946.5963048998
 31
0.0
  0
LINE
  5
312
330
1F
100
AcDbEntity
  8
0
  6
Continuous
 62
     7
370
    35
100
AcDbLine
 10
1562.9873335911
 20
943.8747768334
 30
0.0
 11
1564.4652284779
 21
946.5963048998
 31
0.0
  0
LINE
  5
313
330
1F
100
AcDbEntity
  8
0
  6
Continuous
 62
     7
370
    35
100
AcDbLine
 10
1632.7623289682
 20
915.7186705849
 30
0.0
 11
1632.7486746374
 21
915.709820616
 31
0.0
  0
LINE
  5
314
330
1F
100
AcDbEntity
  8
0
  6
Continuous
 62
     7
370
    35
100
AcDbLine
 10
1567.1697944707
 20
915.7186705849
 30
0.0
 11
1567.1834488015
 21
915.709820616
 31
0.0
  0
LINE
  5
315
330
1F
100
AcDbEntity
  8
0
  6
Continuous
 62
     7
370
    35
100
AcDbLine
 10
1632.2576226809
 20
950.0668223716
 30
0.0
 11
1632.3584178817
 21
949.9990483454
 31
0.0
  0
ARC
  5
316
330
1F
100
AcDbEntity
  8
0
  6
Continuous
 62
     7
370
    35
100
AcDbCircle
 10
1565.8849977744
 20
952.4778904469
 30
0.0
 40
2.999398629779452
100
AcDbArc
 50
304.2645941136
 51
312.8939998012
  0
LINE
  5
317
330
1F
100
AcDbEntity
  8
0
  6
Continuous
 62
     7
370
    35
100
AcDbLine
 10
1567.674500758
 20
950.0668223716
 30
0.0
 11
1567.5737055572
 21
949.9990483454
 31
0.0
  0
SPLINE
  5
318
330
1F
100
AcDbEntity
  8
0
  6
Continuous
 62
     7
370
    35
100
AcDbSpline
210
0.0
220
0.0
230
1.0
 70
     8
 71
     3
 72
     9
 73
     5
 74
     0
 42
0.000000001
 43
0.00000001
 40
0.0
 40
0.0
 40
0.0
 40
0.0
 40
0.6590643911418606
 40
1.0
 40
1.0
 40
1.0
 40
1.0
 10
1631.797737290853
 20
951.6363876072295
 30
0.0
 10
1631.48226157084
 20
951.6623818345
 30
0.0
 10
1631.003589495316
 20
951.7018229386166
 30
0.0
 10
1630.602913663326
 20
951.9560009945961
 30
0.0
 10
1630.466309004592
 20
952.0426593448699
 30
0.0
  0
ARC
  5
319
330
1F
100
AcDbEntity
  8
0
  6
Continuous
 62
     7
370
    35
100
AcDbCircle
 10
1631.4660547382
 20
940.6413823652
 30
0.0
 40
11.00000698123873
100
AcDbArc
 50
0.0000092142
 51
88.2721018854
  0
SPLINE
  5
31A
330
1F
100
AcDbEntity
  8
0
  6
Continuous
 62
     7
370
    35
100
AcDbSpline
210
0.0
220
0.0
230
1.0
 70
    24
 71
     3
 72
    19
 73
    15
 74
     0
 42
0.000000001
 43
0.00000001
 40
0.0
 40
0.0
 40
0.0
 40
0.0
 40
0.0003400432997567
 40
0.101863577827705
 40
0.2035434036526508
 40
0.3480218784455775
 40
0.4928620408160624
 40
0.5714933381061476
 40
0.6496296261320141
 40
0.7087399627822193
 40
0.768323858429566
 40
0.8224306267254519
 40
0.892610163227093
 40
1.0
 40
1.0
 40
1.0
 40
1.0
 10
1642.466061719451
 20
940.6413841342376
 30
0.0
 10
1642.466061719451
 20
940.6413863440896
 30
0.0
 10
1642.466061719452
 20
940.6420483286778
 30
0.0
 10
1642.466061719451
 20
940.4726113758644
 30
0.0
 10
1642.466061719451
 20
939.6871525036511
 30
0.0
 10
1642.466061719451
 20
938.2869957216878
 30
0.0
 10
1642.466061719451
 20
936.621253883695
 30
0.0
 10
1642.466061719451
 20
935.1314035475415
 30
0.0
 10
1642.466061719451
 20
933.8833138282341
 30
0.0
 10
1642.466061719451
 20
932.5475629893172
 30
0.0
 10
1642.466061719451
 20
931.234792129871
 30
0.0
 10
1642.466061719451
 20
929.8588517578554
 30
0.0
 10
1642.466061719451
 20
928.4447672826884
 30
0.0
 10
1642.466061719451
 20
927.6156326573496
 30
0.0
 10
1642.466061719451
 20
927.1141912745484
 30
0.0
  0
SPLINE
  5
31B
330
1F
100
AcDbEntity
  8
0
  6
Continuous
 62
     7
370
    35
100
AcDbSpline
210
0.0
220
0.0
230
1.0
 70
    24
 71
     3
 72
     9
 73
     5
 74
     0
 42
0.000000001
 43
0.00000001
 40
0.0
 40
0.0
 40
0.0
 40
0.0
 40
0.4979466281839556
 40
1.0
 40
1.0
 40
1.0
 40
1.0
 10
1642.466061719451
 20
927.1141912745484
 30
0.0
 10
1642.466061719451
 20
926.4834237789911
 30
0.0
 10
1642.466061719451
 20
925.2166866231283
 30
0.0
 10
1642.466061719451
 20
924.1625427220629
 30
0.0
 10
1642.466061719451
 20
923.6333062221537
 30
0.0
  0
LINE
  5
31C
330
1F
100
AcDbEntity
  8
0
  6
Continuous
 62
     7
370
    35
100
AcDbLine
 10
1642.4660617195
 20
923.6333062222
 30
0.0
 11
1642.4660617195
 21
922.6350233936
 31
0.0
  0
LINE
  5
31D
330
1F
100
AcDbEntity
  8
0
  6
Continuous
 62
     7
370
    35
100
AcDbLine
 10
1534.4660617194
 20
968.0814618932
 30
0.0
 11
1534.4660617194
 21
969.0814618932
 31
0.0
  0
LINE
  5
31E
330
1F
100
AcDbEntity
  8
0
  6
Continuous
 62
     7
370
    35
100
AcDbLine
 10
1534.4660617194
 20
969.0814618932
 30
0.0
 11
1544.4660617194
 21
969.0814618932
 31
0.0
  0
LINE
  5
31F
330
1F
100
AcDbEntity
  8
0
  6
Continuous
 62
     7
370
    35
100
AcDbLine
 10
1544.4660617194
 20
968.0814618932
 30
0.0
 11
1534.4660617194
 21
968.0814618932
 31
0.0
  0
LINE
  5
320
330
1F
100
AcDbEntity
  8
0
  6
Continuous
 62
     7
370
    35
100
AcDbLine
 10
1665.4660617195
 20
969.0814618932
 30
0.0
 11
1665.4660617195
 21
968.0814618932
 31
0.0
  0
LINE
  5
321
330
1F
100
AcDbEntity
  8
0
  6
Continuous
 62
     7
370
    35
100
AcDbLine
 10
1655.4660617195
 20
969.0814618932
 30
0.0
 11
1665.4660617195
 21
969.0814618932
 31
0.0
  0
LINE
  5
322
330
1F
100
AcDbEntity
  8
0
  6
Continuous
 62
     7
370
    35
100
AcDbLine
 10
1665.4660617195
 20
968.0814618932
 30
0.0
 11
1655.4660617195
 21
968.0814618932
 31
0.0
  0
LINE
  5
323
330
1F
100
AcDbEntity
  8
0
  6
Continuous
 62
     7
370
    35
100
AcDbLine
 10
1655.4660617195
 20
969.0814618932
 30
0.0
 11
1544.4660617194
 21
969.0814618932
 31
0.0
  0
LINE
  5
324
330
1F
100
AcDbEntity
  8
0
  6
Continuous
 62
     7
370
    35
100
AcDbLine
 10
1655.4660617195
 20
968.0814618932
 30
0.0
 11
1544.4660617194
 21
968.0814618932
 31
0.0
  0
LINE
  5
325
330
1F
100
AcDbEntity
  8
0
  6
Continuous
 62
     7
370
    35
100
AcDbLine
 10
1613.9660617195
 20
945.1814618932
 30
0.0
 11
1613.9660617195
 21
935.1814618932
 31
0.0
  0
ARC
  5
326
330
1F
100
AcDbEntity
  8
0
  6
Continuous
 62
     7
370
    35
100
AcDbCircle
 10
1607.4660617195
 20
945.1814618932
 30
0.0
 40
6.500000000000227
100
AcDbArc
 50
0.0
 51
180.0
  0
ARC
  5
327
330
1F
100
AcDbEntity
  8
0
  6
Continuous
 62
     7
370
    35
100
AcDbCircle
 10
1582.9660617195
 20
951.472071982
 30
0.0
 40
2.000000000000137
100
AcDbArc
 50
0.0
 51
65.0
  0
ARC
  5
328
330
1F
100
AcDbEntity
  8
0
  6
Continuous
 62
     7
370
    35
100
AcDbCircle
 10
1569.0910617195
 20
962.3556024148
 30
0.0
 40
2.000000000000455
100
AcDbArc
 50
180.0
 51
245.0
  0
LINE
  5
329
330
1F
100
AcDbEntity
  8
0
  6
Continuous
 62
     7
370
    35
100
AcDbLine
 10
1564.9660617195
 20
980.0814618932
 30
0.0
 11
1564.9660617195
 21
969.0814618932
 31
0.0
  0
LINE
  5
32A
330
1F
100
AcDbEntity
  8
0
  6
Continuous
 62
     7
370
    35
100
AcDbLine
 10
1634.9660617195
 20
969.0814618932
 30
0.0
 11
1634.9660617195
 21
980.0814618932
 31
0.0
  0
CIRCLE
  5
32B
330
1F
100
AcDbEntity
  8
0
  6
Continuous
 62
     7
370
    35
100
AcDbCircle
 10
1599.9660617195
 20
923.1814618932
 30
0.0
 40
4.249999999999773
  0
LINE
  5
32C
330
1F
100
AcDbEntity
  8
0
  6
Continuous
 62
     7
370
    35
100
AcDbLine
 10
1585.9660617195
 20
945.1814618932
 30
0.0
 11
1585.9660617195
 21
935.1814618932
 31
0.0
  0
ARC
  5
32D
330
1F
100
AcDbEntity
  8
0
  6
Continuous
 62
     7
370
    35
100
AcDbCircle
 10
1592.4660617195
 20
935.1814618932
 30
0.0
 40
6.5
100
AcDbArc
 50
180.0
 51
0.0
  0
LINE
  5
32E
330
1F
100
AcDbEntity
  8
0
  6
Continuous
 62
     7
370
    35
100
AcDbLine
 10
1598.9660617195
 20
935.1814618932
 30
0.0
 11
1598.9660617195
 21
945.1814618932
 31
0.0
  0
ARC
  5
32F
330
1F
100
AcDbEntity
  8
0
  6
Continuous
 62
     7
370
    35
100
AcDbCircle
 10
1592.4660617195
 20
945.1814618932
 30
0.0
 40
6.500000000000227
100
AcDbArc
 50
0.0
 51
180.0
  0
ARC
  5
330
330
1F
100
AcDbEntity
  8
0
  6
Continuous
 62
     7
370
    35
100
AcDbCircle
 10
1612.9660617195
 20
917.1814618932
 30
0.0
 40
1.999999999999886
100
AcDbArc
 50
270.0
 51
0.0
  0
ARC
  5
331
330
1F
100
AcDbEntity
  8
0
  6
Continuous
 62
     7
370
    35
100
AcDbCircle
 10
1616.9660617195
 20
951.472071982
 30
0.0
 40
2.000000000000227
100
AcDbArc
 50
115.0
 51
180.0
  0
ARC
  5
332
330
1F
100
AcDbEntity
  8
0
  6
Continuous
 62
     7
370
    35
100
AcDbCircle
 10
1630.8410617195
 20
962.3556024148
 30
0.0
 40
1.999999999999545
100
AcDbArc
 50
295.0
 51
0.0
  0
LINE
  5
333
330
1F
100
AcDbEntity
  8
0
  6
Continuous
 62
     7
370
    35
100
AcDbLine
 10
1586.9660617195
 20
915.1814618932
 30
0.0
 11
1612.9660617195
 21
915.1814618932
 31
0.0
  0
ARC
  5
334
330
1F
100
AcDbEntity
  8
0
  6
Continuous
 62
     7
370
    35
100
AcDbCircle
 10
1607.4660617195
 20
935.1814618932
 30
0.0
 40
6.500000000000227
100
AcDbArc
 50
180.0
 51
0.0
  0
LINE
  5
335
330
1F
100
AcDbEntity
  8
0
  6
Continuous
 62
     7
370
    35
100
AcDbLine
 10
1568.245825196
 20
960.5429868407
 30
0.0
 11
1583.8112982429
 21
953.2846875561
 31
0.0
  0
LINE
  5
336
330
1F
100
AcDbEntity
  8
0
  6
Continuous
 62
     7
370
    35
100
AcDbLine
 10
1567.0910617195
 20
968.0814618932
 30
0.0
 11
1567.0910617195
 21
962.3556024148
 31
0.0
  0
LINE
  5
337
330
1F
100
AcDbEntity
  8
0
  6
Continuous
 62
     7
370
    35
100
AcDbLine
 10
1632.8410617195
 20
962.3556024148
 30
0.0
 11
1632.8410617195
 21
968.0814618932
 31
0.0
  0
LINE
  5
338
330
1F
100
AcDbEntity
  8
0
  6
Continuous
 62
     7
370
    35
100
AcDbLine
 10
1616.120825196
 20
953.2846875561
 30
0.0
 11
1631.6862982429
 21
960.5429868407
 31
0.0
  0
LINE
  5
339
330
1F
100
AcDbEntity
  8
0
  6
Continuous
 62
     7
370
    35
100
AcDbLine
 10
1614.9660617195
 20
917.1814618932
 30
0.0
 11
1614.9660617195
 21
951.472071982
 31
0.0
  0
ARC
  5
33A
330
1F
100
AcDbEntity
  8
0
  6
Continuous
 62
     7
370
    35
100
AcDbCircle
 10
1586.9660617195
 20
917.1814618932
 30
0.0
 40
1.999999999999886
100
AcDbArc
 50
180.0
 51
270.0
  0
LINE
  5
33B
330
1F
100
AcDbEntity
  8
0
  6
Continuous
 62
     7
370
    35
100
AcDbLine
 10
1584.9660617195
 20
951.472071982
 30
0.0
 11
1584.9660617195
 21
917.1814618932
 31
0.0
  0
LINE
  5
33C
330
1F
100
AcDbEntity
  8
0
  6
Continuous
 62
     7
370
    35
100
AcDbLine
 10
1600.9660617195
 20
935.1814618932
 30
0.0
 11
1600.9660617195
 21
945.1814618932
 31
0.0
  0
LINE
  5
33D
330
1F
100
AcDbEntity
  8
0
  6
Continuous
 62
     7
370
    35
100
AcDbLine
 10
1564.9660617195
 20
980.0814618932
 30
0.0
 11
1564.9660617195
 21
981.0814618932
 31
0.0
  0
LINE
  5
33E
330
1F
100
AcDbEntity
  8
0
  6
Continuous
 62
     7
370
    35
100
AcDbLine
 10
1634.9660617195
 20
981.0814618932
 30
0.0
 11
1634.9660617195
 21
980.0814618932
 31
0.0
  0
LINE
  5
33F
330
1F
100
AcDbEntity
  8
0
  6
Continuous
 62
     8
370
    18
100
AcDbLine
 10
1566.9660617195
 20
966.8433803825
 30
0.0
 11
1567.0910617195
 21
966.8433803825
 31
0.0
  0
LINE
  5
340
330
1F
100
AcDbEntity
  8
0
  6
Continuous
 62
     8
370
    18
100
AcDbLine
 10
1632.8410617195
 20
966.8433803825
 30
0.0
 11
1632.9660617195
 21
966.8433803825
 31
0.0
  0
SPLINE
  5
341
330
1F
100
AcDbEntity
  8
0
  6
Continuous
 62
     8
370
    18
100
AcDbSpline
210
0.0
220
0.0
230
1.0
 70
     8
 71
     3
 72
    11
 73
     7
 74
     0
 42
0.000000001
 43
0.00000001
 40
0.0
 40
0.0
 40
0.0
 40
0.0
 40
0.2499912677933776
 40
0.499986756231606
 40
0.749992678491824
 40
0.9999999999999999
 40
0.9999999999999999
 40
0.9999999999999999
 40
0.9999999999999999
 10
1631.506228852146
 20
950.8840756103856
 30
0.0
 10
1631.498471223117
 20
950.8895734653131
 30
0.0
 10
1631.482955834087
 20
950.9005692679892
 30
0.0
 10
1631.452262650874
 20
950.9219262577215
 30
0.0
 10
1631.415097369242
 20
950.9487991773019
 30
0.0
 10
1631.387787970046
 20
950.9657491080416
 30
0.0
 10
1631.374133232237
 20
950.974224097128
 30
0.0
  0
SPLINE
  5
342
330
1F
100
AcDbEntity
  8
0
  6
Continuous
 62
     8
370
    18
100
AcDbSpline
210
0.0
220
0.0
230
1.0
 70
     8
 71
     3
 72
    10
 73
     6
 74
     0
 42
0.000000001
 43
0.00000001
 40
0.0
 40
0.0
 40
0.0
 40
0.0
 40
0.4993573099105828
 40
0.9998128115878191
 40
0.9999999999999999
 40
0.9999999999999999
 40
0.9999999999999999
 40
0.9999999999999999
 10
1631.374133232237
 20
950.974224097128
 30
0.0
 10
1631.373392396419
 20
950.9741474770277
 30
0.0
 10
1631.37190909553
 20
950.9739940683233
 30
0.0
 10
1631.37381700015
 20
950.968379326806
 30
0.0
 10
1631.375357240635
 20
950.9646143419365
 30
0.0
 10
1631.375357816526
 20
950.9646129342229
 30
0.0
  0
SPLINE
  5
343
330
1F
100
AcDbEntity
  8
0
  6
Continuous
 62
     8
370
    18
100
AcDbSpline
210
0.0
220
0.0
230
1.0
 70
     8
 71
     3
 72
    10
 73
     6
 74
     0
 42
0.000000001
 43
0.00000001
 40
0.0
 40
0.0
 40
0.0
 40
0.0
 40
0.4999712442950921
 40
0.7499826264318619
 40
0.9999999999999999
 40
0.9999999999999999
 40
0.9999999999999999
 40
0.9999999999999999
 10
1634.244213572319
 20
945.9285680590513
 30
0.0
 10
1634.486550095662
 20
945.4791261023051
 30
0.0
 10
1634.850067366568
 20
944.8049400106144
 30
0.0
 10
1635.325300841224
 20
943.9009639477672
 30
0.0
 10
1635.560431451016
 20
943.4476487529381
 30
0.0
 10
1635.6779981646
 20
943.2209884396727
 30
0.0
  0
SPLINE
  5
344
330
1F
100
AcDbEntity
  8
0
  6
Continuous
 62
     8
370
    18
100
AcDbSpline
210
0.0
220
0.0
230
1.0
 70
     8
 71
     3
 72
    11
 73
     7
 74
     0
 42
0.000000001
 43
0.00000001
 40
0.0
 40
0.0
 40
0.0
 40
0.0
 40
0.247159344012885
 40
0.495347434190764
 40
0.7469783905689409
 40
1.0
 40
1.0
 40
1.0
 40
1.0
 10
1637.285843563174
 20
923.6823476789189
 30
0.0
 10
1637.133108089881
 20
923.2449337128884
 30
0.0
 10
1636.827001415631
 20
922.368285141831
 30
0.0
 10
1636.266456548276
 20
921.0862229340189
 30
0.0
 10
1635.635546036957
 20
919.8267471809942
 30
0.0
 10
1635.151466862992
 20
919.0240370804853
 30
0.0
 10
1634.908760296163
 20
918.6215760304526
 30
0.0
  0
SPLINE
  5
345
330
1F
100
AcDbEntity
  8
0
  6
Continuous
 62
     8
370
    18
100
AcDbSpline
210
0.0
220
0.0
230
1.0
 70
     8
 71
     3
 72
    15
 73
    11
 74
     0
 42
0.000000001
 43
0.00000001
 40
0.0
 40
0.0
 40
0.0
 40
0.0
 40
0.0726415246631796
 40
0.2114867271185355
 40
0.3505587984459
 40
0.4893756744012162
 40
0.6282357890834535
 40
0.77196400098084
 40
0.9157054947821138
 40
1.0
 40
1.0
 40
1.0
 40
1.0
 10
1634.908760296163
 20
918.6215760304526
 30
0.0
 10
1634.891218384281
 20
918.62699835603
 30
0.0
 10
1634.84014729858
 20
918.6427847797738
 30
0.0
 10
1634.284576583394
 20
918.5191893365294
 30
0.0
 10
1632.579555140513
 20
918.253381781768
 30
0.0
 10
1630.06151616408
 20
918.1681808964846
 30
0.0
 10
1626.759942822179
 20
918.0669400948044
 30
0.0
 10
1622.713325002886
 20
917.9827479626193
 30
0.0
 10
1618.756227302757
 20
917.9161152680953
 30
0.0
 10
1615.988984963273
 20
917.8898291582145
 30
0.0
 10
1614.966061719451
 20
917.880112382635
 30
0.0
  0
LINE
  5
346
330
1F
100
AcDbEntity
  8
0
  6
Continuous
 62
     8
370
    18
100
AcDbLine
 10
1565.6879098666
 20
945.9285680591
 30
0.0
 11
1564.2541252743
 21
943.2209884397
 31
0.0
  0
SPLINE
  5
347
330
1F
100
AcDbEntity
  8
0
  6
Continuous
 62
     8
370
    18
100
AcDbSpline
210
0.0
220
0.0
230
1.0
 70
     8
 71
     3
 72
     9
 73
     5
 74
     0
 42
0.000000001
 43
0.00000001
 40
0.0
 40
0.0
 40
0.0
 40
0.0
 40
0.9998127596651308
 40
0.9999999999999999
 40
0.9999999999999999
 40
0.9999999999999999
 40
0.9999999999999999
 10
1568.557990206666
 20
950.9742240971278
 30
0.0
 10
1568.558916004526
 20
950.9731785096627
 30
0.0
 10
1568.559841975765
 20
950.972132726385
 30
0.0
 10
1568.556766198287
 20
950.9646143419676
 30
0.0
 10
1568.556765622377
 20
950.9646129342227
 30
0.0
  0
SPLINE
  5
348
330
1F
100
AcDbEntity
  8
0
  6
Continuous
 62
     8
370
    18
100
AcDbSpline
210
0.0
220
0.0
230
1.0
 70
     8
 71
     3
 72
     9
 73
     5
 74
     0
 42
0.000000001
 43
0.00000001
 40
0.0
 40
0.0
 40
0.0
 40
0.0
 40
0.4999863548673911
 40
1.0
 40
1.0
 40
1.0
 40
1.0
 10
1568.425894586757
 20
950.8840756103854
 30
0.0
 10
1568.442409165576
 20
950.8959482734423
 30
0.0
 10
1568.475439224613
 20
950.9196942475904
 30
0.0
 10
1568.530472712022
 20
950.9560471499218
 30
0.0
 10
1568.557990206666
 20
950.9742240971278
 30
0.0
  0
SPLINE
  5
349
330
1F
100
AcDbEntity
  8
0
  6
Continuous
 62
     8
370
    18
100
AcDbSpline
210
0.0
220
0.0
230
1.0
 70
     8
 71
     3
 72
    15
 73
    11
 74
     0
 42
0.000000001
 43
0.00000001
 40
0.0
 40
0.0
 40
0.0
 40
0.0
 40
0.0726415246631714
 40
0.2114867271185274
 40
0.3505587984458921
 40
0.4893756744012082
 40
0.6282357890834457
 40
0.771964000980832
 40
0.9157054947821057
 40
1.0
 40
1.0
 40
1.0
 40
1.0
 10
1565.023363142739
 20
918.6215760304524
 30
0.0
 10
1565.040905054622
 20
918.6269983560298
 30
0.0
 10
1565.091976140323
 20
918.6427847797736
 30
0.0
 10
1565.647546855509
 20
918.519189336529
 30
0.0
 10
1567.352568298389
 20
918.2533817817678
 30
0.0
 10
1569.870607274823
 20
918.1681808964844
 30
0.0
 10
1573.172180616724
 20
918.0669400948041
 30
0.0
 10
1577.218798436017
 20
917.982747962619
 30
0.0
 10
1581.175896136145
 20
917.916115268095
 30
0.0
 10
1583.94313847563
 20
917.8898291582144
 30
0.0
 10
1584.966061719452
 20
917.8801123826349
 30
0.0
  0
SPLINE
  5
34A
330
1F
100
AcDbEntity
  8
0
  6
Continuous
 62
     8
370
    18
100
AcDbSpline
210
0.0
220
0.0
230
1.0
 70
     8
 71
     3
 72
     9
 73
     5
 74
     0
 42
0.000000001
 43
0.00000001
 40
0.0
 40
0.0
 40
0.0
 40
0.0
 40
0.4953960175050953
 40
1.0
 40
1.0
 40
1.0
 40
1.0
 10
1562.646279875729
 20
923.6823476789185
 30
0.0
 10
1562.964270836541
 20
922.807996337222
 30
0.0
 10
1563.606163281323
 20
921.0430420162323
 30
0.0
 10
1564.548072167584
 20
919.4336710362588
 30
0.0
 10
1565.023363142739
 20
918.6215760304524
 30
0.0
  0
SPLINE
  5
34B
330
1F
100
AcDbEntity
  8
0
  6
Continuous
 62
     8
370
    18
100
AcDbSpline
210
0.0
220
0.0
230
1.0
 70
     8
 71
     3
 72
    13
 73
     9
 74
     0
 42
0.000000001
 43
0.00000001
 40
0.0
 40
0.0
 40
0.0
 40
0.0
 40
0.3455606136556952
 40
0.737794823362911
 40
0.8482878985160527
 40
0.9091433588593544
 40
0.9540191324658088
 40
1.0
 40
1.0
 40
1.0
 40
1.0
 10
1565.023363142739
 20
918.6215760304524
 30
0.0
 10
1565.361805751944
 20
918.1204046843594
 30
0.0
 10
1566.084403163828
 20
917.0503706291079
 30
0.0
 10
1567.11955824736
 20
915.9632704826975
 30
0.0
 10
1567.749462978323
 20
915.3830887349313
 30
0.0
 10
1567.92689679038
 20
915.223772859207
 30
0.0
 10
1567.997095749468
 20
915.1589712468289
 30
0.0
 10
1567.993124539252
 20
915.1589140841888
 30
0.0
 10
1567.991114783129
 20
915.1588851552326
 30
0.0
  0
SPLINE
  5
34C
330
1F
100
AcDbEntity
  8
0
  6
Continuous
 62
     8
370
    18
100
AcDbSpline
210
0.0
220
0.0
230
1.0
 70
     8
 71
     3
 72
     9
 73
     5
 74
     0
 42
0.000000001
 43
0.00000001
 40
0.0
 40
0.0
 40
0.0
 40
0.0
 40
0.4998468996431861
 40
1.0
 40
1.0
 40
1.0
 40
1.0
 10
1567.991114783129
 20
915.1588851552326
 30
0.0
 10
1567.885541334753
 20
915.2224771019572
 30
0.0
 10
1567.674329764868
 20
915.3496999511333
 30
0.0
 10
1567.553750927116
 20
915.4273278950583
 30
0.0
 10
1567.493443047577
 20
915.4661537518865
 30
0.0
  0
SPLINE
  5
34D
330
1F
100
AcDbEntity
  8
0
  6
Continuous
 62
     8
370
    18
100
AcDbSpline
210
0.0
220
0.0
230
1.0
 70
     8
 71
     3
 72
    13
 73
     9
 74
     0
 42
0.000000001
 43
0.00000001
 40
0.0
 40
0.0
 40
0.0
 40
0.0
 40
0.3455606136556854
 40
0.7377948233629045
 40
0.8482878985160514
 40
0.9091433588593542
 40
0.9540191324658096
 40
1.0
 40
1.0
 40
1.0
 40
1.0
 10
1634.908760296163
 20
918.6215760304526
 30
0.0
 10
1634.570317686959
 20
918.1204046843596
 30
0.0
 10
1633.847720275075
 20
917.0503706291082
 30
0.0
 10
1632.812565191543
 20
915.9632704826976
 30
0.0
 10
1632.18266046058
 20
915.3830887349317
 30
0.0
 10
1632.005226648523
 20
915.2237728592072
 30
0.0
 10
1631.935027689435
 20
915.1589712468292
 30
0.0
 10
1631.93899889965
 20
915.158914084189
 30
0.0
 10
1631.941008655774
 20
915.1588851552328
 30
0.0
  0
SPLINE
  5
34E
330
1F
100
AcDbEntity
  8
0
  6
Continuous
 62
     8
370
    18
100
AcDbSpline
210
0.0
220
0.0
230
1.0
 70
     8
 71
     3
 72
    11
 73
     7
 74
     0
 42
0.000000001
 43
0.00000001
 40
0.0
 40
0.0
 40
0.0
 40
0.0
 40
0.2499068565621712
 40
0.4998445626142471
 40
0.7498974475611084
 40
1.0
 40
1.0
 40
1.0
 40
1.0
 10
1631.941008655774
 20
915.1588851552328
 30
0.0
 10
1631.994840389171
 20
915.1909929873697
 30
0.0
 10
1632.102510501169
 20
915.2552126151611
 30
0.0
 10
1632.238391830415
 20
915.3390862750019
 30
0.0
 10
1632.354579100866
 20
915.4121540971626
 30
0.0
 10
1632.41064477199
 20
915.4481526753772
 30
0.0
 10
1632.438680391328
 20
915.466153751888
 30
0.0
  0
SPLINE
  5
34F
330
1F
100
AcDbEntity
  8
0
  6
Continuous
 62
     8
370
    18
100
AcDbSpline
210
0.0
220
0.0
230
1.0
 70
     8
 71
     3
 72
     9
 73
     5
 74
     0
 42
0.000000001
 43
0.00000001
 40
0.0
 40
0.0
 40
0.0
 40
0.0
 40
0.7340356503402183
 40
1.0
 40
1.0
 40
1.0
 40
1.0
 10
1632.438680391328
 20
915.466153751888
 30
0.0
 10
1632.444232687028
 20
915.4701685971379
 30
0.0
 10
1632.451796755201
 20
915.4756381478988
 30
0.0
 10
1632.49887952183
 20
915.5177602975587
 30
0.0
 10
1632.511401859236
 20
915.5289632876991
 30
0.0
  0
SPLINE
  5
350
330
1F
100
AcDbEntity
  8
0
  6
Continuous
 62
     8
370
    18
100
AcDbSpline
210
0.0
220
0.0
230
1.0
 70
     8
 71
     3
 72
    12
 73
     8
 74
     0
 42
0.000000001
 43
0.00000001
 40
0.0
 40
0.0
 40
0.0
 40
0.0
 40
0.1139159269059943
 40
0.3258009088085493
 40
0.5443041886655141
 40
0.8274327407183975
 40
1.0
 40
1.0
 40
1.0
 40
1.0
 10
1638.04899355919
 20
923.4455616748714
 30
0.0
 10
1638.280237548637
 20
924.1990331586217
 30
0.0
 10
1638.941598114842
 20
926.3539705833919
 30
0.0
 10
1639.464630321522
 20
930.1088775615876
 30
0.0
 10
1639.313494204921
 20
935.0547550757403
 30
0.0
 10
1638.294177566829
 20
939.6632509752277
 30
0.0
 10
1636.95258939056
 20
942.5192127607588
 30
0.0
 10
1636.444543916134
 20
943.6007357541321
 30
0.0
  0
ARC
  5
351
330
1F
100
AcDbEntity
  8
0
  6
Continuous
 62
     8
370
    18
100
AcDbCircle
 10
1632.6666268822
 20
907.4466416403
 30
0.0
 40
16.88002705320615
100
AcDbArc
 50
71.4059989949
 51
74.1184304799
  0
ARC
  5
352
330
1F
100
AcDbEntity
  8
0
  6
Continuous
 62
     8
370
    18
100
AcDbCircle
 10
1626.9624492265
 20
961.7774520367
 30
0.0
 40
20.50129592290556
100
AcDbArc
 50
295.1583766345
 51
297.5493192595
  0
ARC
  5
353
330
1F
100
AcDbEntity
  8
0
  6
Continuous
 62
     8
370
    18
100
AcDbCircle
 10
1567.2654965567
 20
907.4466416404
 30
0.0
 40
16.88002705310212
100
AcDbArc
 50
105.88156952
 51
108.5940010051
  0
SPLINE
  5
354
330
1F
100
AcDbEntity
  8
0
  6
Continuous
 62
     8
370
    18
100
AcDbSpline
210
0.0
220
0.0
230
1.0
 70
     8
 71
     3
 72
    12
 73
     8
 74
     0
 42
0.000000001
 43
0.00000001
 40
0.0
 40
0.0
 40
0.0
 40
0.0
 40
0.1139185701341842
 40
0.3290869588708606
 40
0.5442936150078433
 40
0.8274287365843253
 40
1.0
 40
1.0
 40
1.0
 40
1.0
 10
1561.883129879713
 20
923.4455616748711
 30
0.0
 10
1561.651756271774
 20
924.199015542329
 30
0.0
 10
1560.983366237472
 20
926.3755864174644
 30
0.0
 10
1560.470959153996
 20
930.1325355107515
 30
0.0
 10
1560.621942123847
 20
935.0771481902874
 30
0.0
 10
1561.638208521552
 20
939.6632783741918
 30
0.0
 10
1562.979606191212
 20
942.5192202865298
 30
0.0
 10
1563.487579522769
 20
943.6007357541317
 30
0.0
  0
ARC
  5
355
330
1F
100
AcDbEntity
  8
0
  6
Continuous
 62
     8
370
    18
100
AcDbCircle
 10
1572.9696742122
 20
961.7774520362
 30
0.0
 40
20.50129592240187
100
AcDbArc
 50
242.4506807405
 51
244.8416233655
  0
ARC
  5
356
330
1F
100
AcDbEntity
  8
0
  6
Continuous
 62
     8
370
    18
100
AcDbCircle
 10
1564.8400393723
 20
917.9496864852
 30
0.0
 40
0.6964504044246205
100
AcDbArc
 50
74.7384391007
 51
121.314184164
  0
SPLINE
  5
357
330
1F
100
AcDbEntity
  8
0
  6
Continuous
 62
     8
370
    18
100
AcDbSpline
210
0.0
220
0.0
230
1.0
 70
     8
 71
     3
 72
    11
 73
     7
 74
     0
 42
0.000000001
 43
0.00000001
 40
0.0
 40
0.0
 40
0.0
 40
0.0
 40
0.3598580230790388
 40
0.7246062069006078
 40
0.862167751064954
 40
1.0
 40
1.0
 40
1.0
 40
1.0
 10
1564.478072767564
 20
918.5446850926622
 30
0.0
 10
1564.092770328443
 20
919.0909814412931
 30
0.0
 10
1563.316929521749
 20
920.1909978356425
 30
0.0
 10
1562.596034288295
 20
921.6259291438662
 30
0.0
 10
1562.138073216356
 20
922.72217868084
 30
0.0
 10
1561.968166663134
 20
923.2042760472331
 30
0.0
 10
1561.883129879713
 20
923.4455616748711
 30
0.0
  0
SPLINE
  5
358
330
1F
100
AcDbEntity
  8
0
  6
Continuous
 62
     8
370
    18
100
AcDbSpline
210
0.0
220
0.0
230
1.0
 70
     8
 71
     3
 72
    11
 73
     7
 74
     0
 42
0.000000001
 43
0.00000001
 40
0.0
 40
0.0
 40
0.0
 40
0.0
 40
0.3598580230790381
 40
0.7246062069006076
 40
0.8621677510649497
 40
1.0
 40
1.0
 40
1.0
 40
1.0
 10
1635.454050671339
 20
918.5446850926625
 30
0.0
 10
1635.83935311046
 20
919.0909814412934
 30
0.0
 10
1636.615193917154
 20
920.1909978356427
 30
0.0
 10
1637.336089150607
 20
921.6259291438665
 30
0.0
 10
1637.794050222547
 20
922.7221786808401
 30
0.0
 10
1637.963956775769
 20
923.2042760472334
 30
0.0
 10
1638.04899355919
 20
923.4455616748714
 30
0.0
  0
ARC
  5
359
330
1F
100
AcDbEntity
  8
0
  6
Continuous
 62
     8
370
    18
100
AcDbCircle
 10
1635.0920840666
 20
917.9496864852
 30
0.0
 40
0.6964504044262757
100
AcDbArc
 50
58.685815836
 51
105.2615608993
  0
ARC
  5
35A
330
1F
100
AcDbEntity
  8
0
  6
Continuous
 62
     8
370
    18
100
AcDbCircle
 10
1633.9150497034
 20
952.5643766204
 30
0.0
 40
2.997472528736843
100
AcDbArc
 50
212.0390940145
 51
236.4309513429
  0
SPLINE
  5
35B
330
1F
100
AcDbEntity
  8
0
  6
Continuous
 62
     8
370
    18
100
AcDbSpline
210
0.0
220
0.0
230
1.0
 70
     8
 71
     3
 72
    14
 73
    10
 74
     0
 42
0.000000001
 43
0.00000001
 40
0.0
 40
0.0
 40
0.0
 40
0.0
 40
0.6113158653943761
 40
0.7934072053583402
 40
0.8854170307688746
 40
0.9194198313361063
 40
0.9434501870529949
 40
0.9749897870426377
 40
1.0
 40
1.0
 40
1.0
 40
1.0
 10
1634.983350861524
 20
946.3189080877264
 30
0.0
 10
1634.426893911237
 20
947.2012314083212
 30
0.0
 10
1633.704686327856
 20
948.3463704757719
 30
0.0
 10
1632.720009077998
 20
949.4820265885525
 30
0.0
 10
1632.394968838026
 20
949.8597736504273
 30
0.0
 10
1632.281915014392
 20
950.0008145444363
 30
0.0
 10
1632.241545072097
 20
950.058019780364
 30
0.0
 10
1632.233432984302
 20
950.0803575858304
 30
0.0
 10
1632.250204960538
 20
950.0709729170131
 30
0.0
 10
1632.257622680871
 20
950.0668223716194
 30
0.0
  0
ARC
  5
35C
330
1F
100
AcDbEntity
  8
0
  6
Continuous
 62
     8
370
    18
100
AcDbCircle
 10
1622.3552415018
 20
969.3361782233
 30
0.0
 40
26.25383534829095
100
AcDbArc
 50
296.9264954204
 51
298.7507702117
  0
ARC
  5
35D
330
1F
100
AcDbEntity
  8
0
  6
Continuous
 62
     8
370
    18
100
AcDbCircle
 10
1577.576881937
 20
969.3361782232
 30
0.0
 40
26.25383534811509
100
AcDbArc
 50
241.2492297883
 51
243.0735045796
  0
SPLINE
  5
35E
330
1F
100
AcDbEntity
  8
0
  6
Continuous
 62
     8
370
    18
100
AcDbSpline
210
0.0
220
0.0
230
1.0
 70
     8
 71
     3
 72
    14
 73
    10
 74
     0
 42
0.000000001
 43
0.00000001
 40
0.0
 40
0.0
 40
0.0
 40
0.0
 40
0.6113158653943712
 40
0.7934072053583405
 40
0.8854170307688747
 40
0.9194198313361064
 40
0.943450187052995
 40
0.9749897870426377
 40
0.9999999999999999
 40
0.9999999999999999
 40
0.9999999999999999
 40
0.9999999999999999
 10
1564.948772577379
 20
946.3189080877262
 30
0.0
 10
1565.505229527666
 20
947.201231408321
 30
0.0
 10
1566.227437111047
 20
948.3463704757718
 30
0.0
 10
1567.212114360904
 20
949.4820265885521
 30
0.0
 10
1567.537154600876
 20
949.8597736504272
 30
0.0
 10
1567.650208424511
 20
950.000814544436
 30
0.0
 10
1567.690578366805
 20
950.0580197803638
 30
0.0
 10
1567.6986904546
 20
950.08035758583
 30
0.0
 10
1567.681918478365
 20
950.070972917013
 30
0.0
 10
1567.674500758031
 20
950.0668223716191
 30
0.0
  0
ARC
  5
35F
330
1F
100
AcDbEntity
  8
0
  6
Continuous
 62
     8
370
    18
100
AcDbCircle
 10
1566.0170737355
 20
952.5643766204
 30
0.0
 40
2.997472528736862
100
AcDbArc
 50
303.5690486571
 51
327.9609059855
  0
LINE
  5
360
330
1F
100
AcDbEntity
  8
0
  6
Continuous
 62
     8
370
    18
100
AcDbLine
 10
1563.4875795228
 20
943.6007357541
 30
0.0
 11
1564.9487725774
 21
946.3189080877
 31
0.0
  0
LINE
  5
361
330
1F
100
AcDbEntity
  8
0
  6
Continuous
 62
     8
370
    18
100
AcDbLine
 10
1636.4445439161
 20
943.6007357541
 30
0.0
 11
1634.9833508615
 21
946.3189080877
 31
0.0
  0
ARC
  5
362
330
1F
100
AcDbEntity
  8
0
  6
Continuous
 62
     8
370
    18
100
AcDbCircle
 10
1566.0792452718
 20
912.8948141504
 30
0.0
 40
2.963319514185306
100
AcDbArc
 50
49.8209532532
 51
58.1297763967
  0
SPLINE
  5
363
330
1F
100
AcDbEntity
  8
0
  6
Continuous
 62
     8
370
    18
100
AcDbSpline
210
0.0
220
0.0
230
1.0
 70
     8
 71
     3
 72
    16
 73
    12
 74
     0
 42
0.000000001
 43
0.00000001
 40
0.0
 40
0.0
 40
0.0
 40
0.0
 40
0.0117733620155406
 40
0.0227113902881391
 40
0.0341085178796153
 40
0.0448724470144663
 40
0.0843977891274187
 40
0.1801725761900109
 40
0.6004756555876885
 40
0.730107790436507
 40
1.0
 40
1.0
 40
1.0
 40
1.0
 10
1567.643869251429
 20
915.4114019882596
 30
0.0
 10
1567.649442614291
 20
915.4080486208366
 30
0.0
 10
1567.66019390343
 20
915.4015798113138
 30
0.0
 10
1567.660520308687
 20
915.4036433494998
 30
0.0
 10
1567.644664684311
 20
915.4172835343717
 30
0.0
 10
1567.593546990537
 20
915.4578614772714
 30
0.0
 10
1567.423039048077
 20
915.5885279673022
 30
0.0
 10
1566.748790112096
 20
916.1159168456306
 30
0.0
 10
1565.998633987668
 20
916.7969864419858
 30
0.0
 10
1565.12579407853
 20
917.7275576469162
 30
0.0
 10
1564.739217991356
 20
918.2152395022931
 30
0.0
 10
1564.478072767564
 20
918.5446850926622
 30
0.0
  0
SPLINE
  5
364
330
1F
100
AcDbEntity
  8
0
  6
Continuous
 62
     8
370
    18
100
AcDbSpline
210
0.0
220
0.0
230
1.0
 70
     8
 71
     3
 72
    16
 73
    12
 74
     0
 42
0.000000001
 43
0.00000001
 40
0.0
 40
0.0
 40
0.0
 40
0.0
 40
0.0117733620155408
 40
0.0227113902881393
 40
0.0341085178796154
 40
0.0448724470144664
 40
0.0843977891274227
 40
0.1801725761900126
 40
0.6004756555876853
 40
0.7301077904365094
 40
1.0
 40
1.0
 40
1.0
 40
1.0
 10
1632.288254187474
 20
915.4114019882597
 30
0.0
 10
1632.282680824612
 20
915.4080486208369
 30
0.0
 10
1632.271929535473
 20
915.401579811314
 30
0.0
 10
1632.271603130216
 20
915.4036433494999
 30
0.0
 10
1632.287458754592
 20
915.417283534372
 30
0.0
 10
1632.338576448366
 20
915.4578614772716
 30
0.0
 10
1632.509084390826
 20
915.5885279673023
 30
0.0
 10
1633.183333326807
 20
916.1159168456307
 30
0.0
 10
1633.933489451234
 20
916.7969864419862
 30
0.0
 10
1634.806329360372
 20
917.7275576469166
 30
0.0
 10
1635.192905447547
 20
918.2152395022935
 30
0.0
 10
1635.454050671339
 20
918.5446850926625
 30
0.0
  0
ARC
  5
365
330
1F
100
AcDbEntity
  8
0
  6
Continuous
 62
     8
370
    18
100
AcDbCircle
 10
1633.8528781671
 20
912.8948141504
 30
0.0
 40
2.963319514176041
100
AcDbArc
 50
121.8702236032
 51
130.1790467467
  0
ARC
  5
366
330
1F
100
AcDbEntity
  8
0
  6
Continuous
 62
     8
370
    18
100
AcDbCircle
 10
1629.650566524
 20
956.5963487206
 30
0.0
 40
14.66438151371807
100
AcDbArc
 50
297.6001215934
 51
299.8288543736
  0
ARC
  5
367
330
1F
100
AcDbEntity
  8
0
  6
Continuous
 62
     8
370
    18
100
AcDbCircle
 10
1634.0373000035
 20
911.5718952578
 30
0.0
 40
12.53306185126904
100
AcDbArc
 50
68.8944075233
 51
71.3317007916
  0
ARC
  5
368
330
1F
100
AcDbEntity
  8
0
  6
Continuous
 62
     8
370
    18
100
AcDbCircle
 10
1570.2815569146
 20
956.5963487201
 30
0.0
 40
14.66438151308317
100
AcDbArc
 50
240.1711456264
 51
242.3998784066
  0
ARC
  5
369
330
1F
100
AcDbEntity
  8
0
  6
Continuous
 62
     8
370
    18
100
AcDbCircle
 10
1565.8948234354
 20
911.5718952579
 30
0.0
 40
12.53306185124015
100
AcDbArc
 50
108.6682992084
 51
111.1055924767
  0
ARC
  5
36A
330
1F
100
AcDbEntity
  8
0
  6
Continuous
 62
     8
370
    18
100
AcDbCircle
 10
1572.2725579295
 20
959.6455036941
 30
0.0
 40
15.2064454209521
100
AcDbArc
 50
239.1079369152
 51
241.2084941517
  0
ARC
  5
36B
330
1F
100
AcDbEntity
  8
0
  6
Continuous
 62
     8
370
    18
100
AcDbCircle
 10
1627.6595655092
 20
959.6455036945
 30
0.0
 40
15.20644542138769
100
AcDbArc
 50
298.7915058484
 51
300.8920630848
  0
ARC
  5
36C
330
1F
100
AcDbEntity
  8
0
  6
Continuous
 62
     8
370
    18
100
AcDbCircle
 10
1634.4365042732
 20
913.2392278342
 30
0.0
 40
2.991738508895632
100
AcDbArc
 50
124.0281034348
 51
131.8959735504
  0
ARC
  5
36D
330
1F
100
AcDbEntity
  8
0
  6
Continuous
 62
     8
370
    18
100
AcDbCircle
 10
1565.4956191658
 20
913.2392278343
 30
0.0
 40
2.991738508843156
100
AcDbArc
 50
48.1040264495
 51
55.9718965653
  0
ARC
  5
36E
330
1F
100
AcDbEntity
  8
0
  6
Continuous
 62
     8
370
    18
100
AcDbCircle
 10
1634.0471507738
 20
952.4779203893
 30
0.0
 40
2.999437512491324
100
AcDbArc
 50
212.0988262038
 51
235.735331513
  0
ARC
  5
36F
330
1F
100
AcDbEntity
  8
0
  6
Continuous
 62
     8
370
    18
100
AcDbCircle
 10
1565.884953221
 20
952.4779357606
 30
0.0
 40
2.999462152263493
100
AcDbArc
 50
312.8940341456
 51
327.9011224251
  0
SPLINE
  5
370
330
1F
100
AcDbEntity
  8
0
  6
Continuous
 62
     8
370
    18
100
AcDbSpline
210
0.0
220
0.0
230
1.0
 70
     8
 71
     3
 72
    11
 73
     7
 74
     0
 42
0.000000001
 43
0.00000001
 40
0.0
 40
0.0
 40
0.0
 40
0.0
 40
0.2426985957037788
 40
0.504745608693752
 40
0.7664412997887167
 40
1.0
 40
1.0
 40
1.0
 40
1.0
 10
1634.125968077158
 20
948.418164673649
 30
0.0
 10
1633.873422787017
 20
948.8919264072847
 30
0.0
 10
1633.348198791281
 20
949.8772191071716
 30
0.0
 10
1632.633711080122
 20
950.8723541618017
 30
0.0
 10
1631.957860109496
 20
951.5205742053616
 30
0.0
 10
1631.849050964868
 20
951.5992735269225
 30
0.0
 10
1631.797737290853
 20
951.6363876072295
 30
0.0
  0
ARC
  5
371
330
1F
100
AcDbEntity
  8
0
  6
Continuous
 62
     8
370
    18
100
AcDbCircle
 10
1633.5500270548
 20
927.657301571
 30
0.0
 40
8.932560827388768
100
AcDbArc
 50
287.5397504291
 51
356.514198663
  0
SPLINE
  5
372
330
1F
100
AcDbEntity
  8
0
  6
Continuous
 62
     8
370
    18
100
AcDbSpline
210
0.0
220
0.0
230
1.0
 70
     8
 71
     3
 72
    11
 73
     7
 74
     0
 42
0.000000001
 43
0.00000001
 40
0.0
 40
0.0
 40
0.0
 40
0.0
 40
0.2352104509735693
 40
0.4712568957190959
 40
0.7971477029156783
 40
1.0
 40
1.0
 40
1.0
 40
1.0
 10
1631.466061719451
 20
913.8534296792565
 30
0.0
 10
1631.828760865113
 20
914.1341959403051
 30
0.0
 10
1632.555448275289
 20
914.6967263723359
 30
0.0
 10
1633.73596807085
 20
915.8153561049729
 30
0.0
 10
1634.834292024462
 20
917.0067010293822
 30
0.0
 10
1635.498607342439
 20
918.0284437136789
 30
0.0
 10
1635.753471920622
 20
918.4204353044167
 30
0.0
  0
SPLINE
  5
373
330
1F
100
AcDbEntity
  8
0
  6
Continuous
 62
     8
370
    18
100
AcDbSpline
210
0.0
220
0.0
230
1.0
 70
     8
 71
     3
 72
    10
 73
     6
 74
     0
 42
0.000000001
 43
0.00000001
 40
0.0
 40
0.0
 40
0.0
 40
0.0
 40
0.4338511233656767
 40
0.8744573306293186
 40
0.9999999999999999
 40
0.9999999999999999
 40
0.9999999999999999
 40
0.9999999999999999
 10
1631.466061719451
 20
913.8534296792565
 30
0.0
 10
1630.43143929663
 20
913.4000690957068
 30
0.0
 10
1628.346085327621
 20
912.4862890814294
 30
0.0
 10
1625.847034643633
 20
911.8855872403581
 30
0.0
 10
1624.418073805387
 20
911.8029639508758
 30
0.0
 10
1624.101203869822
 20
911.7846423596092
 30
0.0
  0
LWPOLYLINE
  5
374
330
1F
100
AcDbEntity
  8
0
  6
Continuous
 62
     8
370
    18
100
AcDbPolyline
 90
        9
 70
   128
 43
0.0
 10
1642.4660617195
 20
923.6333062222
 10
1642.2546998039
 20
921.7253469581
 10
1641.6287365771
 20
919.8907094986
 10
1640.6122274548
 20
918.1998979323
 10
1639.2442363125
 20
916.7178891995
 10
1637.5773342827
 20
915.5016360647
 10
1635.6755794755
 20
914.5978784537
 10
1633.6120552616
 20
914.0413472647
 10
1631.4660617195
 20
913.8534296793
  0
LINE
  5
375
330
1F
100
AcDbEntity
  8
0
  6
Continuous
 62
     8
370
    18
100
AcDbLine
 10
1631.4660617195
 20
911.6350233936
 30
0.0
 11
1631.4660617195
 21
913.8534296793
 31
0.0
  0
LINE
  5
376
330
1F
100
AcDbEntity
  8
0
  6
Continuous
 62
     8
370
    18
100
AcDbLine
 10
1544.4660617194
 20
969.0814618932
 30
0.0
 11
1544.4660617194
 21
968.0814618932
 31
0.0
  0
LINE
  5
377
330
1F
100
AcDbEntity
  8
0
  6
Continuous
 62
     8
370
    18
100
AcDbLine
 10
1655.4660617195
 20
968.0814618932
 30
0.0
 11
1655.4660617195
 21
969.0814618932
 31
0.0
  0
LINE
  5
378
330
1F
100
AcDbEntity
  8
0
  6
Continuous
 62
     8
370
    18
100
AcDbLine
 10
1634.9660617195
 20
980.0814618932
 30
0.0
 11
1564.9660617195
 21
980.0814618932
 31
0.0
  0
ENDSEC
  0
SECTION
  2
OBJECTS
  0
DICTIONARY
  5
C
330
0
100
AcDbDictionary
281
     1
  3
ACAD_GROUP
350
D
  3
ACAD_LAYOUT
350
1A
  3
ACAD_MLINESTYLE
350
17
  3
ACAD_PLOTSETTINGS
350
19
  3
ACAD_PLOTSTYLENAME
350
E
  3
ACAD_SCALELIST
350
47
  0
DICTIONARY
  5
D
102
{ACAD_REACTORS
330
C
102
}
330
C
100
AcDbDictionary
281
     1
  0
DICTIONARY
  5
1A
102
{ACAD_REACTORS
330
C
102
}
330
C
100
AcDbDictionary
281
     1
  3
Layout1
350
1E
  3
Layout2
350
26
  3
Model
350
22
  0
DICTIONARY
  5
17
102
{ACAD_REACTORS
330
C
102
}
330
C
100
AcDbDictionary
281
     1
  3
Standard
350
18
  0
DICTIONARY
  5
19
102
{ACAD_REACTORS
330
C
102
}
330
C
100
AcDbDictionary
281
     1
  0
ACDBDICTIONARYWDFLT
  5
E
102
{ACAD_REACTORS
330
C
102
}
330
C
100
AcDbDictionary
281
     1
  3
Normal
350
F
100
AcDbDictionaryWithDefault
340
F
  0
DICTIONARY
  5
47
102
{ACAD_REACTORS
330
C
102
}
330
C
100
AcDbDictionary
281
     1
  3
A0
350
48
  3
A1
350
49
  3
A2
350
4A
  3
A3
350
4B
  3
A4
350
4C
  3
A5
350
4D
  3
A6
350
4E
  3
A7
350
4F
  3
A8
350
50
  3
A9
350
51
  3
B0
350
52
  3
B1
350
53
  3
B2
350
54
  3
B3
350
55
  3
B4
350
56
  3
B5
350
57
  3
B6
350
58
  3
B7
350
59
  3
B8
350
5A
  3
B9
350
5B
  3
C0
350
5C
  3
C1
350
5D
  3
C2
350
5E
  3
C3
350
5F
  3
C4
350
60
  3
C5
350
61
  3
C6
350
62
  3
C7
350
63
  3
C8
350
64
  3
C9
350
65
  3
D0
350
66
  3
D1
350
67
  3
D2
350
68
  0
LAYOUT
  5
1E
102
{ACAD_REACTORS
330
1A
102
}
330
1A
100
AcDbPlotSettings
  1

  2
none_device
  4

  6

 40
0.0
 41
0.0
 42
0.0
 43
0.0
 44
0.0
 45
0.0
 46
0.0
 47
0.0
 48
0.0
 49
0.0
140
0.0
141
0.0
142
1.0
143
1.0
 70
   688
 72
     1
 73
     0
 74
     5
  7

 75
    16
147
1.0
148
0.0
149
0.0
100
AcDbLayout
  1
Layout1
 70
     1
 71
     1
 10
0.0
 20
0.0
 11
420.0
 21
297.0
 12
0.0
 22
0.0
 32
0.0
 14
1.0000000000E+20
 24
1.0000000000E+20
 34
1.0000000000E+20
 15
-1.0000000000E+20
 25
-1.0000000000E+20
 35
-1.0000000000E+20
146
0.0
 13
0.0
 23
0.0
 33
0.0
 16
1.0
 26
0.0
 36
0.0
 17
0.0
 27
1.0
 37
0.0
 76
     0
330
1B
  0
LAYOUT
  5
26
102
{ACAD_REACTORS
330
1A
102
}
330
1A
100
AcDbPlotSettings
  1

  2
none_device
  4

  6

 40
0.0
 41
0.0
 42
0.0
 43
0.0
 44
0.0
 45
0.0
 46
0.0
 47
0.0
 48
0.0
 49
0.0
140
0.0
141
0.0
142
1.0
143
1.0
 70
   688
 72
     1
 73
     0
 74
     5
  7

 75
    16
147
1.0
148
0.0
149
0.0
100
AcDbLayout
  1
Layout2
 70
     1
 71
     2
 10
0.0
 20
0.0
 11
0.0
 21
0.0
 12
0.0
 22
0.0
 32
0.0
 14
0.0
 24
0.0
 34
0.0
 15
0.0
 25
0.0
 35
0.0
146
0.0
 13
0.0
 23
0.0
 33
0.0
 16
1.0
 26
0.0
 36
0.0
 17
0.0
 27
1.0
 37
0.0
 76
     0
330
23
  0
LAYOUT
  5
22
102
{ACAD_REACTORS
330
1A
102
}
330
1A
100
AcDbPlotSettings
  1

  2
none_device
  4
Letter_(8.50_x_11.00_Inches)
  6

 40
6.35
 41
6.35
 42
6.35000508
 43
6.35000508
 44
215.9
 45
279.4
 46
0.0
 47
0.0
 48
0.0
 49
0.0
140
0.0
141
0.0
142
1.0
143
1.0
 70
  1712
 72
     1
 73
     0
 74
     0
  7

 75
     0
147
1.0
148
0.0
149
0.0
100
AcDbLayout
  1
Model
 70
     1
 71
     0
 10
0.0
 20
0.0
 11
2100.0
 21
1485.0
 12
0.0
 22
0.0
 32
0.0
 14
0.0
 24
0.0
 34
0.0
 15
2100.0
 25
1485.0
 35
0.0
146
0.0
 13
0.0
 23
0.0
 33
0.0
 16
1.0
 26
0.0
 36
0.0
 17
0.0
 27
1.0
 37
0.0
 76
     0
330
1F
331
29
  0
MLINESTYLE
  5
18
102
{ACAD_REACTORS
330
17
102
}
330
17
100
AcDbMlineStyle
  2
Standard
 70
     0
  3

 62
   256
 51
90.0
 52
90.0
 71
     2
 49
0.5
 62
   256
  6
BYLAYER
 49
-0.5
 62
   256
  6
BYLAYER
  0
ACDBPLACEHOLDER
  5
F
102
{ACAD_REACTORS
330
E
102
}
330
E
  0
SCALE
  5
48
102
{ACAD_REACTORS
330
47
102
}
330
47
100
AcDbScale
 70
     0
300
1:1
140
1.0
141
1.0
290
     1
  0
SCALE
  5
49
102
{ACAD_REACTORS
330
47
102
}
330
47
100
AcDbScale
 70
     0
300
1:2
140
1.0
141
2.0
290
     0
  0
SCALE
  5
4A
102
{ACAD_REACTORS
330
47
102
}
330
47
100
AcDbScale
 70
     0
300
1:4
140
1.0
141
4.0
290
     0
  0
SCALE
  5
4B
102
{ACAD_REACTORS
330
47
102
}
330
47
100
AcDbScale
 70
     0
300
1:5
140
1.0
141
5.0
290
     0
  0
SCALE
  5
4C
102
{ACAD_REACTORS
330
47
102
}
330
47
100
AcDbScale
 70
     0
300
1:8
140
1.0
141
8.0
290
     0
  0
SCALE
  5
4D
102
{ACAD_REACTORS
330
47
102
}
330
47
100
AcDbScale
 70
     0
300
1:10
140
1.0
141
10.0
290
     0
  0
SCALE
  5
4E
102
{ACAD_REACTORS
330
47
102
}
330
47
100
AcDbScale
 70
     0
300
1:16
140
1.0
141
16.0
290
     0
  0
SCALE
  5
4F
102
{ACAD_REACTORS
330
47
102
}
330
47
100
AcDbScale
 70
     0
300
1:20
140
1.0
141
20.0
290
     0
  0
SCALE
  5
50
102
{ACAD_REACTORS
330
47
102
}
330
47
100
AcDbScale
 70
     0
300
1:30
140
1.0
141
30.0
290
     0
  0
SCALE
  5
51
102
{ACAD_REACTORS
330
47
102
}
330
47
100
AcDbScale
 70
     0
300
1:40
140
1.0
141
40.0
290
     0
  0
SCALE
  5
52
102
{ACAD_REACTORS
330
47
102
}
330
47
100
AcDbScale
 70
     0
300
1:50
140
1.0
141
50.0
290
     0
  0
SCALE
  5
53
102
{ACAD_REACTORS
330
47
102
}
330
47
100
AcDbScale
 70
     0
300
1:100
140
1.0
141
100.0
290
     0
  0
SCALE
  5
54
102
{ACAD_REACTORS
330
47
102
}
330
47
100
AcDbScale
 70
     0
300
2:1
140
2.0
141
1.0
290
     0
  0
SCALE
  5
55
102
{ACAD_REACTORS
330
47
102
}
330
47
100
AcDbScale
 70
     0
300
4:1
140
4.0
141
1.0
290
     0
  0
SCALE
  5
56
102
{ACAD_REACTORS
330
47
102
}
330
47
100
AcDbScale
 70
     0
300
8:1
140
8.0
141
1.0
290
     0
  0
SCALE
  5
57
102
{ACAD_REACTORS
330
47
102
}
330
47
100
AcDbScale
 70
     0
300
10:1
140
10.0
141
1.0
290
     0
  0
SCALE
  5
58
102
{ACAD_REACTORS
330
47
102
}
330
47
100
AcDbScale
 70
     0
300
100:1
140
100.0
141
1.0
290
     0
  0
SCALE
  5
59
102
{ACAD_REACTORS
330
47
102
}
330
47
100
AcDbScale
 70
     0
300
1/128" = 1'-0"
140
0.0078125
141
12.0
290
     0
  0
SCALE
  5
5A
102
{ACAD_REACTORS
330
47
102
}
330
47
100
AcDbScale
 70
     0
300
1/64" = 1'-0"
140
0.015625
141
12.0
290
     0
  0
SCALE
  5
5B
102
{ACAD_REACTORS
330
47
102
}
330
47
100
AcDbScale
 70
     0
300
1/32" = 1'-0"
140
0.03125
141
12.0
290
     0
  0
SCALE
  5
5C
102
{ACAD_REACTORS
330
47
102
}
330
47
100
AcDbScale
 70
     0
300
1/16" = 1'-0"
140
0.0625
141
12.0
290
     0
  0
SCALE
  5
5D
102
{ACAD_REACTORS
330
47
102
}
330
47
100
AcDbScale
 70
     0
300
3/32" = 1'-0"
140
0.09375
141
12.0
290
     0
  0
SCALE
  5
5E
102
{ACAD_REACTORS
330
47
102
}
330
47
100
AcDbScale
 70
     0
300
1/8" = 1'-0"
140
0.125
141
12.0
290
     0
  0
SCALE
  5
5F
102
{ACAD_REACTORS
330
47
102
}
330
47
100
AcDbScale
 70
     0
300
3/16" = 1'-0"
140
0.1875
141
12.0
290
     0
  0
SCALE
  5
60
102
{ACAD_REACTORS
330
47
102
}
330
47
100
AcDbScale
 70
     0
300
1/4" = 1'-0"
140
0.25
141
12.0
290
     0
  0
SCALE
  5
61
102
{ACAD_REACTORS
330
47
102
}
330
47
100
AcDbScale
 70
     0
300
3/8" = 1'-0"
140
0.375
141
12.0
290
     0
  0
SCALE
  5
62
102
{ACAD_REACTORS
330
47
102
}
330
47
100
AcDbScale
 70
     0
300
1/2" = 1'-0"
140
0.5
141
12.0
290
     0
  0
SCALE
  5
63
102
{ACAD_REACTORS
330
47
102
}
330
47
100
AcDbScale
 70
     0
300
3/4" = 1'-0"
140
0.75
141
12.0
290
     0
  0
SCALE
  5
64
102
{ACAD_REACTORS
330
47
102
}
330
47
100
AcDbScale
 70
     0
300
1" = 1'-0"
140
1.0
141
12.0
290
     0
  0
SCALE
  5
65
102
{ACAD_REACTORS
330
47
102
}
330
47
100
AcDbScale
 70
     0
300
1-1/2" = 1'-0"
140
1.5
141
12.0
290
     0
  0
SCALE
  5
66
102
{ACAD_REACTORS
330
47
102
}
330
47
100
AcDbScale
 70
     0
300
3" = 1'-0"
140
3.0
141
12.0
290
     0
  0
SCALE
  5
67
102
{ACAD_REACTORS
330
47
102
}
330
47
100
AcDbScale
 70
     0
300
6" = 1'-0"
140
6.0
141
12.0
290
     0
  0
SCALE
  5
68
102
{ACAD_REACTORS
330
47
102
}
330
47
100
AcDbScale
 70
     0
300
1'-0" = 1'-0"
140
12.0
141
12.0
290
     0
  0
ENDSEC
  0
EOF
