  0
SECTION
  2
HEADER
  9
$ACADVER
  1
AC1015
  9
$ACADMAINTVER
 70
     6
  9
$DWGCODEPAGE
  3
ANSI_1252
  9
$INSBASE
 10
0.0
 20
0.0
 30
0.0
  9
$EXTMIN
 10
0.0
 20
0.0
 30
0.0
  9
$EXTMAX
 10
2970.0
 20
2100.0
 30
0.0
  9
$LIMMIN
 10
0.0
 20
0.0
  9
$LIMMAX
 10
2970.0
 20
2100.0
  9
$ORTHOMODE
 70
     0
  9
$REGENMODE
 70
     1
  9
$FILLMODE
 70
     1
  9
$QTEXTMODE
 70
     0
  9
$MIRRTEXT
 70
     1
  9
$LTSCALE
 40
5.0
  9
$ATTMODE
 70
     1
  9
$TEXTSIZE
 40
12.5
  9
$TRACEWID
 40
1.0
  9
$TEXTSTYLE
  7
Standard
  9
$CLAYER
  8
0
  9
$CELTYPE
  6
ByLayer
  9
$CECOLOR
 62
   256
  9
$CELTSCALE
 40
1.0
  9
$DISPSILH
 70
     0
  9
$DIMSCALE
 40
1.0
  9
$DIMASZ
 40
12.5
  9
$DIMEXO
 40
0.0
  9
$DIMDLI
 40
3.75
  9
$DIMRND
 40
0.0
  9
$DIMDLE
 40
0.0
  9
$DIMEXE
 40
5.0
  9
$DIMTP
 40
0.0
  9
$DIMTM
 40
0.0
  9
$DIMTXT
 40
12.5
  9
$DIMCEN
 40
2.5
  9
$DIMTSZ
 40
0.0
  9
$DIMTOL
 70
     0
  9
$DIMLIM
 70
     0
  9
$DIMTIH
 70
     1
  9
$DIMTOH
 70
     1
  9
$DIMSE1
 70
     0
  9
$DIMSE2
 70
     0
  9
$DIMTAD
 70
     1
  9
$DIMZIN
 70
     0
  9
$DIMBLK
  1

  9
$DIMASO
 70
     1
  9
$DIMSHO
 70
     1
  9
$DIMPOST
  1

  9
$DIMAPOST
  1

  9
$DIMALT
 70
     0
  9
$DIMALTD
 70
     3
  9
$DIMALTF
 40
0.0393700787
  9
$DIMLFAC
 40
1.0
  9
$DIMTOFL
 70
     1
  9
$DIMTVP
 40
0.0
  9
$DIMTIX
 70
     0
  9
$DIMSOXD
 70
     0
  9
$DIMSAH
 70
     0
  9
$DIMBLK1
  1

  9
$DIMBLK2
  1

  9
$DIMSTYLE
  2
ISO-25
  9
$DIMCLRD
 70
     0
  9
$DIMCLRE
 70
     0
  9
$DIMCLRT
 70
     0
  9
$DIMTFAC
 40
1.0
  9
$DIMGAP
 40
7.62
  9
$DIMJUST
 70
     0
  9
$DIMSD1
 70
     0
  9
$DIMSD2
 70
     0
  9
$DIMTOLJ
 70
     0
  9
$DIMTZIN
 70
     0
  9
$DIMALTZ
 70
     0
  9
$DIMALTTZ
 70
     0
  9
$DIMUPT
 70
     0
  9
$DIMDEC
 70
     2
  9
$DIMTDEC
 70
     2
  9
$DIMALTU
 70
     2
  9
$DIMALTTD
 70
     3
  9
$DIMTXSTY
  7
Standard
  9
$DIMAUNIT
 70
     0
  9
$DIMADEC
 70
     2
  9
$DIMALTRND
 40
0.0
  9
$DIMAZIN
 70
     0
  9
$DIMDSEP
 70
    44
  9
$DIMATFIT
 70
     3
  9
$DIMFRAC
 70
     0
  9
$DIMLDRBLK
  1

  9
$DIMLUNIT
 70
     2
  9
$DIMLWD
 70
    -2
  9
$DIMLWE
 70
    -2
  9
$DIMTMOVE
 70
     0
  9
$LUNITS
 70
     2
  9
$LUPREC
 70
     1
  9
$SKETCHINC
 40
1.0
  9
$FILLETRAD
 40
10.0
  9
$AUNITS
 70
     0
  9
$AUPREC
 70
     2
  9
$MENU
  1
.
  9
$ELEVATION
 40
0.0
  9
$PELEVATION
 40
0.0
  9
$THICKNESS
 40
0.0
  9
$LIMCHECK
 70
     0
  9
$CHAMFERA
 40
0.0
  9
$CHAMFERB
 40
0.0
  9
$CHAMFERC
 40
0.0
  9
$CHAMFERD
 40
0.0
  9
$SKPOLY
 70
     0
  9
$TDCREATE
 40
2458906.501176632
  9
$TDUCREATE
 40
2458906.272009965
  9
$TDUPDATE
 40
2458906.501188229
  9
$TDUUPDATE
 40
2458906.272021562
  9
$TDINDWG
 40
0.0000000116
  9
$TDUSRTIMER
 40
0.0000000116
  9
$USRTIMER
 70
     1
  9
$ANGBASE
 50
0.0
  9
$ANGDIR
 70
     0
  9
$PDMODE
 70
     0
  9
$PDSIZE
 40
-1.0
  9
$PLINEWID
 40
0.0
  9
$SPLFRAME
 70
     0
  9
$SPLINETYPE
 70
     6
  9
$SPLINESEGS
 70
     8
  9
$HANDSEED
  5
377
  9
$SURFTAB1
 70
     6
  9
$SURFTAB2
 70
     6
  9
$SURFTYPE
 70
     6
  9
$SURFU
 70
     6
  9
$SURFV
 70
     6
  9
$UCSBASE
  2

  9
$UCSNAME
  2

  9
$UCSORG
 10
0.0
 20
0.0
 30
0.0
  9
$UCSXDIR
 10
1.0
 20
0.0
 30
0.0
  9
$UCSYDIR
 10
0.0
 20
1.0
 30
0.0
  9
$UCSORTHOREF
  2

  9
$UCSORTHOVIEW
 70
     0
  9
$UCSORGTOP
 10
0.0
 20
0.0
 30
0.0
  9
$UCSORGBOTTOM
 10
0.0
 20
0.0
 30
0.0
  9
$UCSORGLEFT
 10
0.0
 20
0.0
 30
0.0
  9
$UCSORGRIGHT
 10
0.0
 20
0.0
 30
0.0
  9
$UCSORGFRONT
 10
0.0
 20
0.0
 30
0.0
  9
$UCSORGBACK
 10
0.0
 20
0.0
 30
0.0
  9
$PUCSBASE
  2

  9
$PUCSNAME
  2

  9
$PUCSORG
 10
0.0
 20
0.0
 30
0.0
  9
$PUCSXDIR
 10
1.0
 20
0.0
 30
0.0
  9
$PUCSYDIR
 10
0.0
 20
1.0
 30
0.0
  9
$PUCSORTHOREF
  2

  9
$PUCSORTHOVIEW
 70
     0
  9
$PUCSORGTOP
 10
0.0
 20
0.0
 30
0.0
  9
$PUCSORGBOTTOM
 10
0.0
 20
0.0
 30
0.0
  9
$PUCSORGLEFT
 10
0.0
 20
0.0
 30
0.0
  9
$PUCSORGRIGHT
 10
0.0
 20
0.0
 30
0.0
  9
$PUCSORGFRONT
 10
0.0
 20
0.0
 30
0.0
  9
$PUCSORGBACK
 10
0.0
 20
0.0
 30
0.0
  9
$USERI1
 70
     0
  9
$USERI2
 70
     0
  9
$USERI3
 70
     0
  9
$USERI4
 70
     0
  9
$USERI5
 70
     0
  9
$USERR1
 40
0.0
  9
$USERR2
 40
0.0
  9
$USERR3
 40
0.0
  9
$USERR4
 40
0.0
  9
$USERR5
 40
0.0
  9
$WORLDVIEW
 70
     1
  9
$SHADEDGE
 70
     3
  9
$SHADEDIF
 70
    70
  9
$TILEMODE
 70
     1
  9
$MAXACTVP
 70
    64
  9
$PINSBASE
 10
0.0
 20
0.0
 30
0.0
  9
$PLIMCHECK
 70
     0
  9
$PEXTMIN
 10
1.0000000000E+20
 20
1.0000000000E+20
 30
1.0000000000E+20
  9
$PEXTMAX
 10
-1.0000000000E+20
 20
-1.0000000000E+20
 30
-1.0000000000E+20
  9
$PLIMMIN
 10
0.0
 20
0.0
  9
$PLIMMAX
 10
420.0
 20
297.0
  9
$UNITMODE
 70
     0
  9
$VISRETAIN
 70
     1
  9
$PLINEGEN
 70
     0
  9
$PSLTSCALE
 70
     1
  9
$TREEDEPTH
 70
  3020
  9
$CMLSTYLE
  2
Standard
  9
$CMLJUST
 70
     0
  9
$CMLSCALE
 40
20.0
  9
$PROXYGRAPHICS
 70
     1
  9
$MEASUREMENT
 70
     1
  9
$CELWEIGHT
370
    -1
  9
$ENDCAPS
280
     0
  9
$JOINSTYLE
280
     0
  9
$LWDISPLAY
290
     1
  9
$INSUNITS
 70
     4
  9
$HYPERLINKBASE
  1

  9
$STYLESHEET
  1

  9
$XEDIT
290
     1
  9
$CEPSNTYPE
380
     0
  9
$PSTYLEMODE
290
     1
  9
$FINGERPRINTGUID
  2
{bcba915e-809c-4bae-a496-58cfb97b8032}
  9
$VERSIONGUID
  2
{FAEB1C32-E019-11D5-929B-00C0DF256EC4}
  9
$EXTNAMES
290
     1
  9
$PSVPSCALE
 40
0.0
  9
$OLESTARTUP
290
     0
  0
ENDSEC
  0
SECTION
  2
CLASSES
  0
CLASS
  1
ACDBDICTIONARYWDFLT
  2
AcDbDictionaryWithDefault
  3
ObjectDBX Classes
 90
        0
280
     0
281
     0
  0
CLASS
  1
VISUALSTYLE
  2
AcDbVisualStyle
  3
ObjectDBX Classes
 90
     4095
280
     0
281
     0
  0
CLASS
  1
MATERIAL
  2
AcDbMaterial
  3
ObjectDBX Classes
 90
     1153
280
     0
281
     0
  0
CLASS
  1
SCALE
  2
AcDbScale
  3
ObjectDBX Classes
 90
     1153
280
     0
281
     0
  0
CLASS
  1
TABLESTYLE
  2
AcDbTableStyle
  3
ObjectDBX Classes
 90
     4095
280
     0
281
     0
  0
CLASS
  1
MLEADERSTYLE
  2
AcDbMLeaderStyle
  3
ACDB_MLEADERSTYLE_CLASS
 90
     4095
280
     0
281
     0
  0
CLASS
  1
SUN
  2
AcDbSun
  3
SCENEOE
 90
     1153
280
     0
281
     0
  0
CLASS
  1
ACDBPLACEHOLDER
  2
AcDbPlaceHolder
  3
ObjectDBX Classes
 90
        0
280
     0
281
     0
  0
CLASS
  1
LAYOUT
  2
AcDbLayout
  3
ObjectDBX Classes
 90
        0
280
     0
281
     0
  0
ENDSEC
  0
SECTION
  2
TABLES
  0
TABLE
  2
VPORT
  5
8
330
0
100
AcDbSymbolTable
 70
     1
  0
VPORT
  5
29
330
8
100
AcDbSymbolTableRecord
100
AcDbViewportTableRecord
  2
*Active
 70
     0
 10
0.0
 20
0.0
 11
1.0
 21
1.0
 12
1485.0
 22
1050.0
 13
0.0
 23
0.0
 14
10.0
 24
10.0
 15
10.0
 25
10.0
 16
0.0
 26
0.0
 36
1.0
 17
0.0
 27
0.0
 37
0.0
 40
2100.0
 41
1.4142857143
 42
50.0
 43
0.0
 44
0.0
 50
0.0
 51
0.0
 71
     0
 72
  2000
 73
     1
 74
     3
 75
     0
 76
     0
 77
     0
 78
     0
281
     0
 65
     1
110
0.0
120
0.0
130
0.0
111
1.0
121
0.0
131
0.0
112
0.0
122
1.0
132
0.0
 79
     0
146
0.0
  0
ENDTAB
  0
TABLE
  2
LTYPE
  5
5
330
0
100
AcDbSymbolTable
 70
     6
  0
LTYPE
  5
14
330
5
100
AcDbSymbolTableRecord
100
AcDbLinetypeTableRecord
  2
ByBlock
 70
     0
  3

 72
    65
 73
     0
 40
0.0
  0
LTYPE
  5
15
330
5
100
AcDbSymbolTableRecord
100
AcDbLinetypeTableRecord
  2
ByLayer
 70
     0
  3

 72
    65
 73
     0
 40
0.0
  0
LTYPE
  5
16
330
5
100
AcDbSymbolTableRecord
100
AcDbLinetypeTableRecord
  2
Continuous
 70
     0
  3
Solid line
 72
    65
 73
     0
 40
0.0
  0
LTYPE
  5
6E
330
5
100
AcDbSymbolTableRecord
100
AcDbLinetypeTableRecord
  2
HIDDEN
 70
     0
  3
Hidden __ __ __ __ __ __ __ __ __ __ __ __ __ __
 72
    65
 73
     2
 40
1.905
 49
1.27
 74
     0
 49
-0.635
 74
     0
  0
LTYPE
  5
6F
330
5
100
AcDbSymbolTableRecord
100
AcDbLinetypeTableRecord
  2
PHANTOM
 70
     0
  3
Phantom ______  __  __  ______  __  __  ______
 72
    65
 73
     6
 40
12.7
 49
6.35
 74
     0
 49
-1.27
 74
     0
 49
1.27
 74
     0
 49
-1.27
 74
     0
 49
1.27
 74
     0
 49
-1.27
 74
     0
  0
LTYPE
  5
70
330
5
100
AcDbSymbolTableRecord
100
AcDbLinetypeTableRecord
  2
CENTER
 70
     0
  3
Center ____ _ ____ _ ____ _ ____ _ ____ _ ____
 72
    65
 73
     4
 40
10.16
 49
6.35
 74
     0
 49
-1.27
 74
     0
 49
1.27
 74
     0
 49
-1.27
 74
     0
  0
LTYPE
  5
71
330
5
100
AcDbSymbolTableRecord
100
AcDbLinetypeTableRecord
  2
CENTERX2
 70
     0
  3
Center (2x) ________  __  ________  __  _____
 72
    65
 73
     4
 40
20.32
 49
12.7
 74
     0
 49
-2.54
 74
     0
 49
2.54
 74
     0
 49
-2.54
 74
     0
  0
LTYPE
  5
72
330
5
100
AcDbSymbolTableRecord
100
AcDbLinetypeTableRecord
  2
DOT2
 70
     0
  3
Dot (.5x) ........................................
 72
    65
 73
     2
 40
0.635
 49
0.0
 74
     0
 49
-0.635
 74
     0
  0
ENDTAB
  0
TABLE
  2
LAYER
  5
2
330
0
100
AcDbSymbolTable
 70
    10
  0
LAYER
  5
10
330
2
100
AcDbSymbolTableRecord
100
AcDbLayerTableRecord
  2
0
 70
     0
 62
     7
  6
Continuous
370
    -3
390
F
  0
LAYER
  5
73
330
2
100
AcDbSymbolTableRecord
100
AcDbLayerTableRecord
  2
DIMENSION
 70
     0
 62
     7
  6
Continuous
370
    -3
390
F
  0
LAYER
  5
74
330
2
100
AcDbSymbolTableRecord
100
AcDbLayerTableRecord
  2
NOTES
 70
     0
 62
     7
  6
Continuous
370
    -3
390
F
  0
LAYER
  5
75
330
2
100
AcDbSymbolTableRecord
100
AcDbLayerTableRecord
  2
TABLES
 70
     0
 62
     7
  6
Continuous
370
    -3
390
F
  0
LAYER
  5
76
330
2
100
AcDbSymbolTableRecord
100
AcDbLayerTableRecord
  2
INVISIBLE
 70
     0
 62
    -7
  6
Continuous
290
     0
370
    -3
390
F
  0
LAYER
  5
77
330
2
100
AcDbSymbolTableRecord
100
AcDbLayerTableRecord
  2
WEP
 70
     0
 62
  -150
  6
Continuous
290
     0
370
    -3
390
F
  0
LAYER
  5
78
330
2
100
AcDbSymbolTableRecord
100
AcDbLayerTableRecord
  2
EMP
 70
     0
 62
     1
  6
Continuous
370
    -3
390
F
  0
LAYER
  5
79
330
2
100
AcDbSymbolTableRecord
100
AcDbLayerTableRecord
  2
MARKETING_DRW
 70
     0
 62
    -7
  6
Continuous
290
     0
370
    -3
390
F
  0
LAYER
  5
7A
330
2
100
AcDbSymbolTableRecord
100
AcDbLayerTableRecord
  2
SINGLE_ARTICLE_DRW
 70
     0
 62
    -7
  6
Continuous
290
     0
370
    -3
390
F
  0
LAYER
  5
7B
330
2
100
AcDbSymbolTableRecord
100
AcDbLayerTableRecord
  2
TABLE_DRW
 70
     0
 62
     7
  6
Continuous
370
    -3
390
F
  0
ENDTAB
  0
TABLE
  2
STYLE
  5
3
330
0
100
AcDbSymbolTable
 70
     2
  0
STYLE
  5
11
330
3
100
AcDbSymbolTableRecord
100
AcDbTextStyleTableRecord
  2
Standard
 70
     0
 40
0.0
 41
1.0
 50
0.0
 71
     0
 42
12.5
  3
txt
  4

  0
STYLE
  5
B5
330
3
100
AcDbSymbolTableRecord
100
AcDbTextStyleTableRecord
  2
SLDTEXTSTYLE0
 70
     0
 40
0.0
 41
0.605
 50
0.0
 71
     0
 42
12.5
  3
TXT
  4

  0
ENDTAB
  0
TABLE
  2
VIEW
  5
6
330
0
100
AcDbSymbolTable
 70
     0
  0
ENDTAB
  0
TABLE
  2
UCS
  5
7
330
0
100
AcDbSymbolTable
 70
     0
  0
ENDTAB
  0
TABLE
  2
APPID
  5
9
330
0
100
AcDbSymbolTable
 70
     1
  0
APPID
  5
12
330
9
100
AcDbSymbolTableRecord
100
AcDbRegAppTableRecord
  2
ACAD
 70
     0
  0
ENDTAB
  0
TABLE
  2
DIMSTYLE
  5
A
330
0
100
AcDbSymbolTable
 70
     1
100
AcDbDimStyleTable
  0
DIMSTYLE
105
27
330
A
100
AcDbSymbolTableRecord
100
AcDbDimStyleTableRecord
  2
ISO-25
 70
     0
 41
2.5
 42
0.625
 43
3.75
 44
1.25
 73
     0
 74
     0
 77
     1
 78
     8
140
2.5
141
2.5
143
0.0393700787
147
0.625
171
     3
172
     1
178
     0
271
     2
272
     2
274
     3
278
    44
283
     0
284
     8
340
11
  0
ENDTAB
  0
TABLE
  2
BLOCK_RECORD
  5
1
330
0
100
AcDbSymbolTable
 70
     3
  0
BLOCK_RECORD
  5
1F
330
1
100
AcDbSymbolTableRecord
100
AcDbBlockTableRecord
  2
*Model_Space
340
22
  0
BLOCK_RECORD
  5
1B
330
1
100
AcDbSymbolTableRecord
100
AcDbBlockTableRecord
  2
*Paper_Space
340
1E
  0
BLOCK_RECORD
  5
23
330
1
100
AcDbSymbolTableRecord
100
AcDbBlockTableRecord
  2
*Paper_Space0
340
26
  0
BLOCK_RECORD
  5
C8
330
1
100
AcDbSymbolTableRecord
100
AcDbBlockTableRecord
  2
SW_NOTE_0
340
0
102
{BLKREFS
331
CE
102
}
  0
BLOCK_RECORD
  5
E8
330
1
100
AcDbSymbolTableRecord
100
AcDbBlockTableRecord
  2
SW_NOTE_0_1
340
0
102
{BLKREFS
331
EE
102
}
  0
ENDTAB
  0
ENDSEC
  0
SECTION
  2
BLOCKS
  0
BLOCK
  5
20
330
1F
100
AcDbEntity
  8
0
100
AcDbBlockBegin
  2
*Model_Space
 70
     0
 10
0.0
 20
0.0
 30
0.0
  3
*Model_Space
  1

  0
ENDBLK
  5
21
330
1F
100
AcDbEntity
  8
0
100
AcDbBlockEnd
  0
BLOCK
  5
1C
330
1B
100
AcDbEntity
 67
     1
  8
0
100
AcDbBlockBegin
  2
*Paper_Space
 70
     0
 10
0.0
 20
0.0
 30
0.0
  3
*Paper_Space
  1

  0
ENDBLK
  5
1D
330
1B
100
AcDbEntity
 67
     1
  8
0
100
AcDbBlockEnd
  0
BLOCK
  5
24
330
23
100
AcDbEntity
  8
0
100
AcDbBlockBegin
  2
*Paper_Space0
 70
     0
 10
0.0
 20
0.0
 30
0.0
  3
*Paper_Space0
  1

  0
ENDBLK
  5
25
330
23
100
AcDbEntity
  8
0
100
AcDbBlockEnd
  0
BLOCK
  5
C9
330
C8
100
AcDbEntity
  8
0
100
AcDbBlockBegin
  2
SW_NOTE_0
 70
     0
 10
0.0
 20
0.0
 30
0.0
  3
SW_NOTE_0
  1

  0
MTEXT
  5
CB
330
C8
100
AcDbEntity
  8
SINGLE_ARTICLE_DRW
 62
     0
100
AcDbMText
 10
0.0
 20
11.6016096579
 30
0.0
 40
9.0
 41
0.0
 71
     1
 72
     1
  1
The reproduction, distribution and utilization of this document as well as the communication of its contents to
  7
SLDTEXTSTYLE0
 73
     1
 44
1.0
  0
MTEXT
  5
CC
330
C8
100
AcDbEntity
  8
SINGLE_ARTICLE_DRW
 62
     0
100
AcDbMText
 10
0.0
 20
0.0016098055
 30
0.0
 40
9.0
 41
0.0
 71
     1
 72
     1
  1
others without express authorization is prohibited. Offenders will be held liable for the payment of damages.
  7
SLDTEXTSTYLE0
 73
     1
 44
1.0
  0
MTEXT
  5
CD
330
C8
100
AcDbEntity
  8
SINGLE_ARTICLE_DRW
 62
     0
100
AcDbMText
 10
0.0
 20
-11.598390047
 30
0.0
 40
9.0
 41
0.0
 71
     1
 72
     1
  1
All rights reserved in the event of the grant of a patent, utility model or design. Observe copyright by ISO 16016
  7
SLDTEXTSTYLE0
 73
     1
 44
1.0
  0
ENDBLK
  5
CA
330
C8
100
AcDbEntity
  8
0
100
AcDbBlockEnd
  0
BLOCK
  5
E9
330
E8
100
AcDbEntity
  8
0
100
AcDbBlockBegin
  2
SW_NOTE_0_1
 70
     0
 10
0.0
 20
0.0
 30
0.0
  3
SW_NOTE_0_1
  1

  0
MTEXT
  5
EB
330
E8
100
AcDbEntity
  8
MARKETING_DRW
 62
     0
100
AcDbMText
 10
0.0
 20
11.6016096579
 30
0.0
 40
9.0
 41
0.0
 71
     1
 72
     1
  1
The reproduction, distribution and utilization of this document as well as the communication of its contents to
  7
SLDTEXTSTYLE0
 73
     1
 44
1.0
  0
MTEXT
  5
EC
330
E8
100
AcDbEntity
  8
MARKETING_DRW
 62
     0
100
AcDbMText
 10
0.0
 20
-0.0233903849
 30
0.0
 40
9.0
 41
0.0
 71
     1
 72
     1
  1
others without express authorization is prohibited. Offenders will be held liable for the payment of damages.
  7
SLDTEXTSTYLE0
 73
     1
 44
1.0
  0
MTEXT
  5
ED
330
E8
100
AcDbEntity
  8
MARKETING_DRW
 62
     0
100
AcDbMText
 10
0.0
 20
-11.6483904277
 30
0.0
 40
9.0
 41
0.0
 71
     1
 72
     1
  1
All rights reserved in the event of the grant of a patent, utility model or design. Observe copyright by ISO 16016
  7
SLDTEXTSTYLE0
 73
     1
 44
1.0
  0
ENDBLK
  5
EA
330
E8
100
AcDbEntity
  8
0
100
AcDbBlockEnd
  0
ENDSEC
  0
SECTION
  2
ENTITIES
  0
LINE
  5
7C
330
1F
100
AcDbEntity
  8
SINGLE_ARTICLE_DRW
  6
CENTERX2
 62
     7
100
AcDbLine
 10
2825.0
 20
200.0
 30
0.0
 11
2850.0
 21
200.0
 31
0.0
  0
LINE
  5
7D
330
1F
100
AcDbEntity
  8
SINGLE_ARTICLE_DRW
  6
CENTERX2
 62
     7
100
AcDbLine
 10
2837.5
 20
212.5
 30
0.0
 11
2837.5
 21
187.5
 31
0.0
  0
LINE
  5
7E
330
1F
100
AcDbEntity
  8
SINGLE_ARTICLE_DRW
  6
CENTERX2
 62
     7
100
AcDbLine
 10
2785.0
 20
200.0
 30
0.0
 11
2820.0
 21
200.0
 31
0.0
  0
LINE
  5
7F
330
1F
100
AcDbEntity
  8
SINGLE_ARTICLE_DRW
 62
     7
100
AcDbLine
 10
2790.0
 20
194.95
 30
0.0
 11
2815.0
 21
190.0
 31
0.0
  0
LINE
  5
80
330
1F
100
AcDbEntity
  8
SINGLE_ARTICLE_DRW
 62
     7
100
AcDbLine
 10
2790.0
 20
205.05
 30
0.0
 11
2790.0
 21
194.95
 31
0.0
  0
LINE
  5
81
330
1F
100
AcDbEntity
  8
SINGLE_ARTICLE_DRW
 62
     7
100
AcDbLine
 10
2815.0
 20
210.0
 30
0.0
 11
2790.0
 21
205.05
 31
0.0
  0
LINE
  5
82
330
1F
100
AcDbEntity
  8
SINGLE_ARTICLE_DRW
 62
     7
100
AcDbLine
 10
2815.0
 20
190.0
 30
0.0
 11
2815.0
 21
210.0
 31
0.0
  0
LINE
  5
83
330
1F
100
AcDbEntity
  8
SINGLE_ARTICLE_DRW
 62
     7
100
AcDbLine
 10
2920.0
 20
50.0
 30
0.0
 11
2920.0
 21
340.0
 31
0.0
  0
LINE
  5
84
330
1F
100
AcDbEntity
  8
SINGLE_ARTICLE_DRW
 62
     7
100
AcDbLine
 10
2020.0
 20
340.0
 30
0.0
 11
2020.0
 21
50.0
 31
0.0
  0
LINE
  5
85
330
1F
100
AcDbEntity
  8
SINGLE_ARTICLE_DRW
 62
     7
100
AcDbLine
 10
2570.0
 20
95.0
 30
0.0
 11
2570.0
 21
50.0
 31
0.0
  0
LINE
  5
86
330
1F
100
AcDbEntity
  8
SINGLE_ARTICLE_DRW
 62
     7
100
AcDbLine
 10
2720.0
 20
50.0
 30
0.0
 11
2720.0
 21
95.0
 31
0.0
  0
LINE
  5
87
330
1F
100
AcDbEntity
  8
SINGLE_ARTICLE_DRW
 62
     7
100
AcDbLine
 10
2870.0
 20
95.0
 30
0.0
 11
2870.0
 21
50.0
 31
0.0
  0
LINE
  5
88
330
1F
100
AcDbEntity
  8
SINGLE_ARTICLE_DRW
 62
     7
100
AcDbLine
 10
2770.0
 20
320.0
 30
0.0
 11
2770.0
 21
185.0
 31
0.0
  0
LINE
  5
89
330
1F
100
AcDbEntity
  8
SINGLE_ARTICLE_DRW
 62
     7
100
AcDbLine
 10
2920.0
 20
320.0
 30
0.0
 11
2020.0
 21
320.0
 31
0.0
  0
LINE
  5
8A
330
1F
100
AcDbEntity
  8
SINGLE_ARTICLE_DRW
 62
     7
100
AcDbLine
 10
2670.0
 20
95.0
 30
0.0
 11
2670.0
 21
50.0
 31
0.0
  0
LINE
  5
8B
330
1F
100
AcDbEntity
  8
SINGLE_ARTICLE_DRW
 62
     7
100
AcDbLine
 10
2920.0
 20
275.0
 30
0.0
 11
2270.0
 21
275.0
 31
0.0
  0
LINE
  5
8C
330
1F
100
AcDbEntity
  8
SINGLE_ARTICLE_DRW
 62
     7
100
AcDbLine
 10
2520.0
 20
230.0
 30
0.0
 11
2520.0
 21
185.0
 31
0.0
  0
LINE
  5
8D
330
1F
100
AcDbEntity
  8
SINGLE_ARTICLE_DRW
 62
     7
100
AcDbLine
 10
2920.0
 20
230.0
 30
0.0
 11
2270.0
 21
230.0
 31
0.0
  0
LINE
  5
8E
330
1F
100
AcDbEntity
  8
SINGLE_ARTICLE_DRW
 62
     7
100
AcDbLine
 10
2270.0
 20
320.0
 30
0.0
 11
2270.0
 21
185.0
 31
0.0
  0
LINE
  5
8F
330
1F
100
AcDbEntity
  8
SINGLE_ARTICLE_DRW
 62
     7
100
AcDbLine
 10
2870.0
 20
230.0
 30
0.0
 11
2870.0
 21
185.0
 31
0.0
  0
LINE
  5
90
330
1F
100
AcDbEntity
  8
SINGLE_ARTICLE_DRW
 62
     7
100
AcDbLine
 10
2920.0
 20
95.0
 30
0.0
 11
2020.0
 21
95.0
 31
0.0
  0
LINE
  5
91
330
1F
100
AcDbEntity
  8
SINGLE_ARTICLE_DRW
 62
     7
100
AcDbLine
 10
2520.0
 20
275.0
 30
0.0
 11
2520.0
 21
320.0
 31
0.0
  0
LINE
  5
92
330
1F
100
AcDbEntity
  8
SINGLE_ARTICLE_DRW
 62
     7
100
AcDbLine
 10
2020.0
 20
340.0
 30
0.0
 11
2920.0
 21
340.0
 31
0.0
  0
LINE
  5
93
330
1F
100
AcDbEntity
  8
SINGLE_ARTICLE_DRW
 62
     7
100
AcDbLine
 10
2020.0
 20
185.0
 30
0.0
 11
2920.0
 21
185.0
 31
0.0
  0
LINE
  5
94
330
1F
100
AcDbEntity
  8
SINGLE_ARTICLE_DRW
 62
     7
100
AcDbLine
 10
2020.0
 20
50.0
 30
0.0
 11
2920.0
 21
50.0
 31
0.0
  0
LINE
  5
95
330
1F
100
AcDbEntity
  8
SINGLE_ARTICLE_DRW
 62
     7
100
AcDbLine
 10
2270.0
 20
275.0
 30
0.0
 11
2020.0
 21
275.0
 31
0.0
  0
LINE
  5
96
330
1F
100
AcDbEntity
  8
MARKETING_DRW
  6
CENTERX2
100
AcDbLine
 10
2825.0
 20
200.0
 30
0.0
 11
2850.0
 21
200.0
 31
0.0
  0
LINE
  5
97
330
1F
100
AcDbEntity
  8
MARKETING_DRW
  6
CENTERX2
100
AcDbLine
 10
2837.5
 20
212.5
 30
0.0
 11
2837.5
 21
187.5
 31
0.0
  0
LINE
  5
98
330
1F
100
AcDbEntity
  8
MARKETING_DRW
  6
CENTERX2
100
AcDbLine
 10
2785.0
 20
200.0
 30
0.0
 11
2820.0
 21
200.0
 31
0.0
  0
LINE
  5
99
330
1F
100
AcDbEntity
  8
MARKETING_DRW
100
AcDbLine
 10
2790.0
 20
194.95
 30
0.0
 11
2815.0
 21
190.0
 31
0.0
  0
LINE
  5
9A
330
1F
100
AcDbEntity
  8
MARKETING_DRW
100
AcDbLine
 10
2790.0
 20
205.05
 30
0.0
 11
2790.0
 21
194.95
 31
0.0
  0
LINE
  5
9B
330
1F
100
AcDbEntity
  8
MARKETING_DRW
100
AcDbLine
 10
2815.0
 20
210.0
 30
0.0
 11
2790.0
 21
205.05
 31
0.0
  0
LINE
  5
9C
330
1F
100
AcDbEntity
  8
MARKETING_DRW
100
AcDbLine
 10
2815.0
 20
190.0
 30
0.0
 11
2815.0
 21
210.0
 31
0.0
  0
LINE
  5
9D
330
1F
100
AcDbEntity
  8
MARKETING_DRW
100
AcDbLine
 10
2920.0
 20
50.0
 30
0.0
 11
2920.0
 21
230.0
 31
0.0
  0
LINE
  5
9E
330
1F
100
AcDbEntity
  8
MARKETING_DRW
100
AcDbLine
 10
2020.0
 20
50.0
 30
0.0
 11
2920.0
 21
50.0
 31
0.0
  0
LINE
  5
9F
330
1F
100
AcDbEntity
  8
MARKETING_DRW
100
AcDbLine
 10
2020.0
 20
275.0
 30
0.0
 11
2020.0
 21
50.0
 31
0.0
  0
LINE
  5
A0
330
1F
100
AcDbEntity
  8
MARKETING_DRW
100
AcDbLine
 10
2020.0
 20
275.0
 30
0.0
 11
2520.0
 21
275.0
 31
0.0
  0
LINE
  5
A1
330
1F
100
AcDbEntity
  8
MARKETING_DRW
100
AcDbLine
 10
2720.0
 20
50.0
 30
0.0
 11
2720.0
 21
95.0
 31
0.0
  0
LINE
  5
A2
330
1F
100
AcDbEntity
  8
MARKETING_DRW
100
AcDbLine
 10
2870.0
 20
95.0
 30
0.0
 11
2870.0
 21
50.0
 31
0.0
  0
LINE
  5
A3
330
1F
100
AcDbEntity
  8
MARKETING_DRW
100
AcDbLine
 10
2520.0
 20
275.0
 30
0.0
 11
2520.0
 21
230.0
 31
0.0
  0
LINE
  5
A4
330
1F
100
AcDbEntity
  8
MARKETING_DRW
100
AcDbLine
 10
2920.0
 20
230.0
 30
0.0
 11
2270.0
 21
230.0
 31
0.0
  0
LINE
  5
A5
330
1F
100
AcDbEntity
  8
MARKETING_DRW
100
AcDbLine
 10
2270.0
 20
275.0
 30
0.0
 11
2270.0
 21
185.0
 31
0.0
  0
LINE
  5
A6
330
1F
100
AcDbEntity
  8
MARKETING_DRW
100
AcDbLine
 10
2870.0
 20
230.0
 30
0.0
 11
2870.0
 21
185.0
 31
0.0
  0
LINE
  5
A7
330
1F
100
AcDbEntity
  8
MARKETING_DRW
100
AcDbLine
 10
2920.0
 20
95.0
 30
0.0
 11
2020.0
 21
95.0
 31
0.0
  0
LINE
  5
A8
330
1F
100
AcDbEntity
  8
MARKETING_DRW
100
AcDbLine
 10
2020.0
 20
185.0
 30
0.0
 11
2920.0
 21
185.0
 31
0.0
  0
LINE
  5
A9
330
1F
100
AcDbEntity
  8
MARKETING_DRW
100
AcDbLine
 10
2020.0
 20
50.0
 30
0.0
 11
2920.0
 21
50.0
 31
0.0
  0
LINE
  5
AA
330
1F
100
AcDbEntity
  8
MARKETING_DRW
100
AcDbLine
 10
2770.0
 20
230.0
 30
0.0
 11
2770.0
 21
185.0
 31
0.0
  0
LINE
  5
AB
330
1F
100
AcDbEntity
  8
MARKETING_DRW
100
AcDbLine
 10
2520.0
 20
275.0
 30
0.0
 11
2770.0
 21
275.0
 31
0.0
  0
LINE
  5
AC
330
1F
100
AcDbEntity
  8
MARKETING_DRW
100
AcDbLine
 10
2770.0
 20
275.0
 30
0.0
 11
2770.0
 21
230.0
 31
0.0
  0
LINE
  5
AD
330
1F
100
AcDbEntity
  8
MARKETING_DRW
100
AcDbLine
 10
2770.0
 20
275.0
 30
0.0
 11
2920.0
 21
275.0
 31
0.0
  0
LINE
  5
AE
330
1F
100
AcDbEntity
  8
MARKETING_DRW
100
AcDbLine
 10
2920.0
 20
275.0
 30
0.0
 11
2920.0
 21
230.0
 31
0.0
  0
LINE
  5
AF
330
1F
100
AcDbEntity
  8
MARKETING_DRW
100
AcDbLine
 10
2695.0
 20
275.0
 30
0.0
 11
2695.0
 21
230.0
 31
0.0
  0
LINE
  5
B0
330
1F
100
AcDbEntity
  8
MARKETING_DRW
100
AcDbLine
 10
2520.0
 20
230.0
 30
0.0
 11
2520.0
 21
185.0
 31
0.0
  0
CIRCLE
  5
B1
330
1F
100
AcDbEntity
  8
SINGLE_ARTICLE_DRW
 62
     7
100
AcDbCircle
 10
2837.5
 20
200.0
 30
0.0
 40
5.000000000000224
  0
CIRCLE
  5
B2
330
1F
100
AcDbEntity
  8
SINGLE_ARTICLE_DRW
 62
     7
100
AcDbCircle
 10
2837.5
 20
200.0
 30
0.0
 40
10.00000000000046
  0
CIRCLE
  5
B3
330
1F
100
AcDbEntity
  8
MARKETING_DRW
100
AcDbCircle
 10
2837.5
 20
200.0
 30
0.0
 40
4.99999999999979
  0
CIRCLE
  5
B4
330
1F
100
AcDbEntity
  8
MARKETING_DRW
100
AcDbCircle
 10
2837.5
 20
200.0
 30
0.0
 40
10.00000000000002
  0
MTEXT
  5
B6
330
1F
100
AcDbEntity
  8
SINGLE_ARTICLE_DRW
100
AcDbMText
 10
2025.0
 20
179.9766099061
 30
0.0
 40
9.0
 41
0.0
 71
     1
 72
     1
  1
title:
  7
SLDTEXTSTYLE0
 73
     1
 44
1.0
  0
MTEXT
  5
B7
330
1F
100
AcDbEntity
  8
SINGLE_ARTICLE_DRW
100
AcDbMText
 10
2025.0
 20
314.9766099061
 30
0.0
 40
9.0
 41
0.0
 71
     1
 72
     1
  1
technical reference:
  7
SLDTEXTSTYLE0
 73
     1
 44
1.0
  0
MTEXT
  5
B8
330
1F
100
AcDbEntity
  8
SINGLE_ARTICLE_DRW
100
AcDbMText
 10
2894.7829862405
 20
69.9675136777
 30
0.0
 40
12.5
 41
0.0
 71
     2
 72
     1
  1
1/1
  7
SLDTEXTSTYLE0
 73
     1
 44
1.0
  0
MTEXT
  5
B9
330
1F
100
AcDbEntity
  8
SINGLE_ARTICLE_DRW
100
AcDbMText
 10
2894.7829862405
 20
204.9675136777
 30
0.0
 40
12.5
 41
0.0
 71
     2
 72
     1
  1
1:5
  7
SLDTEXTSTYLE0
 73
     1
 44
1.0
  0
MTEXT
  5
BA
330
1F
100
AcDbEntity
  8
SINGLE_ARTICLE_DRW
100
AcDbMText
 10
2275.0
 20
314.9766099061
 30
0.0
 40
9.0
 41
0.0
 71
     1
 72
     1
  1
general tolerance:
  7
SLDTEXTSTYLE0
 73
     1
 44
1.0
  0
MTEXT
  5
BB
330
1F
100
AcDbEntity
  8
SINGLE_ARTICLE_DRW
100
AcDbMText
 10
2775.0
 20
249.9675136777
 30
0.0
 40
12.5
 41
0.0
 71
     1
 72
     1
  1
production drw.
  7
SLDTEXTSTYLE0
 73
     1
 44
1.0
  0
MTEXT
  5
BC
330
1F
100
AcDbEntity
  8
SINGLE_ARTICLE_DRW
100
AcDbMText
 10
2275.0
 20
269.9766099061
 30
0.0
 40
9.0
 41
0.0
 71
     1
 72
     1
  1
material:
  7
SLDTEXTSTYLE0
 73
     1
 44
1.0
  0
MTEXT
  5
BD
330
1F
100
AcDbEntity
  8
SINGLE_ARTICLE_DRW
100
AcDbMText
 10
2775.0
 20
224.9766099061
 30
0.0
 40
9.0
 41
0.0
 71
     1
 72
     1
  1
projection:ISO-E
  7
SLDTEXTSTYLE0
 73
     1
 44
1.0
  0
MTEXT
  5
BE
330
1F
100
AcDbEntity
  8
SINGLE_ARTICLE_DRW
100
AcDbMText
 10
2894.7500000913
 20
89.9766099061
 30
0.0
 40
9.0
 41
0.0
 71
     2
 72
     1
  1
sheet:
  7
SLDTEXTSTYLE0
 73
     1
 44
1.0
  0
MTEXT
  5
BF
330
1F
100
AcDbEntity
  8
SINGLE_ARTICLE_DRW
100
AcDbMText
 10
2725.0
 20
89.9766099061
 30
0.0
 40
9.0
 41
0.0
 71
     1
 72
     1
  1
release date:
  7
SLDTEXTSTYLE0
 73
     1
 44
1.0
  0
MTEXT
  5
C0
330
1F
100
AcDbEntity
  8
SINGLE_ARTICLE_DRW
100
AcDbMText
 10
2525.0
 20
224.9766099061
 30
0.0
 40
9.0
 41
0.0
 71
     1
 72
     1
  1
reviewed by:
  7
SLDTEXTSTYLE0
 73
     1
 44
1.0
  0
MTEXT
  5
C1
330
1F
100
AcDbEntity
  8
SINGLE_ARTICLE_DRW
100
AcDbMText
 10
2694.8125000894
 20
89.9766099061
 30
0.0
 40
9.0
 41
0.0
 71
     2
 72
     1
  1
index:
  7
SLDTEXTSTYLE0
 73
     1
 44
1.0
  0
MTEXT
  5
C2
330
1F
100
AcDbEntity
  8
SINGLE_ARTICLE_DRW
100
AcDbMText
 10
2775.0
 20
269.9766099061
 30
0.0
 40
9.0
 41
0.0
 71
     1
 72
     1
  1
documenttype:
  7
SLDTEXTSTYLE0
 73
     1
 44
1.0
  0
MTEXT
  5
C3
330
1F
100
AcDbEntity
  8
SINGLE_ARTICLE_DRW
100
AcDbMText
 10
2619.034373872
 20
89.9766099061
 30
0.0
 40
9.0
 41
0.0
 71
     2
 72
     1
  1
drawing-no.:
  7
SLDTEXTSTYLE0
 73
     1
 44
1.0
  0
MTEXT
  5
C4
330
1F
100
AcDbEntity
  8
SINGLE_ARTICLE_DRW
100
AcDbMText
 10
2775.0
 20
314.9766099061
 30
0.0
 40
9.0
 41
0.0
 71
     1
 72
     1
  1
weight:
  7
SLDTEXTSTYLE0
 73
     1
 44
1.0
  0
MTEXT
  5
C5
330
1F
100
AcDbEntity
  8
SINGLE_ARTICLE_DRW
100
AcDbMText
 10
2894.8750000875
 20
224.9766099061
 30
0.0
 40
9.0
 41
0.0
 71
     2
 72
     1
  1
scale:
  7
SLDTEXTSTYLE0
 73
     1
 44
1.0
  0
MTEXT
  5
C6
330
1F
100
AcDbEntity
  8
SINGLE_ARTICLE_DRW
100
AcDbMText
 10
2525.0
 20
314.9766099061
 30
0.0
 40
9.0
 41
0.0
 71
     1
 72
     1
  1
surface:
  7
SLDTEXTSTYLE0
 73
     1
 44
1.0
  0
MTEXT
  5
C7
330
1F
100
AcDbEntity
  8
SINGLE_ARTICLE_DRW
100
AcDbMText
 10
2275.0
 20
224.9766099061
 30
0.0
 40
9.0
 41
0.0
 71
     1
 72
     1
  1
created by:
  7
SLDTEXTSTYLE0
 73
     1
 44
1.0
  0
INSERT
  5
CE
330
1F
100
AcDbEntity
  8
SINGLE_ARTICLE_DRW
100
AcDbBlockReference
  2
SW_NOTE_0
 10
2025.0
 20
78.4000001475
 30
0.0
  0
MTEXT
  5
CF
330
1F
100
AcDbEntity
  8
SINGLE_ARTICLE_DRW
100
AcDbMText
 10
2025.0
 20
114.9675136777
 30
0.0
 40
12.5
 41
0.0
 71
     1
 72
     1
  1
ZB Duschrinne C mit Spalt und Flansch, mit DN40 Seitenauslaß, mit FAT GV25, International
  7
SLDTEXTSTYLE0
 73
     1
 44
1.0
  0
MTEXT
  5
D0
330
1F
100
AcDbEntity
  8
SINGLE_ARTICLE_DRW
100
AcDbMText
 10
2025.0
 20
137.4675136777
 30
0.0
 40
12.5
 41
0.0
 71
     1
 72
     1
  1
ASM Shower Channel C with gap and flange, with DN40 Side outlet, with FAT GV25 L880, International
  7
SLDTEXTSTYLE0
 73
     1
 44
1.0
  0
MTEXT
  5
D1
330
1F
100
AcDbEntity
  8
SINGLE_ARTICLE_DRW
100
AcDbMText
 10
2025.0
 20
295.0022357116
 30
0.0
 40
12.5
 41
0.0
 71
     1
 72
     1
  1
Bohms, Michael
  7
SLDTEXTSTYLE0
 73
     1
 44
1.0
  0
MTEXT
  5
D2
330
1F
100
AcDbEntity
  8
SINGLE_ARTICLE_DRW
100
AcDbMText
 10
2619.0407964215
 20
69.9675136777
 30
0.0
 40
12.5
 41
0.0
 71
     2
 72
     1
  1
1088218-O
  7
SLDTEXTSTYLE0
 73
     1
 44
1.0
  0
MTEXT
  5
D3
330
1F
100
AcDbEntity
  8
SINGLE_ARTICLE_DRW
100
AcDbMText
 10
2694.7395830229
 20
69.9675136777
 30
0.0
 40
12.5
 41
0.0
 71
     2
 72
     1
  1
001
  7
SLDTEXTSTYLE0
 73
     1
 44
1.0
  0
MTEXT
  5
D4
330
1F
100
AcDbEntity
  8
SINGLE_ARTICLE_DRW
100
AcDbMText
 10
2025.0
 20
159.9675136777
 30
0.0
 40
12.5
 41
0.0
 71
     1
 72
     1
  1
ACO ShowerDrain
  7
SLDTEXTSTYLE0
 73
     1
 44
1.0
  0
MTEXT
  5
D5
330
1F
100
AcDbEntity
  8
SINGLE_ARTICLE_DRW
100
AcDbMText
 10
2025.0
 20
334.9766099061
 30
0.0
 40
9.0
 41
0.0
 71
     1
 72
     1
  1
modification:
  7
SLDTEXTSTYLE0
 73
     1
 44
1.0
  0
MTEXT
  5
D6
330
1F
100
AcDbEntity
  8
SINGLE_ARTICLE_DRW
100
AcDbMText
 10
2775.0
 20
294.9675136777
 30
0.0
 40
12.5
 41
0.0
 71
     1
 72
     1
  1
1.819 kg
  7
SLDTEXTSTYLE0
 73
     1
 44
1.0
  0
MTEXT
  5
D7
330
1F
100
AcDbEntity
  8
MARKETING_DRW
100
AcDbMText
 10
2025.0
 20
114.9675136777
 30
0.0
 40
12.5
 41
0.0
 71
     1
 72
     1
  1
ZB Duschrinne C mit Spalt und Flansch, mit DN40 Seitenauslaß, mit FAT GV25, International
  7
SLDTEXTSTYLE0
 73
     1
 44
1.0
  0
MTEXT
  5
D8
330
1F
100
AcDbEntity
  8
MARKETING_DRW
100
AcDbMText
 10
2025.0
 20
137.4675136777
 30
0.0
 40
12.5
 41
0.0
 71
     1
 72
     1
  1
ASM Shower Channel C with gap and flange, with DN40 Side outlet, with FAT GV25 L880, International
  7
SLDTEXTSTYLE0
 73
     1
 44
1.0
  0
MTEXT
  5
D9
330
1F
100
AcDbEntity
  8
MARKETING_DRW
100
AcDbMText
 10
2606.5407964215
 20
249.9675136777
 30
0.0
 40
12.5
 41
0.0
 71
     2
 72
     1
  1
1088218-O
  7
SLDTEXTSTYLE0
 73
     1
 44
1.0
  0
MTEXT
  5
DA
330
1F
100
AcDbEntity
  8
MARKETING_DRW
100
AcDbMText
 10
2732.2395830229
 20
252.0971433073
 30
0.0
 40
12.5
 41
0.0
 71
     2
 72
     1
  1
001
  7
SLDTEXTSTYLE0
 73
     1
 44
1.0
  0
MTEXT
  5
DB
330
1F
100
AcDbEntity
  8
MARKETING_DRW
100
AcDbMText
 10
2025.0
 20
159.9675136777
 30
0.0
 40
12.5
 41
0.0
 71
     1
 72
     1
  1
ACO ShowerDrain
  7
SLDTEXTSTYLE0
 73
     1
 44
1.0
  0
MTEXT
  5
DC
330
1F
100
AcDbEntity
  8
MARKETING_DRW
100
AcDbMText
 10
2775.0
 20
269.9766099061
 30
0.0
 40
9.0
 41
0.0
 71
     1
 72
     1
  1
documenttype:
  7
SLDTEXTSTYLE0
 73
     1
 44
1.0
  0
MTEXT
  5
DD
330
1F
100
AcDbEntity
  8
MARKETING_DRW
100
AcDbMText
 10
2275.0
 20
224.9766099061
 30
0.0
 40
9.0
 41
0.0
 71
     1
 72
     1
  1
created by:
  7
SLDTEXTSTYLE0
 73
     1
 44
1.0
  0
MTEXT
  5
DE
330
1F
100
AcDbEntity
  8
MARKETING_DRW
100
AcDbMText
 10
2606.534373872
 20
270.0578764559
 30
0.0
 40
9.0
 41
0.0
 71
     2
 72
     1
  1
drawing-no.:
  7
SLDTEXTSTYLE0
 73
     1
 44
1.0
  0
MTEXT
  5
DF
330
1F
100
AcDbEntity
  8
MARKETING_DRW
100
AcDbMText
 10
2525.0
 20
224.9766099061
 30
0.0
 40
9.0
 41
0.0
 71
     1
 72
     1
  1
reviewed by:
  7
SLDTEXTSTYLE0
 73
     1
 44
1.0
  0
MTEXT
  5
E0
330
1F
100
AcDbEntity
  8
MARKETING_DRW
100
AcDbMText
 10
2775.0
 20
224.9766099061
 30
0.0
 40
9.0
 41
0.0
 71
     1
 72
     1
  1
projection:ISO-E
  7
SLDTEXTSTYLE0
 73
     1
 44
1.0
  0
MTEXT
  5
E1
330
1F
100
AcDbEntity
  8
MARKETING_DRW
100
AcDbMText
 10
2894.7500000913
 20
89.9766099061
 30
0.0
 40
9.0
 41
0.0
 71
     2
 72
     1
  1
sheet:
  7
SLDTEXTSTYLE0
 73
     1
 44
1.0
  0
MTEXT
  5
E2
330
1F
100
AcDbEntity
  8
MARKETING_DRW
100
AcDbMText
 10
2894.7829862405
 20
69.9675136777
 30
0.0
 40
12.5
 41
0.0
 71
     2
 72
     1
  1
1/1
  7
SLDTEXTSTYLE0
 73
     1
 44
1.0
  0
MTEXT
  5
E3
330
1F
100
AcDbEntity
  8
MARKETING_DRW
100
AcDbMText
 10
2725.0
 20
89.9766099061
 30
0.0
 40
9.0
 41
0.0
 71
     1
 72
     1
  1
release date:
  7
SLDTEXTSTYLE0
 73
     1
 44
1.0
  0
MTEXT
  5
E4
330
1F
100
AcDbEntity
  8
MARKETING_DRW
100
AcDbMText
 10
2732.3125000894
 20
269.9766099061
 30
0.0
 40
9.0
 41
0.0
 71
     2
 72
     1
  1
index:
  7
SLDTEXTSTYLE0
 73
     1
 44
1.0
  0
MTEXT
  5
E5
330
1F
100
AcDbEntity
  8
MARKETING_DRW
100
AcDbMText
 10
2025.0
 20
179.9766099061
 30
0.0
 40
9.0
 41
0.0
 71
     1
 72
     1
  1
title:
  7
SLDTEXTSTYLE0
 73
     1
 44
1.0
  0
MTEXT
  5
E6
330
1F
100
AcDbEntity
  8
MARKETING_DRW
100
AcDbMText
 10
2894.8750000875
 20
224.9766099061
 30
0.0
 40
9.0
 41
0.0
 71
     2
 72
     1
  1
scale:
  7
SLDTEXTSTYLE0
 73
     1
 44
1.0
  0
MTEXT
  5
E7
330
1F
100
AcDbEntity
  8
MARKETING_DRW
100
AcDbMText
 10
2894.7829862405
 20
204.9675136777
 30
0.0
 40
12.5
 41
0.0
 71
     2
 72
     1
  1
1:5
  7
SLDTEXTSTYLE0
 73
     1
 44
1.0
  0
INSERT
  5
EE
330
1F
100
AcDbEntity
  8
MARKETING_DRW
100
AcDbBlockReference
  2
SW_NOTE_0_1
 10
2025.0
 20
78.3750002482
 30
0.0
  0
MTEXT
  5
EF
330
1F
100
AcDbEntity
  8
MARKETING_DRW
100
AcDbMText
 10
2775.0
 20
249.9675136777
 30
0.0
 40
12.5
 41
0.0
 71
     1
 72
     1
  1
marketing drw.
  7
SLDTEXTSTYLE0
 73
     1
 44
1.0
  0
LINE
  5
F0
330
1F
100
AcDbEntity
  8
0
  6
Continuous
 62
     7
370
    35
100
AcDbLine
 10
1689.5161012449
 20
1351.8352836813
 30
0.0
 11
809.5161012449
 21
1351.8352836813
 31
0.0
  0
LINE
  5
F1
330
1F
100
AcDbEntity
  8
0
  6
Continuous
 62
     7
370
    35
100
AcDbLine
 10
1168.5161012449
 20
1331.8501086697
 30
0.0
 11
1168.5161012449
 21
1328.8388451821
 31
0.0
  0
LINE
  5
F2
330
1F
100
AcDbEntity
  8
0
  6
Continuous
 62
     7
370
    35
100
AcDbLine
 10
1330.5161012449
 20
1328.8388451821
 30
0.0
 11
1330.5161012449
 21
1331.8501086697
 31
0.0
  0
ARC
  5
F3
330
1F
100
AcDbEntity
  8
0
  6
Continuous
 62
     7
370
    35
100
AcDbCircle
 10
1166.5161012449
 20
1331.8420670224
 30
0.0
 40
2.000000000000093
100
AcDbArc
 50
0.2172817996
 51
85.9305858724
  0
ARC
  5
F4
330
1F
100
AcDbEntity
  8
0
  6
Continuous
 62
     7
370
    35
100
AcDbCircle
 10
1332.5161012449
 20
1331.8420670224
 30
0.0
 40
1.999999999999936
100
AcDbArc
 50
94.065898605
 51
179.7696267909
  0
LINE
  5
F5
330
1F
100
AcDbEntity
  8
0
  6
Continuous
 62
     7
370
    35
100
AcDbLine
 10
1332.3752393014
 20
1333.8368946016
 30
0.0
 11
1689.5161012449
 21
1333.8368946016
 31
0.0
  0
LINE
  5
F6
330
1F
100
AcDbEntity
  8
0
  6
Continuous
 62
     7
370
    35
100
AcDbLine
 10
809.5161012449
 20
1333.8368946016
 30
0.0
 11
1166.6569631885
 21
1333.8368946016
 31
0.0
  0
LINE
  5
F7
330
1F
100
AcDbEntity
  8
0
  6
Continuous
 62
     7
370
    35
100
AcDbLine
 10
1321.2076805422
 20
1282.3888451817
 30
0.0
 11
1338.0161012449
 21
1282.3888451817
 31
0.0
  0
LINE
  5
F8
330
1F
100
AcDbEntity
  8
0
  6
Continuous
 62
     7
370
    35
100
AcDbLine
 10
1338.0161012449
 20
1322.3888451817
 30
0.0
 11
1334.4369221695
 21
1322.3888451817
 31
0.0
  0
LINE
  5
F9
330
1F
100
AcDbEntity
  8
0
  6
Continuous
 62
     7
370
    35
100
AcDbLine
 10
1338.0161012449
 20
1282.3888451817
 30
0.0
 11
1377.7100497027
 21
1282.3888451817
 31
0.0
  0
LINE
  5
FA
330
1F
100
AcDbEntity
  8
0
  6
Continuous
 62
     7
370
    35
100
AcDbLine
 10
1377.7100497027
 20
1322.3888451817
 30
0.0
 11
1338.0161012449
 21
1322.3888451817
 31
0.0
  0
ARC
  5
FB
330
1F
100
AcDbEntity
  8
0
  6
Continuous
 62
     7
370
    35
100
AcDbCircle
 10
1377.7100497027
 20
1319.3888451817
 30
0.0
 40
3.000000000000053
100
AcDbArc
 50
78.3499964744
 51
90.0
  0
ARC
  5
FC
330
1F
100
AcDbEntity
  8
0
  6
Continuous
 62
     7
370
    35
100
AcDbCircle
 10
1377.7100497027
 20
1285.3888451817
 30
0.0
 40
3.000000000000053
100
AcDbArc
 50
270.0
 51
281.6500035256
  0
LINE
  5
FD
330
1F
100
AcDbEntity
  8
0
  6
Continuous
 62
     7
370
    35
100
AcDbLine
 10
1378.3158479389
 20
1282.4506470099
 30
0.0
 11
1383.0161012449
 21
1283.4197460958
 31
0.0
  0
LINE
  5
FE
330
1F
100
AcDbEntity
  8
0
  6
Continuous
 62
     7
370
    35
100
AcDbLine
 10
1383.0161012449
 20
1321.3579442676
 30
0.0
 11
1378.3158479389
 21
1322.3270433536
 31
0.0
  0
LINE
  5
FF
330
1F
100
AcDbEntity
  8
0
  6
Continuous
 62
     7
370
    35
100
AcDbLine
 10
1689.5161012449
 20
1339.8352836813
 30
0.0
 11
809.5161012449
 21
1339.8352836813
 31
0.0
  0
LINE
  5
100
330
1F
100
AcDbEntity
  8
0
  6
Continuous
 62
     7
370
    35
100
AcDbLine
 10
1689.5161012449
 20
1338.8352836813
 30
0.0
 11
809.5161012449
 21
1338.8352836813
 31
0.0
  0
LINE
  5
101
330
1F
100
AcDbEntity
  8
0
  6
Continuous
 62
     7
370
    35
100
AcDbLine
 10
809.5161012449
 20
1339.8352836813
 30
0.0
 11
809.5161012449
 21
1338.8352836813
 31
0.0
  0
LINE
  5
102
330
1F
100
AcDbEntity
  8
0
  6
Continuous
 62
     7
370
    35
100
AcDbLine
 10
1689.5161012449
 20
1339.8352836813
 30
0.0
 11
1689.5161012449
 21
1338.8352836813
 31
0.0
  0
LINE
  5
103
330
1F
100
AcDbEntity
  8
0
  6
Continuous
 62
     7
370
    35
100
AcDbLine
 10
809.5161012449
 20
1340.8352836813
 30
0.0
 11
809.5161012449
 21
1339.8352836813
 31
0.0
  0
LINE
  5
104
330
1F
100
AcDbEntity
  8
0
  6
Continuous
 62
     7
370
    35
100
AcDbLine
 10
1689.5161012449
 20
1339.8352836813
 30
0.0
 11
1689.5161012449
 21
1340.8352836813
 31
0.0
  0
LINE
  5
105
330
1F
100
AcDbEntity
  8
0
  6
Continuous
 62
     7
370
    35
100
AcDbLine
 10
1689.5161012449
 20
1350.3352836813
 30
0.0
 11
1689.5161012449
 21
1340.8352836813
 31
0.0
  0
LINE
  5
106
330
1F
100
AcDbEntity
  8
0
  6
Continuous
 62
     7
370
    35
100
AcDbLine
 10
809.5161012449
 20
1340.8352836813
 30
0.0
 11
809.5161012449
 21
1350.3352836813
 31
0.0
  0
LINE
  5
107
330
1F
100
AcDbEntity
  8
0
  6
Continuous
 62
     7
370
    35
100
AcDbLine
 10
1689.5161012449
 20
1351.8352836813
 30
0.0
 11
1689.5161012449
 21
1350.8352836813
 31
0.0
  0
LINE
  5
108
330
1F
100
AcDbEntity
  8
0
  6
Continuous
 62
     7
370
    35
100
AcDbLine
 10
809.5161012449
 20
1350.8352836813
 30
0.0
 11
809.5161012449
 21
1351.8352836813
 31
0.0
  0
LINE
  5
109
330
1F
100
AcDbEntity
  8
0
  6
Continuous
 62
     7
370
    35
100
AcDbLine
 10
809.5161012449
 20
1337.5972021706
 30
0.0
 11
809.5161012449
 21
1338.8352836813
 31
0.0
  0
LINE
  5
10A
330
1F
100
AcDbEntity
  8
0
  6
Continuous
 62
     7
370
    35
100
AcDbLine
 10
1689.5161012449
 20
1337.5972021706
 30
0.0
 11
1689.5161012449
 21
1338.8352836813
 31
0.0
  0
LINE
  5
10B
330
1F
100
AcDbEntity
  8
0
  6
Continuous
 62
     7
370
    35
100
AcDbLine
 10
1689.5161012449
 20
1336.9012316252
 30
0.0
 11
1689.5161012449
 21
1337.5972021706
 31
0.0
  0
LINE
  5
10C
330
1F
100
AcDbEntity
  8
0
  6
Continuous
 62
     7
370
    35
100
AcDbLine
 10
809.5161012449
 20
1337.5972021706
 30
0.0
 11
809.5161012449
 21
1336.9012316252
 31
0.0
  0
SPLINE
  5
10D
330
1F
100
AcDbEntity
  8
0
  6
Continuous
 62
     7
370
    35
100
AcDbSpline
210
0.0
220
0.0
230
1.0
 70
     8
 71
     3
 72
     8
 73
     4
 74
     0
 42
0.000000001
 43
0.00000001
 40
0.0000000000000255
 40
0.0000000000000255
 40
0.0000000000000255
 40
0.0000000000000255
 40
0.0000564308016788
 40
0.0000564308016788
 40
0.0000564308016788
 40
0.0000564308016788
 10
1332.387564024285
 20
1333.840111260486
 30
0.0
 10
1332.392726428097
 20
1333.841136719622
 30
0.0
 10
1332.395737195994
 20
1333.842211843886
 30
0.0
 10
1332.39555974741
 20
1333.843278202917
 30
0.0
  0
SPLINE
  5
10E
330
1F
100
AcDbEntity
  8
0
  6
Continuous
 62
     7
370
    35
100
AcDbSpline
210
0.0
220
0.0
230
1.0
 70
     8
 71
     3
 72
    14
 73
    10
 74
     0
 42
0.000000001
 43
0.00000001
 40
0.0
 40
0.0
 40
0.0
 40
0.0
 40
0.25
 40
0.25
 40
0.5
 40
0.5
 40
0.75
 40
0.75
 40
1.0
 40
1.0
 40
1.0
 40
1.0
 10
1332.395559747539
 20
1333.843278202917
 30
0.0
 10
1332.364187099661
 20
1334.031808906651
 30
0.0
 10
1331.77524818742
 20
1334.219804251557
 30
0.0
 10
1329.543527622843
 20
1334.575007576143
 30
0.0
 10
1327.903282503159
 20
1334.741791823464
 30
0.0
 10
1323.745864746076
 20
1335.036095563863
 30
0.0
 10
1321.233103380232
 20
1335.16329034139
 30
0.0
 10
1315.605290842705
 20
1335.364188895263
 30
0.0
 10
1312.496084380577
 20
1335.43768368632
 30
0.0
 10
1309.256432807625
 20
1335.480278564526
 30
0.0
  0
SPLINE
  5
10F
330
1F
100
AcDbEntity
  8
0
  6
Continuous
 62
     7
370
    35
100
AcDbSpline
210
0.0
220
0.0
230
1.0
 70
     8
 71
     3
 72
    14
 73
    10
 74
     0
 42
0.000000001
 43
0.00000001
 40
0.0
 40
0.0
 40
0.0
 40
0.0
 40
0.125
 40
0.125
 40
0.2500000000000001
 40
0.2500000000000001
 40
0.5
 40
0.5
 40
1.0
 40
1.0
 40
1.0
 40
1.0
 10
1309.256432807598
 20
1335.480278564519
 30
0.0
 10
1308.980386367152
 20
1335.483908017948
 30
0.0
 10
1308.701091773255
 20
1335.485792973808
 30
0.0
 10
1308.141196733437
 20
1335.488861546821
 30
0.0
 10
1307.860497209942
 20
1335.489991952028
 30
0.0
 10
1307.017735392336
 20
1335.493026955108
 30
0.0
 10
1306.455198287324
 20
1335.494506974044
 30
0.0
 10
1304.767754257209
 20
1335.498097918353
 30
0.0
 10
1303.642200382475
 20
1335.499246528517
 30
0.0
 10
1302.516101244919
 20
1335.499246528517
 30
0.0
  0
LINE
  5
110
330
1F
100
AcDbEntity
  8
0
  6
Continuous
 62
     7
370
    35
100
AcDbLine
 10
1302.5161012449
 20
1335.4992465285
 30
0.0
 11
1196.5161012449
 21
1335.4992465285
 31
0.0
  0
SPLINE
  5
111
330
1F
100
AcDbEntity
  8
0
  6
Continuous
 62
     7
370
    35
100
AcDbSpline
210
0.0
220
0.0
230
1.0
 70
     8
 71
     3
 72
    14
 73
    10
 74
     0
 42
0.000000001
 43
0.00000001
 40
0.0
 40
0.0
 40
0.0
 40
0.0
 40
0.5000000000000031
 40
0.5000000000000031
 40
0.7500000000000031
 40
0.7500000000000031
 40
0.8750000000000016
 40
0.8750000000000016
 40
1.0
 40
1.0
 40
1.0
 40
1.0
 10
1196.516101244919
 20
1335.499246528517
 30
0.0
 10
1195.390198708622
 20
1335.499246528517
 30
0.0
 10
1194.264743285959
 20
1335.498098325356
 30
0.0
 10
1192.577287686207
 20
1335.494507687706
 30
0.0
 10
1192.014830330174
 20
1335.493027792666
 30
0.0
 10
1191.172482414694
 20
1335.489994985559
 30
0.0
 10
1190.891869941409
 20
1335.488865425752
 30
0.0
 10
1190.331805027711
 20
1335.485797634025
 30
0.0
 10
1190.051231911977
 20
1335.483900336756
 30
0.0
 10
1189.77576968224
 20
1335.480278564519
 30
0.0
  0
SPLINE
  5
112
330
1F
100
AcDbEntity
  8
0
  6
Continuous
 62
     7
370
    35
100
AcDbSpline
210
0.0
220
0.0
230
1.0
 70
     8
 71
     3
 72
    14
 73
    10
 74
     0
 42
0.000000001
 43
0.00000001
 40
0.0
 40
0.0
 40
0.0
 40
0.0
 40
0.25
 40
0.25
 40
0.5
 40
0.5
 40
0.75
 40
0.75
 40
1.0
 40
1.0
 40
1.0
 40
1.0
 10
1189.775769682213
 20
1335.480278564526
 30
0.0
 10
1186.536118013117
 20
1335.437683685056
 30
0.0
 10
1183.42724200099
 20
1335.364199626819
 30
0.0
 10
1177.799009580097
 20
1335.163288206604
 30
0.0
 10
1175.286439433412
 20
1335.036101319377
 30
0.0
 10
1171.128997285489
 20
1334.741798738487
 30
0.0
 10
1169.488657593179
 20
1334.575002171339
 30
0.0
 10
1167.257066609613
 20
1334.219824781874
 30
0.0
 10
1166.668015390907
 20
1334.031808911036
 30
0.0
 10
1166.636642742299
 20
1333.843278202917
 30
0.0
  0
SPLINE
  5
113
330
1F
100
AcDbEntity
  8
0
  6
Continuous
 62
     7
370
    35
100
AcDbSpline
210
0.0
220
0.0
230
1.0
 70
     8
 71
     3
 72
     8
 73
     4
 74
     0
 42
0.000000001
 43
0.00000001
 40
0.0000000000000194
 40
0.0000000000000194
 40
0.0000000000000194
 40
0.0000000000000194
 40
0.0000564308016788
 40
0.0000564308016788
 40
0.0000564308016788
 40
0.0000564308016788
 10
1166.636642742429
 20
1333.843278202917
 30
0.0
 10
1166.636465293845
 20
1333.842211843886
 30
0.0
 10
1166.639476061741
 20
1333.841136719622
 30
0.0
 10
1166.644638465554
 20
1333.840111260486
 30
0.0
  0
LINE
  5
114
330
1F
100
AcDbEntity
  8
0
  6
Continuous
 62
     7
370
    35
100
AcDbLine
 10
1168.5161012449
 20
1328.8388451818
 30
0.0
 11
1196.5161012449
 21
1328.8388451818
 31
0.0
  0
LINE
  5
115
330
1F
100
AcDbEntity
  8
0
  6
Continuous
 62
     7
370
    35
100
AcDbLine
 10
1196.5161012449
 20
1328.8388451818
 30
0.0
 11
1302.5161012449
 21
1328.8388451818
 31
0.0
  0
LINE
  5
116
330
1F
100
AcDbEntity
  8
0
  6
Continuous
 62
     7
370
    35
100
AcDbLine
 10
1302.5161012449
 20
1328.8388451818
 30
0.0
 11
1323.6702575942
 21
1328.8388451818
 31
0.0
  0
LINE
  5
117
330
1F
100
AcDbEntity
  8
0
  6
Continuous
 62
     7
370
    35
100
AcDbLine
 10
1324.3053075117
 20
1328.8388451818
 30
0.0
 11
1330.5161012449
 21
1328.8388451818
 31
0.0
  0
SPLINE
  5
118
330
1F
100
AcDbEntity
  8
0
  6
Continuous
 62
     7
370
    35
100
AcDbSpline
210
0.0
220
0.0
230
1.0
 70
    24
 71
     3
 72
     9
 73
     5
 74
     0
 42
0.000000001
 43
0.00000001
 40
0.0
 40
0.0
 40
0.0
 40
0.0
 40
0.1857572773134752
 40
0.9999999999999999
 40
0.9999999999999999
 40
0.9999999999999999
 40
0.9999999999999999
 10
1166.657031976823
 20
1333.837495584196
 30
0.0
 10
1166.657969629217
 20
1333.837297690711
 30
0.0
 10
1166.663017358209
 20
1333.836232357025
 30
0.0
 10
1166.652887019845
 20
1333.838370385974
 30
0.0
 10
1166.644638465554
 20
1333.840111260486
 30
0.0
  0
LINE
  5
119
330
1F
100
AcDbEntity
  8
0
  6
Continuous
 62
     7
370
    35
100
AcDbLine
 10
1332.3875640243
 20
1333.8401112605
 30
0.0
 11
1332.3751523376
 21
1333.8374917482
 31
0.0
  0
ARC
  5
11A
330
1F
100
AcDbEntity
  8
0
  6
Continuous
 62
     7
370
    35
100
AcDbCircle
 10
1249.5161012449
 20
1302.3888451817
 30
0.0
 40
20.00000000000009
100
AcDbArc
 50
242.7578274734
 51
297.2421725266
  0
SPLINE
  5
11B
330
1F
100
AcDbEntity
  8
0
  6
Continuous
 62
     7
370
    35
100
AcDbSpline
210
0.0
220
0.0
230
1.0
 70
    24
 71
     3
 72
    19
 73
    15
 74
     0
 42
0.000000001
 43
0.00000001
 40
0.0
 40
0.0
 40
0.0
 40
0.0
 40
0.2409129494906413
 40
0.4882585144584838
 40
0.5391714996611927
 40
0.5899404470637029
 40
0.6400693113877648
 40
0.6899887485684958
 40
0.7400419491330548
 40
0.7904190815941273
 40
0.8413201881352514
 40
0.8929676782752878
 40
0.9456873804469079
 40
1.0
 40
1.0
 40
1.0
 40
1.0
 10
1249.516101244919
 20
1328.838845181716
 30
0.0
 10
1257.362142246362
 20
1328.838845181717
 30
0.0
 10
1273.263721351364
 20
1328.838845181717
 30
0.0
 10
1290.829145871166
 20
1328.838845181716
 30
0.0
 10
1302.191034618095
 20
1328.838845181716
 30
0.0
 10
1307.146799836411
 20
1328.838845181716
 30
0.0
 10
1311.931160595756
 20
1328.838845181716
 30
0.0
 10
1316.41473856076
 20
1328.838845181716
 30
0.0
 10
1320.492988845731
 20
1328.838845181717
 30
0.0
 10
1324.066240788742
 20
1328.838845181717
 30
0.0
 10
1327.03264653315
 20
1328.838845181716
 30
0.0
 10
1329.262672752628
 20
1328.838845181716
 30
0.0
 10
1330.735982849619
 20
1328.838845181716
 30
0.0
 10
1330.921806600704
 20
1328.838845181716
 30
0.0
 10
1331.016101244919
 20
1328.838845181716
 30
0.0
  0
SPLINE
  5
11C
330
1F
100
AcDbEntity
  8
0
  6
Continuous
 62
     7
370
    35
100
AcDbSpline
210
0.0
220
0.0
230
1.0
 70
     8
 71
     3
 72
    12
 73
     8
 74
     0
 42
0.000000001
 43
0.00000001
 40
0.0
 40
0.0
 40
0.0
 40
0.0
 40
0.5113573105439846
 40
0.6391966381109017
 40
0.7611397820034745
 40
0.8740152375255743
 40
1.0
 40
1.0
 40
1.0
 40
1.0
 10
1331.016101244919
 20
1328.838845181716
 30
0.0
 10
1331.030807250947
 20
1327.734314671689
 30
0.0
 10
1331.04918975848
 20
1326.353651534304
 30
0.0
 10
1330.988993792818
 20
1324.757420620395
 30
0.0
 10
1331.113148591792
 20
1323.907815581643
 30
0.0
 10
1331.870451904632
 20
1323.560462221326
 30
0.0
 10
1332.277851345257
 20
1323.26128918174
 30
0.0
 10
1332.492730667523
 20
1323.103492941549
 30
0.0
  0
SPLINE
  5
11D
330
1F
100
AcDbEntity
  8
0
  6
Continuous
 62
     7
370
    35
100
AcDbSpline
210
0.0
220
0.0
230
1.0
 70
     8
 71
     3
 72
    12
 73
     8
 74
     0
 42
0.000000001
 43
0.00000001
 40
0.0
 40
0.0
 40
0.0
 40
0.0
 40
0.0187022824907648
 40
0.2635054426144016
 40
0.5085219380108152
 40
0.7541594978531954
 40
1.0
 40
1.0
 40
1.0
 40
1.0
 10
1332.45332758179
 20
1322.935106103886
 30
0.0
 10
1332.453391809776
 20
1322.937257559491
 30
0.0
 10
1332.45429674873
 20
1322.967570451067
 30
0.0
 10
1332.456403848909
 20
1323.017465641742
 30
0.0
 10
1332.462776609797
 20
1323.067807648599
 30
0.0
 10
1332.473625451697
 20
1323.098596466446
 30
0.0
 10
1332.486360509384
 20
1323.10186033394
 30
0.0
 10
1332.492730667523
 20
1323.103492941549
 30
0.0
  0
SPLINE
  5
11E
330
1F
100
AcDbEntity
  8
0
  6
Continuous
 62
     7
370
    35
100
AcDbSpline
210
0.0
220
0.0
230
1.0
 70
     8
 71
     3
 72
    23
 73
    19
 74
     0
 42
0.000000001
 43
0.00000001
 40
0.0
 40
0.0
 40
0.0
 40
0.0
 40
0.0758439674746767
 40
0.0948049593331002
 40
0.1128914355571506
 40
0.1336676542610458
 40
0.1567718346598162
 40
0.2022013669991181
 40
0.2424816341995579
 40
0.2818986298408139
 40
0.3206021944779509
 40
0.3951163817032078
 40
0.4632081862901979
 40
0.5251873670652979
 40
0.5924928344462254
 40
0.7259812554141636
 40
0.8620429027987473
 40
1.0
 40
1.0
 40
1.0
 40
1.0
 10
1168.016101244919
 20
1328.838845181716
 30
0.0
 10
1168.000096721299
 20
1327.735075241693
 30
0.0
 10
1167.980091066775
 20
1326.355362816812
 30
0.0
 10
1168.045602243125
 20
1324.756018668369
 30
0.0
 10
1167.900349764261
 20
1323.849588469589
 30
0.0
 10
1166.990879984101
 20
1323.483424687476
 30
0.0
 10
1165.994458675158
 20
1322.689773804969
 30
0.0
 10
1164.997984490951
 20
1321.413141267313
 30
0.0
 10
1164.415693334455
 20
1319.693416170587
 30
0.0
 10
1163.793106883961
 20
1318.101397583108
 30
0.0
 10
1163.043920734231
 20
1316.02611873526
 30
0.0
 10
1162.184834173987
 20
1313.552084093673
 30
0.0
 10
1161.276044114417
 20
1310.735049695228
 30
0.0
 10
1160.730980302998
 20
1307.929208235314
 30
0.0
 10
1160.389594398588
 20
1304.140171005415
 30
0.0
 10
1160.777815670555
 20
1299.254478439361
 30
0.0
 10
1162.45721118651
 20
1293.533595990999
 30
0.0
 10
1164.604295144428
 20
1290.186244179828
 30
0.0
 10
1165.685263056786
 20
1288.500991078335
 30
0.0
  0
SPLINE
  5
11F
330
1F
100
AcDbEntity
  8
0
  6
Continuous
 62
     7
370
    35
100
AcDbSpline
210
0.0
220
0.0
230
1.0
 70
    24
 71
     3
 72
    19
 73
    15
 74
     0
 42
0.000000001
 43
0.00000001
 40
0.0
 40
0.0
 40
0.0
 40
0.0
 40
0.2409129494906413
 40
0.4882585144584838
 40
0.5391714996611927
 40
0.5899404470637029
 40
0.6400693113877648
 40
0.6899887485684958
 40
0.7400419491330548
 40
0.7904190815941273
 40
0.8413201881352514
 40
0.8929676782752878
 40
0.9456873804469079
 40
1.0
 40
1.0
 40
1.0
 40
1.0
 10
1249.516101244919
 20
1328.838845181716
 30
0.0
 10
1241.670060243476
 20
1328.838845181717
 30
0.0
 10
1225.768481138474
 20
1328.838845181717
 30
0.0
 10
1208.203056618673
 20
1328.838845181716
 30
0.0
 10
1196.841167871744
 20
1328.838845181717
 30
0.0
 10
1191.885402653427
 20
1328.838845181716
 30
0.0
 10
1187.101041894082
 20
1328.838845181716
 30
0.0
 10
1182.617463929078
 20
1328.838845181716
 30
0.0
 10
1178.539213644107
 20
1328.838845181717
 30
0.0
 10
1174.965961701096
 20
1328.838845181717
 30
0.0
 10
1171.999555956688
 20
1328.838845181717
 30
0.0
 10
1169.769529737211
 20
1328.838845181716
 30
0.0
 10
1168.296219640219
 20
1328.838845181716
 30
0.0
 10
1168.110395889134
 20
1328.838845181716
 30
0.0
 10
1168.016101244919
 20
1328.838845181716
 30
0.0
  0
SPLINE
  5
120
330
1F
100
AcDbEntity
  8
0
  6
Continuous
 62
     7
370
    35
100
AcDbSpline
210
0.0
220
0.0
230
1.0
 70
     8
 71
     3
 72
    13
 73
     9
 74
     0
 42
0.000000001
 43
0.00000001
 40
0.0
 40
0.0
 40
0.0
 40
0.0
 40
0.1771815196505908
 40
0.3595140594802965
 40
0.536691256885091
 40
0.7189759962167965
 40
0.8582847046484902
 40
1.0
 40
1.0
 40
1.0
 40
1.0
 10
1165.685263056786
 20
1288.500991078335
 30
0.0
 10
1166.212066856401
 20
1287.854712794784
 30
0.0
 10
1167.280989692839
 20
1286.543367628926
 30
0.0
 10
1169.264865512607
 20
1284.960181089346
 30
0.0
 10
1171.484125487897
 20
1283.697660000866
 30
0.0
 10
1173.699418409426
 20
1282.905257401191
 30
0.0
 10
1175.838227161805
 20
1282.464261082918
 30
0.0
 10
1177.15865446664
 20
1282.414126925654
 30
0.0
 10
1177.824521947623
 20
1282.388845181716
 30
0.0
  0
SPLINE
  5
121
330
1F
100
AcDbEntity
  8
0
  6
Continuous
 62
     7
370
    35
100
AcDbSpline
210
0.0
220
0.0
230
1.0
 70
    24
 71
     3
 72
    19
 73
    15
 74
     0
 42
0.000000001
 43
0.00000001
 40
0.0
 40
0.0
 40
0.0
 40
0.0
 40
0.0382207566244327
 40
0.0915494292491335
 40
0.1448915828931537
 40
0.1929664281754644
 40
0.2410362644725358
 40
0.2858279790996494
 40
0.330589994761807
 40
0.3739481339232561
 40
0.4173762879190923
 40
0.6722423197123589
 40
0.9271575473554007
 40
1.0
 40
1.0
 40
1.0
 40
1.0
 10
1177.824521947623
 20
1282.388845181716
 30
0.0
 10
1177.990198423151
 20
1282.388845181716
 30
0.0
 10
1178.387040037868
 20
1282.388845181716
 30
0.0
 10
1179.759711656773
 20
1282.388845181716
 30
0.0
 10
1181.843235117003
 20
1282.388845181716
 30
0.0
 10
1184.427632698286
 20
1282.388845181716
 30
0.0
 10
1187.293049816142
 20
1282.388845181716
 30
0.0
 10
1190.457128976982
 20
1282.388845181716
 30
0.0
 10
1193.7963705127
 20
1282.388845181716
 30
0.0
 10
1197.340159055799
 20
1282.388845181716
 30
0.0
 10
1206.824469272195
 20
1282.388845181716
 30
0.0
 10
1222.201809183425
 20
1282.388845181716
 30
0.0
 10
1238.388153257534
 20
1282.388845181716
 30
0.0
 10
1247.492669504222
 20
1282.388845181716
 30
0.0
 10
1249.516101244919
 20
1282.388845181716
 30
0.0
  0
SPLINE
  5
122
330
1F
100
AcDbEntity
  8
0
  6
Continuous
 62
     7
370
    35
100
AcDbSpline
210
0.0
220
0.0
230
1.0
 70
    24
 71
     3
 72
    19
 73
    15
 74
     0
 42
0.000000001
 43
0.00000001
 40
0.0
 40
0.0
 40
0.0
 40
0.0
 40
0.0382184429616673
 40
0.0907526742552614
 40
0.1448883276233774
 40
0.1924047757928812
 40
0.2410289232739625
 40
0.2852702899838307
 40
0.3305791993120217
 40
0.3733296235550279
 40
0.4174095644875306
 40
0.6721476066227443
 40
0.9271619568147014
 40
1.0
 40
1.0
 40
1.0
 40
1.0
 10
1321.207680542215
 20
1282.388845181716
 30
0.0
 10
1321.041811098042
 20
1282.388845181716
 30
0.0
 10
1320.647941163282
 20
1282.388845181716
 30
0.0
 10
1319.286133010127
 20
1282.388845181716
 30
0.0
 10
1317.20873066078
 20
1282.388845181716
 30
0.0
 10
1314.616919981193
 20
1282.388845181716
 30
0.0
 10
1311.762124366303
 20
1282.388845181716
 30
0.0
 10
1308.5903838568
 20
1282.388845181716
 30
0.0
 10
1305.262760053545
 20
1282.388845181716
 30
0.0
 10
1301.717435662849
 20
1282.388845181716
 30
0.0
 10
1292.218327357663
 20
1282.388845181716
 30
0.0
 10
1276.838133492738
 20
1282.388845181716
 30
0.0
 10
1260.646969471358
 20
1282.388845181716
 30
0.0
 10
1251.539485350421
 20
1282.388845181716
 30
0.0
 10
1249.516101244919
 20
1282.388845181716
 30
0.0
  0
LINE
  5
123
330
1F
100
AcDbEntity
  8
0
  6
Continuous
 62
     7
370
    35
100
AcDbLine
 10
1338.0161012449
 20
1322.3888451817
 30
0.0
 11
1338.0161012449
 21
1282.3888451817
 31
0.0
  0
SPLINE
  5
124
330
1F
100
AcDbEntity
  8
0
  6
Continuous
 62
     7
370
    35
100
AcDbSpline
210
0.0
220
0.0
230
1.0
 70
     8
 71
     3
 72
    10
 73
     6
 74
     0
 42
0.000000001
 43
0.00000001
 40
0.0
 40
0.0
 40
0.0
 40
0.0
 40
0.4996662810113345
 40
0.9790557875044539
 40
1.0
 40
1.0
 40
1.0
 40
1.0
 10
1332.492730667523
 20
1323.103492941549
 30
0.0
 10
1332.784135218744
 20
1322.902655753846
 30
0.0
 10
1333.355118939721
 20
1322.509131478865
 30
0.0
 10
1334.071349198463
 20
1322.390693824732
 30
0.0
 10
1334.42223396281
 20
1322.388919457587
 30
0.0
 10
1334.436922169475
 20
1322.388845181716
 30
0.0
  0
LINE
  5
125
330
1F
100
AcDbEntity
  8
0
  6
Continuous
 62
     7
370
    35
100
AcDbLine
 10
1196.5161012449
 20
1331.8888451817
 30
0.0
 11
1168.7161012449
 21
1331.8888451817
 31
0.0
  0
LINE
  5
126
330
1F
100
AcDbEntity
  8
0
  6
Continuous
 62
     7
370
    35
100
AcDbLine
 10
1302.5161012449
 20
1331.8888451817
 30
0.0
 11
1330.3161012449
 21
1331.8888451817
 31
0.0
  0
LINE
  5
127
330
1F
100
AcDbEntity
  8
0
  6
Continuous
 62
     7
370
    35
100
AcDbLine
 10
1338.0161012449
 20
1302.3888451817
 30
0.0
 11
1338.0161012449
 21
1322.3888451817
 31
0.0
  0
LINE
  5
128
330
1F
100
AcDbEntity
  8
0
  6
Continuous
 62
     7
370
    35
100
AcDbLine
 10
1338.0161012449
 20
1282.3888451817
 30
0.0
 11
1338.0161012449
 21
1302.3888451817
 31
0.0
  0
LINE
  5
129
330
1F
100
AcDbEntity
  8
0
  6
Continuous
 62
     7
370
    35
100
AcDbLine
 10
1383.0161012449
 20
1302.3888451817
 30
0.0
 11
1383.0161012449
 21
1321.3579442676
 31
0.0
  0
LINE
  5
12A
330
1F
100
AcDbEntity
  8
0
  6
Continuous
 62
     7
370
    35
100
AcDbLine
 10
1383.0161012449
 20
1283.4197460958
 30
0.0
 11
1383.0161012449
 21
1302.3888451817
 31
0.0
  0
LINE
  5
12B
330
1F
100
AcDbEntity
  8
0
  6
Continuous
 62
     7
370
    35
100
AcDbLine
 10
1722.0161012449
 20
1339.8352836813
 30
0.0
 11
1722.0161012449
 21
1338.8352836813
 31
0.0
  0
LINE
  5
12C
330
1F
100
AcDbEntity
  8
0
  6
Continuous
 62
     7
370
    35
100
AcDbLine
 10
1722.0161012449
 20
1338.8352836813
 30
0.0
 11
1712.0161012449
 21
1338.8352836813
 31
0.0
  0
LINE
  5
12D
330
1F
100
AcDbEntity
  8
0
  6
Continuous
 62
     7
370
    35
100
AcDbLine
 10
1712.0161012449
 20
1339.8352836813
 30
0.0
 11
1722.0161012449
 21
1339.8352836813
 31
0.0
  0
LINE
  5
12E
330
1F
100
AcDbEntity
  8
0
  6
Continuous
 62
     7
370
    35
100
AcDbLine
 10
1712.0161012449
 20
1338.8352836813
 30
0.0
 11
1689.5161012449
 21
1338.8352836813
 31
0.0
  0
LINE
  5
12F
330
1F
100
AcDbEntity
  8
0
  6
Continuous
 62
     7
370
    35
100
AcDbLine
 10
1712.0161012449
 20
1339.8352836813
 30
0.0
 11
1689.5161012449
 21
1339.8352836813
 31
0.0
  0
LINE
  5
130
330
1F
100
AcDbEntity
  8
0
  6
Continuous
 62
     7
370
    35
100
AcDbLine
 10
787.0161012449
 20
1338.8352836813
 30
0.0
 11
777.0161012449
 21
1338.8352836813
 31
0.0
  0
LINE
  5
131
330
1F
100
AcDbEntity
  8
0
  6
Continuous
 62
     7
370
    35
100
AcDbLine
 10
777.0161012449
 20
1338.8352836813
 30
0.0
 11
777.0161012449
 21
1339.8352836813
 31
0.0
  0
LINE
  5
132
330
1F
100
AcDbEntity
  8
0
  6
Continuous
 62
     7
370
    35
100
AcDbLine
 10
777.0161012449
 20
1339.8352836813
 30
0.0
 11
787.0161012449
 21
1339.8352836813
 31
0.0
  0
LINE
  5
133
330
1F
100
AcDbEntity
  8
0
  6
Continuous
 62
     7
370
    35
100
AcDbLine
 10
809.5161012449
 20
1339.8352836813
 30
0.0
 11
787.0161012449
 21
1339.8352836813
 31
0.0
  0
LINE
  5
134
330
1F
100
AcDbEntity
  8
0
  6
Continuous
 62
     7
370
    35
100
AcDbLine
 10
809.5161012449
 20
1338.8352836813
 30
0.0
 11
787.0161012449
 21
1338.8352836813
 31
0.0
  0
LINE
  5
135
330
1F
100
AcDbEntity
  8
0
  6
Continuous
 62
     7
370
    35
100
AcDbLine
 10
807.5161012449
 20
1339.8352836813
 30
0.0
 11
807.5161012449
 21
1350.8352836813
 31
0.0
  0
ARC
  5
136
330
1F
100
AcDbEntity
  8
0
  6
Continuous
 62
     7
370
    35
100
AcDbCircle
 10
808.5161012449
 20
1350.8352836813
 30
0.0
 40
1.0
100
AcDbArc
 50
0.0
 51
180.0
  0
LINE
  5
137
330
1F
100
AcDbEntity
  8
0
  6
Continuous
 62
     7
370
    35
100
AcDbLine
 10
809.5161012449
 20
1340.8352836813
 30
0.0
 11
809.5161012449
 21
1350.8352836813
 31
0.0
  0
LINE
  5
138
330
1F
100
AcDbEntity
  8
0
  6
Continuous
 62
     7
370
    35
100
AcDbLine
 10
807.5161012449
 20
1333.1094242029
 30
0.0
 11
807.5161012449
 21
1338.8352836813
 31
0.0
  0
LINE
  5
139
330
1F
100
AcDbEntity
  8
0
  6
Continuous
 62
     7
370
    35
100
AcDbLine
 10
809.5161012449
 20
1333.1094242029
 30
0.0
 11
809.5161012449
 21
1336.9012316252
 31
0.0
  0
LINE
  5
13A
330
1F
100
AcDbEntity
  8
0
  6
Continuous
 62
     7
370
    35
100
AcDbLine
 10
807.5161012449
 20
1331.2968086288
 30
0.0
 11
807.5161012449
 21
1333.1094242029
 31
0.0
  0
LINE
  5
13B
330
1F
100
AcDbEntity
  8
0
  6
Continuous
 62
     7
370
    35
100
AcDbLine
 10
809.5161012449
 20
1333.1094242029
 30
0.0
 11
809.5161012449
 21
1331.2968086288
 31
0.0
  0
LINE
  5
13C
330
1F
100
AcDbEntity
  8
0
  6
Continuous
 62
     7
370
    35
100
AcDbLine
 10
807.5161012449
 20
1324.0385093442
 30
0.0
 11
807.5161012449
 21
1331.2968086288
 31
0.0
  0
LINE
  5
13D
330
1F
100
AcDbEntity
  8
0
  6
Continuous
 62
     7
370
    35
100
AcDbLine
 10
809.5161012449
 20
1324.0385093442
 30
0.0
 11
809.5161012449
 21
1331.2968086288
 31
0.0
  0
LINE
  5
13E
330
1F
100
AcDbEntity
  8
0
  6
Continuous
 62
     7
370
    35
100
AcDbLine
 10
807.5161012449
 20
1322.2258937701
 30
0.0
 11
807.5161012449
 21
1324.0385093442
 31
0.0
  0
LINE
  5
13F
330
1F
100
AcDbEntity
  8
0
  6
Continuous
 62
     7
370
    35
100
AcDbLine
 10
809.5161012449
 20
1324.0385093442
 30
0.0
 11
809.5161012449
 21
1322.2258937701
 31
0.0
  0
LINE
  5
140
330
1F
100
AcDbEntity
  8
0
  6
Continuous
 62
     7
370
    35
100
AcDbLine
 10
807.5161012449
 20
1287.9352836813
 30
0.0
 11
807.5161012449
 21
1322.2258937701
 31
0.0
  0
LINE
  5
141
330
1F
100
AcDbEntity
  8
0
  6
Continuous
 62
     7
370
    35
100
AcDbLine
 10
809.5161012449
 20
1287.9352836813
 30
0.0
 11
809.5161012449
 21
1322.2258937701
 31
0.0
  0
LINE
  5
142
330
1F
100
AcDbEntity
  8
0
  6
Continuous
 62
     7
370
    35
100
AcDbLine
 10
809.5161012449
 20
1285.9352836813
 30
0.0
 11
807.5161012449
 21
1285.9352836813
 31
0.0
  0
LINE
  5
143
330
1F
100
AcDbEntity
  8
0
  6
Continuous
 62
     7
370
    35
100
AcDbLine
 10
807.5161012449
 20
1285.9352836813
 30
0.0
 11
807.5161012449
 21
1287.9352836813
 31
0.0
  0
LINE
  5
144
330
1F
100
AcDbEntity
  8
0
  6
Continuous
 62
     7
370
    35
100
AcDbLine
 10
809.5161012449
 20
1287.9352836813
 30
0.0
 11
809.5161012449
 21
1285.9352836813
 31
0.0
  0
LINE
  5
145
330
1F
100
AcDbEntity
  8
0
  6
Continuous
 62
     7
370
    35
100
AcDbLine
 10
1689.5161012449
 20
1350.8352836813
 30
0.0
 11
1689.5161012449
 21
1340.8352836813
 31
0.0
  0
ARC
  5
146
330
1F
100
AcDbEntity
  8
0
  6
Continuous
 62
     7
370
    35
100
AcDbCircle
 10
1690.5161012449
 20
1350.8352836813
 30
0.0
 40
1.0
100
AcDbArc
 50
0.0
 51
180.0
  0
LINE
  5
147
330
1F
100
AcDbEntity
  8
0
  6
Continuous
 62
     7
370
    35
100
AcDbLine
 10
1691.5161012449
 20
1350.8352836813
 30
0.0
 11
1691.5161012449
 21
1339.8352836813
 31
0.0
  0
LINE
  5
148
330
1F
100
AcDbEntity
  8
0
  6
Continuous
 62
     7
370
    35
100
AcDbLine
 10
1689.5161012449
 20
1336.9012316252
 30
0.0
 11
1689.5161012449
 21
1333.1094242029
 31
0.0
  0
LINE
  5
149
330
1F
100
AcDbEntity
  8
0
  6
Continuous
 62
     7
370
    35
100
AcDbLine
 10
1691.5161012449
 20
1338.8352836813
 30
0.0
 11
1691.5161012449
 21
1333.1094242029
 31
0.0
  0
LINE
  5
14A
330
1F
100
AcDbEntity
  8
0
  6
Continuous
 62
     7
370
    35
100
AcDbLine
 10
1689.5161012449
 20
1331.2968086288
 30
0.0
 11
1689.5161012449
 21
1333.1094242029
 31
0.0
  0
LINE
  5
14B
330
1F
100
AcDbEntity
  8
0
  6
Continuous
 62
     7
370
    35
100
AcDbLine
 10
1691.5161012449
 20
1333.1094242029
 30
0.0
 11
1691.5161012449
 21
1331.2968086288
 31
0.0
  0
LINE
  5
14C
330
1F
100
AcDbEntity
  8
0
  6
Continuous
 62
     7
370
    35
100
AcDbLine
 10
1689.5161012449
 20
1331.2968086288
 30
0.0
 11
1689.5161012449
 21
1324.0385093442
 31
0.0
  0
LINE
  5
14D
330
1F
100
AcDbEntity
  8
0
  6
Continuous
 62
     7
370
    35
100
AcDbLine
 10
1691.5161012449
 20
1331.2968086288
 30
0.0
 11
1691.5161012449
 21
1324.0385093442
 31
0.0
  0
LINE
  5
14E
330
1F
100
AcDbEntity
  8
0
  6
Continuous
 62
     7
370
    35
100
AcDbLine
 10
1689.5161012449
 20
1322.2258937701
 30
0.0
 11
1689.5161012449
 21
1324.0385093442
 31
0.0
  0
LINE
  5
14F
330
1F
100
AcDbEntity
  8
0
  6
Continuous
 62
     7
370
    35
100
AcDbLine
 10
1691.5161012449
 20
1324.0385093442
 30
0.0
 11
1691.5161012449
 21
1322.2258937701
 31
0.0
  0
LINE
  5
150
330
1F
100
AcDbEntity
  8
0
  6
Continuous
 62
     7
370
    35
100
AcDbLine
 10
1689.5161012449
 20
1322.2258937701
 30
0.0
 11
1689.5161012449
 21
1287.9352836813
 31
0.0
  0
LINE
  5
151
330
1F
100
AcDbEntity
  8
0
  6
Continuous
 62
     7
370
    35
100
AcDbLine
 10
1691.5161012449
 20
1322.2258937701
 30
0.0
 11
1691.5161012449
 21
1287.9352836813
 31
0.0
  0
LINE
  5
152
330
1F
100
AcDbEntity
  8
0
  6
Continuous
 62
     7
370
    35
100
AcDbLine
 10
1691.5161012449
 20
1285.9352836813
 30
0.0
 11
1689.5161012449
 21
1285.9352836813
 31
0.0
  0
LINE
  5
153
330
1F
100
AcDbEntity
  8
0
  6
Continuous
 62
     7
370
    35
100
AcDbLine
 10
1689.5161012449
 20
1285.9352836813
 30
0.0
 11
1689.5161012449
 21
1287.9352836813
 31
0.0
  0
LINE
  5
154
330
1F
100
AcDbEntity
  8
0
  6
Continuous
 62
     7
370
    35
100
AcDbLine
 10
1691.5161012449
 20
1287.9352836813
 30
0.0
 11
1691.5161012449
 21
1285.9352836813
 31
0.0
  0
LINE
  5
155
330
1F
100
AcDbEntity
  8
0
  6
Continuous
 62
     8
370
    18
100
AcDbLine
 10
1689.5161012449
 20
1340.8352836813
 30
0.0
 11
809.5161012449
 21
1340.8352836813
 31
0.0
  0
LINE
  5
156
330
1F
100
AcDbEntity
  8
0
  6
Continuous
 62
     8
370
    18
100
AcDbLine
 10
809.5161012449
 20
1350.3352836813
 30
0.0
 11
1689.5161012449
 21
1350.3352836813
 31
0.0
  0
LINE
  5
157
330
1F
100
AcDbEntity
  8
0
  6
Continuous
 62
     8
370
    18
100
AcDbLine
 10
809.5161012449
 20
1337.5972021706
 30
0.0
 11
1689.5161012449
 21
1337.5972021706
 31
0.0
  0
LINE
  5
158
330
1F
100
AcDbEntity
  8
0
  6
Continuous
 62
     8
370
    18
100
AcDbLine
 10
809.5161012449
 20
1335.6004188294
 30
0.0
 11
1689.5161012449
 21
1335.6004188294
 31
0.0
  0
LINE
  5
159
330
1F
100
AcDbEntity
  8
0
  6
Continuous
 62
     8
370
    18
100
AcDbLine
 10
809.5161012449
 20
1333.8401112605
 30
0.0
 11
1166.6446384656
 21
1333.8401112605
 31
0.0
  0
LINE
  5
15A
330
1F
100
AcDbEntity
  8
0
  6
Continuous
 62
     8
370
    18
100
AcDbLine
 10
1332.3875640243
 20
1333.8401112605
 30
0.0
 11
1689.5161012449
 21
1333.8401112605
 31
0.0
  0
SPLINE
  5
15B
330
1F
100
AcDbEntity
  8
0
  6
Continuous
 62
     8
370
    18
100
AcDbSpline
210
0.0
220
0.0
230
1.0
 70
     8
 71
     3
 72
    10
 73
     6
 74
     0
 42
0.000000001
 43
0.00000001
 40
0.0
 40
0.0
 40
0.0
 40
0.0
 40
0.5
 40
0.5
 40
1.0
 40
1.0
 40
1.0
 40
1.0
 10
1196.516101244919
 20
1333.61421209484
 30
0.0
 10
1195.449288987573
 20
1333.61421209484
 30
0.0
 10
1194.389771576117
 20
1333.595759477981
 30
0.0
 10
1192.28464514129
 20
1333.542735871585
 30
0.0
 10
1191.239032820583
 20
1333.508265894464
 30
0.0
 10
1190.199989137824
 20
1333.493628758521
 30
0.0
  0
ARC
  5
15C
330
1F
100
AcDbEntity
  8
0
  6
Continuous
 62
     8
370
    18
100
AcDbCircle
 10
1187.0294255643
 20
1333.8552199378
 30
0.0
 40
3.191116035873038
100
AcDbArc
 50
353.4937367838
 51
30.6135263841
  0
LINE
  5
15D
330
1F
100
AcDbEntity
  8
0
  6
Continuous
 62
     8
370
    18
100
AcDbLine
 10
1196.5161012449
 20
1333.6142120948
 30
0.0
 11
1196.5161012449
 21
1335.4992465285
 31
0.0
  0
SPLINE
  5
15E
330
1F
100
AcDbEntity
  8
0
  6
Continuous
 62
     8
370
    18
100
AcDbSpline
210
0.0
220
0.0
230
1.0
 70
     8
 71
     3
 72
    10
 73
     6
 74
     0
 42
0.000000001
 43
0.00000001
 40
0.0
 40
0.0
 40
0.0
 40
0.0
 40
0.5
 40
0.5
 40
1.0
 40
1.0
 40
1.0
 40
1.0
 10
1308.832213352015
 20
1333.493628758656
 30
0.0
 10
1307.793169669256
 20
1333.5082658946
 30
0.0
 10
1306.747557348548
 20
1333.542735871585
 30
0.0
 10
1304.642430913721
 20
1333.595759477981
 30
0.0
 10
1303.582913502261
 20
1333.614212094543
 30
0.0
 10
1302.516101244917
 20
1333.614212094543
 30
0.0
  0
LINE
  5
15F
330
1F
100
AcDbEntity
  8
0
  6
Continuous
 62
     8
370
    18
100
AcDbLine
 10
1302.5161012449
 20
1333.6142120947
 30
0.0
 11
1302.5161012449
 21
1335.4992465285
 31
0.0
  0
ARC
  5
160
330
1F
100
AcDbEntity
  8
0
  6
Continuous
 62
     8
370
    18
100
AcDbCircle
 10
1312.0027769252
 20
1333.8552199378
 30
0.0
 40
3.191116035541657
100
AcDbArc
 50
149.386473613
 51
186.5062632177
  0
LINE
  5
161
330
1F
100
AcDbEntity
  8
0
  6
Continuous
 62
     8
370
    18
100
AcDbLine
 10
1302.5161012449
 20
1333.6142120947
 30
0.0
 11
1196.5161012449
 21
1333.6142120948
 31
0.0
  0
ELLIPSE
  5
162
330
1F
100
AcDbEntity
  8
0
  6
Continuous
 62
     8
370
    18
100
AcDbEllipse
 10
1302.5161012449
 20
1331.8340124207
 30
0.0
 11
28.0
 21
0.0
 31
0.0
210
0.0
220
0.0
230
1.0
 40
0.0608401234
 41
0.0094489386178824
 42
1.34326267484347
  0
ARC
  5
163
330
1F
100
AcDbEntity
  8
0
  6
Continuous
 62
     8
370
    18
100
AcDbCircle
 10
1332.5142521941
 20
1331.847401612
 30
0.0
 40
1.999402726573743
100
AcDbArc
 50
93.4033047991
 51
179.9224253183
  0
ELLIPSE
  5
164
330
1F
100
AcDbEntity
  8
0
  6
Continuous
 62
     8
370
    18
100
AcDbEllipse
 10
1196.5161012449
 20
1331.8340124207
 30
0.0
 11
28.0
 21
0.0
 31
0.0
210
0.0
220
0.0
230
1.0
 40
0.0608401234
 41
1.798329978746332
 42
3.132143714971908
  0
ARC
  5
165
330
1F
100
AcDbEntity
  8
0
  6
Continuous
 62
     8
370
    18
100
AcDbCircle
 10
1166.5179502958
 20
1331.847401612
 30
0.0
 40
1.999402726573743
100
AcDbArc
 50
0.0775746817
 51
86.5966952046
  0
LINE
  5
166
330
1F
100
AcDbEntity
  8
0
  6
Continuous
 62
     8
370
    18
100
AcDbLine
 10
1196.5161012449
 20
1333.6142120948
 30
0.0
 11
1196.5161012449
 21
1328.8388451818
 31
0.0
  0
LINE
  5
167
330
1F
100
AcDbEntity
  8
0
  6
Continuous
 62
     8
370
    18
100
AcDbLine
 10
1302.5161012449
 20
1333.6142120947
 30
0.0
 11
1302.5161012449
 21
1328.8388451818
 31
0.0
  0
ARC
  5
168
330
1F
100
AcDbEntity
  8
0
  6
Continuous
 62
     8
370
    18
100
AcDbCircle
 10
1249.5161012449
 20
1302.3888451817
 30
0.0
 40
9.000000000000167
100
AcDbArc
 50
242.7578274734
 51
297.2421725266
  0
LINE
  5
169
330
1F
100
AcDbEntity
  8
0
  6
Continuous
 62
     8
370
    18
100
AcDbLine
 10
1253.6358733634
 20
1294.3871280103
 30
0.0
 11
1258.671150397
 21
1284.6072514674
 31
0.0
  0
LINE
  5
16A
330
1F
100
AcDbEntity
  8
0
  6
Continuous
 62
     8
370
    18
100
AcDbLine
 10
1245.3963291265
 20
1294.3871280103
 30
0.0
 11
1240.3610520928
 21
1284.6072514674
 31
0.0
  0
SPLINE
  5
16B
330
1F
100
AcDbEntity
  8
0
  6
Continuous
 62
     8
370
    18
100
AcDbSpline
210
0.0
220
0.0
230
1.0
 70
     8
 71
     3
 72
     9
 73
     5
 74
     0
 42
0.000000001
 43
0.00000001
 40
0.0
 40
0.0
 40
0.0
 40
0.0
 40
0.499262191895927
 40
1.0
 40
1.0
 40
1.0
 40
1.0
 10
1253.635873363367
 20
1294.387128010255
 30
0.0
 10
1254.682521122564
 20
1294.913460626715
 30
0.0
 10
1256.778910106521
 20
1295.96768148502
 30
0.0
 10
1258.754468494896
 20
1297.233946363114
 30
0.0
 10
1259.743705272072
 20
1297.86801306265
 30
0.0
  0
LINE
  5
16C
330
1F
100
AcDbEntity
  8
0
  6
Continuous
 62
     8
370
    18
100
AcDbLine
 10
1265.6261463575
 20
1289.8938542671
 30
0.0
 11
1259.7437052721
 21
1297.8680130626
 31
0.0
  0
SPLINE
  5
16D
330
1F
100
AcDbEntity
  8
0
  6
Continuous
 62
     8
370
    18
100
AcDbSpline
210
0.0
220
0.0
230
1.0
 70
     8
 71
     3
 72
    10
 73
     6
 74
     0
 42
0.000000001
 43
0.00000001
 40
0.0
 40
0.0
 40
0.0
 40
0.0
 40
0.0076204656895131
 40
0.4952213558631325
 40
1.0
 40
1.0
 40
1.0
 40
1.0
 10
1265.62614635752
 20
1289.893854267071
 30
0.0
 10
1265.610801004603
 20
1289.876427238202
 30
0.0
 10
1264.613572385328
 20
1288.743919434007
 30
0.0
 10
1262.392945050021
 20
1286.720836998882
 30
0.0
 10
1259.925982709162
 20
1285.319863437308
 30
0.0
 10
1258.671150397025
 20
1284.607251467358
 30
0.0
  0
SPLINE
  5
16E
330
1F
100
AcDbEntity
  8
0
  6
Continuous
 62
     8
370
    18
100
AcDbSpline
210
0.0
220
0.0
230
1.0
 70
     8
 71
     3
 72
    11
 73
     7
 74
     0
 42
0.000000001
 43
0.00000001
 40
0.0
 40
0.0
 40
0.0
 40
0.0
 40
0.2086522750570982
 40
0.4180461498251493
 40
0.7071398446856837
 40
1.0
 40
1.0
 40
1.0
 40
1.0
 10
1240.361052092813
 20
1284.607251467358
 30
0.0
 10
1239.83742699042
 20
1284.888228059499
 30
0.0
 10
1238.788315697735
 20
1285.451179901283
 30
0.0
 10
1237.077939740479
 20
1286.566237885734
 30
0.0
 10
1235.231761367105
 20
1287.974691164199
 30
0.0
 10
1234.017244699559
 20
1289.251378951341
 30
0.0
 10
1233.406056132318
 20
1289.893854267069
 30
0.0
  0
LINE
  5
16F
330
1F
100
AcDbEntity
  8
0
  6
Continuous
 62
     8
370
    18
100
AcDbLine
 10
1233.4060561323
 20
1289.8938542671
 30
0.0
 11
1239.2884972178
 21
1297.8680130626
 31
0.0
  0
SPLINE
  5
170
330
1F
100
AcDbEntity
  8
0
  6
Continuous
 62
     8
370
    18
100
AcDbSpline
210
0.0
220
0.0
230
1.0
 70
     8
 71
     3
 72
     9
 73
     5
 74
     0
 42
0.000000001
 43
0.00000001
 40
0.0
 40
0.0
 40
0.0
 40
0.0
 40
0.4979466281839556
 40
1.0
 40
1.0
 40
1.0
 40
1.0
 10
1239.288497217767
 20
1297.86801306265
 30
0.0
 10
1240.272072212335
 20
1297.237245567092
 30
0.0
 10
1242.247334095632
 20
1295.97050841123
 30
0.0
 10
1244.343794241407
 20
1294.916364510164
 30
0.0
 10
1245.396329126471
 20
1294.387128010255
 30
0.0
  0
SPLINE
  5
171
330
1F
100
AcDbEntity
  8
0
  6
Continuous
 62
     8
370
    18
100
AcDbSpline
210
0.0
220
0.0
230
1.0
 70
     8
 71
     3
 72
    21
 73
    17
 74
     0
 42
0.000000001
 43
0.00000001
 40
0.0
 40
0.0
 40
0.0
 40
0.0
 40
0.0575996839374351
 40
0.135693056638278
 40
0.2164055400301527
 40
0.2512185653939516
 40
0.3293048865225195
 40
0.4092636364585416
 40
0.4704678040649288
 40
0.5261582095357691
 40
0.5829972309833086
 40
0.6699291064424845
 40
0.7487170988516957
 40
0.8394997107027558
 40
0.9180548896099043
 40
1.0
 40
1.0
 40
1.0
 40
1.0
 10
1249.516101244331
 20
1322.390209395331
 30
0.0
 10
1250.421001347995
 20
1322.353715849485
 30
0.0
 10
1252.552760632503
 20
1322.267744530809
 30
0.0
 10
1255.801711153533
 20
1321.504586359603
 30
0.0
 10
1258.539843269032
 20
1320.364718106472
 30
0.0
 10
1261.086739412419
 20
1318.905896546704
 30
0.0
 10
1263.420870040866
 20
1317.180057816889
 30
0.0
 10
1265.719534096647
 20
1314.844967767821
 30
0.0
 10
1267.460831650841
 20
1312.516081274422
 30
0.0
 10
1268.718491549553
 20
1310.224446948531
 30
0.0
 10
1269.824093838827
 20
1307.37472957525
 30
0.0
 10
1270.499858962474
 20
1303.944705674913
 30
0.0
 10
1270.419668481297
 20
1299.87696257585
 30
0.0
 10
1269.484412802414
 20
1296.091791778873
 30
0.0
 10
1267.835545322939
 20
1292.643428202008
 30
0.0
 10
1266.372910133407
 20
1290.823193986095
 30
0.0
 10
1265.62614635752
 20
1289.893854267071
 30
0.0
  0
SPLINE
  5
172
330
1F
100
AcDbEntity
  8
0
  6
Continuous
 62
     8
370
    18
100
AcDbSpline
210
0.0
220
0.0
230
1.0
 70
     8
 71
     3
 72
    17
 73
    13
 74
     0
 42
0.000000001
 43
0.00000001
 40
0.0
 40
0.0
 40
0.0
 40
0.0
 40
0.0789144527054628
 40
0.157159304448163
 40
0.2135614770373518
 40
0.2600875689337676
 40
0.3261379151498182
 40
0.42876972852278
 40
0.5974697941885975
 40
0.7661237400516266
 40
0.9416481750856454
 40
1.0
 40
1.0
 40
1.0
 40
1.0
 10
1259.743705272072
 20
1297.86801306265
 30
0.0
 10
1260.216227822525
 20
1298.229958642639
 30
0.0
 10
1261.157263498745
 20
1298.950778640104
 30
0.0
 10
1262.233679227301
 20
1300.169078966682
 30
0.0
 10
1262.807967962321
 20
1301.444993113189
 30
0.0
 10
1262.801810001495
 20
1302.746781792451
 30
0.0
 10
1262.223097802556
 20
1304.295029314416
 30
0.0
 10
1260.591862752745
 20
1306.285328650955
 30
0.0
 10
1258.004957477996
 20
1308.383872207049
 30
0.0
 10
1254.668822994757
 20
1310.352134609032
 30
0.0
 10
1251.722460639698
 20
1311.303663572325
 30
0.0
 10
1249.959742510146
 20
1311.376926833309
 30
0.0
 10
1249.519946612556
 20
1311.395205922339
 30
0.0
  0
LWPOLYLINE
  5
173
330
1F
100
AcDbEntity
  8
0
  6
Continuous
 62
     8
370
    18
100
AcDbPolyline
 90
        9
 70
   128
 43
0.0
 10
1249.5161012443
 20
1322.3902093953
 10
1249.5174805707
 20
1322.1234722893
 10
1249.5186667264
 20
1321.4600838854
 10
1249.5196158564
 20
1320.4245713535
 10
1249.5202928688
 20
1319.0552202463
 10
1249.5206727328
 20
1317.4026589843
 10
1249.5207414039
 20
1315.5279869934
 10
1249.520496343
 20
1313.5005157025
 10
1249.5199466126
 20
1311.3952059223
  0
SPLINE
  5
174
330
1F
100
AcDbEntity
  8
0
  6
Continuous
 62
     8
370
    18
100
AcDbSpline
210
0.0
220
0.0
230
1.0
 70
     8
 71
     3
 72
    20
 73
    16
 74
     0
 42
0.000000001
 43
0.00000001
 40
0.0
 40
0.0
 40
0.0
 40
0.0
 40
0.0991423914481115
 40
0.1909579967922172
 40
0.2834490201131825
 40
0.3743163084071863
 40
0.4461862568119865
 40
0.51844217624955
 40
0.5908322179839118
 40
0.6638400079808532
 40
0.7368167649629365
 40
0.8091054166526843
 40
0.8751601672161241
 40
0.941126359318708
 40
0.9999999999999999
 40
0.9999999999999999
 40
0.9999999999999999
 40
0.9999999999999999
 10
1233.406056132318
 20
1289.893854267069
 30
0.0
 10
1232.511280450302
 20
1291.030182756724
 30
0.0
 10
1230.787854483667
 20
1293.218863188101
 30
0.0
 10
1229.138829881557
 20
1297.271676023546
 30
0.0
 10
1228.439512208506
 20
1301.571964436732
 30
0.0
 10
1228.76596960039
 20
1305.605713798224
 30
0.0
 10
1229.791940734032
 20
1309.105664956133
 30
0.0
 10
1231.246051642621
 20
1312.041145963927
 30
0.0
 10
1233.140971576187
 20
1314.656081529427
 30
0.0
 10
1235.416227752928
 20
1316.985671226824
 30
0.0
 10
1238.011510603998
 20
1318.985925722804
 30
0.0
 10
1240.8308025995
 20
1320.550530892943
 30
0.0
 10
1243.756254172117
 20
1321.632159203724
 30
0.0
 10
1246.630626431888
 20
1322.273087028978
 30
0.0
 10
1248.591409091391
 20
1322.352675838416
 30
0.0
 10
1249.516101244331
 20
1322.390209395331
 30
0.0
  0
SPLINE
  5
175
330
1F
100
AcDbEntity
  8
0
  6
Continuous
 62
     8
370
    18
100
AcDbSpline
210
0.0
220
0.0
230
1.0
 70
     8
 71
     3
 72
    19
 73
    15
 74
     0
 42
0.000000001
 43
0.00000001
 40
0.0
 40
0.0
 40
0.0
 40
0.0
 40
0.0003400432997567
 40
0.1018635778277047
 40
0.2035434036526502
 40
0.3480218784455772
 40
0.4928620408160625
 40
0.5714933381061477
 40
0.6496296261320142
 40
0.7087399627822194
 40
0.7683238584295661
 40
0.8224306267254518
 40
0.892610163227093
 40
1.0
 40
1.0
 40
1.0
 40
1.0
 10
1249.519946612556
 20
1311.395205922339
 30
0.0
 10
1249.517383039342
 20
1311.395208132191
 30
0.0
 10
1248.749437487179
 20
1311.39587011678
 30
0.0
 10
1247.210898249193
 20
1311.226433163966
 30
0.0
 10
1244.697367472618
 20
1310.440974291753
 30
0.0
 10
1242.082128252238
 20
1309.040817509789
 30
0.0
 10
1239.856687361226
 20
1307.375075671796
 30
0.0
 10
1238.138117831825
 20
1305.885225335643
 30
0.0
 10
1237.069811603109
 20
1304.637135616336
 30
0.0
 10
1236.402847733117
 20
1303.301384777419
 30
0.0
 10
1236.138868423194
 20
1301.988613917973
 30
0.0
 10
1236.521489186975
 20
1300.612673545957
 30
0.0
 10
1237.595075002629
 20
1299.19858907079
 30
0.0
 10
1238.650313474764
 20
1298.369454445451
 30
0.0
 10
1239.288497217767
 20
1297.86801306265
 30
0.0
  0
SPLINE
  5
176
330
1F
100
AcDbEntity
  8
0
  6
Continuous
 62
     8
370
    18
100
AcDbSpline
210
0.0
220
0.0
230
1.0
 70
     8
 71
     3
 72
    12
 73
     8
 74
     0
 42
0.000000001
 43
0.00000001
 40
0.0
 40
0.0
 40
0.0
 40
0.0
 40
0.000006074466645
 40
0.3341227654086631
 40
0.6739443301614009
 40
0.9999939255333558
 40
1.0
 40
1.0
 40
1.0
 40
1.0
 10
1249.516101244919
 20
1323.059409593161
 30
0.0
 10
1249.516121242737
 20
1323.059409524503
 30
0.0
 10
1250.616090443551
 20
1323.055632994908
 30
0.0
 10
1252.835304681479
 20
1322.944724138024
 30
0.0
 10
1256.054545951542
 20
1322.480873419902
 30
0.0
 10
1258.153693686562
 20
1321.991239129071
 30
0.0
 10
1259.168531535374
 20
1321.69987718987
 30
0.0
 10
1259.168550441957
 20
1321.699871761753
 30
0.0
  0
SPLINE
  5
177
330
1F
100
AcDbEntity
  8
0
  6
Continuous
 62
     8
370
    18
100
AcDbSpline
210
0.0
220
0.0
230
1.0
 70
     8
 71
     3
 72
    12
 73
     8
 74
     0
 42
0.000000001
 43
0.00000001
 40
0.0
 40
0.0
 40
0.0
 40
0.0
 40
0.0000045934025293
 40
0.4143885673284359
 40
0.7037780019579076
 40
0.9999953490569339
 40
0.9999999999999999
 40
0.9999999999999999
 40
0.9999999999999999
 40
0.9999999999999999
 10
1259.168550441957
 20
1321.699871761753
 30
0.0
 10
1259.168567874086
 20
1321.699863972576
 30
0.0
 10
1260.741187450294
 20
1320.997172319227
 30
0.0
 10
1263.255916011776
 20
1319.522851612546
 30
0.0
 10
1266.292623000475
 20
1316.861841489885
 30
0.0
 10
1267.785951529669
 20
1315.054896011728
 30
0.0
 10
1268.458997599562
 20
1314.092425355398
 30
0.0
 10
1268.459008166971
 20
1314.092410243771
 30
0.0
  0
SPLINE
  5
178
330
1F
100
AcDbEntity
  8
0
  6
Continuous
 62
     8
370
    18
100
AcDbSpline
210
0.0
220
0.0
230
1.0
 70
     8
 71
     3
 72
    17
 73
    13
 74
     0
 42
0.000000001
 43
0.00000001
 40
0.0
 40
0.0
 40
0.0
 40
0.0
 40
0.0000021433935779
 40
0.1041532548279323
 40
0.210814297626981
 40
0.3091075186364252
 40
0.4099627238957783
 40
0.5117652441981443
 40
0.6173565118270764
 40
0.7189536236524922
 40
0.8238769623572207
 40
1.0
 40
1.0
 40
1.0
 40
1.0
 10
1268.459008166971
 20
1314.092410243771
 30
0.0
 10
1268.459019581433
 20
1314.092395659601
 30
0.0
 10
1269.013679005478
 20
1313.383711589584
 30
0.0
 10
1270.046899145899
 20
1311.849070358614
 30
0.0
 10
1271.24706696876
 20
1309.345722997003
 30
0.0
 10
1272.075265920955
 20
1306.670757245395
 30
0.0
 10
1272.51953964111
 20
1303.912951025975
 30
0.0
 10
1272.553950472604
 20
1301.025743375976
 30
0.0
 10
1272.133682451317
 20
1298.166366289472
 30
0.0
 10
1271.271831016996
 20
1295.432771910238
 30
0.0
 10
1269.779329316006
 20
1292.329038914524
 30
0.0
 10
1268.236184931773
 20
1290.485806884004
 30
0.0
 10
1267.269144260391
 20
1289.330710602334
 30
0.0
  0
ARC
  5
179
330
1F
100
AcDbEntity
  8
0
  6
Continuous
 62
     8
370
    18
100
AcDbCircle
 10
1265.3342689391
 20
1286.3639549558
 30
0.0
 40
3.541946015261116
100
AcDbArc
 50
56.8881881133
 51
85.2731268278
  0
SPLINE
  5
17A
330
1F
100
AcDbEntity
  8
0
  6
Continuous
 62
     8
370
    18
100
AcDbSpline
210
0.0
220
0.0
230
1.0
 70
     8
 71
     3
 72
     9
 73
     5
 74
     0
 42
0.000000001
 43
0.00000001
 40
0.0
 40
0.0
 40
0.0
 40
0.0
 40
0.4770884652791004
 40
1.0
 40
1.0
 40
1.0
 40
1.0
 10
1249.516101244331
 20
1322.390209395331
 30
0.0
 10
1249.516101244577
 20
1322.424788365925
 30
0.0
 10
1249.516101245091
 20
1322.497267524637
 30
0.0
 10
1249.516101244978
 20
1322.866390783415
 30
0.0
 10
1249.516101244919
 20
1323.059409593164
 30
0.0
  0
SPLINE
  5
17B
330
1F
100
AcDbEntity
  8
0
  6
Continuous
 62
     8
370
    18
100
AcDbSpline
210
0.0
220
0.0
230
1.0
 70
     8
 71
     3
 72
    13
 73
     9
 74
     0
 42
0.000000001
 43
0.00000001
 40
0.0
 40
0.0
 40
0.0
 40
0.0
 40
0.143681758422708
 40
0.2896128899910152
 40
0.4254711377184162
 40
0.5627814455502992
 40
0.7787239735870493
 40
1.0
 40
1.0
 40
1.0
 40
1.0
 10
1215.915592717293
 20
1294.365266224222
 30
0.0
 10
1215.934633916257
 20
1295.297991859473
 30
0.0
 10
1215.973014408824
 20
1297.178045178411
 30
0.0
 10
1216.038426875873
 20
1300.032802328748
 30
0.0
 10
1216.087648122742
 20
1302.856786968154
 30
0.0
 10
1216.124487504914
 20
1306.133874051535
 30
0.0
 10
1216.098655867096
 20
1309.950108061632
 30
0.0
 10
1216.044157222723
 20
1312.65870745629
 30
0.0
 10
1216.016575494205
 20
1314.029527850564
 30
0.0
  0
ARC
  5
17C
330
1F
100
AcDbEntity
  8
0
  6
Continuous
 62
     8
370
    18
100
AcDbCircle
 10
1215.6901317601
 20
1286.295880419
 30
0.0
 40
8.07253491269318
100
AcDbArc
 50
88.399555844
 51
102.2537357991
  0
SPLINE
  5
17D
330
1F
100
AcDbEntity
  8
0
  6
Continuous
 62
     8
370
    18
100
AcDbSpline
210
0.0
220
0.0
230
1.0
 70
     8
 71
     3
 72
    13
 73
     9
 74
     0
 42
0.000000001
 43
0.00000001
 40
0.0
 40
0.0
 40
0.0
 40
0.0
 40
0.2149368602724791
 40
0.4364871802266567
 40
0.572018954956124
 40
0.7091058686892346
 40
0.8535021383530064
 40
1.0
 40
1.0
 40
1.0
 40
1.0
 10
1213.959681964286
 20
1314.363608108385
 30
0.0
 10
1213.961335422109
 20
1313.004816701432
 30
0.0
 10
1213.964693213518
 20
1310.24542480846
 30
0.0
 10
1213.966911293957
 20
1306.33937388548
 30
0.0
 10
1213.974184648613
 20
1302.928988474772
 30
0.0
 10
1213.977384661339
 20
1300.039033635971
 30
0.0
 10
1213.977869740402
 20
1297.092563590472
 30
0.0
 10
1213.977162108584
 20
1295.158512739647
 30
0.0
 10
1213.976805736499
 20
1294.184500948189
 30
0.0
  0
ARC
  5
17E
330
1F
100
AcDbEntity
  8
0
  6
Continuous
 62
     8
370
    18
100
AcDbCircle
 10
1215.8425212778
 20
1319.4569641386
 30
0.0
 40
5.430226471410756
100
AcDbArc
 50
249.71237279
 51
271.8368074448
  0
SPLINE
  5
17F
330
1F
100
AcDbEntity
  8
0
  6
Continuous
 62
     8
370
    18
100
AcDbSpline
210
0.0
220
0.0
230
1.0
 70
     8
 71
     3
 72
    13
 73
     9
 74
     0
 42
0.000000001
 43
0.00000001
 40
0.0
 40
0.0
 40
0.0
 40
0.0
 40
0.2149368602724791
 40
0.4364871802266567
 40
0.572018954956124
 40
0.7091058686892346
 40
0.8535021383530064
 40
1.0
 40
1.0
 40
1.0
 40
1.0
 10
1285.072520525553
 20
1314.363608108385
 30
0.0
 10
1285.070867067729
 20
1313.004816701432
 30
0.0
 10
1285.067509276321
 20
1310.24542480846
 30
0.0
 10
1285.065291195882
 20
1306.33937388548
 30
0.0
 10
1285.058017841226
 20
1302.928988474772
 30
0.0
 10
1285.0548178285
 20
1300.039033635971
 30
0.0
 10
1285.054332749437
 20
1297.092563590472
 30
0.0
 10
1285.055040381255
 20
1295.158512739647
 30
0.0
 10
1285.05539675334
 20
1294.184500948189
 30
0.0
  0
ARC
  5
180
330
1F
100
AcDbEntity
  8
0
  6
Continuous
 62
     8
370
    18
100
AcDbCircle
 10
1283.3420707297
 20
1286.295880419
 30
0.0
 40
8.07253491269748
100
AcDbArc
 50
77.7462642009
 51
91.600444156
  0
SPLINE
  5
181
330
1F
100
AcDbEntity
  8
0
  6
Continuous
 62
     8
370
    18
100
AcDbSpline
210
0.0
220
0.0
230
1.0
 70
     8
 71
     3
 72
    13
 73
     9
 74
     0
 42
0.000000001
 43
0.00000001
 40
0.0
 40
0.0
 40
0.0
 40
0.0
 40
0.1436817584227079
 40
0.2896128899910151
 40
0.425471137718416
 40
0.5627814455502991
 40
0.778723973587049
 40
0.9999999999999999
 40
0.9999999999999999
 40
0.9999999999999999
 40
0.9999999999999999
 10
1283.116609772546
 20
1294.365266224222
 30
0.0
 10
1283.097568573581
 20
1295.297991859473
 30
0.0
 10
1283.059188081014
 20
1297.178045178411
 30
0.0
 10
1282.993775613966
 20
1300.032802328748
 30
0.0
 10
1282.944554367096
 20
1302.856786968154
 30
0.0
 10
1282.907714984925
 20
1306.133874051535
 30
0.0
 10
1282.933546622743
 20
1309.950108061632
 30
0.0
 10
1282.988045267115
 20
1312.65870745629
 30
0.0
 10
1283.015626995633
 20
1314.029527850564
 30
0.0
  0
ARC
  5
182
330
1F
100
AcDbEntity
  8
0
  6
Continuous
 62
     8
370
    18
100
AcDbCircle
 10
1283.1896812121
 20
1319.4569641386
 30
0.0
 40
5.430226471410052
100
AcDbArc
 50
268.1631925552
 51
290.28762721
  0
SPLINE
  5
183
330
1F
100
AcDbEntity
  8
0
  6
Continuous
 62
     8
370
    18
100
AcDbSpline
210
0.0
220
0.0
230
1.0
 70
     8
 71
     3
 72
    13
 73
     9
 74
     0
 42
0.000000001
 43
0.00000001
 40
0.0
 40
0.0
 40
0.0
 40
0.0
 40
0.2027299767790309
 40
0.4113282396852201
 40
0.6140610633746088
 40
0.8226668372537688
 40
0.9110997276786641
 40
1.0
 40
1.0
 40
1.0
 40
1.0
 10
1286.439592497417
 20
1314.628598621481
 30
0.0
 10
1286.454818625222
 20
1313.326460953946
 30
0.0
 10
1286.48571162115
 20
1310.68449352947
 30
0.0
 10
1286.508474521005
 20
1306.416268296369
 30
0.0
 10
1286.455705594817
 20
1302.022068372874
 30
0.0
 10
1286.401287456371
 20
1298.483372207396
 30
0.0
 10
1286.360742516439
 20
1295.813667520287
 30
0.0
 10
1286.345359825909
 20
1294.617633905785
 30
0.0
 10
1286.337648209221
 20
1294.018040956626
 30
0.0
  0
ARC
  5
184
330
1F
100
AcDbEntity
  8
0
  6
Continuous
 62
     8
370
    18
100
AcDbCircle
 10
1286.3422998815
 20
1299.0757336073
 30
0.0
 40
5.05769478981666
100
AcDbArc
 50
255.2593224014
 51
269.9473038141
  0
ARC
  5
185
330
1F
100
AcDbEntity
  8
0
  6
Continuous
 62
     8
370
    18
100
AcDbCircle
 10
1286.4116131818
 20
1311.1141213479
 30
0.0
 40
3.514588645684729
100
AcDbArc
 50
89.543868773
 51
112.3962449548
  0
ARC
  5
186
330
1F
100
AcDbEntity
  8
0
  6
Continuous
 62
     8
370
    18
100
AcDbCircle
 10
1212.6899026084
 20
1299.0757336073
 30
0.0
 40
5.05769478981896
100
AcDbArc
 50
270.0526961859
 51
284.7406775986
  0
SPLINE
  5
187
330
1F
100
AcDbEntity
  8
0
  6
Continuous
 62
     8
370
    18
100
AcDbSpline
210
0.0
220
0.0
230
1.0
 70
     8
 71
     3
 72
    13
 73
     9
 74
     0
 42
0.000000001
 43
0.00000001
 40
0.0
 40
0.0
 40
0.0
 40
0.0
 40
0.2027299767790309
 40
0.4113282396852201
 40
0.6140610633746088
 40
0.8226668372537688
 40
0.9110997276786641
 40
1.0
 40
1.0
 40
1.0
 40
1.0
 10
1212.592609992421
 20
1314.628598621481
 30
0.0
 10
1212.577383864616
 20
1313.326460953946
 30
0.0
 10
1212.546490868688
 20
1310.68449352947
 30
0.0
 10
1212.523727968834
 20
1306.416268296369
 30
0.0
 10
1212.576496895021
 20
1302.022068372874
 30
0.0
 10
1212.630915033468
 20
1298.483372207396
 30
0.0
 10
1212.6714599734
 20
1295.813667520287
 30
0.0
 10
1212.68684266393
 20
1294.617633905785
 30
0.0
 10
1212.694554280617
 20
1294.018040956626
 30
0.0
  0
ARC
  5
188
330
1F
100
AcDbEntity
  8
0
  6
Continuous
 62
     8
370
    18
100
AcDbCircle
 10
1212.620589308
 20
1311.1141213479
 30
0.0
 40
3.514588645685865
100
AcDbArc
 50
67.6037550452
 51
90.456131227
  0
SPLINE
  5
189
330
1F
100
AcDbEntity
  8
0
  6
Continuous
 62
     8
370
    18
100
AcDbSpline
210
0.0
220
0.0
230
1.0
 70
     8
 71
     3
 72
    12
 73
     8
 74
     0
 42
0.000000001
 43
0.00000001
 40
0.0
 40
0.0
 40
0.0
 40
0.0
 40
0.1139159269059944
 40
0.3258009088085496
 40
0.5443041886655149
 40
0.8274327407183973
 40
1.0
 40
1.0
 40
1.0
 40
1.0
 10
1205.043471733209
 20
1294.199383462973
 30
0.0
 10
1205.04384361283
 20
1294.952854946723
 30
0.0
 10
1205.044907192978
 20
1297.107792371493
 30
0.0
 10
1205.051258780333
 20
1300.862699349689
 30
0.0
 10
1205.064768874886
 20
1305.808576863842
 30
0.0
 10
1205.066512489517
 20
1310.417072763329
 30
0.0
 10
1205.070929333037
 20
1313.27303454886
 30
0.0
 10
1205.072601945692
 20
1314.354557542233
 30
0.0
  0
ARC
  5
18A
330
1F
100
AcDbEntity
  8
0
  6
Continuous
 62
     8
370
    18
100
AcDbCircle
 10
1206.4242144723
 20
1311.162421096
 30
0.0
 40
3.466495566614925
100
AcDbArc
 50
89.2238649505
 51
112.9487422267
  0
SPLINE
  5
18B
330
1F
100
AcDbEntity
  8
0
  6
Continuous
 62
     8
370
    18
100
AcDbSpline
210
0.0
220
0.0
230
1.0
 70
     8
 71
     3
 72
    13
 73
     9
 74
     0
 42
0.000000001
 43
0.00000001
 40
0.0
 40
0.0
 40
0.0
 40
0.0
 40
0.2029467742027874
 40
0.4117773519856952
 40
0.614725859430716
 40
0.8235672334127786
 40
0.9115535143092927
 40
1.0
 40
1.0
 40
1.0
 40
1.0
 10
1206.402867810705
 20
1294.018040956626
 30
0.0
 10
1206.412827401572
 20
1295.400695705294
 30
0.0
 10
1206.433035330327
 20
1298.206090929504
 30
0.0
 10
1206.472915311231
 20
1302.579490945352
 30
0.0
 10
1206.501097195333
 20
1306.973032678906
 30
0.0
 10
1206.490544999079
 20
1310.411985836097
 30
0.0
 10
1206.477430736432
 20
1312.952540592923
 30
0.0
 10
1206.473260920069
 20
1314.068941943335
 30
0.0
 10
1206.471170573642
 20
1314.628598621481
 30
0.0
  0
ARC
  5
18C
330
1F
100
AcDbEntity
  8
0
  6
Continuous
 62
     8
370
    18
100
AcDbCircle
 10
1206.3638333295
 20
1298.9113122435
 30
0.0
 40
4.893426976811579
100
AcDbArc
 50
254.3462356245
 51
270.4570487635
  0
SPLINE
  5
18D
330
1F
100
AcDbEntity
  8
0
  6
Continuous
 62
     8
370
    18
100
AcDbSpline
210
0.0
220
0.0
230
1.0
 70
     8
 71
     3
 72
    13
 73
     9
 74
     0
 42
0.000000001
 43
0.00000001
 40
0.0
 40
0.0
 40
0.0
 40
0.0
 40
0.2029467742027874
 40
0.4117773519856952
 40
0.614725859430716
 40
0.8235672334127786
 40
0.9115535143092927
 40
1.0
 40
1.0
 40
1.0
 40
1.0
 10
1292.629334679134
 20
1294.018040956626
 30
0.0
 10
1292.619375088266
 20
1295.400695705294
 30
0.0
 10
1292.599167159511
 20
1298.206090929504
 30
0.0
 10
1292.559287178608
 20
1302.579490945352
 30
0.0
 10
1292.531105294505
 20
1306.973032678906
 30
0.0
 10
1292.541657490759
 20
1310.411985836097
 30
0.0
 10
1292.554771753406
 20
1312.952540592923
 30
0.0
 10
1292.558941569769
 20
1314.068941943335
 30
0.0
 10
1292.561031916196
 20
1314.628598621481
 30
0.0
  0
ARC
  5
18E
330
1F
100
AcDbEntity
  8
0
  6
Continuous
 62
     8
370
    18
100
AcDbCircle
 10
1292.6079880175
 20
1311.162421096
 30
0.0
 40
3.466495566615355
100
AcDbArc
 50
67.0512577733
 51
90.7761350495
  0
SPLINE
  5
18F
330
1F
100
AcDbEntity
  8
0
  6
Continuous
 62
     8
370
    18
100
AcDbSpline
210
0.0
220
0.0
230
1.0
 70
     8
 71
     3
 72
    12
 73
     8
 74
     0
 42
0.000000001
 43
0.00000001
 40
0.0
 40
0.0
 40
0.0
 40
0.0
 40
0.1139185701341839
 40
0.3290869588708605
 40
0.5442936150078441
 40
0.8274287365843249
 40
1.0
 40
1.0
 40
1.0
 40
1.0
 10
1293.988730756629
 20
1294.199383462973
 30
0.0
 10
1293.988362309602
 20
1294.952837330431
 30
0.0
 10
1293.987297943085
 20
1297.129408205566
 30
0.0
 10
1293.980774861402
 20
1300.886357298853
 30
0.0
 10
1293.967455571593
 20
1305.830969978389
 30
0.0
 10
1293.965685229314
 20
1310.417100162293
 30
0.0
 10
1293.961271846332
 20
1313.273042074632
 30
0.0
 10
1293.959600544147
 20
1314.354557542233
 30
0.0
  0
ARC
  5
190
330
1F
100
AcDbEntity
  8
0
  6
Continuous
 62
     8
370
    18
100
AcDbCircle
 10
1292.6683691604
 20
1298.9113122435
 30
0.0
 40
4.893426976814665
100
AcDbArc
 50
269.5429512365
 51
285.6537643755
  0
SPLINE
  5
191
330
1F
100
AcDbEntity
  8
0
  6
Continuous
 62
     8
370
    18
100
AcDbSpline
210
0.0
220
0.0
230
1.0
 70
     8
 71
     3
 72
    12
 73
     8
 74
     0
 42
0.000000001
 43
0.00000001
 40
0.0
 40
0.0
 40
0.0
 40
0.0
 40
0.1720163517392781
 40
0.4559765852483134
 40
0.6679924881472424
 40
0.8863162030497852
 40
1.0
 40
1.0
 40
1.0
 40
1.0
 10
1296.026430430427
 20
1313.974810227773
 30
0.0
 10
1296.044744534464
 20
1312.927107310956
 30
0.0
 10
1296.093291097253
 20
1310.149882974232
 30
0.0
 10
1296.124410475999
 20
1305.728198708996
 30
0.0
 10
1296.066479858284
 20
1300.939457268591
 30
0.0
 10
1296.005750368691
 20
1297.297306879554
 30
0.0
 10
1295.974895889696
 20
1295.165968227336
 30
0.0
 10
1295.964330904869
 20
1294.436169467005
 30
0.0
  0
ARC
  5
192
330
1F
100
AcDbEntity
  8
0
  6
Continuous
 62
     8
370
    18
100
AcDbCircle
 10
1295.8604907711
 20
1286.9425458369
 30
0.0
 40
7.49434305883632
100
AcDbArc
 50
89.206095618
 51
104.4630966537
  0
ARC
  5
193
330
1F
100
AcDbEntity
  8
0
  6
Continuous
 62
     8
370
    18
100
AcDbCircle
 10
1295.9227673982
 20
1319.2249936308
 30
0.0
 40
5.251206698437572
100
AcDbArc
 50
248.0467083647
 51
271.13113812
  0
ARC
  5
194
330
1F
100
AcDbEntity
  8
0
  6
Continuous
 62
     8
370
    18
100
AcDbCircle
 10
1203.1717117188
 20
1286.9425458378
 30
0.0
 40
7.494343057904275
100
AcDbArc
 50
75.5369033449
 51
90.7939043825
  0
SPLINE
  5
195
330
1F
100
AcDbEntity
  8
0
  6
Continuous
 62
     8
370
    18
100
AcDbSpline
210
0.0
220
0.0
230
1.0
 70
     8
 71
     3
 72
    12
 73
     8
 74
     0
 42
0.000000001
 43
0.00000001
 40
0.0
 40
0.0
 40
0.0
 40
0.0
 40
0.1720163517394607
 40
0.4559765852487096
 40
0.6679924881477981
 40
0.8863162030505051
 40
1.0
 40
1.0
 40
1.0
 40
1.0
 10
1203.005772059411
 20
1313.974810227774
 30
0.0
 10
1202.987457955375
 20
1312.927107310957
 30
0.0
 10
1202.938911392586
 20
1310.149882974232
 30
0.0
 10
1202.90779201384
 20
1305.728198708996
 30
0.0
 10
1202.965722631554
 20
1300.939457268591
 30
0.0
 10
1203.026452121147
 20
1297.297306879559
 30
0.0
 10
1203.057306600143
 20
1295.165968227346
 30
0.0
 10
1203.067871584969
 20
1294.43616946702
 30
0.0
  0
ARC
  5
196
330
1F
100
AcDbEntity
  8
0
  6
Continuous
 62
     8
370
    18
100
AcDbCircle
 10
1203.1094350916
 20
1319.2249936308
 30
0.0
 40
5.251206698467744
100
AcDbArc
 50
268.8688618801
 51
291.9532916353
  0
SPLINE
  5
197
330
1F
100
AcDbEntity
  8
0
  6
Continuous
 62
     8
370
    18
100
AcDbSpline
210
0.0
220
0.0
230
1.0
 70
     8
 71
     3
 72
    18
 73
    14
 74
     0
 42
0.000000001
 43
0.00000001
 40
0.0
 40
0.0
 40
0.0
 40
0.0
 40
0.1170843799009932
 40
0.2372819249028637
 40
0.3300747022077608
 40
0.4254586925014797
 40
0.4734360164953283
 40
0.5731168771933327
 40
0.6761579172513448
 40
0.7772864519268955
 40
0.8811332132399259
 40
0.9999978571948125
 40
1.0
 40
1.0
 40
1.0
 40
1.0
 10
1231.763058229447
 20
1289.330710602334
 30
0.0
 10
1231.110834141676
 20
1290.081841344404
 30
0.0
 10
1229.789043932383
 20
1291.604074698528
 30
0.0
 10
1228.327835358409
 20
1294.144718424663
 30
0.0
 10
1227.298013037558
 20
1296.74777145304
 30
0.0
 10
1226.790068180237
 20
1298.879539349263
 30
0.0
 10
1226.508321627243
 20
1301.124243892228
 30
0.0
 10
1226.478646920453
 20
1303.475482182095
 30
0.0
 10
1226.86616182655
 20
1306.275184418031
 30
0.0
 10
1227.649850249684
 20
1308.992551868216
 30
0.0
 10
1228.860903894357
 20
1311.645745566464
 30
0.0
 10
1229.939993987572
 20
1313.283375055183
 30
0.0
 10
1230.573182908405
 20
1314.092395659601
 30
0.0
 10
1230.573194322867
 20
1314.092410243771
 30
0.0
  0
SPLINE
  5
198
330
1F
100
AcDbEntity
  8
0
  6
Continuous
 62
     8
370
    18
100
AcDbSpline
210
0.0
220
0.0
230
1.0
 70
     8
 71
     3
 72
    12
 73
     8
 74
     0
 42
0.000000001
 43
0.00000001
 40
0.0
 40
0.0
 40
0.0
 40
0.0
 40
0.0000046503675272
 40
0.3713978843430395
 40
0.6812676171491654
 40
0.9999954071658927
 40
1.0
 40
1.0
 40
1.0
 40
1.0
 10
1230.573194322867
 20
1314.092410243771
 30
0.0
 10
1230.573204890276
 20
1314.092425355398
 30
0.0
 10
1231.417162544838
 20
1315.299303329425
 30
0.0
 10
1233.204299299364
 20
1317.373917317603
 30
0.0
 10
1236.377183956124
 20
1319.901749024683
 30
0.0
 10
1238.653884006176
 20
1321.159312606332
 30
0.0
 10
1239.863634615753
 20
1321.699863972576
 30
0.0
 10
1239.863652047881
 20
1321.699871761753
 30
0.0
  0
SPLINE
  5
199
330
1F
100
AcDbEntity
  8
0
  6
Continuous
 62
     8
370
    18
100
AcDbSpline
210
0.0
220
0.0
230
1.0
 70
     8
 71
     3
 72
    13
 73
     9
 74
     0
 42
0.000000001
 43
0.00000001
 40
0.0
 40
0.0
 40
0.0
 40
0.0
 40
0.0000060748835873
 40
0.0389961893340879
 40
0.4427059282785935
 40
0.852077455767624
 40
0.9999939251164126
 40
1.0
 40
1.0
 40
1.0
 40
1.0
 10
1239.863652047881
 20
1321.699871761753
 30
0.0
 10
1239.863670954464
 20
1321.69987718987
 30
0.0
 10
1239.98503701467
 20
1321.734721630316
 30
0.0
 10
1241.365400203384
 20
1322.120740922474
 30
0.0
 10
1244.062915058656
 20
1322.692989080874
 30
0.0
 10
1247.194829107789
 20
1323.014082094199
 30
0.0
 10
1249.02913724718
 20
1323.057737695314
 30
0.0
 10
1249.516081247101
 20
1323.059409524503
 30
0.0
 10
1249.516101244919
 20
1323.059409593161
 30
0.0
  0
ARC
  5
19A
330
1F
100
AcDbEntity
  8
0
  6
Continuous
 62
     8
370
    18
100
AcDbCircle
 10
1233.6979335507
 20
1286.3639549558
 30
0.0
 40
3.541946015249091
100
AcDbArc
 50
94.7268731721
 51
123.1118118867
  0
LINE
  5
19B
330
1F
100
AcDbEntity
  8
0
  6
Continuous
 62
     8
370
    18
100
AcDbLine
 10
1212.5926099924
 20
1314.6285986215
 30
0.0
 11
1206.4711705736
 21
1314.6285986215
 31
0.0
  0
LINE
  5
19C
330
1F
100
AcDbEntity
  8
0
  6
Continuous
 62
     8
370
    18
100
AcDbLine
 10
1212.6945542806
 20
1294.0180409566
 30
0.0
 11
1206.4028678107
 21
1294.0180409566
 31
0.0
  0
LINE
  5
19D
330
1F
100
AcDbEntity
  8
0
  6
Continuous
 62
     8
370
    18
100
AcDbLine
 10
1286.4395924974
 20
1314.6285986215
 30
0.0
 11
1292.5610319162
 21
1314.6285986215
 31
0.0
  0
LINE
  5
19E
330
1F
100
AcDbEntity
  8
0
  6
Continuous
 62
     8
370
    18
100
AcDbLine
 10
1286.3376482092
 20
1294.0180409566
 30
0.0
 11
1292.6293346791
 21
1294.0180409566
 31
0.0
  0
SPLINE
  5
19F
330
1F
100
AcDbEntity
  8
0
  6
Continuous
 62
     8
370
    18
100
AcDbSpline
210
0.0
220
0.0
230
1.0
 70
     8
 71
     3
 72
    13
 73
     9
 74
     0
 42
0.000000001
 43
0.00000001
 40
0.0
 40
0.0
 40
0.0
 40
0.0
 40
0.0000053737334978
 40
0.090670794251492
 40
0.4284179505337214
 40
0.7661993120302149
 40
0.9999947023277419
 40
1.0
 40
1.0
 40
1.0
 40
1.0
 10
1331.712299521589
 20
1312.999697538488
 30
0.0
 10
1331.712297245205
 20
1312.999714673607
 30
0.0
 10
1331.673887908392
 20
1313.288834858462
 30
0.0
 10
1331.506828914813
 20
1314.639704433606
 30
0.0
 10
1331.365364012152
 20
1316.920444453364
 30
0.0
 10
1331.469185593092
 20
1319.287800320853
 30
0.0
 10
1331.657191265107
 20
1320.548666485403
 30
0.0
 10
1331.743911181637
 20
1321.020892621132
 30
0.0
 10
1331.743913146617
 20
1321.020903321268
 30
0.0
  0
SPLINE
  5
1A0
330
1F
100
AcDbEntity
  8
0
  6
Continuous
 62
     8
370
    18
100
AcDbSpline
210
0.0
220
0.0
230
1.0
 70
     8
 71
     3
 72
    16
 73
    12
 74
     0
 42
0.000000001
 43
0.00000001
 40
0.0
 40
0.0
 40
0.0
 40
0.0
 40
0.1394094534900458
 40
0.2827549548329892
 40
0.4174662298324164
 40
0.5565082610192974
 40
0.6798003195682379
 40
0.8081263295826786
 40
0.903292353507241
 40
0.9999977543174701
 40
1.0
 40
1.0
 40
1.0
 40
1.0
 10
1328.518827218251
 20
1288.637959078259
 30
0.0
 10
1328.800580044016
 20
1289.570205818302
 30
0.0
 10
1329.372040626701
 20
1291.461020094342
 30
0.0
 10
1330.300726059083
 20
1294.680586072482
 30
0.0
 10
1331.164461908362
 20
1298.123066347122
 30
0.0
 10
1331.819318363292
 20
1301.587618622773
 30
0.0
 10
1332.181273329287
 20
1305.066769592542
 30
0.0
 10
1332.170520416308
 20
1308.102417915792
 30
0.0
 10
1331.972047647391
 20
1310.762657449851
 30
0.0
 10
1331.800647313891
 20
1312.267504948253
 30
0.0
 10
1331.712301573097
 20
1312.99968053638
 30
0.0
 10
1331.712299521589
 20
1312.999697538488
 30
0.0
  0
SPLINE
  5
1A1
330
1F
100
AcDbEntity
  8
0
  6
Continuous
 62
     8
370
    18
100
AcDbSpline
210
0.0
220
0.0
230
1.0
 70
     8
 71
     3
 72
    15
 73
    11
 74
     0
 42
0.000000001
 43
0.00000001
 40
0.0
 40
0.0
 40
0.0
 40
0.0
 40
0.0741043092108414
 40
0.2157454416471949
 40
0.3576180114207957
 40
0.4992302469455338
 40
0.6408865918967263
 40
0.7875090630818132
 40
0.9341450836288824
 40
1.0
 40
1.0
 40
1.0
 40
1.0
 10
1295.562790135793
 20
1289.375397818554
 30
0.0
 10
1296.551419550551
 20
1289.380820230509
 30
0.0
 10
1299.429690625253
 20
1289.396606905727
 30
0.0
 10
1304.19303436032
 20
1289.273008238563
 30
0.0
 10
1309.628429247666
 20
1289.007214177579
 30
0.0
 10
1314.735168218716
 20
1288.921963220413
 30
0.0
 10
1319.451566189929
 20
1288.820911395295
 30
0.0
 10
1323.651178556856
 20
1288.735989926289
 30
0.0
 10
1326.619530267033
 20
1288.675133278674
 30
0.0
 10
1328.069465244978
 20
1288.646754265364
 30
0.0
 10
1328.518827218251
 20
1288.637959078259
 30
0.0
  0
SPLINE
  5
1A2
330
1F
100
AcDbEntity
  8
0
  6
Continuous
 62
     8
370
    18
100
AcDbSpline
210
0.0
220
0.0
230
1.0
 70
     8
 71
     3
 72
    11
 73
     7
 74
     0
 42
0.000000001
 43
0.00000001
 40
0.0
 40
0.0
 40
0.0
 40
0.0
 40
0.2471593440107324
 40
0.4953474341893495
 40
0.7469783905682571
 40
1.0
 40
1.0
 40
1.0
 40
1.0
 10
1295.964330904869
 20
1294.436169467005
 30
0.0
 10
1295.955315973681
 20
1293.99875550098
 30
0.0
 10
1295.937248588647
 20
1293.122106929928
 30
0.0
 10
1295.864700583733
 20
1291.84004472212
 30
0.0
 10
1295.757898300249
 20
1290.580568969096
 30
0.0
 10
1295.627945559321
 20
1289.777858868587
 30
0.0
 10
1295.562790135793
 20
1289.375397818554
 30
0.0
  0
SPLINE
  5
1A3
330
1F
100
AcDbEntity
  8
0
  6
Continuous
 62
     8
370
    18
100
AcDbSpline
210
0.0
220
0.0
230
1.0
 70
     8
 71
     3
 72
    10
 73
     6
 74
     0
 42
0.000000001
 43
0.00000001
 40
0.0
 40
0.0
 40
0.0
 40
0.0
 40
0.4999712442949098
 40
0.7499826264316128
 40
1.0
 40
1.0
 40
1.0
 40
1.0
 10
1295.999346828804
 20
1316.682389847153
 30
0.0
 10
1296.003849867286
 20
1316.232947890406
 30
0.0
 10
1296.010604657018
 20
1315.558761798716
 30
0.0
 10
1296.019779146648
 20
1314.654785735868
 30
0.0
 10
1296.024213318123
 20
1314.201470541039
 30
0.0
 10
1296.026430430427
 20
1313.974810227773
 30
0.0
  0
SPLINE
  5
1A4
330
1F
100
AcDbEntity
  8
0
  6
Continuous
 62
     8
370
    18
100
AcDbSpline
210
0.0
220
0.0
230
1.0
 70
     8
 71
     3
 72
    14
 73
    10
 74
     0
 42
0.000000001
 43
0.00000001
 40
0.0
 40
0.0
 40
0.0
 40
0.0
 40
0.0000086772971397
 40
0.0546554576672004
 40
0.1545956188497074
 40
0.2815115513694897
 40
0.4757791841528391
 40
0.7372214479202245
 40
1.0
 40
1.0
 40
1.0
 40
1.0
 10
1293.348463968987
 20
1321.718434722324
 30
0.0
 10
1293.348483811874
 20
1321.718432601491
 30
0.0
 10
1293.473467670442
 20
1321.705074166043
 30
0.0
 10
1293.823924574674
 20
1321.640672961882
 30
0.0
 10
1294.414138725574
 20
1321.384686776566
 30
0.0
 10
1295.096142356719
 20
1320.768750172946
 30
0.0
 10
1295.646869272474
 20
1319.693076126654
 30
0.0
 10
1295.954305930068
 20
1318.272260102223
 30
0.0
 10
1295.984307703442
 20
1317.213246440751
 30
0.0
 10
1295.999346828804
 20
1316.682389847153
 30
0.0
  0
SPLINE
  5
1A5
330
1F
100
AcDbEntity
  8
0
  6
Continuous
 62
     8
370
    18
100
AcDbSpline
210
0.0
220
0.0
230
1.0
 70
     8
 71
     3
 72
    10
 73
     6
 74
     0
 42
0.000000001
 43
0.00000001
 40
0.0
 40
0.0
 40
0.0
 40
0.0
 40
0.4993573099097663
 40
0.9998128115861746
 40
0.9999999999999999
 40
0.9999999999999999
 40
0.9999999999999999
 40
0.9999999999999999
 10
1293.028166771238
 20
1321.728045885229
 30
0.0
 10
1293.081523775435
 20
1321.72796926513
 30
0.0
 10
1293.188355127103
 20
1321.727815856428
 30
0.0
 10
1293.29510815241
 20
1321.722201114899
 30
0.0
 10
1293.348444026904
 20
1321.718436130038
 30
0.0
 10
1293.348463968987
 20
1321.718434722324
 30
0.0
  0
SPLINE
  5
1A6
330
1F
100
AcDbEntity
  8
0
  6
Continuous
 62
     8
370
    18
100
AcDbSpline
210
0.0
220
0.0
230
1.0
 70
     8
 71
     3
 72
    11
 73
     7
 74
     0
 42
0.000000001
 43
0.00000001
 40
0.0
 40
0.0
 40
0.0
 40
0.0
 40
0.2499912677933776
 40
0.499986756231606
 40
0.749992678491824
 40
0.9999999999999999
 40
0.9999999999999999
 40
0.9999999999999999
 40
0.9999999999999999
 10
1285.91898270551
 20
1321.637897398487
 30
0.0
 10
1286.511472762932
 20
1321.643395253415
 30
0.0
 10
1287.696462880888
 20
1321.65439105609
 30
0.0
 10
1289.473820893192
 20
1321.675748045823
 30
0.0
 10
1291.251012452375
 20
1321.702620965403
 30
0.0
 10
1292.435780893123
 20
1321.719570896143
 30
0.0
 10
1293.028166771238
 20
1321.728045885229
 30
0.0
  0
SPLINE
  5
1A7
330
1F
100
AcDbEntity
  8
0
  6
Continuous
 62
     8
370
    18
100
AcDbSpline
210
0.0
220
0.0
230
1.0
 70
     8
 71
     3
 72
    13
 73
     9
 74
     0
 42
0.000000001
 43
0.00000001
 40
0.0
 40
0.0
 40
0.0
 40
0.0
 40
0.2367907207557319
 40
0.4727251677986229
 40
0.6779786081237297
 40
0.8068813697292138
 40
0.9029811039670025
 40
1.0
 40
1.0
 40
1.0
 40
1.0
 10
1283.050732068474
 20
1316.746876028934
 30
0.0
 10
1283.067213204626
 20
1317.231300328823
 30
0.0
 10
1283.100115878463
 20
1318.198397171637
 30
0.0
 10
1283.386152535121
 20
1319.549565520748
 30
0.0
 10
1283.897010529922
 20
1320.6200538045
 30
0.0
 10
1284.57751737277
 20
1321.259043324875
 30
0.0
 10
1285.243140578332
 20
1321.578899739801
 30
0.0
 10
1285.692988302418
 20
1321.618169210317
 30
0.0
 10
1285.91898270551
 20
1321.637897398487
 30
0.0
  0
SPLINE
  5
1A8
330
1F
100
AcDbEntity
  8
0
  6
Continuous
 62
     8
370
    18
100
AcDbSpline
210
0.0
220
0.0
230
1.0
 70
     8
 71
     3
 72
    12
 73
     8
 74
     0
 42
0.000000001
 43
0.00000001
 40
0.0
 40
0.0
 40
0.0
 40
0.0
 40
0.1229311840443852
 40
0.3421870394857956
 40
0.5614466570298515
 40
0.7807202463634132
 40
1.0
 40
1.0
 40
1.0
 40
1.0
 10
1283.015626995633
 20
1314.029527850564
 30
0.0
 10
1283.017097741415
 20
1314.141423997161
 30
0.0
 10
1283.021191659071
 20
1314.452894283822
 30
0.0
 10
1283.027431047327
 20
1314.962869333345
 30
0.0
 10
1283.035290336345
 20
1315.55916346219
 30
0.0
 10
1283.043139857847
 20
1316.15409864639
 30
0.0
 10
1283.048201307884
 20
1316.549281716522
 30
0.0
 10
1283.050732068474
 20
1316.746876028934
 30
0.0
  0
SPLINE
  5
1A9
330
1F
100
AcDbEntity
  8
0
  6
Continuous
 62
     8
370
    18
100
AcDbSpline
210
0.0
220
0.0
230
1.0
 70
     8
 71
     3
 72
    11
 73
     7
 74
     0
 42
0.000000001
 43
0.00000001
 40
0.0
 40
0.0
 40
0.0
 40
0.0
 40
0.2462626445434014
 40
0.4941955352617314
 40
0.7464627646446496
 40
1.0
 40
1.0
 40
1.0
 40
1.0
 10
1283.570127406063
 20
1289.388459892819
 30
0.0
 10
1283.500058210606
 20
1289.771709407664
 30
0.0
 10
1283.359444583969
 20
1290.540807780172
 30
0.0
 10
1283.237235092564
 20
1291.767244747069
 30
0.0
 10
1283.15153280448
 20
1293.040285805571
 30
0.0
 10
1283.128270252888
 20
1293.922867404029
 30
0.0
 10
1283.116609772546
 20
1294.365266224222
 30
0.0
  0
SPLINE
  5
1AA
330
1F
100
AcDbEntity
  8
0
  6
Continuous
 62
     8
370
    18
100
AcDbSpline
210
0.0
220
0.0
230
1.0
 70
     8
 71
     3
 72
    10
 73
     6
 74
     0
 42
0.000000001
 43
0.00000001
 40
0.0
 40
0.0
 40
0.0
 40
0.0
 40
0.1324174185454166
 40
0.5661890535506258
 40
1.0
 40
1.0
 40
1.0
 40
1.0
 10
1267.269144260391
 20
1289.330710602334
 30
0.0
 10
1267.988596189966
 20
1289.332320790494
 30
0.0
 10
1271.064821444587
 20
1289.33920561668
 30
0.0
 10
1276.498425520524
 20
1289.363193904704
 30
0.0
 10
1281.212822238798
 20
1289.380037642376
 30
0.0
 10
1283.570127406063
 20
1289.388459892819
 30
0.0
  0
SPLINE
  5
1AB
330
1F
100
AcDbEntity
  8
0
  6
Continuous
 62
     8
370
    18
100
AcDbSpline
210
0.0
220
0.0
230
1.0
 70
    24
 71
     3
 72
    13
 73
     9
 74
     0
 42
0.000000001
 43
0.00000001
 40
0.0
 40
0.0
 40
0.0
 40
0.0
 40
0.011033813517655
 40
0.1238791831256937
 40
0.2424431658814011
 40
0.3676203809258448
 40
0.494096304686004
 40
1.0
 40
1.0
 40
1.0
 40
1.0
 10
1249.516101244919
 20
1323.059409593171
 30
0.0
 10
1249.516101244919
 20
1323.074385731408
 30
0.0
 10
1249.516101244919
 20
1323.242526308392
 30
0.0
 10
1249.516101244919
 20
1323.544930546829
 30
0.0
 10
1249.516101244919
 20
1323.871537610943
 30
0.0
 10
1249.516101244919
 20
1324.747256698839
 30
0.0
 10
1249.516101244919
 20
1326.354316012772
 30
0.0
 10
1249.516101244919
 20
1327.734609995453
 30
0.0
 10
1249.516101244919
 20
1328.838845181716
 30
0.0
  0
SPLINE
  5
1AC
330
1F
100
AcDbEntity
  8
0
  6
Continuous
 62
     8
370
    18
100
AcDbSpline
210
0.0
220
0.0
230
1.0
 70
     8
 71
     3
 72
    11
 73
     7
 74
     0
 42
0.000000001
 43
0.00000001
 40
0.0
 40
0.0
 40
0.0
 40
0.0
 40
0.0000075172908922
 40
0.448675364976941
 40
0.9105406426921431
 40
1.0
 40
1.0
 40
1.0
 40
1.0
 10
1331.743913146617
 20
1321.020903321268
 30
0.0
 10
1331.743916800737
 20
1321.020911505477
 30
0.0
 10
1331.962015832118
 20
1321.509392380917
 30
0.0
 10
1332.275800114008
 20
1322.295611831628
 30
0.0
 10
1332.401988998171
 20
1322.767551511012
 30
0.0
 10
1332.446160241858
 20
1322.911713936835
 30
0.0
 10
1332.45332758179
 20
1322.935106103886
 30
0.0
  0
SPLINE
  5
1AD
330
1F
100
AcDbEntity
  8
0
  6
Continuous
 62
     8
370
    18
100
AcDbSpline
210
0.0
220
0.0
230
1.0
 70
     8
 71
     3
 72
    11
 73
     7
 74
     0
 42
0.000000001
 43
0.00000001
 40
0.0
 40
0.0
 40
0.0
 40
0.0
 40
0.2462626445433278
 40
0.4941955352616828
 40
0.7464627646446242
 40
1.0
 40
1.0
 40
1.0
 40
1.0
 10
1215.462075083775
 20
1289.38845989282
 30
0.0
 10
1215.532144279232
 20
1289.771709407665
 30
0.0
 10
1215.67275790587
 20
1290.540807780172
 30
0.0
 10
1215.794967397275
 20
1291.767244747069
 30
0.0
 10
1215.880669685359
 20
1293.040285805571
 30
0.0
 10
1215.903932236951
 20
1293.922867404029
 30
0.0
 10
1215.915592717293
 20
1294.365266224222
 30
0.0
  0
SPLINE
  5
1AE
330
1F
100
AcDbEntity
  8
0
  6
Continuous
 62
     8
370
    18
100
AcDbSpline
210
0.0
220
0.0
230
1.0
 70
     8
 71
     3
 72
    12
 73
     8
 74
     0
 42
0.000000001
 43
0.00000001
 40
0.0
 40
0.0
 40
0.0
 40
0.0
 40
0.1229311840443857
 40
0.3421870394857947
 40
0.5614466570298493
 40
0.7807202463634095
 40
1.0
 40
1.0
 40
1.0
 40
1.0
 10
1216.016575494205
 20
1314.029527850564
 30
0.0
 10
1216.015104748423
 20
1314.141423997161
 30
0.0
 10
1216.011010830767
 20
1314.452894283821
 30
0.0
 10
1216.004771442512
 20
1314.962869333345
 30
0.0
 10
1215.996912153493
 20
1315.55916346219
 30
0.0
 10
1215.989062631991
 20
1316.15409864639
 30
0.0
 10
1215.984001181954
 20
1316.549281716522
 30
0.0
 10
1215.981470421364
 20
1316.746876028934
 30
0.0
  0
SPLINE
  5
1AF
330
1F
100
AcDbEntity
  8
0
  6
Continuous
 62
     8
370
    18
100
AcDbSpline
210
0.0
220
0.0
230
1.0
 70
     8
 71
     3
 72
    13
 73
     9
 74
     0
 42
0.000000001
 43
0.00000001
 40
0.0
 40
0.0
 40
0.0
 40
0.0
 40
0.2367907207557294
 40
0.4727251677986212
 40
0.6779786081237286
 40
0.8068813697292131
 40
0.9029811039670022
 40
0.9999999999999999
 40
0.9999999999999999
 40
0.9999999999999999
 40
0.9999999999999999
 10
1215.981470421364
 20
1316.746876028934
 30
0.0
 10
1215.964989285213
 20
1317.231300328823
 30
0.0
 10
1215.932086611376
 20
1318.198397171637
 30
0.0
 10
1215.646049954717
 20
1319.549565520748
 30
0.0
 10
1215.135191959916
 20
1320.6200538045
 30
0.0
 10
1214.454685117069
 20
1321.259043324875
 30
0.0
 10
1213.789061911507
 20
1321.578899739801
 30
0.0
 10
1213.33921418742
 20
1321.618169210317
 30
0.0
 10
1213.113219784329
 20
1321.637897398487
 30
0.0
  0
SPLINE
  5
1B0
330
1F
100
AcDbEntity
  8
0
  6
Continuous
 62
     8
370
    18
100
AcDbSpline
210
0.0
220
0.0
230
1.0
 70
     8
 71
     3
 72
    11
 73
     7
 74
     0
 42
0.000000001
 43
0.00000001
 40
0.0
 40
0.0
 40
0.0
 40
0.0
 40
0.2499912677933776
 40
0.499986756231606
 40
0.749992678491824
 40
0.9999999999999999
 40
0.9999999999999999
 40
0.9999999999999999
 40
0.9999999999999999
 10
1213.113219784329
 20
1321.637897398487
 30
0.0
 10
1212.520729726906
 20
1321.643395253415
 30
0.0
 10
1211.33573960895
 20
1321.65439105609
 30
0.0
 10
1209.558381596646
 20
1321.675748045823
 30
0.0
 10
1207.781190037464
 20
1321.702620965403
 30
0.0
 10
1206.596421596715
 20
1321.719570896143
 30
0.0
 10
1206.0040357186
 20
1321.728045885229
 30
0.0
  0
SPLINE
  5
1B1
330
1F
100
AcDbEntity
  8
0
  6
Continuous
 62
     8
370
    18
100
AcDbSpline
210
0.0
220
0.0
230
1.0
 70
     8
 71
     3
 72
    10
 73
     6
 74
     0
 42
0.000000001
 43
0.00000001
 40
0.0
 40
0.0
 40
0.0
 40
0.0
 40
0.4993573099105828
 40
0.9998128115878191
 40
0.9999999999999999
 40
0.9999999999999999
 40
0.9999999999999999
 40
0.9999999999999999
 10
1206.0040357186
 20
1321.728045885229
 30
0.0
 10
1205.950678714403
 20
1321.727969265129
 30
0.0
 10
1205.843847362734
 20
1321.727815856425
 30
0.0
 10
1205.737094337432
 20
1321.722201114907
 30
0.0
 10
1205.683758462934
 20
1321.718436130038
 30
0.0
 10
1205.683738520852
 20
1321.718434722324
 30
0.0
  0
SPLINE
  5
1B2
330
1F
100
AcDbEntity
  8
0
  6
Continuous
 62
     8
370
    18
100
AcDbSpline
210
0.0
220
0.0
230
1.0
 70
     8
 71
     3
 72
    14
 73
    10
 74
     0
 42
0.000000001
 43
0.00000001
 40
0.0
 40
0.0
 40
0.0
 40
0.0
 40
0.0000086772972158
 40
0.0546554576672723
 40
0.1545956188497716
 40
0.2815115513695442
 40
0.4757791841528786
 40
0.7372214479202439
 40
1.0
 40
1.0
 40
1.0
 40
1.0
 10
1205.683738520852
 20
1321.718434722324
 30
0.0
 10
1205.683718677965
 20
1321.718432601491
 30
0.0
 10
1205.558734819423
 20
1321.705074166112
 30
0.0
 10
1205.208277915142
 20
1321.640672961822
 30
0.0
 10
1204.618063764274
 20
1321.384686776591
 30
0.0
 10
1203.936060133115
 20
1320.768750172934
 30
0.0
 10
1203.385333217367
 20
1319.693076126659
 30
0.0
 10
1203.07789655977
 20
1318.272260102222
 30
0.0
 10
1203.047894786396
 20
1317.213246440751
 30
0.0
 10
1203.032855661034
 20
1316.682389847153
 30
0.0
  0
SPLINE
  5
1B3
330
1F
100
AcDbEntity
  8
0
  6
Continuous
 62
     8
370
    18
100
AcDbSpline
210
0.0
220
0.0
230
1.0
 70
     8
 71
     3
 72
    10
 73
     6
 74
     0
 42
0.000000001
 43
0.00000001
 40
0.0
 40
0.0
 40
0.0
 40
0.0
 40
0.4999712442950835
 40
0.7499826264318743
 40
1.0
 40
1.0
 40
1.0
 40
1.0
 10
1203.032855661034
 20
1316.682389847153
 30
0.0
 10
1203.028352622552
 20
1316.232947890406
 30
0.0
 10
1203.02159783282
 20
1315.558761798716
 30
0.0
 10
1203.012423343191
 20
1314.654785735869
 30
0.0
 10
1203.007989171715
 20
1314.201470541039
 30
0.0
 10
1203.005772059411
 20
1313.974810227774
 30
0.0
  0
SPLINE
  5
1B4
330
1F
100
AcDbEntity
  8
0
  6
Continuous
 62
     8
370
    18
100
AcDbSpline
210
0.0
220
0.0
230
1.0
 70
     8
 71
     3
 72
    11
 73
     7
 74
     0
 42
0.000000001
 43
0.00000001
 40
0.0
 40
0.0
 40
0.0
 40
0.0
 40
0.2471593440128828
 40
0.4953474341907675
 40
0.7469783905689332
 40
1.0
 40
1.0
 40
1.0
 40
1.0
 10
1203.067871584969
 20
1294.43616946702
 30
0.0
 10
1203.076886516157
 20
1293.99875550099
 30
0.0
 10
1203.094953901191
 20
1293.122106929932
 30
0.0
 10
1203.167501906105
 20
1291.84004472212
 30
0.0
 10
1203.274304189589
 20
1290.580568969096
 30
0.0
 10
1203.404256930518
 20
1289.777858868587
 30
0.0
 10
1203.469412354046
 20
1289.375397818554
 30
0.0
  0
SPLINE
  5
1B5
330
1F
100
AcDbEntity
  8
0
  6
Continuous
 62
     8
370
    18
100
AcDbSpline
210
0.0
220
0.0
230
1.0
 70
     8
 71
     3
 72
    18
 73
    14
 74
     0
 42
0.000000001
 43
0.00000001
 40
0.0
 40
0.0
 40
0.0
 40
0.0
 40
0.0523730000254506
 40
0.1524774488988086
 40
0.252745465421587
 40
0.3528294914886481
 40
0.452944691761601
 40
0.55656968697285
 40
0.6602042581553615
 40
0.7756279704749326
 40
0.8910143299899647
 40
0.9999989407468236
 40
1.0
 40
1.0
 40
1.0
 40
1.0
 10
1203.469412354046
 20
1289.375397818554
 30
0.0
 10
1202.480783823632
 20
1289.380820220667
 30
0.0
 10
1199.602515323588
 20
1289.396606867236
 30
0.0
 10
1194.839138581338
 20
1289.273008567374
 30
0.0
 10
1189.403881846174
 20
1289.007212969037
 30
0.0
 10
1184.296630228478
 20
1288.921967716587
 30
0.0
 10
1179.582167039722
 20
1288.820894361268
 30
0.0
 10
1175.375087566455
 20
1288.736055985996
 30
0.0
 10
1171.630269362326
 20
1288.658358901373
 30
0.0
 10
1168.593531600924
 20
1288.604296966659
 30
0.0
 10
1166.497632403198
 20
1288.559017381941
 30
0.0
 10
1165.833592256175
 20
1288.518283003056
 30
0.0
 10
1165.685264498412
 20
1288.500991246397
 30
0.0
 10
1165.685263056786
 20
1288.500991078335
 30
0.0
  0
SPLINE
  5
1B6
330
1F
100
AcDbEntity
  8
0
  6
Continuous
 62
     8
370
    18
100
AcDbSpline
210
0.0
220
0.0
230
1.0
 70
     8
 71
     3
 72
    10
 73
     6
 74
     0
 42
0.000000001
 43
0.00000001
 40
0.0
 40
0.0
 40
0.0
 40
0.0
 40
0.1324174185454049
 40
0.566189053550618
 40
1.0
 40
1.0
 40
1.0
 40
1.0
 10
1231.763058229447
 20
1289.330710602334
 30
0.0
 10
1231.043606299872
 20
1289.332320790494
 30
0.0
 10
1227.967381045251
 20
1289.33920561668
 30
0.0
 10
1222.533776969314
 20
1289.363193904703
 30
0.0
 10
1217.81938025104
 20
1289.380037642376
 30
0.0
 10
1215.462075083775
 20
1289.38845989282
 30
0.0
  0
SPLINE
  5
1B7
330
1F
100
AcDbEntity
  8
0
  6
Continuous
 62
     8
370
    18
100
AcDbSpline
210
0.0
220
0.0
230
1.0
 70
     8
 71
     3
 72
    13
 73
     9
 74
     0
 42
0.000000001
 43
0.00000001
 40
0.0
 40
0.0
 40
0.0
 40
0.0
 40
0.2478822118510348
 40
0.5026960354996741
 40
0.59068766568543
 40
0.6789803873276637
 40
0.8384693780655484
 40
1.0
 40
1.0
 40
1.0
 40
1.0
 10
1286.337648209221
 20
1294.018040956626
 30
0.0
 10
1286.322574925403
 20
1293.270332478885
 30
0.0
 10
1286.292006858575
 20
1291.75400710538
 30
0.0
 10
1286.18243810715
 20
1290.149189298553
 30
0.0
 10
1286.069254451726
 20
1289.070896945475
 30
0.0
 10
1285.966783304051
 20
1288.273974227202
 30
0.0
 10
1285.802833373617
 20
1287.370205839385
 30
0.0
 10
1285.610463976114
 20
1286.772996246275
 30
0.0
 10
1285.51366755872
 20
1286.472492373016
 30
0.0
  0
SPLINE
  5
1B8
330
1F
100
AcDbEntity
  8
0
  6
Continuous
 62
     8
370
    18
100
AcDbSpline
210
0.0
220
0.0
230
1.0
 70
     8
 71
     3
 72
    17
 73
    13
 74
     0
 42
0.000000001
 43
0.00000001
 40
0.0
 40
0.0
 40
0.0
 40
0.0
 40
0.3465956100132901
 40
0.5797997290136867
 40
0.7338947238710046
 40
0.8810219207409999
 40
0.9331891565949316
 40
0.9524593563030782
 40
0.9753918570412512
 40
0.9867243403144458
 40
0.9980977605384078
 40
1.0
 40
1.0
 40
1.0
 40
1.0
 10
1285.078959471433
 20
1289.369861062525
 30
0.0
 10
1285.08897649448
 20
1288.989200106013
 30
0.0
 10
1285.105733392375
 20
1288.352414431134
 30
0.0
 10
1285.123527762456
 20
1287.618150210816
 30
0.0
 10
1285.158620782742
 20
1287.109841099263
 30
0.0
 10
1285.207320548428
 20
1286.789498061683
 30
0.0
 10
1285.28967795905
 20
1286.602199597045
 30
0.0
 10
1285.349714235096
 20
1286.528648484908
 30
0.0
 10
1285.399086120425
 20
1286.491598223433
 30
0.0
 10
1285.457393460521
 20
1286.473458593132
 30
0.0
 10
1285.492568124151
 20
1286.471181128397
 30
0.0
 10
1285.511023175814
 20
1286.472328035302
 30
0.0
 10
1285.51366755872
 20
1286.472492373016
 30
0.0
  0
SPLINE
  5
1B9
330
1F
100
AcDbEntity
  8
0
  6
Continuous
 62
     8
370
    18
100
AcDbSpline
210
0.0
220
0.0
230
1.0
 70
     8
 71
     3
 72
    11
 73
     7
 74
     0
 42
0.000000001
 43
0.00000001
 40
0.0
 40
0.0
 40
0.0
 40
0.0
 40
0.3674155899718421
 40
0.7400731437702973
 40
0.8699218969645797
 40
0.9999999999999999
 40
0.9999999999999999
 40
0.9999999999999999
 40
0.9999999999999999
 10
1285.05539675334
 20
1294.184500948189
 30
0.0
 10
1285.055767821378
 20
1293.557463819118
 30
0.0
 10
1285.056515251529
 20
1292.294443544428
 30
0.0
 10
1285.058916402023
 20
1290.906772306987
 30
0.0
 10
1285.067389853843
 20
1289.942767660499
 30
0.0
 10
1285.075100664325
 20
1289.560942231394
 30
0.0
 10
1285.078959471433
 20
1289.369861062525
 30
0.0
  0
SPLINE
  5
1BA
330
1F
100
AcDbEntity
  8
0
  6
Continuous
 62
     8
370
    18
100
AcDbSpline
210
0.0
220
0.0
230
1.0
 70
     8
 71
     3
 72
    11
 73
     7
 74
     0
 42
0.000000001
 43
0.00000001
 40
0.0
 40
0.0
 40
0.0
 40
0.0
 40
0.3674155899718418
 40
0.7400731437702965
 40
0.8699218969645788
 40
1.0
 40
1.0
 40
1.0
 40
1.0
 10
1213.976805736499
 20
1294.184500948189
 30
0.0
 10
1213.97643466846
 20
1293.557463819118
 30
0.0
 10
1213.97568723831
 20
1292.294443544427
 30
0.0
 10
1213.973286087815
 20
1290.906772306987
 30
0.0
 10
1213.964812635996
 20
1289.942767660499
 30
0.0
 10
1213.957101825513
 20
1289.560942231394
 30
0.0
 10
1213.953243018405
 20
1289.369861062525
 30
0.0
  0
SPLINE
  5
1BB
330
1F
100
AcDbEntity
  8
0
  6
Continuous
 62
     8
370
    18
100
AcDbSpline
210
0.0
220
0.0
230
1.0
 70
     8
 71
     3
 72
    17
 73
    13
 74
     0
 42
0.000000001
 43
0.00000001
 40
0.0
 40
0.0
 40
0.0
 40
0.0
 40
0.3465956100133068
 40
0.5797997290136799
 40
0.7338947238709946
 40
0.881021920740988
 40
0.9331891565949197
 40
0.9524593563030651
 40
0.975391857041252
 40
0.9867243403144461
 40
0.9980977605384078
 40
1.0
 40
1.0
 40
1.0
 40
1.0
 10
1213.953243018405
 20
1289.369861062525
 30
0.0
 10
1213.943225995358
 20
1288.989200106012
 30
0.0
 10
1213.926469097463
 20
1288.352414431134
 30
0.0
 10
1213.908674727382
 20
1287.618150210816
 30
0.0
 10
1213.873581707097
 20
1287.109841099263
 30
0.0
 10
1213.824881941411
 20
1286.789498061683
 30
0.0
 10
1213.742524530788
 20
1286.602199597045
 30
0.0
 10
1213.682488254742
 20
1286.528648484908
 30
0.0
 10
1213.633116369413
 20
1286.491598223433
 30
0.0
 10
1213.574809029318
 20
1286.473458593132
 30
0.0
 10
1213.539634365687
 20
1286.471181128396
 30
0.0
 10
1213.521179314024
 20
1286.472328035301
 30
0.0
 10
1213.518534931118
 20
1286.472492373016
 30
0.0
  0
SPLINE
  5
1BC
330
1F
100
AcDbEntity
  8
0
  6
Continuous
 62
     8
370
    18
100
AcDbSpline
210
0.0
220
0.0
230
1.0
 70
     8
 71
     3
 72
    13
 73
     9
 74
     0
 42
0.000000001
 43
0.00000001
 40
0.0
 40
0.0
 40
0.0
 40
0.0
 40
0.2478822118510329
 40
0.5026960354996702
 40
0.5906876656854259
 40
0.6789803873276585
 40
0.8384693780655422
 40
1.0
 40
1.0
 40
1.0
 40
1.0
 10
1212.694554280617
 20
1294.018040956626
 30
0.0
 10
1212.709627564435
 20
1293.270332478885
 30
0.0
 10
1212.740195631263
 20
1291.75400710538
 30
0.0
 10
1212.849764382689
 20
1290.149189298553
 30
0.0
 10
1212.962948038113
 20
1289.070896945475
 30
0.0
 10
1213.065419185788
 20
1288.273974227202
 30
0.0
 10
1213.229369116222
 20
1287.370205839385
 30
0.0
 10
1213.421738513724
 20
1286.772996246275
 30
0.0
 10
1213.518534931118
 20
1286.472492373016
 30
0.0
  0
SPLINE
  5
1BD
330
1F
100
AcDbEntity
  8
0
  6
Continuous
 62
     8
370
    18
100
AcDbSpline
210
0.0
220
0.0
230
1.0
 70
     8
 71
     3
 72
    16
 73
    12
 74
     0
 42
0.000000001
 43
0.00000001
 40
0.0
 40
0.0
 40
0.0
 40
0.0
 40
0.0117733620155406
 40
0.0227113902881389
 40
0.0341085178796149
 40
0.0448724470144656
 40
0.0843977891274379
 40
0.1801725761900117
 40
0.6004756555876758
 40
0.7301077904365139
 40
1.0
 40
1.0
 40
1.0
 40
1.0
 10
1205.483809031605
 20
1286.165223776361
 30
0.0
 10
1205.466547951365
 20
1286.161870408938
 30
0.0
 10
1205.433250484625
 20
1286.155401599415
 30
0.0
 10
1205.378722025987
 20
1286.157465137602
 30
0.0
 10
1205.330311027114
 20
1286.171105322473
 30
0.0
 10
1205.258361926552
 20
1286.211683265373
 30
0.0
 10
1205.164353276814
 20
1286.342349755404
 30
0.0
 10
1205.039244452032
 20
1286.869738633732
 30
0.0
 10
1205.059675887443
 20
1287.550808230088
 30
0.0
 10
1205.056571836848
 20
1288.481379435018
 30
0.0
 10
1205.050234601317
 20
1288.969061290395
 30
0.0
 10
1205.045953584344
 20
1289.298506880764
 30
0.0
  0
SPLINE
  5
1BE
330
1F
100
AcDbEntity
  8
0
  6
Continuous
 62
     8
370
    18
100
AcDbSpline
210
0.0
220
0.0
230
1.0
 70
     8
 71
     3
 72
    11
 73
     7
 74
     0
 42
0.000000001
 43
0.00000001
 40
0.0
 40
0.0
 40
0.0
 40
0.0
 40
0.3598580230790384
 40
0.7246062069006082
 40
0.8621677510649427
 40
0.9999999999999999
 40
0.9999999999999999
 40
0.9999999999999999
 40
0.9999999999999999
 10
1205.045953584344
 20
1289.298506880764
 30
0.0
 10
1205.042701488092
 20
1289.844803229395
 30
0.0
 10
1205.0361531024
 20
1290.944819623744
 30
0.0
 10
1205.042211605399
 20
1292.379750931968
 30
0.0
 10
1205.043327161372
 20
1293.476000468942
 30
0.0
 10
1205.043423511027
 20
1293.958097835335
 30
0.0
 10
1205.043471733209
 20
1294.199383462973
 30
0.0
  0
SPLINE
  5
1BF
330
1F
100
AcDbEntity
  8
0
  6
Continuous
 62
     8
370
    18
100
AcDbSpline
210
0.0
220
0.0
230
1.0
 70
     8
 71
     3
 72
    12
 73
     8
 74
     0
 42
0.000000001
 43
0.00000001
 40
0.0
 40
0.0
 40
0.0
 40
0.0
 40
0.0542100646910344
 40
0.3612059465304573
 40
0.5267652948496022
 40
0.7633787062243839
 40
1.0
 40
1.0
 40
1.0
 40
1.0
 10
1205.483809031605
 20
1286.165223776361
 30
0.0
 10
1205.522540842848
 20
1286.262987074724
 30
0.0
 10
1205.780613963045
 20
1286.914391660245
 30
0.0
 10
1206.04809050065
 20
1288.077495533137
 30
0.0
 10
1206.249276537452
 20
1289.913343470792
 30
0.0
 10
1206.370307477948
 20
1291.752419084196
 30
0.0
 10
1206.392014245934
 20
1293.262825279824
 30
0.0
 10
1206.402867810705
 20
1294.018040956626
 30
0.0
  0
SPLINE
  5
1C0
330
1F
100
AcDbEntity
  8
0
  6
Continuous
 62
     8
370
    18
100
AcDbSpline
210
0.0
220
0.0
230
1.0
 70
     8
 71
     3
 72
    11
 73
     7
 74
     0
 42
0.000000001
 43
0.00000001
 40
0.0
 40
0.0
 40
0.0
 40
0.0
 40
0.3598580230790384
 40
0.7246062069006082
 40
0.8621677510649427
 40
0.9999999999999999
 40
0.9999999999999999
 40
0.9999999999999999
 40
0.9999999999999999
 10
1293.986248905495
 20
1289.298506880764
 30
0.0
 10
1293.989501001746
 20
1289.844803229395
 30
0.0
 10
1293.996049387438
 20
1290.944819623744
 30
0.0
 10
1293.98999088444
 20
1292.379750931968
 30
0.0
 10
1293.988875328467
 20
1293.476000468942
 30
0.0
 10
1293.988778978812
 20
1293.958097835335
 30
0.0
 10
1293.988730756629
 20
1294.199383462973
 30
0.0
  0
SPLINE
  5
1C1
330
1F
100
AcDbEntity
  8
0
  6
Continuous
 62
     8
370
    18
100
AcDbSpline
210
0.0
220
0.0
230
1.0
 70
     8
 71
     3
 72
    16
 73
    12
 74
     0
 42
0.000000001
 43
0.00000001
 40
0.0
 40
0.0
 40
0.0
 40
0.0
 40
0.0117733620155406
 40
0.022711390288139
 40
0.0341085178796149
 40
0.0448724470144658
 40
0.0843977891274381
 40
0.1801725761900284
 40
0.6004756555876758
 40
0.7301077904365337
 40
1.0
 40
1.0
 40
1.0
 40
1.0
 10
1293.548393458233
 20
1286.165223776361
 30
0.0
 10
1293.565654538474
 20
1286.161870408938
 30
0.0
 10
1293.598952005213
 20
1286.155401599415
 30
0.0
 10
1293.653480463851
 20
1286.157465137602
 30
0.0
 10
1293.701891462724
 20
1286.171105322473
 30
0.0
 10
1293.773840563286
 20
1286.211683265373
 30
0.0
 10
1293.867849213024
 20
1286.342349755404
 30
0.0
 10
1293.992958037807
 20
1286.869738633732
 30
0.0
 10
1293.972526602396
 20
1287.550808230088
 30
0.0
 10
1293.975630652991
 20
1288.481379435018
 30
0.0
 10
1293.981967888521
 20
1288.969061290395
 30
0.0
 10
1293.986248905495
 20
1289.298506880764
 30
0.0
  0
SPLINE
  5
1C2
330
1F
100
AcDbEntity
  8
0
  6
Continuous
 62
     8
370
    18
100
AcDbSpline
210
0.0
220
0.0
230
1.0
 70
     8
 71
     3
 72
    12
 73
     8
 74
     0
 42
0.000000001
 43
0.00000001
 40
0.0
 40
0.0
 40
0.0
 40
0.0
 40
0.0542100646910409
 40
0.3612059465304565
 40
0.5267652948496022
 40
0.7633787062243836
 40
1.0
 40
1.0
 40
1.0
 40
1.0
 10
1293.548393458233
 20
1286.165223776361
 30
0.0
 10
1293.50966164699
 20
1286.262987074724
 30
0.0
 10
1293.251588526793
 20
1286.914391660245
 30
0.0
 10
1292.984111989189
 20
1288.077495533137
 30
0.0
 10
1292.782925952386
 20
1289.913343470792
 30
0.0
 10
1292.66189501189
 20
1291.752419084196
 30
0.0
 10
1292.640188243905
 20
1293.262825279824
 30
0.0
 10
1292.629334679134
 20
1294.018040956626
 30
0.0
  0
LINE
  5
1C3
330
1F
100
AcDbEntity
  8
0
  6
Continuous
 62
     8
370
    18
100
AcDbLine
 10
1213.5185349311
 20
1286.472492373
 30
0.0
 11
1205.4838090316
 21
1286.1652237764
 31
0.0
  0
LINE
  5
1C4
330
1F
100
AcDbEntity
  8
0
  6
Continuous
 62
     8
370
    18
100
AcDbLine
 10
1285.5136675587
 20
1286.472492373
 30
0.0
 11
1293.5483934582
 21
1286.1652237764
 31
0.0
  0
ARC
  5
1C5
330
1F
100
AcDbEntity
  8
0
  6
Continuous
 62
     8
370
    18
100
AcDbCircle
 10
1284.265162093
 20
1284.5618425523
 30
0.0
 40
4.876403199920288
100
AcDbArc
 50
80.3932584449
 51
98.1942841503
  0
ARC
  5
1C6
330
1F
100
AcDbEntity
  8
0
  6
Continuous
 62
     8
370
    18
100
AcDbCircle
 10
1214.7670403969
 20
1284.5618425523
 30
0.0
 40
4.876403199913421
100
AcDbArc
 50
81.8057158497
 51
99.6067415552
  0
ARC
  5
1C7
330
1F
100
AcDbEntity
  8
0
  6
Continuous
 62
     8
370
    18
100
AcDbCircle
 10
1295.0019629237
 20
1284.6735432035
 30
0.0
 40
4.735183627163308
100
AcDbArc
 50
83.1980176218
 51
102.3864072814
  0
ARC
  5
1C8
330
1F
100
AcDbEntity
  8
0
  6
Continuous
 62
     8
370
    18
100
AcDbCircle
 10
1204.0302395661
 20
1284.6735432035
 30
0.0
 40
4.735183627175248
100
AcDbArc
 50
77.6135927186
 51
96.8019823782
  0
SPLINE
  5
1C9
330
1F
100
AcDbEntity
  8
0
  6
Continuous
 62
     8
370
    18
100
AcDbSpline
210
0.0
220
0.0
230
1.0
 70
     8
 71
     3
 72
    13
 73
     9
 74
     0
 42
0.000000001
 43
0.00000001
 40
0.0
 40
0.0
 40
0.0
 40
0.0
 40
0.3455606136556857
 40
0.7377948233628918
 40
0.8482878985160511
 40
0.9091433588593539
 40
0.9540191324658095
 40
1.0
 40
1.0
 40
1.0
 40
1.0
 10
1203.469412354046
 20
1289.375397818554
 30
0.0
 10
1203.579400263442
 20
1288.874226472461
 30
0.0
 10
1203.814231743009
 20
1287.80419241721
 30
0.0
 10
1204.164050487236
 20
1286.717092270799
 30
0.0
 10
1204.718009633484
 20
1286.136910523033
 30
0.0
 10
1205.027364394346
 20
1285.977594647308
 30
0.0
 10
1205.286166769473
 20
1285.912793034931
 30
0.0
 10
1205.449179621584
 20
1285.91273587229
 30
0.0
 10
1205.531677414427
 20
1285.912706943334
 30
0.0
  0
SPLINE
  5
1CA
330
1F
100
AcDbEntity
  8
0
  6
Continuous
 62
     8
370
    18
100
AcDbSpline
210
0.0
220
0.0
230
1.0
 70
     8
 71
     3
 72
    11
 73
     7
 74
     0
 42
0.000000001
 43
0.00000001
 40
0.0
 40
0.0
 40
0.0
 40
0.0
 40
0.2499068565621712
 40
0.4998445626142471
 40
0.7498974475611084
 40
1.0
 40
1.0
 40
1.0
 40
1.0
 10
1205.531677414427
 20
1285.912706943334
 30
0.0
 10
1206.197712590937
 20
1285.944814775471
 30
0.0
 10
1207.529865161973
 20
1286.009034403263
 30
0.0
 10
1209.530941452208
 20
1286.092908063103
 30
0.0
 10
1211.534246592252
 20
1286.165975885264
 30
0.0
 10
1212.871469263356
 20
1286.201974463479
 30
0.0
 10
1213.540146994764
 20
1286.219975539989
 30
0.0
  0
SPLINE
  5
1CB
330
1F
100
AcDbEntity
  8
0
  6
Continuous
 62
     8
370
    18
100
AcDbSpline
210
0.0
220
0.0
230
1.0
 70
     8
 71
     3
 72
    14
 73
    10
 74
     0
 42
0.000000001
 43
0.00000001
 40
0.0
 40
0.0
 40
0.0
 40
0.0
 40
0.0519065920714219
 40
0.1222358501282243
 40
0.1884605327707504
 40
0.3425806135662433
 40
0.4883356727123463
 40
0.6976961013112909
 40
1.0
 40
1.0
 40
1.0
 40
1.0
 10
1213.540146994764
 20
1286.219975539989
 30
0.0
 10
1213.623596325213
 20
1286.227159926698
 30
0.0
 10
1213.820112787631
 20
1286.244078579647
 30
0.0
 10
1214.082637685781
 20
1286.357717837797
 30
0.0
 10
1214.397391894227
 20
1286.593655647369
 30
0.0
 10
1214.668958581764
 20
1286.966493024678
 30
0.0
 10
1214.939875889682
 20
1287.533724561976
 30
0.0
 10
1215.20678549623
 20
1288.320770307084
 30
0.0
 10
1215.367261754278
 20
1288.991925096919
 30
0.0
 10
1215.462075083775
 20
1289.38845989282
 30
0.0
  0
SPLINE
  5
1CC
330
1F
100
AcDbEntity
  8
0
  6
Continuous
 62
     8
370
    18
100
AcDbSpline
210
0.0
220
0.0
230
1.0
 70
     8
 71
     3
 72
     9
 73
     5
 74
     0
 42
0.000000001
 43
0.00000001
 40
0.0
 40
0.0
 40
0.0
 40
0.0
 40
0.0293344768637993
 40
1.0
 40
1.0
 40
1.0
 40
1.0
 10
1249.516101244919
 20
1282.388845181716
 30
0.0
 10
1249.508040227581
 20
1282.388841439252
 30
0.0
 10
1249.233243531004
 20
1282.388713860239
 30
0.0
 10
1248.958823030915
 20
1282.413856870403
 30
0.0
 10
1248.692452512636
 20
1282.438262323518
 30
0.0
  0
SPLINE
  5
1CD
330
1F
100
AcDbEntity
  8
0
  6
Continuous
 62
     8
370
    18
100
AcDbSpline
210
0.0
220
0.0
230
1.0
 70
     8
 71
     3
 72
    12
 73
     8
 74
     0
 42
0.000000001
 43
0.00000001
 40
0.0
 40
0.0
 40
0.0
 40
0.0
 40
0.1168311330920586
 40
0.3726334449299165
 40
0.6338270238932957
 40
0.8149152954169163
 40
1.0
 40
1.0
 40
1.0
 40
1.0
 10
1248.15072556865
 20
1282.471740794221
 30
0.0
 10
1247.474332482024
 20
1282.50096459513
 30
0.0
 10
1245.316973571556
 20
1282.594174044688
 30
0.0
 10
1241.677096412958
 20
1283.403763902173
 30
0.0
 10
1237.780718060391
 20
1284.937044553044
 30
0.0
 10
1234.425650328381
 20
1286.917699224635
 30
0.0
 10
1232.65702322861
 20
1288.520542302387
 30
0.0
 10
1231.763058229447
 20
1289.330710602334
 30
0.0
  0
SPLINE
  5
1CE
330
1F
100
AcDbEntity
  8
0
  6
Continuous
 62
     8
370
    18
100
AcDbSpline
210
0.0
220
0.0
230
1.0
 70
     8
 71
     3
 72
    14
 73
    10
 74
     0
 42
0.000000001
 43
0.00000001
 40
0.0
 40
0.0
 40
0.0
 40
0.0
 40
0.051906592071487
 40
0.122235850128302
 40
0.1884605327708317
 40
0.3425806135663179
 40
0.4883356727124278
 40
0.6976961013113858
 40
1.0
 40
1.0
 40
1.0
 40
1.0
 10
1285.492055495074
 20
1286.219975539988
 30
0.0
 10
1285.408606164626
 20
1286.227159926698
 30
0.0
 10
1285.212089702208
 20
1286.244078579648
 30
0.0
 10
1284.949564804057
 20
1286.357717837797
 30
0.0
 10
1284.634810595611
 20
1286.593655647369
 30
0.0
 10
1284.363243908074
 20
1286.966493024678
 30
0.0
 10
1284.092326600156
 20
1287.533724561976
 30
0.0
 10
1283.825416993608
 20
1288.320770307084
 30
0.0
 10
1283.66494073556
 20
1288.991925096919
 30
0.0
 10
1283.570127406063
 20
1289.388459892819
 30
0.0
  0
SPLINE
  5
1CF
330
1F
100
AcDbEntity
  8
0
  6
Continuous
 62
     8
370
    18
100
AcDbSpline
210
0.0
220
0.0
230
1.0
 70
     8
 71
     3
 72
    11
 73
     7
 74
     0
 42
0.000000001
 43
0.00000001
 40
0.0
 40
0.0
 40
0.0
 40
0.0
 40
0.249906856562332
 40
0.4998445626143539
 40
0.7498974475611629
 40
1.0
 40
1.0
 40
1.0
 40
1.0
 10
1293.500525075413
 20
1285.912706943334
 30
0.0
 10
1292.834489898902
 20
1285.944814775471
 30
0.0
 10
1291.502337327865
 20
1286.009034403263
 30
0.0
 10
1289.50126103763
 20
1286.092908063103
 30
0.0
 10
1287.497955897587
 20
1286.165975885264
 30
0.0
 10
1286.160733226482
 20
1286.201974463478
 30
0.0
 10
1285.492055495074
 20
1286.219975539988
 30
0.0
  0
SPLINE
  5
1D0
330
1F
100
AcDbEntity
  8
0
  6
Continuous
 62
     8
370
    18
100
AcDbSpline
210
0.0
220
0.0
230
1.0
 70
     8
 71
     3
 72
    13
 73
     9
 74
     0
 42
0.000000001
 43
0.00000001
 40
0.0
 40
0.0
 40
0.0
 40
0.0
 40
0.3455606136558521
 40
0.7377948233631574
 40
0.8482878985163455
 40
0.9091433588596637
 40
0.9540191324661306
 40
0.9999999999999999
 40
0.9999999999999999
 40
0.9999999999999999
 40
0.9999999999999999
 10
1295.562790135793
 20
1289.375397818554
 30
0.0
 10
1295.452802226397
 20
1288.874226472461
 30
0.0
 10
1295.217970746829
 20
1287.80419241721
 30
0.0
 10
1294.868152002602
 20
1286.717092270799
 30
0.0
 10
1294.314192856354
 20
1286.136910523033
 30
0.0
 10
1294.004838095492
 20
1285.977594647309
 30
0.0
 10
1293.746035720366
 20
1285.912793034931
 30
0.0
 10
1293.583022868256
 20
1285.912735872291
 30
0.0
 10
1293.500525075413
 20
1285.912706943334
 30
0.0
  0
SPLINE
  5
1D1
330
1F
100
AcDbEntity
  8
0
  6
Continuous
 62
     8
370
    18
100
AcDbSpline
210
0.0
220
0.0
230
1.0
 70
     8
 71
     3
 72
    13
 73
     9
 74
     0
 42
0.000000001
 43
0.00000001
 40
0.0
 40
0.0
 40
0.0
 40
0.0
 40
0.0016043355124024
 40
0.2727926059062314
 40
0.4428579083924353
 40
0.615972383532483
 40
0.8046605251224438
 40
1.0
 40
1.0
 40
1.0
 40
1.0
 10
1321.207680542215
 20
1282.388845181716
 30
0.0
 10
1321.213135392391
 20
1282.388847911735
 30
0.0
 10
1322.140648859911
 20
1282.389312109399
 30
0.0
 10
1323.553485185746
 20
1282.587142437844
 30
0.0
 10
1325.27417481852
 20
1283.416134613738
 30
0.0
 10
1326.576820692658
 20
1284.559485527846
 30
0.0
 10
1327.733020436908
 20
1286.215669543581
 30
0.0
 10
1328.253884513848
 20
1287.821259661303
 30
0.0
 10
1328.518827218251
 20
1288.637959078259
 30
0.0
  0
SPLINE
  5
1D2
330
1F
100
AcDbEntity
  8
0
  6
Continuous
 62
     8
370
    18
100
AcDbSpline
210
0.0
220
0.0
230
1.0
 70
     8
 71
     3
 72
    13
 73
     9
 74
     0
 42
0.000000001
 43
0.00000001
 40
0.0
 40
0.0
 40
0.0
 40
0.0
 40
0.1765903405244134
 40
0.3535107282095477
 40
0.5953143040081176
 40
0.8373696963545592
 40
0.9987093023973763
 40
1.0
 40
1.0
 40
1.0
 40
1.0
 10
1267.269144260391
 20
1289.330710602334
 30
0.0
 10
1266.348061918505
 20
1288.49815329643
 30
0.0
 10
1264.504175732805
 20
1286.831482635894
 30
0.0
 10
1261.057521706529
 20
1284.843996332435
 30
0.0
 10
1257.071513274651
 20
1283.299159368804
 30
0.0
 10
1253.067832195607
 20
1282.529938815242
 30
0.0
 10
1250.539851162385
 20
1282.389140366728
 30
0.0
 10
1249.524162149587
 20
1282.388847505974
 30
0.0
 10
1249.516101244919
 20
1282.388845181716
 30
0.0
  0
SPLINE
  5
1D3
330
1F
100
AcDbEntity
  8
0
  6
Continuous
 62
     8
370
    18
100
AcDbSpline
210
0.0
220
0.0
230
1.0
 70
     8
 71
     3
 72
     9
 73
     5
 74
     0
 42
0.000000001
 43
0.00000001
 40
0.0
 40
0.0
 40
0.0
 40
0.0
 40
0.8741204396862015
 40
1.0
 40
1.0
 40
1.0
 40
1.0
 10
1213.963398408165
 20
1317.088742223881
 30
0.0
 10
1213.962286648865
 20
1316.297139812843
 30
0.0
 10
1213.961014788318
 20
1315.391541024508
 30
0.0
 10
1213.959830981383
 20
1314.478536692289
 30
0.0
 10
1213.959681964286
 20
1314.363608108385
 30
0.0
  0
LINE
  5
1D4
330
1F
100
AcDbEntity
  8
0
  6
Continuous
 62
     8
370
    18
100
AcDbLine
 10
1212.6239870713
 20
1317.3501266879
 30
0.0
 11
1212.5926099924
 21
1314.6285986215
 31
0.0
  0
ARC
  5
1D5
330
1F
100
AcDbEntity
  8
0
  6
Continuous
 62
     8
370
    18
100
AcDbCircle
 10
1212.6492079476
 20
1313.9169036784
 30
0.0
 40
3.433315645979025
100
AcDbArc
 50
67.4942658279
 51
90.4208942352
  0
LINE
  5
1D6
330
1F
100
AcDbEntity
  8
0
  6
Continuous
 62
     8
370
    18
100
AcDbLine
 10
1286.4082154185
 20
1317.3501266879
 30
0.0
 11
1286.4395924974
 21
1314.6285986215
 31
0.0
  0
SPLINE
  5
1D7
330
1F
100
AcDbEntity
  8
0
  6
Continuous
 62
     8
370
    18
100
AcDbSpline
210
0.0
220
0.0
230
1.0
 70
     8
 71
     3
 72
     9
 73
     5
 74
     0
 42
0.000000001
 43
0.00000001
 40
0.0
 40
0.0
 40
0.0
 40
0.0
 40
0.8741204396862015
 40
1.0
 40
1.0
 40
1.0
 40
1.0
 10
1285.068804081673
 20
1317.088742223881
 30
0.0
 10
1285.069915840973
 20
1316.297139812843
 30
0.0
 10
1285.07118770152
 20
1315.391541024508
 30
0.0
 10
1285.072371508456
 20
1314.478536692289
 30
0.0
 10
1285.072520525553
 20
1314.363608108385
 30
0.0
  0
ARC
  5
1D8
330
1F
100
AcDbEntity
  8
0
  6
Continuous
 62
     8
370
    18
100
AcDbCircle
 10
1286.3829945422
 20
1313.9169036784
 30
0.0
 40
3.433315645979532
100
AcDbArc
 50
89.5791057648
 51
112.5057341721
  0
LINE
  5
1D9
330
1F
100
AcDbEntity
  8
0
  6
Continuous
 62
     8
370
    18
100
AcDbLine
 10
1292.5610319162
 20
1314.6285986215
 30
0.0
 11
1292.5787616544
 21
1317.3501266879
 31
0.0
  0
ARC
  5
1DA
330
1F
100
AcDbEntity
  8
0
  6
Continuous
 62
     8
370
    18
100
AcDbCircle
 10
1292.6240123253
 20
1313.9786483709
 30
0.0
 40
3.371781971735905
100
AcDbArc
 50
66.5834471453
 51
90.7689555
  0
LINE
  5
1DB
330
1F
100
AcDbEntity
  8
0
  6
Continuous
 62
     8
370
    18
100
AcDbLine
 10
1293.9596005441
 20
1314.3545575422
 30
0.0
 11
1293.9640023647
 21
1317.0727298758
 31
0.0
  0
LINE
  5
1DC
330
1F
100
AcDbEntity
  8
0
  6
Continuous
 62
     8
370
    18
100
AcDbLine
 10
1205.0726019457
 20
1314.3545575422
 30
0.0
 11
1205.0682001251
 21
1317.0727298758
 31
0.0
  0
ARC
  5
1DD
330
1F
100
AcDbEntity
  8
0
  6
Continuous
 62
     8
370
    18
100
AcDbCircle
 10
1206.4081901646
 20
1313.9786483709
 30
0.0
 40
3.371781971736357
100
AcDbArc
 50
89.2310445
 51
113.4165528547
  0
LINE
  5
1DE
330
1F
100
AcDbEntity
  8
0
  6
Continuous
 62
     8
370
    18
100
AcDbLine
 10
1206.4711705736
 20
1314.6285986215
 30
0.0
 11
1206.4534408354
 21
1317.3501266879
 31
0.0
  0
LINE
  5
1DF
330
1F
100
AcDbEntity
  8
0
  6
Continuous
 62
     8
370
    18
100
AcDbLine
 10
1212.6239870713
 20
1317.3501266879
 30
0.0
 11
1206.4534408354
 21
1317.3501266879
 31
0.0
  0
LINE
  5
1E0
330
1F
100
AcDbEntity
  8
0
  6
Continuous
 62
     8
370
    18
100
AcDbLine
 10
1286.4082154185
 20
1317.3501266879
 30
0.0
 11
1292.5787616544
 21
1317.3501266879
 31
0.0
  0
ARC
  5
1E1
330
1F
100
AcDbEntity
  8
0
  6
Continuous
 62
     8
370
    18
100
AcDbCircle
 10
1215.8348643522
 20
1322.0088235225
 30
0.0
 40
5.263989434308497
100
AcDbArc
 50
249.1745380236
 51
271.5959369635
  0
ARC
  5
1E2
330
1F
100
AcDbEntity
  8
0
  6
Continuous
 62
     8
370
    18
100
AcDbCircle
 10
1283.1973381377
 20
1322.0088235225
 30
0.0
 40
5.263989434311172
100
AcDbArc
 50
268.4040630365
 51
290.8254619763
  0
ARC
  5
1E3
330
1F
100
AcDbEntity
  8
0
  6
Continuous
 62
     8
370
    18
100
AcDbCircle
 10
1203.1131068451
 20
1321.7655411093
 30
0.0
 40
5.083784712847124
100
AcDbArc
 50
269.0955075017
 51
292.6173188939
  0
ARC
  5
1E4
330
1F
100
AcDbEntity
  8
0
  6
Continuous
 62
     8
370
    18
100
AcDbCircle
 10
1295.9190956447
 20
1321.7655411093
 30
0.0
 40
5.083784712845642
100
AcDbArc
 50
247.3826811061
 51
270.9044924983
  0
ARC
  5
1E5
330
1F
100
AcDbEntity
  8
0
  6
Continuous
 62
     8
370
    18
100
AcDbCircle
 10
1301.4941963417
 20
1284.9775895709
 30
0.0
 40
16.05029702444532
100
AcDbArc
 50
174.6558034201
 51
175.5605339088
  0
ARC
  5
1E6
330
1F
100
AcDbEntity
  8
0
  6
Continuous
 62
     8
370
    18
100
AcDbCircle
 10
1197.5380061495
 20
1284.977589571
 30
0.0
 40
16.05029702304803
100
AcDbArc
 50
4.4394660912
 51
5.34419658
  0
ARC
  5
1E7
330
1F
100
AcDbEntity
  8
0
  6
Continuous
 62
     8
370
    18
100
AcDbCircle
 10
1198.9524997043
 20
1284.7963198598
 30
0.0
 40
6.673222569468859
100
AcDbArc
 50
9.6304973658
 51
11.8373353032
  0
ARC
  5
1E8
330
1F
100
AcDbEntity
  8
0
  6
Continuous
 62
     8
370
    18
100
AcDbCircle
 10
1300.0797027908
 20
1284.7963198589
 30
0.0
 40
6.673222574846634
100
AcDbArc
 50
168.162664698
 51
170.3695026337
  0
SPLINE
  5
1E9
330
1F
100
AcDbEntity
  8
0
  6
Continuous
 62
     8
370
    18
100
AcDbSpline
210
0.0
220
0.0
230
1.0
 70
     8
 71
     3
 72
    15
 73
    11
 74
     0
 42
0.000000001
 43
0.00000001
 40
0.0
 40
0.0
 40
0.0
 40
0.0
 40
0.0357295768982807
 40
0.0559023856318696
 40
0.0935770997983546
 40
0.1154709098174187
 40
0.216699539289168
 40
0.4238827620184466
 40
0.9068299214990574
 40
1.0
 40
1.0
 40
1.0
 40
1.0
 10
1213.096104132369
 20
1320.752870133466
 30
0.0
 10
1213.155474659826
 20
1320.754763833726
 30
0.0
 10
1213.248365603666
 20
1320.757726711302
 30
0.0
 10
1213.396459541421
 20
1320.716809826875
 30
0.0
 10
1213.504472796017
 20
1320.655059832526
 30
0.0
 10
1213.673706115664
 20
1320.499129252277
 30
0.0
 10
1213.866558295716
 20
1320.105092120074
 30
0.0
 10
1213.987670801674
 20
1319.111108436377
 30
0.0
 10
1213.963360230398
 20
1318.051088486292
 30
0.0
 10
1213.963393093519
 20
1317.222708421366
 30
0.0
 10
1213.963398408165
 20
1317.088742223881
 30
0.0
  0
SPLINE
  5
1EA
330
1F
100
AcDbEntity
  8
0
  6
Continuous
 62
     8
370
    18
100
AcDbSpline
210
0.0
220
0.0
230
1.0
 70
     8
 71
     3
 72
    11
 73
     7
 74
     0
 42
0.000000001
 43
0.00000001
 40
0.0
 40
0.0
 40
0.0
 40
0.0
 40
0.1688447665100279
 40
0.3388483789551207
 40
0.6648683581705722
 40
1.0
 40
1.0
 40
1.0
 40
1.0
 10
1213.096104132369
 20
1320.752870133466
 30
0.0
 10
1213.048056430715
 20
1320.602328507048
 30
0.0
 10
1212.951631257733
 20
1320.300212029699
 30
0.0
 10
1212.801776781654
 20
1319.623012124604
 30
0.0
 10
1212.664058943296
 20
1318.67501747362
 30
0.0
 10
1212.637466523152
 20
1317.795795947616
 30
0.0
 10
1212.62398707133
 20
1317.350126687854
 30
0.0
  0
SPLINE
  5
1EB
330
1F
100
AcDbEntity
  8
0
  6
Continuous
 62
     8
370
    18
100
AcDbSpline
210
0.0
220
0.0
230
1.0
 70
     8
 71
     3
 72
    15
 73
    11
 74
     0
 42
0.000000001
 43
0.00000001
 40
0.0
 40
0.0
 40
0.0
 40
0.0
 40
0.0357295768982807
 40
0.0559023856318696
 40
0.0935770997983546
 40
0.1154709098174187
 40
0.216699539289168
 40
0.4238827620184466
 40
0.9068299214990574
 40
1.0
 40
1.0
 40
1.0
 40
1.0
 10
1285.93609835747
 20
1320.752870133466
 30
0.0
 10
1285.876727830013
 20
1320.754763833726
 30
0.0
 10
1285.783836886173
 20
1320.757726711302
 30
0.0
 10
1285.635742948417
 20
1320.716809826875
 30
0.0
 10
1285.527729693821
 20
1320.655059832526
 30
0.0
 10
1285.358496374174
 20
1320.499129252277
 30
0.0
 10
1285.165644194123
 20
1320.105092120074
 30
0.0
 10
1285.044531688164
 20
1319.111108436377
 30
0.0
 10
1285.06884225944
 20
1318.051088486292
 30
0.0
 10
1285.06880939632
 20
1317.222708421366
 30
0.0
 10
1285.068804081673
 20
1317.088742223881
 30
0.0
  0
SPLINE
  5
1EC
330
1F
100
AcDbEntity
  8
0
  6
Continuous
 62
     8
370
    18
100
AcDbSpline
210
0.0
220
0.0
230
1.0
 70
     8
 71
     3
 72
    11
 73
     7
 74
     0
 42
0.000000001
 43
0.00000001
 40
0.0
 40
0.0
 40
0.0
 40
0.0
 40
0.1688447665100279
 40
0.3388483789551207
 40
0.6648683581705722
 40
1.0
 40
1.0
 40
1.0
 40
1.0
 10
1285.93609835747
 20
1320.752870133466
 30
0.0
 10
1285.984146059123
 20
1320.602328507048
 30
0.0
 10
1286.080571232105
 20
1320.300212029699
 30
0.0
 10
1286.230425708185
 20
1319.623012124604
 30
0.0
 10
1286.368143546542
 20
1318.67501747362
 30
0.0
 10
1286.394735966686
 20
1317.795795947616
 30
0.0
 10
1286.408215418508
 20
1317.350126687854
 30
0.0
  0
SPLINE
  5
1ED
330
1F
100
AcDbEntity
  8
0
  6
Continuous
 62
     8
370
    18
100
AcDbSpline
210
0.0
220
0.0
230
1.0
 70
     8
 71
     3
 72
    14
 73
    10
 74
     0
 42
0.000000001
 43
0.00000001
 40
0.0
 40
0.0
 40
0.0
 40
0.0
 40
0.6113158653943894
 40
0.79340720535834
 40
0.8854170307688745
 40
0.9194198313361063
 40
0.9434501870529949
 40
0.9749897870426378
 40
1.0
 40
1.0
 40
1.0
 40
1.0
 10
1205.068200125124
 20
1317.072729875828
 30
0.0
 10
1205.041390981488
 20
1317.955053196423
 30
0.0
 10
1205.006596255987
 20
1319.100192263873
 30
0.0
 10
1205.163202284364
 20
1320.235848376654
 30
0.0
 10
1205.368289326217
 20
1320.613595438529
 30
0.0
 10
1205.554268357926
 20
1320.754636332538
 30
0.0
 10
1205.69122724133
 20
1320.811841568465
 30
0.0
 10
1205.830107973952
 20
1320.834179373932
 30
0.0
 10
1205.92473275031
 20
1320.824794705115
 30
0.0
 10
1205.966582328309
 20
1320.820644159721
 30
0.0
  0
SPLINE
  5
1EE
330
1F
100
AcDbEntity
  8
0
  6
Continuous
 62
     8
370
    18
100
AcDbSpline
210
0.0
220
0.0
230
1.0
 70
     8
 71
     3
 72
    11
 73
     7
 74
     0
 42
0.000000001
 43
0.00000001
 40
0.0
 40
0.0
 40
0.0
 40
0.0
 40
0.3166351430858549
 40
0.6421699667518311
 40
0.8203579608774874
 40
1.0
 40
1.0
 40
1.0
 40
1.0
 10
1206.453440835392
 20
1317.350126687854
 30
0.0
 10
1206.4422046861
 20
1317.782568983957
 30
0.0
 10
1206.419416572479
 20
1318.65960825447
 30
0.0
 10
1206.283761001995
 20
1319.622892469207
 30
0.0
 10
1206.126237413681
 20
1320.336071441553
 30
0.0
 10
1206.019944663892
 20
1320.658682942256
 30
0.0
 10
1205.966582328309
 20
1320.820644159721
 30
0.0
  0
SPLINE
  5
1EF
330
1F
100
AcDbEntity
  8
0
  6
Continuous
 62
     8
370
    18
100
AcDbSpline
210
0.0
220
0.0
230
1.0
 70
     8
 71
     3
 72
    11
 73
     7
 74
     0
 42
0.000000001
 43
0.00000001
 40
0.0
 40
0.0
 40
0.0
 40
0.0
 40
0.3166351430858549
 40
0.6421699667518311
 40
0.8203579608774874
 40
1.0
 40
1.0
 40
1.0
 40
1.0
 10
1292.578761654447
 20
1317.350126687854
 30
0.0
 10
1292.589997803739
 20
1317.782568983957
 30
0.0
 10
1292.612785917359
 20
1318.65960825447
 30
0.0
 10
1292.748441487843
 20
1319.622892469207
 30
0.0
 10
1292.905965076157
 20
1320.336071441553
 30
0.0
 10
1293.012257825947
 20
1320.658682942256
 30
0.0
 10
1293.06562016153
 20
1320.820644159721
 30
0.0
  0
SPLINE
  5
1F0
330
1F
100
AcDbEntity
  8
0
  6
Continuous
 62
     8
370
    18
100
AcDbSpline
210
0.0
220
0.0
230
1.0
 70
     8
 71
     3
 72
    14
 73
    10
 74
     0
 42
0.000000001
 43
0.00000001
 40
0.0
 40
0.0
 40
0.0
 40
0.0
 40
0.6113158653943894
 40
0.79340720535834
 40
0.8854170307688745
 40
0.9194198313361063
 40
0.9434501870529949
 40
0.9749897870426378
 40
1.0
 40
1.0
 40
1.0
 40
1.0
 10
1293.964002364714
 20
1317.072729875828
 30
0.0
 10
1293.990811508351
 20
1317.955053196423
 30
0.0
 10
1294.025606233851
 20
1319.100192263873
 30
0.0
 10
1293.869000205475
 20
1320.235848376654
 30
0.0
 10
1293.663913163622
 20
1320.613595438529
 30
0.0
 10
1293.477934131912
 20
1320.754636332538
 30
0.0
 10
1293.340975248509
 20
1320.811841568465
 30
0.0
 10
1293.202094515886
 20
1320.834179373932
 30
0.0
 10
1293.107469739529
 20
1320.824794705115
 30
0.0
 10
1293.06562016153
 20
1320.820644159721
 30
0.0
  0
LINE
  5
1F1
330
1F
100
AcDbEntity
  8
0
  6
Continuous
 62
     8
370
    18
100
AcDbLine
 10
1293.0656201615
 20
1320.8206441597
 30
0.0
 11
1285.9360983575
 21
1320.7528701335
 31
0.0
  0
LINE
  5
1F2
330
1F
100
AcDbEntity
  8
0
  6
Continuous
 62
     8
370
    18
100
AcDbLine
 10
1205.9665823283
 20
1320.8206441597
 30
0.0
 11
1213.0961041324
 21
1320.7528701335
 31
0.0
  0
ARC
  5
1F3
330
1F
100
AcDbEntity
  8
0
  6
Continuous
 62
     8
370
    18
100
AcDbCircle
 10
1163.1454378098
 20
1323.0425788394
 30
0.0
 40
42.87875244916646
100
AcDbArc
 50
357.0296588464
 51
358.2432093098
  0
ARC
  5
1F4
330
1F
100
AcDbEntity
  8
0
  6
Continuous
 62
     8
370
    18
100
AcDbCircle
 10
1335.8867646802
 20
1323.0425788394
 30
0.0
 40
42.87875244932276
100
AcDbArc
 50
181.7567906903
 51
182.9703411536
  0
ARC
  5
1F5
330
1F
100
AcDbEntity
  8
0
  6
Continuous
 62
     8
370
    18
100
AcDbCircle
 10
1119.7132404143
 20
1323.0014920412
 30
0.0
 40
93.4099327516702
100
AcDbArc
 50
358.6206071693
 51
359.1635686825
  0
ARC
  5
1F6
330
1F
100
AcDbEntity
  8
0
  6
Continuous
 62
     8
370
    18
100
AcDbCircle
 10
1379.3189620644
 20
1323.001492041
 30
0.0
 40
93.40993274054037
100
AcDbArc
 50
180.8364313175
 51
181.3793928307
  0
SPLINE
  5
1F7
330
1F
100
AcDbEntity
  8
0
  6
Continuous
 62
     8
370
    18
100
AcDbSpline
210
0.0
220
0.0
230
1.0
 70
     8
 71
     3
 72
    20
 73
    16
 74
     0
 42
0.000000001
 43
0.00000001
 40
0.0
 40
0.0
 40
0.0
 40
0.0
 40
0.0262949951381542
 40
0.1141805994167154
 40
0.2050009162995117
 40
0.301821359164353
 40
0.4001096700271504
 40
0.4957119737796382
 40
0.5689984974216389
 40
0.6442268808353193
 40
0.7075782994275371
 40
0.7721105905636341
 40
0.8325062307491627
 40
0.8941019040528457
 40
1.0
 40
1.0
 40
1.0
 40
1.0
 10
1329.459441865911
 20
1288.934709448921
 30
0.0
 10
1329.535256862416
 20
1289.219929061262
 30
0.0
 10
1329.864467866271
 20
1290.458436470426
 30
0.0
 10
1330.521838868426
 20
1292.931944896719
 30
0.0
 10
1331.418391810513
 20
1296.601271823294
 30
0.0
 10
1332.224396909326
 20
1300.71844153169
 30
0.0
 10
1332.680420659778
 20
1305.079131886793
 30
0.0
 10
1332.558545744486
 20
1308.990402212197
 30
0.0
 10
1332.211335562619
 20
1312.287151578279
 30
0.0
 10
1331.950013397891
 20
1314.899525089356
 30
0.0
 10
1331.949277091685
 20
1317.172186307655
 30
0.0
 10
1332.092901561682
 20
1319.029870748868
 30
0.0
 10
1332.408258689399
 20
1320.594875876268
 30
0.0
 10
1332.610358204758
 20
1322.10938757086
 30
0.0
 10
1332.514153254001
 20
1322.615264764158
 30
0.0
 10
1332.45332758179
 20
1322.935106103886
 30
0.0
  0
ARC
  5
1F8
330
1F
100
AcDbEntity
  8
0
  6
Continuous
 62
     8
370
    18
100
AcDbCircle
 10
1329.7857971863
 20
1286.2611392631
 30
0.0
 40
2.693415180362694
100
AcDbArc
 50
96.9595071703
 51
118.0599624147
  0
ARC
  5
1F9
330
1F
100
AcDbEntity
  8
0
  6
Continuous
 62
     8
370
    18
100
AcDbCircle
 10
1334.4427649642
 20
1325.1851229899
 30
0.0
 40
3.003404249505842
100
AcDbArc
 50
228.5172796838
 51
270.3109595547
  0
SPLINE
  5
1FA
330
1F
100
AcDbEntity
  8
0
  6
Continuous
 62
     8
370
    18
100
AcDbSpline
210
0.0
220
0.0
230
1.0
 70
     8
 71
     3
 72
    22
 73
    18
 74
     0
 42
0.000000001
 43
0.00000001
 40
0.0
 40
0.0
 40
0.0
 40
0.0
 40
0.0604782955210949
 40
0.1209107522713747
 40
0.188474913944386
 40
0.2560958620764553
 40
0.3308528003812596
 40
0.40560413259029
 40
0.4728286997367329
 40
0.5400039932488332
 40
0.6145903506605183
 40
0.6892095991779493
 40
0.6973759092103065
 40
0.7789456219531096
 40
0.8605868885159255
 40
0.930299654574024
 40
1.0
 40
1.0
 40
1.0
 40
1.0
 10
1334.459065164172
 20
1322.181762973291
 30
0.0
 10
1334.494319273609
 20
1322.020995952991
 30
0.0
 10
1334.564800772069
 20
1321.699583763754
 30
0.0
 10
1334.601981811099
 20
1320.751022629627
 30
0.0
 10
1334.277498408228
 20
1319.427775617427
 30
0.0
 10
1333.870608613815
 20
1317.62968888167
 30
0.0
 10
1333.777905150441
 20
1315.365105287937
 30
0.0
 10
1334.035103267953
 20
1312.785092131039
 30
0.0
 10
1334.447247175198
 20
1310.067296151424
 30
0.0
 10
1334.689238027761
 20
1307.164308181584
 30
0.0
 10
1334.620442958026
 20
1304.023334103887
 30
0.0
 10
1334.319234779814
 20
1301.72693309503
 30
0.0
 10
1333.877213354223
 20
1299.37553727092
 30
0.0
 10
1333.293613876723
 20
1296.964747421135
 30
0.0
 10
1332.348721254114
 20
1293.893197674689
 30
0.0
 10
1331.42524708352
 20
1291.17788157973
 30
0.0
 10
1330.894850914982
 20
1289.665688739978
 30
0.0
 10
1330.629676457816
 20
1288.909659682457
 30
0.0
  0
ARC
  5
1FB
330
1F
100
AcDbEntity
  8
0
  6
Continuous
 62
     8
370
    18
100
AcDbCircle
 10
1329.9608731673
 20
1285.0126772323
 30
0.0
 40
3.953956253993653
100
AcDbArc
 50
80.2617216981
 51
97.2857328837
  0
SPLINE
  5
1FC
330
1F
100
AcDbEntity
  8
0
  6
Continuous
 62
     8
370
    18
100
AcDbSpline
210
0.0
220
0.0
230
1.0
 70
     8
 71
     3
 72
    11
 73
     7
 74
     0
 42
0.000000001
 43
0.00000001
 40
0.0
 40
0.0
 40
0.0
 40
0.0
 40
0.2101620489852549
 40
0.6011741985698229
 40
0.9956880907203882
 40
0.9999999999999999
 40
0.9999999999999999
 40
0.9999999999999999
 40
0.9999999999999999
 10
1325.26610124492
 20
1283.060317629713
 30
0.0
 10
1325.002986098117
 20
1282.969067473258
 30
0.0
 10
1324.250338137772
 20
1282.708043944314
 30
0.0
 10
1322.917032946387
 20
1282.45616911784
 30
0.0
 10
1321.796313532025
 20
1282.389075047138
 30
0.0
 10
1321.213976485223
 20
1282.388847640327
 30
0.0
 10
1321.207680542215
 20
1282.388845181716
 30
0.0
  0
SPLINE
  5
1FD
330
1F
100
AcDbEntity
  8
0
  6
Continuous
 62
     8
370
    18
100
AcDbSpline
210
0.0
220
0.0
230
1.0
 70
     8
 71
     3
 72
    12
 73
     8
 74
     0
 42
0.000000001
 43
0.00000001
 40
0.0
 40
0.0
 40
0.0
 40
0.0
 40
0.2467373750775739
 40
0.5009759128091723
 40
0.7464462631527636
 40
0.9969045478149181
 40
1.0
 40
1.0
 40
1.0
 40
1.0
 10
1330.629676457816
 20
1288.909659682457
 30
0.0
 10
1330.337728849172
 20
1288.199150258826
 30
0.0
 10
1329.744958014652
 20
1286.756530927439
 30
0.0
 10
1328.485419931474
 20
1285.121057263821
 30
0.0
 10
1327.002322638301
 20
1283.863267762647
 30
0.0
 10
1325.875172799088
 20
1283.29125017579
 30
0.0
 10
1325.273447271924
 20
1283.063102912835
 30
0.0
 10
1325.26610124492
 20
1283.060317629713
 30
0.0
  0
SPLINE
  5
1FE
330
1F
100
AcDbEntity
  8
0
  6
Continuous
 62
     8
370
    18
100
AcDbSpline
210
0.0
220
0.0
230
1.0
 70
     8
 71
     3
 72
    10
 73
     6
 74
     0
 42
0.000000001
 43
0.00000001
 40
0.0
 40
0.0
 40
0.0
 40
0.0
 40
0.0157305655563108
 40
0.5063466828768542
 40
1.0
 40
1.0
 40
1.0
 40
1.0
 10
1334.436922169473
 20
1322.388845181716
 30
0.0
 10
1334.436476099902
 20
1322.388833117512
 30
0.0
 10
1334.422117693849
 20
1322.388444786292
 30
0.0
 10
1334.416357965031
 20
1322.356799226042
 30
0.0
 10
1334.444800176034
 20
1322.240228293414
 30
0.0
 10
1334.459065164172
 20
1322.18176297329
 30
0.0
  0
SPLINE
  5
1FF
330
1F
100
AcDbEntity
  8
0
  6
Continuous
 62
     8
370
    18
100
AcDbSpline
210
0.0
220
0.0
230
1.0
 70
     8
 71
     3
 72
    12
 73
     8
 74
     0
 42
0.000000001
 43
0.00000001
 40
0.0
 40
0.0
 40
0.0
 40
0.0
 40
0.3107222013442921
 40
0.6300915284038211
 40
0.7856616918457199
 40
0.8925423191164965
 40
0.9999999999999999
 40
0.9999999999999999
 40
0.9999999999999999
 40
0.9999999999999999
 10
1325.26610124492
 20
1283.060317629713
 30
0.0
 10
1325.817032370954
 20
1283.408789281249
 30
0.0
 10
1326.934226551951
 20
1284.115430244049
 30
0.0
 10
1328.080804785217
 20
1285.620556272668
 30
0.0
 10
1328.785288988547
 20
1287.009019639717
 30
0.0
 10
1329.176964545963
 20
1287.991313090637
 30
0.0
 10
1329.365113910505
 20
1288.619680087871
 30
0.0
 10
1329.459441865911
 20
1288.934709448921
 30
0.0
  0
LINE
  5
200
330
1F
100
AcDbEntity
  8
0
  6
Continuous
 62
     8
370
    18
100
AcDbLine
 10
1196.5161012449
 20
1331.6888451817
 30
0.0
 11
1196.5161012449
 21
1331.5460436534
 31
0.0
  0
LINE
  5
201
330
1F
100
AcDbEntity
  8
0
  6
Continuous
 62
     8
370
    18
100
AcDbLine
 10
1196.5161012449
 20
1331.5460436534
 30
0.0
 11
1168.5760736637
 21
1331.5460436534
 31
0.0
  0
LINE
  5
202
330
1F
100
AcDbEntity
  8
0
  6
Continuous
 62
     8
370
    18
100
AcDbLine
 10
1302.5161012449
 20
1331.6888451817
 30
0.0
 11
1302.5161012449
 21
1331.5460436534
 31
0.0
  0
LINE
  5
203
330
1F
100
AcDbEntity
  8
0
  6
Continuous
 62
     8
370
    18
100
AcDbLine
 10
1196.5161012449
 20
1331.5460436534
 30
0.0
 11
1302.5161012449
 21
1331.5460436534
 31
0.0
  0
LINE
  5
204
330
1F
100
AcDbEntity
  8
0
  6
Continuous
 62
     8
370
    18
100
AcDbLine
 10
1302.5161012449
 20
1331.5460436534
 30
0.0
 11
1330.4561288262
 21
1331.5460436534
 31
0.0
  0
LINE
  5
205
330
1F
100
AcDbEntity
  8
0
  6
Continuous
 62
     8
370
    18
100
AcDbLine
 10
1196.5161012449
 20
1331.5460436534
 30
0.0
 11
1196.5161012449
 21
1330.6242762882
 31
0.0
  0
LINE
  5
206
330
1F
100
AcDbEntity
  8
0
  6
Continuous
 62
     8
370
    18
100
AcDbLine
 10
1302.5161012449
 20
1331.5460436534
 30
0.0
 11
1302.5161012449
 21
1330.6242762882
 31
0.0
  0
LINE
  5
207
330
1F
100
AcDbEntity
  8
0
  6
Continuous
 62
     8
370
    18
100
AcDbLine
 10
1377.7100497027
 20
1282.3888451817
 30
0.0
 11
1377.7100497027
 21
1322.3888451817
 31
0.0
  0
LINE
  5
208
330
1F
100
AcDbEntity
  8
0
  6
Continuous
 62
     8
370
    18
100
AcDbLine
 10
1378.3158479389
 20
1322.3270433536
 30
0.0
 11
1378.3158479389
 21
1282.4506470099
 31
0.0
  0
LINE
  5
209
330
1F
100
AcDbEntity
  8
0
  6
Continuous
 62
     8
370
    18
100
AcDbLine
 10
1712.0161012449
 20
1338.8352836813
 30
0.0
 11
1712.0161012449
 21
1339.8352836813
 31
0.0
  0
LINE
  5
20A
330
1F
100
AcDbEntity
  8
0
  6
Continuous
 62
     8
370
    18
100
AcDbLine
 10
787.0161012449
 20
1339.8352836813
 30
0.0
 11
787.0161012449
 21
1338.8352836813
 31
0.0
  0
LINE
  5
20B
330
1F
100
AcDbEntity
  8
0
  6
Continuous
 62
     8
370
    18
100
AcDbLine
 10
807.5161012449
 20
1333.1094242029
 30
0.0
 11
809.5161012449
 21
1333.1094242029
 31
0.0
  0
LINE
  5
20C
330
1F
100
AcDbEntity
  8
0
  6
Continuous
 62
     8
370
    18
100
AcDbLine
 10
809.5161012449
 20
1331.2968086288
 30
0.0
 11
807.5161012449
 21
1331.2968086288
 31
0.0
  0
LINE
  5
20D
330
1F
100
AcDbEntity
  8
0
  6
Continuous
 62
     8
370
    18
100
AcDbLine
 10
807.5161012449
 20
1324.0385093442
 30
0.0
 11
809.5161012449
 21
1324.0385093442
 31
0.0
  0
LINE
  5
20E
330
1F
100
AcDbEntity
  8
0
  6
Continuous
 62
     8
370
    18
100
AcDbLine
 10
809.5161012449
 20
1322.2258937701
 30
0.0
 11
807.5161012449
 21
1322.2258937701
 31
0.0
  0
LINE
  5
20F
330
1F
100
AcDbEntity
  8
0
  6
Continuous
 62
     8
370
    18
100
AcDbLine
 10
807.5161012449
 20
1287.9352836813
 30
0.0
 11
809.5161012449
 21
1287.9352836813
 31
0.0
  0
LINE
  5
210
330
1F
100
AcDbEntity
  8
0
  6
Continuous
 62
     8
370
    18
100
AcDbLine
 10
1689.5161012449
 20
1333.1094242029
 30
0.0
 11
1691.5161012449
 21
1333.1094242029
 31
0.0
  0
LINE
  5
211
330
1F
100
AcDbEntity
  8
0
  6
Continuous
 62
     8
370
    18
100
AcDbLine
 10
1691.5161012449
 20
1331.2968086288
 30
0.0
 11
1689.5161012449
 21
1331.2968086288
 31
0.0
  0
LINE
  5
212
330
1F
100
AcDbEntity
  8
0
  6
Continuous
 62
     8
370
    18
100
AcDbLine
 10
1689.5161012449
 20
1324.0385093442
 30
0.0
 11
1691.5161012449
 21
1324.0385093442
 31
0.0
  0
LINE
  5
213
330
1F
100
AcDbEntity
  8
0
  6
Continuous
 62
     8
370
    18
100
AcDbLine
 10
1691.5161012449
 20
1322.2258937701
 30
0.0
 11
1689.5161012449
 21
1322.2258937701
 31
0.0
  0
LINE
  5
214
330
1F
100
AcDbEntity
  8
0
  6
Continuous
 62
     8
370
    18
100
AcDbLine
 10
1689.5161012449
 20
1287.9352836813
 30
0.0
 11
1691.5161012449
 21
1287.9352836813
 31
0.0
  0
LINE
  5
215
330
1F
100
AcDbEntity
  8
0
  6
Continuous
 62
     7
370
    35
100
AcDbLine
 10
809.5161012449
 20
970.9412230554
 30
0.0
 11
809.5161012449
 21
973.7696501802
 31
0.0
  0
LINE
  5
216
330
1F
100
AcDbEntity
  8
0
  6
Continuous
 62
     7
370
    35
100
AcDbLine
 10
1689.5161012449
 20
973.8554366178
 30
0.0
 11
809.5161012449
 21
973.8554366178
 31
0.0
  0
LINE
  5
217
330
1F
100
AcDbEntity
  8
0
  6
Continuous
 62
     7
370
    35
100
AcDbLine
 10
1689.5161012449
 20
970.8554366178
 30
0.0
 11
809.5161012449
 21
970.8554366178
 31
0.0
  0
LINE
  5
218
330
1F
100
AcDbEntity
  8
0
  6
Continuous
 62
     7
370
    35
100
AcDbLine
 10
1689.5161012449
 20
973.7696501802
 30
0.0
 11
1689.5161012449
 21
970.9412230554
 31
0.0
  0
LINE
  5
219
330
1F
100
AcDbEntity
  8
0
  6
Continuous
 62
     7
370
    35
100
AcDbLine
 10
809.5161012449
 20
906.8554366178
 30
0.0
 11
1689.5161012449
 21
906.8554366178
 31
0.0
  0
LINE
  5
21A
330
1F
100
AcDbEntity
  8
0
  6
Continuous
 62
     7
370
    35
100
AcDbLine
 10
809.5161012449
 20
903.8554366178
 30
0.0
 11
1689.5161012449
 21
903.8554366178
 31
0.0
  0
LINE
  5
21B
330
1F
100
AcDbEntity
  8
0
  6
Continuous
 62
     7
370
    35
100
AcDbLine
 10
809.5161012449
 20
903.9412230554
 30
0.0
 11
809.5161012449
 21
906.7696501802
 31
0.0
  0
LINE
  5
21C
330
1F
100
AcDbEntity
  8
0
  6
Continuous
 62
     7
370
    35
100
AcDbLine
 10
1689.5161012449
 20
906.7696501802
 30
0.0
 11
1689.5161012449
 21
903.9412230554
 31
0.0
  0
LINE
  5
21D
330
1F
100
AcDbEntity
  8
0
  6
Continuous
 62
     7
370
    35
100
AcDbLine
 10
1689.5161012449
 20
974.8554366178
 30
0.0
 11
1689.5161012449
 21
973.8554366178
 31
0.0
  0
LINE
  5
21E
330
1F
100
AcDbEntity
  8
0
  6
Continuous
 62
     7
370
    35
100
AcDbLine
 10
809.5161012449
 20
973.8554366178
 30
0.0
 11
809.5161012449
 21
974.8554366178
 31
0.0
  0
LINE
  5
21F
330
1F
100
AcDbEntity
  8
0
  6
Continuous
 62
     7
370
    35
100
AcDbLine
 10
1689.5161012449
 20
902.8554366178
 30
0.0
 11
1689.5161012449
 21
903.8554366178
 31
0.0
  0
LINE
  5
220
330
1F
100
AcDbEntity
  8
0
  6
Continuous
 62
     7
370
    35
100
AcDbLine
 10
809.5161012449
 20
903.8554366178
 30
0.0
 11
809.5161012449
 21
902.8554366178
 31
0.0
  0
LINE
  5
221
330
1F
100
AcDbEntity
  8
0
  6
Continuous
 62
     7
370
    35
100
AcDbLine
 10
809.5161012449
 20
1004.3554366178
 30
0.0
 11
1689.5161012449
 21
1004.3554366178
 31
0.0
  0
LINE
  5
222
330
1F
100
AcDbEntity
  8
0
  6
Continuous
 62
     7
370
    35
100
AcDbLine
 10
1689.5161012449
 20
1004.3554366178
 30
0.0
 11
1689.5161012449
 21
974.8554366178
 31
0.0
  0
LINE
  5
223
330
1F
100
AcDbEntity
  8
0
  6
Continuous
 62
     7
370
    35
100
AcDbLine
 10
809.5161012449
 20
974.8554366178
 30
0.0
 11
809.5161012449
 21
1004.3554366178
 31
0.0
  0
LINE
  5
224
330
1F
100
AcDbEntity
  8
0
  6
Continuous
 62
     7
370
    35
100
AcDbLine
 10
1689.5161012449
 20
873.3554366178
 30
0.0
 11
809.5161012449
 21
873.3554366178
 31
0.0
  0
LINE
  5
225
330
1F
100
AcDbEntity
  8
0
  6
Continuous
 62
     7
370
    35
100
AcDbLine
 10
809.5161012449
 20
873.3554366178
 30
0.0
 11
809.5161012449
 21
902.8554366178
 31
0.0
  0
LINE
  5
226
330
1F
100
AcDbEntity
  8
0
  6
Continuous
 62
     7
370
    35
100
AcDbLine
 10
1689.5161012449
 20
902.8554366178
 30
0.0
 11
1689.5161012449
 21
873.3554366178
 31
0.0
  0
SPLINE
  5
227
330
1F
100
AcDbEntity
  8
0
  6
Continuous
 62
     7
370
    35
100
AcDbSpline
210
0.0
220
0.0
230
1.0
 70
     8
 71
     3
 72
     8
 73
     4
 74
     0
 42
0.000000001
 43
0.00000001
 40
0.0
 40
0.0
 40
0.0
 40
0.0
 40
1.0
 40
1.0
 40
1.0
 40
1.0
 10
1302.516101244919
 20
968.1112208164074
 30
0.0
 10
1304.773223501932
 20
968.1112208164074
 30
0.0
 10
1307.030052219719
 20
968.0432296103635
 30
0.0
 10
1309.283364216807
 20
967.9123309920191
 30
0.0
  0
LINE
  5
228
330
1F
100
AcDbEntity
  8
0
  6
Continuous
 62
     7
370
    35
100
AcDbLine
 10
1196.5161012449
 20
968.1112208164
 30
0.0
 11
1302.5161012449
 21
968.1112208164
 31
0.0
  0
SPLINE
  5
229
330
1F
100
AcDbEntity
  8
0
  6
Continuous
 62
     7
370
    35
100
AcDbSpline
210
0.0
220
0.0
230
1.0
 70
     8
 71
     3
 72
     8
 73
     4
 74
     0
 42
0.000000001
 43
0.00000001
 40
0.0
 40
0.0
 40
0.0
 40
0.0
 40
1.0
 40
1.0
 40
1.0
 40
1.0
 10
1189.748838273031
 20
967.9123309920191
 30
0.0
 10
1192.002149963425
 20
968.0432295923345
 30
0.0
 10
1194.258974093688
 20
968.1112208164074
 30
0.0
 10
1196.516101244919
 20
968.1112208164074
 30
0.0
  0
SPLINE
  5
22A
330
1F
100
AcDbEntity
  8
0
  6
Continuous
 62
     7
370
    35
100
AcDbSpline
210
0.0
220
0.0
230
1.0
 70
     8
 71
     3
 72
    22
 73
    18
 74
     0
 42
0.000000001
 43
0.00000001
 40
3.369126305560274
 40
3.369126305560274
 40
3.369126305560274
 40
3.369126305560274
 40
3.535853022596993
 40
3.535853022596993
 40
3.702579739633712
 40
3.702579739633712
 40
3.869306456670431
 40
3.869306456670431
 40
4.036033173707151
 40
4.036033173707151
 40
4.20275989074387
 40
4.20275989074387
 40
4.369486607780589
 40
4.369486607780589
 40
4.536213324817307
 40
4.536213324817307
 40
4.702940041854027
 40
4.702940041854027
 40
4.702940041854027
 40
4.702940041854027
 10
1166.517440471545
 20
938.9690237795824
 30
0.0
 10
1166.533194235127
 20
940.6362263634829
 30
0.0
 10
1166.688251453446
 20
942.3020715083692
 30
0.0
 10
1167.272681003007
 20
945.5849911496546
 30
0.0
 10
1167.702045724558
 20
947.2020135806716
 30
0.0
 10
1168.823189226243
 20
950.3424206431663
 30
0.0
 10
1169.51495358669
 20
951.8657648840198
 30
0.0
 10
1171.141717846795
 20
954.7765649993801
 30
0.0
 10
1172.076696823681
 20
956.1639834363727
 30
0.0
 10
1174.163966033059
 20
958.7644500324127
 30
0.0
 10
1175.316229419953
 20
959.9774647453281
 30
0.0
 10
1177.80611637171
 20
962.1954778735591
 30
0.0
 10
1179.143707912672
 20
963.2004477617019
 30
0.0
 10
1181.967159414979
 20
964.9744942333755
 30
0.0
 10
1183.452983062252
 20
965.7435479998499
 30
0.0
 10
1186.531695022598
 20
967.0244273598057
 30
0.0
 10
1188.12453423666
 20
967.5362342790462
 30
0.0
 10
1189.748838273031
 20
967.9123309920191
 30
0.0
  0
SPLINE
  5
22B
330
1F
100
AcDbEntity
  8
0
  6
Continuous
 62
     7
370
    35
100
AcDbSpline
210
0.0
220
0.0
230
1.0
 70
     8
 71
     3
 72
     8
 73
     4
 74
     0
 42
0.000000001
 43
0.00000001
 40
0.0
 40
0.0
 40
0.0
 40
0.0
 40
0.0000569949035218
 40
0.0000569949035218
 40
0.0000569949035218
 40
0.0000569949035218
 10
1166.516434584182
 20
938.9121294053708
 30
0.0
 10
1166.516657806442
 20
938.9310958416964
 30
0.0
 10
1166.516993314676
 20
938.9500612884932
 30
0.0
 10
1166.517440471545
 20
938.9690237795824
 30
0.0
  0
SPLINE
  5
22C
330
1F
100
AcDbEntity
  8
0
  6
Continuous
 62
     7
370
    35
100
AcDbSpline
210
0.0
220
0.0
230
1.0
 70
     8
 71
     3
 72
     8
 73
     4
 74
     0
 42
0.000000001
 43
0.00000001
 40
0.0
 40
0.0
 40
0.0
 40
0.0
 40
0.0000569949035218
 40
0.0000569949035218
 40
0.0000569949035218
 40
0.0000569949035218
 10
1332.514762018293
 20
938.9690237795824
 30
0.0
 10
1332.515209175162
 20
938.9500612884932
 30
0.0
 10
1332.515544683396
 20
938.9310958416964
 30
0.0
 10
1332.515767905656
 20
938.9121294053708
 30
0.0
  0
SPLINE
  5
22D
330
1F
100
AcDbEntity
  8
0
  6
Continuous
 62
     7
370
    35
100
AcDbSpline
210
0.0
220
0.0
230
1.0
 70
     8
 71
     3
 72
    22
 73
    18
 74
     0
 42
0.000000001
 43
0.00000001
 40
1.580245265325559
 40
1.580245265325559
 40
1.580245265325559
 40
1.580245265325559
 40
1.746971982362278
 40
1.746971982362278
 40
1.913698699398998
 40
1.913698699398998
 40
2.080425416435717
 40
2.080425416435717
 40
2.247152133472436
 40
2.247152133472436
 40
2.413878850509155
 40
2.413878850509155
 40
2.580605567545874
 40
2.580605567545874
 40
2.747332284582593
 40
2.747332284582593
 40
2.914059001619312
 40
2.914059001619312
 40
2.914059001619312
 40
2.914059001619312
 10
1309.283364216807
 20
967.9123309920191
 30
0.0
 10
1310.907668253178
 20
967.5362342790462
 30
0.0
 10
1312.500507467241
 20
967.0244273598057
 30
0.0
 10
1315.579219427586
 20
965.7435479998499
 30
0.0
 10
1317.06504307486
 20
964.9744942333753
 30
0.0
 10
1319.888494577167
 20
963.2004477617019
 30
0.0
 10
1321.226086118128
 20
962.1954778735591
 30
0.0
 10
1323.715973069886
 20
959.9774647453281
 30
0.0
 10
1324.86823645678
 20
958.7644500324127
 30
0.0
 10
1326.955505666158
 20
956.1639834363726
 30
0.0
 10
1327.890484643043
 20
954.7765649993801
 30
0.0
 10
1329.517248903149
 20
951.8657648840198
 30
0.0
 10
1330.209013263596
 20
950.3424206431664
 30
0.0
 10
1331.33015676528
 20
947.2020135806716
 30
0.0
 10
1331.759521486832
 20
945.5849911496546
 30
0.0
 10
1332.343951036393
 20
942.3020715083692
 30
0.0
 10
1332.499008254712
 20
940.6362263634828
 30
0.0
 10
1332.514762018293
 20
938.9690237795824
 30
0.0
  0
SPLINE
  5
22E
330
1F
100
AcDbEntity
  8
0
  6
Continuous
 62
     7
370
    35
100
AcDbSpline
210
0.0
220
0.0
230
1.0
 70
     8
 71
     3
 72
    14
 73
    10
 74
     0
 42
0.000000001
 43
0.00000001
 40
0.0
 40
0.0
 40
0.0
 40
0.0
 40
0.25
 40
0.25
 40
0.5
 40
0.5
 40
0.75
 40
0.75
 40
1.0
 40
1.0
 40
1.0
 40
1.0
 10
1309.283364216807
 20
967.9121294053708
 30
0.0
 10
1312.531953285784
 20
967.1599403796193
 30
0.0
 10
1315.653317323706
 20
965.8613158825638
 30
0.0
 10
1321.300220328321
 20
962.3132229392169
 30
0.0
 10
1323.824601852091
 20
960.0644817437845
 30
0.0
 10
1327.999140270847
 20
954.8635485517044
 30
0.0
 10
1329.648441512753
 20
951.9124225877654
 30
0.0
 10
1331.890728516123
 20
945.631608462776
 30
0.0
 10
1332.483254677126
 20
942.303207677096
 30
0.0
 10
1332.514762018293
 20
938.9688221929342
 30
0.0
  0
LINE
  5
22F
330
1F
100
AcDbEntity
  8
0
  6
Continuous
 62
     7
370
    35
100
AcDbLine
 10
1309.2833642168
 20
967.912330992
 30
0.0
 11
1309.2833642168
 21
967.9121294054
 31
0.0
  0
LINE
  5
230
330
1F
100
AcDbEntity
  8
0
  6
Continuous
 62
     7
370
    35
100
AcDbLine
 10
1309.2833642168
 20
909.7985422436
 30
0.0
 11
1309.2833642168
 21
909.7987438302
 31
0.0
  0
SPLINE
  5
231
330
1F
100
AcDbEntity
  8
0
  6
Continuous
 62
     7
370
    35
100
AcDbSpline
210
0.0
220
0.0
230
1.0
 70
     8
 71
     3
 72
    14
 73
    10
 74
     0
 42
0.000000001
 43
0.00000001
 40
0.0
 40
0.0
 40
0.0
 40
0.0
 40
0.2499999999999999
 40
0.2499999999999999
 40
0.4999999999999999
 40
0.4999999999999999
 40
0.7499999999999999
 40
0.7499999999999999
 40
1.0
 40
1.0
 40
1.0
 40
1.0
 10
1332.514762018293
 20
938.7420510426807
 30
0.0
 10
1332.483254677126
 20
935.4076655585187
 30
0.0
 10
1331.890728516123
 20
932.0792647728388
 30
0.0
 10
1329.648441512753
 20
925.7984506478493
 30
0.0
 10
1327.999140270847
 20
922.8473246839104
 30
0.0
 10
1323.824601852091
 20
917.6463914918304
 30
0.0
 10
1321.300220328321
 20
915.397650296398
 30
0.0
 10
1315.653317323706
 20
911.8495573530511
 30
0.0
 10
1312.531953285784
 20
910.5509328559954
 30
0.0
 10
1309.283364216807
 20
909.798743830244
 30
0.0
  0
SPLINE
  5
232
330
1F
100
AcDbEntity
  8
0
  6
Continuous
 62
     7
370
    35
100
AcDbSpline
210
0.0
220
0.0
230
1.0
 70
     8
 71
     3
 72
    22
 73
    18
 74
     0
 42
0.000000001
 43
0.00000001
 40
3.369126305560276
 40
3.369126305560276
 40
3.369126305560276
 40
3.369126305560276
 40
3.535853022596996
 40
3.535853022596996
 40
3.702579739633714
 40
3.702579739633714
 40
3.869306456670433
 40
3.869306456670433
 40
4.036033173707152
 40
4.036033173707152
 40
4.20275989074387
 40
4.20275989074387
 40
4.369486607780589
 40
4.369486607780589
 40
4.536213324817308
 40
4.536213324817308
 40
4.702940041854027
 40
4.702940041854027
 40
4.702940041854027
 40
4.702940041854027
 10
1332.514762018293
 20
938.7418494560324
 30
0.0
 10
1332.499008254712
 20
937.0746468721319
 30
0.0
 10
1332.343951036393
 20
935.4088017272455
 30
0.0
 10
1331.759521486832
 20
932.1258820859601
 30
0.0
 10
1331.33015676528
 20
930.508859654943
 30
0.0
 10
1330.209013263596
 20
927.3684525924483
 30
0.0
 10
1329.517248903149
 20
925.845108351595
 30
0.0
 10
1327.890484643043
 20
922.9343082362349
 30
0.0
 10
1326.955505666158
 20
921.5468897992421
 30
0.0
 10
1324.86823645678
 20
918.946423203202
 30
0.0
 10
1323.715973069886
 20
917.7334084902867
 30
0.0
 10
1321.226086118128
 20
915.5153953620558
 30
0.0
 10
1319.888494577167
 20
914.510425473913
 30
0.0
 10
1317.06504307486
 20
912.7363790022395
 30
0.0
 10
1315.579219427586
 20
911.9673252357649
 30
0.0
 10
1312.500507467241
 20
910.686445875809
 30
0.0
 10
1310.907668253178
 20
910.1746389565686
 30
0.0
 10
1309.283364216807
 20
909.7985422435958
 30
0.0
  0
ARC
  5
233
330
1F
100
AcDbEntity
  8
0
  6
Continuous
 62
     7
370
    35
100
AcDbCircle
 10
1302.5161012449
 20
938.8554366178
 30
0.0
 40
27.00000000000001
100
AcDbArc
 50
283.0367179551
 51
359.4586157013
  0
SPLINE
  5
234
330
1F
100
AcDbEntity
  8
0
  6
Continuous
 62
     7
370
    35
100
AcDbSpline
210
0.0
220
0.0
230
1.0
 70
     8
 71
     3
 72
    14
 73
    10
 74
     0
 42
0.000000001
 43
0.00000001
 40
0.0
 40
0.0
 40
0.0
 40
0.0
 40
0.25
 40
0.25
 40
0.5
 40
0.5
 40
0.75
 40
0.75
 40
1.0
 40
1.0
 40
1.0
 40
1.0
 10
1189.748838273031
 20
909.798743830244
 30
0.0
 10
1186.500249204054
 20
910.5509328559954
 30
0.0
 10
1183.378885166132
 20
911.8495573530511
 30
0.0
 10
1177.731982161518
 20
915.397650296398
 30
0.0
 10
1175.207600637747
 20
917.6463914918304
 30
0.0
 10
1171.033062218992
 20
922.8473246839104
 30
0.0
 10
1169.383760977086
 20
925.7984506478493
 30
0.0
 10
1167.141473973716
 20
932.0792647728388
 30
0.0
 10
1166.548947812712
 20
935.4076655585187
 30
0.0
 10
1166.517440471545
 20
938.7420510426807
 30
0.0
  0
LINE
  5
235
330
1F
100
AcDbEntity
  8
0
  6
Continuous
 62
     7
370
    35
100
AcDbLine
 10
1189.748838273
 20
909.7985422436
 30
0.0
 11
1189.748838273
 21
909.7987438302
 31
0.0
  0
SPLINE
  5
236
330
1F
100
AcDbEntity
  8
0
  6
Continuous
 62
     7
370
    35
100
AcDbSpline
210
0.0
220
0.0
230
1.0
 70
     8
 71
     3
 72
    22
 73
    18
 74
     0
 42
0.000000001
 43
0.00000001
 40
1.580245265325559
 40
1.580245265325559
 40
1.580245265325559
 40
1.580245265325559
 40
1.746971982362278
 40
1.746971982362278
 40
1.913698699398996
 40
1.913698699398996
 40
2.080425416435715
 40
2.080425416435715
 40
2.247152133472434
 40
2.247152133472434
 40
2.413878850509152
 40
2.413878850509152
 40
2.580605567545871
 40
2.580605567545871
 40
2.74733228458259
 40
2.74733228458259
 40
2.914059001619308
 40
2.914059001619308
 40
2.914059001619308
 40
2.914059001619308
 10
1189.748838273031
 20
909.7985422435958
 30
0.0
 10
1188.12453423666
 20
910.1746389565686
 30
0.0
 10
1186.531695022598
 20
910.6864458758092
 30
0.0
 10
1183.452983062252
 20
911.9673252357651
 30
0.0
 10
1181.967159414978
 20
912.7363790022395
 30
0.0
 10
1179.143707912671
 20
914.510425473913
 30
0.0
 10
1177.80611637171
 20
915.5153953620558
 30
0.0
 10
1175.316229419952
 20
917.7334084902867
 30
0.0
 10
1174.163966033059
 20
918.9464232032021
 30
0.0
 10
1172.076696823681
 20
921.5468897992421
 30
0.0
 10
1171.141717846795
 20
922.9343082362349
 30
0.0
 10
1169.51495358669
 20
925.8451083515951
 30
0.0
 10
1168.823189226243
 20
927.3684525924484
 30
0.0
 10
1167.702045724558
 20
930.5088596549431
 30
0.0
 10
1167.272681003007
 20
932.1258820859603
 30
0.0
 10
1166.688251453446
 20
935.4088017272456
 30
0.0
 10
1166.533194235127
 20
937.0746468721319
 30
0.0
 10
1166.517440471545
 20
938.7418494560324
 30
0.0
  0
ARC
  5
237
330
1F
100
AcDbEntity
  8
0
  6
Continuous
 62
     7
370
    35
100
AcDbCircle
 10
1196.5161012449
 20
938.8554366178
 30
0.0
 40
27.00000000000006
100
AcDbArc
 50
180.5413842987
 51
256.9632820449
  0
ARC
  5
238
330
1F
100
AcDbEntity
  8
0
  6
Continuous
 62
     7
370
    35
100
AcDbCircle
 10
1302.5161012449
 20
938.8554366178
 30
0.0
 40
26.99999999999996
100
AcDbArc
 50
0.5413842987
 51
76.9632820449
  0
LINE
  5
239
330
1F
100
AcDbEntity
  8
0
  6
Continuous
 62
     7
370
    35
100
AcDbLine
 10
1189.748838273
 20
967.912330992
 30
0.0
 11
1189.748838273
 21
967.9121294054
 31
0.0
  0
SPLINE
  5
23A
330
1F
100
AcDbEntity
  8
0
  6
Continuous
 62
     7
370
    35
100
AcDbSpline
210
0.0
220
0.0
230
1.0
 70
     8
 71
     3
 72
    14
 73
    10
 74
     0
 42
0.000000001
 43
0.00000001
 40
0.0
 40
0.0
 40
0.0
 40
0.0
 40
0.25
 40
0.25
 40
0.5
 40
0.5
 40
0.75
 40
0.75
 40
1.0
 40
1.0
 40
1.0
 40
1.0
 10
1166.517440471545
 20
938.9688221929342
 30
0.0
 10
1166.548947812712
 20
942.303207677096
 30
0.0
 10
1167.141473973716
 20
945.631608462776
 30
0.0
 10
1169.383760977086
 20
951.9124225877654
 30
0.0
 10
1171.033062218992
 20
954.8635485517044
 30
0.0
 10
1175.207600637747
 20
960.0644817437845
 30
0.0
 10
1177.731982161518
 20
962.3132229392169
 30
0.0
 10
1183.378885166132
 20
965.8613158825638
 30
0.0
 10
1186.500249204055
 20
967.1599403796193
 30
0.0
 10
1189.748838273031
 20
967.9121294053708
 30
0.0
  0
ARC
  5
23B
330
1F
100
AcDbEntity
  8
0
  6
Continuous
 62
     7
370
    35
100
AcDbCircle
 10
1196.5161012449
 20
938.8554366178
 30
0.0
 40
27.00000000000001
100
AcDbArc
 50
103.0367179551
 51
179.4586157013
  0
SPLINE
  5
23C
330
1F
100
AcDbEntity
  8
0
  6
Continuous
 62
     7
370
    35
100
AcDbSpline
210
0.0
220
0.0
230
1.0
 70
     8
 71
     3
 72
     8
 73
     4
 74
     0
 42
0.000000001
 43
0.00000001
 40
0.0
 40
0.0
 40
0.0
 40
0.0
 40
0.0000569949035229
 40
0.0000569949035229
 40
0.0000569949035229
 40
0.0000569949035229
 10
1166.517440471545
 20
938.7418494560324
 30
0.0
 10
1166.516993314676
 20
938.760811947122
 30
0.0
 10
1166.516657806442
 20
938.7797773939191
 30
0.0
 10
1166.516434584182
 20
938.798743830245
 30
0.0
  0
SPLINE
  5
23D
330
1F
100
AcDbEntity
  8
0
  6
Continuous
 62
     7
370
    35
100
AcDbSpline
210
0.0
220
0.0
230
1.0
 70
     8
 71
     3
 72
     8
 73
     4
 74
     0
 42
0.000000001
 43
0.00000001
 40
0.0
 40
0.0
 40
0.0
 40
0.0
 40
1.0
 40
1.0
 40
1.0
 40
1.0
 10
1196.516101244919
 20
909.5996524192075
 30
0.0
 10
1194.258978987907
 20
909.5996524192075
 30
0.0
 10
1192.00215027012
 20
909.6676436252512
 30
0.0
 10
1189.748838273031
 20
909.7985422435958
 30
0.0
  0
LINE
  5
23E
330
1F
100
AcDbEntity
  8
0
  6
Continuous
 62
     7
370
    35
100
AcDbLine
 10
1302.5161012449
 20
909.5996524192
 30
0.0
 11
1196.5161012449
 21
909.5996524192
 31
0.0
  0
SPLINE
  5
23F
330
1F
100
AcDbEntity
  8
0
  6
Continuous
 62
     7
370
    35
100
AcDbSpline
210
0.0
220
0.0
230
1.0
 70
     8
 71
     3
 72
     8
 73
     4
 74
     0
 42
0.000000001
 43
0.00000001
 40
0.0
 40
0.0
 40
0.0
 40
0.0
 40
1.0
 40
1.0
 40
1.0
 40
1.0
 10
1309.283364216807
 20
909.7985422435959
 30
0.0
 10
1307.030052526414
 20
909.6676436432804
 30
0.0
 10
1304.77322839615
 20
909.5996524192075
 30
0.0
 10
1302.516101244919
 20
909.5996524192075
 30
0.0
  0
SPLINE
  5
240
330
1F
100
AcDbEntity
  8
0
  6
Continuous
 62
     7
370
    35
100
AcDbSpline
210
0.0
220
0.0
230
1.0
 70
     8
 71
     3
 72
     8
 73
     4
 74
     0
 42
0.000000001
 43
0.00000001
 40
0.0
 40
0.0
 40
0.0
 40
0.0
 40
0.0000569949035229
 40
0.0000569949035229
 40
0.0000569949035229
 40
0.0000569949035229
 10
1332.515767905657
 20
938.798743830245
 30
0.0
 10
1332.515544683396
 20
938.7797773939191
 30
0.0
 10
1332.515209175162
 20
938.760811947122
 30
0.0
 10
1332.514762018293
 20
938.7418494560324
 30
0.0
  0
SPLINE
  5
241
330
1F
100
AcDbEntity
  8
0
  6
Continuous
 62
     7
370
    35
100
AcDbSpline
210
0.0
220
0.0
230
1.0
 70
     8
 71
     3
 72
    10
 73
     6
 74
     0
 42
0.000000001
 43
0.00000001
 40
0.0
 40
0.0
 40
0.0
 40
0.0
 40
0.5
 40
0.5
 40
1.0
 40
1.0
 40
1.0
 40
1.0
 10
1196.516101244919
 20
909.6054366178074
 30
0.0
 10
1195.373141096962
 20
909.6054366178074
 30
0.0
 10
1194.237947619218
 20
909.6217106366358
 30
0.0
 10
1191.982421286847
 20
909.6861450286449
 30
0.0
 10
1190.862085340792
 20
909.7343026059509
 30
0.0
 10
1189.748838273031
 20
909.7987438302439
 30
0.0
  0
SPLINE
  5
242
330
1F
100
AcDbEntity
  8
0
  6
Continuous
 62
     7
370
    35
100
AcDbSpline
210
0.0
220
0.0
230
1.0
 70
     8
 71
     3
 72
    10
 73
     6
 74
     0
 42
0.000000001
 43
0.00000001
 40
0.0
 40
0.0
 40
0.0
 40
0.0
 40
0.5
 40
0.5
 40
1.0
 40
1.0
 40
1.0
 40
1.0
 10
1196.516101244919
 20
911.8554366178073
 30
0.0
 10
1195.487361511831
 20
911.8554366178073
 30
0.0
 10
1194.465682035532
 20
911.9140301548165
 30
0.0
 10
1192.435756452886
 20
912.145992828832
 30
0.0
 10
1191.427506936121
 20
912.3193495431195
 30
0.0
 10
1190.42556457022
 20
912.5513425825789
 30
0.0
  0
SPLINE
  5
243
330
1F
100
AcDbEntity
  8
0
  6
Continuous
 62
     7
370
    35
100
AcDbSpline
210
0.0
220
0.0
230
1.0
 70
     8
 71
     3
 72
    10
 73
     6
 74
     0
 42
0.000000001
 43
0.00000001
 40
0.0
 40
0.0
 40
0.0
 40
0.0
 40
0.5
 40
0.5
 40
1.0
 40
1.0
 40
1.0
 40
1.0
 10
1309.283364216807
 20
909.7987438302439
 30
0.0
 10
1308.170117149047
 20
909.7343026059509
 30
0.0
 10
1307.049781202991
 20
909.6861450286449
 30
0.0
 10
1304.79425487062
 20
909.6217106366358
 30
0.0
 10
1303.659061392877
 20
909.6054366178074
 30
0.0
 10
1302.516101244919
 20
909.6054366178074
 30
0.0
  0
SPLINE
  5
244
330
1F
100
AcDbEntity
  8
0
  6
Continuous
 62
     7
370
    35
100
AcDbSpline
210
0.0
220
0.0
230
1.0
 70
     8
 71
     3
 72
    10
 73
     6
 74
     0
 42
0.000000001
 43
0.00000001
 40
0.0
 40
0.0
 40
0.0
 40
0.0
 40
0.5
 40
0.5
 40
1.0
 40
1.0
 40
1.0
 40
1.0
 10
1308.606637919618
 20
912.5513425825789
 30
0.0
 10
1307.604695553716
 20
912.3193495431192
 30
0.0
 10
1306.59644603695
 20
912.1459928288318
 30
0.0
 10
1304.566520454302
 20
911.9140301548161
 30
0.0
 10
1303.544840978008
 20
911.8554366178073
 30
0.0
 10
1302.516101244919
 20
911.8554366178073
 30
0.0
  0
SPLINE
  5
245
330
1F
100
AcDbEntity
  8
0
  6
Continuous
 62
     7
370
    35
100
AcDbSpline
210
0.0
220
0.0
230
1.0
 70
     8
 71
     3
 72
    10
 73
     6
 74
     0
 42
0.000000001
 43
0.00000001
 40
0.0
 40
0.0
 40
0.0
 40
0.0
 40
0.5
 40
0.5
 40
1.0
 40
1.0
 40
1.0
 40
1.0
 10
1189.748838273031
 20
967.9121294053709
 30
0.0
 10
1190.862085340792
 20
967.9765706296639
 30
0.0
 10
1191.982421286848
 20
968.0247282069698
 30
0.0
 10
1194.237947619218
 20
968.089162598979
 30
0.0
 10
1195.373141096962
 20
968.1054366178074
 30
0.0
 10
1196.516101244919
 20
968.1054366178074
 30
0.0
  0
SPLINE
  5
246
330
1F
100
AcDbEntity
  8
0
  6
Continuous
 62
     7
370
    35
100
AcDbSpline
210
0.0
220
0.0
230
1.0
 70
     8
 71
     3
 72
    10
 73
     6
 74
     0
 42
0.000000001
 43
0.00000001
 40
0.0
 40
0.0
 40
0.0
 40
0.0
 40
0.5
 40
0.5
 40
1.0
 40
1.0
 40
1.0
 40
1.0
 10
1190.42556457022
 20
965.159530653036
 30
0.0
 10
1191.427506936122
 20
965.3915236924955
 30
0.0
 10
1192.435756452889
 20
965.564880406783
 30
0.0
 10
1194.465682035536
 20
965.7968430807987
 30
0.0
 10
1195.48736151183
 20
965.8554366178074
 30
0.0
 10
1196.516101244919
 20
965.8554366178074
 30
0.0
  0
SPLINE
  5
247
330
1F
100
AcDbEntity
  8
0
  6
Continuous
 62
     7
370
    35
100
AcDbSpline
210
0.0
220
0.0
230
1.0
 70
     8
 71
     3
 72
    10
 73
     6
 74
     0
 42
0.000000001
 43
0.00000001
 40
0.0
 40
0.0
 40
0.0
 40
0.0
 40
0.5
 40
0.5
 40
1.0
 40
1.0
 40
1.0
 40
1.0
 10
1302.516101244919
 20
968.1054366178074
 30
0.0
 10
1303.659061392876
 20
968.1054366178074
 30
0.0
 10
1304.79425487062
 20
968.089162598979
 30
0.0
 10
1307.049781202991
 20
968.0247282069698
 30
0.0
 10
1308.170117149047
 20
967.9765706296639
 30
0.0
 10
1309.283364216807
 20
967.9121294053709
 30
0.0
  0
SPLINE
  5
248
330
1F
100
AcDbEntity
  8
0
  6
Continuous
 62
     7
370
    35
100
AcDbSpline
210
0.0
220
0.0
230
1.0
 70
     8
 71
     3
 72
    10
 73
     6
 74
     0
 42
0.000000001
 43
0.00000001
 40
0.0
 40
0.0
 40
0.0
 40
0.0
 40
0.5
 40
0.5
 40
1.0
 40
1.0
 40
1.0
 40
1.0
 10
1302.516101244919
 20
965.8554366178074
 30
0.0
 10
1303.544840978007
 20
965.8554366178074
 30
0.0
 10
1304.566520454306
 20
965.7968430807982
 30
0.0
 10
1306.596446036952
 20
965.5648804067827
 30
0.0
 10
1307.604695553717
 20
965.3915236924952
 30
0.0
 10
1308.606637919618
 20
965.159530653036
 30
0.0
  0
LINE
  5
249
330
1F
100
AcDbEntity
  8
0
  6
Continuous
 62
     7
370
    35
100
AcDbLine
 10
1196.5161012449
 20
909.6054366178
 30
0.0
 11
1302.5161012449
 21
909.6054366178
 31
0.0
  0
LINE
  5
24A
330
1F
100
AcDbEntity
  8
0
  6
Continuous
 62
     7
370
    35
100
AcDbLine
 10
1302.5161012449
 20
911.8554366178
 30
0.0
 11
1196.5161012449
 21
911.8554366178
 31
0.0
  0
LINE
  5
24B
330
1F
100
AcDbEntity
  8
0
  6
Continuous
 62
     7
370
    35
100
AcDbLine
 10
1302.5161012449
 20
968.1054366178
 30
0.0
 11
1196.5161012449
 21
968.1054366178
 31
0.0
  0
LINE
  5
24C
330
1F
100
AcDbEntity
  8
0
  6
Continuous
 62
     7
370
    35
100
AcDbLine
 10
1196.5161012449
 20
965.8554366178
 30
0.0
 11
1302.5161012449
 21
965.8554366178
 31
0.0
  0
SPLINE
  5
24D
330
1F
100
AcDbEntity
  8
0
  6
Continuous
 62
     7
370
    35
100
AcDbSpline
210
0.0
220
0.0
230
1.0
 70
     8
 71
     3
 72
     8
 73
     4
 74
     0
 42
0.000000001
 43
0.00000001
 40
0.0
 40
0.0
 40
0.0
 40
0.0
 40
1.0
 40
1.0
 40
1.0
 40
1.0
 10
1332.514762018293
 20
938.9688221929342
 30
0.0
 10
1332.516547693653
 20
938.8932318095162
 30
0.0
 10
1332.516547693653
 20
938.8176414260985
 30
0.0
 10
1332.514762018293
 20
938.7420510426807
 30
0.0
  0
SPLINE
  5
24E
330
1F
100
AcDbEntity
  8
0
  6
Continuous
 62
     7
370
    35
100
AcDbSpline
210
0.0
220
0.0
230
1.0
 70
     8
 71
     3
 72
     8
 73
     4
 74
     0
 42
0.000000001
 43
0.00000001
 40
0.0
 40
0.0
 40
0.0
 40
0.0
 40
1.0
 40
1.0
 40
1.0
 40
1.0
 10
1329.514895940956
 20
939.1105541618426
 30
0.0
 10
1329.516503048779
 20
938.9404757991525
 30
0.0
 10
1329.516503048779
 20
938.7703974364624
 30
0.0
 10
1329.514895940956
 20
938.6003190737722
 30
0.0
  0
SPLINE
  5
24F
330
1F
100
AcDbEntity
  8
0
  6
Continuous
 62
     7
370
    35
100
AcDbSpline
210
0.0
220
0.0
230
1.0
 70
     8
 71
     3
 72
     8
 73
     4
 74
     0
 42
0.000000001
 43
0.00000001
 40
0.0
 40
0.0
 40
0.0
 40
0.0
 40
0.0001133855751267
 40
0.0001133855751267
 40
0.0001133855751267
 40
0.0001133855751267
 10
1332.515767905656
 20
938.798743830244
 30
0.0
 10
1332.516211983685
 20
938.836475630075
 30
0.0
 10
1332.516211983685
 20
938.8743976055492
 30
0.0
 10
1332.515767905656
 20
938.9121294053803
 30
0.0
  0
SPLINE
  5
250
330
1F
100
AcDbEntity
  8
0
  6
Continuous
 62
     7
370
    35
100
AcDbSpline
210
0.0
220
0.0
230
1.0
 70
     8
 71
     3
 72
     8
 73
     4
 74
     0
 42
0.000000001
 43
0.00000001
 40
0.0
 40
0.0
 40
0.0
 40
0.0
 40
1.0
 40
1.0
 40
1.0
 40
1.0
 10
1169.517306548883
 20
938.6003190737722
 30
0.0
 10
1169.515699441059
 20
938.7703974364624
 30
0.0
 10
1169.515699441059
 20
938.9404757991525
 30
0.0
 10
1169.517306548883
 20
939.1105541618426
 30
0.0
  0
SPLINE
  5
251
330
1F
100
AcDbEntity
  8
0
  6
Continuous
 62
     7
370
    35
100
AcDbSpline
210
0.0
220
0.0
230
1.0
 70
     8
 71
     3
 72
     8
 73
     4
 74
     0
 42
0.000000001
 43
0.00000001
 40
0.0
 40
0.0
 40
0.0
 40
0.0
 40
1.0
 40
1.0
 40
1.0
 40
1.0
 10
1166.517440471546
 20
938.7420510426807
 30
0.0
 10
1166.515654796186
 20
938.8176414260985
 30
0.0
 10
1166.515654796186
 20
938.8932318095162
 30
0.0
 10
1166.517440471546
 20
938.9688221929342
 30
0.0
  0
SPLINE
  5
252
330
1F
100
AcDbEntity
  8
0
  6
Continuous
 62
     7
370
    35
100
AcDbSpline
210
0.0
220
0.0
230
1.0
 70
     8
 71
     3
 72
     8
 73
     4
 74
     0
 42
0.000000001
 43
0.00000001
 40
0.0
 40
0.0
 40
0.0
 40
0.0
 40
0.0001133855751265
 40
0.0001133855751265
 40
0.0001133855751265
 40
0.0001133855751265
 10
1166.516434584182
 20
938.9121294053708
 30
0.0
 10
1166.515990506154
 20
938.874397605543
 30
0.0
 10
1166.515990506154
 20
938.836475630072
 30
0.0
 10
1166.516434584182
 20
938.7987438302442
 30
0.0
  0
SPLINE
  5
253
330
1F
100
AcDbEntity
  8
0
  6
Continuous
 62
     7
370
    35
100
AcDbSpline
210
0.0
220
0.0
230
1.0
 70
     8
 71
     3
 72
     9
 73
     5
 74
     0
 42
0.000000001
 43
0.00000001
 40
0.0
 40
0.0
 40
0.0
 40
0.0
 40
0.4946096718337144
 40
1.0
 40
1.0
 40
1.0
 40
1.0
 10
1206.516101244922
 20
933.9222621151804
 30
0.0
 10
1206.498581876089
 20
933.4411739370241
 30
0.0
 10
1206.463161281162
 20
932.4685116427897
 30
0.0
 10
1206.219595799252
 20
931.5301513342149
 30
0.0
 10
1206.09650016042
 20
931.055913109926
 30
0.0
  0
SPLINE
  5
254
330
1F
100
AcDbEntity
  8
0
  6
Continuous
 62
     7
370
    35
100
AcDbSpline
210
0.0
220
0.0
230
1.0
 70
     8
 71
     3
 72
    16
 73
    12
 74
     0
 42
0.000000001
 43
0.00000001
 40
0.0
 40
0.0
 40
0.0
 40
0.0
 40
0.6093642604474531
 40
0.7233750503865237
 40
0.8172213162014323
 40
0.8496365726793016
 40
0.8823612341653044
 40
0.9067814804498373
 40
0.9311421346350485
 40
0.9706402276062258
 40
1.0
 40
1.0
 40
1.0
 40
1.0
 10
1198.550379802071
 20
921.9977983600849
 30
0.0
 10
1197.973545532482
 20
921.7001432841353
 30
0.0
 10
1197.28878676681
 20
921.3467975605041
 30
0.0
 10
1196.621543795619
 20
920.8210592368466
 30
0.0
 10
1196.451290397635
 20
920.6359062267892
 30
0.0
 10
1196.383016936955
 20
920.4872499266161
 30
0.0
 10
1196.371377795959
 20
920.3936492612338
 30
0.0
 10
1196.395903244171
 20
920.3096865762249
 30
0.0
 10
1196.452165951813
 20
920.2315475890517
 30
0.0
 10
1196.535238114477
 20
920.1693503932145
 30
0.0
 10
1196.603658982923
 20
920.1374604639843
 30
0.0
 10
1196.632832427583
 20
920.1238631638229
 30
0.0
  0
SPLINE
  5
255
330
1F
100
AcDbEntity
  8
0
  6
Continuous
 62
     7
370
    35
100
AcDbSpline
210
0.0
220
0.0
230
1.0
 70
     8
 71
     3
 72
    13
 73
     9
 74
     0
 42
0.000000001
 43
0.00000001
 40
0.0
 40
0.0
 40
0.0
 40
0.0
 40
0.1585077763891441
 40
0.3168380823631914
 40
0.4791716695216486
 40
0.6493085002787241
 40
0.8235953482372017
 40
1.0
 40
1.0
 40
1.0
 40
1.0
 10
1183.988489007765
 20
934.534283957328
 30
0.0
 10
1184.281064161524
 20
933.5239585055232
 30
0.0
 10
1184.86588689247
 20
931.5044387948517
 30
0.0
 10
1186.361913444156
 20
928.6838360432914
 30
0.0
 10
1188.288592113862
 20
926.053785235307
 30
0.0
 10
1190.68766651164
 20
923.6908526390586
 30
0.0
 10
1193.479992784374
 20
921.6349602939823
 30
0.0
 10
1195.577663313261
 20
920.6295860044754
 30
0.0
 10
1196.632832427583
 20
920.1238631638229
 30
0.0
  0
SPLINE
  5
256
330
1F
100
AcDbEntity
  8
0
  6
Continuous
 62
     7
370
    35
100
AcDbSpline
210
0.0
220
0.0
230
1.0
 70
     8
 71
     3
 72
     9
 73
     5
 74
     0
 42
0.000000001
 43
0.00000001
 40
0.0
 40
0.0
 40
0.0
 40
0.0
 40
0.478175740120617
 40
0.9999999999999999
 40
0.9999999999999999
 40
0.9999999999999999
 40
0.9999999999999999
 10
1183.988489007765
 20
943.176589278287
 30
0.0
 10
1183.741762616099
 20
941.800343208417
 30
0.0
 10
1183.225788318442
 20
938.9222254906031
 30
0.0
 10
1183.726963591718
 20
936.0388823550279
 30
0.0
 10
1183.988489007765
 20
934.534283957328
 30
0.0
  0
SPLINE
  5
257
330
1F
100
AcDbEntity
  8
0
  6
Continuous
 62
     7
370
    35
100
AcDbSpline
210
0.0
220
0.0
230
1.0
 70
     8
 71
     3
 72
    13
 73
     9
 74
     0
 42
0.000000001
 43
0.00000001
 40
0.0
 40
0.0
 40
0.0
 40
0.0
 40
0.1585077763891447
 40
0.316838082363193
 40
0.4791716695216504
 40
0.6493085002787266
 40
0.8235953482372128
 40
1.0
 40
1.0
 40
1.0
 40
1.0
 10
1183.988489007765
 20
943.176589278287
 30
0.0
 10
1184.281064161524
 20
944.1869147300919
 30
0.0
 10
1184.86588689247
 20
946.2064344407634
 30
0.0
 10
1186.361913444156
 20
949.0270371923236
 30
0.0
 10
1188.288592113862
 20
951.6570880003079
 30
0.0
 10
1190.687666511641
 20
954.0200205965564
 30
0.0
 10
1193.479992784374
 20
956.0759129416331
 30
0.0
 10
1195.577663313261
 20
957.0812872311396
 30
0.0
 10
1196.632832427583
 20
957.5870100717918
 30
0.0
  0
SPLINE
  5
258
330
1F
100
AcDbEntity
  8
0
  6
Continuous
 62
     7
370
    35
100
AcDbSpline
210
0.0
220
0.0
230
1.0
 70
     8
 71
     3
 72
    16
 73
    12
 74
     0
 42
0.000000001
 43
0.00000001
 40
0.0
 40
0.0
 40
0.0
 40
0.0
 40
0.6093642604474538
 40
0.7233750503865218
 40
0.8172213162014307
 40
0.8496365726793002
 40
0.8823612341653064
 40
0.9067814804498368
 40
0.9311421346350481
 40
0.9706402276062256
 40
0.9999999999999999
 40
0.9999999999999999
 40
0.9999999999999999
 40
0.9999999999999999
 10
1198.550379802071
 20
955.71307487553
 30
0.0
 10
1197.973545532482
 20
956.0107299514794
 30
0.0
 10
1197.28878676681
 20
956.3640756751106
 30
0.0
 10
1196.621543795619
 20
956.8898139987681
 30
0.0
 10
1196.451290397635
 20
957.0749670088255
 30
0.0
 10
1196.383016936955
 20
957.2236233089989
 30
0.0
 10
1196.371377795959
 20
957.317223974381
 30
0.0
 10
1196.395903244171
 20
957.40118665939
 30
0.0
 10
1196.452165951813
 20
957.479325646563
 30
0.0
 10
1196.535238114477
 20
957.5415228424005
 30
0.0
 10
1196.603658982923
 20
957.5734127716304
 30
0.0
 10
1196.632832427583
 20
957.5870100717918
 30
0.0
  0
SPLINE
  5
259
330
1F
100
AcDbEntity
  8
0
  6
Continuous
 62
     7
370
    35
100
AcDbSpline
210
0.0
220
0.0
230
1.0
 70
     8
 71
     3
 72
    11
 73
     7
 74
     0
 42
0.000000001
 43
0.00000001
 40
0.0
 40
0.0
 40
0.0
 40
0.0
 40
0.2606216717114571
 40
0.4632004480831484
 40
0.6713667795621423
 40
1.0
 40
1.0
 40
1.0
 40
1.0
 10
1206.09650016042
 20
946.6549601256891
 30
0.0
 10
1205.729618789759
 20
947.6566783054994
 30
0.0
 10
1205.07756397725
 20
949.4370226133777
 30
0.0
 10
1203.540199115427
 20
951.6920222354405
 30
0.0
 10
1201.525433330936
 20
953.9066564157866
 30
0.0
 10
1199.680105245107
 20
955.0271185137567
 30
0.0
 10
1198.550379802071
 20
955.71307487553
 30
0.0
  0
SPLINE
  5
25A
330
1F
100
AcDbEntity
  8
0
  6
Continuous
 62
     7
370
    35
100
AcDbSpline
210
0.0
220
0.0
230
1.0
 70
     8
 71
     3
 72
     9
 73
     5
 74
     0
 42
0.000000001
 43
0.00000001
 40
0.0
 40
0.0
 40
0.0
 40
0.0
 40
0.4946096718337013
 40
1.0
 40
1.0
 40
1.0
 40
1.0
 10
1206.516101244922
 20
943.7886111204348
 30
0.0
 10
1206.498581876089
 20
944.2696992985909
 30
0.0
 10
1206.463161281162
 20
945.2423615928253
 30
0.0
 10
1206.219595799252
 20
946.1807219014001
 30
0.0
 10
1206.09650016042
 20
946.6549601256891
 30
0.0
  0
LINE
  5
25B
330
1F
100
AcDbEntity
  8
0
  6
Continuous
 62
     7
370
    35
100
AcDbLine
 10
1206.5161012449
 20
943.7886111204
 30
0.0
 11
1206.5161012449
 21
933.9222621152
 31
0.0
  0
SPLINE
  5
25C
330
1F
100
AcDbEntity
  8
0
  6
Continuous
 62
     7
370
    35
100
AcDbSpline
210
0.0
220
0.0
230
1.0
 70
     8
 71
     3
 72
    11
 73
     7
 74
     0
 42
0.000000001
 43
0.00000001
 40
0.0
 40
0.0
 40
0.0
 40
0.0
 40
0.2606216717114472
 40
0.463200448083139
 40
0.671366779562132
 40
1.0
 40
1.0
 40
1.0
 40
1.0
 10
1206.09650016042
 20
931.055913109926
 30
0.0
 10
1205.729618789759
 20
930.0541949301155
 30
0.0
 10
1205.07756397725
 20
928.2738506222374
 30
0.0
 10
1203.540199115427
 20
926.0188510001744
 30
0.0
 10
1201.525433330936
 20
923.8042168198284
 30
0.0
 10
1199.680105245107
 20
922.6837547218583
 30
0.0
 10
1198.550379802071
 20
921.9977983600849
 30
0.0
  0
SPLINE
  5
25D
330
1F
100
AcDbEntity
  8
0
  6
Continuous
 62
     7
370
    35
100
AcDbSpline
210
0.0
220
0.0
230
1.0
 70
     8
 71
     3
 72
     9
 73
     5
 74
     0
 42
0.000000001
 43
0.00000001
 40
0.0
 40
0.0
 40
0.0
 40
0.0
 40
0.4946096718336985
 40
1.0
 40
1.0
 40
1.0
 40
1.0
 10
1292.516101244916
 20
943.7886111204346
 30
0.0
 10
1292.533620613749
 20
944.2696992985908
 30
0.0
 10
1292.569041208677
 20
945.242361592825
 30
0.0
 10
1292.812606690586
 20
946.1807219013998
 30
0.0
 10
1292.935702329418
 20
946.6549601256888
 30
0.0
  0
SPLINE
  5
25E
330
1F
100
AcDbEntity
  8
0
  6
Continuous
 62
     7
370
    35
100
AcDbSpline
210
0.0
220
0.0
230
1.0
 70
     8
 71
     3
 72
    16
 73
    12
 74
     0
 42
0.000000001
 43
0.00000001
 40
0.0
 40
0.0
 40
0.0
 40
0.0
 40
0.6093642604474575
 40
0.7233750503865222
 40
0.8172213162014308
 40
0.8496365726793002
 40
0.8823612341653096
 40
0.9067814804498372
 40
0.9311421346350485
 40
0.9706402276062258
 40
1.0
 40
1.0
 40
1.0
 40
1.0
 10
1300.481822687767
 20
955.71307487553
 30
0.0
 10
1301.058656957356
 20
956.0107299514794
 30
0.0
 10
1301.743415723028
 20
956.3640756751106
 30
0.0
 10
1302.41065869422
 20
956.8898139987681
 30
0.0
 10
1302.580912092204
 20
957.0749670088255
 30
0.0
 10
1302.649185552883
 20
957.2236233089989
 30
0.0
 10
1302.660824693879
 20
957.317223974381
 30
0.0
 10
1302.636299245668
 20
957.40118665939
 30
0.0
 10
1302.580036538026
 20
957.479325646563
 30
0.0
 10
1302.496964375362
 20
957.5415228424002
 30
0.0
 10
1302.428543506915
 20
957.5734127716304
 30
0.0
 10
1302.399370062256
 20
957.5870100717918
 30
0.0
  0
SPLINE
  5
25F
330
1F
100
AcDbEntity
  8
0
  6
Continuous
 62
     7
370
    35
100
AcDbSpline
210
0.0
220
0.0
230
1.0
 70
     8
 71
     3
 72
    13
 73
     9
 74
     0
 42
0.000000001
 43
0.00000001
 40
0.0
 40
0.0
 40
0.0
 40
0.0
 40
0.158507776389144
 40
0.3168380823631914
 40
0.4791716695216486
 40
0.6493085002787241
 40
0.8235953482372019
 40
1.0
 40
1.0
 40
1.0
 40
1.0
 10
1315.043713482074
 20
943.1765892782868
 30
0.0
 10
1314.751138328315
 20
944.1869147300915
 30
0.0
 10
1314.166315597369
 20
946.2064344407631
 30
0.0
 10
1312.670289045683
 20
949.0270371923233
 30
0.0
 10
1310.743610375977
 20
951.6570880003077
 30
0.0
 10
1308.344535978198
 20
954.0200205965563
 30
0.0
 10
1305.552209705464
 20
956.0759129416324
 30
0.0
 10
1303.454539176578
 20
957.0812872311393
 30
0.0
 10
1302.399370062256
 20
957.5870100717918
 30
0.0
  0
SPLINE
  5
260
330
1F
100
AcDbEntity
  8
0
  6
Continuous
 62
     7
370
    35
100
AcDbSpline
210
0.0
220
0.0
230
1.0
 70
     8
 71
     3
 72
     9
 73
     5
 74
     0
 42
0.000000001
 43
0.00000001
 40
0.0
 40
0.0
 40
0.0
 40
0.0
 40
0.4781757401206186
 40
0.9999999999999999
 40
0.9999999999999999
 40
0.9999999999999999
 40
0.9999999999999999
 10
1315.043713482074
 20
943.1765892782868
 30
0.0
 10
1315.290439873739
 20
941.8003432084168
 30
0.0
 10
1315.806414171397
 20
938.9222254906028
 30
0.0
 10
1315.305238898121
 20
936.0388823550277
 30
0.0
 10
1315.043713482074
 20
934.5342839573278
 30
0.0
  0
SPLINE
  5
261
330
1F
100
AcDbEntity
  8
0
  6
Continuous
 62
     7
370
    35
100
AcDbSpline
210
0.0
220
0.0
230
1.0
 70
     8
 71
     3
 72
    13
 73
     9
 74
     0
 42
0.000000001
 43
0.00000001
 40
0.0
 40
0.0
 40
0.0
 40
0.0
 40
0.1585077763891448
 40
0.3168380823631931
 40
0.4791716695216505
 40
0.6493085002787267
 40
0.8235953482372128
 40
1.0
 40
1.0
 40
1.0
 40
1.0
 10
1315.043713482074
 20
934.5342839573278
 30
0.0
 10
1314.751138328315
 20
933.5239585055228
 30
0.0
 10
1314.166315597369
 20
931.5044387948514
 30
0.0
 10
1312.670289045682
 20
928.6838360432913
 30
0.0
 10
1310.743610375977
 20
926.0537852353068
 30
0.0
 10
1308.344535978198
 20
923.6908526390583
 30
0.0
 10
1305.552209705464
 20
921.6349602939817
 30
0.0
 10
1303.454539176578
 20
920.6295860044751
 30
0.0
 10
1302.399370062256
 20
920.1238631638229
 30
0.0
  0
SPLINE
  5
262
330
1F
100
AcDbEntity
  8
0
  6
Continuous
 62
     7
370
    35
100
AcDbSpline
210
0.0
220
0.0
230
1.0
 70
     8
 71
     3
 72
    16
 73
    12
 74
     0
 42
0.000000001
 43
0.00000001
 40
0.0
 40
0.0
 40
0.0
 40
0.0
 40
0.6093642604474565
 40
0.7233750503865238
 40
0.8172213162014321
 40
0.8496365726793014
 40
0.8823612341653074
 40
0.9067814804498375
 40
0.9311421346350486
 40
0.9706402276062258
 40
1.0
 40
1.0
 40
1.0
 40
1.0
 10
1300.481822687767
 20
921.9977983600849
 30
0.0
 10
1301.058656957356
 20
921.7001432841353
 30
0.0
 10
1301.743415723028
 20
921.3467975605041
 30
0.0
 10
1302.41065869422
 20
920.8210592368466
 30
0.0
 10
1302.580912092204
 20
920.6359062267892
 30
0.0
 10
1302.649185552883
 20
920.4872499266161
 30
0.0
 10
1302.660824693879
 20
920.3936492612338
 30
0.0
 10
1302.636299245668
 20
920.3096865762249
 30
0.0
 10
1302.580036538026
 20
920.2315475890517
 30
0.0
 10
1302.496964375362
 20
920.1693503932145
 30
0.0
 10
1302.428543506915
 20
920.1374604639843
 30
0.0
 10
1302.399370062256
 20
920.1238631638229
 30
0.0
  0
SPLINE
  5
263
330
1F
100
AcDbEntity
  8
0
  6
Continuous
 62
     7
370
    35
100
AcDbSpline
210
0.0
220
0.0
230
1.0
 70
     8
 71
     3
 72
    11
 73
     7
 74
     0
 42
0.000000001
 43
0.00000001
 40
0.0
 40
0.0
 40
0.0
 40
0.0
 40
0.2606216717114533
 40
0.4632004480831464
 40
0.6713667795621413
 40
1.0
 40
1.0
 40
1.0
 40
1.0
 10
1292.935702329418
 20
931.0559131099257
 30
0.0
 10
1293.302583700079
 20
930.0541949301153
 30
0.0
 10
1293.954638512589
 20
928.2738506222371
 30
0.0
 10
1295.492003374412
 20
926.0188510001742
 30
0.0
 10
1297.506769158902
 20
923.8042168198281
 30
0.0
 10
1299.352097244732
 20
922.6837547218582
 30
0.0
 10
1300.481822687767
 20
921.9977983600849
 30
0.0
  0
SPLINE
  5
264
330
1F
100
AcDbEntity
  8
0
  6
Continuous
 62
     7
370
    35
100
AcDbSpline
210
0.0
220
0.0
230
1.0
 70
     8
 71
     3
 72
     9
 73
     5
 74
     0
 42
0.000000001
 43
0.00000001
 40
0.0
 40
0.0
 40
0.0
 40
0.0
 40
0.4946096718337116
 40
1.0
 40
1.0
 40
1.0
 40
1.0
 10
1292.516101244916
 20
933.92226211518
 30
0.0
 10
1292.533620613749
 20
933.4411739370238
 30
0.0
 10
1292.569041208677
 20
932.4685116427896
 30
0.0
 10
1292.812606690586
 20
931.5301513342146
 30
0.0
 10
1292.935702329418
 20
931.0559131099257
 30
0.0
  0
LINE
  5
265
330
1F
100
AcDbEntity
  8
0
  6
Continuous
 62
     7
370
    35
100
AcDbLine
 10
1292.5161012449
 20
943.7886111204
 30
0.0
 11
1292.5161012449
 21
933.9222621152
 31
0.0
  0
SPLINE
  5
266
330
1F
100
AcDbEntity
  8
0
  6
Continuous
 62
     7
370
    35
100
AcDbSpline
210
0.0
220
0.0
230
1.0
 70
     8
 71
     3
 72
    11
 73
     7
 74
     0
 42
0.000000001
 43
0.00000001
 40
0.0
 40
0.0
 40
0.0
 40
0.0
 40
0.2606216717114504
 40
0.4632004480831407
 40
0.6713667795621338
 40
1.0
 40
1.0
 40
1.0
 40
1.0
 10
1292.935702329418
 20
946.6549601256888
 30
0.0
 10
1293.302583700079
 20
947.6566783054992
 30
0.0
 10
1293.954638512589
 20
949.4370226133775
 30
0.0
 10
1295.492003374412
 20
951.6920222354403
 30
0.0
 10
1297.506769158902
 20
953.9066564157864
 30
0.0
 10
1299.352097244732
 20
955.0271185137566
 30
0.0
 10
1300.481822687767
 20
955.71307487553
 30
0.0
  0
SPLINE
  5
267
330
1F
100
AcDbEntity
  8
0
  6
Continuous
 62
     7
370
    35
100
AcDbSpline
210
0.0
220
0.0
230
1.0
 70
     8
 71
     3
 72
    17
 73
    13
 74
     0
 42
0.000000001
 43
0.00000001
 40
0.0
 40
0.0
 40
0.0
 40
0.0
 40
0.035212730180032
 40
0.1768616316807822
 40
0.2808325704307522
 40
0.3877934996385736
 40
0.4930479341421639
 40
0.5965428442053748
 40
0.700001688600702
 40
0.8034759650084121
 40
0.9098495553099565
 40
1.0
 40
1.0
 40
1.0
 40
1.0
 10
1196.510196773953
 20
917.1181642221296
 30
0.0
 10
1196.110015431871
 20
917.1255682293286
 30
0.0
 10
1194.100039926793
 20
917.1627560528091
 30
0.0
 10
1190.922892003993
 20
917.7186509823093
 30
0.0
 10
1187.153260737274
 20
919.1215059611657
 30
0.0
 10
1184.036588662527
 20
920.9463772682439
 30
0.0
 10
1181.252297158218
 20
923.2347997313461
 30
0.0
 10
1178.920933958633
 20
925.9316434393787
 30
0.0
 10
1177.061260888544
 20
928.9487958205775
 30
0.0
 10
1175.703104882433
 20
932.2541171941466
 30
0.0
 10
1174.909184736866
 20
935.5945087267683
 30
0.0
 10
1174.819012546456
 20
937.8299735218046
 30
0.0
 10
1174.777648328261
 20
938.8554366178075
 30
0.0
  0
SPLINE
  5
268
330
1F
100
AcDbEntity
  8
0
  6
Continuous
 62
     7
370
    35
100
AcDbSpline
210
0.0
220
0.0
230
1.0
 70
     8
 71
     3
 72
    17
 73
    13
 74
     0
 42
0.000000001
 43
0.00000001
 40
0.0
 40
0.0
 40
0.0
 40
0.0
 40
0.0352140993686981
 40
0.176868508652275
 40
0.2823152604671306
 40
0.38778375218661
 40
0.4930422793344872
 40
0.5965412136257879
 40
0.7000040808468511
 40
0.8049238598612675
 40
0.9098460499592912
 40
1.0
 40
1.0
 40
1.0
 40
1.0
 10
1196.510196773953
 20
960.5927090134852
 30
0.0
 10
1196.110026809225
 20
960.5852751341437
 30
0.0
 10
1194.100108448742
 20
960.5479372729966
 30
0.0
 10
1190.905027379112
 20
959.9924982729184
 30
0.0
 10
1187.141360740477
 20
958.574003412653
 30
0.0
 10
1184.022381527352
 20
956.7556896710104
 30
0.0
 10
1181.252477500397
 20
954.4755723930045
 30
0.0
 10
1178.921195907101
 20
951.7792341797987
 30
0.0
 10
1177.051390776879
 20
948.748550312369
 30
0.0
 10
1175.70289499191
 20
945.4391157435882
 30
0.0
 10
1174.907395545986
 20
942.1001144440272
 30
0.0
 10
1174.818658111546
 20
939.8809964472742
 30
0.0
 10
1174.777648328261
 20
938.8554366178075
 30
0.0
  0
SPLINE
  5
269
330
1F
100
AcDbEntity
  8
0
  6
Continuous
 62
     7
370
    35
100
AcDbSpline
210
0.0
220
0.0
230
1.0
 70
     8
 71
     3
 72
    17
 73
    13
 74
     0
 42
0.000000001
 43
0.00000001
 40
0.0
 40
0.0
 40
0.0
 40
0.0
 40
0.0352140993686987
 40
0.1768685086522759
 40
0.2823152604671313
 40
0.3877837521866113
 40
0.493042279334484
 40
0.596541213625785
 40
0.7000040808468485
 40
0.8049238598612661
 40
0.9098460499592912
 40
1.0
 40
1.0
 40
1.0
 40
1.0
 10
1302.522005715885
 20
960.5927090134852
 30
0.0
 10
1302.922175680614
 20
960.5852751341434
 30
0.0
 10
1304.932094041097
 20
960.5479372729956
 30
0.0
 10
1308.127175110727
 20
959.9924982729182
 30
0.0
 10
1311.890841749361
 20
958.5740034126525
 30
0.0
 10
1315.009820962486
 20
956.7556896710098
 30
0.0
 10
1317.779724989442
 20
954.4755723930043
 30
0.0
 10
1320.111006582738
 20
951.7792341797984
 30
0.0
 10
1321.98081171296
 20
948.7485503123688
 30
0.0
 10
1323.329307497929
 20
945.4391157435879
 30
0.0
 10
1324.124806943852
 20
942.1001144440269
 30
0.0
 10
1324.213544378292
 20
939.8809964472739
 30
0.0
 10
1324.254554161578
 20
938.8554366178073
 30
0.0
  0
SPLINE
  5
26A
330
1F
100
AcDbEntity
  8
0
  6
Continuous
 62
     7
370
    35
100
AcDbSpline
210
0.0
220
0.0
230
1.0
 70
     8
 71
     3
 72
    17
 73
    13
 74
     0
 42
0.000000001
 43
0.00000001
 40
0.0
 40
0.0
 40
0.0
 40
0.0
 40
0.0352127301800314
 40
0.1768616316807812
 40
0.2808325704307511
 40
0.3877934996385721
 40
0.4930479341421668
 40
0.5965428442053775
 40
0.7000016886007043
 40
0.8034759650084144
 40
0.9098495553099564
 40
1.0
 40
1.0
 40
1.0
 40
1.0
 10
1302.522005715885
 20
917.1181642221296
 30
0.0
 10
1302.922187057967
 20
917.1255682293285
 30
0.0
 10
1304.932162563045
 20
917.1627560528079
 30
0.0
 10
1308.109310485846
 20
917.718650982309
 30
0.0
 10
1311.878941752564
 20
919.1215059611651
 30
0.0
 10
1314.995613827311
 20
920.9463772682433
 30
0.0
 10
1317.779905331621
 20
923.2347997313459
 30
0.0
 10
1320.111268531205
 20
925.9316434393784
 30
0.0
 10
1321.970941601294
 20
928.9487958205772
 30
0.0
 10
1323.329097607406
 20
932.2541171941464
 30
0.0
 10
1324.123017752973
 20
935.5945087267679
 30
0.0
 10
1324.213189943382
 20
937.8299735218043
 30
0.0
 10
1324.254554161578
 20
938.8554366178073
 30
0.0
  0
LINE
  5
26B
330
1F
100
AcDbEntity
  8
0
  6
Continuous
 62
     7
370
    35
100
AcDbLine
 10
1249.5161012449
 20
960.5967090853
 30
0.0
 11
1196.510196774
 21
960.5927090135
 31
0.0
  0
LINE
  5
26C
330
1F
100
AcDbEntity
  8
0
  6
Continuous
 62
     7
370
    35
100
AcDbLine
 10
1249.5161012449
 20
917.1141641503
 30
0.0
 11
1196.510196774
 21
917.1181642221
 31
0.0
  0
LINE
  5
26D
330
1F
100
AcDbEntity
  8
0
  6
Continuous
 62
     7
370
    35
100
AcDbLine
 10
1249.5161012449
 20
960.5967090853
 30
0.0
 11
1302.5220057159
 21
960.5927090135
 31
0.0
  0
LINE
  5
26E
330
1F
100
AcDbEntity
  8
0
  6
Continuous
 62
     7
370
    35
100
AcDbLine
 10
1249.5161012449
 20
917.1141641503
 30
0.0
 11
1302.5220057159
 21
917.1181642221
 31
0.0
  0
LINE
  5
26F
330
1F
100
AcDbEntity
  8
0
  6
Continuous
 62
     7
370
    35
100
AcDbLine
 10
1292.5930372576
 20
944.8554366178
 30
0.0
 11
1206.4391652322
 21
944.8554366178
 31
0.0
  0
LINE
  5
270
330
1F
100
AcDbEntity
  8
0
  6
Continuous
 62
     7
370
    35
100
AcDbLine
 10
1292.5930372576
 20
932.8554366178
 30
0.0
 11
1206.4391652322
 21
932.8554366178
 31
0.0
  0
LINE
  5
271
330
1F
100
AcDbEntity
  8
0
  6
Continuous
 62
     7
370
    35
100
AcDbLine
 10
1196.5161012449
 20
960.6054366178
 30
0.0
 11
1302.5161012449
 21
960.6054366178
 31
0.0
  0
ARC
  5
272
330
1F
100
AcDbEntity
  8
0
  6
Continuous
 62
     7
370
    35
100
AcDbCircle
 10
1196.5161012449
 20
938.8554366178
 30
0.0
 40
21.75000000000011
100
AcDbArc
 50
90.0
 51
270.0
  0
LINE
  5
273
330
1F
100
AcDbEntity
  8
0
  6
Continuous
 62
     7
370
    35
100
AcDbLine
 10
1196.5161012449
 20
917.1054366178
 30
0.0
 11
1302.5161012449
 21
917.1054366178
 31
0.0
  0
ARC
  5
274
330
1F
100
AcDbEntity
  8
0
  6
Continuous
 62
     7
370
    35
100
AcDbCircle
 10
1302.5161012449
 20
938.8554366178
 30
0.0
 40
21.75000000000011
100
AcDbArc
 50
270.0
 51
90.0
  0
LINE
  5
275
330
1F
100
AcDbEntity
  8
0
  6
Continuous
 62
     7
370
    35
100
AcDbLine
 10
1689.5161012449
 20
1004.3554366178
 30
0.0
 11
1712.0161012449
 21
1004.3554366178
 31
0.0
  0
ARC
  5
276
330
1F
100
AcDbEntity
  8
0
  6
Continuous
 62
     7
370
    35
100
AcDbCircle
 10
1712.0161012449
 20
994.3554366178
 30
0.0
 40
10.00000000000011
100
AcDbArc
 50
0.0
 51
90.0
  0
LINE
  5
277
330
1F
100
AcDbEntity
  8
0
  6
Continuous
 62
     7
370
    35
100
AcDbLine
 10
1722.0161012449
 20
994.3554366178
 30
0.0
 11
1722.0161012449
 21
883.3554366178
 31
0.0
  0
ARC
  5
278
330
1F
100
AcDbEntity
  8
0
  6
Continuous
 62
     7
370
    35
100
AcDbCircle
 10
1712.0161012449
 20
883.3554366178
 30
0.0
 40
10.0
100
AcDbArc
 50
270.0
 51
0.0
  0
LINE
  5
279
330
1F
100
AcDbEntity
  8
0
  6
Continuous
 62
     7
370
    35
100
AcDbLine
 10
1712.0161012449
 20
873.3554366178
 30
0.0
 11
1689.5161012449
 21
873.3554366178
 31
0.0
  0
LINE
  5
27A
330
1F
100
AcDbEntity
  8
0
  6
Continuous
 62
     7
370
    35
100
AcDbLine
 10
809.5161012449
 20
873.3554366178
 30
0.0
 11
787.0161012449
 21
873.3554366178
 31
0.0
  0
ARC
  5
27B
330
1F
100
AcDbEntity
  8
0
  6
Continuous
 62
     7
370
    35
100
AcDbCircle
 10
787.0161012449
 20
883.3554366178
 30
0.0
 40
10.00000000000011
100
AcDbArc
 50
180.0
 51
270.0
  0
LINE
  5
27C
330
1F
100
AcDbEntity
  8
0
  6
Continuous
 62
     7
370
    35
100
AcDbLine
 10
777.0161012449
 20
883.3554366178
 30
0.0
 11
777.0161012449
 21
994.3554366178
 31
0.0
  0
LINE
  5
27D
330
1F
100
AcDbEntity
  8
0
  6
Continuous
 62
     7
370
    35
100
AcDbLine
 10
787.0161012449
 20
1004.3554366178
 30
0.0
 11
809.5161012449
 21
1004.3554366178
 31
0.0
  0
ARC
  5
27E
330
1F
100
AcDbEntity
  8
0
  6
Continuous
 62
     7
370
    35
100
AcDbCircle
 10
787.0161012449
 20
994.3554366178
 30
0.0
 40
10.0
100
AcDbArc
 50
90.0
 51
180.0
  0
LINE
  5
27F
330
1F
100
AcDbEntity
  8
0
  6
Continuous
 62
     7
370
    35
100
AcDbLine
 10
809.5161012449
 20
903.8554366178
 30
0.0
 11
807.5161012449
 21
903.8554366178
 31
0.0
  0
LINE
  5
280
330
1F
100
AcDbEntity
  8
0
  6
Continuous
 62
     7
370
    35
100
AcDbLine
 10
807.5161012449
 20
903.8554366178
 30
0.0
 11
807.5161012449
 21
973.8554366178
 31
0.0
  0
LINE
  5
281
330
1F
100
AcDbEntity
  8
0
  6
Continuous
 62
     7
370
    35
100
AcDbLine
 10
809.5161012449
 20
973.8554366178
 30
0.0
 11
809.5161012449
 21
973.7696501802
 31
0.0
  0
LINE
  5
282
330
1F
100
AcDbEntity
  8
0
  6
Continuous
 62
     7
370
    35
100
AcDbLine
 10
809.5161012449
 20
970.9412230554
 30
0.0
 11
809.5161012449
 21
906.7696501802
 31
0.0
  0
LINE
  5
283
330
1F
100
AcDbEntity
  8
0
  6
Continuous
 62
     7
370
    35
100
AcDbLine
 10
809.5161012449
 20
903.9412230554
 30
0.0
 11
809.5161012449
 21
903.8554366178
 31
0.0
  0
LINE
  5
284
330
1F
100
AcDbEntity
  8
0
  6
Continuous
 62
     7
370
    35
100
AcDbLine
 10
807.5161012449
 20
973.8554366178
 30
0.0
 11
809.5161012449
 21
973.8554366178
 31
0.0
  0
LINE
  5
285
330
1F
100
AcDbEntity
  8
0
  6
Continuous
 62
     7
370
    35
100
AcDbLine
 10
1689.5161012449
 20
973.8554366178
 30
0.0
 11
1691.5161012449
 21
973.8554366178
 31
0.0
  0
LINE
  5
286
330
1F
100
AcDbEntity
  8
0
  6
Continuous
 62
     7
370
    35
100
AcDbLine
 10
1691.5161012449
 20
973.8554366178
 30
0.0
 11
1691.5161012449
 21
903.8554366178
 31
0.0
  0
LINE
  5
287
330
1F
100
AcDbEntity
  8
0
  6
Continuous
 62
     7
370
    35
100
AcDbLine
 10
1691.5161012449
 20
903.8554366178
 30
0.0
 11
1689.5161012449
 21
903.8554366178
 31
0.0
  0
LINE
  5
288
330
1F
100
AcDbEntity
  8
0
  6
Continuous
 62
     7
370
    35
100
AcDbLine
 10
1689.5161012449
 20
903.8554366178
 30
0.0
 11
1689.5161012449
 21
903.9412230554
 31
0.0
  0
LINE
  5
289
330
1F
100
AcDbEntity
  8
0
  6
Continuous
 62
     7
370
    35
100
AcDbLine
 10
1689.5161012449
 20
906.7696501802
 30
0.0
 11
1689.5161012449
 21
970.9412230554
 31
0.0
  0
LINE
  5
28A
330
1F
100
AcDbEntity
  8
0
  6
Continuous
 62
     7
370
    35
100
AcDbLine
 10
1689.5161012449
 20
973.7696501802
 30
0.0
 11
1689.5161012449
 21
973.8554366178
 31
0.0
  0
LINE
  5
28B
330
1F
100
AcDbEntity
  8
0
  6
Continuous
 62
     8
370
    18
100
AcDbLine
 10
1689.5161012449
 20
974.8554366178
 30
0.0
 11
809.5161012449
 21
974.8554366178
 31
0.0
  0
LINE
  5
28C
330
1F
100
AcDbEntity
  8
0
  6
Continuous
 62
     8
370
    18
100
AcDbLine
 10
809.5161012449
 20
902.8554366178
 30
0.0
 11
1689.5161012449
 21
902.8554366178
 31
0.0
  0
LINE
  5
28D
330
1F
100
AcDbEntity
  8
0
  6
Continuous
 62
     8
370
    18
100
AcDbLine
 10
809.5161012449
 20
969.9121294054
 30
0.0
 11
1689.5161012449
 21
969.9121294054
 31
0.0
  0
LINE
  5
28E
330
1F
100
AcDbEntity
  8
0
  6
Continuous
 62
     8
370
    18
100
AcDbLine
 10
809.5161012449
 20
907.7987438302
 30
0.0
 11
1689.5161012449
 21
907.7987438302
 31
0.0
  0
LINE
  5
28F
330
1F
100
AcDbEntity
  8
0
  6
Continuous
 62
     8
370
    18
100
AcDbLine
 10
809.5161012449
 20
938.9121294054
 30
0.0
 11
1166.5164345842
 21
938.9121294054
 31
0.0
  0
LINE
  5
290
330
1F
100
AcDbEntity
  8
0
  6
Continuous
 62
     8
370
    18
100
AcDbLine
 10
1332.5157679057
 20
938.9121294054
 30
0.0
 11
1689.5161012449
 21
938.9121294054
 31
0.0
  0
LINE
  5
291
330
1F
100
AcDbEntity
  8
0
  6
Continuous
 62
     8
370
    18
100
AcDbLine
 10
1332.5147620183
 20
938.9690237796
 30
0.0
 11
1332.5147620183
 21
938.9688221929
 31
0.0
  0
LINE
  5
292
330
1F
100
AcDbEntity
  8
0
  6
Continuous
 62
     8
370
    18
100
AcDbLine
 10
1332.5147620183
 20
938.741849456
 30
0.0
 11
1332.5147620183
 21
938.7420510427
 31
0.0
  0
ARC
  5
293
330
1F
100
AcDbEntity
  8
0
  6
Continuous
 62
     8
370
    18
100
AcDbCircle
 10
1256.2663906447
 20
898.2240088638
 30
0.0
 40
54.26577168243873
100
AcDbArc
 50
12.3156445559
 51
15.3088218734
  0
ARC
  5
294
330
1F
100
AcDbEntity
  8
0
  6
Continuous
 62
     8
370
    18
100
AcDbCircle
 10
1331.6417533159
 20
925.4018495373
 30
0.0
 40
13.36873667926749
100
AcDbArc
 50
86.2557918319
 51
99.1541892989
  0
LINE
  5
295
330
1F
100
AcDbEntity
  8
0
  6
Continuous
 62
     8
370
    18
100
AcDbLine
 10
1166.5174404715
 20
938.741849456
 30
0.0
 11
1166.5174404715
 21
938.7420510427
 31
0.0
  0
ARC
  5
296
330
1F
100
AcDbEntity
  8
0
  6
Continuous
 62
     8
370
    18
100
AcDbCircle
 10
1167.3904491739
 20
925.4018495373
 30
0.0
 40
13.36873667926068
100
AcDbArc
 50
80.8458107011
 51
93.7442081681
  0
ARC
  5
297
330
1F
100
AcDbEntity
  8
0
  6
Continuous
 62
     8
370
    18
100
AcDbCircle
 10
1242.7658118455
 20
898.2240088637
 30
0.0
 40
54.26577168282031
100
AcDbArc
 50
164.6911781266
 51
167.6843554441
  0
ARC
  5
298
330
1F
100
AcDbEntity
  8
0
  6
Continuous
 62
     8
370
    18
100
AcDbCircle
 10
1331.6417533159
 20
952.3090236983
 30
0.0
 40
13.36873667923553
100
AcDbArc
 50
260.8458107011
 51
273.7442081681
  0
ARC
  5
299
330
1F
100
AcDbEntity
  8
0
  6
Continuous
 62
     8
370
    18
100
AcDbCircle
 10
1256.2663906448
 20
979.4868643718
 30
0.0
 40
54.26577168234571
100
AcDbArc
 50
344.6911781266
 51
347.6843554441
  0
LINE
  5
29A
330
1F
100
AcDbEntity
  8
0
  6
Continuous
 62
     8
370
    18
100
AcDbLine
 10
1166.5174404715
 20
938.9690237796
 30
0.0
 11
1166.5174404715
 21
938.9688221929
 31
0.0
  0
ARC
  5
29B
330
1F
100
AcDbEntity
  8
0
  6
Continuous
 62
     8
370
    18
100
AcDbCircle
 10
1242.7658118445
 20
979.4868643717
 30
0.0
 40
54.26577168179899
100
AcDbArc
 50
192.3156445558
 51
195.3088218734
  0
ARC
  5
29C
330
1F
100
AcDbEntity
  8
0
  6
Continuous
 62
     8
370
    18
100
AcDbCircle
 10
1167.3904491739
 20
952.3090236983
 30
0.0
 40
13.36873667922707
100
AcDbArc
 50
266.2557918319
 51
279.1541892989
  0
LINE
  5
29D
330
1F
100
AcDbEntity
  8
0
  6
Continuous
 62
     8
370
    18
100
AcDbLine
 10
809.5161012449
 20
938.7987438302
 30
0.0
 11
1166.5164345842
 21
938.7987438302
 31
0.0
  0
LINE
  5
29E
330
1F
100
AcDbEntity
  8
0
  6
Continuous
 62
     8
370
    18
100
AcDbLine
 10
1332.5157679057
 20
938.7987438302
 30
0.0
 11
1689.5161012449
 21
938.7987438302
 31
0.0
  0
LINE
  5
29F
330
1F
100
AcDbEntity
  8
0
  6
Continuous
 62
     8
370
    18
100
AcDbLine
 10
1196.5161012449
 20
911.8554366178
 30
0.0
 11
1196.5161012449
 21
909.6054366178
 31
0.0
  0
LINE
  5
2A0
330
1F
100
AcDbEntity
  8
0
  6
Continuous
 62
     8
370
    18
100
AcDbLine
 10
1302.5161012449
 20
911.8554366178
 30
0.0
 11
1302.5161012449
 21
909.6054366178
 31
0.0
  0
LINE
  5
2A1
330
1F
100
AcDbEntity
  8
0
  6
Continuous
 62
     8
370
    18
100
AcDbLine
 10
1196.5161012449
 20
968.1054366178
 30
0.0
 11
1196.5161012449
 21
965.8554366178
 31
0.0
  0
LINE
  5
2A2
330
1F
100
AcDbEntity
  8
0
  6
Continuous
 62
     8
370
    18
100
AcDbLine
 10
1196.5161012449
 20
968.1112208164
 30
0.0
 11
1196.5161012449
 21
968.1054366178
 31
0.0
  0
LINE
  5
2A3
330
1F
100
AcDbEntity
  8
0
  6
Continuous
 62
     8
370
    18
100
AcDbLine
 10
1302.5161012449
 20
968.1054366178
 30
0.0
 11
1302.5161012449
 21
965.8554366178
 31
0.0
  0
LINE
  5
2A4
330
1F
100
AcDbEntity
  8
0
  6
Continuous
 62
     8
370
    18
100
AcDbLine
 10
1302.5161012449
 20
968.1112208164
 30
0.0
 11
1302.5161012449
 21
968.1054366178
 31
0.0
  0
LINE
  5
2A5
330
1F
100
AcDbEntity
  8
0
  6
Continuous
 62
     8
370
    18
100
AcDbLine
 10
1196.5161012449
 20
909.5996524192
 30
0.0
 11
1196.5161012449
 21
909.6054366178
 31
0.0
  0
LINE
  5
2A6
330
1F
100
AcDbEntity
  8
0
  6
Continuous
 62
     8
370
    18
100
AcDbLine
 10
1302.5161012449
 20
909.5996524192
 30
0.0
 11
1302.5161012449
 21
909.6054366178
 31
0.0
  0
SPLINE
  5
2A7
330
1F
100
AcDbEntity
  8
0
  6
Continuous
 62
     8
370
    18
100
AcDbSpline
210
0.0
220
0.0
230
1.0
 70
     8
 71
     3
 72
    17
 73
    13
 74
     0
 42
0.000000001
 43
0.00000001
 40
0.0
 40
0.0
 40
0.0
 40
0.0
 40
0.0000017599180569
 40
0.1227053397328947
 40
0.2502071717394734
 40
0.3526128094214101
 40
0.4578053944919518
 40
0.4930427252802634
 40
0.6348536903675549
 40
0.7415522131116629
 40
0.8461670224033147
 40
1.0
 40
1.0
 40
1.0
 40
1.0
 10
1196.51019641302
 20
917.1137242976903
 30
0.0
 10
1196.51017641302
 20
917.1137242993358
 30
0.0
 10
1195.11573264634
 20
917.1138390206617
 30
0.0
 10
1192.266938336868
 20
917.4000974053911
 30
0.0
 10
1188.400302370401
 20
918.5505115618233
 30
0.0
 10
1185.003015057554
 20
920.3063031729303
 30
0.0
 10
1182.771625481387
 20
921.9529484249266
 30
0.0
 10
1180.411137278149
 20
924.1249167195788
 30
0.0
 10
1178.356350672786
 20
926.6545627231643
 30
0.0
 10
1176.465616337056
 20
930.2062965090399
 30
0.0
 10
1175.091965492787
 20
934.1570247755736
 30
0.0
 10
1174.892145319787
 20
937.1023335241689
 30
0.0
 10
1174.773208599273
 20
938.8554366178075
 30
0.0
  0
LINE
  5
2A8
330
1F
100
AcDbEntity
  8
0
  6
Continuous
 62
     8
370
    18
100
AcDbLine
 10
1174.7776483283
 20
938.8554366178
 30
0.0
 11
1174.7732085993
 21
938.8554366178
 31
0.0
  0
LINE
  5
2A9
330
1F
100
AcDbEntity
  8
0
  6
Continuous
 62
     8
370
    18
100
AcDbLine
 10
1196.510196774
 20
917.1181642221
 30
0.0
 11
1196.510196413
 21
917.1137242977
 31
0.0
  0
LWPOLYLINE
  5
2AA
330
1F
100
AcDbEntity
  8
0
  6
Continuous
 62
     8
370
    18
100
AcDbPolyline
 90
        3
 70
   128
 43
0.0
 10
1196.510196413
 20
917.1137242977
 10
1196.5101957139
 20
917.108185294
 10
1196.5101954394
 20
917.1054374196
  0
SPLINE
  5
2AB
330
1F
100
AcDbEntity
  8
0
  6
Continuous
 62
     8
370
    18
100
AcDbSpline
210
0.0
220
0.0
230
1.0
 70
     8
 71
     3
 72
    17
 73
    13
 74
     0
 42
0.000000001
 43
0.00000001
 40
0.0
 40
0.0
 40
0.0
 40
0.0
 40
0.0000017599180569
 40
0.1227053397328938
 40
0.2502071717394721
 40
0.3526128094214161
 40
0.4578053944919579
 40
0.4930427252802644
 40
0.634853690367556
 40
0.7415522131116641
 40
0.846167022403316
 40
1.0
 40
1.0
 40
1.0
 40
1.0
 10
1196.51019641302
 20
960.5971489379244
 30
0.0
 10
1196.51017641302
 20
960.5971489362792
 30
0.0
 10
1195.115732646502
 20
960.5970342149529
 30
0.0
 10
1192.26693833679
 20
960.3107758302244
 30
0.0
 10
1188.400302370417
 20
959.1603616737921
 30
0.0
 10
1185.00301505755
 20
957.4045700626845
 30
0.0
 10
1182.771625481387
 20
955.7579248106881
 30
0.0
 10
1180.411137278148
 20
953.5859565160364
 30
0.0
 10
1178.356350672786
 20
951.0563105124508
 30
0.0
 10
1176.465616337056
 20
947.5045767265751
 30
0.0
 10
1175.091965492787
 20
943.5538484600414
 30
0.0
 10
1174.892145319787
 20
940.608539711446
 30
0.0
 10
1174.773208599273
 20
938.8554366178075
 30
0.0
  0
LINE
  5
2AC
330
1F
100
AcDbEntity
  8
0
  6
Continuous
 62
     8
370
    18
100
AcDbLine
 10
1196.510196774
 20
960.5927090135
 30
0.0
 11
1196.510196413
 21
960.5971489379
 31
0.0
  0
LWPOLYLINE
  5
2AD
330
1F
100
AcDbEntity
  8
0
  6
Continuous
 62
     8
370
    18
100
AcDbPolyline
 90
        3
 70
   128
 43
0.0
 10
1196.510196413
 20
960.5971489379
 10
1196.5101957139
 20
960.6026879416
 10
1196.5101954394
 20
960.605435816
  0
SPLINE
  5
2AE
330
1F
100
AcDbEntity
  8
0
  6
Continuous
 62
     8
370
    18
100
AcDbSpline
210
0.0
220
0.0
230
1.0
 70
     8
 71
     3
 72
    17
 73
    13
 74
     0
 42
0.000000001
 43
0.00000001
 40
0.0
 40
0.0
 40
0.0
 40
0.0
 40
0.0000017599180569
 40
0.1227053397328956
 40
0.250207171739474
 40
0.3526128094214145
 40
0.4578053944919565
 40
0.4930427252802656
 40
0.6348536903675575
 40
0.7415522131116656
 40
0.8461670224033142
 40
1.0
 40
1.0
 40
1.0
 40
1.0
 10
1302.522006076819
 20
960.5971489379244
 30
0.0
 10
1302.522026076818
 20
960.5971489362792
 30
0.0
 10
1303.916469843176
 20
960.5970342148726
 30
0.0
 10
1306.765264153127
 20
960.3107758302627
 30
0.0
 10
1310.631900119404
 20
959.1603616737832
 30
0.0
 10
1314.029187432293
 20
957.4045700626864
 30
0.0
 10
1316.260577008451
 20
955.7579248106878
 30
0.0
 10
1318.621065211691
 20
953.585956516036
 30
0.0
 10
1320.675851817053
 20
951.0563105124503
 30
0.0
 10
1322.566586152783
 20
947.5045767265748
 30
0.0
 10
1323.940236997051
 20
943.5538484600412
 30
0.0
 10
1324.140057170051
 20
940.6085397114458
 30
0.0
 10
1324.258993890565
 20
938.8554366178073
 30
0.0
  0
LWPOLYLINE
  5
2AF
330
1F
100
AcDbEntity
  8
0
  6
Continuous
 62
     8
370
    18
100
AcDbPolyline
 90
        3
 70
   128
 43
0.0
 10
1302.5220060768
 20
960.5971489379
 10
1302.522006776
 20
960.6026879416
 10
1302.5220070504
 20
960.605435816
  0
LINE
  5
2B0
330
1F
100
AcDbEntity
  8
0
  6
Continuous
 62
     8
370
    18
100
AcDbLine
 10
1324.2545541616
 20
938.8554366178
 30
0.0
 11
1324.2589938906
 21
938.8554366178
 31
0.0
  0
LINE
  5
2B1
330
1F
100
AcDbEntity
  8
0
  6
Continuous
 62
     8
370
    18
100
AcDbLine
 10
1302.5220057159
 20
960.5927090135
 30
0.0
 11
1302.5220060768
 21
960.5971489379
 31
0.0
  0
SPLINE
  5
2B2
330
1F
100
AcDbEntity
  8
0
  6
Continuous
 62
     8
370
    18
100
AcDbSpline
210
0.0
220
0.0
230
1.0
 70
     8
 71
     3
 72
    17
 73
    13
 74
     0
 42
0.000000001
 43
0.00000001
 40
0.0
 40
0.0
 40
0.0
 40
0.0
 40
0.0000017599180569
 40
0.1227053397328937
 40
0.2502071717394715
 40
0.3526128094214117
 40
0.4578053944919532
 40
0.4930427252802622
 40
0.6348536903675535
 40
0.7415522131116613
 40
0.8461670224033164
 40
1.0
 40
1.0
 40
1.0
 40
1.0
 10
1302.522006076819
 20
917.1137242976903
 30
0.0
 10
1302.522026076818
 20
917.1137242993358
 30
0.0
 10
1303.916469843336
 20
917.1138390207424
 30
0.0
 10
1306.765264153049
 20
917.4000974053512
 30
0.0
 10
1310.631900119421
 20
918.5505115618312
 30
0.0
 10
1314.029187432289
 20
920.3063031729278
 30
0.0
 10
1316.260577008451
 20
921.9529484249266
 30
0.0
 10
1318.62106521169
 20
924.1249167195782
 30
0.0
 10
1320.675851817053
 20
926.6545627231638
 30
0.0
 10
1322.566586152783
 20
930.2062965090395
 30
0.0
 10
1323.940236997051
 20
934.1570247755733
 30
0.0
 10
1324.140057170051
 20
937.1023335241687
 30
0.0
 10
1324.258993890565
 20
938.8554366178073
 30
0.0
  0
LINE
  5
2B3
330
1F
100
AcDbEntity
  8
0
  6
Continuous
 62
     8
370
    18
100
AcDbLine
 10
1302.5220057159
 20
917.1181642221
 30
0.0
 11
1302.5220060768
 21
917.1137242977
 31
0.0
  0
LWPOLYLINE
  5
2B4
330
1F
100
AcDbEntity
  8
0
  6
Continuous
 62
     8
370
    18
100
AcDbPolyline
 90
        3
 70
   128
 43
0.0
 10
1302.5220060768
 20
917.1137242977
 10
1302.522006776
 20
917.108185294
 10
1302.5220070504
 20
917.1054374196
  0
SPLINE
  5
2B5
330
1F
100
AcDbEntity
  8
0
  6
Continuous
 62
     8
370
    18
100
AcDbSpline
210
0.0
220
0.0
230
1.0
 70
     8
 71
     3
 72
     9
 73
     5
 74
     0
 42
0.000000001
 43
0.00000001
 40
0.0
 40
0.0
 40
0.0
 40
0.0
 40
0.1546895589893172
 40
1.0
 40
1.0
 40
1.0
 40
1.0
 10
1196.632832427583
 20
957.5870100717918
 30
0.0
 10
1196.875884884153
 20
957.5143355367923
 30
0.0
 10
1198.447112174202
 20
957.0445266144934
 30
0.0
 10
1199.871230083023
 20
956.2282485854497
 30
0.0
 10
1201.075051820579
 20
955.5382402447312
 30
0.0
  0
ARC
  5
2B6
330
1F
100
AcDbEntity
  8
0
  6
Continuous
 62
     8
370
    18
100
AcDbCircle
 10
1202.5314684975
 20
954.0919102595
 30
0.0
 40
2.052564240830398
100
AcDbArc
 50
135.1990950655
 51
168.3527908007
  0
ARC
  5
2B7
330
1F
100
AcDbEntity
  8
0
  6
Continuous
 62
     8
370
    18
100
AcDbCircle
 10
1202.5314684975
 20
923.6189629761
 30
0.0
 40
2.05256424082917
100
AcDbArc
 50
191.6472091992
 51
224.8009049345
  0
SPLINE
  5
2B8
330
1F
100
AcDbEntity
  8
0
  6
Continuous
 62
     8
370
    18
100
AcDbSpline
210
0.0
220
0.0
230
1.0
 70
     8
 71
     3
 72
    11
 73
     7
 74
     0
 42
0.000000001
 43
0.00000001
 40
0.0
 40
0.0
 40
0.0
 40
0.0
 40
0.0771531718714959
 40
0.1543573881090452
 40
0.572760861230301
 40
0.9999999999999999
 40
0.9999999999999999
 40
0.9999999999999999
 40
0.9999999999999999
 10
1196.632832427583
 20
920.1238631638229
 30
0.0
 10
1196.754386303615
 20
920.1595196952477
 30
0.0
 10
1196.997574475453
 20
920.2308563483787
 30
0.0
 10
1197.891102895391
 20
920.5228640443207
 30
0.0
 10
1199.303950686551
 20
921.0904361290725
 30
0.0
 10
1200.480586763017
 20
921.809396692634
 30
0.0
 10
1201.075051820579
 20
922.1726329908836
 30
0.0
  0
SPLINE
  5
2B9
330
1F
100
AcDbEntity
  8
0
  6
Continuous
 62
     8
370
    18
100
AcDbSpline
210
0.0
220
0.0
230
1.0
 70
     8
 71
     3
 72
    11
 73
     7
 74
     0
 42
0.000000001
 43
0.00000001
 40
0.0
 40
0.0
 40
0.0
 40
0.0
 40
0.0771531718714945
 40
0.1543573881090453
 40
0.5727608612302946
 40
1.0
 40
1.0
 40
1.0
 40
1.0
 10
1302.399370062256
 20
920.1238631638229
 30
0.0
 10
1302.277816186223
 20
920.1595196952475
 30
0.0
 10
1302.034628014385
 20
920.2308563483784
 30
0.0
 10
1301.141099594447
 20
920.522864044321
 30
0.0
 10
1299.728251803287
 20
921.0904361290723
 30
0.0
 10
1298.551615726821
 20
921.8093966926339
 30
0.0
 10
1297.957150669259
 20
922.1726329908836
 30
0.0
  0
ARC
  5
2BA
330
1F
100
AcDbEntity
  8
0
  6
Continuous
 62
     8
370
    18
100
AcDbCircle
 10
1296.5007339924
 20
923.6189629761
 30
0.0
 40
2.052564240820707
100
AcDbArc
 50
315.1990950654
 51
348.3527908008
  0
ARC
  5
2BB
330
1F
100
AcDbEntity
  8
0
  6
Continuous
 62
     8
370
    18
100
AcDbCircle
 10
1296.5007339924
 20
954.0919102595
 30
0.0
 40
2.052564240818024
100
AcDbArc
 50
11.6472091991
 51
44.8009049346
  0
SPLINE
  5
2BC
330
1F
100
AcDbEntity
  8
0
  6
Continuous
 62
     8
370
    18
100
AcDbSpline
210
0.0
220
0.0
230
1.0
 70
     8
 71
     3
 72
     9
 73
     5
 74
     0
 42
0.000000001
 43
0.00000001
 40
0.0
 40
0.0
 40
0.0
 40
0.0
 40
0.1546895589893174
 40
1.0
 40
1.0
 40
1.0
 40
1.0
 10
1302.399370062256
 20
957.5870100717918
 30
0.0
 10
1302.156317605686
 20
957.5143355367923
 30
0.0
 10
1300.585090315637
 20
957.0445266144934
 30
0.0
 10
1299.160972406816
 20
956.2282485854497
 30
0.0
 10
1297.957150669259
 20
955.5382402447312
 30
0.0
  0
SPLINE
  5
2BD
330
1F
100
AcDbEntity
  8
0
  6
Continuous
 62
     8
370
    18
100
AcDbSpline
210
0.0
220
0.0
230
1.0
 70
     8
 71
     3
 72
    14
 73
    10
 74
     0
 42
0.000000001
 43
0.00000001
 40
0.0
 40
0.0
 40
0.0
 40
0.0
 40
0.1114289230463658
 40
0.4958785649708825
 40
0.7046555305635168
 40
0.8301760374267307
 40
0.912101879866412
 40
0.9942797082137661
 40
1.0
 40
1.0
 40
1.0
 40
1.0
 10
1201.075051820579
 20
922.1726329908836
 30
0.0
 10
1201.194442866221
 20
922.2549653561367
 30
0.0
 10
1201.725754295649
 20
922.6213590537171
 30
0.0
 10
1202.400045819009
 20
923.2541302044413
 30
0.0
 10
1202.857909606771
 20
924.0451147191416
 30
0.0
 10
1202.942367357105
 20
924.5553094530043
 30
0.0
 10
1202.859903064252
 20
924.8996380586685
 30
0.0
 10
1202.74019612063
 20
925.0773377794014
 30
0.0
 10
1202.659484847424
 20
925.1527203488242
 30
0.0
 10
1202.654232265998
 20
925.1576261453537
 30
0.0
  0
SPLINE
  5
2BE
330
1F
100
AcDbEntity
  8
0
  6
Continuous
 62
     8
370
    18
100
AcDbSpline
210
0.0
220
0.0
230
1.0
 70
     8
 71
     3
 72
    14
 73
    10
 74
     0
 42
0.000000001
 43
0.00000001
 40
0.0
 40
0.0
 40
0.0
 40
0.0
 40
0.1114289230463697
 40
0.495878564970854
 40
0.7046555305635066
 40
0.8301760374267122
 40
0.9121018798664108
 40
0.9942797082137677
 40
1.0
 40
1.0
 40
1.0
 40
1.0
 10
1201.075051820579
 20
955.5382402447312
 30
0.0
 10
1201.194442866221
 20
955.4559078794782
 30
0.0
 10
1201.725754295649
 20
955.0895141818977
 30
0.0
 10
1202.400045819009
 20
954.4567430311737
 30
0.0
 10
1202.857909606771
 20
953.6657585164735
 30
0.0
 10
1202.942367357105
 20
953.1555637826107
 30
0.0
 10
1202.859903064252
 20
952.8112351769466
 30
0.0
 10
1202.74019612063
 20
952.6335354562137
 30
0.0
 10
1202.659484847424
 20
952.5581528867909
 30
0.0
 10
1202.654232265998
 20
952.5532470902615
 30
0.0
  0
ARC
  5
2BF
330
1F
100
AcDbEntity
  8
0
  6
Continuous
 62
     8
370
    18
100
AcDbCircle
 10
1203.5161012449
 20
938.8554366178
 30
0.0
 40
20.0
100
AcDbArc
 50
90.0
 51
167.5224163015
  0
LINE
  5
2C0
330
1F
100
AcDbEntity
  8
0
  6
Continuous
 62
     8
370
    18
100
AcDbLine
 10
1203.5161012449
 20
951.5680874047
 30
0.0
 11
1203.5161012449
 21
958.8554366178
 31
0.0
  0
LINE
  5
2C1
330
1F
100
AcDbEntity
  8
0
  6
Continuous
 62
     8
370
    18
100
AcDbLine
 10
1203.5161012449
 20
926.1427858309
 30
0.0
 11
1203.5161012449
 21
918.8554366178
 31
0.0
  0
ARC
  5
2C2
330
1F
100
AcDbEntity
  8
0
  6
Continuous
 62
     8
370
    18
100
AcDbCircle
 10
1203.5161012449
 20
938.8554366178
 30
0.0
 40
20.0
100
AcDbArc
 50
192.4775836985
 51
270.0
  0
ARC
  5
2C3
330
1F
100
AcDbEntity
  8
0
  6
Continuous
 62
     8
370
    18
100
AcDbCircle
 10
1295.5161012449
 20
938.8554366178
 30
0.0
 40
19.99999999999989
100
AcDbArc
 50
270.0
 51
347.5224163015
  0
LINE
  5
2C4
330
1F
100
AcDbEntity
  8
0
  6
Continuous
 62
     8
370
    18
100
AcDbLine
 10
1295.5161012449
 20
926.1427858309
 30
0.0
 11
1295.5161012449
 21
918.8554366178
 31
0.0
  0
LINE
  5
2C5
330
1F
100
AcDbEntity
  8
0
  6
Continuous
 62
     8
370
    18
100
AcDbLine
 10
1295.5161012449
 20
951.5680874047
 30
0.0
 11
1295.5161012449
 21
958.8554366178
 31
0.0
  0
ARC
  5
2C6
330
1F
100
AcDbEntity
  8
0
  6
Continuous
 62
     8
370
    18
100
AcDbCircle
 10
1295.5161012449
 20
938.8554366178
 30
0.0
 40
20.0
100
AcDbArc
 50
12.4775836985
 51
90.0
  0
SPLINE
  5
2C7
330
1F
100
AcDbEntity
  8
0
  6
Continuous
 62
     8
370
    18
100
AcDbSpline
210
0.0
220
0.0
230
1.0
 70
     8
 71
     3
 72
    14
 73
    10
 74
     0
 42
0.000000001
 43
0.00000001
 40
0.0
 40
0.0
 40
0.0
 40
0.0
 40
0.1114289230463651
 40
0.4958785649709013
 40
0.704655530563518
 40
0.830176037426748
 40
0.9121018798664139
 40
0.9942797082137674
 40
1.0
 40
1.0
 40
1.0
 40
1.0
 10
1297.957150669259
 20
955.5382402447312
 30
0.0
 10
1297.837759623617
 20
955.4559078794782
 30
0.0
 10
1297.306448194189
 20
955.0895141818977
 30
0.0
 10
1296.63215667083
 20
954.4567430311733
 30
0.0
 10
1296.174292883067
 20
953.6657585164731
 30
0.0
 10
1296.089835132734
 20
953.1555637826103
 30
0.0
 10
1296.172299425586
 20
952.8112351769463
 30
0.0
 10
1296.292006369209
 20
952.6335354562135
 30
0.0
 10
1296.372717642415
 20
952.5581528867906
 30
0.0
 10
1296.377970223841
 20
952.5532470902612
 30
0.0
  0
SPLINE
  5
2C8
330
1F
100
AcDbEntity
  8
0
  6
Continuous
 62
     8
370
    18
100
AcDbSpline
210
0.0
220
0.0
230
1.0
 70
     8
 71
     3
 72
    14
 73
    10
 74
     0
 42
0.000000001
 43
0.00000001
 40
0.0
 40
0.0
 40
0.0
 40
0.0
 40
0.1114289230463701
 40
0.4958785649708375
 40
0.704655530563507
 40
0.8301760374266963
 40
0.9121018798664099
 40
0.9942797082137672
 40
1.0
 40
1.0
 40
1.0
 40
1.0
 10
1297.957150669259
 20
922.1726329908835
 30
0.0
 10
1297.837759623617
 20
922.2549653561367
 30
0.0
 10
1297.306448194189
 20
922.621359053717
 30
0.0
 10
1296.632156670829
 20
923.2541302044409
 30
0.0
 10
1296.174292883067
 20
924.0451147191412
 30
0.0
 10
1296.089835132734
 20
924.555309453004
 30
0.0
 10
1296.172299425586
 20
924.8996380586683
 30
0.0
 10
1296.292006369209
 20
925.0773377794011
 30
0.0
 10
1296.372717642415
 20
925.152720348824
 30
0.0
 10
1296.377970223841
 20
925.1576261453534
 30
0.0
  0
LINE
  5
2C9
330
1F
100
AcDbEntity
  8
0
  6
Continuous
 62
     8
370
    18
100
AcDbLine
 10
1249.5161012449
 20
960.6011490098
 30
0.0
 11
1196.5102149278
 21
960.5971489393
 31
0.0
  0
LINE
  5
2CA
330
1F
100
AcDbEntity
  8
0
  6
Continuous
 62
     8
370
    18
100
AcDbLine
 10
1249.5161012449
 20
960.6011490098
 30
0.0
 11
1249.5161012449
 21
960.5967090853
 31
0.0
  0
LINE
  5
2CB
330
1F
100
AcDbEntity
  8
0
  6
Continuous
 62
     8
370
    18
100
AcDbLine
 10
1249.5161012449
 20
917.1097242258
 30
0.0
 11
1196.5102149278
 21
917.1137242963
 31
0.0
  0
LINE
  5
2CC
330
1F
100
AcDbEntity
  8
0
  6
Continuous
 62
     8
370
    18
100
AcDbLine
 10
1249.5161012449
 20
917.1097242258
 30
0.0
 11
1249.5161012449
 21
917.1141641503
 31
0.0
  0
LINE
  5
2CD
330
1F
100
AcDbEntity
  8
0
  6
Continuous
 62
     8
370
    18
100
AcDbLine
 10
1249.5161012449
 20
960.6011490098
 30
0.0
 11
1302.5219875621
 21
960.5971489393
 31
0.0
  0
LINE
  5
2CE
330
1F
100
AcDbEntity
  8
0
  6
Continuous
 62
     8
370
    18
100
AcDbLine
 10
1249.5161012449
 20
917.1097242258
 30
0.0
 11
1302.5219875621
 21
917.1137242963
 31
0.0
  0
LINE
  5
2CF
330
1F
100
AcDbEntity
  8
0
  6
Continuous
 62
     8
370
    18
100
AcDbLine
 10
1203.5161012449
 20
958.8554366178
 30
0.0
 11
1295.5161012449
 21
958.8554366178
 31
0.0
  0
LINE
  5
2D0
330
1F
100
AcDbEntity
  8
0
  6
Continuous
 62
     8
370
    18
100
AcDbLine
 10
1203.5161012449
 20
918.8554366178
 30
0.0
 11
1295.5161012449
 21
918.8554366178
 31
0.0
  0
LINE
  5
2D1
330
1F
100
AcDbEntity
  8
0
  6
Continuous
 62
     8
370
    18
100
AcDbLine
 10
1196.5102149278
 20
960.5971489393
 30
0.0
 11
1196.5102143024
 21
960.6054358211
 31
0.0
  0
LINE
  5
2D2
330
1F
100
AcDbEntity
  8
0
  6
Continuous
 62
     8
370
    18
100
AcDbLine
 10
1196.5102149278
 20
917.1137242963
 30
0.0
 11
1196.5102143024
 21
917.1054374145
 31
0.0
  0
LINE
  5
2D3
330
1F
100
AcDbEntity
  8
0
  6
Continuous
 62
     8
370
    18
100
AcDbLine
 10
1302.5219875621
 20
960.5971489393
 30
0.0
 11
1302.5219881875
 21
960.6054358211
 31
0.0
  0
LINE
  5
2D4
330
1F
100
AcDbEntity
  8
0
  6
Continuous
 62
     8
370
    18
100
AcDbLine
 10
1302.5219875621
 20
917.1137242963
 30
0.0
 11
1302.5219881875
 21
917.1054374145
 31
0.0
  0
LINE
  5
2D5
330
1F
100
AcDbEntity
  8
0
  6
Continuous
 62
     8
370
    18
100
AcDbLine
 10
1302.5161012449
 20
960.6054366178
 30
0.0
 11
1302.5161012449
 21
965.1054366178
 31
0.0
  0
LINE
  5
2D6
330
1F
100
AcDbEntity
  8
0
  6
Continuous
 62
     8
370
    18
100
AcDbLine
 10
1196.5161012449
 20
960.6054366178
 30
0.0
 11
1196.5161012449
 21
965.1054366178
 31
0.0
  0
LINE
  5
2D7
330
1F
100
AcDbEntity
  8
0
  6
Continuous
 62
     8
370
    18
100
AcDbLine
 10
1196.5161012449
 20
965.1054366178
 30
0.0
 11
1302.5161012449
 21
965.1054366178
 31
0.0
  0
LINE
  5
2D8
330
1F
100
AcDbEntity
  8
0
  6
Continuous
 62
     8
370
    18
100
AcDbLine
 10
1302.5161012449
 20
965.1054366178
 30
0.0
 11
1302.5161012449
 21
965.8554366178
 31
0.0
  0
LINE
  5
2D9
330
1F
100
AcDbEntity
  8
0
  6
Continuous
 62
     8
370
    18
100
AcDbLine
 10
1196.5161012449
 20
965.1054366178
 30
0.0
 11
1196.5161012449
 21
965.8554366178
 31
0.0
  0
LINE
  5
2DA
330
1F
100
AcDbEntity
  8
0
  6
Continuous
 62
     8
370
    18
100
AcDbLine
 10
1196.5161012449
 20
917.1054366178
 30
0.0
 11
1196.5161012449
 21
912.6054366178
 31
0.0
  0
ARC
  5
2DB
330
1F
100
AcDbEntity
  8
0
  6
Continuous
 62
     8
370
    18
100
AcDbCircle
 10
1196.5161012449
 20
938.8554366178
 30
0.0
 40
26.25
100
AcDbArc
 50
90.0
 51
270.0
  0
LINE
  5
2DC
330
1F
100
AcDbEntity
  8
0
  6
Continuous
 62
     8
370
    18
100
AcDbLine
 10
1196.5161012449
 20
912.6054366178
 30
0.0
 11
1196.5161012449
 21
911.8554366178
 31
0.0
  0
LINE
  5
2DD
330
1F
100
AcDbEntity
  8
0
  6
Continuous
 62
     8
370
    18
100
AcDbLine
 10
1302.5161012449
 20
917.1054366178
 30
0.0
 11
1302.5161012449
 21
912.6054366178
 31
0.0
  0
LINE
  5
2DE
330
1F
100
AcDbEntity
  8
0
  6
Continuous
 62
     8
370
    18
100
AcDbLine
 10
1196.5161012449
 20
912.6054366178
 30
0.0
 11
1302.5161012449
 21
912.6054366178
 31
0.0
  0
LINE
  5
2DF
330
1F
100
AcDbEntity
  8
0
  6
Continuous
 62
     8
370
    18
100
AcDbLine
 10
1302.5161012449
 20
912.6054366178
 30
0.0
 11
1302.5161012449
 21
911.8554366178
 31
0.0
  0
ARC
  5
2E0
330
1F
100
AcDbEntity
  8
0
  6
Continuous
 62
     8
370
    18
100
AcDbCircle
 10
1302.5161012449
 20
938.8554366178
 30
0.0
 40
26.25
100
AcDbArc
 50
270.0
 51
90.0
  0
CIRCLE
  5
2E1
330
1F
100
AcDbEntity
  8
0
  6
Continuous
 62
     8
370
    18
100
AcDbCircle
 10
1249.5161012449
 20
938.8554366178
 30
0.0
 40
3.548336454629634
  0
CIRCLE
  5
2E2
330
1F
100
AcDbEntity
  8
0
  6
Continuous
 62
     8
370
    18
100
AcDbCircle
 10
1249.5161012449
 20
938.8554366178
 30
0.0
 40
5.61470943354675
  0
ARC
  5
2E3
330
1F
100
AcDbEntity
  8
0
  6
Continuous
 62
     8
370
    18
100
AcDbCircle
 10
1249.5161012449
 20
938.8554366178
 30
0.0
 40
7.46348026743973
100
AcDbArc
 50
126.4944476701
 51
233.50555233
  0
ARC
  5
2E4
330
1F
100
AcDbEntity
  8
0
  6
Continuous
 62
     8
370
    18
100
AcDbCircle
 10
1249.5161012449
 20
938.8554366178
 30
0.0
 40
7.463480267439956
100
AcDbArc
 50
306.4944476701
 51
53.5055523299
  0
ARC
  5
2E5
330
1F
100
AcDbEntity
  8
0
  6
Continuous
 62
     8
370
    18
100
AcDbCircle
 10
1249.5161012449
 20
938.8554366178
 30
0.0
 40
8.284968901367037
100
AcDbArc
 50
133.5974061618
 51
226.4025938382
  0
ARC
  5
2E6
330
1F
100
AcDbEntity
  8
0
  6
Continuous
 62
     8
370
    18
100
AcDbCircle
 10
1249.5161012449
 20
938.8554366178
 30
0.0
 40
8.284968901367119
100
AcDbArc
 50
313.5974061618
 51
46.4025938382
  0
SPLINE
  5
2E7
330
1F
100
AcDbEntity
  8
0
  6
Continuous
 62
     7
370
    35
100
AcDbSpline
210
0.0
220
0.0
230
1.0
 70
     8
 71
     3
 72
    17
 73
    13
 74
     0
 42
0.000000001
 43
0.00000001
 40
0.0
 40
0.0
 40
0.0
 40
0.0
 40
0.0944724089316492
 40
0.2037690526174957
 40
0.2658214290188117
 40
0.2993037426753886
 40
0.3336657805516635
 40
0.4040243448784193
 40
0.4775461189654585
 40
0.6372893935523132
 40
0.8168942664852054
 40
1.0
 40
1.0
 40
1.0
 40
1.0
 10
2153.275752447259
 20
1321.349198414359
 30
0.0
 10
2153.013145132764
 20
1321.75811737038
 30
0.0
 10
2152.446723208204
 20
1322.640121218996
 30
0.0
 10
2151.382842244976
 20
1323.396371190104
 30
0.0
 10
2150.538074251785
 20
1323.703122463805
 30
0.0
 10
2150.16767159192
 20
1324.080426489041
 30
0.0
 10
2150.002942507935
 20
1324.559836873911
 30
0.0
 10
2150.06506338781
 20
1325.086833483199
 30
0.0
 10
2150.038649142994
 20
1325.800054945103
 30
0.0
 10
2150.053012576706
 20
1326.41775288324
 30
0.0
 10
2150.047877830464
 20
1326.797869136224
 30
0.0
 10
2150.048596554059
 20
1326.825415874534
 30
0.0
 10
2150.048959384395
 20
1326.839322183405
 30
0.0
  0
SPLINE
  5
2E8
330
1F
100
AcDbEntity
  8
0
  6
Continuous
 62
     7
370
    35
100
AcDbSpline
210
0.0
220
0.0
230
1.0
 70
     8
 71
     3
 72
    17
 73
    13
 74
     0
 42
0.000000001
 43
0.00000001
 40
0.0
 40
0.0
 40
0.0
 40
0.0
 40
0.1890801208200418
 40
0.3745451547226028
 40
0.5395005445911834
 40
0.6154211925165401
 40
0.6880754212414955
 40
0.723558626210322
 40
0.7581334032530866
 40
0.8222104291436904
 40
0.9350732117376118
 40
1.0
 40
1.0
 40
1.0
 40
1.0
 10
2093.048946725883
 20
1326.839322183408
 30
0.0
 10
2093.049309352684
 20
1326.825416121522
 30
0.0
 10
2093.0500276731
 20
1326.79786987246
 30
0.0
 10
2093.04489579727
 20
1326.417750136297
 30
0.0
 10
2093.059251193398
 20
1325.800061951587
 30
0.0
 10
2093.032851721872
 20
1325.086822562628
 30
0.0
 10
2093.094937847511
 20
1324.559868126825
 30
0.0
 10
2092.930277632475
 20
1324.080374171035
 30
0.0
 10
2092.559614639735
 20
1323.703386053888
 30
0.0
 10
2091.717228278139
 20
1323.393744723796
 30
0.0
 10
2090.765695699015
 20
1322.744510334736
 30
0.0
 10
2090.280679139154
 20
1322.007070726454
 30
0.0
 10
2090.103556446669
 20
1321.737765923745
 30
0.0
  0
ARC
  5
2E9
330
1F
100
AcDbEntity
  8
0
  6
Continuous
 62
     7
370
    35
100
AcDbCircle
 10
2099.0589398867
 20
1297.3887208539
 30
0.0
 40
14.99987568081153
100
AcDbArc
 50
226.8610757221
 51
269.924195537
  0
ARC
  5
2EA
330
1F
100
AcDbEntity
  8
0
  6
Continuous
 62
     7
370
    35
100
AcDbCircle
 10
2144.0389664378
 20
1297.3887197816
 30
0.0
 40
14.99987460814075
100
AcDbArc
 50
270.0758036504
 51
312.1690218565
  0
SPLINE
  5
2EB
330
1F
100
AcDbEntity
  8
0
  6
Continuous
 62
     7
370
    35
100
AcDbSpline
210
0.0
220
0.0
230
1.0
 70
     8
 71
     3
 72
    14
 73
    10
 74
     0
 42
0.000000001
 43
0.00000001
 40
0.0
 40
0.0
 40
0.0
 40
0.0
 40
0.3118518498331501
 40
0.5835247383354211
 40
0.7472368347709042
 40
0.8165073455970001
 40
0.8691914210099181
 40
0.9293786200037815
 40
1.0
 40
1.0
 40
1.0
 40
1.0
 10
2153.928845691187
 20
1320.765824528706
 30
0.0
 10
2153.818906602668
 20
1320.846272140931
 30
0.0
 10
2153.613192966864
 20
1320.996802503019
 30
0.0
 10
2153.389240400875
 20
1321.23146401397
 30
0.0
 10
2153.251099777133
 20
1321.403324743883
 30
0.0
 10
2153.191577888263
 20
1321.485518376715
 30
0.0
 10
2153.168327124126
 20
1321.518905545845
 30
0.0
 10
2153.156117446828
 20
1321.536955781932
 30
0.0
 10
2153.155847430723
 20
1321.537381968095
 30
0.0
 10
2153.155701653511
 20
1321.537612058929
 30
0.0
  0
SPLINE
  5
2EC
330
1F
100
AcDbEntity
  8
0
  6
Continuous
 62
     7
370
    35
100
AcDbSpline
210
0.0
220
0.0
230
1.0
 70
     8
 71
     3
 72
    12
 73
     8
 74
     0
 42
0.000000001
 43
0.00000001
 40
0.0
 40
0.0
 40
0.0
 40
0.0
 40
0.1249100435606204
 40
0.2370776954678996
 40
0.3308192654157156
 40
0.4814606094598897
 40
1.0
 40
1.0
 40
1.0
 40
1.0
 10
2089.941032267411
 20
1321.535860883974
 30
0.0
 10
2089.941153578728
 20
1321.536026735295
 30
0.0
 10
2089.941383826085
 20
1321.536341519019
 30
0.0
 10
2089.922207865477
 20
1321.508059561702
 30
0.0
 10
2089.881151038338
 20
1321.450353887152
 30
0.0
 10
2089.754764404882
 20
1321.281903977341
 30
0.0
 10
2089.616417516869
 20
1321.14312865118
 30
0.0
 10
2089.509214324538
 20
1321.035593467738
 30
0.0
  0
SPLINE
  5
2ED
330
1F
100
AcDbEntity
  8
0
  6
Continuous
 62
     7
370
    35
100
AcDbSpline
210
0.0
220
0.0
230
1.0
 70
     8
 71
     3
 72
    12
 73
     8
 74
     0
 42
0.000000001
 43
0.00000001
 40
0.0
 40
0.0
 40
0.0
 40
0.0
 40
0.0910374224939899
 40
0.2353541285599713
 40
0.3547454600159072
 40
0.5766251015797337
 40
1.0
 40
1.0
 40
1.0
 40
1.0
 10
2154.094866686658
 20
1286.283235413467
 30
0.0
 10
2154.093901505765
 20
1286.282396824361
 30
0.0
 10
2154.091406275761
 20
1286.280228865262
 30
0.0
 10
2154.10582118516
 20
1286.292599195643
 30
0.0
 10
2154.141309554851
 20
1286.321860229929
 30
0.0
 10
2154.219777089857
 20
1286.385400703619
 30
0.0
 10
2154.294103288969
 20
1286.433385144102
 30
0.0
 10
2154.342871403022
 20
1286.464869475255
 30
0.0
  0
SPLINE
  5
2EE
330
1F
100
AcDbEntity
  8
0
  6
Continuous
 62
     7
370
    35
100
AcDbSpline
210
0.0
220
0.0
230
1.0
 70
     8
 71
     3
 72
    13
 73
     9
 74
     0
 42
0.000000001
 43
0.00000001
 40
0.0
 40
0.0
 40
0.0
 40
0.0
 40
0.3192547615915045
 40
0.6030634360357923
 40
0.7318310648245462
 40
0.831116840912303
 40
0.9400008211980009
 40
1.0
 40
1.0
 40
1.0
 40
1.0
 10
2088.755716553157
 20
1286.466387769898
 30
0.0
 10
2088.792379874756
 20
1286.442620003276
 30
0.0
 10
2088.861635877672
 20
1286.397723347908
 30
0.0
 10
2088.939545227951
 20
1286.335707206013
 30
0.0
 10
2088.982724463873
 20
1286.300387850903
 30
0.0
 10
2088.999520205468
 20
1286.286225181942
 30
0.0
 10
2089.006471246255
 20
1286.280261330698
 30
0.0
 10
2089.0054921827
 20
1286.281109190824
 30
0.0
 10
2089.005144350449
 20
1286.281410410386
 30
0.0
  0
SPLINE
  5
2EF
330
1F
100
AcDbEntity
  8
0
  6
Continuous
 62
     7
370
    35
100
AcDbSpline
210
0.0
220
0.0
230
1.0
 70
     8
 71
     3
 72
    10
 73
     6
 74
     0
 42
0.000000001
 43
0.00000001
 40
0.0
 40
0.0
 40
0.0
 40
0.0
 40
0.2926068144106953
 40
0.7936688105138577
 40
1.0
 40
1.0
 40
1.0
 40
1.0
 10
2153.265045041892
 20
1322.408409344095
 30
0.0
 10
2153.16324607857
 20
1322.413703787446
 30
0.0
 10
2152.887125844343
 20
1322.428064473354
 30
0.0
 10
2152.546309037875
 20
1322.525564119658
 30
0.0
 10
2152.32760092075
 20
1322.629406800977
 30
0.0
 10
2152.263808525126
 20
1322.659695450051
 30
0.0
  0
ARC
  5
2F0
330
1F
100
AcDbEntity
  8
0
  6
Continuous
 62
     7
370
    35
100
AcDbCircle
 10
2153.0489530551
 20
1293.3888451817
 30
0.0
 40
11.0
100
AcDbArc
 50
270.0
 51
0.0
  0
LINE
  5
2F1
330
1F
100
AcDbEntity
  8
0
  6
Continuous
 62
     7
370
    35
100
AcDbLine
 10
2143.5620982648
 20
1282.3888451817
 30
0.0
 11
2153.0489530551
 21
1282.3888451817
 31
0.0
  0
SPLINE
  5
2F2
330
1F
100
AcDbEntity
  8
0
  6
Continuous
 62
     7
370
    35
100
AcDbSpline
210
0.0
220
0.0
230
1.0
 70
     8
 71
     3
 72
    13
 73
     9
 74
     0
 42
0.000000001
 43
0.00000001
 40
0.0
 40
0.0
 40
0.0
 40
0.0
 40
0.0125063876823168
 40
0.1462174498723972
 40
0.295384542310781
 40
0.4584621320889111
 40
0.722754706283544
 40
0.9999999999999999
 40
0.9999999999999999
 40
0.9999999999999999
 40
0.9999999999999999
 10
2150.04897061414
 20
1325.79465438308
 30
0.0
 10
2150.048970276818
 20
1325.846909001344
 30
0.0
 10
2150.048966333043
 20
1326.457839768936
 30
0.0
 10
2150.048963820592
 20
1327.237312553527
 30
0.0
 10
2150.048958705783
 20
1328.031848206462
 30
0.0
 10
2150.048955103321
 20
1328.573675819507
 30
0.0
 10
2150.048953074091
 20
1328.816461170867
 30
0.0
 10
2150.048953061556
 20
1328.831265810335
 30
0.0
 10
2150.048953055139
 20
1328.838845181717
 30
0.0
  0
LINE
  5
2F3
330
1F
100
AcDbEntity
  8
0
  6
Continuous
 62
     7
370
    35
100
AcDbLine
 10
2156.5489530551
 20
1351.8352836813
 30
0.0
 11
2086.5489530551
 21
1351.8352836813
 31
0.0
  0
LWPOLYLINE
  5
2F4
330
1F
100
AcDbEntity
  8
0
  6
Continuous
 62
     7
370
    35
100
AcDbPolyline
 90
        3
 70
   128
 43
0.0
 10
2088.5489530551
 20
1337.5972021706
 10
2088.5846652882
 20
1337.2209395379
 10
2088.6739530551
 20
1336.9012316252
  0
ARC
  5
2F5
330
1F
100
AcDbEntity
  8
0
  6
Continuous
 62
     7
370
    35
100
AcDbCircle
 10
2157.5489530551
 20
1340.8352836813
 30
0.0
 40
1.000000000000455
100
AcDbArc
 50
180.0
 51
270.0
  0
LWPOLYLINE
  5
2F6
330
1F
100
AcDbEntity
  8
0
  6
Continuous
 62
     7
370
    35
100
AcDbPolyline
 90
        3
 70
   128
 43
0.0
 10
2154.5489530551
 20
1337.5972021706
 10
2154.5132408221
 20
1337.2209395379
 10
2154.4239530551
 20
1336.9012316252
  0
ARC
  5
2F7
330
1F
100
AcDbEntity
  8
0
  6
Continuous
 62
     7
370
    35
100
AcDbCircle
 10
2085.5489530551
 20
1340.8352836813
 30
0.0
 40
1.0
100
AcDbArc
 50
270.0
 51
0.0
  0
LINE
  5
2F8
330
1F
100
AcDbEntity
  8
0
  6
Continuous
 62
     7
370
    35
100
AcDbLine
 10
2154.5489530551
 20
1337.5972021706
 30
0.0
 11
2154.5489530551
 21
1338.8352836813
 31
0.0
  0
LINE
  5
2F9
330
1F
100
AcDbEntity
  8
0
  6
Continuous
 62
     7
370
    35
100
AcDbLine
 10
2088.5489530551
 20
1338.8352836813
 30
0.0
 11
2088.5489530551
 21
1337.5972021706
 31
0.0
  0
LINE
  5
2FA
330
1F
100
AcDbEntity
  8
0
  6
Continuous
 62
     7
370
    35
100
AcDbLine
 10
2149.5489530551
 20
1329.5620338478
 30
0.0
 11
2149.5489530551
 21
1328.8388451818
 31
0.0
  0
LINE
  5
2FB
330
1F
100
AcDbEntity
  8
0
  6
Continuous
 62
     7
370
    35
100
AcDbLine
 10
2093.5489530551
 20
1329.5620338478
 30
0.0
 11
2093.5489530551
 21
1328.8388451818
 31
0.0
  0
LINE
  5
2FC
330
1F
100
AcDbEntity
  8
0
  6
Continuous
 62
     7
370
    35
100
AcDbLine
 10
2093.5489530551
 20
1328.8388451818
 30
0.0
 11
2095.0998361541
 21
1328.8388451818
 31
0.0
  0
LINE
  5
2FD
330
1F
100
AcDbEntity
  8
0
  6
Continuous
 62
     7
370
    35
100
AcDbLine
 10
2147.9980699562
 20
1328.8388451818
 30
0.0
 11
2149.5489530551
 21
1328.8388451818
 31
0.0
  0
SPLINE
  5
2FE
330
1F
100
AcDbEntity
  8
0
  6
Continuous
 62
     7
370
    35
100
AcDbSpline
210
0.0
220
0.0
230
1.0
 70
     8
 71
     3
 72
     9
 73
     5
 74
     0
 42
0.000000001
 43
0.00000001
 40
0.0
 40
0.0
 40
0.0
 40
0.0
 40
0.0494865767863661
 40
1.0
 40
1.0
 40
1.0
 40
1.0
 10
2153.163521025624
 20
1321.52608422544
 30
0.0
 10
2153.160487405302
 20
1321.530867796421
 30
0.0
 10
2153.099185522673
 20
1321.627531806987
 30
0.0
 10
2153.094025171188
 20
1321.632846095715
 30
0.0
 10
2153.089120187833
 20
1321.637897398487
 30
0.0
  0
SPLINE
  5
2FF
330
1F
100
AcDbEntity
  8
0
  6
Continuous
 62
     7
370
    35
100
AcDbSpline
210
0.0
220
0.0
230
1.0
 70
     8
 71
     3
 72
    14
 73
    10
 74
     0
 42
0.000000001
 43
0.00000001
 40
0.0
 40
0.0
 40
0.0
 40
0.0
 40
0.0000086772972158
 40
0.0546554576672723
 40
0.1545956188497715
 40
0.2815115513695447
 40
0.475779184152878
 40
0.7372214479202436
 40
0.9999999999999999
 40
0.9999999999999999
 40
0.9999999999999999
 40
0.9999999999999999
 10
2152.958249152213
 20
1321.718434722324
 30
0.0
 10
2152.95825017405
 20
1321.718432601491
 30
0.0
 10
2152.964686392578
 20
1321.705074166105
 30
0.0
 10
2152.999419556966
 20
1321.640672961828
 30
0.0
 10
2153.148571217224
 20
1321.384686776589
 30
0.0
 10
2153.513174289584
 20
1320.768750172935
 30
0.0
 10
2154.143536957429
 20
1319.693076126659
 30
0.0
 10
2154.954735385645
 20
1318.272260102222
 30
0.0
 10
2155.535821319598
 20
1317.213246440751
 30
0.0
 10
2155.827104908006
 20
1316.682389847153
 30
0.0
  0
SPLINE
  5
300
330
1F
100
AcDbEntity
  8
0
  6
Continuous
 62
     7
370
    35
100
AcDbSpline
210
0.0
220
0.0
230
1.0
 70
     8
 71
     3
 72
    12
 73
     8
 74
     0
 42
0.000000001
 43
0.00000001
 40
0.0
 40
0.0
 40
0.0
 40
0.0
 40
0.1720163517394609
 40
0.4559765852487096
 40
0.6679924881477981
 40
0.886316203050505
 40
0.9999999999999999
 40
0.9999999999999999
 40
0.9999999999999999
 40
0.9999999999999999
 10
2157.260889500287
 20
1313.974810227774
 30
0.0
 10
2157.742733480843
 20
1312.927107310957
 30
0.0
 10
2159.019993291636
 20
1310.149882974232
 30
0.0
 10
2159.979858777139
 20
1305.728198708996
 30
0.0
 10
2160.180374725557
 20
1300.939457268591
 30
0.0
 10
2159.721976162991
 20
1297.297306879559
 30
0.0
 10
2159.08637366521
 20
1295.165968227346
 30
0.0
 10
2158.868734898861
 20
1294.43616946702
 30
0.0
  0
SPLINE
  5
301
330
1F
100
AcDbEntity
  8
0
  6
Continuous
 62
     7
370
    35
100
AcDbSpline
210
0.0
220
0.0
230
1.0
 70
    24
 71
     3
 72
     9
 73
     5
 74
     0
 42
0.000000001
 43
0.00000001
 40
0.0
 40
0.0
 40
0.0
 40
0.0
 40
0.5076026287551308
 40
1.0
 40
1.0
 40
1.0
 40
1.0
 10
2121.548953055139
 20
1298.160084006064
 30
0.0
 10
2121.548953055139
 20
1296.632382611336
 30
0.0
 10
2121.548953055139
 20
1293.622742179656
 30
0.0
 10
2121.548953055139
 20
1291.025989860884
 30
0.0
 10
2121.548953055139
 20
1289.747355845346
 30
0.0
  0
SPLINE
  5
302
330
1F
100
AcDbEntity
  8
0
  6
Continuous
 62
     7
370
    35
100
AcDbSpline
210
0.0
220
0.0
230
1.0
 70
    24
 71
     3
 72
    13
 73
     9
 74
     0
 42
0.000000001
 43
0.00000001
 40
0.0
 40
0.0
 40
0.0
 40
0.0
 40
0.3696467405832379
 40
0.7491634169652779
 40
0.8272821692919354
 40
0.9051799160500802
 40
0.9820955461384857
 40
1.0
 40
1.0
 40
1.0
 40
1.0
 10
2150.048953055139
 20
1328.838845181717
 30
0.0
 10
2150.06078402026
 20
1328.838845181717
 30
0.0
 10
2150.084761849044
 20
1328.838845181717
 30
0.0
 10
2149.95030778758
 20
1328.838845181716
 30
0.0
 10
2150.114742026277
 20
1328.838845181717
 30
0.0
 10
2149.798456202422
 20
1328.838845181716
 30
0.0
 10
2149.007699297973
 20
1328.838845181716
 30
0.0
 10
2148.158433106018
 20
1328.838845181716
 30
0.0
 10
2147.99806995597
 20
1328.838845181716
 30
0.0
  0
SPLINE
  5
303
330
1F
100
AcDbEntity
  8
0
  6
Continuous
 62
     7
370
    35
100
AcDbSpline
210
0.0
220
0.0
230
1.0
 70
     8
 71
     3
 72
    14
 73
    10
 74
     0
 42
0.000000001
 43
0.00000001
 40
0.0
 40
0.0
 40
0.0
 40
0.0
 40
0.0000086772972158
 40
0.0546554576672732
 40
0.1545956188497742
 40
0.2815115513695343
 40
0.4757791841528892
 40
0.7372214479202489
 40
1.0
 40
1.0
 40
1.0
 40
1.0
 10
2090.139656958065
 20
1321.718434722324
 30
0.0
 10
2090.139655936227
 20
1321.718432601491
 30
0.0
 10
2090.133219717714
 20
1321.705074166116
 30
0.0
 10
2090.098486553299
 20
1321.640672961819
 30
0.0
 10
2089.949334893058
 20
1321.384686776592
 30
0.0
 10
2089.584731820692
 20
1320.768750172933
 30
0.0
 10
2088.954369152849
 20
1319.693076126659
 30
0.0
 10
2088.143170724632
 20
1318.272260102221
 30
0.0
 10
2087.562084790679
 20
1317.213246440751
 30
0.0
 10
2087.270801202271
 20
1316.682389847152
 30
0.0
  0
SPLINE
  5
304
330
1F
100
AcDbEntity
  8
0
  6
Continuous
 62
     7
370
    35
100
AcDbSpline
210
0.0
220
0.0
230
1.0
 70
     8
 71
     3
 72
     9
 73
     5
 74
     0
 42
0.000000001
 43
0.00000001
 40
0.0
 40
0.0
 40
0.0
 40
0.0
 40
0.048788001606157
 40
1.0
 40
1.0
 40
1.0
 40
1.0
 10
2089.934518105582
 20
1321.526293877197
 30
0.0
 10
2089.937506068135
 20
1321.531005420578
 30
0.0
 10
2089.998749866907
 20
1321.62757718465
 30
0.0
 10
2090.003893365177
 20
1321.632866314609
 30
0.0
 10
2090.008785922444
 20
1321.637897398487
 30
0.0
  0
LINE
  5
305
330
1F
100
AcDbEntity
  8
0
  6
Continuous
 62
     7
370
    35
100
AcDbLine
 10
2093.0489530551
 20
1325.4227213773
 30
0.0
 11
2093.0489530551
 21
1328.8388451817
 31
0.0
  0
SPLINE
  5
306
330
1F
100
AcDbEntity
  8
0
  6
Continuous
 62
     7
370
    35
100
AcDbSpline
210
0.0
220
0.0
230
1.0
 70
     8
 71
     3
 72
    12
 73
     8
 74
     0
 42
0.000000001
 43
0.00000001
 40
0.0
 40
0.0
 40
0.0
 40
0.0
 40
0.1720163517394557
 40
0.4559765852487088
 40
0.6679924881477982
 40
0.8863162030505046
 40
1.0
 40
1.0
 40
1.0
 40
1.0
 10
2085.83701660999
 20
1313.974810227774
 30
0.0
 10
2085.355172629435
 20
1312.927107310957
 30
0.0
 10
2084.077912818642
 20
1310.149882974232
 30
0.0
 10
2083.118047333138
 20
1305.728198708996
 30
0.0
 10
2082.917531384721
 20
1300.939457268591
 30
0.0
 10
2083.375929947287
 20
1297.297306879559
 30
0.0
 10
2084.011532445067
 20
1295.165968227346
 30
0.0
 10
2084.229171211417
 20
1294.43616946702
 30
0.0
  0
SPLINE
  5
307
330
1F
100
AcDbEntity
  8
0
  6
Continuous
 62
     7
370
    35
100
AcDbSpline
210
0.0
220
0.0
230
1.0
 70
    24
 71
     3
 72
    13
 73
     9
 74
     0
 42
0.000000001
 43
0.00000001
 40
0.0
 40
0.0
 40
0.0
 40
0.0
 40
0.3696467405832361
 40
0.7491634169652742
 40
0.8272821692919314
 40
0.9051799160500759
 40
0.9820955461384809
 40
1.0
 40
1.0
 40
1.0
 40
1.0
 10
2093.048953055139
 20
1328.838845181716
 30
0.0
 10
2093.037122090017
 20
1328.838845181716
 30
0.0
 10
2093.013144261233
 20
1328.838845181716
 30
0.0
 10
2093.147598322698
 20
1328.838845181716
 30
0.0
 10
2092.983164084001
 20
1328.838845181716
 30
0.0
 10
2093.299449907855
 20
1328.838845181716
 30
0.0
 10
2094.090206812304
 20
1328.838845181716
 30
0.0
 10
2094.93947300426
 20
1328.838845181716
 30
0.0
 10
2095.099836154308
 20
1328.838845181716
 30
0.0
  0
SPLINE
  5
308
330
1F
100
AcDbEntity
  8
0
  6
Continuous
 62
     7
370
    35
100
AcDbSpline
210
0.0
220
0.0
230
1.0
 70
    24
 71
     3
 72
    12
 73
     8
 74
     0
 42
0.000000001
 43
0.00000001
 40
0.0
 40
0.0
 40
0.0
 40
0.0
 40
0.1408006786044993
 40
0.3784804122976904
 40
0.6230118132640773
 40
0.8098917120669654
 40
1.0
 40
1.0
 40
1.0
 40
1.0
 10
2121.548953055139
 20
1285.935283681267
 30
0.0
 10
2121.548953055139
 20
1285.613543826728
 30
0.0
 10
2121.548953055139
 20
1284.74868838707
 30
0.0
 10
2121.548953055139
 20
1283.708167090976
 30
0.0
 10
2121.548953055139
 20
1282.903158216199
 30
0.0
 10
2121.548953055139
 20
1282.464735581668
 30
0.0
 10
2121.548953055139
 20
1282.414285992319
 30
0.0
 10
2121.548953055139
 20
1282.388845181716
 30
0.0
  0
SPLINE
  5
309
330
1F
100
AcDbEntity
  8
0
  6
Continuous
 62
     7
370
    35
100
AcDbSpline
210
0.0
220
0.0
230
1.0
 70
    24
 71
     3
 72
    17
 73
    13
 74
     0
 42
0.000000001
 43
0.00000001
 40
0.0
 40
0.0
 40
0.0
 40
0.0
 40
0.0569795784918699
 40
0.1353024541387437
 40
0.2160128774647664
 40
0.2868547793927187
 40
0.3593481415837887
 40
0.4253072501105611
 40
0.4928579495997166
 40
0.5565942236326126
 40
0.6223126637270986
 40
1.0
 40
1.0
 40
1.0
 40
1.0
 10
2121.548953055139
 20
1282.388845181716
 30
0.0
 10
2120.49857262277
 20
1282.388845181716
 30
0.0
 10
2118.004362345326
 20
1282.388845181716
 30
0.0
 10
2114.185497337051
 20
1282.388845181716
 30
0.0
 10
2110.418131164643
 20
1282.388845181716
 30
0.0
 10
2107.12308999258
 20
1282.388845181716
 30
0.0
 10
2104.442570842105
 20
1282.388845181716
 30
0.0
 10
2102.252303578982
 20
1282.388845181716
 30
0.0
 10
2100.658401893099
 20
1282.388845181716
 30
0.0
 10
2099.606308658491
 20
1282.388845181716
 30
0.0
 10
2098.95099925136
 20
1282.388845181716
 30
0.0
 10
2099.010422354848
 20
1282.388845181716
 30
0.0
 10
2099.061038189971
 20
1282.388845181716
 30
0.0
  0
SPLINE
  5
30A
330
1F
100
AcDbEntity
  8
0
  6
Continuous
 62
     7
370
    35
100
AcDbSpline
210
0.0
220
0.0
230
1.0
 70
    24
 71
     3
 72
    17
 73
    13
 74
     0
 42
0.000000001
 43
0.00000001
 40
0.0
 40
0.0
 40
0.0
 40
0.0
 40
0.0569845589005265
 40
0.1364939970869628
 40
0.2160235345599464
 40
0.287699872094099
 40
0.3593687415705882
 40
0.4261501537102076
 40
0.492887286705004
 40
0.5575313349414378
 40
0.6222797705528584
 40
1.0
 40
1.0
 40
1.0
 40
1.0
 10
2121.548953055139
 20
1282.388845181716
 30
0.0
 10
2122.599408002042
 20
1282.388845181716
 30
0.0
 10
2125.115542148361
 20
1282.388845181716
 30
0.0
 10
2128.93109173987
 20
1282.388845181716
 30
0.0
 10
2132.711646855175
 20
1282.388845181716
 30
0.0
 10
2135.984844176032
 20
1282.388845181716
 30
0.0
 10
2138.676227568032
 20
1282.388845181716
 30
0.0
 10
2140.848774602648
 20
1282.388845181716
 30
0.0
 10
2142.462370217196
 20
1282.388845181716
 30
0.0
 10
2143.455801838273
 20
1282.388845181716
 30
0.0
 10
2144.214318006633
 20
1282.388845181716
 30
0.0
 10
2144.115523016919
 20
1282.388845181716
 30
0.0
 10
2144.031185143687
 20
1282.388845181716
 30
0.0
  0
SPLINE
  5
30B
330
1F
100
AcDbEntity
  8
0
  6
Continuous
 62
     7
370
    35
100
AcDbSpline
210
0.0
220
0.0
230
1.0
 70
     8
 71
     3
 72
    13
 73
     9
 74
     0
 42
0.000000001
 43
0.00000001
 40
0.0
 40
0.0
 40
0.0
 40
0.0
 40
0.2029467742027875
 40
0.4117773519856953
 40
0.6147258594307161
 40
0.8235672334127787
 40
0.9115535143092927
 40
1.0
 40
1.0
 40
1.0
 40
1.0
 10
2160.133194877339
 20
1294.018040956626
 30
0.0
 10
2160.53625816918
 20
1295.400695705295
 30
0.0
 10
2161.354070305634
 20
1298.206090929504
 30
0.0
 10
2161.663484461783
 20
1302.579490945352
 30
0.0
 10
2161.285023960213
 20
1306.973032678906
 30
0.0
 10
2160.371901052104
 20
1310.411985836097
 30
0.0
 10
2159.371234335301
 20
1312.952540592923
 30
0.0
 10
2158.80935410097
 20
1314.068941943335
 30
0.0
 10
2158.527681183479
 20
1314.628598621482
 30
0.0
  0
SPLINE
  5
30C
330
1F
100
AcDbEntity
  8
0
  6
Continuous
 62
     7
370
    35
100
AcDbSpline
210
0.0
220
0.0
230
1.0
 70
     8
 71
     3
 72
    13
 73
     9
 74
     0
 42
0.000000001
 43
0.00000001
 40
0.0
 40
0.0
 40
0.0
 40
0.0
 40
0.202946774202785
 40
0.4117773519856932
 40
0.6147258594307142
 40
0.8235672334127738
 40
0.9115535143092929
 40
1.0
 40
1.0
 40
1.0
 40
1.0
 10
2082.964711232939
 20
1294.018040956626
 30
0.0
 10
2082.561647941097
 20
1295.400695705294
 30
0.0
 10
2081.743835804644
 20
1298.206090929504
 30
0.0
 10
2081.434421648495
 20
1302.579490945352
 30
0.0
 10
2081.812882150065
 20
1306.973032678905
 30
0.0
 10
2082.726005058174
 20
1310.411985836097
 30
0.0
 10
2083.726671774976
 20
1312.952540592923
 30
0.0
 10
2084.288552009308
 20
1314.068941943335
 30
0.0
 10
2084.570224926799
 20
1314.628598621481
 30
0.0
  0
SPLINE
  5
30D
330
1F
100
AcDbEntity
  8
0
  6
Continuous
 62
     7
370
    35
100
AcDbSpline
210
0.0
220
0.0
230
1.0
 70
     8
 71
     3
 72
    12
 73
     8
 74
     0
 42
0.000000001
 43
0.00000001
 40
0.0
 40
0.0
 40
0.0
 40
0.0
 40
0.0542100646910201
 40
0.3612059465304369
 40
0.5267652948496003
 40
0.7633787062243824
 40
1.0
 40
1.0
 40
1.0
 40
1.0
 10
2089.226760587116
 20
1286.165223776361
 30
0.0
 10
2089.073478836486
 20
1286.262987074724
 30
0.0
 10
2088.05215041458
 20
1286.914391660245
 30
0.0
 10
2086.667555264045
 20
1288.077495533137
 30
0.0
 10
2085.082759136839
 20
1289.913343470792
 30
0.0
 10
2083.868639899462
 20
1291.752419084196
 30
0.0
 10
2083.266024134256
 20
1293.262825279824
 30
0.0
 10
2082.964711232939
 20
1294.018040956626
 30
0.0
  0
SPLINE
  5
30E
330
1F
100
AcDbEntity
  8
0
  6
Continuous
 62
     7
370
    35
100
AcDbSpline
210
0.0
220
0.0
230
1.0
 70
     8
 71
     3
 72
    12
 73
     8
 74
     0
 42
0.000000001
 43
0.00000001
 40
0.0
 40
0.0
 40
0.0
 40
0.0
 40
0.0542100646910348
 40
0.3612059465304583
 40
0.5267652948496023
 40
0.763378706224384
 40
1.0
 40
1.0
 40
1.0
 40
1.0
 10
2153.871145523161
 20
1286.165223776361
 30
0.0
 10
2154.024427273792
 20
1286.262987074724
 30
0.0
 10
2155.045755695699
 20
1286.914391660245
 30
0.0
 10
2156.430350846232
 20
1288.077495533137
 30
0.0
 10
2158.015146973439
 20
1289.913343470792
 30
0.0
 10
2159.229266210815
 20
1291.752419084196
 30
0.0
 10
2159.831881976022
 20
1293.262825279824
 30
0.0
 10
2160.133194877339
 20
1294.018040956626
 30
0.0
  0
SPLINE
  5
30F
330
1F
100
AcDbEntity
  8
0
  6
Continuous
 62
     7
370
    35
100
AcDbSpline
210
0.0
220
0.0
230
1.0
 70
     8
 71
     3
 72
    11
 73
     7
 74
     0
 42
0.000000001
 43
0.00000001
 40
0.0
 40
0.0
 40
0.0
 40
0.0
 40
0.3166502316689869
 40
0.6422005680136206
 40
0.8852711377571091
 40
1.0
 40
1.0
 40
1.0
 40
1.0
 10
2086.048119813613
 20
1317.350126687854
 30
0.0
 10
2086.314143570899
 20
1317.782539056918
 30
0.0
 10
2086.853668229176
 20
1318.659517632193
 30
0.0
 10
2087.818923797794
 20
1319.699400336298
 30
0.0
 10
2088.645244227741
 20
1320.399992853978
 30
0.0
 10
2089.108763897174
 20
1320.718510919662
 30
0.0
 10
2089.257392093719
 20
1320.820644159721
 30
0.0
  0
SPLINE
  5
310
330
1F
100
AcDbEntity
  8
0
  6
Continuous
 62
     7
370
    35
100
AcDbSpline
210
0.0
220
0.0
230
1.0
 70
     8
 71
     3
 72
    11
 73
     7
 74
     0
 42
0.000000001
 43
0.00000001
 40
0.0
 40
0.0
 40
0.0
 40
0.0
 40
0.3166351430858539
 40
0.6421699667518326
 40
0.8203579608774869
 40
1.0
 40
1.0
 40
1.0
 40
1.0
 10
2157.049786296664
 20
1317.350126687854
 30
0.0
 10
2156.783820942572
 20
1317.782568983957
 30
0.0
 10
2156.244414732224
 20
1318.65960825447
 30
0.0
 10
2155.349125302933
 20
1319.622892469207
 30
0.0
 10
2154.533747945363
 20
1320.336071441553
 30
0.0
 10
2154.072217137448
 20
1320.658682942256
 30
0.0
 10
2153.840514016559
 20
1320.820644159721
 30
0.0
  0
LINE
  5
311
330
1F
100
AcDbEntity
  8
0
  6
Continuous
 62
     7
370
    35
100
AcDbLine
 10
2158.5276811835
 20
1314.6285986215
 30
0.0
 11
2157.0497862967
 21
1317.3501266879
 31
0.0
  0
LINE
  5
312
330
1F
100
AcDbEntity
  8
0
  6
Continuous
 62
     7
370
    35
100
AcDbLine
 10
2084.5702249268
 20
1314.6285986215
 30
0.0
 11
2086.0481198136
 21
1317.3501266879
 31
0.0
  0
LINE
  5
313
330
1F
100
AcDbEntity
  8
0
  6
Continuous
 62
     7
370
    35
100
AcDbLine
 10
2153.8405140166
 20
1320.8206441597
 30
0.0
 11
2153.9413092174
 21
1320.7528701335
 31
0.0
  0
ARC
  5
314
330
1F
100
AcDbEntity
  8
0
  6
Continuous
 62
     7
370
    35
100
AcDbCircle
 10
2087.4678891101
 20
1323.231712235
 30
0.0
 40
2.999398629702495
100
AcDbArc
 50
304.2645941135
 51
312.8939998024
  0
LINE
  5
315
330
1F
100
AcDbEntity
  8
0
  6
Continuous
 62
     7
370
    35
100
AcDbLine
 10
2089.2573920937
 20
1320.8206441597
 30
0.0
 11
2089.1565968929
 21
1320.7528701335
 31
0.0
  0
SPLINE
  5
316
330
1F
100
AcDbEntity
  8
0
  6
Continuous
 62
     7
370
    35
100
AcDbSpline
210
0.0
220
0.0
230
1.0
 70
     8
 71
     3
 72
     9
 73
     5
 74
     0
 42
0.000000001
 43
0.00000001
 40
0.0
 40
0.0
 40
0.0
 40
0.0
 40
0.6590643911408274
 40
1.0
 40
1.0
 40
1.0
 40
1.0
 10
2153.38062862654
 20
1322.390209395331
 30
0.0
 10
2153.065152906528
 20
1322.416203622601
 30
0.0
 10
2152.586480831003
 20
1322.455644726718
 30
0.0
 10
2152.185804999012
 20
1322.709822782698
 30
0.0
 10
2152.049200340278
 20
1322.796481132972
 30
0.0
  0
ARC
  5
317
330
1F
100
AcDbEntity
  8
0
  6
Continuous
 62
     7
370
    35
100
AcDbCircle
 10
2153.0489460739
 20
1311.3952041533
 30
0.0
 40
11.00000698123879
100
AcDbArc
 50
0.0000092142
 51
88.2721018854
  0
SPLINE
  5
318
330
1F
100
AcDbEntity
  8
0
  6
Continuous
 62
     7
370
    35
100
AcDbSpline
210
0.0
220
0.0
230
1.0
 70
    24
 71
     3
 72
    19
 73
    15
 74
     0
 42
0.000000001
 43
0.00000001
 40
0.0
 40
0.0
 40
0.0
 40
0.0
 40
0.0003400432997567
 40
0.1018635778277047
 40
0.2035434036526501
 40
0.3480218784455771
 40
0.4928620408160625
 40
0.5714933381061477
 40
0.6496296261320142
 40
0.7087399627822194
 40
0.7683238584295661
 40
0.8224306267254518
 40
0.892610163227093
 40
1.0
 40
1.0
 40
1.0
 40
1.0
 10
2164.048953055139
 20
1311.395205922339
 30
0.0
 10
2164.048953055139
 20
1311.395208132191
 30
0.0
 10
2164.048953055139
 20
1311.39587011678
 30
0.0
 10
2164.048953055139
 20
1311.226433163966
 30
0.0
 10
2164.048953055139
 20
1310.440974291753
 30
0.0
 10
2164.048953055139
 20
1309.040817509789
 30
0.0
 10
2164.048953055139
 20
1307.375075671796
 30
0.0
 10
2164.048953055139
 20
1305.885225335643
 30
0.0
 10
2164.048953055139
 20
1304.637135616336
 30
0.0
 10
2164.048953055139
 20
1303.301384777419
 30
0.0
 10
2164.048953055139
 20
1301.988613917973
 30
0.0
 10
2164.048953055139
 20
1300.612673545957
 30
0.0
 10
2164.048953055139
 20
1299.19858907079
 30
0.0
 10
2164.048953055139
 20
1298.369454445451
 30
0.0
 10
2164.048953055139
 20
1297.86801306265
 30
0.0
  0
SPLINE
  5
319
330
1F
100
AcDbEntity
  8
0
  6
Continuous
 62
     7
370
    35
100
AcDbSpline
210
0.0
220
0.0
230
1.0
 70
    24
 71
     3
 72
     9
 73
     5
 74
     0
 42
0.000000001
 43
0.00000001
 40
0.0
 40
0.0
 40
0.0
 40
0.0
 40
0.4979466281839556
 40
1.0
 40
1.0
 40
1.0
 40
1.0
 10
2164.048953055139
 20
1297.86801306265
 30
0.0
 10
2164.048953055139
 20
1297.237245567092
 30
0.0
 10
2164.048953055139
 20
1295.97050841123
 30
0.0
 10
2164.048953055139
 20
1294.916364510164
 30
0.0
 10
2164.048953055139
 20
1294.387128010255
 30
0.0
  0
LINE
  5
31A
330
1F
100
AcDbEntity
  8
0
  6
Continuous
 62
     7
370
    35
100
AcDbLine
 10
2164.0489530551
 20
1294.3871280103
 30
0.0
 11
2164.0489530551
 21
1293.3888451817
 31
0.0
  0
LINE
  5
31B
330
1F
100
AcDbEntity
  8
0
  6
Continuous
 62
     7
370
    35
100
AcDbLine
 10
2056.0489530551
 20
1338.8352836813
 30
0.0
 11
2056.0489530551
 21
1339.8352836813
 31
0.0
  0
LINE
  5
31C
330
1F
100
AcDbEntity
  8
0
  6
Continuous
 62
     7
370
    35
100
AcDbLine
 10
2056.0489530551
 20
1339.8352836813
 30
0.0
 11
2066.0489530551
 21
1339.8352836813
 31
0.0
  0
LINE
  5
31D
330
1F
100
AcDbEntity
  8
0
  6
Continuous
 62
     7
370
    35
100
AcDbLine
 10
2066.0489530551
 20
1338.8352836813
 30
0.0
 11
2056.0489530551
 21
1338.8352836813
 31
0.0
  0
LINE
  5
31E
330
1F
100
AcDbEntity
  8
0
  6
Continuous
 62
     7
370
    35
100
AcDbLine
 10
2187.0489530551
 20
1339.8352836813
 30
0.0
 11
2187.0489530551
 21
1338.8352836813
 31
0.0
  0
LINE
  5
31F
330
1F
100
AcDbEntity
  8
0
  6
Continuous
 62
     7
370
    35
100
AcDbLine
 10
2177.0489530551
 20
1339.8352836813
 30
0.0
 11
2187.0489530551
 21
1339.8352836813
 31
0.0
  0
LINE
  5
320
330
1F
100
AcDbEntity
  8
0
  6
Continuous
 62
     7
370
    35
100
AcDbLine
 10
2187.0489530551
 20
1338.8352836813
 30
0.0
 11
2177.0489530551
 21
1338.8352836813
 31
0.0
  0
LINE
  5
321
330
1F
100
AcDbEntity
  8
0
  6
Continuous
 62
     7
370
    35
100
AcDbLine
 10
2177.0489530551
 20
1339.8352836813
 30
0.0
 11
2066.0489530551
 21
1339.8352836813
 31
0.0
  0
LINE
  5
322
330
1F
100
AcDbEntity
  8
0
  6
Continuous
 62
     7
370
    35
100
AcDbLine
 10
2177.0489530551
 20
1338.8352836813
 30
0.0
 11
2066.0489530551
 21
1338.8352836813
 31
0.0
  0
LINE
  5
323
330
1F
100
AcDbEntity
  8
0
  6
Continuous
 62
     7
370
    35
100
AcDbLine
 10
2135.5489530551
 20
1315.9352836813
 30
0.0
 11
2135.5489530551
 21
1305.9352836813
 31
0.0
  0
ARC
  5
324
330
1F
100
AcDbEntity
  8
0
  6
Continuous
 62
     7
370
    35
100
AcDbCircle
 10
2129.0489530551
 20
1315.9352836813
 30
0.0
 40
6.5
100
AcDbArc
 50
0.0
 51
180.0
  0
ARC
  5
325
330
1F
100
AcDbEntity
  8
0
  6
Continuous
 62
     7
370
    35
100
AcDbCircle
 10
2104.5489530551
 20
1322.2258937701
 30
0.0
 40
2.000000000000455
100
AcDbArc
 50
0.0
 51
65.0
  0
ARC
  5
326
330
1F
100
AcDbEntity
  8
0
  6
Continuous
 62
     7
370
    35
100
AcDbCircle
 10
2090.6739530551
 20
1333.1094242029
 30
0.0
 40
2.000000000000455
100
AcDbArc
 50
180.0
 51
245.0
  0
LINE
  5
327
330
1F
100
AcDbEntity
  8
0
  6
Continuous
 62
     7
370
    35
100
AcDbLine
 10
2086.5489530551
 20
1350.8352836813
 30
0.0
 11
2086.5489530551
 21
1339.8352836813
 31
0.0
  0
LINE
  5
328
330
1F
100
AcDbEntity
  8
0
  6
Continuous
 62
     7
370
    35
100
AcDbLine
 10
2156.5489530551
 20
1339.8352836813
 30
0.0
 11
2156.5489530551
 21
1350.8352836813
 31
0.0
  0
CIRCLE
  5
329
330
1F
100
AcDbEntity
  8
0
  6
Continuous
 62
     7
370
    35
100
AcDbCircle
 10
2121.5489530551
 20
1293.9352836813
 30
0.0
 40
4.249999999999545
  0
LINE
  5
32A
330
1F
100
AcDbEntity
  8
0
  6
Continuous
 62
     7
370
    35
100
AcDbLine
 10
2107.5489530551
 20
1315.9352836813
 30
0.0
 11
2107.5489530551
 21
1305.9352836813
 31
0.0
  0
ARC
  5
32B
330
1F
100
AcDbEntity
  8
0
  6
Continuous
 62
     7
370
    35
100
AcDbCircle
 10
2114.0489530551
 20
1305.9352836813
 30
0.0
 40
6.500000000000455
100
AcDbArc
 50
180.0
 51
0.0
  0
LINE
  5
32C
330
1F
100
AcDbEntity
  8
0
  6
Continuous
 62
     7
370
    35
100
AcDbLine
 10
2120.5489530551
 20
1305.9352836813
 30
0.0
 11
2120.5489530551
 21
1315.9352836813
 31
0.0
  0
ARC
  5
32D
330
1F
100
AcDbEntity
  8
0
  6
Continuous
 62
     7
370
    35
100
AcDbCircle
 10
2114.0489530551
 20
1315.9352836813
 30
0.0
 40
6.5
100
AcDbArc
 50
0.0
 51
180.0
  0
ARC
  5
32E
330
1F
100
AcDbEntity
  8
0
  6
Continuous
 62
     7
370
    35
100
AcDbCircle
 10
2134.5489530551
 20
1287.9352836813
 30
0.0
 40
2.000000000000227
100
AcDbArc
 50
270.0
 51
0.0
  0
ARC
  5
32F
330
1F
100
AcDbEntity
  8
0
  6
Continuous
 62
     7
370
    35
100
AcDbCircle
 10
2138.5489530551
 20
1322.2258937701
 30
0.0
 40
2.0
100
AcDbArc
 50
115.0
 51
180.0
  0
ARC
  5
330
330
1F
100
AcDbEntity
  8
0
  6
Continuous
 62
     7
370
    35
100
AcDbCircle
 10
2152.4239530551
 20
1333.1094242029
 30
0.0
 40
1.999999999999725
100
AcDbArc
 50
295.0
 51
0.0
  0
LINE
  5
331
330
1F
100
AcDbEntity
  8
0
  6
Continuous
 62
     7
370
    35
100
AcDbLine
 10
2108.5489530551
 20
1285.9352836813
 30
0.0
 11
2134.5489530551
 21
1285.9352836813
 31
0.0
  0
ARC
  5
332
330
1F
100
AcDbEntity
  8
0
  6
Continuous
 62
     7
370
    35
100
AcDbCircle
 10
2129.0489530551
 20
1305.9352836813
 30
0.0
 40
6.500000000000455
100
AcDbArc
 50
180.0
 51
0.0
  0
LINE
  5
333
330
1F
100
AcDbEntity
  8
0
  6
Continuous
 62
     7
370
    35
100
AcDbLine
 10
2089.8287165317
 20
1331.2968086288
 30
0.0
 11
2105.3941895786
 21
1324.0385093442
 31
0.0
  0
LINE
  5
334
330
1F
100
AcDbEntity
  8
0
  6
Continuous
 62
     7
370
    35
100
AcDbLine
 10
2088.6739530551
 20
1338.8352836813
 30
0.0
 11
2088.6739530551
 21
1333.1094242029
 31
0.0
  0
LINE
  5
335
330
1F
100
AcDbEntity
  8
0
  6
Continuous
 62
     7
370
    35
100
AcDbLine
 10
2154.4239530551
 20
1333.1094242029
 30
0.0
 11
2154.4239530551
 21
1338.8352836813
 31
0.0
  0
LINE
  5
336
330
1F
100
AcDbEntity
  8
0
  6
Continuous
 62
     7
370
    35
100
AcDbLine
 10
2137.7037165317
 20
1324.0385093442
 30
0.0
 11
2153.2691895786
 21
1331.2968086288
 31
0.0
  0
LINE
  5
337
330
1F
100
AcDbEntity
  8
0
  6
Continuous
 62
     7
370
    35
100
AcDbLine
 10
2136.5489530551
 20
1287.9352836813
 30
0.0
 11
2136.5489530551
 21
1322.2258937701
 31
0.0
  0
ARC
  5
338
330
1F
100
AcDbEntity
  8
0
  6
Continuous
 62
     7
370
    35
100
AcDbCircle
 10
2108.5489530551
 20
1287.9352836813
 30
0.0
 40
2.000000000000227
100
AcDbArc
 50
180.0
 51
270.0
  0
LINE
  5
339
330
1F
100
AcDbEntity
  8
0
  6
Continuous
 62
     7
370
    35
100
AcDbLine
 10
2106.5489530551
 20
1322.2258937701
 30
0.0
 11
2106.5489530551
 21
1287.9352836813
 31
0.0
  0
LINE
  5
33A
330
1F
100
AcDbEntity
  8
0
  6
Continuous
 62
     7
370
    35
100
AcDbLine
 10
2122.5489530551
 20
1305.9352836813
 30
0.0
 11
2122.5489530551
 21
1315.9352836813
 31
0.0
  0
LINE
  5
33B
330
1F
100
AcDbEntity
  8
0
  6
Continuous
 62
     7
370
    35
100
AcDbLine
 10
2086.5489530551
 20
1350.8352836813
 30
0.0
 11
2086.5489530551
 21
1351.8352836813
 31
0.0
  0
LINE
  5
33C
330
1F
100
AcDbEntity
  8
0
  6
Continuous
 62
     7
370
    35
100
AcDbLine
 10
2156.5489530551
 20
1351.8352836813
 30
0.0
 11
2156.5489530551
 21
1350.8352836813
 31
0.0
  0
LINE
  5
33D
330
1F
100
AcDbEntity
  8
0
  6
Continuous
 62
     8
370
    18
100
AcDbLine
 10
2088.5489530551
 20
1337.5972021706
 30
0.0
 11
2088.6739530551
 21
1337.5972021706
 31
0.0
  0
LINE
  5
33E
330
1F
100
AcDbEntity
  8
0
  6
Continuous
 62
     8
370
    18
100
AcDbLine
 10
2154.4239530551
 20
1337.5972021706
 30
0.0
 11
2154.5489530551
 21
1337.5972021706
 31
0.0
  0
SPLINE
  5
33F
330
1F
100
AcDbEntity
  8
0
  6
Continuous
 62
     8
370
    18
100
AcDbSpline
210
0.0
220
0.0
230
1.0
 70
     8
 71
     3
 72
    11
 73
     7
 74
     0
 42
0.000000001
 43
0.00000001
 40
0.0
 40
0.0
 40
0.0
 40
0.0
 40
0.2499912677933776
 40
0.499986756231606
 40
0.749992678491824
 40
0.9999999999999999
 40
0.9999999999999999
 40
0.9999999999999999
 40
0.9999999999999999
 10
2153.089120187833
 20
1321.637897398487
 30
0.0
 10
2153.081362558805
 20
1321.643395253415
 30
0.0
 10
2153.065847169774
 20
1321.65439105609
 30
0.0
 10
2153.035153986561
 20
1321.675748045823
 30
0.0
 10
2152.997988704929
 20
1321.702620965403
 30
0.0
 10
2152.970679305733
 20
1321.719570896143
 30
0.0
 10
2152.957024567924
 20
1321.728045885229
 30
0.0
  0
SPLINE
  5
340
330
1F
100
AcDbEntity
  8
0
  6
Continuous
 62
     8
370
    18
100
AcDbSpline
210
0.0
220
0.0
230
1.0
 70
     8
 71
     3
 72
    10
 73
     6
 74
     0
 42
0.000000001
 43
0.00000001
 40
0.0
 40
0.0
 40
0.0
 40
0.0
 40
0.4993573099105828
 40
0.9998128115878191
 40
0.9999999999999999
 40
0.9999999999999999
 40
0.9999999999999999
 40
0.9999999999999999
 10
2152.957024567924
 20
1321.728045885229
 30
0.0
 10
2152.956283732106
 20
1321.727969265129
 30
0.0
 10
2152.954800431217
 20
1321.727815856425
 30
0.0
 10
2152.956708335838
 20
1321.722201114907
 30
0.0
 10
2152.958248576323
 20
1321.718436130038
 30
0.0
 10
2152.958249152213
 20
1321.718434722324
 30
0.0
  0
SPLINE
  5
341
330
1F
100
AcDbEntity
  8
0
  6
Continuous
 62
     8
370
    18
100
AcDbSpline
210
0.0
220
0.0
230
1.0
 70
     8
 71
     3
 72
    10
 73
     6
 74
     0
 42
0.000000001
 43
0.00000001
 40
0.0
 40
0.0
 40
0.0
 40
0.0
 40
0.4999712442950824
 40
0.749982626431876
 40
1.0
 40
1.0
 40
1.0
 40
1.0
 10
2155.827104908006
 20
1316.682389847153
 30
0.0
 10
2156.06944143135
 20
1316.232947890406
 30
0.0
 10
2156.432958702256
 20
1315.558761798716
 30
0.0
 10
2156.908192176912
 20
1314.654785735869
 30
0.0
 10
2157.143322786703
 20
1314.201470541039
 30
0.0
 10
2157.260889500287
 20
1313.974810227774
 30
0.0
  0
SPLINE
  5
342
330
1F
100
AcDbEntity
  8
0
  6
Continuous
 62
     8
370
    18
100
AcDbSpline
210
0.0
220
0.0
230
1.0
 70
     8
 71
     3
 72
    11
 73
     7
 74
     0
 42
0.000000001
 43
0.00000001
 40
0.0
 40
0.0
 40
0.0
 40
0.0
 40
0.2471593440128825
 40
0.4953474341907679
 40
0.7469783905689322
 40
0.9999999999999999
 40
0.9999999999999999
 40
0.9999999999999999
 40
0.9999999999999999
 10
2158.868734898861
 20
1294.43616946702
 30
0.0
 10
2158.715999425568
 20
1293.99875550099
 30
0.0
 10
2158.409892751319
 20
1293.122106929932
 30
0.0
 10
2157.849347883963
 20
1291.84004472212
 30
0.0
 10
2157.218437372645
 20
1290.580568969096
 30
0.0
 10
2156.734358198679
 20
1289.777858868587
 30
0.0
 10
2156.491651631851
 20
1289.375397818554
 30
0.0
  0
SPLINE
  5
343
330
1F
100
AcDbEntity
  8
0
  6
Continuous
 62
     8
370
    18
100
AcDbSpline
210
0.0
220
0.0
230
1.0
 70
     8
 71
     3
 72
    15
 73
    11
 74
     0
 42
0.000000001
 43
0.00000001
 40
0.0
 40
0.0
 40
0.0
 40
0.0
 40
0.0726415246631796
 40
0.2114867271185353
 40
0.3505587984458994
 40
0.4893756744012152
 40
0.6282357890834522
 40
0.7719640009808392
 40
0.9157054947821136
 40
1.0
 40
1.0
 40
1.0
 40
1.0
 10
2156.491651631851
 20
1289.375397818554
 30
0.0
 10
2156.474109719968
 20
1289.380820144132
 30
0.0
 10
2156.423038634267
 20
1289.396606567875
 30
0.0
 10
2155.867467919081
 20
1289.273011124631
 30
0.0
 10
2154.162446476201
 20
1289.007203569869
 30
0.0
 10
2151.644407499767
 20
1288.922002684586
 30
0.0
 10
2148.342834157866
 20
1288.820761882906
 30
0.0
 10
2144.296216338573
 20
1288.73656975072
 30
0.0
 10
2140.339118638445
 20
1288.669937056197
 30
0.0
 10
2137.571876298961
 20
1288.643650946316
 30
0.0
 10
2136.548953055139
 20
1288.633934170736
 30
0.0
  0
LINE
  5
344
330
1F
100
AcDbEntity
  8
0
  6
Continuous
 62
     8
370
    18
100
AcDbLine
 10
2087.2708012023
 20
1316.6823898472
 30
0.0
 11
2085.83701661
 21
1313.9748102278
 31
0.0
  0
SPLINE
  5
345
330
1F
100
AcDbEntity
  8
0
  6
Continuous
 62
     8
370
    18
100
AcDbSpline
210
0.0
220
0.0
230
1.0
 70
     8
 71
     3
 72
     9
 73
     5
 74
     0
 42
0.000000001
 43
0.00000001
 40
0.0
 40
0.0
 40
0.0
 40
0.0
 40
0.9998127596651308
 40
0.9999999999999999
 40
0.9999999999999999
 40
0.9999999999999999
 40
0.9999999999999999
 10
2090.140881542353
 20
1321.728045885229
 30
0.0
 10
2090.141807340214
 20
1321.727000297764
 30
0.0
 10
2090.142733311453
 20
1321.725954514486
 30
0.0
 10
2090.139657533974
 20
1321.718436130069
 30
0.0
 10
2090.139656958065
 20
1321.718434722324
 30
0.0
  0
SPLINE
  5
346
330
1F
100
AcDbEntity
  8
0
  6
Continuous
 62
     8
370
    18
100
AcDbSpline
210
0.0
220
0.0
230
1.0
 70
     8
 71
     3
 72
     9
 73
     5
 74
     0
 42
0.000000001
 43
0.00000001
 40
0.0
 40
0.0
 40
0.0
 40
0.0
 40
0.4999863548673911
 40
1.0
 40
1.0
 40
1.0
 40
1.0
 10
2090.008785922444
 20
1321.637897398487
 30
0.0
 10
2090.025300501263
 20
1321.649770061544
 30
0.0
 10
2090.0583305603
 20
1321.673516035692
 30
0.0
 10
2090.113364047709
 20
1321.709868938023
 30
0.0
 10
2090.140881542353
 20
1321.728045885229
 30
0.0
  0
SPLINE
  5
347
330
1F
100
AcDbEntity
  8
0
  6
Continuous
 62
     8
370
    18
100
AcDbSpline
210
0.0
220
0.0
230
1.0
 70
     8
 71
     3
 72
    15
 73
    11
 74
     0
 42
0.000000001
 43
0.00000001
 40
0.0
 40
0.0
 40
0.0
 40
0.0
 40
0.0726415246631714
 40
0.2114867271185276
 40
0.3505587984458926
 40
0.489375674401209
 40
0.628235789083447
 40
0.771964000980833
 40
0.9157054947821059
 40
1.0
 40
1.0
 40
1.0
 40
1.0
 10
2086.606254478427
 20
1289.375397818554
 30
0.0
 10
2086.62379639031
 20
1289.380820144131
 30
0.0
 10
2086.67486747601
 20
1289.396606567875
 30
0.0
 10
2087.230438191197
 20
1289.273011124631
 30
0.0
 10
2088.935459634077
 20
1289.007203569869
 30
0.0
 10
2091.453498610511
 20
1288.922002684586
 30
0.0
 10
2094.755071952412
 20
1288.820761882905
 30
0.0
 10
2098.801689771705
 20
1288.73656975072
 30
0.0
 10
2102.758787471833
 20
1288.669937056196
 30
0.0
 10
2105.526029811318
 20
1288.643650946316
 30
0.0
 10
2106.548953055139
 20
1288.633934170736
 30
0.0
  0
SPLINE
  5
348
330
1F
100
AcDbEntity
  8
0
  6
Continuous
 62
     8
370
    18
100
AcDbSpline
210
0.0
220
0.0
230
1.0
 70
     8
 71
     3
 72
     9
 73
     5
 74
     0
 42
0.000000001
 43
0.00000001
 40
0.0
 40
0.0
 40
0.0
 40
0.0
 40
0.4953960175050912
 40
1.0
 40
1.0
 40
1.0
 40
1.0
 10
2084.229171211417
 20
1294.43616946702
 30
0.0
 10
2084.547162172228
 20
1293.561818125323
 30
0.0
 10
2085.18905461701
 20
1291.796863804334
 30
0.0
 10
2086.130963503272
 20
1290.18749282436
 30
0.0
 10
2086.606254478427
 20
1289.375397818554
 30
0.0
  0
SPLINE
  5
349
330
1F
100
AcDbEntity
  8
0
  6
Continuous
 62
     8
370
    18
100
AcDbSpline
210
0.0
220
0.0
230
1.0
 70
     8
 71
     3
 72
    13
 73
     9
 74
     0
 42
0.000000001
 43
0.00000001
 40
0.0
 40
0.0
 40
0.0
 40
0.0
 40
0.3455606136556949
 40
0.7377948233629253
 40
0.848287898516053
 40
0.9091433588593545
 40
0.9540191324658088
 40
0.9999999999999999
 40
0.9999999999999999
 40
0.9999999999999999
 40
0.9999999999999999
 10
2086.606254478427
 20
1289.375397818554
 30
0.0
 10
2086.944697087632
 20
1288.874226472461
 30
0.0
 10
2087.667294499515
 20
1287.804192417209
 30
0.0
 10
2088.702449583048
 20
1286.717092270799
 30
0.0
 10
2089.33235431401
 20
1286.136910523033
 30
0.0
 10
2089.509788126068
 20
1285.977594647308
 30
0.0
 10
2089.579987085156
 20
1285.91279303493
 30
0.0
 10
2089.57601587494
 20
1285.91273587229
 30
0.0
 10
2089.574006118816
 20
1285.912706943334
 30
0.0
  0
SPLINE
  5
34A
330
1F
100
AcDbEntity
  8
0
  6
Continuous
 62
     8
370
    18
100
AcDbSpline
210
0.0
220
0.0
230
1.0
 70
     8
 71
     3
 72
     9
 73
     5
 74
     0
 42
0.000000001
 43
0.00000001
 40
0.0
 40
0.0
 40
0.0
 40
0.0
 40
0.4998468996431861
 40
1.0
 40
1.0
 40
1.0
 40
1.0
 10
2089.574006118816
 20
1285.912706943334
 30
0.0
 10
2089.468432670441
 20
1285.976298890059
 30
0.0
 10
2089.257221100556
 20
1286.103521739235
 30
0.0
 10
2089.136642262803
 20
1286.18114968316
 30
0.0
 10
2089.076334383265
 20
1286.219975539988
 30
0.0
  0
SPLINE
  5
34B
330
1F
100
AcDbEntity
  8
0
  6
Continuous
 62
     8
370
    18
100
AcDbSpline
210
0.0
220
0.0
230
1.0
 70
     8
 71
     3
 72
    13
 73
     9
 74
     0
 42
0.000000001
 43
0.00000001
 40
0.0
 40
0.0
 40
0.0
 40
0.0
 40
0.3455606136556857
 40
0.7377948233628902
 40
0.8482878985160511
 40
0.9091433588593539
 40
0.9540191324658095
 40
1.0
 40
1.0
 40
1.0
 40
1.0
 10
2156.491651631851
 20
1289.375397818554
 30
0.0
 10
2156.153209022646
 20
1288.874226472461
 30
0.0
 10
2155.430611610762
 20
1287.80419241721
 30
0.0
 10
2154.395456527231
 20
1286.717092270799
 30
0.0
 10
2153.765551796267
 20
1286.136910523033
 30
0.0
 10
2153.58811798421
 20
1285.977594647308
 30
0.0
 10
2153.517919025122
 20
1285.912793034931
 30
0.0
 10
2153.521890235338
 20
1285.91273587229
 30
0.0
 10
2153.523899991461
 20
1285.912706943334
 30
0.0
  0
SPLINE
  5
34C
330
1F
100
AcDbEntity
  8
0
  6
Continuous
 62
     8
370
    18
100
AcDbSpline
210
0.0
220
0.0
230
1.0
 70
     8
 71
     3
 72
    11
 73
     7
 74
     0
 42
0.000000001
 43
0.00000001
 40
0.0
 40
0.0
 40
0.0
 40
0.0
 40
0.2499068565621712
 40
0.4998445626142471
 40
0.7498974475611084
 40
1.0
 40
1.0
 40
1.0
 40
1.0
 10
2153.523899991461
 20
1285.912706943334
 30
0.0
 10
2153.577731724859
 20
1285.944814775471
 30
0.0
 10
2153.685401836856
 20
1286.009034403263
 30
0.0
 10
2153.821283166103
 20
1286.092908063103
 30
0.0
 10
2153.937470436553
 20
1286.165975885264
 30
0.0
 10
2153.993536107677
 20
1286.201974463479
 30
0.0
 10
2154.021571727015
 20
1286.219975539989
 30
0.0
  0
SPLINE
  5
34D
330
1F
100
AcDbEntity
  8
0
  6
Continuous
 62
     8
370
    18
100
AcDbSpline
210
0.0
220
0.0
230
1.0
 70
     8
 71
     3
 72
     9
 73
     5
 74
     0
 42
0.000000001
 43
0.00000001
 40
0.0
 40
0.0
 40
0.0
 40
0.0
 40
0.7340356503351415
 40
1.0
 40
1.0
 40
1.0
 40
1.0
 10
2154.021571727015
 20
1286.219975539989
 30
0.0
 10
2154.027124022716
 20
1286.223990385239
 30
0.0
 10
2154.034688090889
 20
1286.229459936
 30
0.0
 10
2154.081770857518
 20
1286.27158208566
 30
0.0
 10
2154.094293194925
 20
1286.282785075801
 30
0.0
  0
SPLINE
  5
34E
330
1F
100
AcDbEntity
  8
0
  6
Continuous
 62
     8
370
    18
100
AcDbSpline
210
0.0
220
0.0
230
1.0
 70
     8
 71
     3
 72
    12
 73
     8
 74
     0
 42
0.000000001
 43
0.00000001
 40
0.0
 40
0.0
 40
0.0
 40
0.0
 40
0.1139159269059945
 40
0.3258009088085497
 40
0.544304188665515
 40
0.8274327407183972
 40
1.0
 40
1.0
 40
1.0
 40
1.0
 10
2159.631884894878
 20
1294.199383462973
 30
0.0
 10
2159.863128884325
 20
1294.952854946723
 30
0.0
 10
2160.52448945053
 20
1297.107792371493
 30
0.0
 10
2161.04752165721
 20
1300.862699349689
 30
0.0
 10
2160.896385540609
 20
1305.808576863842
 30
0.0
 10
2159.877068902517
 20
1310.417072763329
 30
0.0
 10
2158.535480726248
 20
1313.27303454886
 30
0.0
 10
2158.027435251822
 20
1314.354557542233
 30
0.0
  0
ARC
  5
34F
330
1F
100
AcDbEntity
  8
0
  6
Continuous
 62
     8
370
    18
100
AcDbCircle
 10
2154.249518218
 20
1278.2004634289
 30
0.0
 40
16.88002705271141
100
AcDbArc
 50
71.4059989948
 51
74.11843048
  0
ARC
  5
350
330
1F
100
AcDbEntity
  8
0
  6
Continuous
 62
     8
370
    18
100
AcDbCircle
 10
2148.545340562
 20
1332.5312738251
 30
0.0
 40
20.50129592331979
100
AcDbArc
 50
295.1583766346
 51
297.5493192595
  0
ARC
  5
351
330
1F
100
AcDbEntity
  8
0
  6
Continuous
 62
     8
370
    18
100
AcDbCircle
 10
2088.8483878921
 20
1278.2004634293
 30
0.0
 40
16.88002705233696
100
AcDbArc
 50
105.88156952
 51
108.5940010052
  0
SPLINE
  5
352
330
1F
100
AcDbEntity
  8
0
  6
Continuous
 62
     8
370
    18
100
AcDbSpline
210
0.0
220
0.0
230
1.0
 70
     8
 71
     3
 72
    12
 73
     8
 74
     0
 42
0.000000001
 43
0.00000001
 40
0.0
 40
0.0
 40
0.0
 40
0.0
 40
0.113918570134184
 40
0.3290869588708605
 40
0.5442936150078427
 40
0.8274287365843256
 40
1.0
 40
1.0
 40
1.0
 40
1.0
 10
2083.4660212154
 20
1294.199383462972
 30
0.0
 10
2083.234647607461
 20
1294.95283733043
 30
0.0
 10
2082.566257573159
 20
1297.129408205566
 30
0.0
 10
2082.053850489683
 20
1300.886357298853
 30
0.0
 10
2082.204833459534
 20
1305.830969978389
 30
0.0
 10
2083.22109985724
 20
1310.417100162293
 30
0.0
 10
2084.562497526899
 20
1313.273042074631
 30
0.0
 10
2085.070470858456
 20
1314.354557542233
 30
0.0
  0
ARC
  5
353
330
1F
100
AcDbEntity
  8
0
  6
Continuous
 62
     8
370
    18
100
AcDbCircle
 10
2094.5525655473
 20
1332.5312738231
 30
0.0
 40
20.50129592111968
100
AcDbArc
 50
242.4506807404
 51
244.8416233656
  0
ARC
  5
354
330
1F
100
AcDbEntity
  8
0
  6
Continuous
 62
     8
370
    18
100
AcDbCircle
 10
2086.422930708
 20
1288.7035082733
 30
0.0
 40
0.6964504044218488
100
AcDbArc
 50
74.7384391006
 51
121.3141841641
  0
SPLINE
  5
355
330
1F
100
AcDbEntity
  8
0
  6
Continuous
 62
     8
370
    18
100
AcDbSpline
210
0.0
220
0.0
230
1.0
 70
     8
 71
     3
 72
    11
 73
     7
 74
     0
 42
0.000000001
 43
0.00000001
 40
0.0
 40
0.0
 40
0.0
 40
0.0
 40
0.3598580230790384
 40
0.7246062069006072
 40
0.8621677510649618
 40
1.0
 40
1.0
 40
1.0
 40
1.0
 10
2086.060964103252
 20
1289.298506880764
 30
0.0
 10
2085.675661664131
 20
1289.844803229394
 30
0.0
 10
2084.899820857437
 20
1290.944819623744
 30
0.0
 10
2084.178925623983
 20
1292.379750931968
 30
0.0
 10
2083.720964552043
 20
1293.476000468941
 30
0.0
 10
2083.551057998821
 20
1293.958097835334
 30
0.0
 10
2083.4660212154
 20
1294.199383462972
 30
0.0
  0
SPLINE
  5
356
330
1F
100
AcDbEntity
  8
0
  6
Continuous
 62
     8
370
    18
100
AcDbSpline
210
0.0
220
0.0
230
1.0
 70
     8
 71
     3
 72
    11
 73
     7
 74
     0
 42
0.000000001
 43
0.00000001
 40
0.0
 40
0.0
 40
0.0
 40
0.0
 40
0.3598580230790384
 40
0.7246062069006082
 40
0.8621677510649418
 40
0.9999999999999999
 40
0.9999999999999999
 40
0.9999999999999999
 40
0.9999999999999999
 10
2157.036942007026
 20
1289.298506880764
 30
0.0
 10
2157.422244446147
 20
1289.844803229395
 30
0.0
 10
2158.198085252841
 20
1290.944819623744
 30
0.0
 10
2158.918980486295
 20
1292.379750931968
 30
0.0
 10
2159.376941558235
 20
1293.476000468942
 30
0.0
 10
2159.546848111457
 20
1293.958097835335
 30
0.0
 10
2159.631884894878
 20
1294.199383462973
 30
0.0
  0
ARC
  5
357
330
1F
100
AcDbEntity
  8
0
  6
Continuous
 62
     8
370
    18
100
AcDbCircle
 10
2156.6749754023
 20
1288.7035082733
 30
0.0
 40
0.6964504044266545
100
AcDbArc
 50
58.685815836
 51
105.2615608992
  0
ARC
  5
358
330
1F
100
AcDbEntity
  8
0
  6
Continuous
 62
     8
370
    18
100
AcDbCircle
 10
2155.4979410391
 20
1323.3181984085
 30
0.0
 40
2.997472528750329
100
AcDbArc
 50
212.0390940145
 51
236.4309513428
  0
SPLINE
  5
359
330
1F
100
AcDbEntity
  8
0
  6
Continuous
 62
     8
370
    18
100
AcDbSpline
210
0.0
220
0.0
230
1.0
 70
     8
 71
     3
 72
    14
 73
    10
 74
     0
 42
0.000000001
 43
0.00000001
 40
0.0
 40
0.0
 40
0.0
 40
0.0
 40
0.6113158653943911
 40
0.7934072053583399
 40
0.8854170307688743
 40
0.9194198313361062
 40
0.9434501870529949
 40
0.9749897870426377
 40
1.0
 40
1.0
 40
1.0
 40
1.0
 10
2156.566242197211
 20
1317.072729875828
 30
0.0
 10
2156.009785246924
 20
1317.955053196423
 30
0.0
 10
2155.287577663543
 20
1319.100192263873
 30
0.0
 10
2154.302900413686
 20
1320.235848376654
 30
0.0
 10
2153.977860173714
 20
1320.613595438529
 30
0.0
 10
2153.86480635008
 20
1320.754636332538
 30
0.0
 10
2153.824436407785
 20
1320.811841568465
 30
0.0
 10
2153.81632431999
 20
1320.834179373932
 30
0.0
 10
2153.833096296225
 20
1320.824794705115
 30
0.0
 10
2153.840514016559
 20
1320.820644159721
 30
0.0
  0
ARC
  5
35A
330
1F
100
AcDbEntity
  8
0
  6
Continuous
 62
     8
370
    18
100
AcDbCircle
 10
2143.9381328375
 20
1340.0900000116
 30
0.0
 40
26.2538353484484
100
AcDbArc
 50
296.9264954204
 51
298.7507702117
  0
ARC
  5
35B
330
1F
100
AcDbEntity
  8
0
  6
Continuous
 62
     8
370
    18
100
AcDbCircle
 10
2099.1597732745
 20
1340.0900000147
 30
0.0
 40
26.25383535197533
100
AcDbArc
 50
241.2492297884
 51
243.0735045794
  0
SPLINE
  5
35C
330
1F
100
AcDbEntity
  8
0
  6
Continuous
 62
     8
370
    18
100
AcDbSpline
210
0.0
220
0.0
230
1.0
 70
     8
 71
     3
 72
    14
 73
    10
 74
     0
 42
0.000000001
 43
0.00000001
 40
0.0
 40
0.0
 40
0.0
 40
0.0
 40
0.6113158653943565
 40
0.793407205358341
 40
0.885417030768875
 40
0.9194198313361066
 40
0.9434501870529952
 40
0.974989787042638
 40
1.0
 40
1.0
 40
1.0
 40
1.0
 10
2086.531663913067
 20
1317.072729875827
 30
0.0
 10
2087.088120863353
 20
1317.955053196422
 30
0.0
 10
2087.810328446734
 20
1319.100192263873
 30
0.0
 10
2088.795005696592
 20
1320.235848376654
 30
0.0
 10
2089.120045936564
 20
1320.613595438528
 30
0.0
 10
2089.233099760198
 20
1320.754636332537
 30
0.0
 10
2089.273469702493
 20
1320.811841568465
 30
0.0
 10
2089.281581790288
 20
1320.834179373931
 30
0.0
 10
2089.264809814053
 20
1320.824794705114
 30
0.0
 10
2089.257392093719
 20
1320.820644159721
 30
0.0
  0
ARC
  5
35D
330
1F
100
AcDbEntity
  8
0
  6
Continuous
 62
     8
370
    18
100
AcDbCircle
 10
2087.5999650712
 20
1323.3181984085
 30
0.0
 40
2.997472528732956
100
AcDbArc
 50
303.5690486571
 51
327.9609059855
  0
LINE
  5
35E
330
1F
100
AcDbEntity
  8
0
  6
Continuous
 62
     8
370
    18
100
AcDbLine
 10
2085.0704708585
 20
1314.3545575422
 30
0.0
 11
2086.5316639131
 21
1317.0727298758
 31
0.0
  0
LINE
  5
35F
330
1F
100
AcDbEntity
  8
0
  6
Continuous
 62
     8
370
    18
100
AcDbLine
 10
2158.0274352518
 20
1314.3545575422
 30
0.0
 11
2156.5662421972
 21
1317.0727298758
 31
0.0
  0
ARC
  5
360
330
1F
100
AcDbEntity
  8
0
  6
Continuous
 62
     8
370
    18
100
AcDbCircle
 10
2087.6621366075
 20
1283.6486359385
 30
0.0
 40
2.963319514178697
100
AcDbArc
 50
49.8209532532
 51
58.1297763967
  0
SPLINE
  5
361
330
1F
100
AcDbEntity
  8
0
  6
Continuous
 62
     8
370
    18
100
AcDbSpline
210
0.0
220
0.0
230
1.0
 70
     8
 71
     3
 72
    16
 73
    12
 74
     0
 42
0.000000001
 43
0.00000001
 40
0.0
 40
0.0
 40
0.0
 40
0.0
 40
0.0117733620155408
 40
0.0227113902881395
 40
0.0341085178796159
 40
0.0448724470144671
 40
0.0843977891274015
 40
0.1801725761899951
 40
0.6004756555876991
 40
0.7301077904364819
 40
1.0
 40
1.0
 40
1.0
 40
1.0
 10
2089.226760587116
 20
1286.165223776361
 30
0.0
 10
2089.232333949978
 20
1286.161870408938
 30
0.0
 10
2089.243085239118
 20
1286.155401599415
 30
0.0
 10
2089.243411644374
 20
1286.157465137601
 30
0.0
 10
2089.227556019999
 20
1286.171105322473
 30
0.0
 10
2089.176438326224
 20
1286.211683265373
 30
0.0
 10
2089.005930383764
 20
1286.342349755404
 30
0.0
 10
2088.331681447784
 20
1286.869738633732
 30
0.0
 10
2087.581525323356
 20
1287.550808230087
 30
0.0
 10
2086.708685414218
 20
1288.481379435018
 30
0.0
 10
2086.322109327044
 20
1288.969061290395
 30
0.0
 10
2086.060964103252
 20
1289.298506880764
 30
0.0
  0
SPLINE
  5
362
330
1F
100
AcDbEntity
  8
0
  6
Continuous
 62
     8
370
    18
100
AcDbSpline
210
0.0
220
0.0
230
1.0
 70
     8
 71
     3
 72
    16
 73
    12
 74
     0
 42
0.000000001
 43
0.00000001
 40
0.0
 40
0.0
 40
0.0
 40
0.0
 40
0.0117733620155405
 40
0.0227113902881389
 40
0.0341085178796148
 40
0.0448724470144655
 40
0.0843977891274397
 40
0.1801725761900116
 40
0.6004756555876746
 40
0.7301077904365145
 40
1.0
 40
1.0
 40
1.0
 40
1.0
 10
2153.871145523161
 20
1286.165223776361
 30
0.0
 10
2153.8655721603
 20
1286.161870408938
 30
0.0
 10
2153.85482087116
 20
1286.155401599415
 30
0.0
 10
2153.854494465903
 20
1286.157465137602
 30
0.0
 10
2153.870350090279
 20
1286.171105322473
 30
0.0
 10
2153.921467784054
 20
1286.211683265373
 30
0.0
 10
2154.091975726514
 20
1286.342349755404
 30
0.0
 10
2154.766224662495
 20
1286.869738633732
 30
0.0
 10
2155.516380786922
 20
1287.550808230088
 30
0.0
 10
2156.38922069606
 20
1288.481379435018
 30
0.0
 10
2156.775796783234
 20
1288.969061290395
 30
0.0
 10
2157.036942007026
 20
1289.298506880764
 30
0.0
  0
ARC
  5
363
330
1F
100
AcDbEntity
  8
0
  6
Continuous
 62
     8
370
    18
100
AcDbCircle
 10
2155.4357695028
 20
1283.6486359386
 30
0.0
 40
2.963319514110272
100
AcDbArc
 50
121.8702236032
 51
130.1790467469
  0
ARC
  5
364
330
1F
100
AcDbEntity
  8
0
  6
Continuous
 62
     8
370
    18
100
AcDbCircle
 10
2151.2334578598
 20
1327.3501705084
 30
0.0
 40
14.66438151336131
100
AcDbArc
 50
297.6001215934
 51
299.8288543736
  0
ARC
  5
365
330
1F
100
AcDbEntity
  8
0
  6
Continuous
 62
     8
370
    18
100
AcDbCircle
 10
2155.6201913393
 20
1282.3257170461
 30
0.0
 40
12.5330618511302
100
AcDbArc
 50
68.8944075233
 51
71.3317007917
  0
ARC
  5
366
330
1F
100
AcDbEntity
  8
0
  6
Continuous
 62
     8
370
    18
100
AcDbCircle
 10
2091.8644482502
 20
1327.350170508
 30
0.0
 40
14.66438151290677
100
AcDbArc
 50
240.1711456264
 51
242.3998784067
  0
ARC
  5
367
330
1F
100
AcDbEntity
  8
0
  6
Continuous
 62
     8
370
    18
100
AcDbCircle
 10
2087.4777147713
 20
1282.3257170453
 30
0.0
 40
12.53306185188731
100
AcDbArc
 50
108.6682992084
 51
111.1055924766
  0
ARC
  5
368
330
1F
100
AcDbEntity
  8
0
  6
Continuous
 62
     8
370
    18
100
AcDbCircle
 10
2093.8554492655
 20
1330.3993254829
 30
0.0
 40
15.20644542168508
100
AcDbArc
 50
239.1079369153
 51
241.2084941516
  0
ARC
  5
369
330
1F
100
AcDbEntity
  8
0
  6
Continuous
 62
     8
370
    18
100
AcDbCircle
 10
2149.2424568457
 20
1330.3993254812
 30
0.0
 40
15.2064454197713
100
AcDbArc
 50
298.7915058483
 51
300.8920630849
  0
ARC
  5
36A
330
1F
100
AcDbEntity
  8
0
  6
Continuous
 62
     8
370
    18
100
AcDbCircle
 10
2156.0193956089
 20
1283.9930496223
 30
0.0
 40
2.991738508885494
100
AcDbArc
 50
124.0281034348
 51
131.8959735504
  0
ARC
  5
36B
330
1F
100
AcDbEntity
  8
0
  6
Continuous
 62
     8
370
    18
100
AcDbCircle
 10
2087.0785105014
 20
1283.9930496224
 30
0.0
 40
2.991738508850838
100
AcDbArc
 50
48.1040264495
 51
55.9718965652
  0
ARC
  5
36C
330
1F
100
AcDbEntity
  8
0
  6
Continuous
 62
     8
370
    18
100
AcDbCircle
 10
2155.6300421095
 20
1323.2317421774
 30
0.0
 40
2.999437512488635
100
AcDbArc
 50
212.0988262038
 51
235.735331513
  0
ARC
  5
36D
330
1F
100
AcDbEntity
  8
0
  6
Continuous
 62
     8
370
    18
100
AcDbCircle
 10
2087.4678445567
 20
1323.2317575487
 30
0.0
 40
2.999462152217211
100
AcDbArc
 50
312.8940341466
 51
327.9011224252
  0
SPLINE
  5
36E
330
1F
100
AcDbEntity
  8
0
  6
Continuous
 62
     8
370
    18
100
AcDbSpline
210
0.0
220
0.0
230
1.0
 70
     8
 71
     3
 72
    11
 73
     7
 74
     0
 42
0.000000001
 43
0.00000001
 40
0.0
 40
0.0
 40
0.0
 40
0.0
 40
0.242698595703802
 40
0.5047456086937672
 40
0.7664412997887239
 40
1.0
 40
1.0
 40
1.0
 40
1.0
 10
2155.708859412846
 20
1319.17198646175
 30
0.0
 10
2155.456314122704
 20
1319.645748195386
 30
0.0
 10
2154.931090126968
 20
1320.631040895273
 30
0.0
 10
2154.21660241581
 20
1321.626175949903
 30
0.0
 10
2153.540751445184
 20
1322.274395993463
 30
0.0
 10
2153.431942300556
 20
1322.353095315024
 30
0.0
 10
2153.38062862654
 20
1322.390209395331
 30
0.0
  0
ARC
  5
36F
330
1F
100
AcDbEntity
  8
0
  6
Continuous
 62
     8
370
    18
100
AcDbCircle
 10
2155.1329183905
 20
1298.4111233591
 30
0.0
 40
8.932560827387203
100
AcDbArc
 50
287.5397504291
 51
356.514198663
  0
SPLINE
  5
370
330
1F
100
AcDbEntity
  8
0
  6
Continuous
 62
     8
370
    18
100
AcDbSpline
210
0.0
220
0.0
230
1.0
 70
     8
 71
     3
 72
    11
 73
     7
 74
     0
 42
0.000000001
 43
0.00000001
 40
0.0
 40
0.0
 40
0.0
 40
0.0
 40
0.235210450973576
 40
0.4712568957191238
 40
0.7971477029157189
 40
1.0
 40
1.0
 40
1.0
 40
1.0
 10
2153.048953055139
 20
1284.607251467358
 30
0.0
 10
2153.4116522008
 20
1284.888017728406
 30
0.0
 10
2154.138339610977
 20
1285.450548160437
 30
0.0
 10
2155.318859406538
 20
1286.569177893074
 30
0.0
 10
2156.417183360149
 20
1287.760522817483
 30
0.0
 10
2157.081498678126
 20
1288.78226550178
 30
0.0
 10
2157.336363256309
 20
1289.174257092518
 30
0.0
  0
SPLINE
  5
371
330
1F
100
AcDbEntity
  8
0
  6
Continuous
 62
     8
370
    18
100
AcDbSpline
210
0.0
220
0.0
230
1.0
 70
     8
 71
     3
 72
    10
 73
     6
 74
     0
 42
0.000000001
 43
0.00000001
 40
0.0
 40
0.0
 40
0.0
 40
0.0
 40
0.4338511233654953
 40
0.8744573306289524
 40
0.9999999999999999
 40
0.9999999999999999
 40
0.9999999999999999
 40
0.9999999999999999
 10
2153.048953055139
 20
1284.607251467358
 30
0.0
 10
2152.014330632318
 20
1284.153890883808
 30
0.0
 10
2149.928976663309
 20
1283.240110869531
 30
0.0
 10
2147.429925979319
 20
1282.639409028459
 30
0.0
 10
2146.000965141073
 20
1282.556785738977
 30
0.0
 10
2145.684095205506
 20
1282.53846414771
 30
0.0
  0
LWPOLYLINE
  5
372
330
1F
100
AcDbEntity
  8
0
  6
Continuous
 62
     8
370
    18
100
AcDbPolyline
 90
        9
 70
   128
 43
0.0
 10
2164.0489530551
 20
1294.3871280103
 10
2163.8375911396
 20
1292.4791687462
 10
2163.2116279128
 20
1290.6445312867
 10
2162.1951187905
 20
1288.9537197204
 10
2160.8271276482
 20
1287.4717109876
 10
2159.1602256184
 20
1286.2554578528
 10
2157.2584708112
 20
1285.3517002418
 10
2155.1949465973
 20
1284.7951690528
 10
2153.0489530551
 20
1284.6072514674
  0
LINE
  5
373
330
1F
100
AcDbEntity
  8
0
  6
Continuous
 62
     8
370
    18
100
AcDbLine
 10
2153.0489530551
 20
1282.3888451817
 30
0.0
 11
2153.0489530551
 21
1284.6072514674
 31
0.0
  0
LINE
  5
374
330
1F
100
AcDbEntity
  8
0
  6
Continuous
 62
     8
370
    18
100
AcDbLine
 10
2066.0489530551
 20
1339.8352836813
 30
0.0
 11
2066.0489530551
 21
1338.8352836813
 31
0.0
  0
LINE
  5
375
330
1F
100
AcDbEntity
  8
0
  6
Continuous
 62
     8
370
    18
100
AcDbLine
 10
2177.0489530551
 20
1338.8352836813
 30
0.0
 11
2177.0489530551
 21
1339.8352836813
 31
0.0
  0
LINE
  5
376
330
1F
100
AcDbEntity
  8
0
  6
Continuous
 62
     8
370
    18
100
AcDbLine
 10
2156.5489530551
 20
1350.8352836813
 30
0.0
 11
2086.5489530551
 21
1350.8352836813
 31
0.0
  0
ENDSEC
  0
SECTION
  2
OBJECTS
  0
DICTIONARY
  5
C
330
0
100
AcDbDictionary
281
     1
  3
ACAD_GROUP
350
D
  3
ACAD_LAYOUT
350
1A
  3
ACAD_MLINESTYLE
350
17
  3
ACAD_PLOTSETTINGS
350
19
  3
ACAD_PLOTSTYLENAME
350
E
  3
ACAD_SCALELIST
350
47
  0
DICTIONARY
  5
D
102
{ACAD_REACTORS
330
C
102
}
330
C
100
AcDbDictionary
281
     1
  0
DICTIONARY
  5
1A
102
{ACAD_REACTORS
330
C
102
}
330
C
100
AcDbDictionary
281
     1
  3
Layout1
350
1E
  3
Layout2
350
26
  3
Model
350
22
  0
DICTIONARY
  5
17
102
{ACAD_REACTORS
330
C
102
}
330
C
100
AcDbDictionary
281
     1
  3
Standard
350
18
  0
DICTIONARY
  5
19
102
{ACAD_REACTORS
330
C
102
}
330
C
100
AcDbDictionary
281
     1
  0
ACDBDICTIONARYWDFLT
  5
E
102
{ACAD_REACTORS
330
C
102
}
330
C
100
AcDbDictionary
281
     1
  3
Normal
350
F
100
AcDbDictionaryWithDefault
340
F
  0
DICTIONARY
  5
47
102
{ACAD_REACTORS
330
C
102
}
330
C
100
AcDbDictionary
281
     1
  3
A0
350
48
  3
A1
350
49
  3
A2
350
4A
  3
A3
350
4B
  3
A4
350
4C
  3
A5
350
4D
  3
A6
350
4E
  3
A7
350
4F
  3
A8
350
50
  3
A9
350
51
  3
B0
350
52
  3
B1
350
53
  3
B2
350
54
  3
B3
350
55
  3
B4
350
56
  3
B5
350
57
  3
B6
350
58
  3
B7
350
59
  3
B8
350
5A
  3
B9
350
5B
  3
C0
350
5C
  3
C1
350
5D
  3
C2
350
5E
  3
C3
350
5F
  3
C4
350
60
  3
C5
350
61
  3
C6
350
62
  3
C7
350
63
  3
C8
350
64
  3
C9
350
65
  3
D0
350
66
  3
D1
350
67
  3
D2
350
68
  0
LAYOUT
  5
1E
102
{ACAD_REACTORS
330
1A
102
}
330
1A
100
AcDbPlotSettings
  1

  2
none_device
  4

  6

 40
0.0
 41
0.0
 42
0.0
 43
0.0
 44
0.0
 45
0.0
 46
0.0
 47
0.0
 48
0.0
 49
0.0
140
0.0
141
0.0
142
1.0
143
1.0
 70
   688
 72
     1
 73
     0
 74
     5
  7

 75
    16
147
1.0
148
0.0
149
0.0
100
AcDbLayout
  1
Layout1
 70
     1
 71
     1
 10
0.0
 20
0.0
 11
420.0
 21
297.0
 12
0.0
 22
0.0
 32
0.0
 14
1.0000000000E+20
 24
1.0000000000E+20
 34
1.0000000000E+20
 15
-1.0000000000E+20
 25
-1.0000000000E+20
 35
-1.0000000000E+20
146
0.0
 13
0.0
 23
0.0
 33
0.0
 16
1.0
 26
0.0
 36
0.0
 17
0.0
 27
1.0
 37
0.0
 76
     0
330
1B
  0
LAYOUT
  5
26
102
{ACAD_REACTORS
330
1A
102
}
330
1A
100
AcDbPlotSettings
  1

  2
none_device
  4

  6

 40
0.0
 41
0.0
 42
0.0
 43
0.0
 44
0.0
 45
0.0
 46
0.0
 47
0.0
 48
0.0
 49
0.0
140
0.0
141
0.0
142
1.0
143
1.0
 70
   688
 72
     1
 73
     0
 74
     5
  7

 75
    16
147
1.0
148
0.0
149
0.0
100
AcDbLayout
  1
Layout2
 70
     1
 71
     2
 10
0.0
 20
0.0
 11
0.0
 21
0.0
 12
0.0
 22
0.0
 32
0.0
 14
0.0
 24
0.0
 34
0.0
 15
0.0
 25
0.0
 35
0.0
146
0.0
 13
0.0
 23
0.0
 33
0.0
 16
1.0
 26
0.0
 36
0.0
 17
0.0
 27
1.0
 37
0.0
 76
     0
330
23
  0
LAYOUT
  5
22
102
{ACAD_REACTORS
330
1A
102
}
330
1A
100
AcDbPlotSettings
  1

  2
none_device
  4
Letter_(8.50_x_11.00_Inches)
  6

 40
6.35
 41
6.35
 42
6.35000508
 43
6.35000508
 44
215.9
 45
279.4
 46
0.0
 47
0.0
 48
0.0
 49
0.0
140
0.0
141
0.0
142
1.0
143
1.0
 70
  1712
 72
     1
 73
     0
 74
     0
  7

 75
     0
147
1.0
148
0.0
149
0.0
100
AcDbLayout
  1
Model
 70
     1
 71
     0
 10
0.0
 20
0.0
 11
2970.0
 21
2100.0
 12
0.0
 22
0.0
 32
0.0
 14
0.0
 24
0.0
 34
0.0
 15
2970.0
 25
2100.0
 35
0.0
146
0.0
 13
0.0
 23
0.0
 33
0.0
 16
1.0
 26
0.0
 36
0.0
 17
0.0
 27
1.0
 37
0.0
 76
     0
330
1F
331
29
  0
MLINESTYLE
  5
18
102
{ACAD_REACTORS
330
17
102
}
330
17
100
AcDbMlineStyle
  2
Standard
 70
     0
  3

 62
   256
 51
90.0
 52
90.0
 71
     2
 49
0.5
 62
   256
  6
BYLAYER
 49
-0.5
 62
   256
  6
BYLAYER
  0
ACDBPLACEHOLDER
  5
F
102
{ACAD_REACTORS
330
E
102
}
330
E
  0
SCALE
  5
48
102
{ACAD_REACTORS
330
47
102
}
330
47
100
AcDbScale
 70
     0
300
1:1
140
1.0
141
1.0
290
     1
  0
SCALE
  5
49
102
{ACAD_REACTORS
330
47
102
}
330
47
100
AcDbScale
 70
     0
300
1:2
140
1.0
141
2.0
290
     0
  0
SCALE
  5
4A
102
{ACAD_REACTORS
330
47
102
}
330
47
100
AcDbScale
 70
     0
300
1:4
140
1.0
141
4.0
290
     0
  0
SCALE
  5
4B
102
{ACAD_REACTORS
330
47
102
}
330
47
100
AcDbScale
 70
     0
300
1:5
140
1.0
141
5.0
290
     0
  0
SCALE
  5
4C
102
{ACAD_REACTORS
330
47
102
}
330
47
100
AcDbScale
 70
     0
300
1:8
140
1.0
141
8.0
290
     0
  0
SCALE
  5
4D
102
{ACAD_REACTORS
330
47
102
}
330
47
100
AcDbScale
 70
     0
300
1:10
140
1.0
141
10.0
290
     0
  0
SCALE
  5
4E
102
{ACAD_REACTORS
330
47
102
}
330
47
100
AcDbScale
 70
     0
300
1:16
140
1.0
141
16.0
290
     0
  0
SCALE
  5
4F
102
{ACAD_REACTORS
330
47
102
}
330
47
100
AcDbScale
 70
     0
300
1:20
140
1.0
141
20.0
290
     0
  0
SCALE
  5
50
102
{ACAD_REACTORS
330
47
102
}
330
47
100
AcDbScale
 70
     0
300
1:30
140
1.0
141
30.0
290
     0
  0
SCALE
  5
51
102
{ACAD_REACTORS
330
47
102
}
330
47
100
AcDbScale
 70
     0
300
1:40
140
1.0
141
40.0
290
     0
  0
SCALE
  5
52
102
{ACAD_REACTORS
330
47
102
}
330
47
100
AcDbScale
 70
     0
300
1:50
140
1.0
141
50.0
290
     0
  0
SCALE
  5
53
102
{ACAD_REACTORS
330
47
102
}
330
47
100
AcDbScale
 70
     0
300
1:100
140
1.0
141
100.0
290
     0
  0
SCALE
  5
54
102
{ACAD_REACTORS
330
47
102
}
330
47
100
AcDbScale
 70
     0
300
2:1
140
2.0
141
1.0
290
     0
  0
SCALE
  5
55
102
{ACAD_REACTORS
330
47
102
}
330
47
100
AcDbScale
 70
     0
300
4:1
140
4.0
141
1.0
290
     0
  0
SCALE
  5
56
102
{ACAD_REACTORS
330
47
102
}
330
47
100
AcDbScale
 70
     0
300
8:1
140
8.0
141
1.0
290
     0
  0
SCALE
  5
57
102
{ACAD_REACTORS
330
47
102
}
330
47
100
AcDbScale
 70
     0
300
10:1
140
10.0
141
1.0
290
     0
  0
SCALE
  5
58
102
{ACAD_REACTORS
330
47
102
}
330
47
100
AcDbScale
 70
     0
300
100:1
140
100.0
141
1.0
290
     0
  0
SCALE
  5
59
102
{ACAD_REACTORS
330
47
102
}
330
47
100
AcDbScale
 70
     0
300
1/128" = 1'-0"
140
0.0078125
141
12.0
290
     0
  0
SCALE
  5
5A
102
{ACAD_REACTORS
330
47
102
}
330
47
100
AcDbScale
 70
     0
300
1/64" = 1'-0"
140
0.015625
141
12.0
290
     0
  0
SCALE
  5
5B
102
{ACAD_REACTORS
330
47
102
}
330
47
100
AcDbScale
 70
     0
300
1/32" = 1'-0"
140
0.03125
141
12.0
290
     0
  0
SCALE
  5
5C
102
{ACAD_REACTORS
330
47
102
}
330
47
100
AcDbScale
 70
     0
300
1/16" = 1'-0"
140
0.0625
141
12.0
290
     0
  0
SCALE
  5
5D
102
{ACAD_REACTORS
330
47
102
}
330
47
100
AcDbScale
 70
     0
300
3/32" = 1'-0"
140
0.09375
141
12.0
290
     0
  0
SCALE
  5
5E
102
{ACAD_REACTORS
330
47
102
}
330
47
100
AcDbScale
 70
     0
300
1/8" = 1'-0"
140
0.125
141
12.0
290
     0
  0
SCALE
  5
5F
102
{ACAD_REACTORS
330
47
102
}
330
47
100
AcDbScale
 70
     0
300
3/16" = 1'-0"
140
0.1875
141
12.0
290
     0
  0
SCALE
  5
60
102
{ACAD_REACTORS
330
47
102
}
330
47
100
AcDbScale
 70
     0
300
1/4" = 1'-0"
140
0.25
141
12.0
290
     0
  0
SCALE
  5
61
102
{ACAD_REACTORS
330
47
102
}
330
47
100
AcDbScale
 70
     0
300
3/8" = 1'-0"
140
0.375
141
12.0
290
     0
  0
SCALE
  5
62
102
{ACAD_REACTORS
330
47
102
}
330
47
100
AcDbScale
 70
     0
300
1/2" = 1'-0"
140
0.5
141
12.0
290
     0
  0
SCALE
  5
63
102
{ACAD_REACTORS
330
47
102
}
330
47
100
AcDbScale
 70
     0
300
3/4" = 1'-0"
140
0.75
141
12.0
290
     0
  0
SCALE
  5
64
102
{ACAD_REACTORS
330
47
102
}
330
47
100
AcDbScale
 70
     0
300
1" = 1'-0"
140
1.0
141
12.0
290
     0
  0
SCALE
  5
65
102
{ACAD_REACTORS
330
47
102
}
330
47
100
AcDbScale
 70
     0
300
1-1/2" = 1'-0"
140
1.5
141
12.0
290
     0
  0
SCALE
  5
66
102
{ACAD_REACTORS
330
47
102
}
330
47
100
AcDbScale
 70
     0
300
3" = 1'-0"
140
3.0
141
12.0
290
     0
  0
SCALE
  5
67
102
{ACAD_REACTORS
330
47
102
}
330
47
100
AcDbScale
 70
     0
300
6" = 1'-0"
140
6.0
141
12.0
290
     0
  0
SCALE
  5
68
102
{ACAD_REACTORS
330
47
102
}
330
47
100
AcDbScale
 70
     0
300
1'-0" = 1'-0"
140
12.0
141
12.0
290
     0
  0
ENDSEC
  0
EOF
