  0
SECTION
  2
HEADER
  9
$ACADVER
  1
AC1015
  9
$ACADMAINTVER
 70
     6
  9
$DWGCODEPAGE
  3
ANSI_1252
  9
$INSBASE
 10
0.0
 20
0.0
 30
0.0
  9
$EXTMIN
 10
0.0
 20
0.0
 30
0.0
  9
$EXTMAX
 10
2970.0
 20
2100.0
 30
0.0
  9
$LIMMIN
 10
0.0
 20
0.0
  9
$LIMMAX
 10
2970.0
 20
2100.0
  9
$ORTHOMODE
 70
     0
  9
$REGENMODE
 70
     1
  9
$FILLMODE
 70
     1
  9
$QTEXTMODE
 70
     0
  9
$MIRRTEXT
 70
     1
  9
$LTSCALE
 40
5.0
  9
$ATTMODE
 70
     1
  9
$TEXTSIZE
 40
12.5
  9
$TRACEWID
 40
1.0
  9
$TEXTSTYLE
  7
Standard
  9
$CLAYER
  8
0
  9
$CELTYPE
  6
ByLayer
  9
$CECOLOR
 62
   256
  9
$CELTSCALE
 40
1.0
  9
$DISPSILH
 70
     0
  9
$DIMSCALE
 40
1.0
  9
$DIMASZ
 40
12.5
  9
$DIMEXO
 40
0.0
  9
$DIMDLI
 40
3.75
  9
$DIMRND
 40
0.0
  9
$DIMDLE
 40
0.0
  9
$DIMEXE
 40
5.0
  9
$DIMTP
 40
0.0
  9
$DIMTM
 40
0.0
  9
$DIMTXT
 40
12.5
  9
$DIMCEN
 40
2.5
  9
$DIMTSZ
 40
0.0
  9
$DIMTOL
 70
     0
  9
$DIMLIM
 70
     0
  9
$DIMTIH
 70
     1
  9
$DIMTOH
 70
     1
  9
$DIMSE1
 70
     0
  9
$DIMSE2
 70
     0
  9
$DIMTAD
 70
     1
  9
$DIMZIN
 70
     0
  9
$DIMBLK
  1

  9
$DIMASO
 70
     1
  9
$DIMSHO
 70
     1
  9
$DIMPOST
  1

  9
$DIMAPOST
  1

  9
$DIMALT
 70
     0
  9
$DIMALTD
 70
     3
  9
$DIMALTF
 40
0.0393700787
  9
$DIMLFAC
 40
1.0
  9
$DIMTOFL
 70
     1
  9
$DIMTVP
 40
0.0
  9
$DIMTIX
 70
     0
  9
$DIMSOXD
 70
     0
  9
$DIMSAH
 70
     0
  9
$DIMBLK1
  1

  9
$DIMBLK2
  1

  9
$DIMSTYLE
  2
ISO-25
  9
$DIMCLRD
 70
     0
  9
$DIMCLRE
 70
     0
  9
$DIMCLRT
 70
     0
  9
$DIMTFAC
 40
1.0
  9
$DIMGAP
 40
7.62
  9
$DIMJUST
 70
     0
  9
$DIMSD1
 70
     0
  9
$DIMSD2
 70
     0
  9
$DIMTOLJ
 70
     0
  9
$DIMTZIN
 70
     0
  9
$DIMALTZ
 70
     0
  9
$DIMALTTZ
 70
     0
  9
$DIMUPT
 70
     0
  9
$DIMDEC
 70
     2
  9
$DIMTDEC
 70
     2
  9
$DIMALTU
 70
     2
  9
$DIMALTTD
 70
     3
  9
$DIMTXSTY
  7
Standard
  9
$DIMAUNIT
 70
     0
  9
$DIMADEC
 70
     2
  9
$DIMALTRND
 40
0.0
  9
$DIMAZIN
 70
     0
  9
$DIMDSEP
 70
    44
  9
$DIMATFIT
 70
     3
  9
$DIMFRAC
 70
     0
  9
$DIMLDRBLK
  1

  9
$DIMLUNIT
 70
     2
  9
$DIMLWD
 70
    -2
  9
$DIMLWE
 70
    -2
  9
$DIMTMOVE
 70
     0
  9
$LUNITS
 70
     2
  9
$LUPREC
 70
     1
  9
$SKETCHINC
 40
1.0
  9
$FILLETRAD
 40
10.0
  9
$AUNITS
 70
     0
  9
$AUPREC
 70
     2
  9
$MENU
  1
.
  9
$ELEVATION
 40
0.0
  9
$PELEVATION
 40
0.0
  9
$THICKNESS
 40
0.0
  9
$LIMCHECK
 70
     0
  9
$CHAMFERA
 40
0.0
  9
$CHAMFERB
 40
0.0
  9
$CHAMFERC
 40
0.0
  9
$CHAMFERD
 40
0.0
  9
$SKPOLY
 70
     0
  9
$TDCREATE
 40
2458906.501006528
  9
$TDUCREATE
 40
2458906.271839861
  9
$TDUPDATE
 40
2458906.50101956
  9
$TDUUPDATE
 40
2458906.271852893
  9
$TDINDWG
 40
0.0000000116
  9
$TDUSRTIMER
 40
0.0000000116
  9
$USRTIMER
 70
     1
  9
$ANGBASE
 50
0.0
  9
$ANGDIR
 70
     0
  9
$PDMODE
 70
     0
  9
$PDSIZE
 40
-1.0
  9
$PLINEWID
 40
0.0
  9
$SPLFRAME
 70
     0
  9
$SPLINETYPE
 70
     6
  9
$SPLINESEGS
 70
     8
  9
$HANDSEED
  5
377
  9
$SURFTAB1
 70
     6
  9
$SURFTAB2
 70
     6
  9
$SURFTYPE
 70
     6
  9
$SURFU
 70
     6
  9
$SURFV
 70
     6
  9
$UCSBASE
  2

  9
$UCSNAME
  2

  9
$UCSORG
 10
0.0
 20
0.0
 30
0.0
  9
$UCSXDIR
 10
1.0
 20
0.0
 30
0.0
  9
$UCSYDIR
 10
0.0
 20
1.0
 30
0.0
  9
$UCSORTHOREF
  2

  9
$UCSORTHOVIEW
 70
     0
  9
$UCSORGTOP
 10
0.0
 20
0.0
 30
0.0
  9
$UCSORGBOTTOM
 10
0.0
 20
0.0
 30
0.0
  9
$UCSORGLEFT
 10
0.0
 20
0.0
 30
0.0
  9
$UCSORGRIGHT
 10
0.0
 20
0.0
 30
0.0
  9
$UCSORGFRONT
 10
0.0
 20
0.0
 30
0.0
  9
$UCSORGBACK
 10
0.0
 20
0.0
 30
0.0
  9
$PUCSBASE
  2

  9
$PUCSNAME
  2

  9
$PUCSORG
 10
0.0
 20
0.0
 30
0.0
  9
$PUCSXDIR
 10
1.0
 20
0.0
 30
0.0
  9
$PUCSYDIR
 10
0.0
 20
1.0
 30
0.0
  9
$PUCSORTHOREF
  2

  9
$PUCSORTHOVIEW
 70
     0
  9
$PUCSORGTOP
 10
0.0
 20
0.0
 30
0.0
  9
$PUCSORGBOTTOM
 10
0.0
 20
0.0
 30
0.0
  9
$PUCSORGLEFT
 10
0.0
 20
0.0
 30
0.0
  9
$PUCSORGRIGHT
 10
0.0
 20
0.0
 30
0.0
  9
$PUCSORGFRONT
 10
0.0
 20
0.0
 30
0.0
  9
$PUCSORGBACK
 10
0.0
 20
0.0
 30
0.0
  9
$USERI1
 70
     0
  9
$USERI2
 70
     0
  9
$USERI3
 70
     0
  9
$USERI4
 70
     0
  9
$USERI5
 70
     0
  9
$USERR1
 40
0.0
  9
$USERR2
 40
0.0
  9
$USERR3
 40
0.0
  9
$USERR4
 40
0.0
  9
$USERR5
 40
0.0
  9
$WORLDVIEW
 70
     1
  9
$SHADEDGE
 70
     3
  9
$SHADEDIF
 70
    70
  9
$TILEMODE
 70
     1
  9
$MAXACTVP
 70
    64
  9
$PINSBASE
 10
0.0
 20
0.0
 30
0.0
  9
$PLIMCHECK
 70
     0
  9
$PEXTMIN
 10
1.0000000000E+20
 20
1.0000000000E+20
 30
1.0000000000E+20
  9
$PEXTMAX
 10
-1.0000000000E+20
 20
-1.0000000000E+20
 30
-1.0000000000E+20
  9
$PLIMMIN
 10
0.0
 20
0.0
  9
$PLIMMAX
 10
420.0
 20
297.0
  9
$UNITMODE
 70
     0
  9
$VISRETAIN
 70
     1
  9
$PLINEGEN
 70
     0
  9
$PSLTSCALE
 70
     1
  9
$TREEDEPTH
 70
  3020
  9
$CMLSTYLE
  2
Standard
  9
$CMLJUST
 70
     0
  9
$CMLSCALE
 40
20.0
  9
$PROXYGRAPHICS
 70
     1
  9
$MEASUREMENT
 70
     1
  9
$CELWEIGHT
370
    -1
  9
$ENDCAPS
280
     0
  9
$JOINSTYLE
280
     0
  9
$LWDISPLAY
290
     1
  9
$INSUNITS
 70
     4
  9
$HYPERLINKBASE
  1

  9
$STYLESHEET
  1

  9
$XEDIT
290
     1
  9
$CEPSNTYPE
380
     0
  9
$PSTYLEMODE
290
     1
  9
$FINGERPRINTGUID
  2
{7d50c15a-ad09-4e0f-bd6a-f76dafdf69e3}
  9
$VERSIONGUID
  2
{FAEB1C32-E019-11D5-929B-00C0DF256EC4}
  9
$EXTNAMES
290
     1
  9
$PSVPSCALE
 40
0.0
  9
$OLESTARTUP
290
     0
  0
ENDSEC
  0
SECTION
  2
CLASSES
  0
CLASS
  1
ACDBDICTIONARYWDFLT
  2
AcDbDictionaryWithDefault
  3
ObjectDBX Classes
 90
        0
280
     0
281
     0
  0
CLASS
  1
VISUALSTYLE
  2
AcDbVisualStyle
  3
ObjectDBX Classes
 90
     4095
280
     0
281
     0
  0
CLASS
  1
MATERIAL
  2
AcDbMaterial
  3
ObjectDBX Classes
 90
     1153
280
     0
281
     0
  0
CLASS
  1
SCALE
  2
AcDbScale
  3
ObjectDBX Classes
 90
     1153
280
     0
281
     0
  0
CLASS
  1
TABLESTYLE
  2
AcDbTableStyle
  3
ObjectDBX Classes
 90
     4095
280
     0
281
     0
  0
CLASS
  1
MLEADERSTYLE
  2
AcDbMLeaderStyle
  3
ACDB_MLEADERSTYLE_CLASS
 90
     4095
280
     0
281
     0
  0
CLASS
  1
SUN
  2
AcDbSun
  3
SCENEOE
 90
     1153
280
     0
281
     0
  0
CLASS
  1
ACDBPLACEHOLDER
  2
AcDbPlaceHolder
  3
ObjectDBX Classes
 90
        0
280
     0
281
     0
  0
CLASS
  1
LAYOUT
  2
AcDbLayout
  3
ObjectDBX Classes
 90
        0
280
     0
281
     0
  0
ENDSEC
  0
SECTION
  2
TABLES
  0
TABLE
  2
VPORT
  5
8
330
0
100
AcDbSymbolTable
 70
     1
  0
VPORT
  5
29
330
8
100
AcDbSymbolTableRecord
100
AcDbViewportTableRecord
  2
*Active
 70
     0
 10
0.0
 20
0.0
 11
1.0
 21
1.0
 12
1485.0
 22
1050.0
 13
0.0
 23
0.0
 14
10.0
 24
10.0
 15
10.0
 25
10.0
 16
0.0
 26
0.0
 36
1.0
 17
0.0
 27
0.0
 37
0.0
 40
2100.0
 41
1.4142857143
 42
50.0
 43
0.0
 44
0.0
 50
0.0
 51
0.0
 71
     0
 72
  2000
 73
     1
 74
     3
 75
     0
 76
     0
 77
     0
 78
     0
281
     0
 65
     1
110
0.0
120
0.0
130
0.0
111
1.0
121
0.0
131
0.0
112
0.0
122
1.0
132
0.0
 79
     0
146
0.0
  0
ENDTAB
  0
TABLE
  2
LTYPE
  5
5
330
0
100
AcDbSymbolTable
 70
     6
  0
LTYPE
  5
14
330
5
100
AcDbSymbolTableRecord
100
AcDbLinetypeTableRecord
  2
ByBlock
 70
     0
  3

 72
    65
 73
     0
 40
0.0
  0
LTYPE
  5
15
330
5
100
AcDbSymbolTableRecord
100
AcDbLinetypeTableRecord
  2
ByLayer
 70
     0
  3

 72
    65
 73
     0
 40
0.0
  0
LTYPE
  5
16
330
5
100
AcDbSymbolTableRecord
100
AcDbLinetypeTableRecord
  2
Continuous
 70
     0
  3
Solid line
 72
    65
 73
     0
 40
0.0
  0
LTYPE
  5
6E
330
5
100
AcDbSymbolTableRecord
100
AcDbLinetypeTableRecord
  2
HIDDEN
 70
     0
  3
Hidden __ __ __ __ __ __ __ __ __ __ __ __ __ __
 72
    65
 73
     2
 40
1.905
 49
1.27
 74
     0
 49
-0.635
 74
     0
  0
LTYPE
  5
6F
330
5
100
AcDbSymbolTableRecord
100
AcDbLinetypeTableRecord
  2
PHANTOM
 70
     0
  3
Phantom ______  __  __  ______  __  __  ______
 72
    65
 73
     6
 40
12.7
 49
6.35
 74
     0
 49
-1.27
 74
     0
 49
1.27
 74
     0
 49
-1.27
 74
     0
 49
1.27
 74
     0
 49
-1.27
 74
     0
  0
LTYPE
  5
70
330
5
100
AcDbSymbolTableRecord
100
AcDbLinetypeTableRecord
  2
CENTER
 70
     0
  3
Center ____ _ ____ _ ____ _ ____ _ ____ _ ____
 72
    65
 73
     4
 40
10.16
 49
6.35
 74
     0
 49
-1.27
 74
     0
 49
1.27
 74
     0
 49
-1.27
 74
     0
  0
LTYPE
  5
71
330
5
100
AcDbSymbolTableRecord
100
AcDbLinetypeTableRecord
  2
CENTERX2
 70
     0
  3
Center (2x) ________  __  ________  __  _____
 72
    65
 73
     4
 40
20.32
 49
12.7
 74
     0
 49
-2.54
 74
     0
 49
2.54
 74
     0
 49
-2.54
 74
     0
  0
LTYPE
  5
72
330
5
100
AcDbSymbolTableRecord
100
AcDbLinetypeTableRecord
  2
DOT2
 70
     0
  3
Dot (.5x) ........................................
 72
    65
 73
     2
 40
0.635
 49
0.0
 74
     0
 49
-0.635
 74
     0
  0
ENDTAB
  0
TABLE
  2
LAYER
  5
2
330
0
100
AcDbSymbolTable
 70
    10
  0
LAYER
  5
10
330
2
100
AcDbSymbolTableRecord
100
AcDbLayerTableRecord
  2
0
 70
     0
 62
     7
  6
Continuous
370
    -3
390
F
  0
LAYER
  5
73
330
2
100
AcDbSymbolTableRecord
100
AcDbLayerTableRecord
  2
DIMENSION
 70
     0
 62
     7
  6
Continuous
370
    -3
390
F
  0
LAYER
  5
74
330
2
100
AcDbSymbolTableRecord
100
AcDbLayerTableRecord
  2
NOTES
 70
     0
 62
     7
  6
Continuous
370
    -3
390
F
  0
LAYER
  5
75
330
2
100
AcDbSymbolTableRecord
100
AcDbLayerTableRecord
  2
TABLES
 70
     0
 62
     7
  6
Continuous
370
    -3
390
F
  0
LAYER
  5
76
330
2
100
AcDbSymbolTableRecord
100
AcDbLayerTableRecord
  2
INVISIBLE
 70
     0
 62
    -7
  6
Continuous
290
     0
370
    -3
390
F
  0
LAYER
  5
77
330
2
100
AcDbSymbolTableRecord
100
AcDbLayerTableRecord
  2
WEP
 70
     0
 62
  -150
  6
Continuous
290
     0
370
    -3
390
F
  0
LAYER
  5
78
330
2
100
AcDbSymbolTableRecord
100
AcDbLayerTableRecord
  2
EMP
 70
     0
 62
     1
  6
Continuous
370
    -3
390
F
  0
LAYER
  5
79
330
2
100
AcDbSymbolTableRecord
100
AcDbLayerTableRecord
  2
MARKETING_DRW
 70
     0
 62
    -7
  6
Continuous
290
     0
370
    -3
390
F
  0
LAYER
  5
7A
330
2
100
AcDbSymbolTableRecord
100
AcDbLayerTableRecord
  2
SINGLE_ARTICLE_DRW
 70
     0
 62
    -7
  6
Continuous
290
     0
370
    -3
390
F
  0
LAYER
  5
7B
330
2
100
AcDbSymbolTableRecord
100
AcDbLayerTableRecord
  2
TABLE_DRW
 70
     0
 62
     7
  6
Continuous
370
    -3
390
F
  0
ENDTAB
  0
TABLE
  2
STYLE
  5
3
330
0
100
AcDbSymbolTable
 70
     2
  0
STYLE
  5
11
330
3
100
AcDbSymbolTableRecord
100
AcDbTextStyleTableRecord
  2
Standard
 70
     0
 40
0.0
 41
1.0
 50
0.0
 71
     0
 42
12.5
  3
txt
  4

  0
STYLE
  5
B5
330
3
100
AcDbSymbolTableRecord
100
AcDbTextStyleTableRecord
  2
SLDTEXTSTYLE0
 70
     0
 40
0.0
 41
0.605
 50
0.0
 71
     0
 42
12.5
  3
TXT
  4

  0
ENDTAB
  0
TABLE
  2
VIEW
  5
6
330
0
100
AcDbSymbolTable
 70
     0
  0
ENDTAB
  0
TABLE
  2
UCS
  5
7
330
0
100
AcDbSymbolTable
 70
     0
  0
ENDTAB
  0
TABLE
  2
APPID
  5
9
330
0
100
AcDbSymbolTable
 70
     1
  0
APPID
  5
12
330
9
100
AcDbSymbolTableRecord
100
AcDbRegAppTableRecord
  2
ACAD
 70
     0
  0
ENDTAB
  0
TABLE
  2
DIMSTYLE
  5
A
330
0
100
AcDbSymbolTable
 70
     1
100
AcDbDimStyleTable
  0
DIMSTYLE
105
27
330
A
100
AcDbSymbolTableRecord
100
AcDbDimStyleTableRecord
  2
ISO-25
 70
     0
 41
2.5
 42
0.625
 43
3.75
 44
1.25
 73
     0
 74
     0
 77
     1
 78
     8
140
2.5
141
2.5
143
0.0393700787
147
0.625
171
     3
172
     1
178
     0
271
     2
272
     2
274
     3
278
    44
283
     0
284
     8
340
11
  0
ENDTAB
  0
TABLE
  2
BLOCK_RECORD
  5
1
330
0
100
AcDbSymbolTable
 70
     3
  0
BLOCK_RECORD
  5
1F
330
1
100
AcDbSymbolTableRecord
100
AcDbBlockTableRecord
  2
*Model_Space
340
22
  0
BLOCK_RECORD
  5
1B
330
1
100
AcDbSymbolTableRecord
100
AcDbBlockTableRecord
  2
*Paper_Space
340
1E
  0
BLOCK_RECORD
  5
23
330
1
100
AcDbSymbolTableRecord
100
AcDbBlockTableRecord
  2
*Paper_Space0
340
26
  0
BLOCK_RECORD
  5
C8
330
1
100
AcDbSymbolTableRecord
100
AcDbBlockTableRecord
  2
SW_NOTE_0
340
0
102
{BLKREFS
331
CE
102
}
  0
BLOCK_RECORD
  5
E8
330
1
100
AcDbSymbolTableRecord
100
AcDbBlockTableRecord
  2
SW_NOTE_0_1
340
0
102
{BLKREFS
331
EE
102
}
  0
ENDTAB
  0
ENDSEC
  0
SECTION
  2
BLOCKS
  0
BLOCK
  5
20
330
1F
100
AcDbEntity
  8
0
100
AcDbBlockBegin
  2
*Model_Space
 70
     0
 10
0.0
 20
0.0
 30
0.0
  3
*Model_Space
  1

  0
ENDBLK
  5
21
330
1F
100
AcDbEntity
  8
0
100
AcDbBlockEnd
  0
BLOCK
  5
1C
330
1B
100
AcDbEntity
 67
     1
  8
0
100
AcDbBlockBegin
  2
*Paper_Space
 70
     0
 10
0.0
 20
0.0
 30
0.0
  3
*Paper_Space
  1

  0
ENDBLK
  5
1D
330
1B
100
AcDbEntity
 67
     1
  8
0
100
AcDbBlockEnd
  0
BLOCK
  5
24
330
23
100
AcDbEntity
  8
0
100
AcDbBlockBegin
  2
*Paper_Space0
 70
     0
 10
0.0
 20
0.0
 30
0.0
  3
*Paper_Space0
  1

  0
ENDBLK
  5
25
330
23
100
AcDbEntity
  8
0
100
AcDbBlockEnd
  0
BLOCK
  5
C9
330
C8
100
AcDbEntity
  8
0
100
AcDbBlockBegin
  2
SW_NOTE_0
 70
     0
 10
0.0
 20
0.0
 30
0.0
  3
SW_NOTE_0
  1

  0
MTEXT
  5
CB
330
C8
100
AcDbEntity
  8
SINGLE_ARTICLE_DRW
 62
     0
100
AcDbMText
 10
0.0
 20
11.6016096579
 30
0.0
 40
9.0
 41
0.0
 71
     1
 72
     1
  1
The reproduction, distribution and utilization of this document as well as the communication of its contents to
  7
SLDTEXTSTYLE0
 73
     1
 44
1.0
  0
MTEXT
  5
CC
330
C8
100
AcDbEntity
  8
SINGLE_ARTICLE_DRW
 62
     0
100
AcDbMText
 10
0.0
 20
0.0016098055
 30
0.0
 40
9.0
 41
0.0
 71
     1
 72
     1
  1
others without express authorization is prohibited. Offenders will be held liable for the payment of damages.
  7
SLDTEXTSTYLE0
 73
     1
 44
1.0
  0
MTEXT
  5
CD
330
C8
100
AcDbEntity
  8
SINGLE_ARTICLE_DRW
 62
     0
100
AcDbMText
 10
0.0
 20
-11.598390047
 30
0.0
 40
9.0
 41
0.0
 71
     1
 72
     1
  1
All rights reserved in the event of the grant of a patent, utility model or design. Observe copyright by ISO 16016
  7
SLDTEXTSTYLE0
 73
     1
 44
1.0
  0
ENDBLK
  5
CA
330
C8
100
AcDbEntity
  8
0
100
AcDbBlockEnd
  0
BLOCK
  5
E9
330
E8
100
AcDbEntity
  8
0
100
AcDbBlockBegin
  2
SW_NOTE_0_1
 70
     0
 10
0.0
 20
0.0
 30
0.0
  3
SW_NOTE_0_1
  1

  0
MTEXT
  5
EB
330
E8
100
AcDbEntity
  8
MARKETING_DRW
 62
     0
100
AcDbMText
 10
0.0
 20
11.6016096579
 30
0.0
 40
9.0
 41
0.0
 71
     1
 72
     1
  1
The reproduction, distribution and utilization of this document as well as the communication of its contents to
  7
SLDTEXTSTYLE0
 73
     1
 44
1.0
  0
MTEXT
  5
EC
330
E8
100
AcDbEntity
  8
MARKETING_DRW
 62
     0
100
AcDbMText
 10
0.0
 20
-0.0233903849
 30
0.0
 40
9.0
 41
0.0
 71
     1
 72
     1
  1
others without express authorization is prohibited. Offenders will be held liable for the payment of damages.
  7
SLDTEXTSTYLE0
 73
     1
 44
1.0
  0
MTEXT
  5
ED
330
E8
100
AcDbEntity
  8
MARKETING_DRW
 62
     0
100
AcDbMText
 10
0.0
 20
-11.6483904277
 30
0.0
 40
9.0
 41
0.0
 71
     1
 72
     1
  1
All rights reserved in the event of the grant of a patent, utility model or design. Observe copyright by ISO 16016
  7
SLDTEXTSTYLE0
 73
     1
 44
1.0
  0
ENDBLK
  5
EA
330
E8
100
AcDbEntity
  8
0
100
AcDbBlockEnd
  0
ENDSEC
  0
SECTION
  2
ENTITIES
  0
LINE
  5
7C
330
1F
100
AcDbEntity
  8
SINGLE_ARTICLE_DRW
  6
CENTERX2
 62
     7
100
AcDbLine
 10
2825.0
 20
200.0
 30
0.0
 11
2850.0
 21
200.0
 31
0.0
  0
LINE
  5
7D
330
1F
100
AcDbEntity
  8
SINGLE_ARTICLE_DRW
  6
CENTERX2
 62
     7
100
AcDbLine
 10
2837.5
 20
212.5
 30
0.0
 11
2837.5
 21
187.5
 31
0.0
  0
LINE
  5
7E
330
1F
100
AcDbEntity
  8
SINGLE_ARTICLE_DRW
  6
CENTERX2
 62
     7
100
AcDbLine
 10
2785.0
 20
200.0
 30
0.0
 11
2820.0
 21
200.0
 31
0.0
  0
LINE
  5
7F
330
1F
100
AcDbEntity
  8
SINGLE_ARTICLE_DRW
 62
     7
100
AcDbLine
 10
2790.0
 20
194.95
 30
0.0
 11
2815.0
 21
190.0
 31
0.0
  0
LINE
  5
80
330
1F
100
AcDbEntity
  8
SINGLE_ARTICLE_DRW
 62
     7
100
AcDbLine
 10
2790.0
 20
205.05
 30
0.0
 11
2790.0
 21
194.95
 31
0.0
  0
LINE
  5
81
330
1F
100
AcDbEntity
  8
SINGLE_ARTICLE_DRW
 62
     7
100
AcDbLine
 10
2815.0
 20
210.0
 30
0.0
 11
2790.0
 21
205.05
 31
0.0
  0
LINE
  5
82
330
1F
100
AcDbEntity
  8
SINGLE_ARTICLE_DRW
 62
     7
100
AcDbLine
 10
2815.0
 20
190.0
 30
0.0
 11
2815.0
 21
210.0
 31
0.0
  0
LINE
  5
83
330
1F
100
AcDbEntity
  8
SINGLE_ARTICLE_DRW
 62
     7
100
AcDbLine
 10
2920.0
 20
50.0
 30
0.0
 11
2920.0
 21
340.0
 31
0.0
  0
LINE
  5
84
330
1F
100
AcDbEntity
  8
SINGLE_ARTICLE_DRW
 62
     7
100
AcDbLine
 10
2020.0
 20
340.0
 30
0.0
 11
2020.0
 21
50.0
 31
0.0
  0
LINE
  5
85
330
1F
100
AcDbEntity
  8
SINGLE_ARTICLE_DRW
 62
     7
100
AcDbLine
 10
2570.0
 20
95.0
 30
0.0
 11
2570.0
 21
50.0
 31
0.0
  0
LINE
  5
86
330
1F
100
AcDbEntity
  8
SINGLE_ARTICLE_DRW
 62
     7
100
AcDbLine
 10
2720.0
 20
50.0
 30
0.0
 11
2720.0
 21
95.0
 31
0.0
  0
LINE
  5
87
330
1F
100
AcDbEntity
  8
SINGLE_ARTICLE_DRW
 62
     7
100
AcDbLine
 10
2870.0
 20
95.0
 30
0.0
 11
2870.0
 21
50.0
 31
0.0
  0
LINE
  5
88
330
1F
100
AcDbEntity
  8
SINGLE_ARTICLE_DRW
 62
     7
100
AcDbLine
 10
2770.0
 20
320.0
 30
0.0
 11
2770.0
 21
185.0
 31
0.0
  0
LINE
  5
89
330
1F
100
AcDbEntity
  8
SINGLE_ARTICLE_DRW
 62
     7
100
AcDbLine
 10
2920.0
 20
320.0
 30
0.0
 11
2020.0
 21
320.0
 31
0.0
  0
LINE
  5
8A
330
1F
100
AcDbEntity
  8
SINGLE_ARTICLE_DRW
 62
     7
100
AcDbLine
 10
2670.0
 20
95.0
 30
0.0
 11
2670.0
 21
50.0
 31
0.0
  0
LINE
  5
8B
330
1F
100
AcDbEntity
  8
SINGLE_ARTICLE_DRW
 62
     7
100
AcDbLine
 10
2920.0
 20
275.0
 30
0.0
 11
2270.0
 21
275.0
 31
0.0
  0
LINE
  5
8C
330
1F
100
AcDbEntity
  8
SINGLE_ARTICLE_DRW
 62
     7
100
AcDbLine
 10
2520.0
 20
230.0
 30
0.0
 11
2520.0
 21
185.0
 31
0.0
  0
LINE
  5
8D
330
1F
100
AcDbEntity
  8
SINGLE_ARTICLE_DRW
 62
     7
100
AcDbLine
 10
2920.0
 20
230.0
 30
0.0
 11
2270.0
 21
230.0
 31
0.0
  0
LINE
  5
8E
330
1F
100
AcDbEntity
  8
SINGLE_ARTICLE_DRW
 62
     7
100
AcDbLine
 10
2270.0
 20
320.0
 30
0.0
 11
2270.0
 21
185.0
 31
0.0
  0
LINE
  5
8F
330
1F
100
AcDbEntity
  8
SINGLE_ARTICLE_DRW
 62
     7
100
AcDbLine
 10
2870.0
 20
230.0
 30
0.0
 11
2870.0
 21
185.0
 31
0.0
  0
LINE
  5
90
330
1F
100
AcDbEntity
  8
SINGLE_ARTICLE_DRW
 62
     7
100
AcDbLine
 10
2920.0
 20
95.0
 30
0.0
 11
2020.0
 21
95.0
 31
0.0
  0
LINE
  5
91
330
1F
100
AcDbEntity
  8
SINGLE_ARTICLE_DRW
 62
     7
100
AcDbLine
 10
2520.0
 20
275.0
 30
0.0
 11
2520.0
 21
320.0
 31
0.0
  0
LINE
  5
92
330
1F
100
AcDbEntity
  8
SINGLE_ARTICLE_DRW
 62
     7
100
AcDbLine
 10
2020.0
 20
340.0
 30
0.0
 11
2920.0
 21
340.0
 31
0.0
  0
LINE
  5
93
330
1F
100
AcDbEntity
  8
SINGLE_ARTICLE_DRW
 62
     7
100
AcDbLine
 10
2020.0
 20
185.0
 30
0.0
 11
2920.0
 21
185.0
 31
0.0
  0
LINE
  5
94
330
1F
100
AcDbEntity
  8
SINGLE_ARTICLE_DRW
 62
     7
100
AcDbLine
 10
2020.0
 20
50.0
 30
0.0
 11
2920.0
 21
50.0
 31
0.0
  0
LINE
  5
95
330
1F
100
AcDbEntity
  8
SINGLE_ARTICLE_DRW
 62
     7
100
AcDbLine
 10
2270.0
 20
275.0
 30
0.0
 11
2020.0
 21
275.0
 31
0.0
  0
LINE
  5
96
330
1F
100
AcDbEntity
  8
MARKETING_DRW
  6
CENTERX2
100
AcDbLine
 10
2825.0
 20
200.0
 30
0.0
 11
2850.0
 21
200.0
 31
0.0
  0
LINE
  5
97
330
1F
100
AcDbEntity
  8
MARKETING_DRW
  6
CENTERX2
100
AcDbLine
 10
2837.5
 20
212.5
 30
0.0
 11
2837.5
 21
187.5
 31
0.0
  0
LINE
  5
98
330
1F
100
AcDbEntity
  8
MARKETING_DRW
  6
CENTERX2
100
AcDbLine
 10
2785.0
 20
200.0
 30
0.0
 11
2820.0
 21
200.0
 31
0.0
  0
LINE
  5
99
330
1F
100
AcDbEntity
  8
MARKETING_DRW
100
AcDbLine
 10
2790.0
 20
194.95
 30
0.0
 11
2815.0
 21
190.0
 31
0.0
  0
LINE
  5
9A
330
1F
100
AcDbEntity
  8
MARKETING_DRW
100
AcDbLine
 10
2790.0
 20
205.05
 30
0.0
 11
2790.0
 21
194.95
 31
0.0
  0
LINE
  5
9B
330
1F
100
AcDbEntity
  8
MARKETING_DRW
100
AcDbLine
 10
2815.0
 20
210.0
 30
0.0
 11
2790.0
 21
205.05
 31
0.0
  0
LINE
  5
9C
330
1F
100
AcDbEntity
  8
MARKETING_DRW
100
AcDbLine
 10
2815.0
 20
190.0
 30
0.0
 11
2815.0
 21
210.0
 31
0.0
  0
LINE
  5
9D
330
1F
100
AcDbEntity
  8
MARKETING_DRW
100
AcDbLine
 10
2920.0
 20
50.0
 30
0.0
 11
2920.0
 21
230.0
 31
0.0
  0
LINE
  5
9E
330
1F
100
AcDbEntity
  8
MARKETING_DRW
100
AcDbLine
 10
2020.0
 20
50.0
 30
0.0
 11
2920.0
 21
50.0
 31
0.0
  0
LINE
  5
9F
330
1F
100
AcDbEntity
  8
MARKETING_DRW
100
AcDbLine
 10
2020.0
 20
275.0
 30
0.0
 11
2020.0
 21
50.0
 31
0.0
  0
LINE
  5
A0
330
1F
100
AcDbEntity
  8
MARKETING_DRW
100
AcDbLine
 10
2020.0
 20
275.0
 30
0.0
 11
2520.0
 21
275.0
 31
0.0
  0
LINE
  5
A1
330
1F
100
AcDbEntity
  8
MARKETING_DRW
100
AcDbLine
 10
2720.0
 20
50.0
 30
0.0
 11
2720.0
 21
95.0
 31
0.0
  0
LINE
  5
A2
330
1F
100
AcDbEntity
  8
MARKETING_DRW
100
AcDbLine
 10
2870.0
 20
95.0
 30
0.0
 11
2870.0
 21
50.0
 31
0.0
  0
LINE
  5
A3
330
1F
100
AcDbEntity
  8
MARKETING_DRW
100
AcDbLine
 10
2520.0
 20
275.0
 30
0.0
 11
2520.0
 21
230.0
 31
0.0
  0
LINE
  5
A4
330
1F
100
AcDbEntity
  8
MARKETING_DRW
100
AcDbLine
 10
2920.0
 20
230.0
 30
0.0
 11
2270.0
 21
230.0
 31
0.0
  0
LINE
  5
A5
330
1F
100
AcDbEntity
  8
MARKETING_DRW
100
AcDbLine
 10
2270.0
 20
275.0
 30
0.0
 11
2270.0
 21
185.0
 31
0.0
  0
LINE
  5
A6
330
1F
100
AcDbEntity
  8
MARKETING_DRW
100
AcDbLine
 10
2870.0
 20
230.0
 30
0.0
 11
2870.0
 21
185.0
 31
0.0
  0
LINE
  5
A7
330
1F
100
AcDbEntity
  8
MARKETING_DRW
100
AcDbLine
 10
2920.0
 20
95.0
 30
0.0
 11
2020.0
 21
95.0
 31
0.0
  0
LINE
  5
A8
330
1F
100
AcDbEntity
  8
MARKETING_DRW
100
AcDbLine
 10
2020.0
 20
185.0
 30
0.0
 11
2920.0
 21
185.0
 31
0.0
  0
LINE
  5
A9
330
1F
100
AcDbEntity
  8
MARKETING_DRW
100
AcDbLine
 10
2020.0
 20
50.0
 30
0.0
 11
2920.0
 21
50.0
 31
0.0
  0
LINE
  5
AA
330
1F
100
AcDbEntity
  8
MARKETING_DRW
100
AcDbLine
 10
2770.0
 20
230.0
 30
0.0
 11
2770.0
 21
185.0
 31
0.0
  0
LINE
  5
AB
330
1F
100
AcDbEntity
  8
MARKETING_DRW
100
AcDbLine
 10
2520.0
 20
275.0
 30
0.0
 11
2770.0
 21
275.0
 31
0.0
  0
LINE
  5
AC
330
1F
100
AcDbEntity
  8
MARKETING_DRW
100
AcDbLine
 10
2770.0
 20
275.0
 30
0.0
 11
2770.0
 21
230.0
 31
0.0
  0
LINE
  5
AD
330
1F
100
AcDbEntity
  8
MARKETING_DRW
100
AcDbLine
 10
2770.0
 20
275.0
 30
0.0
 11
2920.0
 21
275.0
 31
0.0
  0
LINE
  5
AE
330
1F
100
AcDbEntity
  8
MARKETING_DRW
100
AcDbLine
 10
2920.0
 20
275.0
 30
0.0
 11
2920.0
 21
230.0
 31
0.0
  0
LINE
  5
AF
330
1F
100
AcDbEntity
  8
MARKETING_DRW
100
AcDbLine
 10
2695.0
 20
275.0
 30
0.0
 11
2695.0
 21
230.0
 31
0.0
  0
LINE
  5
B0
330
1F
100
AcDbEntity
  8
MARKETING_DRW
100
AcDbLine
 10
2520.0
 20
230.0
 30
0.0
 11
2520.0
 21
185.0
 31
0.0
  0
CIRCLE
  5
B1
330
1F
100
AcDbEntity
  8
SINGLE_ARTICLE_DRW
 62
     7
100
AcDbCircle
 10
2837.5
 20
200.0
 30
0.0
 40
5.000000000000224
  0
CIRCLE
  5
B2
330
1F
100
AcDbEntity
  8
SINGLE_ARTICLE_DRW
 62
     7
100
AcDbCircle
 10
2837.5
 20
200.0
 30
0.0
 40
10.00000000000046
  0
CIRCLE
  5
B3
330
1F
100
AcDbEntity
  8
MARKETING_DRW
100
AcDbCircle
 10
2837.5
 20
200.0
 30
0.0
 40
4.99999999999979
  0
CIRCLE
  5
B4
330
1F
100
AcDbEntity
  8
MARKETING_DRW
100
AcDbCircle
 10
2837.5
 20
200.0
 30
0.0
 40
10.00000000000002
  0
MTEXT
  5
B6
330
1F
100
AcDbEntity
  8
SINGLE_ARTICLE_DRW
100
AcDbMText
 10
2025.0
 20
179.9766099061
 30
0.0
 40
9.0
 41
0.0
 71
     1
 72
     1
  1
title:
  7
SLDTEXTSTYLE0
 73
     1
 44
1.0
  0
MTEXT
  5
B7
330
1F
100
AcDbEntity
  8
SINGLE_ARTICLE_DRW
100
AcDbMText
 10
2025.0
 20
314.9766099061
 30
0.0
 40
9.0
 41
0.0
 71
     1
 72
     1
  1
technical reference:
  7
SLDTEXTSTYLE0
 73
     1
 44
1.0
  0
MTEXT
  5
B8
330
1F
100
AcDbEntity
  8
SINGLE_ARTICLE_DRW
100
AcDbMText
 10
2894.7829862405
 20
69.9675136777
 30
0.0
 40
12.5
 41
0.0
 71
     2
 72
     1
  1
1/1
  7
SLDTEXTSTYLE0
 73
     1
 44
1.0
  0
MTEXT
  5
B9
330
1F
100
AcDbEntity
  8
SINGLE_ARTICLE_DRW
100
AcDbMText
 10
2894.7829862405
 20
204.9675136777
 30
0.0
 40
12.5
 41
0.0
 71
     2
 72
     1
  1
1:5
  7
SLDTEXTSTYLE0
 73
     1
 44
1.0
  0
MTEXT
  5
BA
330
1F
100
AcDbEntity
  8
SINGLE_ARTICLE_DRW
100
AcDbMText
 10
2275.0
 20
314.9766099061
 30
0.0
 40
9.0
 41
0.0
 71
     1
 72
     1
  1
general tolerance:
  7
SLDTEXTSTYLE0
 73
     1
 44
1.0
  0
MTEXT
  5
BB
330
1F
100
AcDbEntity
  8
SINGLE_ARTICLE_DRW
100
AcDbMText
 10
2775.0
 20
249.9675136777
 30
0.0
 40
12.5
 41
0.0
 71
     1
 72
     1
  1
production drw.
  7
SLDTEXTSTYLE0
 73
     1
 44
1.0
  0
MTEXT
  5
BC
330
1F
100
AcDbEntity
  8
SINGLE_ARTICLE_DRW
100
AcDbMText
 10
2275.0
 20
269.9766099061
 30
0.0
 40
9.0
 41
0.0
 71
     1
 72
     1
  1
material:
  7
SLDTEXTSTYLE0
 73
     1
 44
1.0
  0
MTEXT
  5
BD
330
1F
100
AcDbEntity
  8
SINGLE_ARTICLE_DRW
100
AcDbMText
 10
2775.0
 20
224.9766099061
 30
0.0
 40
9.0
 41
0.0
 71
     1
 72
     1
  1
projection:ISO-E
  7
SLDTEXTSTYLE0
 73
     1
 44
1.0
  0
MTEXT
  5
BE
330
1F
100
AcDbEntity
  8
SINGLE_ARTICLE_DRW
100
AcDbMText
 10
2894.7500000913
 20
89.9766099061
 30
0.0
 40
9.0
 41
0.0
 71
     2
 72
     1
  1
sheet:
  7
SLDTEXTSTYLE0
 73
     1
 44
1.0
  0
MTEXT
  5
BF
330
1F
100
AcDbEntity
  8
SINGLE_ARTICLE_DRW
100
AcDbMText
 10
2725.0
 20
89.9766099061
 30
0.0
 40
9.0
 41
0.0
 71
     1
 72
     1
  1
release date:
  7
SLDTEXTSTYLE0
 73
     1
 44
1.0
  0
MTEXT
  5
C0
330
1F
100
AcDbEntity
  8
SINGLE_ARTICLE_DRW
100
AcDbMText
 10
2525.0
 20
224.9766099061
 30
0.0
 40
9.0
 41
0.0
 71
     1
 72
     1
  1
reviewed by:
  7
SLDTEXTSTYLE0
 73
     1
 44
1.0
  0
MTEXT
  5
C1
330
1F
100
AcDbEntity
  8
SINGLE_ARTICLE_DRW
100
AcDbMText
 10
2694.8125000894
 20
89.9766099061
 30
0.0
 40
9.0
 41
0.0
 71
     2
 72
     1
  1
index:
  7
SLDTEXTSTYLE0
 73
     1
 44
1.0
  0
MTEXT
  5
C2
330
1F
100
AcDbEntity
  8
SINGLE_ARTICLE_DRW
100
AcDbMText
 10
2775.0
 20
269.9766099061
 30
0.0
 40
9.0
 41
0.0
 71
     1
 72
     1
  1
documenttype:
  7
SLDTEXTSTYLE0
 73
     1
 44
1.0
  0
MTEXT
  5
C3
330
1F
100
AcDbEntity
  8
SINGLE_ARTICLE_DRW
100
AcDbMText
 10
2619.034373872
 20
89.9766099061
 30
0.0
 40
9.0
 41
0.0
 71
     2
 72
     1
  1
drawing-no.:
  7
SLDTEXTSTYLE0
 73
     1
 44
1.0
  0
MTEXT
  5
C4
330
1F
100
AcDbEntity
  8
SINGLE_ARTICLE_DRW
100
AcDbMText
 10
2775.0
 20
314.9766099061
 30
0.0
 40
9.0
 41
0.0
 71
     1
 72
     1
  1
weight:
  7
SLDTEXTSTYLE0
 73
     1
 44
1.0
  0
MTEXT
  5
C5
330
1F
100
AcDbEntity
  8
SINGLE_ARTICLE_DRW
100
AcDbMText
 10
2894.8750000875
 20
224.9766099061
 30
0.0
 40
9.0
 41
0.0
 71
     2
 72
     1
  1
scale:
  7
SLDTEXTSTYLE0
 73
     1
 44
1.0
  0
MTEXT
  5
C6
330
1F
100
AcDbEntity
  8
SINGLE_ARTICLE_DRW
100
AcDbMText
 10
2525.0
 20
314.9766099061
 30
0.0
 40
9.0
 41
0.0
 71
     1
 72
     1
  1
surface:
  7
SLDTEXTSTYLE0
 73
     1
 44
1.0
  0
MTEXT
  5
C7
330
1F
100
AcDbEntity
  8
SINGLE_ARTICLE_DRW
100
AcDbMText
 10
2275.0
 20
224.9766099061
 30
0.0
 40
9.0
 41
0.0
 71
     1
 72
     1
  1
created by:
  7
SLDTEXTSTYLE0
 73
     1
 44
1.0
  0
INSERT
  5
CE
330
1F
100
AcDbEntity
  8
SINGLE_ARTICLE_DRW
100
AcDbBlockReference
  2
SW_NOTE_0
 10
2025.0
 20
78.4000001475
 30
0.0
  0
MTEXT
  5
CF
330
1F
100
AcDbEntity
  8
SINGLE_ARTICLE_DRW
100
AcDbMText
 10
2025.0
 20
114.9675136777
 30
0.0
 40
12.5
 41
0.0
 71
     1
 72
     1
  1
ZB Duschrinne C mit Spalt und Flansch, mit DN40 Seitenauslaß, mit FAT GV25, International
  7
SLDTEXTSTYLE0
 73
     1
 44
1.0
  0
MTEXT
  5
D0
330
1F
100
AcDbEntity
  8
SINGLE_ARTICLE_DRW
100
AcDbMText
 10
2025.0
 20
137.4675136777
 30
0.0
 40
12.5
 41
0.0
 71
     1
 72
     1
  1
ASM Shower Channel C with gap and flange, with DN40 Side outlet, with FAT GV25 L780, International
  7
SLDTEXTSTYLE0
 73
     1
 44
1.0
  0
MTEXT
  5
D1
330
1F
100
AcDbEntity
  8
SINGLE_ARTICLE_DRW
100
AcDbMText
 10
2025.0
 20
295.0022357116
 30
0.0
 40
12.5
 41
0.0
 71
     1
 72
     1
  1
Bohms, Michael
  7
SLDTEXTSTYLE0
 73
     1
 44
1.0
  0
MTEXT
  5
D2
330
1F
100
AcDbEntity
  8
SINGLE_ARTICLE_DRW
100
AcDbMText
 10
2619.0407964215
 20
69.9675136777
 30
0.0
 40
12.5
 41
0.0
 71
     2
 72
     1
  1
1088217-O
  7
SLDTEXTSTYLE0
 73
     1
 44
1.0
  0
MTEXT
  5
D3
330
1F
100
AcDbEntity
  8
SINGLE_ARTICLE_DRW
100
AcDbMText
 10
2694.7395830229
 20
69.9675136777
 30
0.0
 40
12.5
 41
0.0
 71
     2
 72
     1
  1
001
  7
SLDTEXTSTYLE0
 73
     1
 44
1.0
  0
MTEXT
  5
D4
330
1F
100
AcDbEntity
  8
SINGLE_ARTICLE_DRW
100
AcDbMText
 10
2025.0
 20
159.9675136777
 30
0.0
 40
12.5
 41
0.0
 71
     1
 72
     1
  1
ACO ShowerDrain
  7
SLDTEXTSTYLE0
 73
     1
 44
1.0
  0
MTEXT
  5
D5
330
1F
100
AcDbEntity
  8
SINGLE_ARTICLE_DRW
100
AcDbMText
 10
2025.0
 20
334.9766099061
 30
0.0
 40
9.0
 41
0.0
 71
     1
 72
     1
  1
modification:
  7
SLDTEXTSTYLE0
 73
     1
 44
1.0
  0
MTEXT
  5
D6
330
1F
100
AcDbEntity
  8
SINGLE_ARTICLE_DRW
100
AcDbMText
 10
2775.0
 20
294.9675136777
 30
0.0
 40
12.5
 41
0.0
 71
     1
 72
     1
  1
1.675 kg
  7
SLDTEXTSTYLE0
 73
     1
 44
1.0
  0
MTEXT
  5
D7
330
1F
100
AcDbEntity
  8
MARKETING_DRW
100
AcDbMText
 10
2025.0
 20
114.9675136777
 30
0.0
 40
12.5
 41
0.0
 71
     1
 72
     1
  1
ZB Duschrinne C mit Spalt und Flansch, mit DN40 Seitenauslaß, mit FAT GV25, International
  7
SLDTEXTSTYLE0
 73
     1
 44
1.0
  0
MTEXT
  5
D8
330
1F
100
AcDbEntity
  8
MARKETING_DRW
100
AcDbMText
 10
2025.0
 20
137.4675136777
 30
0.0
 40
12.5
 41
0.0
 71
     1
 72
     1
  1
ASM Shower Channel C with gap and flange, with DN40 Side outlet, with FAT GV25 L780, International
  7
SLDTEXTSTYLE0
 73
     1
 44
1.0
  0
MTEXT
  5
D9
330
1F
100
AcDbEntity
  8
MARKETING_DRW
100
AcDbMText
 10
2606.5407964215
 20
249.9675136777
 30
0.0
 40
12.5
 41
0.0
 71
     2
 72
     1
  1
1088217-O
  7
SLDTEXTSTYLE0
 73
     1
 44
1.0
  0
MTEXT
  5
DA
330
1F
100
AcDbEntity
  8
MARKETING_DRW
100
AcDbMText
 10
2732.2395830229
 20
252.0971433073
 30
0.0
 40
12.5
 41
0.0
 71
     2
 72
     1
  1
001
  7
SLDTEXTSTYLE0
 73
     1
 44
1.0
  0
MTEXT
  5
DB
330
1F
100
AcDbEntity
  8
MARKETING_DRW
100
AcDbMText
 10
2025.0
 20
159.9675136777
 30
0.0
 40
12.5
 41
0.0
 71
     1
 72
     1
  1
ACO ShowerDrain
  7
SLDTEXTSTYLE0
 73
     1
 44
1.0
  0
MTEXT
  5
DC
330
1F
100
AcDbEntity
  8
MARKETING_DRW
100
AcDbMText
 10
2775.0
 20
269.9766099061
 30
0.0
 40
9.0
 41
0.0
 71
     1
 72
     1
  1
documenttype:
  7
SLDTEXTSTYLE0
 73
     1
 44
1.0
  0
MTEXT
  5
DD
330
1F
100
AcDbEntity
  8
MARKETING_DRW
100
AcDbMText
 10
2275.0
 20
224.9766099061
 30
0.0
 40
9.0
 41
0.0
 71
     1
 72
     1
  1
created by:
  7
SLDTEXTSTYLE0
 73
     1
 44
1.0
  0
MTEXT
  5
DE
330
1F
100
AcDbEntity
  8
MARKETING_DRW
100
AcDbMText
 10
2606.534373872
 20
270.0578764559
 30
0.0
 40
9.0
 41
0.0
 71
     2
 72
     1
  1
drawing-no.:
  7
SLDTEXTSTYLE0
 73
     1
 44
1.0
  0
MTEXT
  5
DF
330
1F
100
AcDbEntity
  8
MARKETING_DRW
100
AcDbMText
 10
2525.0
 20
224.9766099061
 30
0.0
 40
9.0
 41
0.0
 71
     1
 72
     1
  1
reviewed by:
  7
SLDTEXTSTYLE0
 73
     1
 44
1.0
  0
MTEXT
  5
E0
330
1F
100
AcDbEntity
  8
MARKETING_DRW
100
AcDbMText
 10
2775.0
 20
224.9766099061
 30
0.0
 40
9.0
 41
0.0
 71
     1
 72
     1
  1
projection:ISO-E
  7
SLDTEXTSTYLE0
 73
     1
 44
1.0
  0
MTEXT
  5
E1
330
1F
100
AcDbEntity
  8
MARKETING_DRW
100
AcDbMText
 10
2894.7500000913
 20
89.9766099061
 30
0.0
 40
9.0
 41
0.0
 71
     2
 72
     1
  1
sheet:
  7
SLDTEXTSTYLE0
 73
     1
 44
1.0
  0
MTEXT
  5
E2
330
1F
100
AcDbEntity
  8
MARKETING_DRW
100
AcDbMText
 10
2894.7829862405
 20
69.9675136777
 30
0.0
 40
12.5
 41
0.0
 71
     2
 72
     1
  1
1/1
  7
SLDTEXTSTYLE0
 73
     1
 44
1.0
  0
MTEXT
  5
E3
330
1F
100
AcDbEntity
  8
MARKETING_DRW
100
AcDbMText
 10
2725.0
 20
89.9766099061
 30
0.0
 40
9.0
 41
0.0
 71
     1
 72
     1
  1
release date:
  7
SLDTEXTSTYLE0
 73
     1
 44
1.0
  0
MTEXT
  5
E4
330
1F
100
AcDbEntity
  8
MARKETING_DRW
100
AcDbMText
 10
2732.3125000894
 20
269.9766099061
 30
0.0
 40
9.0
 41
0.0
 71
     2
 72
     1
  1
index:
  7
SLDTEXTSTYLE0
 73
     1
 44
1.0
  0
MTEXT
  5
E5
330
1F
100
AcDbEntity
  8
MARKETING_DRW
100
AcDbMText
 10
2025.0
 20
179.9766099061
 30
0.0
 40
9.0
 41
0.0
 71
     1
 72
     1
  1
title:
  7
SLDTEXTSTYLE0
 73
     1
 44
1.0
  0
MTEXT
  5
E6
330
1F
100
AcDbEntity
  8
MARKETING_DRW
100
AcDbMText
 10
2894.8750000875
 20
224.9766099061
 30
0.0
 40
9.0
 41
0.0
 71
     2
 72
     1
  1
scale:
  7
SLDTEXTSTYLE0
 73
     1
 44
1.0
  0
MTEXT
  5
E7
330
1F
100
AcDbEntity
  8
MARKETING_DRW
100
AcDbMText
 10
2894.7829862405
 20
204.9675136777
 30
0.0
 40
12.5
 41
0.0
 71
     2
 72
     1
  1
1:5
  7
SLDTEXTSTYLE0
 73
     1
 44
1.0
  0
INSERT
  5
EE
330
1F
100
AcDbEntity
  8
MARKETING_DRW
100
AcDbBlockReference
  2
SW_NOTE_0_1
 10
2025.0
 20
78.3750002482
 30
0.0
  0
MTEXT
  5
EF
330
1F
100
AcDbEntity
  8
MARKETING_DRW
100
AcDbMText
 10
2775.0
 20
249.9675136777
 30
0.0
 40
12.5
 41
0.0
 71
     1
 72
     1
  1
marketing drw.
  7
SLDTEXTSTYLE0
 73
     1
 44
1.0
  0
LINE
  5
F0
330
1F
100
AcDbEntity
  8
0
  6
Continuous
 62
     7
370
    35
100
AcDbLine
 10
1686.3357733761
 20
1471.2254476157
 30
0.0
 11
906.3357733761
 21
1471.2254476157
 31
0.0
  0
LINE
  5
F1
330
1F
100
AcDbEntity
  8
0
  6
Continuous
 62
     7
370
    35
100
AcDbLine
 10
1215.3357733761
 20
1451.2402726042
 30
0.0
 11
1215.3357733761
 21
1448.2290091165
 31
0.0
  0
LINE
  5
F2
330
1F
100
AcDbEntity
  8
0
  6
Continuous
 62
     7
370
    35
100
AcDbLine
 10
1377.3357733761
 20
1448.2290091165
 30
0.0
 11
1377.3357733761
 21
1451.2402726042
 31
0.0
  0
ARC
  5
F3
330
1F
100
AcDbEntity
  8
0
  6
Continuous
 62
     7
370
    35
100
AcDbCircle
 10
1213.3357733761
 20
1451.2322309568
 30
0.0
 40
1.999999999999966
100
AcDbArc
 50
0.2172817996
 51
85.9305858724
  0
ARC
  5
F4
330
1F
100
AcDbEntity
  8
0
  6
Continuous
 62
     7
370
    35
100
AcDbCircle
 10
1379.3357733761
 20
1451.2322309568
 30
0.0
 40
1.999999999999936
100
AcDbArc
 50
94.065898605
 51
179.7696267909
  0
LINE
  5
F5
330
1F
100
AcDbEntity
  8
0
  6
Continuous
 62
     7
370
    35
100
AcDbLine
 10
906.3357733761
 20
1453.227058536
 30
0.0
 11
1213.4766353196
 21
1453.227058536
 31
0.0
  0
LINE
  5
F6
330
1F
100
AcDbEntity
  8
0
  6
Continuous
 62
     7
370
    35
100
AcDbLine
 10
1379.1949114325
 20
1453.227058536
 30
0.0
 11
1686.3357733761
 21
1453.227058536
 31
0.0
  0
LINE
  5
F7
330
1F
100
AcDbEntity
  8
0
  6
Continuous
 62
     7
370
    35
100
AcDbLine
 10
1368.0273526734
 20
1401.7790091161
 30
0.0
 11
1384.8357733761
 21
1401.7790091161
 31
0.0
  0
LINE
  5
F8
330
1F
100
AcDbEntity
  8
0
  6
Continuous
 62
     7
370
    35
100
AcDbLine
 10
1384.8357733761
 20
1441.7790091161
 30
0.0
 11
1381.2565943006
 21
1441.7790091161
 31
0.0
  0
LINE
  5
F9
330
1F
100
AcDbEntity
  8
0
  6
Continuous
 62
     7
370
    35
100
AcDbLine
 10
1384.8357733761
 20
1401.7790091161
 30
0.0
 11
1424.5297218338
 21
1401.7790091161
 31
0.0
  0
LINE
  5
FA
330
1F
100
AcDbEntity
  8
0
  6
Continuous
 62
     7
370
    35
100
AcDbLine
 10
1424.5297218338
 20
1441.7790091161
 30
0.0
 11
1384.8357733761
 21
1441.7790091161
 31
0.0
  0
ARC
  5
FB
330
1F
100
AcDbEntity
  8
0
  6
Continuous
 62
     7
370
    35
100
AcDbCircle
 10
1424.5297218338
 20
1438.7790091161
 30
0.0
 40
2.999999999999961
100
AcDbArc
 50
78.3499964744
 51
90.0
  0
ARC
  5
FC
330
1F
100
AcDbEntity
  8
0
  6
Continuous
 62
     7
370
    35
100
AcDbCircle
 10
1424.5297218338
 20
1404.7790091161
 30
0.0
 40
3.0
100
AcDbArc
 50
270.0
 51
281.6500035256
  0
LINE
  5
FD
330
1F
100
AcDbEntity
  8
0
  6
Continuous
 62
     7
370
    35
100
AcDbLine
 10
1425.13552007
 20
1401.8408109443
 30
0.0
 11
1429.8357733761
 21
1402.8099100302
 31
0.0
  0
LINE
  5
FE
330
1F
100
AcDbEntity
  8
0
  6
Continuous
 62
     7
370
    35
100
AcDbLine
 10
1429.8357733761
 20
1440.7481082021
 30
0.0
 11
1425.13552007
 21
1441.717207288
 31
0.0
  0
LINE
  5
FF
330
1F
100
AcDbEntity
  8
0
  6
Continuous
 62
     7
370
    35
100
AcDbLine
 10
906.3357733761
 20
1459.2254476157
 30
0.0
 11
906.3357733761
 21
1458.2254476157
 31
0.0
  0
LINE
  5
100
330
1F
100
AcDbEntity
  8
0
  6
Continuous
 62
     7
370
    35
100
AcDbLine
 10
1686.3357733761
 20
1459.2254476157
 30
0.0
 11
906.3357733761
 21
1459.2254476157
 31
0.0
  0
LINE
  5
101
330
1F
100
AcDbEntity
  8
0
  6
Continuous
 62
     7
370
    35
100
AcDbLine
 10
1686.3357733761
 20
1459.2254476157
 30
0.0
 11
1686.3357733761
 21
1458.2254476157
 31
0.0
  0
LINE
  5
102
330
1F
100
AcDbEntity
  8
0
  6
Continuous
 62
     7
370
    35
100
AcDbLine
 10
1686.3357733761
 20
1458.2254476157
 30
0.0
 11
906.3357733761
 21
1458.2254476157
 31
0.0
  0
LINE
  5
103
330
1F
100
AcDbEntity
  8
0
  6
Continuous
 62
     7
370
    35
100
AcDbLine
 10
906.3357733761
 20
1460.2254476157
 30
0.0
 11
906.3357733761
 21
1459.2254476157
 31
0.0
  0
LINE
  5
104
330
1F
100
AcDbEntity
  8
0
  6
Continuous
 62
     7
370
    35
100
AcDbLine
 10
1686.3357733761
 20
1459.2254476157
 30
0.0
 11
1686.3357733761
 21
1460.2254476157
 31
0.0
  0
LINE
  5
105
330
1F
100
AcDbEntity
  8
0
  6
Continuous
 62
     7
370
    35
100
AcDbLine
 10
1686.3357733761
 20
1469.7254476157
 30
0.0
 11
1686.3357733761
 21
1460.2254476157
 31
0.0
  0
LINE
  5
106
330
1F
100
AcDbEntity
  8
0
  6
Continuous
 62
     7
370
    35
100
AcDbLine
 10
906.3357733761
 20
1460.2254476157
 30
0.0
 11
906.3357733761
 21
1469.7254476157
 31
0.0
  0
LINE
  5
107
330
1F
100
AcDbEntity
  8
0
  6
Continuous
 62
     7
370
    35
100
AcDbLine
 10
1686.3357733761
 20
1471.2254476157
 30
0.0
 11
1686.3357733761
 21
1470.2254476157
 31
0.0
  0
LINE
  5
108
330
1F
100
AcDbEntity
  8
0
  6
Continuous
 62
     7
370
    35
100
AcDbLine
 10
906.3357733761
 20
1470.2254476157
 30
0.0
 11
906.3357733761
 21
1471.2254476157
 31
0.0
  0
LINE
  5
109
330
1F
100
AcDbEntity
  8
0
  6
Continuous
 62
     7
370
    35
100
AcDbLine
 10
906.3357733761
 20
1456.987366105
 30
0.0
 11
906.3357733761
 21
1458.2254476157
 31
0.0
  0
LINE
  5
10A
330
1F
100
AcDbEntity
  8
0
  6
Continuous
 62
     7
370
    35
100
AcDbLine
 10
1686.3357733761
 20
1456.987366105
 30
0.0
 11
1686.3357733761
 21
1458.2254476157
 31
0.0
  0
LINE
  5
10B
330
1F
100
AcDbEntity
  8
0
  6
Continuous
 62
     7
370
    35
100
AcDbLine
 10
1686.3357733761
 20
1456.2913955596
 30
0.0
 11
1686.3357733761
 21
1456.987366105
 31
0.0
  0
LINE
  5
10C
330
1F
100
AcDbEntity
  8
0
  6
Continuous
 62
     7
370
    35
100
AcDbLine
 10
906.3357733761
 20
1456.987366105
 30
0.0
 11
906.3357733761
 21
1456.2913955596
 31
0.0
  0
SPLINE
  5
10D
330
1F
100
AcDbEntity
  8
0
  6
Continuous
 62
     7
370
    35
100
AcDbSpline
210
0.0
220
0.0
230
1.0
 70
     8
 71
     3
 72
     8
 73
     4
 74
     0
 42
0.000000001
 43
0.00000001
 40
0.0000000000000255
 40
0.0000000000000255
 40
0.0000000000000255
 40
0.0000000000000255
 40
0.0000564308016788
 40
0.0000564308016788
 40
0.0000564308016788
 40
0.0000564308016788
 10
1379.207236155433
 20
1453.230275194913
 30
0.0
 10
1379.212398559245
 20
1453.231300654049
 30
0.0
 10
1379.215409327142
 20
1453.232375778313
 30
0.0
 10
1379.215231878558
 20
1453.233442137344
 30
0.0
  0
SPLINE
  5
10E
330
1F
100
AcDbEntity
  8
0
  6
Continuous
 62
     7
370
    35
100
AcDbSpline
210
0.0
220
0.0
230
1.0
 70
     8
 71
     3
 72
    14
 73
    10
 74
     0
 42
0.000000001
 43
0.00000001
 40
0.0
 40
0.0
 40
0.0
 40
0.0
 40
0.25
 40
0.25
 40
0.5
 40
0.5
 40
0.75
 40
0.75
 40
1.0
 40
1.0
 40
1.0
 40
1.0
 10
1379.215231878687
 20
1453.233442137344
 30
0.0
 10
1379.183859230809
 20
1453.421972841078
 30
0.0
 10
1378.594920318568
 20
1453.609968185983
 30
0.0
 10
1376.363199753992
 20
1453.96517151057
 30
0.0
 10
1374.722954634307
 20
1454.131955757891
 30
0.0
 10
1370.565536877225
 20
1454.42625949829
 30
0.0
 10
1368.05277551138
 20
1454.553454275817
 30
0.0
 10
1362.424962973854
 20
1454.75435282969
 30
0.0
 10
1359.315756511725
 20
1454.827847620747
 30
0.0
 10
1356.076104938774
 20
1454.870442498953
 30
0.0
  0
SPLINE
  5
10F
330
1F
100
AcDbEntity
  8
0
  6
Continuous
 62
     7
370
    35
100
AcDbSpline
210
0.0
220
0.0
230
1.0
 70
     8
 71
     3
 72
    14
 73
    10
 74
     0
 42
0.000000001
 43
0.00000001
 40
0.0
 40
0.0
 40
0.0
 40
0.0
 40
0.125
 40
0.125
 40
0.2500000000000001
 40
0.2500000000000001
 40
0.5
 40
0.5
 40
1.0
 40
1.0
 40
1.0
 40
1.0
 10
1356.076104938747
 20
1454.870442498946
 30
0.0
 10
1355.8000584983
 20
1454.874071952375
 30
0.0
 10
1355.520763904404
 20
1454.875956908235
 30
0.0
 10
1354.960868864586
 20
1454.879025481247
 30
0.0
 10
1354.680169341091
 20
1454.880155886455
 30
0.0
 10
1353.837407523484
 20
1454.883190889535
 30
0.0
 10
1353.274870418472
 20
1454.884670908471
 30
0.0
 10
1351.587426388357
 20
1454.88826185278
 30
0.0
 10
1350.461872513623
 20
1454.889410462943
 30
0.0
 10
1349.335773376067
 20
1454.889410462943
 30
0.0
  0
LINE
  5
110
330
1F
100
AcDbEntity
  8
0
  6
Continuous
 62
     7
370
    35
100
AcDbLine
 10
1349.3357733761
 20
1454.8894104629
 30
0.0
 11
1243.3357733761
 21
1454.8894104629
 31
0.0
  0
SPLINE
  5
111
330
1F
100
AcDbEntity
  8
0
  6
Continuous
 62
     7
370
    35
100
AcDbSpline
210
0.0
220
0.0
230
1.0
 70
     8
 71
     3
 72
    14
 73
    10
 74
     0
 42
0.000000001
 43
0.00000001
 40
0.0
 40
0.0
 40
0.0
 40
0.0
 40
0.5
 40
0.5
 40
0.7500000000000016
 40
0.7500000000000016
 40
0.8750000000000008
 40
0.8750000000000008
 40
1.0
 40
1.0
 40
1.0
 40
1.0
 10
1243.335773376067
 20
1454.889410462943
 30
0.0
 10
1242.20987083977
 20
1454.889410462943
 30
0.0
 10
1241.084415417107
 20
1454.888262259783
 30
0.0
 10
1239.396959817356
 20
1454.884671622133
 30
0.0
 10
1238.834502461323
 20
1454.883191727093
 30
0.0
 10
1237.992154545842
 20
1454.880158919986
 30
0.0
 10
1237.711542072558
 20
1454.879029360179
 30
0.0
 10
1237.151477158859
 20
1454.875961568452
 30
0.0
 10
1236.870904043125
 20
1454.874064271183
 30
0.0
 10
1236.595441813388
 20
1454.870442498946
 30
0.0
  0
SPLINE
  5
112
330
1F
100
AcDbEntity
  8
0
  6
Continuous
 62
     7
370
    35
100
AcDbSpline
210
0.0
220
0.0
230
1.0
 70
     8
 71
     3
 72
    14
 73
    10
 74
     0
 42
0.000000001
 43
0.00000001
 40
0.0
 40
0.0
 40
0.0
 40
0.0
 40
0.25
 40
0.25
 40
0.5
 40
0.5
 40
0.75
 40
0.75
 40
1.0
 40
1.0
 40
1.0
 40
1.0
 10
1236.595441813361
 20
1454.870442498953
 30
0.0
 10
1233.355790144265
 20
1454.827847619483
 30
0.0
 10
1230.246914132139
 20
1454.754363561246
 30
0.0
 10
1224.618681711246
 20
1454.55345214103
 30
0.0
 10
1222.10611156456
 20
1454.426265253804
 30
0.0
 10
1217.948669416637
 20
1454.131962672914
 30
0.0
 10
1216.308329724327
 20
1453.965166105766
 30
0.0
 10
1214.076738740761
 20
1453.609988716301
 30
0.0
 10
1213.487687522056
 20
1453.421972845463
 30
0.0
 10
1213.456314873448
 20
1453.233442137344
 30
0.0
  0
SPLINE
  5
113
330
1F
100
AcDbEntity
  8
0
  6
Continuous
 62
     7
370
    35
100
AcDbSpline
210
0.0
220
0.0
230
1.0
 70
     8
 71
     3
 72
     8
 73
     4
 74
     0
 42
0.000000001
 43
0.00000001
 40
0.0000000000000194
 40
0.0000000000000194
 40
0.0000000000000194
 40
0.0000000000000194
 40
0.0000564308016788
 40
0.0000564308016788
 40
0.0000564308016788
 40
0.0000564308016788
 10
1213.456314873577
 20
1453.233442137344
 30
0.0
 10
1213.456137424993
 20
1453.232375778313
 30
0.0
 10
1213.45914819289
 20
1453.231300654049
 30
0.0
 10
1213.464310596702
 20
1453.230275194913
 30
0.0
  0
LINE
  5
114
330
1F
100
AcDbEntity
  8
0
  6
Continuous
 62
     7
370
    35
100
AcDbLine
 10
1215.3357733761
 20
1448.2290091163
 30
0.0
 11
1243.3357733761
 21
1448.2290091163
 31
0.0
  0
LINE
  5
115
330
1F
100
AcDbEntity
  8
0
  6
Continuous
 62
     7
370
    35
100
AcDbLine
 10
1243.3357733761
 20
1448.2290091163
 30
0.0
 11
1349.3357733761
 21
1448.2290091163
 31
0.0
  0
LINE
  5
116
330
1F
100
AcDbEntity
  8
0
  6
Continuous
 62
     7
370
    35
100
AcDbLine
 10
1349.3357733761
 20
1448.2290091163
 30
0.0
 11
1370.4899297254
 21
1448.2290091163
 31
0.0
  0
LINE
  5
117
330
1F
100
AcDbEntity
  8
0
  6
Continuous
 62
     7
370
    35
100
AcDbLine
 10
1371.1249796429
 20
1448.2290091163
 30
0.0
 11
1377.3357733761
 21
1448.2290091163
 31
0.0
  0
SPLINE
  5
118
330
1F
100
AcDbEntity
  8
0
  6
Continuous
 62
     7
370
    35
100
AcDbSpline
210
0.0
220
0.0
230
1.0
 70
    24
 71
     3
 72
     9
 73
     5
 74
     0
 42
0.000000001
 43
0.00000001
 40
0.0
 40
0.0
 40
0.0
 40
0.0
 40
0.1857572773172625
 40
0.9999999999999999
 40
0.9999999999999999
 40
0.9999999999999999
 40
0.9999999999999999
 10
1213.476704107971
 20
1453.227659518623
 30
0.0
 10
1213.477641760365
 20
1453.227461625138
 30
0.0
 10
1213.482689489357
 20
1453.226396291451
 30
0.0
 10
1213.472559150993
 20
1453.228534320401
 30
0.0
 10
1213.464310596702
 20
1453.230275194913
 30
0.0
  0
LINE
  5
119
330
1F
100
AcDbEntity
  8
0
  6
Continuous
 62
     7
370
    35
100
AcDbLine
 10
1379.2072361554
 20
1453.2302751949
 30
0.0
 11
1379.1948244687
 21
1453.2276556827
 31
0.0
  0
ARC
  5
11A
330
1F
100
AcDbEntity
  8
0
  6
Continuous
 62
     7
370
    35
100
AcDbCircle
 10
1296.3357733761
 20
1421.7790091161
 30
0.0
 40
19.99999999999988
100
AcDbArc
 50
242.7578274734
 51
297.2421725266
  0
SPLINE
  5
11B
330
1F
100
AcDbEntity
  8
0
  6
Continuous
 62
     7
370
    35
100
AcDbSpline
210
0.0
220
0.0
230
1.0
 70
     8
 71
     3
 72
    23
 73
    19
 74
     0
 42
0.000000001
 43
0.00000001
 40
0.0
 40
0.0
 40
0.0
 40
0.0
 40
0.0758439674746767
 40
0.0948049593331002
 40
0.1128914355571506
 40
0.1336676542610458
 40
0.1567718346598162
 40
0.2022013669991181
 40
0.2424816341995579
 40
0.2818986298408139
 40
0.3206021944779509
 40
0.3951163817032078
 40
0.4632081862901979
 40
0.5251873670652979
 40
0.5924928344462254
 40
0.7259812554141636
 40
0.8620429027987473
 40
1.0
 40
1.0
 40
1.0
 40
1.0
 10
1214.835773376067
 20
1448.229009116143
 30
0.0
 10
1214.819768852447
 20
1447.12523917612
 30
0.0
 10
1214.799763197924
 20
1445.745526751239
 30
0.0
 10
1214.865274374273
 20
1444.146182602796
 30
0.0
 10
1214.720021895409
 20
1443.239752404016
 30
0.0
 10
1213.810552115249
 20
1442.873588621903
 30
0.0
 10
1212.814130806306
 20
1442.079937739396
 30
0.0
 10
1211.8176566221
 20
1440.80330520174
 30
0.0
 10
1211.235365465603
 20
1439.083580105014
 30
0.0
 10
1210.612779015109
 20
1437.491561517535
 30
0.0
 10
1209.86359286538
 20
1435.416282669687
 30
0.0
 10
1209.004506305135
 20
1432.9422480281
 30
0.0
 10
1208.095716245565
 20
1430.125213629655
 30
0.0
 10
1207.550652434147
 20
1427.319372169741
 30
0.0
 10
1207.209266529736
 20
1423.530334939842
 30
0.0
 10
1207.597487801704
 20
1418.644642373788
 30
0.0
 10
1209.276883317659
 20
1412.923759925426
 30
0.0
 10
1211.423967275576
 20
1409.576408114255
 30
0.0
 10
1212.504935187934
 20
1407.891155012762
 30
0.0
  0
SPLINE
  5
11C
330
1F
100
AcDbEntity
  8
0
  6
Continuous
 62
     7
370
    35
100
AcDbSpline
210
0.0
220
0.0
230
1.0
 70
    24
 71
     3
 72
    19
 73
    15
 74
     0
 42
0.000000001
 43
0.00000001
 40
0.0
 40
0.0
 40
0.0
 40
0.0
 40
0.2409129494906413
 40
0.4882585144584838
 40
0.5391714996611927
 40
0.5899404470637029
 40
0.6400693113877648
 40
0.6899887485684958
 40
0.7400419491330548
 40
0.7904190815941273
 40
0.8413201881352514
 40
0.8929676782752878
 40
0.9456873804469079
 40
1.0
 40
1.0
 40
1.0
 40
1.0
 10
1296.335773376067
 20
1448.229009116143
 30
0.0
 10
1288.489732374625
 20
1448.229009116144
 30
0.0
 10
1272.588153269622
 20
1448.229009116144
 30
0.0
 10
1255.022728749821
 20
1448.229009116143
 30
0.0
 10
1243.660840002892
 20
1448.229009116144
 30
0.0
 10
1238.705074784575
 20
1448.229009116143
 30
0.0
 10
1233.920714025231
 20
1448.229009116143
 30
0.0
 10
1229.437136060226
 20
1448.229009116143
 30
0.0
 10
1225.358885775255
 20
1448.229009116144
 30
0.0
 10
1221.785633832244
 20
1448.229009116144
 30
0.0
 10
1218.819228087837
 20
1448.229009116143
 30
0.0
 10
1216.589201868359
 20
1448.229009116143
 30
0.0
 10
1215.115891771367
 20
1448.229009116143
 30
0.0
 10
1214.930068020283
 20
1448.229009116143
 30
0.0
 10
1214.835773376067
 20
1448.229009116143
 30
0.0
  0
SPLINE
  5
11D
330
1F
100
AcDbEntity
  8
0
  6
Continuous
 62
     7
370
    35
100
AcDbSpline
210
0.0
220
0.0
230
1.0
 70
    24
 71
     3
 72
    19
 73
    15
 74
     0
 42
0.000000001
 43
0.00000001
 40
0.0
 40
0.0
 40
0.0
 40
0.0
 40
0.2409129494906413
 40
0.4882585144584838
 40
0.5391714996611927
 40
0.5899404470637029
 40
0.6400693113877648
 40
0.6899887485684958
 40
0.7400419491330548
 40
0.7904190815941273
 40
0.8413201881352514
 40
0.8929676782752878
 40
0.9456873804469079
 40
1.0
 40
1.0
 40
1.0
 40
1.0
 10
1296.335773376067
 20
1448.229009116143
 30
0.0
 10
1304.18181437751
 20
1448.229009116144
 30
0.0
 10
1320.083393482513
 20
1448.229009116144
 30
0.0
 10
1337.648818002314
 20
1448.229009116143
 30
0.0
 10
1349.010706749243
 20
1448.229009116143
 30
0.0
 10
1353.96647196756
 20
1448.229009116143
 30
0.0
 10
1358.750832726904
 20
1448.229009116143
 30
0.0
 10
1363.234410691909
 20
1448.229009116143
 30
0.0
 10
1367.312660976879
 20
1448.229009116144
 30
0.0
 10
1370.885912919891
 20
1448.229009116144
 30
0.0
 10
1373.852318664298
 20
1448.229009116143
 30
0.0
 10
1376.082344883776
 20
1448.229009116143
 30
0.0
 10
1377.555654980768
 20
1448.229009116143
 30
0.0
 10
1377.741478731852
 20
1448.229009116143
 30
0.0
 10
1377.835773376067
 20
1448.229009116143
 30
0.0
  0
SPLINE
  5
11E
330
1F
100
AcDbEntity
  8
0
  6
Continuous
 62
     7
370
    35
100
AcDbSpline
210
0.0
220
0.0
230
1.0
 70
     8
 71
     3
 72
    12
 73
     8
 74
     0
 42
0.000000001
 43
0.00000001
 40
0.0
 40
0.0
 40
0.0
 40
0.0
 40
0.5113573105439846
 40
0.6391966381109017
 40
0.7611397820034745
 40
0.8740152375255743
 40
1.0
 40
1.0
 40
1.0
 40
1.0
 10
1377.835773376067
 20
1448.229009116143
 30
0.0
 10
1377.850479382096
 20
1447.124478606116
 30
0.0
 10
1377.868861889629
 20
1445.743815468731
 30
0.0
 10
1377.808665923966
 20
1444.147584554822
 30
0.0
 10
1377.932820722941
 20
1443.29797951607
 30
0.0
 10
1378.69012403578
 20
1442.950626155753
 30
0.0
 10
1379.097523476406
 20
1442.651453116167
 30
0.0
 10
1379.312402798672
 20
1442.493656875976
 30
0.0
  0
SPLINE
  5
11F
330
1F
100
AcDbEntity
  8
0
  6
Continuous
 62
     7
370
    35
100
AcDbSpline
210
0.0
220
0.0
230
1.0
 70
     8
 71
     3
 72
    12
 73
     8
 74
     0
 42
0.000000001
 43
0.00000001
 40
0.0
 40
0.0
 40
0.0
 40
0.0
 40
0.0187022824907647
 40
0.2635054426144016
 40
0.5085219380108151
 40
0.754159497853196
 40
1.0
 40
1.0
 40
1.0
 40
1.0
 10
1379.272999712938
 20
1442.325270038313
 30
0.0
 10
1379.273063940924
 20
1442.327421493918
 30
0.0
 10
1379.273968879879
 20
1442.357734385494
 30
0.0
 10
1379.276075980057
 20
1442.407629576169
 30
0.0
 10
1379.282448740945
 20
1442.457971583026
 30
0.0
 10
1379.293297582845
 20
1442.488760400872
 30
0.0
 10
1379.306032640533
 20
1442.492024268367
 30
0.0
 10
1379.312402798672
 20
1442.493656875976
 30
0.0
  0
SPLINE
  5
120
330
1F
100
AcDbEntity
  8
0
  6
Continuous
 62
     7
370
    35
100
AcDbSpline
210
0.0
220
0.0
230
1.0
 70
     8
 71
     3
 72
    13
 73
     9
 74
     0
 42
0.000000001
 43
0.00000001
 40
0.0
 40
0.0
 40
0.0
 40
0.0
 40
0.1771815196505908
 40
0.3595140594802965
 40
0.536691256885091
 40
0.7189759962167965
 40
0.8582847046484902
 40
1.0
 40
1.0
 40
1.0
 40
1.0
 10
1212.504935187934
 20
1407.891155012762
 30
0.0
 10
1213.031738987549
 20
1407.244876729211
 30
0.0
 10
1214.100661823987
 20
1405.933531563353
 30
0.0
 10
1216.084537643755
 20
1404.350345023773
 30
0.0
 10
1218.303797619046
 20
1403.087823935293
 30
0.0
 10
1220.519090540574
 20
1402.295421335618
 30
0.0
 10
1222.657899292953
 20
1401.854425017345
 30
0.0
 10
1223.978326597788
 20
1401.804290860081
 30
0.0
 10
1224.644194078771
 20
1401.779009116143
 30
0.0
  0
SPLINE
  5
121
330
1F
100
AcDbEntity
  8
0
  6
Continuous
 62
     7
370
    35
100
AcDbSpline
210
0.0
220
0.0
230
1.0
 70
    24
 71
     3
 72
    19
 73
    15
 74
     0
 42
0.000000001
 43
0.00000001
 40
0.0
 40
0.0
 40
0.0
 40
0.0
 40
0.0382207566244327
 40
0.0915494292491335
 40
0.1448915828931537
 40
0.1929664281754644
 40
0.2410362644725358
 40
0.2858279790996494
 40
0.330589994761807
 40
0.3739481339232561
 40
0.4173762879190923
 40
0.6722423197123589
 40
0.9271575473554007
 40
1.0
 40
1.0
 40
1.0
 40
1.0
 10
1224.644194078771
 20
1401.779009116143
 30
0.0
 10
1224.809870554299
 20
1401.779009116143
 30
0.0
 10
1225.206712169017
 20
1401.779009116143
 30
0.0
 10
1226.579383787921
 20
1401.779009116143
 30
0.0
 10
1228.662907248151
 20
1401.779009116143
 30
0.0
 10
1231.247304829434
 20
1401.779009116143
 30
0.0
 10
1234.11272194729
 20
1401.779009116143
 30
0.0
 10
1237.27680110813
 20
1401.779009116143
 30
0.0
 10
1240.616042643849
 20
1401.779009116143
 30
0.0
 10
1244.159831186947
 20
1401.779009116143
 30
0.0
 10
1253.644141403343
 20
1401.779009116143
 30
0.0
 10
1269.021481314574
 20
1401.779009116143
 30
0.0
 10
1285.207825388682
 20
1401.779009116143
 30
0.0
 10
1294.31234163537
 20
1401.779009116143
 30
0.0
 10
1296.335773376067
 20
1401.779009116143
 30
0.0
  0
SPLINE
  5
122
330
1F
100
AcDbEntity
  8
0
  6
Continuous
 62
     7
370
    35
100
AcDbSpline
210
0.0
220
0.0
230
1.0
 70
    24
 71
     3
 72
    19
 73
    15
 74
     0
 42
0.000000001
 43
0.00000001
 40
0.0
 40
0.0
 40
0.0
 40
0.0
 40
0.0382184429616673
 40
0.0907526742552614
 40
0.1448883276233774
 40
0.1924047757928812
 40
0.2410289232739625
 40
0.2852702899838307
 40
0.3305791993120217
 40
0.3733296235550279
 40
0.4174095644875306
 40
0.6721476066227443
 40
0.9271619568147014
 40
1.0
 40
1.0
 40
1.0
 40
1.0
 10
1368.027352673364
 20
1401.779009116143
 30
0.0
 10
1367.861483229191
 20
1401.779009116143
 30
0.0
 10
1367.46761329443
 20
1401.779009116143
 30
0.0
 10
1366.105805141275
 20
1401.779009116143
 30
0.0
 10
1364.028402791929
 20
1401.779009116143
 30
0.0
 10
1361.436592112341
 20
1401.779009116143
 30
0.0
 10
1358.581796497451
 20
1401.779009116143
 30
0.0
 10
1355.410055987948
 20
1401.779009116143
 30
0.0
 10
1352.082432184693
 20
1401.779009116143
 30
0.0
 10
1348.537107793998
 20
1401.779009116143
 30
0.0
 10
1339.037999488812
 20
1401.779009116143
 30
0.0
 10
1323.657805623887
 20
1401.779009116143
 30
0.0
 10
1307.466641602507
 20
1401.779009116143
 30
0.0
 10
1298.359157481569
 20
1401.779009116143
 30
0.0
 10
1296.335773376067
 20
1401.779009116143
 30
0.0
  0
LINE
  5
123
330
1F
100
AcDbEntity
  8
0
  6
Continuous
 62
     7
370
    35
100
AcDbLine
 10
1384.8357733761
 20
1441.7790091161
 30
0.0
 11
1384.8357733761
 21
1401.7790091161
 31
0.0
  0
SPLINE
  5
124
330
1F
100
AcDbEntity
  8
0
  6
Continuous
 62
     7
370
    35
100
AcDbSpline
210
0.0
220
0.0
230
1.0
 70
     8
 71
     3
 72
    10
 73
     6
 74
     0
 42
0.000000001
 43
0.00000001
 40
0.0
 40
0.0
 40
0.0
 40
0.0
 40
0.4996662810113345
 40
0.9790557875044539
 40
1.0
 40
1.0
 40
1.0
 40
1.0
 10
1379.312402798671
 20
1442.493656875976
 30
0.0
 10
1379.603807349893
 20
1442.292819688273
 30
0.0
 10
1380.17479107087
 20
1441.899295413292
 30
0.0
 10
1380.891021329611
 20
1441.780857759159
 30
0.0
 10
1381.241906093959
 20
1441.779083392014
 30
0.0
 10
1381.256594300623
 20
1441.779009116143
 30
0.0
  0
LINE
  5
125
330
1F
100
AcDbEntity
  8
0
  6
Continuous
 62
     7
370
    35
100
AcDbLine
 10
1243.3357733761
 20
1451.2790091161
 30
0.0
 11
1215.5357733761
 21
1451.2790091161
 31
0.0
  0
LINE
  5
126
330
1F
100
AcDbEntity
  8
0
  6
Continuous
 62
     7
370
    35
100
AcDbLine
 10
1349.3357733761
 20
1451.2790091161
 30
0.0
 11
1377.1357733761
 21
1451.2790091161
 31
0.0
  0
LINE
  5
127
330
1F
100
AcDbEntity
  8
0
  6
Continuous
 62
     7
370
    35
100
AcDbLine
 10
1384.8357733761
 20
1421.7790091161
 30
0.0
 11
1384.8357733761
 21
1441.7790091161
 31
0.0
  0
LINE
  5
128
330
1F
100
AcDbEntity
  8
0
  6
Continuous
 62
     7
370
    35
100
AcDbLine
 10
1384.8357733761
 20
1401.7790091161
 30
0.0
 11
1384.8357733761
 21
1421.7790091161
 31
0.0
  0
LINE
  5
129
330
1F
100
AcDbEntity
  8
0
  6
Continuous
 62
     7
370
    35
100
AcDbLine
 10
1429.8357733761
 20
1421.7790091161
 30
0.0
 11
1429.8357733761
 21
1440.7481082021
 31
0.0
  0
LINE
  5
12A
330
1F
100
AcDbEntity
  8
0
  6
Continuous
 62
     7
370
    35
100
AcDbLine
 10
1429.8357733761
 20
1402.8099100302
 30
0.0
 11
1429.8357733761
 21
1421.7790091161
 31
0.0
  0
LINE
  5
12B
330
1F
100
AcDbEntity
  8
0
  6
Continuous
 62
     7
370
    35
100
AcDbLine
 10
873.8357733761
 20
1458.2254476157
 30
0.0
 11
873.8357733761
 21
1459.2254476157
 31
0.0
  0
LINE
  5
12C
330
1F
100
AcDbEntity
  8
0
  6
Continuous
 62
     7
370
    35
100
AcDbLine
 10
873.8357733761
 20
1459.2254476157
 30
0.0
 11
883.8357733761
 21
1459.2254476157
 31
0.0
  0
LINE
  5
12D
330
1F
100
AcDbEntity
  8
0
  6
Continuous
 62
     7
370
    35
100
AcDbLine
 10
883.8357733761
 20
1458.2254476157
 30
0.0
 11
873.8357733761
 21
1458.2254476157
 31
0.0
  0
LINE
  5
12E
330
1F
100
AcDbEntity
  8
0
  6
Continuous
 62
     7
370
    35
100
AcDbLine
 10
906.3357733761
 20
1459.2254476157
 30
0.0
 11
883.8357733761
 21
1459.2254476157
 31
0.0
  0
LINE
  5
12F
330
1F
100
AcDbEntity
  8
0
  6
Continuous
 62
     7
370
    35
100
AcDbLine
 10
906.3357733761
 20
1458.2254476157
 30
0.0
 11
883.8357733761
 21
1458.2254476157
 31
0.0
  0
LINE
  5
130
330
1F
100
AcDbEntity
  8
0
  6
Continuous
 62
     7
370
    35
100
AcDbLine
 10
1718.8357733761
 20
1459.2254476157
 30
0.0
 11
1718.8357733761
 21
1458.2254476157
 31
0.0
  0
LINE
  5
131
330
1F
100
AcDbEntity
  8
0
  6
Continuous
 62
     7
370
    35
100
AcDbLine
 10
1718.8357733761
 20
1458.2254476157
 30
0.0
 11
1708.8357733761
 21
1458.2254476157
 31
0.0
  0
LINE
  5
132
330
1F
100
AcDbEntity
  8
0
  6
Continuous
 62
     7
370
    35
100
AcDbLine
 10
1708.8357733761
 20
1459.2254476157
 30
0.0
 11
1718.8357733761
 21
1459.2254476157
 31
0.0
  0
LINE
  5
133
330
1F
100
AcDbEntity
  8
0
  6
Continuous
 62
     7
370
    35
100
AcDbLine
 10
1708.8357733761
 20
1458.2254476157
 30
0.0
 11
1686.3357733761
 21
1458.2254476157
 31
0.0
  0
LINE
  5
134
330
1F
100
AcDbEntity
  8
0
  6
Continuous
 62
     7
370
    35
100
AcDbLine
 10
1708.8357733761
 20
1459.2254476157
 30
0.0
 11
1686.3357733761
 21
1459.2254476157
 31
0.0
  0
LINE
  5
135
330
1F
100
AcDbEntity
  8
0
  6
Continuous
 62
     7
370
    35
100
AcDbLine
 10
1686.3357733761
 20
1470.2254476157
 30
0.0
 11
1686.3357733761
 21
1460.2254476157
 31
0.0
  0
LINE
  5
136
330
1F
100
AcDbEntity
  8
0
  6
Continuous
 62
     7
370
    35
100
AcDbLine
 10
1688.3357733761
 20
1470.2254476157
 30
0.0
 11
1688.3357733761
 21
1459.2254476157
 31
0.0
  0
ARC
  5
137
330
1F
100
AcDbEntity
  8
0
  6
Continuous
 62
     7
370
    35
100
AcDbCircle
 10
1687.3357733761
 20
1470.2254476157
 30
0.0
 40
1.000000000000227
100
AcDbArc
 50
0.0
 51
180.0
  0
LINE
  5
138
330
1F
100
AcDbEntity
  8
0
  6
Continuous
 62
     7
370
    35
100
AcDbLine
 10
1686.3357733761
 20
1456.2913955596
 30
0.0
 11
1686.3357733761
 21
1452.4995881373
 31
0.0
  0
LINE
  5
139
330
1F
100
AcDbEntity
  8
0
  6
Continuous
 62
     7
370
    35
100
AcDbLine
 10
1688.3357733761
 20
1458.2254476157
 30
0.0
 11
1688.3357733761
 21
1452.4995881373
 31
0.0
  0
LINE
  5
13A
330
1F
100
AcDbEntity
  8
0
  6
Continuous
 62
     7
370
    35
100
AcDbLine
 10
1686.3357733761
 20
1450.6869725632
 30
0.0
 11
1686.3357733761
 21
1452.4995881373
 31
0.0
  0
LINE
  5
13B
330
1F
100
AcDbEntity
  8
0
  6
Continuous
 62
     7
370
    35
100
AcDbLine
 10
1688.3357733761
 20
1452.4995881373
 30
0.0
 11
1688.3357733761
 21
1450.6869725632
 31
0.0
  0
LINE
  5
13C
330
1F
100
AcDbEntity
  8
0
  6
Continuous
 62
     7
370
    35
100
AcDbLine
 10
1686.3357733761
 20
1450.6869725632
 30
0.0
 11
1686.3357733761
 21
1443.4286732786
 31
0.0
  0
LINE
  5
13D
330
1F
100
AcDbEntity
  8
0
  6
Continuous
 62
     7
370
    35
100
AcDbLine
 10
1688.3357733761
 20
1450.6869725632
 30
0.0
 11
1688.3357733761
 21
1443.4286732786
 31
0.0
  0
LINE
  5
13E
330
1F
100
AcDbEntity
  8
0
  6
Continuous
 62
     7
370
    35
100
AcDbLine
 10
1686.3357733761
 20
1441.6160577046
 30
0.0
 11
1686.3357733761
 21
1443.4286732786
 31
0.0
  0
LINE
  5
13F
330
1F
100
AcDbEntity
  8
0
  6
Continuous
 62
     7
370
    35
100
AcDbLine
 10
1688.3357733761
 20
1443.4286732786
 30
0.0
 11
1688.3357733761
 21
1441.6160577046
 31
0.0
  0
LINE
  5
140
330
1F
100
AcDbEntity
  8
0
  6
Continuous
 62
     7
370
    35
100
AcDbLine
 10
1686.3357733761
 20
1441.6160577046
 30
0.0
 11
1686.3357733761
 21
1407.3254476157
 31
0.0
  0
LINE
  5
141
330
1F
100
AcDbEntity
  8
0
  6
Continuous
 62
     7
370
    35
100
AcDbLine
 10
1688.3357733761
 20
1441.6160577046
 30
0.0
 11
1688.3357733761
 21
1407.3254476157
 31
0.0
  0
LINE
  5
142
330
1F
100
AcDbEntity
  8
0
  6
Continuous
 62
     7
370
    35
100
AcDbLine
 10
1688.3357733761
 20
1405.3254476157
 30
0.0
 11
1686.3357733761
 21
1405.3254476157
 31
0.0
  0
LINE
  5
143
330
1F
100
AcDbEntity
  8
0
  6
Continuous
 62
     7
370
    35
100
AcDbLine
 10
1686.3357733761
 20
1405.3254476157
 30
0.0
 11
1686.3357733761
 21
1407.3254476157
 31
0.0
  0
LINE
  5
144
330
1F
100
AcDbEntity
  8
0
  6
Continuous
 62
     7
370
    35
100
AcDbLine
 10
1688.3357733761
 20
1407.3254476157
 30
0.0
 11
1688.3357733761
 21
1405.3254476157
 31
0.0
  0
LINE
  5
145
330
1F
100
AcDbEntity
  8
0
  6
Continuous
 62
     7
370
    35
100
AcDbLine
 10
904.3357733761
 20
1459.2254476157
 30
0.0
 11
904.3357733761
 21
1470.2254476157
 31
0.0
  0
ARC
  5
146
330
1F
100
AcDbEntity
  8
0
  6
Continuous
 62
     7
370
    35
100
AcDbCircle
 10
905.3357733761
 20
1470.2254476157
 30
0.0
 40
1.000000000000114
100
AcDbArc
 50
0.0
 51
180.0
  0
LINE
  5
147
330
1F
100
AcDbEntity
  8
0
  6
Continuous
 62
     7
370
    35
100
AcDbLine
 10
906.3357733761
 20
1460.2254476157
 30
0.0
 11
906.3357733761
 21
1470.2254476157
 31
0.0
  0
LINE
  5
148
330
1F
100
AcDbEntity
  8
0
  6
Continuous
 62
     7
370
    35
100
AcDbLine
 10
904.3357733761
 20
1452.4995881373
 30
0.0
 11
904.3357733761
 21
1458.2254476157
 31
0.0
  0
LINE
  5
149
330
1F
100
AcDbEntity
  8
0
  6
Continuous
 62
     7
370
    35
100
AcDbLine
 10
906.3357733761
 20
1452.4995881373
 30
0.0
 11
906.3357733761
 21
1456.2913955596
 31
0.0
  0
LINE
  5
14A
330
1F
100
AcDbEntity
  8
0
  6
Continuous
 62
     7
370
    35
100
AcDbLine
 10
904.3357733761
 20
1450.6869725632
 30
0.0
 11
904.3357733761
 21
1452.4995881373
 31
0.0
  0
LINE
  5
14B
330
1F
100
AcDbEntity
  8
0
  6
Continuous
 62
     7
370
    35
100
AcDbLine
 10
906.3357733761
 20
1452.4995881373
 30
0.0
 11
906.3357733761
 21
1450.6869725632
 31
0.0
  0
LINE
  5
14C
330
1F
100
AcDbEntity
  8
0
  6
Continuous
 62
     7
370
    35
100
AcDbLine
 10
904.3357733761
 20
1443.4286732786
 30
0.0
 11
904.3357733761
 21
1450.6869725632
 31
0.0
  0
LINE
  5
14D
330
1F
100
AcDbEntity
  8
0
  6
Continuous
 62
     7
370
    35
100
AcDbLine
 10
906.3357733761
 20
1443.4286732786
 30
0.0
 11
906.3357733761
 21
1450.6869725632
 31
0.0
  0
LINE
  5
14E
330
1F
100
AcDbEntity
  8
0
  6
Continuous
 62
     7
370
    35
100
AcDbLine
 10
904.3357733761
 20
1441.6160577046
 30
0.0
 11
904.3357733761
 21
1443.4286732786
 31
0.0
  0
LINE
  5
14F
330
1F
100
AcDbEntity
  8
0
  6
Continuous
 62
     7
370
    35
100
AcDbLine
 10
906.3357733761
 20
1443.4286732786
 30
0.0
 11
906.3357733761
 21
1441.6160577046
 31
0.0
  0
LINE
  5
150
330
1F
100
AcDbEntity
  8
0
  6
Continuous
 62
     7
370
    35
100
AcDbLine
 10
904.3357733761
 20
1407.3254476157
 30
0.0
 11
904.3357733761
 21
1441.6160577046
 31
0.0
  0
LINE
  5
151
330
1F
100
AcDbEntity
  8
0
  6
Continuous
 62
     7
370
    35
100
AcDbLine
 10
906.3357733761
 20
1407.3254476157
 30
0.0
 11
906.3357733761
 21
1441.6160577046
 31
0.0
  0
LINE
  5
152
330
1F
100
AcDbEntity
  8
0
  6
Continuous
 62
     7
370
    35
100
AcDbLine
 10
906.3357733761
 20
1405.3254476157
 30
0.0
 11
904.3357733761
 21
1405.3254476157
 31
0.0
  0
LINE
  5
153
330
1F
100
AcDbEntity
  8
0
  6
Continuous
 62
     7
370
    35
100
AcDbLine
 10
904.3357733761
 20
1405.3254476157
 30
0.0
 11
904.3357733761
 21
1407.3254476157
 31
0.0
  0
LINE
  5
154
330
1F
100
AcDbEntity
  8
0
  6
Continuous
 62
     7
370
    35
100
AcDbLine
 10
906.3357733761
 20
1407.3254476157
 30
0.0
 11
906.3357733761
 21
1405.3254476157
 31
0.0
  0
LINE
  5
155
330
1F
100
AcDbEntity
  8
0
  6
Continuous
 62
     8
370
    18
100
AcDbLine
 10
1686.3357733761
 20
1460.2254476157
 30
0.0
 11
906.3357733761
 21
1460.2254476157
 31
0.0
  0
LINE
  5
156
330
1F
100
AcDbEntity
  8
0
  6
Continuous
 62
     8
370
    18
100
AcDbLine
 10
906.3357733761
 20
1469.7254476157
 30
0.0
 11
1686.3357733761
 21
1469.7254476157
 31
0.0
  0
LINE
  5
157
330
1F
100
AcDbEntity
  8
0
  6
Continuous
 62
     8
370
    18
100
AcDbLine
 10
906.3357733761
 20
1456.987366105
 30
0.0
 11
1686.3357733761
 21
1456.987366105
 31
0.0
  0
LINE
  5
158
330
1F
100
AcDbEntity
  8
0
  6
Continuous
 62
     8
370
    18
100
AcDbLine
 10
906.3357733761
 20
1454.9905827639
 30
0.0
 11
1686.3357733761
 21
1454.9905827639
 31
0.0
  0
LINE
  5
159
330
1F
100
AcDbEntity
  8
0
  6
Continuous
 62
     8
370
    18
100
AcDbLine
 10
906.3357733761
 20
1453.2302751949
 30
0.0
 11
1213.4643105967
 21
1453.2302751949
 31
0.0
  0
LINE
  5
15A
330
1F
100
AcDbEntity
  8
0
  6
Continuous
 62
     8
370
    18
100
AcDbLine
 10
1379.2072361554
 20
1453.2302751949
 30
0.0
 11
1686.3357733761
 21
1453.2302751949
 31
0.0
  0
SPLINE
  5
15B
330
1F
100
AcDbEntity
  8
0
  6
Continuous
 62
     8
370
    18
100
AcDbSpline
210
0.0
220
0.0
230
1.0
 70
     8
 71
     3
 72
    10
 73
     6
 74
     0
 42
0.000000001
 43
0.00000001
 40
0.0
 40
0.0
 40
0.0
 40
0.0
 40
0.5
 40
0.5
 40
1.0
 40
1.0
 40
1.0
 40
1.0
 10
1243.335773376067
 20
1453.004376029266
 30
0.0
 10
1242.268961118722
 20
1453.004376029266
 30
0.0
 10
1241.209443707266
 20
1452.985923412408
 30
0.0
 10
1239.104317272438
 20
1452.932899806012
 30
0.0
 10
1238.058704951731
 20
1452.898429828891
 30
0.0
 10
1237.019661268972
 20
1452.883792692948
 30
0.0
  0
ARC
  5
15C
330
1F
100
AcDbEntity
  8
0
  6
Continuous
 62
     8
370
    18
100
AcDbCircle
 10
1233.8490976955
 20
1453.2453838722
 30
0.0
 40
3.191116035873438
100
AcDbArc
 50
353.4937367838
 51
30.6135263841
  0
LINE
  5
15D
330
1F
100
AcDbEntity
  8
0
  6
Continuous
 62
     8
370
    18
100
AcDbLine
 10
1243.3357733761
 20
1453.0043760293
 30
0.0
 11
1243.3357733761
 21
1454.8894104629
 31
0.0
  0
SPLINE
  5
15E
330
1F
100
AcDbEntity
  8
0
  6
Continuous
 62
     8
370
    18
100
AcDbSpline
210
0.0
220
0.0
230
1.0
 70
     8
 71
     3
 72
    10
 73
     6
 74
     0
 42
0.000000001
 43
0.00000001
 40
0.0
 40
0.0
 40
0.0
 40
0.0
 40
0.5
 40
0.5
 40
1.0
 40
1.0
 40
1.0
 40
1.0
 10
1355.651885483163
 20
1452.883792693083
 30
0.0
 10
1354.612841800404
 20
1452.898429829027
 30
0.0
 10
1353.567229479697
 20
1452.932899806012
 30
0.0
 10
1351.462103044869
 20
1452.985923412408
 30
0.0
 10
1350.402585633409
 20
1453.00437602897
 30
0.0
 10
1349.335773376065
 20
1453.00437602897
 30
0.0
  0
LINE
  5
15F
330
1F
100
AcDbEntity
  8
0
  6
Continuous
 62
     8
370
    18
100
AcDbLine
 10
1349.3357733761
 20
1453.0043760292
 30
0.0
 11
1349.3357733761
 21
1454.8894104629
 31
0.0
  0
ARC
  5
160
330
1F
100
AcDbEntity
  8
0
  6
Continuous
 62
     8
370
    18
100
AcDbCircle
 10
1358.8224490563
 20
1453.2453838722
 30
0.0
 40
3.191116035541935
100
AcDbArc
 50
149.386473613
 51
186.5062632177
  0
LINE
  5
161
330
1F
100
AcDbEntity
  8
0
  6
Continuous
 62
     8
370
    18
100
AcDbLine
 10
1349.3357733761
 20
1453.0043760292
 30
0.0
 11
1243.3357733761
 21
1453.0043760293
 31
0.0
  0
ELLIPSE
  5
162
330
1F
100
AcDbEntity
  8
0
  6
Continuous
 62
     8
370
    18
100
AcDbEllipse
 10
1349.3357733761
 20
1451.2241763551
 30
0.0
 11
28.0
 21
0.0
 31
0.0
210
0.0
220
0.0
230
1.0
 40
0.0608401234
 41
0.0094489386178836
 42
1.343262674843491
  0
ARC
  5
163
330
1F
100
AcDbEntity
  8
0
  6
Continuous
 62
     8
370
    18
100
AcDbCircle
 10
1379.3339243252
 20
1451.2375655464
 30
0.0
 40
1.999402726574198
100
AcDbArc
 50
93.4033047991
 51
179.9224253183
  0
ELLIPSE
  5
164
330
1F
100
AcDbEntity
  8
0
  6
Continuous
 62
     8
370
    18
100
AcDbEllipse
 10
1243.3357733761
 20
1451.2241763551
 30
0.0
 11
28.0
 21
0.0
 31
0.0
210
0.0
220
0.0
230
1.0
 40
0.0608401234
 41
1.798329978746294
 42
3.132143714971907
  0
ARC
  5
165
330
1F
100
AcDbEntity
  8
0
  6
Continuous
 62
     8
370
    18
100
AcDbCircle
 10
1213.3376224269
 20
1451.2375655464
 30
0.0
 40
1.999402726573743
100
AcDbArc
 50
0.0775746817
 51
86.5966952046
  0
LINE
  5
166
330
1F
100
AcDbEntity
  8
0
  6
Continuous
 62
     8
370
    18
100
AcDbLine
 10
1243.3357733761
 20
1453.0043760293
 30
0.0
 11
1243.3357733761
 21
1448.2290091163
 31
0.0
  0
LINE
  5
167
330
1F
100
AcDbEntity
  8
0
  6
Continuous
 62
     8
370
    18
100
AcDbLine
 10
1349.3357733761
 20
1453.0043760292
 30
0.0
 11
1349.3357733761
 21
1448.2290091163
 31
0.0
  0
ARC
  5
168
330
1F
100
AcDbEntity
  8
0
  6
Continuous
 62
     8
370
    18
100
AcDbCircle
 10
1296.3357733761
 20
1421.7790091161
 30
0.0
 40
8.999999999999964
100
AcDbArc
 50
242.7578274734
 51
297.2421725266
  0
LINE
  5
169
330
1F
100
AcDbEntity
  8
0
  6
Continuous
 62
     8
370
    18
100
AcDbLine
 10
1300.4555454945
 20
1413.7772919447
 30
0.0
 11
1305.4908225282
 21
1403.9974154018
 31
0.0
  0
LINE
  5
16A
330
1F
100
AcDbEntity
  8
0
  6
Continuous
 62
     8
370
    18
100
AcDbLine
 10
1292.2160012576
 20
1413.7772919447
 30
0.0
 11
1287.180724224
 21
1403.9974154018
 31
0.0
  0
SPLINE
  5
16B
330
1F
100
AcDbEntity
  8
0
  6
Continuous
 62
     8
370
    18
100
AcDbSpline
210
0.0
220
0.0
230
1.0
 70
     8
 71
     3
 72
    11
 73
     7
 74
     0
 42
0.000000001
 43
0.00000001
 40
0.0
 40
0.0
 40
0.0
 40
0.0
 40
0.2086522750570999
 40
0.4180461498251485
 40
0.7071398446856842
 40
1.0
 40
1.0
 40
1.0
 40
1.0
 10
1287.180724223961
 20
1403.997415401785
 30
0.0
 10
1286.657099121569
 20
1404.278391993926
 30
0.0
 10
1285.607987828884
 20
1404.84134383571
 30
0.0
 10
1283.897611871628
 20
1405.956401820161
 30
0.0
 10
1282.051433498253
 20
1407.364855098626
 30
0.0
 10
1280.836916830708
 20
1408.641542885768
 30
0.0
 10
1280.225728263466
 20
1409.284018201496
 30
0.0
  0
LINE
  5
16C
330
1F
100
AcDbEntity
  8
0
  6
Continuous
 62
     8
370
    18
100
AcDbLine
 10
1280.2257282635
 20
1409.2840182015
 30
0.0
 11
1286.1081693489
 21
1417.2581769971
 31
0.0
  0
SPLINE
  5
16D
330
1F
100
AcDbEntity
  8
0
  6
Continuous
 62
     8
370
    18
100
AcDbSpline
210
0.0
220
0.0
230
1.0
 70
     8
 71
     3
 72
     9
 73
     5
 74
     0
 42
0.000000001
 43
0.00000001
 40
0.0
 40
0.0
 40
0.0
 40
0.0
 40
0.4979466281839556
 40
1.0
 40
1.0
 40
1.0
 40
1.0
 10
1286.108169348915
 20
1417.258176997077
 30
0.0
 10
1287.091744343483
 20
1416.627409501519
 30
0.0
 10
1289.067006226781
 20
1415.360672345657
 30
0.0
 10
1291.163466372555
 20
1414.306528444591
 30
0.0
 10
1292.216001257619
 20
1413.777291944682
 30
0.0
  0
SPLINE
  5
16E
330
1F
100
AcDbEntity
  8
0
  6
Continuous
 62
     8
370
    18
100
AcDbSpline
210
0.0
220
0.0
230
1.0
 70
     8
 71
     3
 72
     9
 73
     5
 74
     0
 42
0.000000001
 43
0.00000001
 40
0.0
 40
0.0
 40
0.0
 40
0.0
 40
0.499262191895927
 40
1.0
 40
1.0
 40
1.0
 40
1.0
 10
1300.455545494515
 20
1413.777291944682
 30
0.0
 10
1301.502193253712
 20
1414.303624561142
 30
0.0
 10
1303.598582237669
 20
1415.357845419447
 30
0.0
 10
1305.574140626044
 20
1416.624110297541
 30
0.0
 10
1306.56337740322
 20
1417.258176997077
 30
0.0
  0
LINE
  5
16F
330
1F
100
AcDbEntity
  8
0
  6
Continuous
 62
     8
370
    18
100
AcDbLine
 10
1312.4458184887
 20
1409.2840182015
 30
0.0
 11
1306.5633774032
 21
1417.2581769971
 31
0.0
  0
SPLINE
  5
170
330
1F
100
AcDbEntity
  8
0
  6
Continuous
 62
     8
370
    18
100
AcDbSpline
210
0.0
220
0.0
230
1.0
 70
     8
 71
     3
 72
    10
 73
     6
 74
     0
 42
0.000000001
 43
0.00000001
 40
0.0
 40
0.0
 40
0.0
 40
0.0
 40
0.0076204656895131
 40
0.4952213558631335
 40
1.0
 40
1.0
 40
1.0
 40
1.0
 10
1312.445818488668
 20
1409.284018201497
 30
0.0
 10
1312.430473135751
 20
1409.266591172629
 30
0.0
 10
1311.433244516476
 20
1408.134083368435
 30
0.0
 10
1309.212617181169
 20
1406.111000933309
 30
0.0
 10
1306.74565484031
 20
1404.710027371735
 30
0.0
 10
1305.490822528174
 20
1403.997415401785
 30
0.0
  0
SPLINE
  5
171
330
1F
100
AcDbEntity
  8
0
  6
Continuous
 62
     8
370
    18
100
AcDbSpline
210
0.0
220
0.0
230
1.0
 70
     8
 71
     3
 72
    21
 73
    17
 74
     0
 42
0.000000001
 43
0.00000001
 40
0.0
 40
0.0
 40
0.0
 40
0.0
 40
0.0575996839374351
 40
0.1356930566382781
 40
0.2164055400301527
 40
0.2512185653939518
 40
0.3293048865225197
 40
0.4092636364585415
 40
0.4704678040649287
 40
0.526158209535769
 40
0.5829972309833087
 40
0.6699291064424846
 40
0.7487170988516958
 40
0.8394997107027559
 40
0.9180548896099048
 40
1.0
 40
1.0
 40
1.0
 40
1.0
 10
1296.33577337548
 20
1441.780373329758
 30
0.0
 10
1297.240673479143
 20
1441.743879783912
 30
0.0
 10
1299.372432763652
 20
1441.657908465236
 30
0.0
 10
1302.621383284682
 20
1440.89475029403
 30
0.0
 10
1305.35951540018
 20
1439.754882040899
 30
0.0
 10
1307.906411543567
 20
1438.296060481131
 30
0.0
 10
1310.240542172014
 20
1436.570221751316
 30
0.0
 10
1312.539206227795
 20
1434.235131702248
 30
0.0
 10
1314.280503781989
 20
1431.906245208849
 30
0.0
 10
1315.538163680701
 20
1429.614610882958
 30
0.0
 10
1316.643765969975
 20
1426.764893509677
 30
0.0
 10
1317.319531093623
 20
1423.33486960934
 30
0.0
 10
1317.239340612445
 20
1419.267126510277
 30
0.0
 10
1316.304084933562
 20
1415.4819557133
 30
0.0
 10
1314.655217454088
 20
1412.033592136435
 30
0.0
 10
1313.192582264556
 20
1410.213357920522
 30
0.0
 10
1312.445818488668
 20
1409.284018201497
 30
0.0
  0
SPLINE
  5
172
330
1F
100
AcDbEntity
  8
0
  6
Continuous
 62
     8
370
    18
100
AcDbSpline
210
0.0
220
0.0
230
1.0
 70
     8
 71
     3
 72
    17
 73
    13
 74
     0
 42
0.000000001
 43
0.00000001
 40
0.0
 40
0.0
 40
0.0
 40
0.0
 40
0.0789144527054628
 40
0.157159304448163
 40
0.2135614770373518
 40
0.2600875689337676
 40
0.3261379151498182
 40
0.42876972852278
 40
0.5974697941885976
 40
0.766123740051627
 40
0.9416481750856454
 40
1.0
 40
1.0
 40
1.0
 40
1.0
 10
1306.56337740322
 20
1417.258176997077
 30
0.0
 10
1307.035899953673
 20
1417.620122577066
 30
0.0
 10
1307.976935629893
 20
1418.340942574531
 30
0.0
 10
1309.053351358449
 20
1419.559242901109
 30
0.0
 10
1309.62764009347
 20
1420.835157047616
 30
0.0
 10
1309.621482132643
 20
1422.136945726878
 30
0.0
 10
1309.042769933704
 20
1423.685193248843
 30
0.0
 10
1307.411534883893
 20
1425.675492585382
 30
0.0
 10
1304.824629609144
 20
1427.774036141476
 30
0.0
 10
1301.488495125905
 20
1429.742298543459
 30
0.0
 10
1298.542132770846
 20
1430.693827506752
 30
0.0
 10
1296.779414641294
 20
1430.767090767736
 30
0.0
 10
1296.339618743704
 20
1430.785369856766
 30
0.0
  0
LWPOLYLINE
  5
173
330
1F
100
AcDbEntity
  8
0
  6
Continuous
 62
     8
370
    18
100
AcDbPolyline
 90
        9
 70
   128
 43
0.0
 10
1296.3357733755
 20
1441.7803733298
 10
1296.3371527018
 20
1441.5136362237
 10
1296.3383388576
 20
1440.8502478198
 10
1296.3392879875
 20
1439.814735288
 10
1296.339965
 20
1438.4453841807
 10
1296.340344864
 20
1436.7928229187
 10
1296.340413535
 20
1434.9181509278
 10
1296.3401684741
 20
1432.8906796369
 10
1296.3396187437
 20
1430.7853698568
  0
SPLINE
  5
174
330
1F
100
AcDbEntity
  8
0
  6
Continuous
 62
     8
370
    18
100
AcDbSpline
210
0.0
220
0.0
230
1.0
 70
     8
 71
     3
 72
    20
 73
    16
 74
     0
 42
0.000000001
 43
0.00000001
 40
0.0
 40
0.0
 40
0.0
 40
0.0
 40
0.0991423914481115
 40
0.1909579967922172
 40
0.2834490201131825
 40
0.3743163084071863
 40
0.4461862568119867
 40
0.5184421762495501
 40
0.590832217983912
 40
0.6638400079808533
 40
0.7368167649629366
 40
0.8091054166526844
 40
0.8751601672161242
 40
0.9411263593187081
 40
1.0
 40
1.0
 40
1.0
 40
1.0
 10
1280.225728263466
 20
1409.284018201496
 30
0.0
 10
1279.330952581451
 20
1410.420346691151
 30
0.0
 10
1277.607526614815
 20
1412.609027122528
 30
0.0
 10
1275.958502012705
 20
1416.661839957973
 30
0.0
 10
1275.259184339654
 20
1420.962128371159
 30
0.0
 10
1275.585641731538
 20
1424.995877732651
 30
0.0
 10
1276.61161286518
 20
1428.495828890559
 30
0.0
 10
1278.065723773769
 20
1431.431309898353
 30
0.0
 10
1279.960643707335
 20
1434.046245463854
 30
0.0
 10
1282.235899884076
 20
1436.375835161251
 30
0.0
 10
1284.831182735147
 20
1438.376089657231
 30
0.0
 10
1287.650474730648
 20
1439.94069482737
 30
0.0
 10
1290.575926303265
 20
1441.022323138151
 30
0.0
 10
1293.450298563036
 20
1441.663250963405
 30
0.0
 10
1295.411081222539
 20
1441.742839772843
 30
0.0
 10
1296.33577337548
 20
1441.780373329758
 30
0.0
  0
SPLINE
  5
175
330
1F
100
AcDbEntity
  8
0
  6
Continuous
 62
     8
370
    18
100
AcDbSpline
210
0.0
220
0.0
230
1.0
 70
     8
 71
     3
 72
    19
 73
    15
 74
     0
 42
0.000000001
 43
0.00000001
 40
0.0
 40
0.0
 40
0.0
 40
0.0
 40
0.0003400432997567
 40
0.1018635778277048
 40
0.2035434036526504
 40
0.3480218784455772
 40
0.4928620408160625
 40
0.5714933381061477
 40
0.6496296261320142
 40
0.7087399627822194
 40
0.7683238584295661
 40
0.8224306267254518
 40
0.892610163227093
 40
1.0
 40
1.0
 40
1.0
 40
1.0
 10
1296.339618743704
 20
1430.785369856766
 30
0.0
 10
1296.337055170491
 20
1430.785372066618
 30
0.0
 10
1295.569109618328
 20
1430.786034051207
 30
0.0
 10
1294.030570380341
 20
1430.616597098392
 30
0.0
 10
1291.517039603766
 20
1429.83113822618
 30
0.0
 10
1288.901800383386
 20
1428.430981444216
 30
0.0
 10
1286.676359492375
 20
1426.765239606223
 30
0.0
 10
1284.957789962973
 20
1425.27538927007
 30
0.0
 10
1283.889483734257
 20
1424.027299550763
 30
0.0
 10
1283.222519864265
 20
1422.691548711846
 30
0.0
 10
1282.958540554343
 20
1421.378777852399
 30
0.0
 10
1283.341161318123
 20
1420.002837480384
 30
0.0
 10
1284.414747133777
 20
1418.588753005217
 30
0.0
 10
1285.469985605912
 20
1417.759618379878
 30
0.0
 10
1286.108169348915
 20
1417.258176997077
 30
0.0
  0
SPLINE
  5
176
330
1F
100
AcDbEntity
  8
0
  6
Continuous
 62
     8
370
    18
100
AcDbSpline
210
0.0
220
0.0
230
1.0
 70
     8
 71
     3
 72
    12
 73
     8
 74
     0
 42
0.000000001
 43
0.00000001
 40
0.0
 40
0.0
 40
0.0
 40
0.0
 40
0.000006074466645
 40
0.3341227654086629
 40
0.6739443301614003
 40
0.9999939255333558
 40
1.0
 40
1.0
 40
1.0
 40
1.0
 10
1296.335773376067
 20
1442.449573527588
 30
0.0
 10
1296.335793373885
 20
1442.44957345893
 30
0.0
 10
1297.435762574699
 20
1442.445796929367
 30
0.0
 10
1299.654976812621
 20
1442.334888072442
 30
0.0
 10
1302.874218082713
 20
1441.87103735431
 30
0.0
 10
1304.973365817664
 20
1441.381403063545
 30
0.0
 10
1305.988203666522
 20
1441.090041124297
 30
0.0
 10
1305.988222573105
 20
1441.090035696179
 30
0.0
  0
SPLINE
  5
177
330
1F
100
AcDbEntity
  8
0
  6
Continuous
 62
     8
370
    18
100
AcDbSpline
210
0.0
220
0.0
230
1.0
 70
     8
 71
     3
 72
    12
 73
     8
 74
     0
 42
0.000000001
 43
0.00000001
 40
0.0
 40
0.0
 40
0.0
 40
0.0
 40
0.0000045934025293
 40
0.4143885673284364
 40
0.7037780019579073
 40
0.999995349056934
 40
1.0
 40
1.0
 40
1.0
 40
1.0
 10
1305.988222573105
 20
1441.090035696179
 30
0.0
 10
1305.988240005234
 20
1441.090027907003
 30
0.0
 10
1307.56085958139
 20
1440.387336253654
 30
0.0
 10
1310.07558814292
 20
1438.913015546993
 30
0.0
 10
1313.112295131669
 20
1436.252005424263
 30
0.0
 10
1314.605623660707
 20
1434.445059946265
 30
0.0
 10
1315.27866973071
 20
1433.482589289825
 30
0.0
 10
1315.278680298119
 20
1433.482574178198
 30
0.0
  0
SPLINE
  5
178
330
1F
100
AcDbEntity
  8
0
  6
Continuous
 62
     8
370
    18
100
AcDbSpline
210
0.0
220
0.0
230
1.0
 70
     8
 71
     3
 72
    17
 73
    13
 74
     0
 42
0.000000001
 43
0.00000001
 40
0.0
 40
0.0
 40
0.0
 40
0.0
 40
0.0000021433935779
 40
0.1041532548279328
 40
0.2108142976269816
 40
0.3091075186364254
 40
0.4099627238957786
 40
0.5117652441981445
 40
0.6173565118270766
 40
0.7189536236524925
 40
0.8238769623572215
 40
1.0
 40
1.0
 40
1.0
 40
1.0
 10
1315.278680298119
 20
1433.482574178198
 30
0.0
 10
1315.278691712582
 20
1433.482559594028
 30
0.0
 10
1315.833351136682
 20
1432.773875523955
 30
0.0
 10
1316.86657127702
 20
1431.239234293068
 30
0.0
 10
1318.066739099915
 20
1428.735886931423
 30
0.0
 10
1318.894938052101
 20
1426.060921179824
 30
0.0
 10
1319.339211772259
 20
1423.303114960401
 30
0.0
 10
1319.373622603752
 20
1420.415907310403
 30
0.0
 10
1318.953354582465
 20
1417.556530223899
 30
0.0
 10
1318.091503148144
 20
1414.822935844664
 30
0.0
 10
1316.599001447154
 20
1411.719202848951
 30
0.0
 10
1315.055857062921
 20
1409.87597081843
 30
0.0
 10
1314.088816391539
 20
1408.720874536761
 30
0.0
  0
ARC
  5
179
330
1F
100
AcDbEntity
  8
0
  6
Continuous
 62
     8
370
    18
100
AcDbCircle
 10
1312.1539410703
 20
1405.7541188902
 30
0.0
 40
3.541946015254391
100
AcDbArc
 50
56.8881881133
 51
85.2731268279
  0
SPLINE
  5
17A
330
1F
100
AcDbEntity
  8
0
  6
Continuous
 62
     8
370
    18
100
AcDbSpline
210
0.0
220
0.0
230
1.0
 70
     8
 71
     3
 72
     9
 73
     5
 74
     0
 42
0.000000001
 43
0.00000001
 40
0.0
 40
0.0
 40
0.0
 40
0.0
 40
0.4770884652791004
 40
1.0
 40
1.0
 40
1.0
 40
1.0
 10
1296.33577337548
 20
1441.780373329758
 30
0.0
 10
1296.335773375725
 20
1441.814952300352
 30
0.0
 10
1296.335773376239
 20
1441.887431459063
 30
0.0
 10
1296.335773376126
 20
1442.256554717842
 30
0.0
 10
1296.335773376067
 20
1442.449573527591
 30
0.0
  0
SPLINE
  5
17B
330
1F
100
AcDbEntity
  8
0
  6
Continuous
 62
     8
370
    18
100
AcDbSpline
210
0.0
220
0.0
230
1.0
 70
     8
 71
     3
 72
    13
 73
     9
 74
     0
 42
0.000000001
 43
0.00000001
 40
0.0
 40
0.0
 40
0.0
 40
0.0
 40
0.1436817584227079
 40
0.2896128899910152
 40
0.4254711377184161
 40
0.5627814455502989
 40
0.7787239735870486
 40
1.0
 40
1.0
 40
1.0
 40
1.0
 10
1262.735264848441
 20
1413.755430158649
 30
0.0
 10
1262.754306047406
 20
1414.6881557939
 30
0.0
 10
1262.792686539972
 20
1416.568209112838
 30
0.0
 10
1262.858099007021
 20
1419.422966263175
 30
0.0
 10
1262.90732025389
 20
1422.246950902581
 30
0.0
 10
1262.944159636062
 20
1425.524037985962
 30
0.0
 10
1262.918327998244
 20
1429.340271996059
 30
0.0
 10
1262.863829353871
 20
1432.048871390717
 30
0.0
 10
1262.836247625354
 20
1433.419691784991
 30
0.0
  0
ARC
  5
17C
330
1F
100
AcDbEntity
  8
0
  6
Continuous
 62
     8
370
    18
100
AcDbCircle
 10
1262.5098038913
 20
1405.6860443534
 30
0.0
 40
8.072534912692726
100
AcDbArc
 50
88.399555844
 51
102.2537357991
  0
SPLINE
  5
17D
330
1F
100
AcDbEntity
  8
0
  6
Continuous
 62
     8
370
    18
100
AcDbSpline
210
0.0
220
0.0
230
1.0
 70
     8
 71
     3
 72
    13
 73
     9
 74
     0
 42
0.000000001
 43
0.00000001
 40
0.0
 40
0.0
 40
0.0
 40
0.0
 40
0.2149368602724791
 40
0.4364871802266571
 40
0.5720189549561242
 40
0.709105868689235
 40
0.8535021383530069
 40
1.0
 40
1.0
 40
1.0
 40
1.0
 10
1260.779354095434
 20
1433.753772042812
 30
0.0
 10
1260.781007553257
 20
1432.394980635859
 30
0.0
 10
1260.784365344666
 20
1429.635588742887
 30
0.0
 10
1260.786583425105
 20
1425.729537819907
 30
0.0
 10
1260.793856779761
 20
1422.319152409199
 30
0.0
 10
1260.797056792487
 20
1419.429197570397
 30
0.0
 10
1260.79754187155
 20
1416.482727524899
 30
0.0
 10
1260.796834239732
 20
1414.548676674073
 30
0.0
 10
1260.796477867647
 20
1413.574664882615
 30
0.0
  0
ARC
  5
17E
330
1F
100
AcDbEntity
  8
0
  6
Continuous
 62
     8
370
    18
100
AcDbCircle
 10
1262.6621934089
 20
1438.847128073
 30
0.0
 40
5.430226471414697
100
AcDbArc
 50
249.71237279
 51
271.8368074448
  0
SPLINE
  5
17F
330
1F
100
AcDbEntity
  8
0
  6
Continuous
 62
     8
370
    18
100
AcDbSpline
210
0.0
220
0.0
230
1.0
 70
     8
 71
     3
 72
    13
 73
     9
 74
     0
 42
0.000000001
 43
0.00000001
 40
0.0
 40
0.0
 40
0.0
 40
0.0
 40
0.2149368602724791
 40
0.4364871802266571
 40
0.5720189549561242
 40
0.709105868689235
 40
0.8535021383530069
 40
1.0
 40
1.0
 40
1.0
 40
1.0
 10
1331.892192656701
 20
1433.753772042812
 30
0.0
 10
1331.890539198878
 20
1432.394980635859
 30
0.0
 10
1331.887181407469
 20
1429.635588742887
 30
0.0
 10
1331.88496332703
 20
1425.729537819907
 30
0.0
 10
1331.877689972374
 20
1422.319152409199
 30
0.0
 10
1331.874489959648
 20
1419.429197570397
 30
0.0
 10
1331.874004880585
 20
1416.482727524899
 30
0.0
 10
1331.874712512403
 20
1414.548676674073
 30
0.0
 10
1331.875068884488
 20
1413.574664882615
 30
0.0
  0
ARC
  5
180
330
1F
100
AcDbEntity
  8
0
  6
Continuous
 62
     8
370
    18
100
AcDbCircle
 10
1330.1617428609
 20
1405.6860443534
 30
0.0
 40
8.072534912690012
100
AcDbArc
 50
77.7462642009
 51
91.600444156
  0
SPLINE
  5
181
330
1F
100
AcDbEntity
  8
0
  6
Continuous
 62
     8
370
    18
100
AcDbSpline
210
0.0
220
0.0
230
1.0
 70
     8
 71
     3
 72
    13
 73
     9
 74
     0
 42
0.000000001
 43
0.00000001
 40
0.0
 40
0.0
 40
0.0
 40
0.0
 40
0.1436817584227079
 40
0.2896128899910152
 40
0.4254711377184161
 40
0.5627814455502989
 40
0.7787239735870486
 40
1.0
 40
1.0
 40
1.0
 40
1.0
 10
1329.936281903694
 20
1413.755430158649
 30
0.0
 10
1329.917240704729
 20
1414.6881557939
 30
0.0
 10
1329.878860212163
 20
1416.568209112838
 30
0.0
 10
1329.813447745114
 20
1419.422966263175
 30
0.0
 10
1329.764226498245
 20
1422.246950902581
 30
0.0
 10
1329.727387116073
 20
1425.524037985962
 30
0.0
 10
1329.753218753891
 20
1429.340271996059
 30
0.0
 10
1329.807717398264
 20
1432.048871390717
 30
0.0
 10
1329.835299126781
 20
1433.419691784991
 30
0.0
  0
ARC
  5
182
330
1F
100
AcDbEntity
  8
0
  6
Continuous
 62
     8
370
    18
100
AcDbCircle
 10
1330.0093533432
 20
1438.847128073
 30
0.0
 40
5.430226471413226
100
AcDbArc
 50
268.1631925552
 51
290.28762721
  0
SPLINE
  5
183
330
1F
100
AcDbEntity
  8
0
  6
Continuous
 62
     8
370
    18
100
AcDbSpline
210
0.0
220
0.0
230
1.0
 70
     8
 71
     3
 72
    13
 73
     9
 74
     0
 42
0.000000001
 43
0.00000001
 40
0.0
 40
0.0
 40
0.0
 40
0.0
 40
0.2027299767790309
 40
0.41132823968522
 40
0.6140610633746086
 40
0.8226668372537688
 40
0.911099727678664
 40
0.9999999999999999
 40
0.9999999999999999
 40
0.9999999999999999
 40
0.9999999999999999
 10
1333.259264628565
 20
1434.018762555908
 30
0.0
 10
1333.27449075637
 20
1432.716624888373
 30
0.0
 10
1333.305383752299
 20
1430.074657463897
 30
0.0
 10
1333.328146652153
 20
1425.806432230796
 30
0.0
 10
1333.275377725966
 20
1421.412232307301
 30
0.0
 10
1333.220959587519
 20
1417.873536141823
 30
0.0
 10
1333.180414647587
 20
1415.203831454714
 30
0.0
 10
1333.165031957057
 20
1414.007797840212
 30
0.0
 10
1333.157320340369
 20
1413.408204891053
 30
0.0
  0
ARC
  5
184
330
1F
100
AcDbEntity
  8
0
  6
Continuous
 62
     8
370
    18
100
AcDbCircle
 10
1333.1619720126
 20
1418.4658975417
 30
0.0
 40
5.057694789812111
100
AcDbArc
 50
255.2593224014
 51
269.9473038141
  0
ARC
  5
185
330
1F
100
AcDbEntity
  8
0
  6
Continuous
 62
     8
370
    18
100
AcDbCircle
 10
1333.231285313
 20
1430.5042852824
 30
0.0
 40
3.51458864568386
100
AcDbArc
 50
89.5438687729
 51
112.3962449548
  0
ARC
  5
186
330
1F
100
AcDbEntity
  8
0
  6
Continuous
 62
     8
370
    18
100
AcDbCircle
 10
1259.5095747395
 20
1418.4658975417
 30
0.0
 40
5.057694789810975
100
AcDbArc
 50
270.0526961859
 51
284.7406775986
  0
SPLINE
  5
187
330
1F
100
AcDbEntity
  8
0
  6
Continuous
 62
     8
370
    18
100
AcDbSpline
210
0.0
220
0.0
230
1.0
 70
     8
 71
     3
 72
    13
 73
     9
 74
     0
 42
0.000000001
 43
0.00000001
 40
0.0
 40
0.0
 40
0.0
 40
0.0
 40
0.2027299767790309
 40
0.41132823968522
 40
0.6140610633746086
 40
0.8226668372537688
 40
0.911099727678664
 40
0.9999999999999999
 40
0.9999999999999999
 40
0.9999999999999999
 40
0.9999999999999999
 10
1259.41228212357
 20
1434.018762555908
 30
0.0
 10
1259.397055995765
 20
1432.716624888373
 30
0.0
 10
1259.366162999836
 20
1430.074657463897
 30
0.0
 10
1259.343400099982
 20
1425.806432230796
 30
0.0
 10
1259.396169026169
 20
1421.412232307301
 30
0.0
 10
1259.450587164616
 20
1417.873536141823
 30
0.0
 10
1259.491132104548
 20
1415.203831454714
 30
0.0
 10
1259.506514795078
 20
1414.007797840212
 30
0.0
 10
1259.514226411766
 20
1413.408204891053
 30
0.0
  0
ARC
  5
188
330
1F
100
AcDbEntity
  8
0
  6
Continuous
 62
     8
370
    18
100
AcDbCircle
 10
1259.4402614392
 20
1430.5042852824
 30
0.0
 40
3.514588645682913
100
AcDbArc
 50
67.6037550452
 51
90.4561312271
  0
SPLINE
  5
189
330
1F
100
AcDbEntity
  8
0
  6
Continuous
 62
     8
370
    18
100
AcDbSpline
210
0.0
220
0.0
230
1.0
 70
     8
 71
     3
 72
    12
 73
     8
 74
     0
 42
0.000000001
 43
0.00000001
 40
0.0
 40
0.0
 40
0.0
 40
0.0
 40
0.1139159269059944
 40
0.3258009088085494
 40
0.5443041886655147
 40
0.8274327407183972
 40
1.0
 40
1.0
 40
1.0
 40
1.0
 10
1251.863143864357
 20
1413.5895473974
 30
0.0
 10
1251.863515743978
 20
1414.34301888115
 30
0.0
 10
1251.864579324126
 20
1416.49795630592
 30
0.0
 10
1251.870930911481
 20
1420.252863284116
 30
0.0
 10
1251.884441006035
 20
1425.198740798269
 30
0.0
 10
1251.886184620665
 20
1429.807236697756
 30
0.0
 10
1251.890601464185
 20
1432.663198483287
 30
0.0
 10
1251.89227407684
 20
1433.74472147666
 30
0.0
  0
ARC
  5
18A
330
1F
100
AcDbEntity
  8
0
  6
Continuous
 62
     8
370
    18
100
AcDbCircle
 10
1249.9913838499
 20
1406.3327097722
 30
0.0
 40
7.494343057904726
100
AcDbArc
 50
75.5369033449
 51
90.7939043825
  0
SPLINE
  5
18B
330
1F
100
AcDbEntity
  8
0
  6
Continuous
 62
     8
370
    18
100
AcDbSpline
210
0.0
220
0.0
230
1.0
 70
     8
 71
     3
 72
    12
 73
     8
 74
     0
 42
0.000000001
 43
0.00000001
 40
0.0
 40
0.0
 40
0.0
 40
0.0
 40
0.1720163517394599
 40
0.4559765852487094
 40
0.667992488147798
 40
0.886316203050505
 40
1.0
 40
1.0
 40
1.0
 40
1.0
 10
1249.82544419056
 20
1433.364974162201
 30
0.0
 10
1249.807130086523
 20
1432.317271245384
 30
0.0
 10
1249.758583523734
 20
1429.540046908659
 30
0.0
 10
1249.727464144988
 20
1425.118362643423
 30
0.0
 10
1249.785394762703
 20
1420.329621203018
 30
0.0
 10
1249.846124252296
 20
1416.687470813986
 30
0.0
 10
1249.876978731291
 20
1414.556132161773
 30
0.0
 10
1249.887543716118
 20
1413.826333401447
 30
0.0
  0
ARC
  5
18C
330
1F
100
AcDbEntity
  8
0
  6
Continuous
 62
     8
370
    18
100
AcDbCircle
 10
1249.9291072228
 20
1438.6151575653
 30
0.0
 40
5.251206698459587
100
AcDbArc
 50
268.86886188
 51
291.9532916353
  0
ARC
  5
18D
330
1F
100
AcDbEntity
  8
0
  6
Continuous
 62
     8
370
    18
100
AcDbCircle
 10
1253.2438866035
 20
1430.5525850305
 30
0.0
 40
3.466495566615642
100
AcDbArc
 50
89.2238649505
 51
112.9487422267
  0
SPLINE
  5
18E
330
1F
100
AcDbEntity
  8
0
  6
Continuous
 62
     8
370
    18
100
AcDbSpline
210
0.0
220
0.0
230
1.0
 70
     8
 71
     3
 72
    13
 73
     9
 74
     0
 42
0.000000001
 43
0.00000001
 40
0.0
 40
0.0
 40
0.0
 40
0.0
 40
0.202946774202787
 40
0.4117773519856948
 40
0.6147258594307156
 40
0.8235672334127777
 40
0.9115535143092927
 40
1.0
 40
1.0
 40
1.0
 40
1.0
 10
1253.222539941853
 20
1413.408204891053
 30
0.0
 10
1253.23249953272
 20
1414.790859639721
 30
0.0
 10
1253.252707461475
 20
1417.596254863931
 30
0.0
 10
1253.292587442379
 20
1421.969654879779
 30
0.0
 10
1253.320769326481
 20
1426.363196613333
 30
0.0
 10
1253.310217130227
 20
1429.802149770524
 30
0.0
 10
1253.29710286758
 20
1432.34270452735
 30
0.0
 10
1253.292933051218
 20
1433.459105877762
 30
0.0
 10
1253.290842704791
 20
1434.018762555908
 30
0.0
  0
ARC
  5
18F
330
1F
100
AcDbEntity
  8
0
  6
Continuous
 62
     8
370
    18
100
AcDbCircle
 10
1253.1835054606
 20
1418.3014761779
 30
0.0
 40
4.893426976814705
100
AcDbArc
 50
254.3462356245
 51
270.4570487635
  0
SPLINE
  5
190
330
1F
100
AcDbEntity
  8
0
  6
Continuous
 62
     8
370
    18
100
AcDbSpline
210
0.0
220
0.0
230
1.0
 70
     8
 71
     3
 72
    13
 73
     9
 74
     0
 42
0.000000001
 43
0.00000001
 40
0.0
 40
0.0
 40
0.0
 40
0.0
 40
0.202946774202787
 40
0.4117773519856948
 40
0.6147258594307156
 40
0.8235672334127777
 40
0.9115535143092927
 40
1.0
 40
1.0
 40
1.0
 40
1.0
 10
1339.449006810282
 20
1413.408204891053
 30
0.0
 10
1339.439047219415
 20
1414.790859639721
 30
0.0
 10
1339.418839290659
 20
1417.596254863931
 30
0.0
 10
1339.378959309756
 20
1421.969654879779
 30
0.0
 10
1339.350777425654
 20
1426.363196613333
 30
0.0
 10
1339.361329621908
 20
1429.802149770524
 30
0.0
 10
1339.374443884554
 20
1432.34270452735
 30
0.0
 10
1339.378613700917
 20
1433.459105877762
 30
0.0
 10
1339.380704047344
 20
1434.018762555908
 30
0.0
  0
ARC
  5
191
330
1F
100
AcDbEntity
  8
0
  6
Continuous
 62
     8
370
    18
100
AcDbCircle
 10
1339.4276601486
 20
1430.5525850305
 30
0.0
 40
3.46649556661358
100
AcDbArc
 50
67.0512577733
 51
90.7761350495
  0
SPLINE
  5
192
330
1F
100
AcDbEntity
  8
0
  6
Continuous
 62
     8
370
    18
100
AcDbSpline
210
0.0
220
0.0
230
1.0
 70
     8
 71
     3
 72
    12
 73
     8
 74
     0
 42
0.000000001
 43
0.00000001
 40
0.0
 40
0.0
 40
0.0
 40
0.0
 40
0.1139185701341839
 40
0.3290869588708604
 40
0.544293615007844
 40
0.8274287365843249
 40
0.9999999999999999
 40
0.9999999999999999
 40
0.9999999999999999
 40
0.9999999999999999
 10
1340.808402887778
 20
1413.5895473974
 30
0.0
 10
1340.80803444075
 20
1414.343001264858
 30
0.0
 10
1340.806970074234
 20
1416.519572139993
 30
0.0
 10
1340.800446992551
 20
1420.27652123328
 30
0.0
 10
1340.787127702741
 20
1425.221133912816
 30
0.0
 10
1340.785357360462
 20
1429.80726409672
 30
0.0
 10
1340.78094397748
 20
1432.663206009059
 30
0.0
 10
1340.779272675295
 20
1433.74472147666
 30
0.0
  0
ARC
  5
193
330
1F
100
AcDbEntity
  8
0
  6
Continuous
 62
     8
370
    18
100
AcDbCircle
 10
1339.4880412915
 20
1418.3014761779
 30
0.0
 40
4.89342697681608
100
AcDbArc
 50
269.5429512365
 51
285.6537643755
  0
SPLINE
  5
194
330
1F
100
AcDbEntity
  8
0
  6
Continuous
 62
     8
370
    18
100
AcDbSpline
210
0.0
220
0.0
230
1.0
 70
     8
 71
     3
 72
    12
 73
     8
 74
     0
 42
0.000000001
 43
0.00000001
 40
0.0
 40
0.0
 40
0.0
 40
0.0
 40
0.1720163517392773
 40
0.4559765852483131
 40
0.6679924881472422
 40
0.8863162030497851
 40
1.0
 40
1.0
 40
1.0
 40
1.0
 10
1342.846102561575
 20
1433.3649741622
 30
0.0
 10
1342.864416665612
 20
1432.317271245383
 30
0.0
 10
1342.912963228401
 20
1429.540046908659
 30
0.0
 10
1342.944082607147
 20
1425.118362643423
 30
0.0
 10
1342.886151989432
 20
1420.329621203018
 30
0.0
 10
1342.825422499839
 20
1416.687470813981
 30
0.0
 10
1342.794568020844
 20
1414.556132161763
 30
0.0
 10
1342.784003036017
 20
1413.826333401432
 30
0.0
  0
ARC
  5
195
330
1F
100
AcDbEntity
  8
0
  6
Continuous
 62
     8
370
    18
100
AcDbCircle
 10
1342.6801629023
 20
1406.3327097713
 30
0.0
 40
7.49434305881999
100
AcDbArc
 50
89.206095618
 51
104.4630966537
  0
ARC
  5
196
330
1F
100
AcDbEntity
  8
0
  6
Continuous
 62
     8
370
    18
100
AcDbCircle
 10
1342.7424395293
 20
1438.6151575652
 30
0.0
 40
5.251206698438258
100
AcDbArc
 50
248.0467083647
 51
271.13113812
  0
SPLINE
  5
197
330
1F
100
AcDbEntity
  8
0
  6
Continuous
 62
     8
370
    18
100
AcDbSpline
210
0.0
220
0.0
230
1.0
 70
     8
 71
     3
 72
    18
 73
    14
 74
     0
 42
0.000000001
 43
0.00000001
 40
0.0
 40
0.0
 40
0.0
 40
0.0
 40
0.1170843799009933
 40
0.2372819249028632
 40
0.3300747022077604
 40
0.4254586925014795
 40
0.4734360164953281
 40
0.5731168771933324
 40
0.6761579172513448
 40
0.7772864519268955
 40
0.8811332132399254
 40
0.9999978571948125
 40
1.0
 40
1.0
 40
1.0
 40
1.0
 10
1278.582730360595
 20
1408.720874536761
 30
0.0
 10
1277.930506272824
 20
1409.472005278831
 30
0.0
 10
1276.608716063532
 20
1410.994238632955
 30
0.0
 10
1275.147507489557
 20
1413.53488235909
 30
0.0
 10
1274.117685168707
 20
1416.137935387467
 30
0.0
 10
1273.609740311385
 20
1418.269703283689
 30
0.0
 10
1273.327993758391
 20
1420.514407826656
 30
0.0
 10
1273.298319051601
 20
1422.865646116521
 30
0.0
 10
1273.685833957701
 20
1425.665348352461
 30
0.0
 10
1274.469522380823
 20
1428.382715802633
 30
0.0
 10
1275.680576025544
 20
1431.03590950093
 30
0.0
 10
1276.759666118623
 20
1432.673538989514
 30
0.0
 10
1277.392855039553
 20
1433.482559594028
 30
0.0
 10
1277.392866454016
 20
1433.482574178198
 30
0.0
  0
SPLINE
  5
198
330
1F
100
AcDbEntity
  8
0
  6
Continuous
 62
     8
370
    18
100
AcDbSpline
210
0.0
220
0.0
230
1.0
 70
     8
 71
     3
 72
    12
 73
     8
 74
     0
 42
0.000000001
 43
0.00000001
 40
0.0
 40
0.0
 40
0.0
 40
0.0
 40
0.0000046503675272
 40
0.3713978843430388
 40
0.681267617149165
 40
0.9999954071658927
 40
1.0
 40
1.0
 40
1.0
 40
1.0
 10
1277.392866454016
 20
1433.482574178198
 30
0.0
 10
1277.392877021425
 20
1433.482589289825
 30
0.0
 10
1278.236834676079
 20
1434.689467263945
 30
0.0
 10
1280.023971430477
 20
1436.764081252003
 30
0.0
 10
1283.196856087282
 20
1439.291912959093
 30
0.0
 10
1285.473556137324
 20
1440.549476540819
 30
0.0
 10
1286.683306746901
 20
1441.090027907003
 30
0.0
 10
1286.68332417903
 20
1441.090035696179
 30
0.0
  0
SPLINE
  5
199
330
1F
100
AcDbEntity
  8
0
  6
Continuous
 62
     8
370
    18
100
AcDbSpline
210
0.0
220
0.0
230
1.0
 70
     8
 71
     3
 72
    13
 73
     9
 74
     0
 42
0.000000001
 43
0.00000001
 40
0.0
 40
0.0
 40
0.0
 40
0.0
 40
0.0000060748835873
 40
0.0389961893340878
 40
0.4427059282785939
 40
0.8520774557676243
 40
0.9999939251164126
 40
1.0
 40
1.0
 40
1.0
 40
1.0
 10
1286.68332417903
 20
1441.090035696179
 30
0.0
 10
1286.683343085612
 20
1441.090041124297
 30
0.0
 10
1286.804709145815
 20
1441.124885564739
 30
0.0
 10
1288.185072334551
 20
1441.51090485692
 30
0.0
 10
1290.882587189796
 20
1442.083153015293
 30
0.0
 10
1294.014501238938
 20
1442.404246028627
 30
0.0
 10
1295.848809378328
 20
1442.447901629741
 30
0.0
 10
1296.33575337825
 20
1442.44957345893
 30
0.0
 10
1296.335773376067
 20
1442.449573527588
 30
0.0
  0
ARC
  5
19A
330
1F
100
AcDbEntity
  8
0
  6
Continuous
 62
     8
370
    18
100
AcDbCircle
 10
1280.5176056819
 20
1405.7541188902
 30
0.0
 40
3.541946015250491
100
AcDbArc
 50
94.7268731721
 51
123.1118118867
  0
LINE
  5
19B
330
1F
100
AcDbEntity
  8
0
  6
Continuous
 62
     8
370
    18
100
AcDbLine
 10
1333.2592646286
 20
1434.0187625559
 30
0.0
 11
1339.3807040473
 21
1434.0187625559
 31
0.0
  0
LINE
  5
19C
330
1F
100
AcDbEntity
  8
0
  6
Continuous
 62
     8
370
    18
100
AcDbLine
 10
1333.1573203404
 20
1413.4082048911
 30
0.0
 11
1339.4490068103
 21
1413.4082048911
 31
0.0
  0
LINE
  5
19D
330
1F
100
AcDbEntity
  8
0
  6
Continuous
 62
     8
370
    18
100
AcDbLine
 10
1259.4122821236
 20
1434.0187625559
 30
0.0
 11
1253.2908427048
 21
1434.0187625559
 31
0.0
  0
LINE
  5
19E
330
1F
100
AcDbEntity
  8
0
  6
Continuous
 62
     8
370
    18
100
AcDbLine
 10
1259.5142264118
 20
1413.4082048911
 30
0.0
 11
1253.2225399419
 21
1413.4082048911
 31
0.0
  0
SPLINE
  5
19F
330
1F
100
AcDbEntity
  8
0
  6
Continuous
 62
     8
370
    18
100
AcDbSpline
210
0.0
220
0.0
230
1.0
 70
     8
 71
     3
 72
    11
 73
     7
 74
     0
 42
0.000000001
 43
0.00000001
 40
0.0
 40
0.0
 40
0.0
 40
0.0
 40
0.2462626445433248
 40
0.494195535261684
 40
0.7464627646446234
 40
1.0
 40
1.0
 40
1.0
 40
1.0
 10
1262.281747214923
 20
1408.778623827247
 30
0.0
 10
1262.351816410381
 20
1409.161873342092
 30
0.0
 10
1262.492430037018
 20
1409.930971714599
 30
0.0
 10
1262.614639528423
 20
1411.157408681496
 30
0.0
 10
1262.700341816507
 20
1412.430449739998
 30
0.0
 10
1262.723604368099
 20
1413.313031338456
 30
0.0
 10
1262.735264848441
 20
1413.755430158649
 30
0.0
  0
SPLINE
  5
1A0
330
1F
100
AcDbEntity
  8
0
  6
Continuous
 62
     8
370
    18
100
AcDbSpline
210
0.0
220
0.0
230
1.0
 70
     8
 71
     3
 72
    12
 73
     8
 74
     0
 42
0.000000001
 43
0.00000001
 40
0.0
 40
0.0
 40
0.0
 40
0.0
 40
0.1229311840443857
 40
0.3421870394857947
 40
0.561446657029843
 40
0.7807202463634095
 40
0.9999999999999999
 40
0.9999999999999999
 40
0.9999999999999999
 40
0.9999999999999999
 10
1262.836247625354
 20
1433.419691784991
 30
0.0
 10
1262.834776879572
 20
1433.531587931588
 30
0.0
 10
1262.830682961915
 20
1433.843058218248
 30
0.0
 10
1262.82444357366
 20
1434.353033267772
 30
0.0
 10
1262.816584284642
 20
1434.949327396617
 30
0.0
 10
1262.80873476314
 20
1435.544262580817
 30
0.0
 10
1262.803673313103
 20
1435.939445650949
 30
0.0
 10
1262.801142552512
 20
1436.137039963361
 30
0.0
  0
SPLINE
  5
1A1
330
1F
100
AcDbEntity
  8
0
  6
Continuous
 62
     8
370
    18
100
AcDbSpline
210
0.0
220
0.0
230
1.0
 70
     8
 71
     3
 72
    13
 73
     9
 74
     0
 42
0.000000001
 43
0.00000001
 40
0.0
 40
0.0
 40
0.0
 40
0.0
 40
0.2367907207557285
 40
0.4727251677986195
 40
0.6779786081237301
 40
0.8068813697292126
 40
0.9029811039670019
 40
0.9999999999999999
 40
0.9999999999999999
 40
0.9999999999999999
 40
0.9999999999999999
 10
1262.801142552512
 20
1436.137039963361
 30
0.0
 10
1262.784661416361
 20
1436.62146426325
 30
0.0
 10
1262.751758742524
 20
1437.588561106064
 30
0.0
 10
1262.465722085865
 20
1438.939729455175
 30
0.0
 10
1261.954864091064
 20
1440.010217738927
 30
0.0
 10
1261.274357248217
 20
1440.649207259302
 30
0.0
 10
1260.608734042655
 20
1440.969063674228
 30
0.0
 10
1260.158886318568
 20
1441.008333144744
 30
0.0
 10
1259.932891915477
 20
1441.028061332914
 30
0.0
  0
SPLINE
  5
1A2
330
1F
100
AcDbEntity
  8
0
  6
Continuous
 62
     8
370
    18
100
AcDbSpline
210
0.0
220
0.0
230
1.0
 70
     8
 71
     3
 72
    11
 73
     7
 74
     0
 42
0.000000001
 43
0.00000001
 40
0.0
 40
0.0
 40
0.0
 40
0.0
 40
0.2499912677933776
 40
0.499986756231606
 40
0.749992678491824
 40
0.9999999999999999
 40
0.9999999999999999
 40
0.9999999999999999
 40
0.9999999999999999
 10
1259.932891915477
 20
1441.028061332914
 30
0.0
 10
1259.340401858054
 20
1441.033559187842
 30
0.0
 10
1258.155411740098
 20
1441.044554990517
 30
0.0
 10
1256.378053727794
 20
1441.06591198025
 30
0.0
 10
1254.600862168612
 20
1441.09278489983
 30
0.0
 10
1253.416093727863
 20
1441.10973483057
 30
0.0
 10
1252.823707849748
 20
1441.118209819656
 30
0.0
  0
SPLINE
  5
1A3
330
1F
100
AcDbEntity
  8
0
  6
Continuous
 62
     8
370
    18
100
AcDbSpline
210
0.0
220
0.0
230
1.0
 70
     8
 71
     3
 72
    10
 73
     6
 74
     0
 42
0.000000001
 43
0.00000001
 40
0.0
 40
0.0
 40
0.0
 40
0.0
 40
0.4993573099105828
 40
0.9998128115878191
 40
0.9999999999999999
 40
0.9999999999999999
 40
0.9999999999999999
 40
0.9999999999999999
 10
1252.823707849748
 20
1441.118209819656
 30
0.0
 10
1252.770350845552
 20
1441.118133199556
 30
0.0
 10
1252.663519493883
 20
1441.117979790852
 30
0.0
 10
1252.55676646858
 20
1441.112365049334
 30
0.0
 10
1252.503430594082
 20
1441.108600064465
 30
0.0
 10
1252.503410652
 20
1441.108598656751
 30
0.0
  0
SPLINE
  5
1A4
330
1F
100
AcDbEntity
  8
0
  6
Continuous
 62
     8
370
    18
100
AcDbSpline
210
0.0
220
0.0
230
1.0
 70
     8
 71
     3
 72
    14
 73
    10
 74
     0
 42
0.000000001
 43
0.00000001
 40
0.0
 40
0.0
 40
0.0
 40
0.0
 40
0.0000086772972158
 40
0.0546554576672725
 40
0.154595618849772
 40
0.2815115513695428
 40
0.4757791841528803
 40
0.7372214479202447
 40
1.0
 40
1.0
 40
1.0
 40
1.0
 10
1252.503410652
 20
1441.108598656751
 30
0.0
 10
1252.503390809113
 20
1441.108596535918
 30
0.0
 10
1252.378406950543
 20
1441.095238100536
 30
0.0
 10
1252.027950046315
 20
1441.030836896252
 30
0.0
 10
1251.437735895412
 20
1440.774850711017
 30
0.0
 10
1250.755732264269
 20
1440.158914107361
 30
0.0
 10
1250.205005348513
 20
1439.083240061086
 30
0.0
 10
1249.897568690918
 20
1437.662424036649
 30
0.0
 10
1249.867566917545
 20
1436.603410375178
 30
0.0
 10
1249.852527792182
 20
1436.072553781579
 30
0.0
  0
SPLINE
  5
1A5
330
1F
100
AcDbEntity
  8
0
  6
Continuous
 62
     8
370
    18
100
AcDbSpline
210
0.0
220
0.0
230
1.0
 70
     8
 71
     3
 72
    10
 73
     6
 74
     0
 42
0.000000001
 43
0.00000001
 40
0.0
 40
0.0
 40
0.0
 40
0.0
 40
0.4999712442950867
 40
0.7499826264318696
 40
0.9999999999999999
 40
0.9999999999999999
 40
0.9999999999999999
 40
0.9999999999999999
 10
1249.852527792182
 20
1436.072553781579
 30
0.0
 10
1249.848024753701
 20
1435.623111824833
 30
0.0
 10
1249.841269963968
 20
1434.948925733143
 30
0.0
 10
1249.832095474339
 20
1434.044949670295
 30
0.0
 10
1249.827661302863
 20
1433.591634475466
 30
0.0
 10
1249.82544419056
 20
1433.364974162201
 30
0.0
  0
SPLINE
  5
1A6
330
1F
100
AcDbEntity
  8
0
  6
Continuous
 62
     8
370
    18
100
AcDbSpline
210
0.0
220
0.0
230
1.0
 70
     8
 71
     3
 72
    11
 73
     7
 74
     0
 42
0.000000001
 43
0.00000001
 40
0.0
 40
0.0
 40
0.0
 40
0.0
 40
0.2471593440128836
 40
0.4953474341907662
 40
0.7469783905689361
 40
0.9999999999999999
 40
0.9999999999999999
 40
0.9999999999999999
 40
0.9999999999999999
 10
1249.887543716118
 20
1413.826333401447
 30
0.0
 10
1249.896558647305
 20
1413.388919435416
 30
0.0
 10
1249.914626032339
 20
1412.512270864359
 30
0.0
 10
1249.987174037254
 20
1411.230208656547
 30
0.0
 10
1250.093976320737
 20
1409.970732903523
 30
0.0
 10
1250.223929061666
 20
1409.168022803014
 30
0.0
 10
1250.289084485194
 20
1408.765561752981
 30
0.0
  0
SPLINE
  5
1A7
330
1F
100
AcDbEntity
  8
0
  6
Continuous
 62
     8
370
    18
100
AcDbSpline
210
0.0
220
0.0
230
1.0
 70
     8
 71
     3
 72
    18
 73
    14
 74
     0
 42
0.000000001
 43
0.00000001
 40
0.0
 40
0.0
 40
0.0
 40
0.0
 40
0.0523730000254506
 40
0.1524774488988086
 40
0.2527454654215872
 40
0.3528294914886483
 40
0.4529446917616012
 40
0.55656968697285
 40
0.6602042581553614
 40
0.7756279704749324
 40
0.8910143299899644
 40
0.9999989407468235
 40
0.9999999999999999
 40
0.9999999999999999
 40
0.9999999999999999
 40
0.9999999999999999
 10
1250.289084485194
 20
1408.765561752981
 30
0.0
 10
1249.30045595478
 20
1408.770984155094
 30
0.0
 10
1246.422187454736
 20
1408.786770801662
 30
0.0
 10
1241.658810712487
 20
1408.663172501801
 30
0.0
 10
1236.223553977322
 20
1408.397376903464
 30
0.0
 10
1231.116302359626
 20
1408.312131651014
 30
0.0
 10
1226.401839170872
 20
1408.211058295697
 30
0.0
 10
1222.194759697597
 20
1408.126219920417
 30
0.0
 10
1218.449941493498
 20
1408.048522835823
 30
0.0
 10
1215.413203731975
 20
1407.994460900989
 30
0.0
 10
1213.317304534698
 20
1407.94918131672
 30
0.0
 10
1212.653264386609
 20
1407.908446936769
 30
0.0
 10
1212.50493662956
 20
1407.891155180824
 30
0.0
 10
1212.504935187934
 20
1407.891155012762
 30
0.0
  0
SPLINE
  5
1A8
330
1F
100
AcDbEntity
  8
0
  6
Continuous
 62
     8
370
    18
100
AcDbSpline
210
0.0
220
0.0
230
1.0
 70
    24
 71
     3
 72
    13
 73
     9
 74
     0
 42
0.000000001
 43
0.00000001
 40
0.0
 40
0.0
 40
0.0
 40
0.0
 40
0.011033813517655
 40
0.1238791831256936
 40
0.242443165881401
 40
0.3676203809258451
 40
0.4940963046860042
 40
0.9999999999999999
 40
0.9999999999999999
 40
0.9999999999999999
 40
0.9999999999999999
 10
1296.335773376067
 20
1442.449573527598
 30
0.0
 10
1296.335773376067
 20
1442.464549665835
 30
0.0
 10
1296.335773376067
 20
1442.632690242819
 30
0.0
 10
1296.335773376067
 20
1442.935094481256
 30
0.0
 10
1296.335773376067
 20
1443.26170154537
 30
0.0
 10
1296.335773376067
 20
1444.137420633266
 30
0.0
 10
1296.335773376067
 20
1445.744479947199
 30
0.0
 10
1296.335773376067
 20
1447.124773929879
 30
0.0
 10
1296.335773376067
 20
1448.229009116143
 30
0.0
  0
SPLINE
  5
1A9
330
1F
100
AcDbEntity
  8
0
  6
Continuous
 62
     8
370
    18
100
AcDbSpline
210
0.0
220
0.0
230
1.0
 70
     8
 71
     3
 72
    10
 73
     6
 74
     0
 42
0.000000001
 43
0.00000001
 40
0.0
 40
0.0
 40
0.0
 40
0.0
 40
0.1324174185454049
 40
0.566189053550618
 40
1.0
 40
1.0
 40
1.0
 40
1.0
 10
1278.582730360595
 20
1408.720874536761
 30
0.0
 10
1277.86327843102
 20
1408.722484724921
 30
0.0
 10
1274.7870531764
 20
1408.729369551107
 30
0.0
 10
1269.353449100463
 20
1408.75335783913
 30
0.0
 10
1264.639052382189
 20
1408.770201576803
 30
0.0
 10
1262.281747214923
 20
1408.778623827247
 30
0.0
  0
SPLINE
  5
1AA
330
1F
100
AcDbEntity
  8
0
  6
Continuous
 62
     8
370
    18
100
AcDbSpline
210
0.0
220
0.0
230
1.0
 70
     8
 71
     3
 72
    13
 73
     9
 74
     0
 42
0.000000001
 43
0.00000001
 40
0.0
 40
0.0
 40
0.0
 40
0.0
 40
0.0000053737334978
 40
0.0906707942514917
 40
0.4284179505337218
 40
0.7661993120302154
 40
0.9999947023277418
 40
1.0
 40
1.0
 40
1.0
 40
1.0
 10
1378.531971652737
 20
1432.389861472915
 30
0.0
 10
1378.531969376353
 20
1432.389878608034
 30
0.0
 10
1378.493560039618
 20
1432.678998792849
 30
0.0
 10
1378.326501045819
 20
1434.029868368103
 30
0.0
 10
1378.185036143382
 20
1436.31060838777
 30
0.0
 10
1378.28885772415
 20
1438.677964255264
 30
0.0
 10
1378.476863396371
 20
1439.938830419861
 30
0.0
 10
1378.563583312785
 20
1440.411056555559
 30
0.0
 10
1378.563585277765
 20
1440.411067255695
 30
0.0
  0
SPLINE
  5
1AB
330
1F
100
AcDbEntity
  8
0
  6
Continuous
 62
     8
370
    18
100
AcDbSpline
210
0.0
220
0.0
230
1.0
 70
     8
 71
     3
 72
    16
 73
    12
 74
     0
 42
0.000000001
 43
0.00000001
 40
0.0
 40
0.0
 40
0.0
 40
0.0
 40
0.1394094534900458
 40
0.2827549548329892
 40
0.4174662298324164
 40
0.5565082610192974
 40
0.6798003195682379
 40
0.8081263295826786
 40
0.903292353507241
 40
0.9999977543174701
 40
1.0
 40
1.0
 40
1.0
 40
1.0
 10
1375.338499349399
 20
1408.028123012686
 30
0.0
 10
1375.620252175164
 20
1408.960369752729
 30
0.0
 10
1376.19171275785
 20
1410.851184028769
 30
0.0
 10
1377.120398190231
 20
1414.070750006909
 30
0.0
 10
1377.98413403951
 20
1417.513230281549
 30
0.0
 10
1378.63899049444
 20
1420.9777825572
 30
0.0
 10
1379.000945460435
 20
1424.456933526969
 30
0.0
 10
1378.990192547456
 20
1427.492581850219
 30
0.0
 10
1378.791719778539
 20
1430.152821384278
 30
0.0
 10
1378.62031944504
 20
1431.65766888268
 30
0.0
 10
1378.531973704245
 20
1432.389844470807
 30
0.0
 10
1378.531971652737
 20
1432.389861472915
 30
0.0
  0
SPLINE
  5
1AC
330
1F
100
AcDbEntity
  8
0
  6
Continuous
 62
     8
370
    18
100
AcDbSpline
210
0.0
220
0.0
230
1.0
 70
     8
 71
     3
 72
    15
 73
    11
 74
     0
 42
0.000000001
 43
0.00000001
 40
0.0
 40
0.0
 40
0.0
 40
0.0
 40
0.0741043092108414
 40
0.215745441647195
 40
0.3576180114207959
 40
0.4992302469455339
 40
0.6408865918967264
 40
0.7875090630818133
 40
0.9341450836288824
 40
1.0
 40
1.0
 40
1.0
 40
1.0
 10
1342.382462266942
 20
1408.765561752981
 30
0.0
 10
1343.371091681699
 20
1408.770984164935
 30
0.0
 10
1346.249362756401
 20
1408.786770840154
 30
0.0
 10
1351.012706491469
 20
1408.66317217299
 30
0.0
 10
1356.448101378814
 20
1408.397378112006
 30
0.0
 10
1361.554840349865
 20
1408.31212715484
 30
0.0
 10
1366.271238321077
 20
1408.211075329722
 30
0.0
 10
1370.470850688004
 20
1408.126153860716
 30
0.0
 10
1373.439202398182
 20
1408.065297213101
 30
0.0
 10
1374.889137376126
 20
1408.036918199791
 30
0.0
 10
1375.338499349399
 20
1408.028123012686
 30
0.0
  0
SPLINE
  5
1AD
330
1F
100
AcDbEntity
  8
0
  6
Continuous
 62
     8
370
    18
100
AcDbSpline
210
0.0
220
0.0
230
1.0
 70
     8
 71
     3
 72
    11
 73
     7
 74
     0
 42
0.000000001
 43
0.00000001
 40
0.0
 40
0.0
 40
0.0
 40
0.0
 40
0.2471593440107333
 40
0.4953474341893482
 40
0.7469783905682601
 40
1.0
 40
1.0
 40
1.0
 40
1.0
 10
1342.784003036017
 20
1413.826333401432
 30
0.0
 10
1342.77498810483
 20
1413.388919435406
 30
0.0
 10
1342.756920719796
 20
1412.512270864354
 30
0.0
 10
1342.684372714881
 20
1411.230208656547
 30
0.0
 10
1342.577570431398
 20
1409.970732903523
 30
0.0
 10
1342.447617690469
 20
1409.168022803014
 30
0.0
 10
1342.382462266942
 20
1408.765561752981
 30
0.0
  0
SPLINE
  5
1AE
330
1F
100
AcDbEntity
  8
0
  6
Continuous
 62
     8
370
    18
100
AcDbSpline
210
0.0
220
0.0
230
1.0
 70
     8
 71
     3
 72
    10
 73
     6
 74
     0
 42
0.000000001
 43
0.00000001
 40
0.0
 40
0.0
 40
0.0
 40
0.0
 40
0.499971244294913
 40
0.7499826264316082
 40
1.0
 40
1.0
 40
1.0
 40
1.0
 10
1342.819018959953
 20
1436.072553781579
 30
0.0
 10
1342.823521998434
 20
1435.623111824833
 30
0.0
 10
1342.830276788166
 20
1434.948925733143
 30
0.0
 10
1342.839451277796
 20
1434.044949670295
 30
0.0
 10
1342.843885449272
 20
1433.591634475466
 30
0.0
 10
1342.846102561575
 20
1433.3649741622
 30
0.0
  0
SPLINE
  5
1AF
330
1F
100
AcDbEntity
  8
0
  6
Continuous
 62
     8
370
    18
100
AcDbSpline
210
0.0
220
0.0
230
1.0
 70
     8
 71
     3
 72
    14
 73
    10
 74
     0
 42
0.000000001
 43
0.00000001
 40
0.0
 40
0.0
 40
0.0
 40
0.0
 40
0.0000086772971397
 40
0.0546554576672006
 40
0.1545956188497078
 40
0.2815115513694882
 40
0.4757791841528408
 40
0.7372214479202251
 40
0.9999999999999999
 40
0.9999999999999999
 40
0.9999999999999999
 40
0.9999999999999999
 10
1340.168136100135
 20
1441.108598656751
 30
0.0
 10
1340.168155943022
 20
1441.108596535918
 30
0.0
 10
1340.293139801604
 20
1441.095238100462
 30
0.0
 10
1340.643596705809
 20
1441.030836896316
 30
0.0
 10
1341.233810856727
 20
1440.77485071099
 30
0.0
 10
1341.915814487865
 20
1440.158914107374
 30
0.0
 10
1342.466541403623
 20
1439.083240061081
 30
0.0
 10
1342.773978061216
 20
1437.66242403665
 30
0.0
 10
1342.80397983459
 20
1436.603410375179
 30
0.0
 10
1342.819018959953
 20
1436.072553781579
 30
0.0
  0
SPLINE
  5
1B0
330
1F
100
AcDbEntity
  8
0
  6
Continuous
 62
     8
370
    18
100
AcDbSpline
210
0.0
220
0.0
230
1.0
 70
     8
 71
     3
 72
    10
 73
     6
 74
     0
 42
0.000000001
 43
0.00000001
 40
0.0
 40
0.0
 40
0.0
 40
0.0
 40
0.4993573099097663
 40
0.9998128115861746
 40
0.9999999999999999
 40
0.9999999999999999
 40
0.9999999999999999
 40
0.9999999999999999
 10
1339.847838902387
 20
1441.118209819656
 30
0.0
 10
1339.901195906583
 20
1441.118133199557
 30
0.0
 10
1340.008027258251
 20
1441.117979790855
 30
0.0
 10
1340.114780283559
 20
1441.112365049326
 30
0.0
 10
1340.168116158053
 20
1441.108600064465
 30
0.0
 10
1340.168136100135
 20
1441.108598656751
 30
0.0
  0
SPLINE
  5
1B1
330
1F
100
AcDbEntity
  8
0
  6
Continuous
 62
     8
370
    18
100
AcDbSpline
210
0.0
220
0.0
230
1.0
 70
     8
 71
     3
 72
    11
 73
     7
 74
     0
 42
0.000000001
 43
0.00000001
 40
0.0
 40
0.0
 40
0.0
 40
0.0
 40
0.2499912677933776
 40
0.499986756231606
 40
0.749992678491824
 40
0.9999999999999999
 40
0.9999999999999999
 40
0.9999999999999999
 40
0.9999999999999999
 10
1332.738654836658
 20
1441.028061332914
 30
0.0
 10
1333.331144894081
 20
1441.033559187842
 30
0.0
 10
1334.516135012037
 20
1441.044554990517
 30
0.0
 10
1336.29349302434
 20
1441.06591198025
 30
0.0
 10
1338.070684583523
 20
1441.09278489983
 30
0.0
 10
1339.255453024271
 20
1441.10973483057
 30
0.0
 10
1339.847838902387
 20
1441.118209819656
 30
0.0
  0
SPLINE
  5
1B2
330
1F
100
AcDbEntity
  8
0
  6
Continuous
 62
     8
370
    18
100
AcDbSpline
210
0.0
220
0.0
230
1.0
 70
     8
 71
     3
 72
    13
 73
     9
 74
     0
 42
0.000000001
 43
0.00000001
 40
0.0
 40
0.0
 40
0.0
 40
0.0
 40
0.236790720755731
 40
0.4727251677986212
 40
0.6779786081237311
 40
0.8068813697292133
 40
0.9029811039670023
 40
1.0
 40
1.0
 40
1.0
 40
1.0
 10
1329.870404199622
 20
1436.137039963361
 30
0.0
 10
1329.886885335774
 20
1436.62146426325
 30
0.0
 10
1329.919788009611
 20
1437.588561106064
 30
0.0
 10
1330.20582466627
 20
1438.939729455175
 30
0.0
 10
1330.716682661071
 20
1440.010217738927
 30
0.0
 10
1331.397189503918
 20
1440.649207259302
 30
0.0
 10
1332.06281270948
 20
1440.969063674228
 30
0.0
 10
1332.512660433567
 20
1441.008333144744
 30
0.0
 10
1332.738654836658
 20
1441.028061332914
 30
0.0
  0
SPLINE
  5
1B3
330
1F
100
AcDbEntity
  8
0
  6
Continuous
 62
     8
370
    18
100
AcDbSpline
210
0.0
220
0.0
230
1.0
 70
     8
 71
     3
 72
    12
 73
     8
 74
     0
 42
0.000000001
 43
0.00000001
 40
0.0
 40
0.0
 40
0.0
 40
0.0
 40
0.1229311840443852
 40
0.3421870394857956
 40
0.5614466570298453
 40
0.7807202463634132
 40
1.0
 40
1.0
 40
1.0
 40
1.0
 10
1329.835299126781
 20
1433.419691784991
 30
0.0
 10
1329.836769872563
 20
1433.531587931588
 30
0.0
 10
1329.84086379022
 20
1433.843058218249
 30
0.0
 10
1329.847103178475
 20
1434.353033267772
 30
0.0
 10
1329.854962467494
 20
1434.949327396617
 30
0.0
 10
1329.862811988995
 20
1435.544262580817
 30
0.0
 10
1329.867873439032
 20
1435.939445650949
 30
0.0
 10
1329.870404199622
 20
1436.137039963361
 30
0.0
  0
SPLINE
  5
1B4
330
1F
100
AcDbEntity
  8
0
  6
Continuous
 62
     8
370
    18
100
AcDbSpline
210
0.0
220
0.0
230
1.0
 70
     8
 71
     3
 72
    11
 73
     7
 74
     0
 42
0.000000001
 43
0.00000001
 40
0.0
 40
0.0
 40
0.0
 40
0.0
 40
0.2462626445433984
 40
0.4941955352617326
 40
0.7464627646446488
 40
1.0
 40
1.0
 40
1.0
 40
1.0
 10
1330.389799537212
 20
1408.778623827246
 30
0.0
 10
1330.319730341754
 20
1409.161873342091
 30
0.0
 10
1330.179116715117
 20
1409.930971714599
 30
0.0
 10
1330.056907223712
 20
1411.157408681496
 30
0.0
 10
1329.971204935628
 20
1412.430449739998
 30
0.0
 10
1329.947942384036
 20
1413.313031338456
 30
0.0
 10
1329.936281903694
 20
1413.755430158649
 30
0.0
  0
SPLINE
  5
1B5
330
1F
100
AcDbEntity
  8
0
  6
Continuous
 62
     8
370
    18
100
AcDbSpline
210
0.0
220
0.0
230
1.0
 70
     8
 71
     3
 72
    10
 73
     6
 74
     0
 42
0.000000001
 43
0.00000001
 40
0.0
 40
0.0
 40
0.0
 40
0.0
 40
0.1324174185454166
 40
0.5661890535506258
 40
1.0
 40
1.0
 40
1.0
 40
1.0
 10
1314.088816391539
 20
1408.720874536761
 30
0.0
 10
1314.808268321114
 20
1408.722484724921
 30
0.0
 10
1317.884493575735
 20
1408.729369551107
 30
0.0
 10
1323.318097651672
 20
1408.753357839131
 30
0.0
 10
1328.032494369947
 20
1408.770201576803
 30
0.0
 10
1330.389799537212
 20
1408.778623827246
 30
0.0
  0
SPLINE
  5
1B6
330
1F
100
AcDbEntity
  8
0
  6
Continuous
 62
     8
370
    18
100
AcDbSpline
210
0.0
220
0.0
230
1.0
 70
     8
 71
     3
 72
    11
 73
     7
 74
     0
 42
0.000000001
 43
0.00000001
 40
0.0
 40
0.0
 40
0.0
 40
0.0
 40
0.0000075172908922
 40
0.4486753649769396
 40
0.9105406426921427
 40
1.0
 40
1.0
 40
1.0
 40
1.0
 10
1378.563585277765
 20
1440.411067255695
 30
0.0
 10
1378.563588931886
 20
1440.411075439904
 30
0.0
 10
1378.781687963266
 20
1440.899556315379
 30
0.0
 10
1379.095472245157
 20
1441.685775766037
 30
0.0
 10
1379.22166112932
 20
1442.15771544544
 30
0.0
 10
1379.265832373007
 20
1442.301877871262
 30
0.0
 10
1379.272999712938
 20
1442.325270038313
 30
0.0
  0
SPLINE
  5
1B7
330
1F
100
AcDbEntity
  8
0
  6
Continuous
 62
     8
370
    18
100
AcDbSpline
210
0.0
220
0.0
230
1.0
 70
     8
 71
     3
 72
    13
 73
     9
 74
     0
 42
0.000000001
 43
0.00000001
 40
0.0
 40
0.0
 40
0.0
 40
0.0
 40
0.247882211851034
 40
0.5026960354996727
 40
0.5906876656854309
 40
0.6789803873276643
 40
0.8384693780655456
 40
1.0
 40
1.0
 40
1.0
 40
1.0
 10
1333.157320340369
 20
1413.408204891053
 30
0.0
 10
1333.142247056551
 20
1412.660496413312
 30
0.0
 10
1333.111678989724
 20
1411.144171039807
 30
0.0
 10
1333.002110238298
 20
1409.53935323298
 30
0.0
 10
1332.888926582874
 20
1408.461060879902
 30
0.0
 10
1332.786455435199
 20
1407.664138161629
 30
0.0
 10
1332.622505504765
 20
1406.760369773812
 30
0.0
 10
1332.430136107262
 20
1406.163160180702
 30
0.0
 10
1332.333339689868
 20
1405.862656307443
 30
0.0
  0
SPLINE
  5
1B8
330
1F
100
AcDbEntity
  8
0
  6
Continuous
 62
     8
370
    18
100
AcDbSpline
210
0.0
220
0.0
230
1.0
 70
     8
 71
     3
 72
    17
 73
    13
 74
     0
 42
0.000000001
 43
0.00000001
 40
0.0
 40
0.0
 40
0.0
 40
0.0
 40
0.3465956100132875
 40
0.5797997290136824
 40
0.7338947238710065
 40
0.8810219207410008
 40
0.9331891565949322
 40
0.9524593563030785
 40
0.9753918570412514
 40
0.986724340314446
 40
0.9980977605384078
 40
1.0
 40
1.0
 40
1.0
 40
1.0
 10
1331.898631602582
 20
1408.760024996952
 30
0.0
 10
1331.908648625628
 20
1408.379364040439
 30
0.0
 10
1331.925405523523
 20
1407.742578365561
 30
0.0
 10
1331.943199893605
 20
1407.008314145242
 30
0.0
 10
1331.97829291389
 20
1406.50000503369
 30
0.0
 10
1332.026992679576
 20
1406.17966199611
 30
0.0
 10
1332.109350090198
 20
1405.992363531472
 30
0.0
 10
1332.169386366244
 20
1405.918812419335
 30
0.0
 10
1332.218758251573
 20
1405.88176215786
 30
0.0
 10
1332.277065591669
 20
1405.863622527559
 30
0.0
 10
1332.312240255299
 20
1405.861345062824
 30
0.0
 10
1332.330695306963
 20
1405.862491969729
 30
0.0
 10
1332.333339689868
 20
1405.862656307443
 30
0.0
  0
SPLINE
  5
1B9
330
1F
100
AcDbEntity
  8
0
  6
Continuous
 62
     8
370
    18
100
AcDbSpline
210
0.0
220
0.0
230
1.0
 70
     8
 71
     3
 72
    11
 73
     7
 74
     0
 42
0.000000001
 43
0.00000001
 40
0.0
 40
0.0
 40
0.0
 40
0.0
 40
0.3674155899718456
 40
0.7400731437703013
 40
0.8699218969645796
 40
1.0
 40
1.0
 40
1.0
 40
1.0
 10
1331.875068884488
 20
1413.574664882615
 30
0.0
 10
1331.875439952526
 20
1412.947627753545
 30
0.0
 10
1331.876187382677
 20
1411.684607478854
 30
0.0
 10
1331.878588533172
 20
1410.296936241414
 30
0.0
 10
1331.887061984991
 20
1409.332931594926
 30
0.0
 10
1331.894772795473
 20
1408.95110616582
 30
0.0
 10
1331.898631602582
 20
1408.760024996952
 30
0.0
  0
SPLINE
  5
1BA
330
1F
100
AcDbEntity
  8
0
  6
Continuous
 62
     8
370
    18
100
AcDbSpline
210
0.0
220
0.0
230
1.0
 70
     8
 71
     3
 72
    11
 73
     7
 74
     0
 42
0.000000001
 43
0.00000001
 40
0.0
 40
0.0
 40
0.0
 40
0.0
 40
0.3674155899718451
 40
0.7400731437703005
 40
0.8699218969645786
 40
1.0
 40
1.0
 40
1.0
 40
1.0
 10
1260.796477867647
 20
1413.574664882615
 30
0.0
 10
1260.796106799608
 20
1412.947627753545
 30
0.0
 10
1260.795359369458
 20
1411.684607478854
 30
0.0
 10
1260.792958218963
 20
1410.296936241414
 30
0.0
 10
1260.784484767144
 20
1409.332931594926
 30
0.0
 10
1260.776773956662
 20
1408.95110616582
 30
0.0
 10
1260.772915149553
 20
1408.760024996952
 30
0.0
  0
SPLINE
  5
1BB
330
1F
100
AcDbEntity
  8
0
  6
Continuous
 62
     8
370
    18
100
AcDbSpline
210
0.0
220
0.0
230
1.0
 70
     8
 71
     3
 72
    17
 73
    13
 74
     0
 42
0.000000001
 43
0.00000001
 40
0.0
 40
0.0
 40
0.0
 40
0.0
 40
0.3465956100132984
 40
0.5797997290136782
 40
0.7338947238709997
 40
0.8810219207409927
 40
0.9331891565949244
 40
0.9524593563030697
 40
0.975391857041252
 40
0.986724340314446
 40
0.9980977605384078
 40
1.0
 40
1.0
 40
1.0
 40
1.0
 10
1260.772915149553
 20
1408.760024996952
 30
0.0
 10
1260.762898126507
 20
1408.379364040439
 30
0.0
 10
1260.746141228612
 20
1407.742578365561
 30
0.0
 10
1260.72834685853
 20
1407.008314145242
 30
0.0
 10
1260.693253838245
 20
1406.50000503369
 30
0.0
 10
1260.644554072559
 20
1406.17966199611
 30
0.0
 10
1260.562196661937
 20
1405.992363531472
 30
0.0
 10
1260.502160385891
 20
1405.918812419335
 30
0.0
 10
1260.452788500561
 20
1405.88176215786
 30
0.0
 10
1260.394481160466
 20
1405.863622527559
 30
0.0
 10
1260.359306496836
 20
1405.861345062823
 30
0.0
 10
1260.340851445173
 20
1405.862491969729
 30
0.0
 10
1260.338207062267
 20
1405.862656307443
 30
0.0
  0
SPLINE
  5
1BC
330
1F
100
AcDbEntity
  8
0
  6
Continuous
 62
     8
370
    18
100
AcDbSpline
210
0.0
220
0.0
230
1.0
 70
     8
 71
     3
 72
    13
 73
     9
 74
     0
 42
0.000000001
 43
0.00000001
 40
0.0
 40
0.0
 40
0.0
 40
0.0
 40
0.2478822118510328
 40
0.5026960354996701
 40
0.5906876656854283
 40
0.678980387327661
 40
0.8384693780655413
 40
0.9999999999999999
 40
0.9999999999999999
 40
0.9999999999999999
 40
0.9999999999999999
 10
1259.514226411766
 20
1413.408204891053
 30
0.0
 10
1259.529299695584
 20
1412.660496413312
 30
0.0
 10
1259.559867762411
 20
1411.144171039807
 30
0.0
 10
1259.669436513837
 20
1409.53935323298
 30
0.0
 10
1259.782620169261
 20
1408.461060879902
 30
0.0
 10
1259.885091316936
 20
1407.664138161629
 30
0.0
 10
1260.04904124737
 20
1406.760369773812
 30
0.0
 10
1260.241410644873
 20
1406.163160180702
 30
0.0
 10
1260.338207062267
 20
1405.862656307443
 30
0.0
  0
SPLINE
  5
1BD
330
1F
100
AcDbEntity
  8
0
  6
Continuous
 62
     8
370
    18
100
AcDbSpline
210
0.0
220
0.0
230
1.0
 70
     8
 71
     3
 72
    11
 73
     7
 74
     0
 42
0.000000001
 43
0.00000001
 40
0.0
 40
0.0
 40
0.0
 40
0.0
 40
0.3598580230790383
 40
0.7246062069006081
 40
0.8621677510649454
 40
1.0
 40
1.0
 40
1.0
 40
1.0
 10
1340.805921036643
 20
1408.688670815191
 30
0.0
 10
1340.809173132895
 20
1409.234967163821
 30
0.0
 10
1340.815721518587
 20
1410.334983558171
 30
0.0
 10
1340.809663015588
 20
1411.769914866395
 30
0.0
 10
1340.808547459615
 20
1412.866164403368
 30
0.0
 10
1340.80845110996
 20
1413.348261769762
 30
0.0
 10
1340.808402887778
 20
1413.5895473974
 30
0.0
  0
SPLINE
  5
1BE
330
1F
100
AcDbEntity
  8
0
  6
Continuous
 62
     8
370
    18
100
AcDbSpline
210
0.0
220
0.0
230
1.0
 70
     8
 71
     3
 72
    16
 73
    12
 74
     0
 42
0.000000001
 43
0.00000001
 40
0.0
 40
0.0
 40
0.0
 40
0.0
 40
0.0117733620155407
 40
0.0227113902881391
 40
0.0341085178796151
 40
0.044872447014466
 40
0.0843977891274323
 40
0.1801725761900232
 40
0.6004756555876793
 40
0.7301077904365255
 40
1.0
 40
1.0
 40
1.0
 40
1.0
 10
1340.368065589382
 20
1405.555387710788
 30
0.0
 10
1340.385326669622
 20
1405.552034343365
 30
0.0
 10
1340.418624136361
 20
1405.545565533842
 30
0.0
 10
1340.473152595
 20
1405.547629072028
 30
0.0
 10
1340.521563593873
 20
1405.5612692569
 30
0.0
 10
1340.593512694434
 20
1405.6018471998
 30
0.0
 10
1340.687521344172
 20
1405.732513689831
 30
0.0
 10
1340.812630168955
 20
1406.259902568159
 30
0.0
 10
1340.792198733544
 20
1406.940972164515
 30
0.0
 10
1340.795302784139
 20
1407.871543369445
 30
0.0
 10
1340.801640019669
 20
1408.359225224822
 30
0.0
 10
1340.805921036643
 20
1408.688670815191
 30
0.0
  0
SPLINE
  5
1BF
330
1F
100
AcDbEntity
  8
0
  6
Continuous
 62
     8
370
    18
100
AcDbSpline
210
0.0
220
0.0
230
1.0
 70
     8
 71
     3
 72
    12
 73
     8
 74
     0
 42
0.000000001
 43
0.00000001
 40
0.0
 40
0.0
 40
0.0
 40
0.0
 40
0.0542100646910376
 40
0.3612059465304534
 40
0.5267652948496019
 40
0.7633787062243834
 40
1.0
 40
1.0
 40
1.0
 40
1.0
 10
1340.368065589382
 20
1405.555387710788
 30
0.0
 10
1340.329333778139
 20
1405.653151009151
 30
0.0
 10
1340.071260657942
 20
1406.304555594672
 30
0.0
 10
1339.803784120337
 20
1407.467659467564
 30
0.0
 10
1339.602598083534
 20
1409.303507405219
 30
0.0
 10
1339.481567143039
 20
1411.142583018623
 30
0.0
 10
1339.459860375053
 20
1412.652989214251
 30
0.0
 10
1339.449006810282
 20
1413.408204891053
 30
0.0
  0
SPLINE
  5
1C0
330
1F
100
AcDbEntity
  8
0
  6
Continuous
 62
     8
370
    18
100
AcDbSpline
210
0.0
220
0.0
230
1.0
 70
     8
 71
     3
 72
    16
 73
    12
 74
     0
 42
0.000000001
 43
0.00000001
 40
0.0
 40
0.0
 40
0.0
 40
0.0
 40
0.0117733620155406
 40
0.0227113902881391
 40
0.0341085178796151
 40
0.0448724470144659
 40
0.0843977891274322
 40
0.180172576190012
 40
0.6004756555876793
 40
0.7301077904365121
 40
1.0
 40
1.0
 40
1.0
 40
1.0
 10
1252.303481162753
 20
1405.555387710788
 30
0.0
 10
1252.286220082513
 20
1405.552034343365
 30
0.0
 10
1252.252922615774
 20
1405.545565533842
 30
0.0
 10
1252.198394157135
 20
1405.547629072028
 30
0.0
 10
1252.149983158263
 20
1405.5612692569
 30
0.0
 10
1252.078034057701
 20
1405.6018471998
 30
0.0
 10
1251.984025407963
 20
1405.732513689831
 30
0.0
 10
1251.85891658318
 20
1406.259902568159
 30
0.0
 10
1251.879348018591
 20
1406.940972164515
 30
0.0
 10
1251.876243967996
 20
1407.871543369445
 30
0.0
 10
1251.869906732466
 20
1408.359225224822
 30
0.0
 10
1251.865625715492
 20
1408.688670815191
 30
0.0
  0
SPLINE
  5
1C1
330
1F
100
AcDbEntity
  8
0
  6
Continuous
 62
     8
370
    18
100
AcDbSpline
210
0.0
220
0.0
230
1.0
 70
     8
 71
     3
 72
    11
 73
     7
 74
     0
 42
0.000000001
 43
0.00000001
 40
0.0
 40
0.0
 40
0.0
 40
0.0
 40
0.3598580230790383
 40
0.7246062069006081
 40
0.8621677510649454
 40
1.0
 40
1.0
 40
1.0
 40
1.0
 10
1251.865625715492
 20
1408.688670815191
 30
0.0
 10
1251.86237361924
 20
1409.234967163821
 30
0.0
 10
1251.855825233549
 20
1410.334983558171
 30
0.0
 10
1251.861883736547
 20
1411.769914866395
 30
0.0
 10
1251.86299929252
 20
1412.866164403368
 30
0.0
 10
1251.863095642175
 20
1413.348261769762
 30
0.0
 10
1251.863143864357
 20
1413.5895473974
 30
0.0
  0
SPLINE
  5
1C2
330
1F
100
AcDbEntity
  8
0
  6
Continuous
 62
     8
370
    18
100
AcDbSpline
210
0.0
220
0.0
230
1.0
 70
     8
 71
     3
 72
    12
 73
     8
 74
     0
 42
0.000000001
 43
0.00000001
 40
0.0
 40
0.0
 40
0.0
 40
0.0
 40
0.0542100646910333
 40
0.3612059465304539
 40
0.5267652948496017
 40
0.7633787062243835
 40
1.0
 40
1.0
 40
1.0
 40
1.0
 10
1252.303481162753
 20
1405.555387710788
 30
0.0
 10
1252.342212973996
 20
1405.653151009151
 30
0.0
 10
1252.600286094193
 20
1406.304555594672
 30
0.0
 10
1252.867762631798
 20
1407.467659467564
 30
0.0
 10
1253.068948668601
 20
1409.303507405219
 30
0.0
 10
1253.189979609097
 20
1411.142583018623
 30
0.0
 10
1253.211686377082
 20
1412.652989214251
 30
0.0
 10
1253.222539941853
 20
1413.408204891053
 30
0.0
  0
LINE
  5
1C3
330
1F
100
AcDbEntity
  8
0
  6
Continuous
 62
     8
370
    18
100
AcDbLine
 10
1260.3382070623
 20
1405.8626563074
 30
0.0
 11
1252.3034811628
 21
1405.5553877108
 31
0.0
  0
LINE
  5
1C4
330
1F
100
AcDbEntity
  8
0
  6
Continuous
 62
     8
370
    18
100
AcDbLine
 10
1332.3333396899
 20
1405.8626563074
 30
0.0
 11
1340.3680655894
 21
1405.5553877108
 31
0.0
  0
ARC
  5
1C5
330
1F
100
AcDbEntity
  8
0
  6
Continuous
 62
     8
370
    18
100
AcDbCircle
 10
1331.0848342241
 20
1403.9520064867
 30
0.0
 40
4.876403199913266
100
AcDbArc
 50
80.3932584449
 51
98.1942841504
  0
ARC
  5
1C6
330
1F
100
AcDbEntity
  8
0
  6
Continuous
 62
     8
370
    18
100
AcDbCircle
 10
1261.586712528
 20
1403.9520064867
 30
0.0
 40
4.876403199913345
100
AcDbArc
 50
81.8057158497
 51
99.6067415552
  0
ARC
  5
1C7
330
1F
100
AcDbEntity
  8
0
  6
Continuous
 62
     8
370
    18
100
AcDbCircle
 10
1341.8216350549
 20
1404.0637071379
 30
0.0
 40
4.735183627163805
100
AcDbArc
 50
83.1980176218
 51
102.3864072814
  0
ARC
  5
1C8
330
1F
100
AcDbEntity
  8
0
  6
Continuous
 62
     8
370
    18
100
AcDbCircle
 10
1250.8499116972
 20
1404.0637071379
 30
0.0
 40
4.735183627179935
100
AcDbArc
 50
77.6135927186
 51
96.8019823782
  0
SPLINE
  5
1C9
330
1F
100
AcDbEntity
  8
0
  6
Continuous
 62
     8
370
    18
100
AcDbSpline
210
0.0
220
0.0
230
1.0
 70
     8
 71
     3
 72
    13
 73
     9
 74
     0
 42
0.000000001
 43
0.00000001
 40
0.0
 40
0.0
 40
0.0
 40
0.0
 40
0.3455606136556856
 40
0.7377948233628965
 40
0.8482878985160512
 40
0.909143358859354
 40
0.9540191324658096
 40
1.0
 40
1.0
 40
1.0
 40
1.0
 10
1250.289084485194
 20
1408.765561752981
 30
0.0
 10
1250.39907239459
 20
1408.264390406888
 30
0.0
 10
1250.633903874157
 20
1407.194356351637
 30
0.0
 10
1250.983722618384
 20
1406.107256205226
 30
0.0
 10
1251.537681764633
 20
1405.52707445746
 30
0.0
 10
1251.847036525494
 20
1405.367758581735
 30
0.0
 10
1252.105838900621
 20
1405.302956969358
 30
0.0
 10
1252.268851752732
 20
1405.302899806717
 30
0.0
 10
1252.351349545575
 20
1405.302870877761
 30
0.0
  0
SPLINE
  5
1CA
330
1F
100
AcDbEntity
  8
0
  6
Continuous
 62
     8
370
    18
100
AcDbSpline
210
0.0
220
0.0
230
1.0
 70
     8
 71
     3
 72
    11
 73
     7
 74
     0
 42
0.000000001
 43
0.00000001
 40
0.0
 40
0.0
 40
0.0
 40
0.0
 40
0.2499068565621712
 40
0.4998445626142471
 40
0.7498974475611084
 40
1.0
 40
1.0
 40
1.0
 40
1.0
 10
1252.351349545575
 20
1405.302870877761
 30
0.0
 10
1253.017384722086
 20
1405.334978709898
 30
0.0
 10
1254.349537293122
 20
1405.39919833769
 30
0.0
 10
1256.350613583356
 20
1405.48307199753
 30
0.0
 10
1258.3539187234
 20
1405.556139819691
 30
0.0
 10
1259.691141394504
 20
1405.592138397906
 30
0.0
 10
1260.359819125912
 20
1405.610139474416
 30
0.0
  0
SPLINE
  5
1CB
330
1F
100
AcDbEntity
  8
0
  6
Continuous
 62
     8
370
    18
100
AcDbSpline
210
0.0
220
0.0
230
1.0
 70
     8
 71
     3
 72
    14
 73
    10
 74
     0
 42
0.000000001
 43
0.00000001
 40
0.0
 40
0.0
 40
0.0
 40
0.0
 40
0.0519065920714218
 40
0.1222358501282209
 40
0.1884605327707512
 40
0.3425806135662385
 40
0.488335672712347
 40
0.6976961013112912
 40
1.0
 40
1.0
 40
1.0
 40
1.0
 10
1260.359819125912
 20
1405.610139474416
 30
0.0
 10
1260.443268456361
 20
1405.617323861125
 30
0.0
 10
1260.639784918779
 20
1405.634242514074
 30
0.0
 10
1260.90230981693
 20
1405.747881772224
 30
0.0
 10
1261.217064025375
 20
1405.983819581796
 30
0.0
 10
1261.488630712913
 20
1406.356656959105
 30
0.0
 10
1261.75954802083
 20
1406.923888496403
 30
0.0
 10
1262.026457627378
 20
1407.710934241511
 30
0.0
 10
1262.186933885426
 20
1408.382089031346
 30
0.0
 10
1262.281747214923
 20
1408.778623827247
 30
0.0
  0
SPLINE
  5
1CC
330
1F
100
AcDbEntity
  8
0
  6
Continuous
 62
     8
370
    18
100
AcDbSpline
210
0.0
220
0.0
230
1.0
 70
     8
 71
     3
 72
     9
 73
     5
 74
     0
 42
0.000000001
 43
0.00000001
 40
0.0
 40
0.0
 40
0.0
 40
0.0
 40
0.0293344768637993
 40
1.0
 40
1.0
 40
1.0
 40
1.0
 10
1296.335773376067
 20
1401.779009116143
 30
0.0
 10
1296.32771235873
 20
1401.77900537368
 30
0.0
 10
1296.052915662152
 20
1401.778877794666
 30
0.0
 10
1295.778495162063
 20
1401.80402080483
 30
0.0
 10
1295.512124643785
 20
1401.828426257945
 30
0.0
  0
SPLINE
  5
1CD
330
1F
100
AcDbEntity
  8
0
  6
Continuous
 62
     8
370
    18
100
AcDbSpline
210
0.0
220
0.0
230
1.0
 70
     8
 71
     3
 72
    12
 73
     8
 74
     0
 42
0.000000001
 43
0.00000001
 40
0.0
 40
0.0
 40
0.0
 40
0.0
 40
0.1168311330920583
 40
0.3726334449299162
 40
0.6338270238932953
 40
0.8149152954169157
 40
1.0
 40
1.0
 40
1.0
 40
1.0
 10
1294.970397699798
 20
1401.861904728648
 30
0.0
 10
1294.294004613172
 20
1401.891128529557
 30
0.0
 10
1292.136645702705
 20
1401.984337979115
 30
0.0
 10
1288.496768544106
 20
1402.7939278366
 30
0.0
 10
1284.600390191539
 20
1404.327208487471
 30
0.0
 10
1281.245322459529
 20
1406.307863159062
 30
0.0
 10
1279.476695359758
 20
1407.910706236814
 30
0.0
 10
1278.582730360595
 20
1408.720874536761
 30
0.0
  0
SPLINE
  5
1CE
330
1F
100
AcDbEntity
  8
0
  6
Continuous
 62
     8
370
    18
100
AcDbSpline
210
0.0
220
0.0
230
1.0
 70
     8
 71
     3
 72
    14
 73
    10
 74
     0
 42
0.000000001
 43
0.00000001
 40
0.0
 40
0.0
 40
0.0
 40
0.0
 40
0.0519065920714868
 40
0.1222358501282954
 40
0.1884605327708291
 40
0.3425806135663147
 40
0.4883356727124297
 40
0.6976961013113869
 40
1.0
 40
1.0
 40
1.0
 40
1.0
 10
1332.311727626223
 20
1405.610139474415
 30
0.0
 10
1332.228278295774
 20
1405.617323861125
 30
0.0
 10
1332.031761833356
 20
1405.634242514075
 30
0.0
 10
1331.769236935206
 20
1405.747881772224
 30
0.0
 10
1331.45448272676
 20
1405.983819581796
 30
0.0
 10
1331.182916039222
 20
1406.356656959105
 30
0.0
 10
1330.911998731304
 20
1406.923888496403
 30
0.0
 10
1330.645089124757
 20
1407.710934241511
 30
0.0
 10
1330.484612866709
 20
1408.382089031346
 30
0.0
 10
1330.389799537212
 20
1408.778623827246
 30
0.0
  0
SPLINE
  5
1CF
330
1F
100
AcDbEntity
  8
0
  6
Continuous
 62
     8
370
    18
100
AcDbSpline
210
0.0
220
0.0
230
1.0
 70
     8
 71
     3
 72
    11
 73
     7
 74
     0
 42
0.000000001
 43
0.00000001
 40
0.0
 40
0.0
 40
0.0
 40
0.0
 40
0.249906856562332
 40
0.4998445626143539
 40
0.7498974475611629
 40
1.0
 40
1.0
 40
1.0
 40
1.0
 10
1340.320197206562
 20
1405.302870877761
 30
0.0
 10
1339.65416203005
 20
1405.334978709898
 30
0.0
 10
1338.322009459014
 20
1405.39919833769
 30
0.0
 10
1336.320933168779
 20
1405.48307199753
 30
0.0
 10
1334.317628028735
 20
1405.556139819691
 30
0.0
 10
1332.980405357631
 20
1405.592138397905
 30
0.0
 10
1332.311727626223
 20
1405.610139474415
 30
0.0
  0
SPLINE
  5
1D0
330
1F
100
AcDbEntity
  8
0
  6
Continuous
 62
     8
370
    18
100
AcDbSpline
210
0.0
220
0.0
230
1.0
 70
     8
 71
     3
 72
    13
 73
     9
 74
     0
 42
0.000000001
 43
0.00000001
 40
0.0
 40
0.0
 40
0.0
 40
0.0
 40
0.345560613655852
 40
0.7377948233631622
 40
0.8482878985163456
 40
0.9091433588596637
 40
0.9540191324661306
 40
1.0
 40
1.0
 40
1.0
 40
1.0
 10
1342.382462266942
 20
1408.765561752981
 30
0.0
 10
1342.272474357545
 20
1408.264390406888
 30
0.0
 10
1342.037642877978
 20
1407.194356351637
 30
0.0
 10
1341.68782413375
 20
1406.107256205226
 30
0.0
 10
1341.133864987502
 20
1405.52707445746
 30
0.0
 10
1340.824510226641
 20
1405.367758581736
 30
0.0
 10
1340.565707851514
 20
1405.302956969358
 30
0.0
 10
1340.402694999405
 20
1405.302899806718
 30
0.0
 10
1340.320197206562
 20
1405.302870877761
 30
0.0
  0
SPLINE
  5
1D1
330
1F
100
AcDbEntity
  8
0
  6
Continuous
 62
     8
370
    18
100
AcDbSpline
210
0.0
220
0.0
230
1.0
 70
     8
 71
     3
 72
    13
 73
     9
 74
     0
 42
0.000000001
 43
0.00000001
 40
0.0
 40
0.0
 40
0.0
 40
0.0
 40
0.0016043355124024
 40
0.2727926059062317
 40
0.4428579083924353
 40
0.6159723835324824
 40
0.8046605251224438
 40
1.0
 40
1.0
 40
1.0
 40
1.0
 10
1368.027352673364
 20
1401.779009116143
 30
0.0
 10
1368.032807523539
 20
1401.779011846161
 30
0.0
 10
1368.96032099106
 20
1401.779476043826
 30
0.0
 10
1370.373157316895
 20
1401.977306372271
 30
0.0
 10
1372.093846949668
 20
1402.806298548165
 30
0.0
 10
1373.396492823806
 20
1403.949649462273
 30
0.0
 10
1374.552692568056
 20
1405.605833478008
 30
0.0
 10
1375.073556644996
 20
1407.211423595729
 30
0.0
 10
1375.338499349399
 20
1408.028123012686
 30
0.0
  0
SPLINE
  5
1D2
330
1F
100
AcDbEntity
  8
0
  6
Continuous
 62
     8
370
    18
100
AcDbSpline
210
0.0
220
0.0
230
1.0
 70
     8
 71
     3
 72
    13
 73
     9
 74
     0
 42
0.000000001
 43
0.00000001
 40
0.0
 40
0.0
 40
0.0
 40
0.0
 40
0.1765903405244136
 40
0.3535107282095482
 40
0.5953143040081178
 40
0.837369696354559
 40
0.9987093023973762
 40
1.0
 40
1.0
 40
1.0
 40
1.0
 10
1314.088816391539
 20
1408.720874536761
 30
0.0
 10
1313.167734049654
 20
1407.888317230857
 30
0.0
 10
1311.323847863953
 20
1406.221646570321
 30
0.0
 10
1307.877193837678
 20
1404.234160266862
 30
0.0
 10
1303.8911854058
 20
1402.689323303231
 30
0.0
 10
1299.887504326756
 20
1401.920102749669
 30
0.0
 10
1297.359523293534
 20
1401.779304301155
 30
0.0
 10
1296.343834280736
 20
1401.779011440401
 30
0.0
 10
1296.335773376067
 20
1401.779009116143
 30
0.0
  0
SPLINE
  5
1D3
330
1F
100
AcDbEntity
  8
0
  6
Continuous
 62
     8
370
    18
100
AcDbSpline
210
0.0
220
0.0
230
1.0
 70
     8
 71
     3
 72
     9
 73
     5
 74
     0
 42
0.000000001
 43
0.00000001
 40
0.0
 40
0.0
 40
0.0
 40
0.0
 40
0.8741204396862006
 40
1.0
 40
1.0
 40
1.0
 40
1.0
 10
1260.783070539314
 20
1436.478906158308
 30
0.0
 10
1260.781958780013
 20
1435.68730374727
 30
0.0
 10
1260.780686919466
 20
1434.781704958935
 30
0.0
 10
1260.779503112531
 20
1433.868700626716
 30
0.0
 10
1260.779354095434
 20
1433.753772042812
 30
0.0
  0
LINE
  5
1D4
330
1F
100
AcDbEntity
  8
0
  6
Continuous
 62
     8
370
    18
100
AcDbLine
 10
1259.4436592025
 20
1436.7402906223
 30
0.0
 11
1259.4122821236
 21
1434.0187625559
 31
0.0
  0
ARC
  5
1D5
330
1F
100
AcDbEntity
  8
0
  6
Continuous
 62
     8
370
    18
100
AcDbCircle
 10
1259.4688800788
 20
1433.3070676129
 30
0.0
 40
3.43331564598651
100
AcDbArc
 50
67.4942658279
 51
90.4208942352
  0
LINE
  5
1D6
330
1F
100
AcDbEntity
  8
0
  6
Continuous
 62
     8
370
    18
100
AcDbLine
 10
1333.2278875497
 20
1436.7402906223
 30
0.0
 11
1333.2592646286
 21
1434.0187625559
 31
0.0
  0
SPLINE
  5
1D7
330
1F
100
AcDbEntity
  8
0
  6
Continuous
 62
     8
370
    18
100
AcDbSpline
210
0.0
220
0.0
230
1.0
 70
     8
 71
     3
 72
     9
 73
     5
 74
     0
 42
0.000000001
 43
0.00000001
 40
0.0
 40
0.0
 40
0.0
 40
0.0
 40
0.8741204396862006
 40
1.0
 40
1.0
 40
1.0
 40
1.0
 10
1331.888476212821
 20
1436.478906158308
 30
0.0
 10
1331.889587972122
 20
1435.68730374727
 30
0.0
 10
1331.890859832668
 20
1434.781704958935
 30
0.0
 10
1331.892043639604
 20
1433.868700626716
 30
0.0
 10
1331.892192656701
 20
1433.753772042812
 30
0.0
  0
ARC
  5
1D8
330
1F
100
AcDbEntity
  8
0
  6
Continuous
 62
     8
370
    18
100
AcDbCircle
 10
1333.2026666734
 20
1433.3070676129
 30
0.0
 40
3.43331564598401
100
AcDbArc
 50
89.5791057648
 51
112.5057341721
  0
LINE
  5
1D9
330
1F
100
AcDbEntity
  8
0
  6
Continuous
 62
     8
370
    18
100
AcDbLine
 10
1251.8922740768
 20
1433.7447214767
 30
0.0
 11
1251.8878722563
 21
1436.4628938103
 31
0.0
  0
ARC
  5
1DA
330
1F
100
AcDbEntity
  8
0
  6
Continuous
 62
     8
370
    18
100
AcDbCircle
 10
1253.2278622957
 20
1433.3688123053
 30
0.0
 40
3.371781971741343
100
AcDbArc
 50
89.2310445
 51
113.4165528547
  0
LINE
  5
1DB
330
1F
100
AcDbEntity
  8
0
  6
Continuous
 62
     8
370
    18
100
AcDbLine
 10
1253.2908427048
 20
1434.0187625559
 30
0.0
 11
1253.2731129665
 21
1436.7402906223
 31
0.0
  0
LINE
  5
1DC
330
1F
100
AcDbEntity
  8
0
  6
Continuous
 62
     8
370
    18
100
AcDbLine
 10
1339.3807040473
 20
1434.0187625559
 30
0.0
 11
1339.3984337856
 21
1436.7402906223
 31
0.0
  0
ARC
  5
1DD
330
1F
100
AcDbEntity
  8
0
  6
Continuous
 62
     8
370
    18
100
AcDbCircle
 10
1339.4436844564
 20
1433.3688123053
 30
0.0
 40
3.371781971741798
100
AcDbArc
 50
66.5834471453
 51
90.7689555
  0
LINE
  5
1DE
330
1F
100
AcDbEntity
  8
0
  6
Continuous
 62
     8
370
    18
100
AcDbLine
 10
1340.7792726753
 20
1433.7447214767
 30
0.0
 11
1340.7836744959
 21
1436.4628938103
 31
0.0
  0
LINE
  5
1DF
330
1F
100
AcDbEntity
  8
0
  6
Continuous
 62
     8
370
    18
100
AcDbLine
 10
1259.4436592025
 20
1436.7402906223
 30
0.0
 11
1253.2731129665
 21
1436.7402906223
 31
0.0
  0
LINE
  5
1E0
330
1F
100
AcDbEntity
  8
0
  6
Continuous
 62
     8
370
    18
100
AcDbLine
 10
1333.2278875497
 20
1436.7402906223
 30
0.0
 11
1339.3984337856
 21
1436.7402906223
 31
0.0
  0
ARC
  5
1E1
330
1F
100
AcDbEntity
  8
0
  6
Continuous
 62
     8
370
    18
100
AcDbCircle
 10
1330.0170102688
 20
1441.3989874569
 30
0.0
 40
5.263989434308285
100
AcDbArc
 50
268.4040630365
 51
290.8254619764
  0
ARC
  5
1E2
330
1F
100
AcDbEntity
  8
0
  6
Continuous
 62
     8
370
    18
100
AcDbCircle
 10
1262.6545364833
 20
1441.3989874569
 30
0.0
 40
5.26398943430595
100
AcDbArc
 50
249.1745380236
 51
271.5959369635
  0
ARC
  5
1E3
330
1F
100
AcDbEntity
  8
0
  6
Continuous
 62
     8
370
    18
100
AcDbCircle
 10
1249.9327789763
 20
1441.1557050437
 30
0.0
 40
5.083784712847112
100
AcDbArc
 50
269.0955075017
 51
292.6173188939
  0
ARC
  5
1E4
330
1F
100
AcDbEntity
  8
0
  6
Continuous
 62
     8
370
    18
100
AcDbCircle
 10
1342.7387677758
 20
1441.1557050437
 30
0.0
 40
5.083784712846604
100
AcDbArc
 50
247.3826811061
 51
270.9044924983
  0
ARC
  5
1E5
330
1F
100
AcDbEntity
  8
0
  6
Continuous
 62
     8
370
    18
100
AcDbCircle
 10
1348.3138684667
 20
1404.3677535059
 30
0.0
 40
16.05029701820166
100
AcDbArc
 50
174.65580342
 51
175.5605339091
  0
ARC
  5
1E6
330
1F
100
AcDbEntity
  8
0
  6
Continuous
 62
     8
370
    18
100
AcDbCircle
 10
1244.3576782881
 20
1404.3677535061
 30
0.0
 40
16.05029701558031
100
AcDbArc
 50
4.4394660909
 51
5.3441965801
  0
ARC
  5
1E7
330
1F
100
AcDbEntity
  8
0
  6
Continuous
 62
     8
370
    18
100
AcDbCircle
 10
1245.7721718361
 20
1404.1864837944
 30
0.0
 40
6.673222568808816
100
AcDbArc
 50
9.6304973657
 51
11.8373353034
  0
ARC
  5
1E8
330
1F
100
AcDbEntity
  8
0
  6
Continuous
 62
     8
370
    18
100
AcDbCircle
 10
1346.8993749235
 20
1404.186483793
 30
0.0
 40
6.673222576413285
100
AcDbArc
 50
168.1626646983
 51
170.3695026334
  0
SPLINE
  5
1E9
330
1F
100
AcDbEntity
  8
0
  6
Continuous
 62
     8
370
    18
100
AcDbSpline
210
0.0
220
0.0
230
1.0
 70
     8
 71
     3
 72
    15
 73
    11
 74
     0
 42
0.000000001
 43
0.00000001
 40
0.0
 40
0.0
 40
0.0
 40
0.0
 40
0.0357295768982805
 40
0.0559023856318693
 40
0.0935770997983541
 40
0.1154709098174181
 40
0.2166995392891669
 40
0.4238827620184496
 40
0.9068299214990578
 40
1.0
 40
1.0
 40
1.0
 40
1.0
 10
1259.915776263517
 20
1440.143034067893
 30
0.0
 10
1259.975146790974
 20
1440.144927768152
 30
0.0
 10
1260.068037734814
 20
1440.147890645728
 30
0.0
 10
1260.21613167257
 20
1440.106973761302
 30
0.0
 10
1260.324144927166
 20
1440.045223766953
 30
0.0
 10
1260.493378246812
 20
1439.889293186704
 30
0.0
 10
1260.686230426864
 20
1439.495256054501
 30
0.0
 10
1260.807342932823
 20
1438.501272370803
 30
0.0
 10
1260.783032361546
 20
1437.441252420719
 30
0.0
 10
1260.783065224667
 20
1436.612872355793
 30
0.0
 10
1260.783070539314
 20
1436.478906158308
 30
0.0
  0
SPLINE
  5
1EA
330
1F
100
AcDbEntity
  8
0
  6
Continuous
 62
     8
370
    18
100
AcDbSpline
210
0.0
220
0.0
230
1.0
 70
     8
 71
     3
 72
    11
 73
     7
 74
     0
 42
0.000000001
 43
0.00000001
 40
0.0
 40
0.0
 40
0.0
 40
0.0
 40
0.168844766510027
 40
0.3388483789551254
 40
0.6648683581705691
 40
1.0
 40
1.0
 40
1.0
 40
1.0
 10
1259.915776263517
 20
1440.143034067893
 30
0.0
 10
1259.867728561863
 20
1439.992492441475
 30
0.0
 10
1259.771303388881
 20
1439.690375964126
 30
0.0
 10
1259.621448912802
 20
1439.01317605903
 30
0.0
 10
1259.483731074445
 20
1438.065181408047
 30
0.0
 10
1259.457138654301
 20
1437.185959882043
 30
0.0
 10
1259.443659202479
 20
1436.740290622281
 30
0.0
  0
SPLINE
  5
1EB
330
1F
100
AcDbEntity
  8
0
  6
Continuous
 62
     8
370
    18
100
AcDbSpline
210
0.0
220
0.0
230
1.0
 70
     8
 71
     3
 72
    15
 73
    11
 74
     0
 42
0.000000001
 43
0.00000001
 40
0.0
 40
0.0
 40
0.0
 40
0.0
 40
0.0357295768982805
 40
0.0559023856318693
 40
0.0935770997983541
 40
0.1154709098174181
 40
0.2166995392891669
 40
0.4238827620184496
 40
0.9068299214990578
 40
1.0
 40
1.0
 40
1.0
 40
1.0
 10
1332.755770488618
 20
1440.143034067893
 30
0.0
 10
1332.696399961161
 20
1440.144927768152
 30
0.0
 10
1332.603509017321
 20
1440.147890645728
 30
0.0
 10
1332.455415079565
 20
1440.106973761302
 30
0.0
 10
1332.347401824969
 20
1440.045223766953
 30
0.0
 10
1332.178168505322
 20
1439.889293186704
 30
0.0
 10
1331.985316325271
 20
1439.495256054501
 30
0.0
 10
1331.864203819312
 20
1438.501272370803
 30
0.0
 10
1331.888514390588
 20
1437.441252420719
 30
0.0
 10
1331.888481527468
 20
1436.612872355793
 30
0.0
 10
1331.888476212821
 20
1436.478906158308
 30
0.0
  0
SPLINE
  5
1EC
330
1F
100
AcDbEntity
  8
0
  6
Continuous
 62
     8
370
    18
100
AcDbSpline
210
0.0
220
0.0
230
1.0
 70
     8
 71
     3
 72
    11
 73
     7
 74
     0
 42
0.000000001
 43
0.00000001
 40
0.0
 40
0.0
 40
0.0
 40
0.0
 40
0.168844766510027
 40
0.3388483789551254
 40
0.6648683581705691
 40
1.0
 40
1.0
 40
1.0
 40
1.0
 10
1332.755770488618
 20
1440.143034067893
 30
0.0
 10
1332.803818190272
 20
1439.992492441475
 30
0.0
 10
1332.900243363254
 20
1439.690375964126
 30
0.0
 10
1333.050097839333
 20
1439.01317605903
 30
0.0
 10
1333.18781567769
 20
1438.065181408047
 30
0.0
 10
1333.214408097834
 20
1437.185959882043
 30
0.0
 10
1333.227887549657
 20
1436.740290622281
 30
0.0
  0
SPLINE
  5
1ED
330
1F
100
AcDbEntity
  8
0
  6
Continuous
 62
     8
370
    18
100
AcDbSpline
210
0.0
220
0.0
230
1.0
 70
     8
 71
     3
 72
    11
 73
     7
 74
     0
 42
0.000000001
 43
0.00000001
 40
0.0
 40
0.0
 40
0.0
 40
0.0
 40
0.316635143085858
 40
0.6421699667518265
 40
0.8203579608774884
 40
1.0
 40
1.0
 40
1.0
 40
1.0
 10
1339.398433785595
 20
1436.740290622281
 30
0.0
 10
1339.409669934887
 20
1437.172732918384
 30
0.0
 10
1339.432458048508
 20
1438.049772188897
 30
0.0
 10
1339.568113618992
 20
1439.013056403634
 30
0.0
 10
1339.725637207305
 20
1439.72623537598
 30
0.0
 10
1339.831929957095
 20
1440.048846876683
 30
0.0
 10
1339.885292292678
 20
1440.210808094148
 30
0.0
  0
SPLINE
  5
1EE
330
1F
100
AcDbEntity
  8
0
  6
Continuous
 62
     8
370
    18
100
AcDbSpline
210
0.0
220
0.0
230
1.0
 70
     8
 71
     3
 72
    14
 73
    10
 74
     0
 42
0.000000001
 43
0.00000001
 40
0.0
 40
0.0
 40
0.0
 40
0.0
 40
0.6113158653943844
 40
0.7934072053583401
 40
0.8854170307688745
 40
0.9194198313361063
 40
0.9434501870529949
 40
0.9749897870426377
 40
1.0
 40
1.0
 40
1.0
 40
1.0
 10
1340.783674495862
 20
1436.462893810255
 30
0.0
 10
1340.810483639499
 20
1437.34521713085
 30
0.0
 10
1340.845278365
 20
1438.4903561983
 30
0.0
 10
1340.688672336623
 20
1439.626012311081
 30
0.0
 10
1340.48358529477
 20
1440.003759372956
 30
0.0
 10
1340.29760626306
 20
1440.144800266964
 30
0.0
 10
1340.160647379657
 20
1440.202005502892
 30
0.0
 10
1340.021766647034
 20
1440.224343308359
 30
0.0
 10
1339.927141870677
 20
1440.214958639541
 30
0.0
 10
1339.885292292678
 20
1440.210808094148
 30
0.0
  0
SPLINE
  5
1EF
330
1F
100
AcDbEntity
  8
0
  6
Continuous
 62
     8
370
    18
100
AcDbSpline
210
0.0
220
0.0
230
1.0
 70
     8
 71
     3
 72
    14
 73
    10
 74
     0
 42
0.000000001
 43
0.00000001
 40
0.0
 40
0.0
 40
0.0
 40
0.0
 40
0.6113158653943844
 40
0.7934072053583401
 40
0.8854170307688745
 40
0.9194198313361063
 40
0.9434501870529949
 40
0.9749897870426377
 40
1.0
 40
1.0
 40
1.0
 40
1.0
 10
1251.887872256273
 20
1436.462893810255
 30
0.0
 10
1251.861063112636
 20
1437.34521713085
 30
0.0
 10
1251.826268387135
 20
1438.4903561983
 30
0.0
 10
1251.982874415512
 20
1439.626012311081
 30
0.0
 10
1252.187961457365
 20
1440.003759372956
 30
0.0
 10
1252.373940489075
 20
1440.144800266964
 30
0.0
 10
1252.510899372478
 20
1440.202005502892
 30
0.0
 10
1252.649780105101
 20
1440.224343308359
 30
0.0
 10
1252.744404881458
 20
1440.214958639541
 30
0.0
 10
1252.786254459457
 20
1440.210808094148
 30
0.0
  0
SPLINE
  5
1F0
330
1F
100
AcDbEntity
  8
0
  6
Continuous
 62
     8
370
    18
100
AcDbSpline
210
0.0
220
0.0
230
1.0
 70
     8
 71
     3
 72
    11
 73
     7
 74
     0
 42
0.000000001
 43
0.00000001
 40
0.0
 40
0.0
 40
0.0
 40
0.0
 40
0.316635143085858
 40
0.6421699667518265
 40
0.8203579608774884
 40
1.0
 40
1.0
 40
1.0
 40
1.0
 10
1253.27311296654
 20
1436.740290622281
 30
0.0
 10
1253.261876817248
 20
1437.172732918384
 30
0.0
 10
1253.239088703627
 20
1438.049772188897
 30
0.0
 10
1253.103433133143
 20
1439.013056403634
 30
0.0
 10
1252.945909544829
 20
1439.72623537598
 30
0.0
 10
1252.83961679504
 20
1440.048846876683
 30
0.0
 10
1252.786254459457
 20
1440.210808094148
 30
0.0
  0
LINE
  5
1F1
330
1F
100
AcDbEntity
  8
0
  6
Continuous
 62
     8
370
    18
100
AcDbLine
 10
1339.8852922927
 20
1440.2108080941
 30
0.0
 11
1332.7557704886
 21
1440.1430340679
 31
0.0
  0
LINE
  5
1F2
330
1F
100
AcDbEntity
  8
0
  6
Continuous
 62
     8
370
    18
100
AcDbLine
 10
1252.7862544595
 20
1440.2108080941
 30
0.0
 11
1259.9157762635
 21
1440.1430340679
 31
0.0
  0
ARC
  5
1F3
330
1F
100
AcDbEntity
  8
0
  6
Continuous
 62
     8
370
    18
100
AcDbCircle
 10
1209.9651099396
 20
1442.4327427739
 30
0.0
 40
42.8787524505229
100
AcDbArc
 50
357.0296588465
 51
358.2432093097
  0
ARC
  5
1F4
330
1F
100
AcDbEntity
  8
0
  6
Continuous
 62
     8
370
    18
100
AcDbCircle
 10
1382.7064368112
 20
1442.4327427738
 30
0.0
 40
42.87875244915782
100
AcDbArc
 50
181.7567906902
 51
182.9703411536
  0
ARC
  5
1F5
330
1F
100
AcDbEntity
  8
0
  6
Continuous
 62
     8
370
    18
100
AcDbCircle
 10
1426.1386342005
 20
1442.3916559755
 30
0.0
 40
93.409932745474
100
AcDbArc
 50
180.8364313175
 51
181.3793928307
  0
ARC
  5
1F6
330
1F
100
AcDbEntity
  8
0
  6
Continuous
 62
     8
370
    18
100
AcDbCircle
 10
1166.5329125397
 20
1442.3916559758
 30
0.0
 40
93.40993275742834
100
AcDbArc
 50
358.6206071693
 51
359.1635686824
  0
SPLINE
  5
1F7
330
1F
100
AcDbEntity
  8
0
  6
Continuous
 62
     8
370
    18
100
AcDbSpline
210
0.0
220
0.0
230
1.0
 70
     8
 71
     3
 72
    20
 73
    16
 74
     0
 42
0.000000001
 43
0.00000001
 40
0.0
 40
0.0
 40
0.0
 40
0.0
 40
0.0262949951381539
 40
0.1141805994167154
 40
0.2050009162995117
 40
0.301821359164353
 40
0.4001096700271504
 40
0.4957119737796382
 40
0.5689984974216389
 40
0.6442268808353193
 40
0.7075782994275371
 40
0.7721105905636341
 40
0.8325062307491627
 40
0.8941019040528455
 40
1.0
 40
1.0
 40
1.0
 40
1.0
 10
1376.279113997059
 20
1408.324873383348
 30
0.0
 10
1376.354928993565
 20
1408.610092995689
 30
0.0
 10
1376.684139997419
 20
1409.848600404853
 30
0.0
 10
1377.341510999574
 20
1412.322108831146
 30
0.0
 10
1378.238063941662
 20
1415.991435757721
 30
0.0
 10
1379.044069040474
 20
1420.108605466117
 30
0.0
 10
1379.500092790927
 20
1424.46929582122
 30
0.0
 10
1379.378217875634
 20
1428.380566146624
 30
0.0
 10
1379.031007693767
 20
1431.677315512706
 30
0.0
 10
1378.769685529039
 20
1434.289689023783
 30
0.0
 10
1378.768949222833
 20
1436.562350242082
 30
0.0
 10
1378.91257369283
 20
1438.420034683294
 30
0.0
 10
1379.227930820547
 20
1439.985039810695
 30
0.0
 10
1379.430030335907
 20
1441.499551505286
 30
0.0
 10
1379.33382538515
 20
1442.005428698585
 30
0.0
 10
1379.272999712938
 20
1442.325270038313
 30
0.0
  0
ARC
  5
1F8
330
1F
100
AcDbEntity
  8
0
  6
Continuous
 62
     8
370
    18
100
AcDbCircle
 10
1376.6054693174
 20
1405.6513031975
 30
0.0
 40
2.693415180357472
100
AcDbArc
 50
96.9595071703
 51
118.0599624147
  0
ARC
  5
1F9
330
1F
100
AcDbEntity
  8
0
  6
Continuous
 62
     8
370
    18
100
AcDbCircle
 10
1381.2624370954
 20
1444.5752869243
 30
0.0
 40
3.003404249506333
100
AcDbArc
 50
228.5172796838
 51
270.3109595547
  0
SPLINE
  5
1FA
330
1F
100
AcDbEntity
  8
0
  6
Continuous
 62
     8
370
    18
100
AcDbSpline
210
0.0
220
0.0
230
1.0
 70
     8
 71
     3
 72
    22
 73
    18
 74
     0
 42
0.000000001
 43
0.00000001
 40
0.0
 40
0.0
 40
0.0
 40
0.0
 40
0.0604782955210949
 40
0.1209107522713747
 40
0.188474913944386
 40
0.2560958620764553
 40
0.3308528003812596
 40
0.40560413259029
 40
0.4728286997367329
 40
0.5400039932488331
 40
0.6145903506605181
 40
0.6892095991779491
 40
0.6973759092103062
 40
0.7789456219531093
 40
0.8605868885159251
 40
0.9302996545740239
 40
1.0
 40
1.0
 40
1.0
 40
1.0
 10
1381.27873729532
 20
1441.571926907718
 30
0.0
 10
1381.313991404757
 20
1441.411159887418
 30
0.0
 10
1381.384472903217
 20
1441.089747698181
 30
0.0
 10
1381.421653942247
 20
1440.141186564054
 30
0.0
 10
1381.097170539376
 20
1438.817939551854
 30
0.0
 10
1380.690280744964
 20
1437.019852816097
 30
0.0
 10
1380.597577281589
 20
1434.755269222364
 30
0.0
 10
1380.854775399101
 20
1432.175256065466
 30
0.0
 10
1381.266919306346
 20
1429.457460085851
 30
0.0
 10
1381.508910158909
 20
1426.554472116011
 30
0.0
 10
1381.440115089174
 20
1423.413498038314
 30
0.0
 10
1381.138906910962
 20
1421.117097029457
 30
0.0
 10
1380.696885485371
 20
1418.765701205347
 30
0.0
 10
1380.113286007872
 20
1416.354911355562
 30
0.0
 10
1379.168393385262
 20
1413.283361609116
 30
0.0
 10
1378.244919214668
 20
1410.568045514157
 30
0.0
 10
1377.71452304613
 20
1409.055852674405
 30
0.0
 10
1377.449348588964
 20
1408.299823616883
 30
0.0
  0
ARC
  5
1FB
330
1F
100
AcDbEntity
  8
0
  6
Continuous
 62
     8
370
    18
100
AcDbCircle
 10
1376.7805452985
 20
1404.4028411667
 30
0.0
 40
3.953956253968229
100
AcDbArc
 50
80.261721698
 51
97.2857328837
  0
SPLINE
  5
1FC
330
1F
100
AcDbEntity
  8
0
  6
Continuous
 62
     8
370
    18
100
AcDbSpline
210
0.0
220
0.0
230
1.0
 70
     8
 71
     3
 72
    11
 73
     7
 74
     0
 42
0.000000001
 43
0.00000001
 40
0.0
 40
0.0
 40
0.0
 40
0.0
 40
0.2101620489852548
 40
0.6011741985698232
 40
0.9956880907203883
 40
1.0
 40
1.0
 40
1.0
 40
1.0
 10
1372.085773376068
 20
1402.45048156414
 30
0.0
 10
1371.822658229265
 20
1402.359231407685
 30
0.0
 10
1371.07001026892
 20
1402.098207878741
 30
0.0
 10
1369.736705077535
 20
1401.846333052267
 30
0.0
 10
1368.615985663173
 20
1401.779238981565
 30
0.0
 10
1368.033648616372
 20
1401.779011574754
 30
0.0
 10
1368.027352673364
 20
1401.779009116143
 30
0.0
  0
SPLINE
  5
1FD
330
1F
100
AcDbEntity
  8
0
  6
Continuous
 62
     8
370
    18
100
AcDbSpline
210
0.0
220
0.0
230
1.0
 70
     8
 71
     3
 72
    12
 73
     8
 74
     0
 42
0.000000001
 43
0.00000001
 40
0.0
 40
0.0
 40
0.0
 40
0.0
 40
0.2467373750775724
 40
0.5009759128091713
 40
0.7464462631527632
 40
0.996904547814918
 40
0.9999999999999999
 40
0.9999999999999999
 40
0.9999999999999999
 40
0.9999999999999999
 10
1377.449348588964
 20
1408.299823616883
 30
0.0
 10
1377.157400980321
 20
1407.589314193253
 30
0.0
 10
1376.5646301458
 20
1406.146694861866
 30
0.0
 10
1375.305092062622
 20
1404.511221198248
 30
0.0
 10
1373.821994769449
 20
1403.253431697074
 30
0.0
 10
1372.694844930236
 20
1402.681414110217
 30
0.0
 10
1372.093119403072
 20
1402.453266847262
 30
0.0
 10
1372.085773376068
 20
1402.45048156414
 30
0.0
  0
SPLINE
  5
1FE
330
1F
100
AcDbEntity
  8
0
  6
Continuous
 62
     8
370
    18
100
AcDbSpline
210
0.0
220
0.0
230
1.0
 70
     8
 71
     3
 72
    10
 73
     6
 74
     0
 42
0.000000001
 43
0.00000001
 40
0.0
 40
0.0
 40
0.0
 40
0.0
 40
0.0157305655563108
 40
0.506346682876855
 40
1.0
 40
1.0
 40
1.0
 40
1.0
 10
1381.256594300622
 20
1441.779009116143
 30
0.0
 10
1381.25614823105
 20
1441.778997051939
 30
0.0
 10
1381.241789824997
 20
1441.778608720719
 30
0.0
 10
1381.23603009618
 20
1441.746963160469
 30
0.0
 10
1381.264472307182
 20
1441.630392227841
 30
0.0
 10
1381.278737295321
 20
1441.571926907718
 30
0.0
  0
SPLINE
  5
1FF
330
1F
100
AcDbEntity
  8
0
  6
Continuous
 62
     8
370
    18
100
AcDbSpline
210
0.0
220
0.0
230
1.0
 70
     8
 71
     3
 72
    12
 73
     8
 74
     0
 42
0.000000001
 43
0.00000001
 40
0.0
 40
0.0
 40
0.0
 40
0.0
 40
0.310722201344292
 40
0.6300915284038203
 40
0.7856616918457199
 40
0.892542319116496
 40
1.0
 40
1.0
 40
1.0
 40
1.0
 10
1372.085773376068
 20
1402.45048156414
 30
0.0
 10
1372.636704502103
 20
1402.798953215676
 30
0.0
 10
1373.753898683099
 20
1403.505594178476
 30
0.0
 10
1374.900476916366
 20
1405.010720207095
 30
0.0
 10
1375.604961119696
 20
1406.399183574144
 30
0.0
 10
1375.996636677111
 20
1407.381477025064
 30
0.0
 10
1376.184786041653
 20
1408.009844022298
 30
0.0
 10
1376.279113997059
 20
1408.324873383348
 30
0.0
  0
LINE
  5
200
330
1F
100
AcDbEntity
  8
0
  6
Continuous
 62
     8
370
    18
100
AcDbLine
 10
1243.3357733761
 20
1451.0790091161
 30
0.0
 11
1243.3357733761
 21
1450.9362075878
 31
0.0
  0
LINE
  5
201
330
1F
100
AcDbEntity
  8
0
  6
Continuous
 62
     8
370
    18
100
AcDbLine
 10
1243.3357733761
 20
1450.9362075878
 30
0.0
 11
1215.3957457948
 21
1450.9362075878
 31
0.0
  0
LINE
  5
202
330
1F
100
AcDbEntity
  8
0
  6
Continuous
 62
     8
370
    18
100
AcDbLine
 10
1349.3357733761
 20
1451.0790091161
 30
0.0
 11
1349.3357733761
 21
1450.9362075878
 31
0.0
  0
LINE
  5
203
330
1F
100
AcDbEntity
  8
0
  6
Continuous
 62
     8
370
    18
100
AcDbLine
 10
1243.3357733761
 20
1450.9362075878
 30
0.0
 11
1349.3357733761
 21
1450.9362075878
 31
0.0
  0
LINE
  5
204
330
1F
100
AcDbEntity
  8
0
  6
Continuous
 62
     8
370
    18
100
AcDbLine
 10
1349.3357733761
 20
1450.9362075878
 30
0.0
 11
1377.2758009573
 21
1450.9362075878
 31
0.0
  0
LINE
  5
205
330
1F
100
AcDbEntity
  8
0
  6
Continuous
 62
     8
370
    18
100
AcDbLine
 10
1243.3357733761
 20
1450.9362075878
 30
0.0
 11
1243.3357733761
 21
1450.0144402226
 31
0.0
  0
LINE
  5
206
330
1F
100
AcDbEntity
  8
0
  6
Continuous
 62
     8
370
    18
100
AcDbLine
 10
1349.3357733761
 20
1450.9362075878
 30
0.0
 11
1349.3357733761
 21
1450.0144402226
 31
0.0
  0
LINE
  5
207
330
1F
100
AcDbEntity
  8
0
  6
Continuous
 62
     8
370
    18
100
AcDbLine
 10
1424.5297218338
 20
1401.7790091161
 30
0.0
 11
1424.5297218338
 21
1441.7790091161
 31
0.0
  0
LINE
  5
208
330
1F
100
AcDbEntity
  8
0
  6
Continuous
 62
     8
370
    18
100
AcDbLine
 10
1425.13552007
 20
1441.717207288
 30
0.0
 11
1425.13552007
 21
1401.8408109443
 31
0.0
  0
LINE
  5
209
330
1F
100
AcDbEntity
  8
0
  6
Continuous
 62
     8
370
    18
100
AcDbLine
 10
883.8357733761
 20
1459.2254476157
 30
0.0
 11
883.8357733761
 21
1458.2254476157
 31
0.0
  0
LINE
  5
20A
330
1F
100
AcDbEntity
  8
0
  6
Continuous
 62
     8
370
    18
100
AcDbLine
 10
1708.8357733761
 20
1458.2254476157
 30
0.0
 11
1708.8357733761
 21
1459.2254476157
 31
0.0
  0
LINE
  5
20B
330
1F
100
AcDbEntity
  8
0
  6
Continuous
 62
     8
370
    18
100
AcDbLine
 10
1686.3357733761
 20
1452.4995881373
 30
0.0
 11
1688.3357733761
 21
1452.4995881373
 31
0.0
  0
LINE
  5
20C
330
1F
100
AcDbEntity
  8
0
  6
Continuous
 62
     8
370
    18
100
AcDbLine
 10
1688.3357733761
 20
1450.6869725632
 30
0.0
 11
1686.3357733761
 21
1450.6869725632
 31
0.0
  0
LINE
  5
20D
330
1F
100
AcDbEntity
  8
0
  6
Continuous
 62
     8
370
    18
100
AcDbLine
 10
1686.3357733761
 20
1443.4286732786
 30
0.0
 11
1688.3357733761
 21
1443.4286732786
 31
0.0
  0
LINE
  5
20E
330
1F
100
AcDbEntity
  8
0
  6
Continuous
 62
     8
370
    18
100
AcDbLine
 10
1688.3357733761
 20
1441.6160577046
 30
0.0
 11
1686.3357733761
 21
1441.6160577046
 31
0.0
  0
LINE
  5
20F
330
1F
100
AcDbEntity
  8
0
  6
Continuous
 62
     8
370
    18
100
AcDbLine
 10
1686.3357733761
 20
1407.3254476157
 30
0.0
 11
1688.3357733761
 21
1407.3254476157
 31
0.0
  0
LINE
  5
210
330
1F
100
AcDbEntity
  8
0
  6
Continuous
 62
     8
370
    18
100
AcDbLine
 10
904.3357733761
 20
1452.4995881373
 30
0.0
 11
906.3357733761
 21
1452.4995881373
 31
0.0
  0
LINE
  5
211
330
1F
100
AcDbEntity
  8
0
  6
Continuous
 62
     8
370
    18
100
AcDbLine
 10
906.3357733761
 20
1450.6869725632
 30
0.0
 11
904.3357733761
 21
1450.6869725632
 31
0.0
  0
LINE
  5
212
330
1F
100
AcDbEntity
  8
0
  6
Continuous
 62
     8
370
    18
100
AcDbLine
 10
904.3357733761
 20
1443.4286732786
 30
0.0
 11
906.3357733761
 21
1443.4286732786
 31
0.0
  0
LINE
  5
213
330
1F
100
AcDbEntity
  8
0
  6
Continuous
 62
     8
370
    18
100
AcDbLine
 10
906.3357733761
 20
1441.6160577046
 30
0.0
 11
904.3357733761
 21
1441.6160577046
 31
0.0
  0
LINE
  5
214
330
1F
100
AcDbEntity
  8
0
  6
Continuous
 62
     8
370
    18
100
AcDbLine
 10
904.3357733761
 20
1407.3254476157
 30
0.0
 11
906.3357733761
 21
1407.3254476157
 31
0.0
  0
LINE
  5
215
330
1F
100
AcDbEntity
  8
0
  6
Continuous
 62
     7
370
    35
100
AcDbLine
 10
1686.3357733761
 20
1104.950518585
 30
0.0
 11
906.3357733761
 21
1104.950518585
 31
0.0
  0
LINE
  5
216
330
1F
100
AcDbEntity
  8
0
  6
Continuous
 62
     7
370
    35
100
AcDbLine
 10
1686.3357733761
 20
1101.950518585
 30
0.0
 11
906.3357733761
 21
1101.950518585
 31
0.0
  0
LINE
  5
217
330
1F
100
AcDbEntity
  8
0
  6
Continuous
 62
     7
370
    35
100
AcDbLine
 10
1686.3357733761
 20
1104.8647321474
 30
0.0
 11
1686.3357733761
 21
1102.0363050226
 31
0.0
  0
LINE
  5
218
330
1F
100
AcDbEntity
  8
0
  6
Continuous
 62
     7
370
    35
100
AcDbLine
 10
906.3357733761
 20
1102.0363050226
 30
0.0
 11
906.3357733761
 21
1104.8647321474
 31
0.0
  0
LINE
  5
219
330
1F
100
AcDbEntity
  8
0
  6
Continuous
 62
     7
370
    35
100
AcDbLine
 10
906.3357733761
 20
1037.950518585
 30
0.0
 11
1686.3357733761
 21
1037.950518585
 31
0.0
  0
LINE
  5
21A
330
1F
100
AcDbEntity
  8
0
  6
Continuous
 62
     7
370
    35
100
AcDbLine
 10
906.3357733761
 20
1034.950518585
 30
0.0
 11
1686.3357733761
 21
1034.950518585
 31
0.0
  0
LINE
  5
21B
330
1F
100
AcDbEntity
  8
0
  6
Continuous
 62
     7
370
    35
100
AcDbLine
 10
906.3357733761
 20
1035.0363050226
 30
0.0
 11
906.3357733761
 21
1037.8647321474
 31
0.0
  0
LINE
  5
21C
330
1F
100
AcDbEntity
  8
0
  6
Continuous
 62
     7
370
    35
100
AcDbLine
 10
1686.3357733761
 20
1037.8647321474
 30
0.0
 11
1686.3357733761
 21
1035.0363050226
 31
0.0
  0
LINE
  5
21D
330
1F
100
AcDbEntity
  8
0
  6
Continuous
 62
     7
370
    35
100
AcDbLine
 10
1686.3357733761
 20
1105.950518585
 30
0.0
 11
1686.3357733761
 21
1104.950518585
 31
0.0
  0
LINE
  5
21E
330
1F
100
AcDbEntity
  8
0
  6
Continuous
 62
     7
370
    35
100
AcDbLine
 10
906.3357733761
 20
1104.950518585
 30
0.0
 11
906.3357733761
 21
1105.950518585
 31
0.0
  0
LINE
  5
21F
330
1F
100
AcDbEntity
  8
0
  6
Continuous
 62
     7
370
    35
100
AcDbLine
 10
1686.3357733761
 20
1033.950518585
 30
0.0
 11
1686.3357733761
 21
1034.950518585
 31
0.0
  0
LINE
  5
220
330
1F
100
AcDbEntity
  8
0
  6
Continuous
 62
     7
370
    35
100
AcDbLine
 10
906.3357733761
 20
1034.950518585
 30
0.0
 11
906.3357733761
 21
1033.950518585
 31
0.0
  0
LINE
  5
221
330
1F
100
AcDbEntity
  8
0
  6
Continuous
 62
     7
370
    35
100
AcDbLine
 10
1686.3357733761
 20
1004.450518585
 30
0.0
 11
906.3357733761
 21
1004.450518585
 31
0.0
  0
LINE
  5
222
330
1F
100
AcDbEntity
  8
0
  6
Continuous
 62
     7
370
    35
100
AcDbLine
 10
1686.3357733761
 20
1033.950518585
 30
0.0
 11
1686.3357733761
 21
1004.450518585
 31
0.0
  0
LINE
  5
223
330
1F
100
AcDbEntity
  8
0
  6
Continuous
 62
     7
370
    35
100
AcDbLine
 10
906.3357733761
 20
1004.450518585
 30
0.0
 11
906.3357733761
 21
1033.950518585
 31
0.0
  0
LINE
  5
224
330
1F
100
AcDbEntity
  8
0
  6
Continuous
 62
     7
370
    35
100
AcDbLine
 10
906.3357733761
 20
1105.950518585
 30
0.0
 11
906.3357733761
 21
1135.450518585
 31
0.0
  0
LINE
  5
225
330
1F
100
AcDbEntity
  8
0
  6
Continuous
 62
     7
370
    35
100
AcDbLine
 10
1686.3357733761
 20
1135.450518585
 30
0.0
 11
1686.3357733761
 21
1105.950518585
 31
0.0
  0
LINE
  5
226
330
1F
100
AcDbEntity
  8
0
  6
Continuous
 62
     7
370
    35
100
AcDbLine
 10
906.3357733761
 20
1135.450518585
 30
0.0
 11
1686.3357733761
 21
1135.450518585
 31
0.0
  0
SPLINE
  5
227
330
1F
100
AcDbEntity
  8
0
  6
Continuous
 62
     7
370
    35
100
AcDbSpline
210
0.0
220
0.0
230
1.0
 70
     8
 71
     3
 72
     8
 73
     4
 74
     0
 42
0.000000001
 43
0.00000001
 40
0.0
 40
0.0
 40
0.0
 40
0.0
 40
1.0
 40
1.0
 40
1.0
 40
1.0
 10
1349.335773376067
 20
1099.206302783621
 30
0.0
 10
1351.59289563308
 20
1099.206302783621
 30
0.0
 10
1353.849724350867
 20
1099.138311577577
 30
0.0
 10
1356.103036347955
 20
1099.007412959232
 30
0.0
  0
LINE
  5
228
330
1F
100
AcDbEntity
  8
0
  6
Continuous
 62
     7
370
    35
100
AcDbLine
 10
1243.3357733761
 20
1099.2063027836
 30
0.0
 11
1349.3357733761
 21
1099.2063027836
 31
0.0
  0
SPLINE
  5
229
330
1F
100
AcDbEntity
  8
0
  6
Continuous
 62
     7
370
    35
100
AcDbSpline
210
0.0
220
0.0
230
1.0
 70
     8
 71
     3
 72
     8
 73
     4
 74
     0
 42
0.000000001
 43
0.00000001
 40
0.0
 40
0.0
 40
0.0
 40
0.0
 40
1.0
 40
1.0
 40
1.0
 40
1.0
 10
1236.56851040418
 20
1099.007412959232
 30
0.0
 10
1238.821822094573
 20
1099.138311559548
 30
0.0
 10
1241.078646224837
 20
1099.206302783621
 30
0.0
 10
1243.335773376067
 20
1099.206302783621
 30
0.0
  0
SPLINE
  5
22A
330
1F
100
AcDbEntity
  8
0
  6
Continuous
 62
     7
370
    35
100
AcDbSpline
210
0.0
220
0.0
230
1.0
 70
     8
 71
     3
 72
    22
 73
    18
 74
     0
 42
0.000000001
 43
0.00000001
 40
3.369126305560274
 40
3.369126305560274
 40
3.369126305560274
 40
3.369126305560274
 40
3.535853022596993
 40
3.535853022596993
 40
3.702579739633712
 40
3.702579739633712
 40
3.869306456670431
 40
3.869306456670431
 40
4.036033173707151
 40
4.036033173707151
 40
4.20275989074387
 40
4.20275989074387
 40
4.369486607780589
 40
4.369486607780589
 40
4.536213324817307
 40
4.536213324817307
 40
4.702940041854027
 40
4.702940041854027
 40
4.702940041854027
 40
4.702940041854027
 10
1213.337112602694
 20
1070.064105746796
 30
0.0
 10
1213.352866366275
 20
1071.731308330696
 30
0.0
 10
1213.507923584594
 20
1073.397153475583
 30
0.0
 10
1214.092353134155
 20
1076.680073116868
 30
0.0
 10
1214.521717855706
 20
1078.297095547885
 30
0.0
 10
1215.642861357391
 20
1081.43750261038
 30
0.0
 10
1216.334625717838
 20
1082.960846851233
 30
0.0
 10
1217.961389977944
 20
1085.871646966594
 30
0.0
 10
1218.896368954829
 20
1087.259065403586
 30
0.0
 10
1220.983638164207
 20
1089.859531999626
 30
0.0
 10
1222.135901551101
 20
1091.072546712541
 30
0.0
 10
1224.625788502858
 20
1093.290559840772
 30
0.0
 10
1225.96338004382
 20
1094.295529728915
 30
0.0
 10
1228.786831546127
 20
1096.069576200589
 30
0.0
 10
1230.2726551934
 20
1096.838629967063
 30
0.0
 10
1233.351367153746
 20
1098.119509327019
 30
0.0
 10
1234.944206367809
 20
1098.63131624626
 30
0.0
 10
1236.56851040418
 20
1099.007412959232
 30
0.0
  0
SPLINE
  5
22B
330
1F
100
AcDbEntity
  8
0
  6
Continuous
 62
     7
370
    35
100
AcDbSpline
210
0.0
220
0.0
230
1.0
 70
     8
 71
     3
 72
     8
 73
     4
 74
     0
 42
0.000000001
 43
0.00000001
 40
0.0
 40
0.0
 40
0.0
 40
0.0
 40
0.0000569949035218
 40
0.0000569949035218
 40
0.0000569949035218
 40
0.0000569949035218
 10
1213.336106715331
 20
1070.007211372584
 30
0.0
 10
1213.336329937591
 20
1070.02617780891
 30
0.0
 10
1213.336665445824
 20
1070.045143255707
 30
0.0
 10
1213.337112602694
 20
1070.064105746796
 30
0.0
  0
SPLINE
  5
22C
330
1F
100
AcDbEntity
  8
0
  6
Continuous
 62
     7
370
    35
100
AcDbSpline
210
0.0
220
0.0
230
1.0
 70
     8
 71
     3
 72
     8
 73
     4
 74
     0
 42
0.000000001
 43
0.00000001
 40
0.0
 40
0.0
 40
0.0
 40
0.0
 40
0.0000569949035218
 40
0.0000569949035218
 40
0.0000569949035218
 40
0.0000569949035218
 10
1379.334434149441
 20
1070.064105746796
 30
0.0
 10
1379.334881306311
 20
1070.045143255707
 30
0.0
 10
1379.335216814544
 20
1070.02617780891
 30
0.0
 10
1379.335440036804
 20
1070.007211372584
 30
0.0
  0
SPLINE
  5
22D
330
1F
100
AcDbEntity
  8
0
  6
Continuous
 62
     7
370
    35
100
AcDbSpline
210
0.0
220
0.0
230
1.0
 70
     8
 71
     3
 72
    22
 73
    18
 74
     0
 42
0.000000001
 43
0.00000001
 40
1.580245265325559
 40
1.580245265325559
 40
1.580245265325559
 40
1.580245265325559
 40
1.746971982362278
 40
1.746971982362278
 40
1.913698699398998
 40
1.913698699398998
 40
2.080425416435717
 40
2.080425416435717
 40
2.247152133472436
 40
2.247152133472436
 40
2.413878850509155
 40
2.413878850509155
 40
2.580605567545874
 40
2.580605567545874
 40
2.747332284582593
 40
2.747332284582593
 40
2.914059001619312
 40
2.914059001619312
 40
2.914059001619312
 40
2.914059001619312
 10
1356.103036347955
 20
1099.007412959232
 30
0.0
 10
1357.727340384326
 20
1098.63131624626
 30
0.0
 10
1359.320179598389
 20
1098.119509327019
 30
0.0
 10
1362.398891558735
 20
1096.838629967063
 30
0.0
 10
1363.884715206008
 20
1096.069576200589
 30
0.0
 10
1366.708166708315
 20
1094.295529728915
 30
0.0
 10
1368.045758249277
 20
1093.290559840772
 30
0.0
 10
1370.535645201034
 20
1091.072546712541
 30
0.0
 10
1371.687908587928
 20
1089.859531999626
 30
0.0
 10
1373.775177797306
 20
1087.259065403586
 30
0.0
 10
1374.710156774192
 20
1085.871646966594
 30
0.0
 10
1376.336921034297
 20
1082.960846851233
 30
0.0
 10
1377.028685394744
 20
1081.43750261038
 30
0.0
 10
1378.149828896429
 20
1078.297095547885
 30
0.0
 10
1378.57919361798
 20
1076.680073116868
 30
0.0
 10
1379.163623167541
 20
1073.397153475583
 30
0.0
 10
1379.31868038586
 20
1071.731308330696
 30
0.0
 10
1379.334434149441
 20
1070.064105746796
 30
0.0
  0
SPLINE
  5
22E
330
1F
100
AcDbEntity
  8
0
  6
Continuous
 62
     7
370
    35
100
AcDbSpline
210
0.0
220
0.0
230
1.0
 70
     8
 71
     3
 72
    14
 73
    10
 74
     0
 42
0.000000001
 43
0.00000001
 40
0.0
 40
0.0
 40
0.0
 40
0.0
 40
0.25
 40
0.25
 40
0.5
 40
0.5
 40
0.75
 40
0.75
 40
1.0
 40
1.0
 40
1.0
 40
1.0
 10
1356.103036347955
 20
1099.007211372584
 30
0.0
 10
1359.351625416932
 20
1098.255022346833
 30
0.0
 10
1362.472989454855
 20
1096.956397849777
 30
0.0
 10
1368.119892459469
 20
1093.40830490643
 30
0.0
 10
1370.644273983239
 20
1091.159563710998
 30
0.0
 10
1374.818812401995
 20
1085.958630518918
 30
0.0
 10
1376.468113643901
 20
1083.007504554979
 30
0.0
 10
1378.710400647271
 20
1076.726690429989
 30
0.0
 10
1379.302926808274
 20
1073.398289644309
 30
0.0
 10
1379.334434149441
 20
1070.063904160148
 30
0.0
  0
LINE
  5
22F
330
1F
100
AcDbEntity
  8
0
  6
Continuous
 62
     7
370
    35
100
AcDbLine
 10
1356.103036348
 20
1099.0074129592
 30
0.0
 11
1356.103036348
 21
1099.0072113726
 31
0.0
  0
LINE
  5
230
330
1F
100
AcDbEntity
  8
0
  6
Continuous
 62
     7
370
    35
100
AcDbLine
 10
1356.103036348
 20
1040.8936242108
 30
0.0
 11
1356.103036348
 21
1040.8938257975
 31
0.0
  0
SPLINE
  5
231
330
1F
100
AcDbEntity
  8
0
  6
Continuous
 62
     7
370
    35
100
AcDbSpline
210
0.0
220
0.0
230
1.0
 70
     8
 71
     3
 72
    14
 73
    10
 74
     0
 42
0.000000001
 43
0.00000001
 40
0.0
 40
0.0
 40
0.0
 40
0.0
 40
0.2499999999999999
 40
0.2499999999999999
 40
0.4999999999999999
 40
0.4999999999999999
 40
0.7499999999999999
 40
0.7499999999999999
 40
1.0
 40
1.0
 40
1.0
 40
1.0
 10
1379.334434149441
 20
1069.837133009894
 30
0.0
 10
1379.302926808274
 20
1066.502747525732
 30
0.0
 10
1378.710400647271
 20
1063.174346740052
 30
0.0
 10
1376.468113643901
 20
1056.893532615063
 30
0.0
 10
1374.818812401995
 20
1053.942406651124
 30
0.0
 10
1370.644273983239
 20
1048.741473459044
 30
0.0
 10
1368.119892459469
 20
1046.492732263611
 30
0.0
 10
1362.472989454855
 20
1042.944639320264
 30
0.0
 10
1359.351625416932
 20
1041.646014823209
 30
0.0
 10
1356.103036347955
 20
1040.893825797458
 30
0.0
  0
SPLINE
  5
232
330
1F
100
AcDbEntity
  8
0
  6
Continuous
 62
     7
370
    35
100
AcDbSpline
210
0.0
220
0.0
230
1.0
 70
     8
 71
     3
 72
    22
 73
    18
 74
     0
 42
0.000000001
 43
0.00000001
 40
3.369126305560276
 40
3.369126305560276
 40
3.369126305560276
 40
3.369126305560276
 40
3.535853022596996
 40
3.535853022596996
 40
3.702579739633714
 40
3.702579739633714
 40
3.869306456670433
 40
3.869306456670433
 40
4.036033173707152
 40
4.036033173707152
 40
4.20275989074387
 40
4.20275989074387
 40
4.369486607780589
 40
4.369486607780589
 40
4.536213324817308
 40
4.536213324817308
 40
4.702940041854027
 40
4.702940041854027
 40
4.702940041854027
 40
4.702940041854027
 10
1379.334434149441
 20
1069.836931423246
 30
0.0
 10
1379.31868038586
 20
1068.169728839345
 30
0.0
 10
1379.163623167541
 20
1066.503883694459
 30
0.0
 10
1378.57919361798
 20
1063.220964053173
 30
0.0
 10
1378.149828896429
 20
1061.603941622156
 30
0.0
 10
1377.028685394744
 20
1058.463534559662
 30
0.0
 10
1376.336921034297
 20
1056.940190318808
 30
0.0
 10
1374.710156774192
 20
1054.029390203448
 30
0.0
 10
1373.775177797306
 20
1052.641971766456
 30
0.0
 10
1371.687908587928
 20
1050.041505170415
 30
0.0
 10
1370.535645201034
 20
1048.8284904575
 30
0.0
 10
1368.045758249277
 20
1046.610477329269
 30
0.0
 10
1366.708166708315
 20
1045.605507441126
 30
0.0
 10
1363.884715206008
 20
1043.831460969453
 30
0.0
 10
1362.398891558735
 20
1043.062407202978
 30
0.0
 10
1359.320179598389
 20
1041.781527843023
 30
0.0
 10
1357.727340384326
 20
1041.269720923782
 30
0.0
 10
1356.103036347955
 20
1040.893624210809
 30
0.0
  0
ARC
  5
233
330
1F
100
AcDbEntity
  8
0
  6
Continuous
 62
     7
370
    35
100
AcDbCircle
 10
1349.3357733761
 20
1069.950518585
 30
0.0
 40
27.00000000000017
100
AcDbArc
 50
283.0367179551
 51
359.4586157013
  0
SPLINE
  5
234
330
1F
100
AcDbEntity
  8
0
  6
Continuous
 62
     7
370
    35
100
AcDbSpline
210
0.0
220
0.0
230
1.0
 70
     8
 71
     3
 72
    14
 73
    10
 74
     0
 42
0.000000001
 43
0.00000001
 40
0.0
 40
0.0
 40
0.0
 40
0.0
 40
0.25
 40
0.25
 40
0.5
 40
0.5
 40
0.75
 40
0.75
 40
1.0
 40
1.0
 40
1.0
 40
1.0
 10
1236.56851040418
 20
1040.893825797458
 30
0.0
 10
1233.319921335203
 20
1041.646014823209
 30
0.0
 10
1230.19855729728
 20
1042.944639320265
 30
0.0
 10
1224.551654292666
 20
1046.492732263611
 30
0.0
 10
1222.027272768896
 20
1048.741473459044
 30
0.0
 10
1217.85273435014
 20
1053.942406651124
 30
0.0
 10
1216.203433108234
 20
1056.893532615063
 30
0.0
 10
1213.961146104864
 20
1063.174346740052
 30
0.0
 10
1213.368619943861
 20
1066.502747525732
 30
0.0
 10
1213.337112602694
 20
1069.837133009894
 30
0.0
  0
LINE
  5
235
330
1F
100
AcDbEntity
  8
0
  6
Continuous
 62
     7
370
    35
100
AcDbLine
 10
1236.5685104042
 20
1040.8936242108
 30
0.0
 11
1236.5685104042
 21
1040.8938257975
 31
0.0
  0
SPLINE
  5
236
330
1F
100
AcDbEntity
  8
0
  6
Continuous
 62
     7
370
    35
100
AcDbSpline
210
0.0
220
0.0
230
1.0
 70
     8
 71
     3
 72
    22
 73
    18
 74
     0
 42
0.000000001
 43
0.00000001
 40
1.580245265325559
 40
1.580245265325559
 40
1.580245265325559
 40
1.580245265325559
 40
1.746971982362278
 40
1.746971982362278
 40
1.913698699398996
 40
1.913698699398996
 40
2.080425416435715
 40
2.080425416435715
 40
2.247152133472434
 40
2.247152133472434
 40
2.413878850509152
 40
2.413878850509152
 40
2.580605567545871
 40
2.580605567545871
 40
2.74733228458259
 40
2.74733228458259
 40
2.914059001619308
 40
2.914059001619308
 40
2.914059001619308
 40
2.914059001619308
 10
1236.56851040418
 20
1040.893624210809
 30
0.0
 10
1234.944206367809
 20
1041.269720923782
 30
0.0
 10
1233.351367153746
 20
1041.781527843023
 30
0.0
 10
1230.2726551934
 20
1043.062407202978
 30
0.0
 10
1228.786831546127
 20
1043.831460969453
 30
0.0
 10
1225.96338004382
 20
1045.605507441126
 30
0.0
 10
1224.625788502858
 20
1046.610477329269
 30
0.0
 10
1222.135901551101
 20
1048.8284904575
 30
0.0
 10
1220.983638164207
 20
1050.041505170416
 30
0.0
 10
1218.896368954829
 20
1052.641971766456
 30
0.0
 10
1217.961389977943
 20
1054.029390203448
 30
0.0
 10
1216.334625717838
 20
1056.940190318808
 30
0.0
 10
1215.642861357391
 20
1058.463534559662
 30
0.0
 10
1214.521717855706
 20
1061.603941622157
 30
0.0
 10
1214.092353134155
 20
1063.220964053174
 30
0.0
 10
1213.507923584594
 20
1066.503883694459
 30
0.0
 10
1213.352866366275
 20
1068.169728839345
 30
0.0
 10
1213.337112602694
 20
1069.836931423246
 30
0.0
  0
ARC
  5
237
330
1F
100
AcDbEntity
  8
0
  6
Continuous
 62
     7
370
    35
100
AcDbCircle
 10
1243.3357733761
 20
1069.950518585
 30
0.0
 40
26.99999999999994
100
AcDbArc
 50
180.5413842987
 51
256.9632820449
  0
ARC
  5
238
330
1F
100
AcDbEntity
  8
0
  6
Continuous
 62
     7
370
    35
100
AcDbCircle
 10
1349.3357733761
 20
1069.950518585
 30
0.0
 40
27.00000000000017
100
AcDbArc
 50
0.5413842987
 51
76.9632820449
  0
LINE
  5
239
330
1F
100
AcDbEntity
  8
0
  6
Continuous
 62
     7
370
    35
100
AcDbLine
 10
1236.5685104042
 20
1099.0074129592
 30
0.0
 11
1236.5685104042
 21
1099.0072113726
 31
0.0
  0
SPLINE
  5
23A
330
1F
100
AcDbEntity
  8
0
  6
Continuous
 62
     7
370
    35
100
AcDbSpline
210
0.0
220
0.0
230
1.0
 70
     8
 71
     3
 72
    14
 73
    10
 74
     0
 42
0.000000001
 43
0.00000001
 40
0.0
 40
0.0
 40
0.0
 40
0.0
 40
0.25
 40
0.25
 40
0.5
 40
0.5
 40
0.75
 40
0.75
 40
1.0
 40
1.0
 40
1.0
 40
1.0
 10
1213.337112602694
 20
1070.063904160148
 30
0.0
 10
1213.368619943861
 20
1073.398289644309
 30
0.0
 10
1213.961146104864
 20
1076.726690429989
 30
0.0
 10
1216.203433108234
 20
1083.007504554979
 30
0.0
 10
1217.85273435014
 20
1085.958630518918
 30
0.0
 10
1222.027272768896
 20
1091.159563710998
 30
0.0
 10
1224.551654292666
 20
1093.40830490643
 30
0.0
 10
1230.19855729728
 20
1096.956397849777
 30
0.0
 10
1233.319921335203
 20
1098.255022346833
 30
0.0
 10
1236.56851040418
 20
1099.007211372584
 30
0.0
  0
ARC
  5
23B
330
1F
100
AcDbEntity
  8
0
  6
Continuous
 62
     7
370
    35
100
AcDbCircle
 10
1243.3357733761
 20
1069.950518585
 30
0.0
 40
27.00000000000012
100
AcDbArc
 50
103.0367179551
 51
179.4586157013
  0
SPLINE
  5
23C
330
1F
100
AcDbEntity
  8
0
  6
Continuous
 62
     7
370
    35
100
AcDbSpline
210
0.0
220
0.0
230
1.0
 70
     8
 71
     3
 72
     8
 73
     4
 74
     0
 42
0.000000001
 43
0.00000001
 40
0.0
 40
0.0
 40
0.0
 40
0.0
 40
0.0000569949035229
 40
0.0000569949035229
 40
0.0000569949035229
 40
0.0000569949035229
 10
1213.337112602694
 20
1069.836931423246
 30
0.0
 10
1213.336665445824
 20
1069.855893914335
 30
0.0
 10
1213.336329937591
 20
1069.874859361132
 30
0.0
 10
1213.336106715331
 20
1069.893825797458
 30
0.0
  0
SPLINE
  5
23D
330
1F
100
AcDbEntity
  8
0
  6
Continuous
 62
     7
370
    35
100
AcDbSpline
210
0.0
220
0.0
230
1.0
 70
     8
 71
     3
 72
     8
 73
     4
 74
     0
 42
0.000000001
 43
0.00000001
 40
0.0
 40
0.0
 40
0.0
 40
0.0
 40
1.0
 40
1.0
 40
1.0
 40
1.0
 10
1243.335773376067
 20
1040.694734386421
 30
0.0
 10
1241.078651119055
 20
1040.694734386421
 30
0.0
 10
1238.821822401268
 20
1040.762725592465
 30
0.0
 10
1236.56851040418
 20
1040.893624210809
 30
0.0
  0
LINE
  5
23E
330
1F
100
AcDbEntity
  8
0
  6
Continuous
 62
     7
370
    35
100
AcDbLine
 10
1349.3357733761
 20
1040.6947343864
 30
0.0
 11
1243.3357733761
 21
1040.6947343864
 31
0.0
  0
SPLINE
  5
23F
330
1F
100
AcDbEntity
  8
0
  6
Continuous
 62
     7
370
    35
100
AcDbSpline
210
0.0
220
0.0
230
1.0
 70
     8
 71
     3
 72
     8
 73
     4
 74
     0
 42
0.000000001
 43
0.00000001
 40
0.0
 40
0.0
 40
0.0
 40
0.0
 40
1.0
 40
1.0
 40
1.0
 40
1.0
 10
1356.103036347955
 20
1040.893624210809
 30
0.0
 10
1353.849724657562
 20
1040.762725610494
 30
0.0
 10
1351.592900527298
 20
1040.694734386421
 30
0.0
 10
1349.335773376067
 20
1040.694734386421
 30
0.0
  0
SPLINE
  5
240
330
1F
100
AcDbEntity
  8
0
  6
Continuous
 62
     7
370
    35
100
AcDbSpline
210
0.0
220
0.0
230
1.0
 70
     8
 71
     3
 72
     8
 73
     4
 74
     0
 42
0.000000001
 43
0.00000001
 40
0.0
 40
0.0
 40
0.0
 40
0.0
 40
0.0000569949035229
 40
0.0000569949035229
 40
0.0000569949035229
 40
0.0000569949035229
 10
1379.335440036805
 20
1069.893825797458
 30
0.0
 10
1379.335216814545
 20
1069.874859361132
 30
0.0
 10
1379.334881306311
 20
1069.855893914335
 30
0.0
 10
1379.334434149441
 20
1069.836931423246
 30
0.0
  0
SPLINE
  5
241
330
1F
100
AcDbEntity
  8
0
  6
Continuous
 62
     7
370
    35
100
AcDbSpline
210
0.0
220
0.0
230
1.0
 70
     8
 71
     3
 72
    10
 73
     6
 74
     0
 42
0.000000001
 43
0.00000001
 40
0.0
 40
0.0
 40
0.0
 40
0.0
 40
0.5
 40
0.5
 40
1.0
 40
1.0
 40
1.0
 40
1.0
 10
1243.335773376067
 20
1040.700518585021
 30
0.0
 10
1242.19281322811
 20
1040.700518585021
 30
0.0
 10
1241.057619750366
 20
1040.716792603849
 30
0.0
 10
1238.802093417996
 20
1040.781226995858
 30
0.0
 10
1237.68175747194
 20
1040.829384573164
 30
0.0
 10
1236.56851040418
 20
1040.893825797457
 30
0.0
  0
SPLINE
  5
242
330
1F
100
AcDbEntity
  8
0
  6
Continuous
 62
     7
370
    35
100
AcDbSpline
210
0.0
220
0.0
230
1.0
 70
     8
 71
     3
 72
    10
 73
     6
 74
     0
 42
0.000000001
 43
0.00000001
 40
0.0
 40
0.0
 40
0.0
 40
0.0
 40
0.5
 40
0.5
 40
1.0
 40
1.0
 40
1.0
 40
1.0
 10
1243.335773376067
 20
1042.950518585021
 30
0.0
 10
1242.307033642979
 20
1042.950518585021
 30
0.0
 10
1241.28535416668
 20
1043.00911212203
 30
0.0
 10
1239.255428584035
 20
1043.241074796045
 30
0.0
 10
1238.247179067269
 20
1043.414431510333
 30
0.0
 10
1237.245236701368
 20
1043.646424549792
 30
0.0
  0
SPLINE
  5
243
330
1F
100
AcDbEntity
  8
0
  6
Continuous
 62
     7
370
    35
100
AcDbSpline
210
0.0
220
0.0
230
1.0
 70
     8
 71
     3
 72
    10
 73
     6
 74
     0
 42
0.000000001
 43
0.00000001
 40
0.0
 40
0.0
 40
0.0
 40
0.0
 40
0.5
 40
0.5
 40
1.0
 40
1.0
 40
1.0
 40
1.0
 10
1356.103036347955
 20
1040.893825797457
 30
0.0
 10
1354.989789280195
 20
1040.829384573164
 30
0.0
 10
1353.869453334139
 20
1040.781226995858
 30
0.0
 10
1351.613927001768
 20
1040.716792603849
 30
0.0
 10
1350.478733524025
 20
1040.700518585021
 30
0.0
 10
1349.335773376067
 20
1040.700518585021
 30
0.0
  0
SPLINE
  5
244
330
1F
100
AcDbEntity
  8
0
  6
Continuous
 62
     7
370
    35
100
AcDbSpline
210
0.0
220
0.0
230
1.0
 70
     8
 71
     3
 72
    10
 73
     6
 74
     0
 42
0.000000001
 43
0.00000001
 40
0.0
 40
0.0
 40
0.0
 40
0.0
 40
0.5
 40
0.5
 40
1.0
 40
1.0
 40
1.0
 40
1.0
 10
1355.426310050767
 20
1043.646424549792
 30
0.0
 10
1354.424367684865
 20
1043.414431510333
 30
0.0
 10
1353.416118168098
 20
1043.241074796045
 30
0.0
 10
1351.386192585451
 20
1043.00911212203
 30
0.0
 10
1350.364513109157
 20
1042.950518585021
 30
0.0
 10
1349.335773376067
 20
1042.950518585021
 30
0.0
  0
SPLINE
  5
245
330
1F
100
AcDbEntity
  8
0
  6
Continuous
 62
     7
370
    35
100
AcDbSpline
210
0.0
220
0.0
230
1.0
 70
     8
 71
     3
 72
    10
 73
     6
 74
     0
 42
0.000000001
 43
0.00000001
 40
0.0
 40
0.0
 40
0.0
 40
0.0
 40
0.5
 40
0.5
 40
1.0
 40
1.0
 40
1.0
 40
1.0
 10
1236.56851040418
 20
1099.007211372584
 30
0.0
 10
1237.68175747194
 20
1099.071652596877
 30
0.0
 10
1238.802093417996
 20
1099.119810174183
 30
0.0
 10
1241.057619750367
 20
1099.184244566192
 30
0.0
 10
1242.19281322811
 20
1099.200518585021
 30
0.0
 10
1243.335773376067
 20
1099.200518585021
 30
0.0
  0
SPLINE
  5
246
330
1F
100
AcDbEntity
  8
0
  6
Continuous
 62
     7
370
    35
100
AcDbSpline
210
0.0
220
0.0
230
1.0
 70
     8
 71
     3
 72
    10
 73
     6
 74
     0
 42
0.000000001
 43
0.00000001
 40
0.0
 40
0.0
 40
0.0
 40
0.0
 40
0.5
 40
0.5
 40
1.0
 40
1.0
 40
1.0
 40
1.0
 10
1237.245236701368
 20
1096.254612620249
 30
0.0
 10
1238.247179067271
 20
1096.486605659709
 30
0.0
 10
1239.255428584037
 20
1096.659962373996
 30
0.0
 10
1241.285354166684
 20
1096.891925048012
 30
0.0
 10
1242.307033642978
 20
1096.950518585021
 30
0.0
 10
1243.335773376067
 20
1096.950518585021
 30
0.0
  0
SPLINE
  5
247
330
1F
100
AcDbEntity
  8
0
  6
Continuous
 62
     7
370
    35
100
AcDbSpline
210
0.0
220
0.0
230
1.0
 70
     8
 71
     3
 72
    10
 73
     6
 74
     0
 42
0.000000001
 43
0.00000001
 40
0.0
 40
0.0
 40
0.0
 40
0.0
 40
0.5
 40
0.5
 40
1.0
 40
1.0
 40
1.0
 40
1.0
 10
1349.335773376067
 20
1099.200518585021
 30
0.0
 10
1350.478733524025
 20
1099.200518585021
 30
0.0
 10
1351.613927001768
 20
1099.184244566192
 30
0.0
 10
1353.869453334139
 20
1099.119810174183
 30
0.0
 10
1354.989789280195
 20
1099.071652596877
 30
0.0
 10
1356.103036347955
 20
1099.007211372584
 30
0.0
  0
SPLINE
  5
248
330
1F
100
AcDbEntity
  8
0
  6
Continuous
 62
     7
370
    35
100
AcDbSpline
210
0.0
220
0.0
230
1.0
 70
     8
 71
     3
 72
    10
 73
     6
 74
     0
 42
0.000000001
 43
0.00000001
 40
0.0
 40
0.0
 40
0.0
 40
0.0
 40
0.5
 40
0.5
 40
1.0
 40
1.0
 40
1.0
 40
1.0
 10
1349.335773376067
 20
1096.950518585021
 30
0.0
 10
1350.364513109156
 20
1096.950518585021
 30
0.0
 10
1351.386192585455
 20
1096.891925048012
 30
0.0
 10
1353.4161181681
 20
1096.659962373996
 30
0.0
 10
1354.424367684866
 20
1096.486605659709
 30
0.0
 10
1355.426310050767
 20
1096.254612620249
 30
0.0
  0
LINE
  5
249
330
1F
100
AcDbEntity
  8
0
  6
Continuous
 62
     7
370
    35
100
AcDbLine
 10
1243.3357733761
 20
1040.700518585
 30
0.0
 11
1349.3357733761
 21
1040.700518585
 31
0.0
  0
LINE
  5
24A
330
1F
100
AcDbEntity
  8
0
  6
Continuous
 62
     7
370
    35
100
AcDbLine
 10
1349.3357733761
 20
1042.950518585
 30
0.0
 11
1243.3357733761
 21
1042.950518585
 31
0.0
  0
LINE
  5
24B
330
1F
100
AcDbEntity
  8
0
  6
Continuous
 62
     7
370
    35
100
AcDbLine
 10
1349.3357733761
 20
1099.200518585
 30
0.0
 11
1243.3357733761
 21
1099.200518585
 31
0.0
  0
LINE
  5
24C
330
1F
100
AcDbEntity
  8
0
  6
Continuous
 62
     7
370
    35
100
AcDbLine
 10
1243.3357733761
 20
1096.950518585
 30
0.0
 11
1349.3357733761
 21
1096.950518585
 31
0.0
  0
SPLINE
  5
24D
330
1F
100
AcDbEntity
  8
0
  6
Continuous
 62
     7
370
    35
100
AcDbSpline
210
0.0
220
0.0
230
1.0
 70
     8
 71
     3
 72
     8
 73
     4
 74
     0
 42
0.000000001
 43
0.00000001
 40
0.0
 40
0.0
 40
0.0
 40
0.0
 40
1.0
 40
1.0
 40
1.0
 40
1.0
 10
1379.334434149441
 20
1070.063904160148
 30
0.0
 10
1379.336219824801
 20
1069.98831377673
 30
0.0
 10
1379.336219824801
 20
1069.912723393312
 30
0.0
 10
1379.334434149441
 20
1069.837133009894
 30
0.0
  0
SPLINE
  5
24E
330
1F
100
AcDbEntity
  8
0
  6
Continuous
 62
     7
370
    35
100
AcDbSpline
210
0.0
220
0.0
230
1.0
 70
     8
 71
     3
 72
     8
 73
     4
 74
     0
 42
0.000000001
 43
0.00000001
 40
0.0
 40
0.0
 40
0.0
 40
0.0
 40
1.0
 40
1.0
 40
1.0
 40
1.0
 10
1376.334568072104
 20
1070.205636129056
 30
0.0
 10
1376.336175179928
 20
1070.035557766366
 30
0.0
 10
1376.336175179928
 20
1069.865479403676
 30
0.0
 10
1376.334568072104
 20
1069.695401040986
 30
0.0
  0
SPLINE
  5
24F
330
1F
100
AcDbEntity
  8
0
  6
Continuous
 62
     7
370
    35
100
AcDbSpline
210
0.0
220
0.0
230
1.0
 70
     8
 71
     3
 72
     8
 73
     4
 74
     0
 42
0.000000001
 43
0.00000001
 40
0.0
 40
0.0
 40
0.0
 40
0.0
 40
0.0001133855751267
 40
0.0001133855751267
 40
0.0001133855751267
 40
0.0001133855751267
 10
1379.335440036804
 20
1069.893825797458
 30
0.0
 10
1379.335884114833
 20
1069.931557597288
 30
0.0
 10
1379.335884114833
 20
1069.969479572763
 30
0.0
 10
1379.335440036804
 20
1070.007211372594
 30
0.0
  0
SPLINE
  5
250
330
1F
100
AcDbEntity
  8
0
  6
Continuous
 62
     7
370
    35
100
AcDbSpline
210
0.0
220
0.0
230
1.0
 70
     8
 71
     3
 72
     8
 73
     4
 74
     0
 42
0.000000001
 43
0.00000001
 40
0.0
 40
0.0
 40
0.0
 40
0.0
 40
1.0
 40
1.0
 40
1.0
 40
1.0
 10
1216.336978680031
 20
1069.695401040986
 30
0.0
 10
1216.335371572208
 20
1069.865479403676
 30
0.0
 10
1216.335371572208
 20
1070.035557766366
 30
0.0
 10
1216.336978680031
 20
1070.205636129056
 30
0.0
  0
SPLINE
  5
251
330
1F
100
AcDbEntity
  8
0
  6
Continuous
 62
     7
370
    35
100
AcDbSpline
210
0.0
220
0.0
230
1.0
 70
     8
 71
     3
 72
     8
 73
     4
 74
     0
 42
0.000000001
 43
0.00000001
 40
0.0
 40
0.0
 40
0.0
 40
0.0
 40
1.0
 40
1.0
 40
1.0
 40
1.0
 10
1213.337112602694
 20
1069.837133009894
 30
0.0
 10
1213.335326927334
 20
1069.912723393312
 30
0.0
 10
1213.335326927334
 20
1069.98831377673
 30
0.0
 10
1213.337112602694
 20
1070.063904160148
 30
0.0
  0
SPLINE
  5
252
330
1F
100
AcDbEntity
  8
0
  6
Continuous
 62
     7
370
    35
100
AcDbSpline
210
0.0
220
0.0
230
1.0
 70
     8
 71
     3
 72
     8
 73
     4
 74
     0
 42
0.000000001
 43
0.00000001
 40
0.0
 40
0.0
 40
0.0
 40
0.0
 40
0.0001133855751265
 40
0.0001133855751265
 40
0.0001133855751265
 40
0.0001133855751265
 10
1213.33610671533
 20
1070.007211372584
 30
0.0
 10
1213.335662637302
 20
1069.969479572756
 30
0.0
 10
1213.335662637302
 20
1069.931557597285
 30
0.0
 10
1213.336106715331
 20
1069.893825797458
 30
0.0
  0
SPLINE
  5
253
330
1F
100
AcDbEntity
  8
0
  6
Continuous
 62
     7
370
    35
100
AcDbSpline
210
0.0
220
0.0
230
1.0
 70
     8
 71
     3
 72
     9
 73
     5
 74
     0
 42
0.000000001
 43
0.00000001
 40
0.0
 40
0.0
 40
0.0
 40
0.0
 40
0.4946096718337133
 40
1.0
 40
1.0
 40
1.0
 40
1.0
 10
1253.33577337607
 20
1065.017344082394
 30
0.0
 10
1253.318254007237
 20
1064.536255904238
 30
0.0
 10
1253.28283341231
 20
1063.563593610003
 30
0.0
 10
1253.0392679304
 20
1062.625233301428
 30
0.0
 10
1252.916172291569
 20
1062.150995077139
 30
0.0
  0
SPLINE
  5
254
330
1F
100
AcDbEntity
  8
0
  6
Continuous
 62
     7
370
    35
100
AcDbSpline
210
0.0
220
0.0
230
1.0
 70
     8
 71
     3
 72
    16
 73
    12
 74
     0
 42
0.000000001
 43
0.00000001
 40
0.0
 40
0.0
 40
0.0
 40
0.0
 40
0.6093642604474533
 40
0.7233750503865236
 40
0.8172213162014321
 40
0.8496365726793015
 40
0.8823612341653045
 40
0.9067814804498373
 40
0.9311421346350485
 40
0.9706402276062258
 40
1.0
 40
1.0
 40
1.0
 40
1.0
 10
1245.370051933219
 20
1053.092880327298
 30
0.0
 10
1244.79321766363
 20
1052.795225251349
 30
0.0
 10
1244.108458897958
 20
1052.441879527717
 30
0.0
 10
1243.441215926767
 20
1051.91614120406
 30
0.0
 10
1243.270962528783
 20
1051.730988194003
 30
0.0
 10
1243.202689068103
 20
1051.582331893829
 30
0.0
 10
1243.191049927107
 20
1051.488731228447
 30
0.0
 10
1243.215575375319
 20
1051.404768543438
 30
0.0
 10
1243.271838082961
 20
1051.326629556265
 30
0.0
 10
1243.354910245625
 20
1051.264432360428
 30
0.0
 10
1243.423331114072
 20
1051.232542431198
 30
0.0
 10
1243.452504558731
 20
1051.218945131036
 30
0.0
  0
SPLINE
  5
255
330
1F
100
AcDbEntity
  8
0
  6
Continuous
 62
     7
370
    35
100
AcDbSpline
210
0.0
220
0.0
230
1.0
 70
     8
 71
     3
 72
    13
 73
     9
 74
     0
 42
0.000000001
 43
0.00000001
 40
0.0
 40
0.0
 40
0.0
 40
0.0
 40
0.1585077763891435
 40
0.3168380823631903
 40
0.479171669521647
 40
0.6493085002787218
 40
0.8235953482371992
 40
1.0
 40
1.0
 40
1.0
 40
1.0
 10
1230.808161138913
 20
1065.629365924541
 30
0.0
 10
1231.100736292672
 20
1064.619040472737
 30
0.0
 10
1231.685559023618
 20
1062.599520762065
 30
0.0
 10
1233.181585575304
 20
1059.778918010505
 30
0.0
 10
1235.108264245009
 20
1057.14886720252
 30
0.0
 10
1237.507338642788
 20
1054.785934606272
 30
0.0
 10
1240.299664915522
 20
1052.730042261196
 30
0.0
 10
1242.397335444409
 20
1051.724667971689
 30
0.0
 10
1243.452504558731
 20
1051.218945131036
 30
0.0
  0
SPLINE
  5
256
330
1F
100
AcDbEntity
  8
0
  6
Continuous
 62
     7
370
    35
100
AcDbSpline
210
0.0
220
0.0
230
1.0
 70
     8
 71
     3
 72
     9
 73
     5
 74
     0
 42
0.000000001
 43
0.00000001
 40
0.0
 40
0.0
 40
0.0
 40
0.0
 40
0.478175740120617
 40
0.9999999999999999
 40
0.9999999999999999
 40
0.9999999999999999
 40
0.9999999999999999
 10
1230.808161138913
 20
1074.2716712455
 30
0.0
 10
1230.561434747247
 20
1072.89542517563
 30
0.0
 10
1230.04546044959
 20
1070.017307457817
 30
0.0
 10
1230.546635722865
 20
1067.133964322241
 30
0.0
 10
1230.808161138913
 20
1065.629365924541
 30
0.0
  0
SPLINE
  5
257
330
1F
100
AcDbEntity
  8
0
  6
Continuous
 62
     7
370
    35
100
AcDbSpline
210
0.0
220
0.0
230
1.0
 70
     8
 71
     3
 72
    13
 73
     9
 74
     0
 42
0.000000001
 43
0.00000001
 40
0.0
 40
0.0
 40
0.0
 40
0.0
 40
0.1585077763891441
 40
0.3168380823631918
 40
0.4791716695216486
 40
0.6493085002787241
 40
0.8235953482372094
 40
1.0
 40
1.0
 40
1.0
 40
1.0
 10
1230.808161138913
 20
1074.2716712455
 30
0.0
 10
1231.100736292672
 20
1075.281996697305
 30
0.0
 10
1231.685559023618
 20
1077.301516407977
 30
0.0
 10
1233.181585575304
 20
1080.122119159537
 30
0.0
 10
1235.108264245009
 20
1082.752169967521
 30
0.0
 10
1237.507338642788
 20
1085.11510256377
 30
0.0
 10
1240.299664915522
 20
1087.170994908847
 30
0.0
 10
1242.397335444409
 20
1088.176369198353
 30
0.0
 10
1243.452504558731
 20
1088.682092039005
 30
0.0
  0
SPLINE
  5
258
330
1F
100
AcDbEntity
  8
0
  6
Continuous
 62
     7
370
    35
100
AcDbSpline
210
0.0
220
0.0
230
1.0
 70
     8
 71
     3
 72
    16
 73
    12
 74
     0
 42
0.000000001
 43
0.00000001
 40
0.0
 40
0.0
 40
0.0
 40
0.0
 40
0.609364260447454
 40
0.723375050386522
 40
0.8172213162014308
 40
0.8496365726793003
 40
0.8823612341653065
 40
0.9067814804498369
 40
0.9311421346350482
 40
0.9706402276062257
 40
1.0
 40
1.0
 40
1.0
 40
1.0
 10
1245.370051933219
 20
1086.808156842743
 30
0.0
 10
1244.79321766363
 20
1087.105811918693
 30
0.0
 10
1244.108458897958
 20
1087.459157642324
 30
0.0
 10
1243.441215926767
 20
1087.984895965981
 30
0.0
 10
1243.270962528783
 20
1088.170048976039
 30
0.0
 10
1243.202689068103
 20
1088.318705276212
 30
0.0
 10
1243.191049927107
 20
1088.412305941594
 30
0.0
 10
1243.215575375319
 20
1088.496268626603
 30
0.0
 10
1243.271838082961
 20
1088.574407613776
 30
0.0
 10
1243.354910245625
 20
1088.636604809614
 30
0.0
 10
1243.423331114072
 20
1088.668494738844
 30
0.0
 10
1243.452504558731
 20
1088.682092039005
 30
0.0
  0
SPLINE
  5
259
330
1F
100
AcDbEntity
  8
0
  6
Continuous
 62
     7
370
    35
100
AcDbSpline
210
0.0
220
0.0
230
1.0
 70
     8
 71
     3
 72
    11
 73
     7
 74
     0
 42
0.000000001
 43
0.00000001
 40
0.0
 40
0.0
 40
0.0
 40
0.0
 40
0.2606216717114567
 40
0.463200448083148
 40
0.6713667795621419
 40
1.0
 40
1.0
 40
1.0
 40
1.0
 10
1252.916172291569
 20
1077.750042092903
 30
0.0
 10
1252.549290920907
 20
1078.751760272713
 30
0.0
 10
1251.897236108398
 20
1080.532104580591
 30
0.0
 10
1250.359871246575
 20
1082.787104202654
 30
0.0
 10
1248.345105462084
 20
1085.001738383
 30
0.0
 10
1246.499777376255
 20
1086.12220048097
 30
0.0
 10
1245.370051933219
 20
1086.808156842743
 30
0.0
  0
SPLINE
  5
25A
330
1F
100
AcDbEntity
  8
0
  6
Continuous
 62
     7
370
    35
100
AcDbSpline
210
0.0
220
0.0
230
1.0
 70
     8
 71
     3
 72
     9
 73
     5
 74
     0
 42
0.000000001
 43
0.00000001
 40
0.0
 40
0.0
 40
0.0
 40
0.0
 40
0.4946096718337021
 40
1.0
 40
1.0
 40
1.0
 40
1.0
 10
1253.33577337607
 20
1074.883693087648
 30
0.0
 10
1253.318254007237
 20
1075.364781265804
 30
0.0
 10
1253.282833412309
 20
1076.337443560039
 30
0.0
 10
1253.0392679304
 20
1077.275803868614
 30
0.0
 10
1252.916172291569
 20
1077.750042092903
 30
0.0
  0
LINE
  5
25B
330
1F
100
AcDbEntity
  8
0
  6
Continuous
 62
     7
370
    35
100
AcDbLine
 10
1253.3357733761
 20
1074.8836930876
 30
0.0
 11
1253.3357733761
 21
1065.0173440824
 31
0.0
  0
SPLINE
  5
25C
330
1F
100
AcDbEntity
  8
0
  6
Continuous
 62
     7
370
    35
100
AcDbSpline
210
0.0
220
0.0
230
1.0
 70
     8
 71
     3
 72
    11
 73
     7
 74
     0
 42
0.000000001
 43
0.00000001
 40
0.0
 40
0.0
 40
0.0
 40
0.0
 40
0.2606216717114475
 40
0.4632004480831394
 40
0.6713667795621324
 40
1.0
 40
1.0
 40
1.0
 40
1.0
 10
1252.916172291569
 20
1062.150995077139
 30
0.0
 10
1252.549290920907
 20
1061.149276897329
 30
0.0
 10
1251.897236108398
 20
1059.368932589451
 30
0.0
 10
1250.359871246575
 20
1057.113932967388
 30
0.0
 10
1248.345105462084
 20
1054.899298787042
 30
0.0
 10
1246.499777376255
 20
1053.778836689072
 30
0.0
 10
1245.370051933219
 20
1053.092880327298
 30
0.0
  0
SPLINE
  5
25D
330
1F
100
AcDbEntity
  8
0
  6
Continuous
 62
     7
370
    35
100
AcDbSpline
210
0.0
220
0.0
230
1.0
 70
     8
 71
     3
 72
     9
 73
     5
 74
     0
 42
0.000000001
 43
0.00000001
 40
0.0
 40
0.0
 40
0.0
 40
0.0
 40
0.4946096718336995
 40
1.0
 40
1.0
 40
1.0
 40
1.0
 10
1339.335773376065
 20
1074.883693087648
 30
0.0
 10
1339.353292744898
 20
1075.364781265804
 30
0.0
 10
1339.388713339825
 20
1076.337443560038
 30
0.0
 10
1339.632278821734
 20
1077.275803868613
 30
0.0
 10
1339.755374460566
 20
1077.750042092902
 30
0.0
  0
SPLINE
  5
25E
330
1F
100
AcDbEntity
  8
0
  6
Continuous
 62
     7
370
    35
100
AcDbSpline
210
0.0
220
0.0
230
1.0
 70
     8
 71
     3
 72
    16
 73
    12
 74
     0
 42
0.000000001
 43
0.00000001
 40
0.0
 40
0.0
 40
0.0
 40
0.0
 40
0.6093642604474574
 40
0.7233750503865223
 40
0.8172213162014309
 40
0.8496365726793004
 40
0.8823612341653095
 40
0.9067814804498372
 40
0.9311421346350485
 40
0.9706402276062258
 40
1.0
 40
1.0
 40
1.0
 40
1.0
 10
1347.301494818916
 20
1086.808156842743
 30
0.0
 10
1347.878329088505
 20
1087.105811918693
 30
0.0
 10
1348.563087854177
 20
1087.459157642324
 30
0.0
 10
1349.230330825368
 20
1087.984895965981
 30
0.0
 10
1349.400584223352
 20
1088.170048976039
 30
0.0
 10
1349.468857684032
 20
1088.318705276212
 30
0.0
 10
1349.480496825028
 20
1088.412305941594
 30
0.0
 10
1349.455971376816
 20
1088.496268626603
 30
0.0
 10
1349.399708669175
 20
1088.574407613776
 30
0.0
 10
1349.31663650651
 20
1088.636604809614
 30
0.0
 10
1349.248215638063
 20
1088.668494738844
 30
0.0
 10
1349.219042193404
 20
1088.682092039005
 30
0.0
  0
SPLINE
  5
25F
330
1F
100
AcDbEntity
  8
0
  6
Continuous
 62
     7
370
    35
100
AcDbSpline
210
0.0
220
0.0
230
1.0
 70
     8
 71
     3
 72
    13
 73
     9
 74
     0
 42
0.000000001
 43
0.00000001
 40
0.0
 40
0.0
 40
0.0
 40
0.0
 40
0.1585077763891435
 40
0.3168380823631902
 40
0.4791716695216469
 40
0.6493085002787218
 40
0.8235953482371993
 40
1.0
 40
1.0
 40
1.0
 40
1.0
 10
1361.863385613222
 20
1074.2716712455
 30
0.0
 10
1361.570810459463
 20
1075.281996697305
 30
0.0
 10
1360.985987728517
 20
1077.301516407977
 30
0.0
 10
1359.489961176831
 20
1080.122119159537
 30
0.0
 10
1357.563282507125
 20
1082.752169967521
 30
0.0
 10
1355.164208109346
 20
1085.11510256377
 30
0.0
 10
1352.371881836612
 20
1087.170994908846
 30
0.0
 10
1350.274211307727
 20
1088.176369198353
 30
0.0
 10
1349.219042193404
 20
1088.682092039005
 30
0.0
  0
SPLINE
  5
260
330
1F
100
AcDbEntity
  8
0
  6
Continuous
 62
     7
370
    35
100
AcDbSpline
210
0.0
220
0.0
230
1.0
 70
     8
 71
     3
 72
     9
 73
     5
 74
     0
 42
0.000000001
 43
0.00000001
 40
0.0
 40
0.0
 40
0.0
 40
0.0
 40
0.4781757401206186
 40
0.9999999999999999
 40
0.9999999999999999
 40
0.9999999999999999
 40
0.9999999999999999
 10
1361.863385613222
 20
1074.2716712455
 30
0.0
 10
1362.110112004888
 20
1072.89542517563
 30
0.0
 10
1362.626086302545
 20
1070.017307457816
 30
0.0
 10
1362.124911029269
 20
1067.133964322241
 30
0.0
 10
1361.863385613222
 20
1065.629365924541
 30
0.0
  0
SPLINE
  5
261
330
1F
100
AcDbEntity
  8
0
  6
Continuous
 62
     7
370
    35
100
AcDbSpline
210
0.0
220
0.0
230
1.0
 70
     8
 71
     3
 72
    13
 73
     9
 74
     0
 42
0.000000001
 43
0.00000001
 40
0.0
 40
0.0
 40
0.0
 40
0.0
 40
0.1585077763891442
 40
0.3168380823631919
 40
0.4791716695216486
 40
0.6493085002787242
 40
0.8235953482372093
 40
1.0
 40
1.0
 40
1.0
 40
1.0
 10
1361.863385613222
 20
1065.629365924541
 30
0.0
 10
1361.570810459463
 20
1064.619040472736
 30
0.0
 10
1360.985987728517
 20
1062.599520762065
 30
0.0
 10
1359.489961176831
 20
1059.778918010505
 30
0.0
 10
1357.563282507125
 20
1057.14886720252
 30
0.0
 10
1355.164208109346
 20
1054.785934606272
 30
0.0
 10
1352.371881836613
 20
1052.730042261195
 30
0.0
 10
1350.274211307727
 20
1051.724667971688
 30
0.0
 10
1349.219042193404
 20
1051.218945131036
 30
0.0
  0
SPLINE
  5
262
330
1F
100
AcDbEntity
  8
0
  6
Continuous
 62
     7
370
    35
100
AcDbSpline
210
0.0
220
0.0
230
1.0
 70
     8
 71
     3
 72
    16
 73
    12
 74
     0
 42
0.000000001
 43
0.00000001
 40
0.0
 40
0.0
 40
0.0
 40
0.0
 40
0.6093642604474564
 40
0.7233750503865237
 40
0.817221316201432
 40
0.8496365726793013
 40
0.8823612341653073
 40
0.9067814804498374
 40
0.9311421346350486
 40
0.9706402276062257
 40
0.9999999999999999
 40
0.9999999999999999
 40
0.9999999999999999
 40
0.9999999999999999
 10
1347.301494818916
 20
1053.092880327298
 30
0.0
 10
1347.878329088505
 20
1052.795225251349
 30
0.0
 10
1348.563087854177
 20
1052.441879527717
 30
0.0
 10
1349.230330825368
 20
1051.91614120406
 30
0.0
 10
1349.400584223352
 20
1051.730988194003
 30
0.0
 10
1349.468857684032
 20
1051.582331893829
 30
0.0
 10
1349.480496825028
 20
1051.488731228447
 30
0.0
 10
1349.455971376816
 20
1051.404768543438
 30
0.0
 10
1349.399708669175
 20
1051.326629556265
 30
0.0
 10
1349.31663650651
 20
1051.264432360428
 30
0.0
 10
1349.248215638063
 20
1051.232542431198
 30
0.0
 10
1349.219042193404
 20
1051.218945131036
 30
0.0
  0
SPLINE
  5
263
330
1F
100
AcDbEntity
  8
0
  6
Continuous
 62
     7
370
    35
100
AcDbSpline
210
0.0
220
0.0
230
1.0
 70
     8
 71
     3
 72
    11
 73
     7
 74
     0
 42
0.000000001
 43
0.00000001
 40
0.0
 40
0.0
 40
0.0
 40
0.0
 40
0.2606216717114532
 40
0.4632004480831462
 40
0.671366779562141
 40
1.0
 40
1.0
 40
1.0
 40
1.0
 10
1339.755374460566
 20
1062.150995077139
 30
0.0
 10
1340.122255831228
 20
1061.149276897329
 30
0.0
 10
1340.774310643737
 20
1059.36893258945
 30
0.0
 10
1342.31167550556
 20
1057.113932967388
 30
0.0
 10
1344.326441290051
 20
1054.899298787042
 30
0.0
 10
1346.17176937588
 20
1053.778836689072
 30
0.0
 10
1347.301494818916
 20
1053.092880327298
 30
0.0
  0
SPLINE
  5
264
330
1F
100
AcDbEntity
  8
0
  6
Continuous
 62
     7
370
    35
100
AcDbSpline
210
0.0
220
0.0
230
1.0
 70
     8
 71
     3
 72
     9
 73
     5
 74
     0
 42
0.000000001
 43
0.00000001
 40
0.0
 40
0.0
 40
0.0
 40
0.0
 40
0.4946096718337107
 40
1.0
 40
1.0
 40
1.0
 40
1.0
 10
1339.335773376065
 20
1065.017344082393
 30
0.0
 10
1339.353292744898
 20
1064.536255904237
 30
0.0
 10
1339.388713339825
 20
1063.563593610003
 30
0.0
 10
1339.632278821734
 20
1062.625233301428
 30
0.0
 10
1339.755374460566
 20
1062.150995077139
 30
0.0
  0
LINE
  5
265
330
1F
100
AcDbEntity
  8
0
  6
Continuous
 62
     7
370
    35
100
AcDbLine
 10
1339.3357733761
 20
1074.8836930876
 30
0.0
 11
1339.3357733761
 21
1065.0173440824
 31
0.0
  0
SPLINE
  5
266
330
1F
100
AcDbEntity
  8
0
  6
Continuous
 62
     7
370
    35
100
AcDbSpline
210
0.0
220
0.0
230
1.0
 70
     8
 71
     3
 72
    11
 73
     7
 74
     0
 42
0.000000001
 43
0.00000001
 40
0.0
 40
0.0
 40
0.0
 40
0.0
 40
0.2606216717114505
 40
0.4632004480831409
 40
0.671366779562134
 40
1.0
 40
1.0
 40
1.0
 40
1.0
 10
1339.755374460566
 20
1077.750042092902
 30
0.0
 10
1340.122255831228
 20
1078.751760272713
 30
0.0
 10
1340.774310643737
 20
1080.532104580591
 30
0.0
 10
1342.31167550556
 20
1082.787104202654
 30
0.0
 10
1344.326441290051
 20
1085.001738383
 30
0.0
 10
1346.17176937588
 20
1086.12220048097
 30
0.0
 10
1347.301494818916
 20
1086.808156842743
 30
0.0
  0
SPLINE
  5
267
330
1F
100
AcDbEntity
  8
0
  6
Continuous
 62
     7
370
    35
100
AcDbSpline
210
0.0
220
0.0
230
1.0
 70
     8
 71
     3
 72
    17
 73
    13
 74
     0
 42
0.000000001
 43
0.00000001
 40
0.0
 40
0.0
 40
0.0
 40
0.0
 40
0.0352127301800319
 40
0.1768616316807841
 40
0.2808325704307539
 40
0.3877934996385749
 40
0.4930479341421652
 40
0.596542844205376
 40
0.7000016886007028
 40
0.8034759650084127
 40
0.9098495553099566
 40
1.0
 40
1.0
 40
1.0
 40
1.0
 10
1243.329868905101
 20
1048.213246189343
 30
0.0
 10
1242.929687563019
 20
1048.220650196542
 30
0.0
 10
1240.919712057941
 20
1048.257838020023
 30
0.0
 10
1237.742564135141
 20
1048.813732949523
 30
0.0
 10
1233.972932868423
 20
1050.216587928379
 30
0.0
 10
1230.856260793675
 20
1052.041459235457
 30
0.0
 10
1228.071969289365
 20
1054.329881698559
 30
0.0
 10
1225.740606089782
 20
1057.026725406592
 30
0.0
 10
1223.880933019692
 20
1060.043877787791
 30
0.0
 10
1222.522777013581
 20
1063.34919916136
 30
0.0
 10
1221.728856868014
 20
1066.689590693982
 30
0.0
 10
1221.638684677604
 20
1068.925055489018
 30
0.0
 10
1221.597320459409
 20
1069.950518585021
 30
0.0
  0
SPLINE
  5
268
330
1F
100
AcDbEntity
  8
0
  6
Continuous
 62
     7
370
    35
100
AcDbSpline
210
0.0
220
0.0
230
1.0
 70
     8
 71
     3
 72
    17
 73
    13
 74
     0
 42
0.000000001
 43
0.00000001
 40
0.0
 40
0.0
 40
0.0
 40
0.0
 40
0.035214099368698
 40
0.176868508652277
 40
0.2823152604671324
 40
0.3877837521866115
 40
0.4930422793344882
 40
0.5965412136257887
 40
0.7000040808468516
 40
0.8049238598612677
 40
0.9098460499592913
 40
1.0
 40
1.0
 40
1.0
 40
1.0
 10
1243.329868905101
 20
1091.687790980699
 30
0.0
 10
1242.929698940372
 20
1091.680357101357
 30
0.0
 10
1240.91978057989
 20
1091.64301924021
 30
0.0
 10
1237.72469951026
 20
1091.087580240132
 30
0.0
 10
1233.961032871625
 20
1089.669085379866
 30
0.0
 10
1230.8420536585
 20
1087.850771638224
 30
0.0
 10
1228.072149631545
 20
1085.570654360218
 30
0.0
 10
1225.740868038249
 20
1082.874316147012
 30
0.0
 10
1223.871062908027
 20
1079.843632279583
 30
0.0
 10
1222.522567123058
 20
1076.534197710802
 30
0.0
 10
1221.727067677134
 20
1073.195196411241
 30
0.0
 10
1221.638330242694
 20
1070.976078414488
 30
0.0
 10
1221.597320459409
 20
1069.950518585021
 30
0.0
  0
SPLINE
  5
269
330
1F
100
AcDbEntity
  8
0
  6
Continuous
 62
     7
370
    35
100
AcDbSpline
210
0.0
220
0.0
230
1.0
 70
     8
 71
     3
 72
    17
 73
    13
 74
     0
 42
0.000000001
 43
0.00000001
 40
0.0
 40
0.0
 40
0.0
 40
0.0
 40
0.0352140993686985
 40
0.1768685086522779
 40
0.2823152604671331
 40
0.3877837521866128
 40
0.4930422793344855
 40
0.5965412136257863
 40
0.7000040808468495
 40
0.8049238598612666
 40
0.9098460499592914
 40
1.0
 40
1.0
 40
1.0
 40
1.0
 10
1349.341677847034
 20
1091.687790980699
 30
0.0
 10
1349.741847811763
 20
1091.680357101357
 30
0.0
 10
1351.751766172245
 20
1091.643019240209
 30
0.0
 10
1354.946847241875
 20
1091.087580240132
 30
0.0
 10
1358.71051388051
 20
1089.669085379866
 30
0.0
 10
1361.829493093635
 20
1087.850771638223
 30
0.0
 10
1364.599397120591
 20
1085.570654360218
 30
0.0
 10
1366.930678713886
 20
1082.874316147012
 30
0.0
 10
1368.800483844108
 20
1079.843632279582
 30
0.0
 10
1370.148979629077
 20
1076.534197710801
 30
0.0
 10
1370.944479075001
 20
1073.19519641124
 30
0.0
 10
1371.033216509441
 20
1070.976078414487
 30
0.0
 10
1371.074226292727
 20
1069.950518585021
 30
0.0
  0
SPLINE
  5
26A
330
1F
100
AcDbEntity
  8
0
  6
Continuous
 62
     7
370
    35
100
AcDbSpline
210
0.0
220
0.0
230
1.0
 70
     8
 71
     3
 72
    17
 73
    13
 74
     0
 42
0.000000001
 43
0.00000001
 40
0.0
 40
0.0
 40
0.0
 40
0.0
 40
0.0352127301800314
 40
0.1768616316807833
 40
0.2808325704307529
 40
0.3877934996385737
 40
0.493047934142168
 40
0.5965428442053785
 40
0.7000016886007051
 40
0.803475965008415
 40
0.9098495553099567
 40
1.0
 40
1.0
 40
1.0
 40
1.0
 10
1349.341677847034
 20
1048.213246189343
 30
0.0
 10
1349.741859189116
 20
1048.220650196542
 30
0.0
 10
1351.751834694194
 20
1048.257838020021
 30
0.0
 10
1354.928982616994
 20
1048.813732949522
 30
0.0
 10
1358.698613883713
 20
1050.216587928379
 30
0.0
 10
1361.81528595846
 20
1052.041459235457
 30
0.0
 10
1364.59957746277
 20
1054.329881698559
 30
0.0
 10
1366.930940662354
 20
1057.026725406592
 30
0.0
 10
1368.790613732443
 20
1060.043877787791
 30
0.0
 10
1370.148769738554
 20
1063.34919916136
 30
0.0
 10
1370.942689884121
 20
1066.689590693981
 30
0.0
 10
1371.032862074531
 20
1068.925055489018
 30
0.0
 10
1371.074226292727
 20
1069.950518585021
 30
0.0
  0
LINE
  5
26B
330
1F
100
AcDbEntity
  8
0
  6
Continuous
 62
     7
370
    35
100
AcDbLine
 10
1296.3357733761
 20
1091.6917910525
 30
0.0
 11
1243.3298689051
 21
1091.6877909807
 31
0.0
  0
LINE
  5
26C
330
1F
100
AcDbEntity
  8
0
  6
Continuous
 62
     7
370
    35
100
AcDbLine
 10
1296.3357733761
 20
1048.2092461175
 30
0.0
 11
1243.3298689051
 21
1048.2132461893
 31
0.0
  0
LINE
  5
26D
330
1F
100
AcDbEntity
  8
0
  6
Continuous
 62
     7
370
    35
100
AcDbLine
 10
1296.3357733761
 20
1091.6917910525
 30
0.0
 11
1349.341677847
 21
1091.6877909807
 31
0.0
  0
LINE
  5
26E
330
1F
100
AcDbEntity
  8
0
  6
Continuous
 62
     7
370
    35
100
AcDbLine
 10
1296.3357733761
 20
1048.2092461175
 30
0.0
 11
1349.341677847
 21
1048.2132461893
 31
0.0
  0
LINE
  5
26F
330
1F
100
AcDbEntity
  8
0
  6
Continuous
 62
     7
370
    35
100
AcDbLine
 10
1339.4127093888
 20
1075.950518585
 30
0.0
 11
1253.2588373634
 21
1075.950518585
 31
0.0
  0
LINE
  5
270
330
1F
100
AcDbEntity
  8
0
  6
Continuous
 62
     7
370
    35
100
AcDbLine
 10
1339.4127093888
 20
1063.950518585
 30
0.0
 11
1253.2588373634
 21
1063.950518585
 31
0.0
  0
LINE
  5
271
330
1F
100
AcDbEntity
  8
0
  6
Continuous
 62
     7
370
    35
100
AcDbLine
 10
1243.3357733761
 20
1091.700518585
 30
0.0
 11
1349.3357733761
 21
1091.700518585
 31
0.0
  0
ARC
  5
272
330
1F
100
AcDbEntity
  8
0
  6
Continuous
 62
     7
370
    35
100
AcDbCircle
 10
1243.3357733761
 20
1069.950518585
 30
0.0
 40
21.75
100
AcDbArc
 50
90.0
 51
270.0
  0
LINE
  5
273
330
1F
100
AcDbEntity
  8
0
  6
Continuous
 62
     7
370
    35
100
AcDbLine
 10
1243.3357733761
 20
1048.200518585
 30
0.0
 11
1349.3357733761
 21
1048.200518585
 31
0.0
  0
ARC
  5
274
330
1F
100
AcDbEntity
  8
0
  6
Continuous
 62
     7
370
    35
100
AcDbCircle
 10
1349.3357733761
 20
1069.950518585
 30
0.0
 40
21.75
100
AcDbArc
 50
270.0
 51
90.0
  0
LINE
  5
275
330
1F
100
AcDbEntity
  8
0
  6
Continuous
 62
     7
370
    35
100
AcDbLine
 10
906.3357733761
 20
1004.450518585
 30
0.0
 11
883.8357733761
 21
1004.450518585
 31
0.0
  0
ARC
  5
276
330
1F
100
AcDbEntity
  8
0
  6
Continuous
 62
     7
370
    35
100
AcDbCircle
 10
883.8357733761
 20
1014.450518585
 30
0.0
 40
10.00000000000011
100
AcDbArc
 50
180.0
 51
270.0
  0
LINE
  5
277
330
1F
100
AcDbEntity
  8
0
  6
Continuous
 62
     7
370
    35
100
AcDbLine
 10
873.8357733761
 20
1014.450518585
 30
0.0
 11
873.8357733761
 21
1125.450518585
 31
0.0
  0
LINE
  5
278
330
1F
100
AcDbEntity
  8
0
  6
Continuous
 62
     7
370
    35
100
AcDbLine
 10
883.8357733761
 20
1135.450518585
 30
0.0
 11
906.3357733761
 21
1135.450518585
 31
0.0
  0
ARC
  5
279
330
1F
100
AcDbEntity
  8
0
  6
Continuous
 62
     7
370
    35
100
AcDbCircle
 10
883.8357733761
 20
1125.450518585
 30
0.0
 40
10.0
100
AcDbArc
 50
90.0
 51
180.0
  0
LINE
  5
27A
330
1F
100
AcDbEntity
  8
0
  6
Continuous
 62
     7
370
    35
100
AcDbLine
 10
1686.3357733761
 20
1135.450518585
 30
0.0
 11
1708.8357733761
 21
1135.450518585
 31
0.0
  0
ARC
  5
27B
330
1F
100
AcDbEntity
  8
0
  6
Continuous
 62
     7
370
    35
100
AcDbCircle
 10
1708.8357733761
 20
1125.450518585
 30
0.0
 40
10.0
100
AcDbArc
 50
0.0
 51
90.0
  0
LINE
  5
27C
330
1F
100
AcDbEntity
  8
0
  6
Continuous
 62
     7
370
    35
100
AcDbLine
 10
1718.8357733761
 20
1125.450518585
 30
0.0
 11
1718.8357733761
 21
1014.450518585
 31
0.0
  0
ARC
  5
27D
330
1F
100
AcDbEntity
  8
0
  6
Continuous
 62
     7
370
    35
100
AcDbCircle
 10
1708.8357733761
 20
1014.450518585
 30
0.0
 40
10.0
100
AcDbArc
 50
270.0
 51
0.0
  0
LINE
  5
27E
330
1F
100
AcDbEntity
  8
0
  6
Continuous
 62
     7
370
    35
100
AcDbLine
 10
1708.8357733761
 20
1004.450518585
 30
0.0
 11
1686.3357733761
 21
1004.450518585
 31
0.0
  0
LINE
  5
27F
330
1F
100
AcDbEntity
  8
0
  6
Continuous
 62
     7
370
    35
100
AcDbLine
 10
1686.3357733761
 20
1104.950518585
 30
0.0
 11
1688.3357733761
 21
1104.950518585
 31
0.0
  0
LINE
  5
280
330
1F
100
AcDbEntity
  8
0
  6
Continuous
 62
     7
370
    35
100
AcDbLine
 10
1688.3357733761
 20
1104.950518585
 30
0.0
 11
1688.3357733761
 21
1034.950518585
 31
0.0
  0
LINE
  5
281
330
1F
100
AcDbEntity
  8
0
  6
Continuous
 62
     7
370
    35
100
AcDbLine
 10
1688.3357733761
 20
1034.950518585
 30
0.0
 11
1686.3357733761
 21
1034.950518585
 31
0.0
  0
LINE
  5
282
330
1F
100
AcDbEntity
  8
0
  6
Continuous
 62
     7
370
    35
100
AcDbLine
 10
1686.3357733761
 20
1034.950518585
 30
0.0
 11
1686.3357733761
 21
1035.0363050226
 31
0.0
  0
LINE
  5
283
330
1F
100
AcDbEntity
  8
0
  6
Continuous
 62
     7
370
    35
100
AcDbLine
 10
1686.3357733761
 20
1037.8647321474
 30
0.0
 11
1686.3357733761
 21
1102.0363050226
 31
0.0
  0
LINE
  5
284
330
1F
100
AcDbEntity
  8
0
  6
Continuous
 62
     7
370
    35
100
AcDbLine
 10
1686.3357733761
 20
1104.8647321474
 30
0.0
 11
1686.3357733761
 21
1104.950518585
 31
0.0
  0
LINE
  5
285
330
1F
100
AcDbEntity
  8
0
  6
Continuous
 62
     7
370
    35
100
AcDbLine
 10
906.3357733761
 20
1034.950518585
 30
0.0
 11
904.3357733761
 21
1034.950518585
 31
0.0
  0
LINE
  5
286
330
1F
100
AcDbEntity
  8
0
  6
Continuous
 62
     7
370
    35
100
AcDbLine
 10
904.3357733761
 20
1034.950518585
 30
0.0
 11
904.3357733761
 21
1104.950518585
 31
0.0
  0
LINE
  5
287
330
1F
100
AcDbEntity
  8
0
  6
Continuous
 62
     7
370
    35
100
AcDbLine
 10
904.3357733761
 20
1104.950518585
 30
0.0
 11
906.3357733761
 21
1104.950518585
 31
0.0
  0
LINE
  5
288
330
1F
100
AcDbEntity
  8
0
  6
Continuous
 62
     7
370
    35
100
AcDbLine
 10
906.3357733761
 20
1104.950518585
 30
0.0
 11
906.3357733761
 21
1104.8647321474
 31
0.0
  0
LINE
  5
289
330
1F
100
AcDbEntity
  8
0
  6
Continuous
 62
     7
370
    35
100
AcDbLine
 10
906.3357733761
 20
1102.0363050226
 30
0.0
 11
906.3357733761
 21
1037.8647321474
 31
0.0
  0
LINE
  5
28A
330
1F
100
AcDbEntity
  8
0
  6
Continuous
 62
     7
370
    35
100
AcDbLine
 10
906.3357733761
 20
1035.0363050226
 30
0.0
 11
906.3357733761
 21
1034.950518585
 31
0.0
  0
LINE
  5
28B
330
1F
100
AcDbEntity
  8
0
  6
Continuous
 62
     8
370
    18
100
AcDbLine
 10
1686.3357733761
 20
1105.950518585
 30
0.0
 11
906.3357733761
 21
1105.950518585
 31
0.0
  0
LINE
  5
28C
330
1F
100
AcDbEntity
  8
0
  6
Continuous
 62
     8
370
    18
100
AcDbLine
 10
906.3357733761
 20
1033.950518585
 30
0.0
 11
1686.3357733761
 21
1033.950518585
 31
0.0
  0
LINE
  5
28D
330
1F
100
AcDbEntity
  8
0
  6
Continuous
 62
     8
370
    18
100
AcDbLine
 10
906.3357733761
 20
1101.0072113726
 30
0.0
 11
1686.3357733761
 21
1101.0072113726
 31
0.0
  0
LINE
  5
28E
330
1F
100
AcDbEntity
  8
0
  6
Continuous
 62
     8
370
    18
100
AcDbLine
 10
906.3357733761
 20
1038.8938257975
 30
0.0
 11
1686.3357733761
 21
1038.8938257975
 31
0.0
  0
LINE
  5
28F
330
1F
100
AcDbEntity
  8
0
  6
Continuous
 62
     8
370
    18
100
AcDbLine
 10
906.3357733761
 20
1070.0072113726
 30
0.0
 11
1213.3361067153
 21
1070.0072113726
 31
0.0
  0
LINE
  5
290
330
1F
100
AcDbEntity
  8
0
  6
Continuous
 62
     8
370
    18
100
AcDbLine
 10
1379.3354400368
 20
1070.0072113726
 30
0.0
 11
1686.3357733761
 21
1070.0072113726
 31
0.0
  0
LINE
  5
291
330
1F
100
AcDbEntity
  8
0
  6
Continuous
 62
     8
370
    18
100
AcDbLine
 10
1379.3344341494
 20
1070.0641057468
 30
0.0
 11
1379.3344341494
 21
1070.0639041601
 31
0.0
  0
LINE
  5
292
330
1F
100
AcDbEntity
  8
0
  6
Continuous
 62
     8
370
    18
100
AcDbLine
 10
1379.3344341494
 20
1069.8369314232
 30
0.0
 11
1379.3344341494
 21
1069.8371330099
 31
0.0
  0
ARC
  5
293
330
1F
100
AcDbEntity
  8
0
  6
Continuous
 62
     8
370
    18
100
AcDbCircle
 10
1303.0860627754
 20
1029.3190908309
 30
0.0
 40
54.26577168288423
100
AcDbArc
 50
12.3156445559
 51
15.3088218734
  0
ARC
  5
294
330
1F
100
AcDbEntity
  8
0
  6
Continuous
 62
     8
370
    18
100
AcDbCircle
 10
1378.4614254471
 20
1056.4969315045
 30
0.0
 40
13.36873667926408
100
AcDbArc
 50
86.2557918319
 51
99.1541892989
  0
LINE
  5
295
330
1F
100
AcDbEntity
  8
0
  6
Continuous
 62
     8
370
    18
100
AcDbLine
 10
1213.3371126027
 20
1069.8369314232
 30
0.0
 11
1213.3371126027
 21
1069.8371330099
 31
0.0
  0
ARC
  5
296
330
1F
100
AcDbEntity
  8
0
  6
Continuous
 62
     8
370
    18
100
AcDbCircle
 10
1214.2101213051
 20
1056.4969315045
 30
0.0
 40
13.368736679265
100
AcDbArc
 50
80.8458107011
 51
93.7442081681
  0
ARC
  5
297
330
1F
100
AcDbEntity
  8
0
  6
Continuous
 62
     8
370
    18
100
AcDbCircle
 10
1289.5854839762
 20
1029.319090831
 30
0.0
 40
54.26577168234468
100
AcDbArc
 50
164.6911781266
 51
167.6843554441
  0
ARC
  5
298
330
1F
100
AcDbEntity
  8
0
  6
Continuous
 62
     8
370
    18
100
AcDbCircle
 10
1378.4614254471
 20
1083.4041056655
 30
0.0
 40
13.36873667921138
100
AcDbArc
 50
260.8458107011
 51
273.7442081681
  0
ARC
  5
299
330
1F
100
AcDbEntity
  8
0
  6
Continuous
 62
     8
370
    18
100
AcDbCircle
 10
1303.0860627767
 20
1110.5819463388
 30
0.0
 40
54.26577168154156
100
AcDbArc
 50
344.6911781266
 51
347.6843554442
  0
LINE
  5
29A
330
1F
100
AcDbEntity
  8
0
  6
Continuous
 62
     8
370
    18
100
AcDbLine
 10
1213.3371126027
 20
1070.0641057468
 30
0.0
 11
1213.3371126027
 21
1070.0639041601
 31
0.0
  0
ARC
  5
29B
330
1F
100
AcDbEntity
  8
0
  6
Continuous
 62
     8
370
    18
100
AcDbCircle
 10
1289.5854839766
 20
1110.5819463391
 30
0.0
 40
54.2657716827868
100
AcDbArc
 50
192.3156445559
 51
195.3088218734
  0
ARC
  5
29C
330
1F
100
AcDbEntity
  8
0
  6
Continuous
 62
     8
370
    18
100
AcDbCircle
 10
1214.2101213051
 20
1083.4041056655
 30
0.0
 40
13.3687366792123
100
AcDbArc
 50
266.2557918319
 51
279.1541892989
  0
LINE
  5
29D
330
1F
100
AcDbEntity
  8
0
  6
Continuous
 62
     8
370
    18
100
AcDbLine
 10
906.3357733761
 20
1069.8938257975
 30
0.0
 11
1213.3361067153
 21
1069.8938257975
 31
0.0
  0
LINE
  5
29E
330
1F
100
AcDbEntity
  8
0
  6
Continuous
 62
     8
370
    18
100
AcDbLine
 10
1379.3354400368
 20
1069.8938257975
 30
0.0
 11
1686.3357733761
 21
1069.8938257975
 31
0.0
  0
LINE
  5
29F
330
1F
100
AcDbEntity
  8
0
  6
Continuous
 62
     8
370
    18
100
AcDbLine
 10
1243.3357733761
 20
1042.950518585
 30
0.0
 11
1243.3357733761
 21
1040.700518585
 31
0.0
  0
LINE
  5
2A0
330
1F
100
AcDbEntity
  8
0
  6
Continuous
 62
     8
370
    18
100
AcDbLine
 10
1349.3357733761
 20
1042.950518585
 30
0.0
 11
1349.3357733761
 21
1040.700518585
 31
0.0
  0
LINE
  5
2A1
330
1F
100
AcDbEntity
  8
0
  6
Continuous
 62
     8
370
    18
100
AcDbLine
 10
1243.3357733761
 20
1099.200518585
 30
0.0
 11
1243.3357733761
 21
1096.950518585
 31
0.0
  0
LINE
  5
2A2
330
1F
100
AcDbEntity
  8
0
  6
Continuous
 62
     8
370
    18
100
AcDbLine
 10
1243.3357733761
 20
1099.2063027836
 30
0.0
 11
1243.3357733761
 21
1099.200518585
 31
0.0
  0
LINE
  5
2A3
330
1F
100
AcDbEntity
  8
0
  6
Continuous
 62
     8
370
    18
100
AcDbLine
 10
1349.3357733761
 20
1099.200518585
 30
0.0
 11
1349.3357733761
 21
1096.950518585
 31
0.0
  0
LINE
  5
2A4
330
1F
100
AcDbEntity
  8
0
  6
Continuous
 62
     8
370
    18
100
AcDbLine
 10
1349.3357733761
 20
1099.2063027836
 30
0.0
 11
1349.3357733761
 21
1099.200518585
 31
0.0
  0
LINE
  5
2A5
330
1F
100
AcDbEntity
  8
0
  6
Continuous
 62
     8
370
    18
100
AcDbLine
 10
1243.3357733761
 20
1040.6947343864
 30
0.0
 11
1243.3357733761
 21
1040.700518585
 31
0.0
  0
LINE
  5
2A6
330
1F
100
AcDbEntity
  8
0
  6
Continuous
 62
     8
370
    18
100
AcDbLine
 10
1349.3357733761
 20
1040.6947343864
 30
0.0
 11
1349.3357733761
 21
1040.700518585
 31
0.0
  0
SPLINE
  5
2A7
330
1F
100
AcDbEntity
  8
0
  6
Continuous
 62
     8
370
    18
100
AcDbSpline
210
0.0
220
0.0
230
1.0
 70
     8
 71
     3
 72
    17
 73
    13
 74
     0
 42
0.000000001
 43
0.00000001
 40
0.0
 40
0.0
 40
0.0
 40
0.0
 40
0.0000017599180569
 40
0.1227053397328968
 40
0.2502071717394752
 40
0.352612809421412
 40
0.4578053944919535
 40
0.4930427252802647
 40
0.6348536903675559
 40
0.7415522131116636
 40
0.8461670224033152
 40
1.0
 40
1.0
 40
1.0
 40
1.0
 10
1243.329868544168
 20
1048.208806264904
 30
0.0
 10
1243.329848544168
 20
1048.208806266549
 30
0.0
 10
1241.935404777649
 20
1048.208920987955
 30
0.0
 10
1239.086610467938
 20
1048.495179372565
 30
0.0
 10
1235.219974501565
 20
1049.645593529045
 30
0.0
 10
1231.822687188698
 20
1051.401385140141
 30
0.0
 10
1229.591297612535
 20
1053.04803039214
 30
0.0
 10
1227.230809409296
 20
1055.219998686792
 30
0.0
 10
1225.176022803934
 20
1057.749644690378
 30
0.0
 10
1223.285288468204
 20
1061.301378476253
 30
0.0
 10
1221.911637623935
 20
1065.252106742787
 30
0.0
 10
1221.711817450935
 20
1068.197415491382
 30
0.0
 10
1221.592880730421
 20
1069.950518585021
 30
0.0
  0
LINE
  5
2A8
330
1F
100
AcDbEntity
  8
0
  6
Continuous
 62
     8
370
    18
100
AcDbLine
 10
1221.5973204594
 20
1069.950518585
 30
0.0
 11
1221.5928807304
 21
1069.950518585
 31
0.0
  0
LINE
  5
2A9
330
1F
100
AcDbEntity
  8
0
  6
Continuous
 62
     8
370
    18
100
AcDbLine
 10
1243.3298689051
 20
1048.2132461893
 30
0.0
 11
1243.3298685442
 21
1048.2088062649
 31
0.0
  0
LWPOLYLINE
  5
2AA
330
1F
100
AcDbEntity
  8
0
  6
Continuous
 62
     8
370
    18
100
AcDbPolyline
 90
        3
 70
   128
 43
0.0
 10
1243.3298685442
 20
1048.2088062649
 10
1243.329867845
 20
1048.2032672612
 10
1243.3298675706
 20
1048.2005193868
  0
SPLINE
  5
2AB
330
1F
100
AcDbEntity
  8
0
  6
Continuous
 62
     8
370
    18
100
AcDbSpline
210
0.0
220
0.0
230
1.0
 70
     8
 71
     3
 72
    17
 73
    13
 74
     0
 42
0.000000001
 43
0.00000001
 40
0.0
 40
0.0
 40
0.0
 40
0.0
 40
0.0000017599180569
 40
0.122705339732896
 40
0.2502071717394739
 40
0.3526128094214174
 40
0.457805394491959
 40
0.4930427252802656
 40
0.6348536903675569
 40
0.7415522131116647
 40
0.8461670224033163
 40
1.0
 40
1.0
 40
1.0
 40
1.0
 10
1243.329868544168
 20
1091.692230905138
 30
0.0
 10
1243.329848544168
 20
1091.692230903493
 30
0.0
 10
1241.935404777649
 20
1091.692116182167
 30
0.0
 10
1239.086610467938
 20
1091.405857797438
 30
0.0
 10
1235.219974501565
 20
1090.255443641006
 30
0.0
 10
1231.822687188698
 20
1088.499652029898
 30
0.0
 10
1229.591297612536
 20
1086.853006777902
 30
0.0
 10
1227.230809409296
 20
1084.68103848325
 30
0.0
 10
1225.176022803934
 20
1082.151392479664
 30
0.0
 10
1223.285288468204
 20
1078.599658693789
 30
0.0
 10
1221.911637623935
 20
1074.648930427255
 30
0.0
 10
1221.711817450935
 20
1071.703621678659
 30
0.0
 10
1221.592880730421
 20
1069.950518585021
 30
0.0
  0
LINE
  5
2AC
330
1F
100
AcDbEntity
  8
0
  6
Continuous
 62
     8
370
    18
100
AcDbLine
 10
1243.3298689051
 20
1091.6877909807
 30
0.0
 11
1243.3298685442
 21
1091.6922309051
 31
0.0
  0
LWPOLYLINE
  5
2AD
330
1F
100
AcDbEntity
  8
0
  6
Continuous
 62
     8
370
    18
100
AcDbPolyline
 90
        3
 70
   128
 43
0.0
 10
1243.3298685442
 20
1091.6922309051
 10
1243.329867845
 20
1091.6977699088
 10
1243.3298675706
 20
1091.7005177832
  0
SPLINE
  5
2AE
330
1F
100
AcDbEntity
  8
0
  6
Continuous
 62
     8
370
    18
100
AcDbSpline
210
0.0
220
0.0
230
1.0
 70
     8
 71
     3
 72
    17
 73
    13
 74
     0
 42
0.000000001
 43
0.00000001
 40
0.0
 40
0.0
 40
0.0
 40
0.0
 40
0.0000017599180569
 40
0.1227053397328977
 40
0.2502071717394757
 40
0.352612809421416
 40
0.4578053944919576
 40
0.4930427252802666
 40
0.634853690367558
 40
0.7415522131116661
 40
0.8461670224033147
 40
1.0
 40
1.0
 40
1.0
 40
1.0
 10
1349.341678207967
 20
1091.692230905138
 30
0.0
 10
1349.341698207967
 20
1091.692230903493
 30
0.0
 10
1350.736141974809
 20
1091.692116182248
 30
0.0
 10
1353.584936284039
 20
1091.405857797397
 30
0.0
 10
1357.451572250603
 20
1090.255443641013
 30
0.0
 10
1360.848859563429
 20
1088.499652029896
 30
0.0
 10
1363.0802491396
 20
1086.853006777901
 30
0.0
 10
1365.440737342838
 20
1084.681038483249
 30
0.0
 10
1367.495523948202
 20
1082.151392479664
 30
0.0
 10
1369.386258283931
 20
1078.599658693788
 30
0.0
 10
1370.7599091282
 20
1074.648930427255
 30
0.0
 10
1370.9597293012
 20
1071.703621678659
 30
0.0
 10
1371.078666021714
 20
1069.950518585021
 30
0.0
  0
LWPOLYLINE
  5
2AF
330
1F
100
AcDbEntity
  8
0
  6
Continuous
 62
     8
370
    18
100
AcDbPolyline
 90
        3
 70
   128
 43
0.0
 10
1349.341678208
 20
1091.6922309051
 10
1349.3416789071
 20
1091.6977699088
 10
1349.3416791816
 20
1091.7005177832
  0
LINE
  5
2B0
330
1F
100
AcDbEntity
  8
0
  6
Continuous
 62
     8
370
    18
100
AcDbLine
 10
1371.0742262927
 20
1069.950518585
 30
0.0
 11
1371.0786660217
 21
1069.950518585
 31
0.0
  0
LINE
  5
2B1
330
1F
100
AcDbEntity
  8
0
  6
Continuous
 62
     8
370
    18
100
AcDbLine
 10
1349.341677847
 20
1091.6877909807
 30
0.0
 11
1349.341678208
 21
1091.6922309051
 31
0.0
  0
SPLINE
  5
2B2
330
1F
100
AcDbEntity
  8
0
  6
Continuous
 62
     8
370
    18
100
AcDbSpline
210
0.0
220
0.0
230
1.0
 70
     8
 71
     3
 72
    17
 73
    13
 74
     0
 42
0.000000001
 43
0.00000001
 40
0.0
 40
0.0
 40
0.0
 40
0.0
 40
0.0000017599180569
 40
0.1227053397328959
 40
0.2502071717394734
 40
0.3526128094214134
 40
0.4578053944919547
 40
0.4930427252802635
 40
0.6348536903675545
 40
0.741552213111662
 40
0.8461670224033166
 40
1.0
 40
1.0
 40
1.0
 40
1.0
 10
1349.341678207967
 20
1048.208806264904
 30
0.0
 10
1349.341698207967
 20
1048.208806266549
 30
0.0
 10
1350.736141974808
 20
1048.208920987875
 30
0.0
 10
1353.58493628404
 20
1048.495179372604
 30
0.0
 10
1357.451572250603
 20
1049.645593529036
 30
0.0
 10
1360.848859563429
 20
1051.401385140143
 30
0.0
 10
1363.0802491396
 20
1053.04803039214
 30
0.0
 10
1365.440737342838
 20
1055.219998686792
 30
0.0
 10
1367.495523948201
 20
1057.749644690377
 30
0.0
 10
1369.386258283931
 20
1061.301378476253
 30
0.0
 10
1370.7599091282
 20
1065.252106742787
 30
0.0
 10
1370.9597293012
 20
1068.197415491382
 30
0.0
 10
1371.078666021714
 20
1069.950518585021
 30
0.0
  0
LINE
  5
2B3
330
1F
100
AcDbEntity
  8
0
  6
Continuous
 62
     8
370
    18
100
AcDbLine
 10
1349.341677847
 20
1048.2132461893
 30
0.0
 11
1349.341678208
 21
1048.2088062649
 31
0.0
  0
LWPOLYLINE
  5
2B4
330
1F
100
AcDbEntity
  8
0
  6
Continuous
 62
     8
370
    18
100
AcDbPolyline
 90
        3
 70
   128
 43
0.0
 10
1349.341678208
 20
1048.2088062649
 10
1349.3416789071
 20
1048.2032672612
 10
1349.3416791816
 20
1048.2005193868
  0
SPLINE
  5
2B5
330
1F
100
AcDbEntity
  8
0
  6
Continuous
 62
     8
370
    18
100
AcDbSpline
210
0.0
220
0.0
230
1.0
 70
     8
 71
     3
 72
     9
 73
     5
 74
     0
 42
0.000000001
 43
0.00000001
 40
0.0
 40
0.0
 40
0.0
 40
0.0
 40
0.1546895589893172
 40
1.0
 40
1.0
 40
1.0
 40
1.0
 10
1243.452504558731
 20
1088.682092039005
 30
0.0
 10
1243.6955570153
 20
1088.609417504006
 30
0.0
 10
1245.26678430535
 20
1088.139608581707
 30
0.0
 10
1246.690902214171
 20
1087.323330552663
 30
0.0
 10
1247.894723951727
 20
1086.633322211945
 30
0.0
  0
ARC
  5
2B6
330
1F
100
AcDbEntity
  8
0
  6
Continuous
 62
     8
370
    18
100
AcDbCircle
 10
1249.3511406286
 20
1085.1869922268
 30
0.0
 40
2.052564240822959
100
AcDbArc
 50
135.1990950654
 51
168.3527908008
  0
ARC
  5
2B7
330
1F
100
AcDbEntity
  8
0
  6
Continuous
 62
     8
370
    18
100
AcDbCircle
 10
1249.3511406286
 20
1054.7140449433
 30
0.0
 40
2.052564240820818
100
AcDbArc
 50
191.6472091992
 51
224.8009049346
  0
SPLINE
  5
2B8
330
1F
100
AcDbEntity
  8
0
  6
Continuous
 62
     8
370
    18
100
AcDbSpline
210
0.0
220
0.0
230
1.0
 70
     8
 71
     3
 72
    11
 73
     7
 74
     0
 42
0.000000001
 43
0.00000001
 40
0.0
 40
0.0
 40
0.0
 40
0.0
 40
0.0771531718714959
 40
0.1543573881090453
 40
0.5727608612303011
 40
1.0
 40
1.0
 40
1.0
 40
1.0
 10
1243.452504558731
 20
1051.218945131036
 30
0.0
 10
1243.574058434763
 20
1051.254601662461
 30
0.0
 10
1243.817246606601
 20
1051.325938315592
 30
0.0
 10
1244.710775026539
 20
1051.617946011534
 30
0.0
 10
1246.123622817699
 20
1052.185518096286
 30
0.0
 10
1247.300258894165
 20
1052.904478659847
 30
0.0
 10
1247.894723951727
 20
1053.267714958097
 30
0.0
  0
SPLINE
  5
2B9
330
1F
100
AcDbEntity
  8
0
  6
Continuous
 62
     8
370
    18
100
AcDbSpline
210
0.0
220
0.0
230
1.0
 70
     8
 71
     3
 72
    11
 73
     7
 74
     0
 42
0.000000001
 43
0.00000001
 40
0.0
 40
0.0
 40
0.0
 40
0.0
 40
0.0771531718714945
 40
0.1543573881090452
 40
0.5727608612302947
 40
1.0
 40
1.0
 40
1.0
 40
1.0
 10
1349.219042193404
 20
1051.218945131036
 30
0.0
 10
1349.097488317371
 20
1051.254601662461
 30
0.0
 10
1348.854300145533
 20
1051.325938315592
 30
0.0
 10
1347.960771725596
 20
1051.617946011534
 30
0.0
 10
1346.547923934436
 20
1052.185518096286
 30
0.0
 10
1345.37128785797
 20
1052.904478659847
 30
0.0
 10
1344.776822800408
 20
1053.267714958097
 30
0.0
  0
ARC
  5
2BA
330
1F
100
AcDbEntity
  8
0
  6
Continuous
 62
     8
370
    18
100
AcDbCircle
 10
1343.3204061235
 20
1054.7140449433
 30
0.0
 40
2.052564240823604
100
AcDbArc
 50
315.1990950654
 51
348.3527908008
  0
ARC
  5
2BB
330
1F
100
AcDbEntity
  8
0
  6
Continuous
 62
     8
370
    18
100
AcDbCircle
 10
1343.3204061235
 20
1085.1869922268
 30
0.0
 40
2.052564240823764
100
AcDbArc
 50
11.6472091992
 51
44.8009049346
  0
SPLINE
  5
2BC
330
1F
100
AcDbEntity
  8
0
  6
Continuous
 62
     8
370
    18
100
AcDbSpline
210
0.0
220
0.0
230
1.0
 70
     8
 71
     3
 72
     9
 73
     5
 74
     0
 42
0.000000001
 43
0.00000001
 40
0.0
 40
0.0
 40
0.0
 40
0.0
 40
0.1546895589893174
 40
1.0
 40
1.0
 40
1.0
 40
1.0
 10
1349.219042193404
 20
1088.682092039005
 30
0.0
 10
1348.975989736834
 20
1088.609417504006
 30
0.0
 10
1347.404762446785
 20
1088.139608581707
 30
0.0
 10
1345.980644537964
 20
1087.323330552663
 30
0.0
 10
1344.776822800408
 20
1086.633322211945
 30
0.0
  0
SPLINE
  5
2BD
330
1F
100
AcDbEntity
  8
0
  6
Continuous
 62
     8
370
    18
100
AcDbSpline
210
0.0
220
0.0
230
1.0
 70
     8
 71
     3
 72
    14
 73
    10
 74
     0
 42
0.000000001
 43
0.00000001
 40
0.0
 40
0.0
 40
0.0
 40
0.0
 40
0.1114289230463659
 40
0.4958785649708814
 40
0.7046555305635164
 40
0.8301760374267302
 40
0.912101879866412
 40
0.9942797082137661
 40
1.0
 40
1.0
 40
1.0
 40
1.0
 10
1247.894723951727
 20
1053.267714958097
 30
0.0
 10
1248.014114997369
 20
1053.35004732335
 30
0.0
 10
1248.545426426797
 20
1053.71644102093
 30
0.0
 10
1249.219717950157
 20
1054.349212171655
 30
0.0
 10
1249.677581737919
 20
1055.140196686355
 30
0.0
 10
1249.762039488252
 20
1055.650391420218
 30
0.0
 10
1249.6795751954
 20
1055.994720025882
 30
0.0
 10
1249.559868251778
 20
1056.172419746615
 30
0.0
 10
1249.479156978572
 20
1056.247802316037
 30
0.0
 10
1249.473904397146
 20
1056.252708112567
 30
0.0
  0
SPLINE
  5
2BE
330
1F
100
AcDbEntity
  8
0
  6
Continuous
 62
     8
370
    18
100
AcDbSpline
210
0.0
220
0.0
230
1.0
 70
     8
 71
     3
 72
    14
 73
    10
 74
     0
 42
0.000000001
 43
0.00000001
 40
0.0
 40
0.0
 40
0.0
 40
0.0
 40
0.1114289230463695
 40
0.4958785649708553
 40
0.704655530563507
 40
0.830176037426713
 40
0.9121018798664108
 40
0.9942797082137677
 40
1.0
 40
1.0
 40
1.0
 40
1.0
 10
1247.894723951727
 20
1086.633322211945
 30
0.0
 10
1248.014114997369
 20
1086.550989846692
 30
0.0
 10
1248.545426426797
 20
1086.184596149111
 30
0.0
 10
1249.219717950157
 20
1085.551824998387
 30
0.0
 10
1249.677581737919
 20
1084.760840483687
 30
0.0
 10
1249.762039488252
 20
1084.250645749824
 30
0.0
 10
1249.6795751954
 20
1083.90631714416
 30
0.0
 10
1249.559868251778
 20
1083.728617423427
 30
0.0
 10
1249.479156978572
 20
1083.653234854004
 30
0.0
 10
1249.473904397146
 20
1083.648329057475
 30
0.0
  0
ARC
  5
2BF
330
1F
100
AcDbEntity
  8
0
  6
Continuous
 62
     8
370
    18
100
AcDbCircle
 10
1250.3357733761
 20
1069.950518585
 30
0.0
 40
20.0
100
AcDbArc
 50
90.0
 51
167.5224163015
  0
LINE
  5
2C0
330
1F
100
AcDbEntity
  8
0
  6
Continuous
 62
     8
370
    18
100
AcDbLine
 10
1250.3357733761
 20
1082.6631693719
 30
0.0
 11
1250.3357733761
 21
1089.950518585
 31
0.0
  0
LINE
  5
2C1
330
1F
100
AcDbEntity
  8
0
  6
Continuous
 62
     8
370
    18
100
AcDbLine
 10
1250.3357733761
 20
1057.2378677981
 30
0.0
 11
1250.3357733761
 21
1049.950518585
 31
0.0
  0
ARC
  5
2C2
330
1F
100
AcDbEntity
  8
0
  6
Continuous
 62
     8
370
    18
100
AcDbCircle
 10
1250.3357733761
 20
1069.950518585
 30
0.0
 40
20.0
100
AcDbArc
 50
192.4775836985
 51
270.0
  0
ARC
  5
2C3
330
1F
100
AcDbEntity
  8
0
  6
Continuous
 62
     8
370
    18
100
AcDbCircle
 10
1342.3357733761
 20
1069.950518585
 30
0.0
 40
20.0
100
AcDbArc
 50
270.0
 51
347.5224163015
  0
LINE
  5
2C4
330
1F
100
AcDbEntity
  8
0
  6
Continuous
 62
     8
370
    18
100
AcDbLine
 10
1342.3357733761
 20
1057.2378677981
 30
0.0
 11
1342.3357733761
 21
1049.950518585
 31
0.0
  0
LINE
  5
2C5
330
1F
100
AcDbEntity
  8
0
  6
Continuous
 62
     8
370
    18
100
AcDbLine
 10
1342.3357733761
 20
1082.6631693719
 30
0.0
 11
1342.3357733761
 21
1089.950518585
 31
0.0
  0
ARC
  5
2C6
330
1F
100
AcDbEntity
  8
0
  6
Continuous
 62
     8
370
    18
100
AcDbCircle
 10
1342.3357733761
 20
1069.950518585
 30
0.0
 40
20.0
100
AcDbArc
 50
12.4775836985
 51
90.0
  0
SPLINE
  5
2C7
330
1F
100
AcDbEntity
  8
0
  6
Continuous
 62
     8
370
    18
100
AcDbSpline
210
0.0
220
0.0
230
1.0
 70
     8
 71
     3
 72
    14
 73
    10
 74
     0
 42
0.000000001
 43
0.00000001
 40
0.0
 40
0.0
 40
0.0
 40
0.0
 40
0.1114289230463653
 40
0.4958785649708986
 40
0.7046555305635175
 40
0.8301760374267458
 40
0.9121018798664138
 40
0.9942797082137674
 40
1.0
 40
1.0
 40
1.0
 40
1.0
 10
1344.776822800408
 20
1086.633322211945
 30
0.0
 10
1344.657431754766
 20
1086.550989846692
 30
0.0
 10
1344.126120325338
 20
1086.184596149111
 30
0.0
 10
1343.451828801978
 20
1085.551824998387
 30
0.0
 10
1342.993965014216
 20
1084.760840483686
 30
0.0
 10
1342.909507263882
 20
1084.250645749824
 30
0.0
 10
1342.991971556735
 20
1083.90631714416
 30
0.0
 10
1343.111678500357
 20
1083.728617423427
 30
0.0
 10
1343.192389773563
 20
1083.653234854004
 30
0.0
 10
1343.197642354989
 20
1083.648329057474
 30
0.0
  0
SPLINE
  5
2C8
330
1F
100
AcDbEntity
  8
0
  6
Continuous
 62
     8
370
    18
100
AcDbSpline
210
0.0
220
0.0
230
1.0
 70
     8
 71
     3
 72
    14
 73
    10
 74
     0
 42
0.000000001
 43
0.00000001
 40
0.0
 40
0.0
 40
0.0
 40
0.0
 40
0.1114289230463699
 40
0.49587856497084
 40
0.7046555305635075
 40
0.8301760374266984
 40
0.9121018798664101
 40
0.9942797082137672
 40
1.0
 40
1.0
 40
1.0
 40
1.0
 10
1344.776822800408
 20
1053.267714958097
 30
0.0
 10
1344.657431754766
 20
1053.35004732335
 30
0.0
 10
1344.126120325338
 20
1053.71644102093
 30
0.0
 10
1343.451828801978
 20
1054.349212171654
 30
0.0
 10
1342.993965014216
 20
1055.140196686355
 30
0.0
 10
1342.909507263882
 20
1055.650391420217
 30
0.0
 10
1342.991971556735
 20
1055.994720025882
 30
0.0
 10
1343.111678500357
 20
1056.172419746614
 30
0.0
 10
1343.192389773563
 20
1056.247802316037
 30
0.0
 10
1343.197642354989
 20
1056.252708112567
 30
0.0
  0
LINE
  5
2C9
330
1F
100
AcDbEntity
  8
0
  6
Continuous
 62
     8
370
    18
100
AcDbLine
 10
1296.3357733761
 20
1091.696230977
 30
0.0
 11
1243.3298870589
 21
1091.6922309065
 31
0.0
  0
LINE
  5
2CA
330
1F
100
AcDbEntity
  8
0
  6
Continuous
 62
     8
370
    18
100
AcDbLine
 10
1296.3357733761
 20
1091.696230977
 30
0.0
 11
1296.3357733761
 21
1091.6917910525
 31
0.0
  0
LINE
  5
2CB
330
1F
100
AcDbEntity
  8
0
  6
Continuous
 62
     8
370
    18
100
AcDbLine
 10
1296.3357733761
 20
1048.204806193
 30
0.0
 11
1243.3298870589
 21
1048.2088062635
 31
0.0
  0
LINE
  5
2CC
330
1F
100
AcDbEntity
  8
0
  6
Continuous
 62
     8
370
    18
100
AcDbLine
 10
1296.3357733761
 20
1048.204806193
 30
0.0
 11
1296.3357733761
 21
1048.2092461175
 31
0.0
  0
LINE
  5
2CD
330
1F
100
AcDbEntity
  8
0
  6
Continuous
 62
     8
370
    18
100
AcDbLine
 10
1296.3357733761
 20
1091.696230977
 30
0.0
 11
1349.3416596932
 21
1091.6922309065
 31
0.0
  0
LINE
  5
2CE
330
1F
100
AcDbEntity
  8
0
  6
Continuous
 62
     8
370
    18
100
AcDbLine
 10
1296.3357733761
 20
1048.204806193
 30
0.0
 11
1349.3416596932
 21
1048.2088062635
 31
0.0
  0
LINE
  5
2CF
330
1F
100
AcDbEntity
  8
0
  6
Continuous
 62
     8
370
    18
100
AcDbLine
 10
1250.3357733761
 20
1089.950518585
 30
0.0
 11
1342.3357733761
 21
1089.950518585
 31
0.0
  0
LINE
  5
2D0
330
1F
100
AcDbEntity
  8
0
  6
Continuous
 62
     8
370
    18
100
AcDbLine
 10
1250.3357733761
 20
1049.950518585
 30
0.0
 11
1342.3357733761
 21
1049.950518585
 31
0.0
  0
LINE
  5
2D1
330
1F
100
AcDbEntity
  8
0
  6
Continuous
 62
     8
370
    18
100
AcDbLine
 10
1243.3298870589
 20
1091.6922309065
 30
0.0
 11
1243.3298864335
 21
1091.7005177883
 31
0.0
  0
LINE
  5
2D2
330
1F
100
AcDbEntity
  8
0
  6
Continuous
 62
     8
370
    18
100
AcDbLine
 10
1243.3298870589
 20
1048.2088062635
 30
0.0
 11
1243.3298864335
 21
1048.2005193817
 31
0.0
  0
LINE
  5
2D3
330
1F
100
AcDbEntity
  8
0
  6
Continuous
 62
     8
370
    18
100
AcDbLine
 10
1349.3416596932
 20
1091.6922309065
 30
0.0
 11
1349.3416603186
 21
1091.7005177883
 31
0.0
  0
LINE
  5
2D4
330
1F
100
AcDbEntity
  8
0
  6
Continuous
 62
     8
370
    18
100
AcDbLine
 10
1349.3416596932
 20
1048.2088062635
 30
0.0
 11
1349.3416603186
 21
1048.2005193817
 31
0.0
  0
LINE
  5
2D5
330
1F
100
AcDbEntity
  8
0
  6
Continuous
 62
     8
370
    18
100
AcDbLine
 10
1349.3357733761
 20
1091.700518585
 30
0.0
 11
1349.3357733761
 21
1096.200518585
 31
0.0
  0
LINE
  5
2D6
330
1F
100
AcDbEntity
  8
0
  6
Continuous
 62
     8
370
    18
100
AcDbLine
 10
1243.3357733761
 20
1091.700518585
 30
0.0
 11
1243.3357733761
 21
1096.200518585
 31
0.0
  0
LINE
  5
2D7
330
1F
100
AcDbEntity
  8
0
  6
Continuous
 62
     8
370
    18
100
AcDbLine
 10
1243.3357733761
 20
1096.200518585
 30
0.0
 11
1349.3357733761
 21
1096.200518585
 31
0.0
  0
LINE
  5
2D8
330
1F
100
AcDbEntity
  8
0
  6
Continuous
 62
     8
370
    18
100
AcDbLine
 10
1349.3357733761
 20
1096.200518585
 30
0.0
 11
1349.3357733761
 21
1096.950518585
 31
0.0
  0
LINE
  5
2D9
330
1F
100
AcDbEntity
  8
0
  6
Continuous
 62
     8
370
    18
100
AcDbLine
 10
1243.3357733761
 20
1096.200518585
 30
0.0
 11
1243.3357733761
 21
1096.950518585
 31
0.0
  0
LINE
  5
2DA
330
1F
100
AcDbEntity
  8
0
  6
Continuous
 62
     8
370
    18
100
AcDbLine
 10
1243.3357733761
 20
1048.200518585
 30
0.0
 11
1243.3357733761
 21
1043.700518585
 31
0.0
  0
ARC
  5
2DB
330
1F
100
AcDbEntity
  8
0
  6
Continuous
 62
     8
370
    18
100
AcDbCircle
 10
1243.3357733761
 20
1069.950518585
 30
0.0
 40
26.25
100
AcDbArc
 50
90.0
 51
270.0
  0
LINE
  5
2DC
330
1F
100
AcDbEntity
  8
0
  6
Continuous
 62
     8
370
    18
100
AcDbLine
 10
1243.3357733761
 20
1043.700518585
 30
0.0
 11
1243.3357733761
 21
1042.950518585
 31
0.0
  0
LINE
  5
2DD
330
1F
100
AcDbEntity
  8
0
  6
Continuous
 62
     8
370
    18
100
AcDbLine
 10
1349.3357733761
 20
1048.200518585
 30
0.0
 11
1349.3357733761
 21
1043.700518585
 31
0.0
  0
LINE
  5
2DE
330
1F
100
AcDbEntity
  8
0
  6
Continuous
 62
     8
370
    18
100
AcDbLine
 10
1243.3357733761
 20
1043.700518585
 30
0.0
 11
1349.3357733761
 21
1043.700518585
 31
0.0
  0
LINE
  5
2DF
330
1F
100
AcDbEntity
  8
0
  6
Continuous
 62
     8
370
    18
100
AcDbLine
 10
1349.3357733761
 20
1043.700518585
 30
0.0
 11
1349.3357733761
 21
1042.950518585
 31
0.0
  0
ARC
  5
2E0
330
1F
100
AcDbEntity
  8
0
  6
Continuous
 62
     8
370
    18
100
AcDbCircle
 10
1349.3357733761
 20
1069.950518585
 30
0.0
 40
26.25
100
AcDbArc
 50
270.0
 51
90.0
  0
CIRCLE
  5
2E1
330
1F
100
AcDbEntity
  8
0
  6
Continuous
 62
     8
370
    18
100
AcDbCircle
 10
1296.3357733761
 20
1069.950518585
 30
0.0
 40
3.548336454629634
  0
CIRCLE
  5
2E2
330
1F
100
AcDbEntity
  8
0
  6
Continuous
 62
     8
370
    18
100
AcDbCircle
 10
1296.3357733761
 20
1069.950518585
 30
0.0
 40
5.614709433546523
  0
ARC
  5
2E3
330
1F
100
AcDbEntity
  8
0
  6
Continuous
 62
     8
370
    18
100
AcDbCircle
 10
1296.3357733761
 20
1069.950518585
 30
0.0
 40
7.46348026743973
100
AcDbArc
 50
126.4944476701
 51
233.5055523299
  0
ARC
  5
2E4
330
1F
100
AcDbEntity
  8
0
  6
Continuous
 62
     8
370
    18
100
AcDbCircle
 10
1296.3357733761
 20
1069.950518585
 30
0.0
 40
7.46348026743973
100
AcDbArc
 50
306.4944476701
 51
53.5055523299
  0
ARC
  5
2E5
330
1F
100
AcDbEntity
  8
0
  6
Continuous
 62
     8
370
    18
100
AcDbCircle
 10
1296.3357733761
 20
1069.950518585
 30
0.0
 40
8.284968901367037
100
AcDbArc
 50
133.5974061618
 51
226.4025938382
  0
ARC
  5
2E6
330
1F
100
AcDbEntity
  8
0
  6
Continuous
 62
     8
370
    18
100
AcDbCircle
 10
1296.3357733761
 20
1069.950518585
 30
0.0
 40
8.28496890136688
100
AcDbArc
 50
313.5974061618
 51
46.4025938382
  0
SPLINE
  5
2E7
330
1F
100
AcDbEntity
  8
0
  6
Continuous
 62
     7
370
    35
100
AcDbSpline
210
0.0
220
0.0
230
1.0
 70
     8
 71
     3
 72
    17
 73
    13
 74
     0
 42
0.000000001
 43
0.00000001
 40
0.0
 40
0.0
 40
0.0
 40
0.0
 40
0.0944724089321816
 40
0.2037690526182969
 40
0.2658214290196192
 40
0.2993037426761596
 40
0.3336657805523349
 40
0.4040243448788758
 40
0.4775461189657556
 40
0.6372893935525841
 40
0.8168942664859021
 40
1.0
 40
1.0
 40
1.0
 40
1.0
 10
2182.538047529227
 20
1440.73936234879
 30
0.0
 10
2182.275440214732
 20
1441.148281304811
 30
0.0
 10
2181.709018290171
 20
1442.030285153427
 30
0.0
 10
2180.645137326939
 20
1442.786535124536
 30
0.0
 10
2179.800369333741
 20
1443.093286398238
 30
0.0
 10
2179.429966673881
 20
1443.470590423484
 30
0.0
 10
2179.265237589906
 20
1443.950000808357
 30
0.0
 10
2179.32735846978
 20
1444.476997417644
 30
0.0
 10
2179.300944224965
 20
1445.19021887955
 30
0.0
 10
2179.315307658677
 20
1445.807916817687
 30
0.0
 10
2179.310172912435
 20
1446.188033070669
 30
0.0
 10
2179.31089163603
 20
1446.215579808977
 30
0.0
 10
2179.311254466366
 20
1446.229486117848
 30
0.0
  0
SPLINE
  5
2E8
330
1F
100
AcDbEntity
  8
0
  6
Continuous
 62
     7
370
    35
100
AcDbSpline
210
0.0
220
0.0
230
1.0
 70
     8
 71
     3
 72
    17
 73
    13
 74
     0
 42
0.000000001
 43
0.00000001
 40
0.0
 40
0.0
 40
0.0
 40
0.0
 40
0.1890801208207447
 40
0.3745451547229979
 40
0.5395005445915797
 40
0.615421192517037
 40
0.6880754212421301
 40
0.7235586262110195
 40
0.7581334032538065
 40
0.8222104291443969
 40
0.9350732117381222
 40
1.0
 40
1.0
 40
1.0
 40
1.0
 10
2122.311241807854
 20
1446.229486117825
 30
0.0
 10
2122.311604434655
 20
1446.215580055939
 30
0.0
 10
2122.312322755071
 20
1446.188033806876
 30
0.0
 10
2122.307190879241
 20
1445.807914070711
 30
0.0
 10
2122.321546275369
 20
1445.190225886001
 30
0.0
 10
2122.295146803843
 20
1444.476986497043
 30
0.0
 10
2122.357232929483
 20
1443.950032061239
 30
0.0
 10
2122.192572714439
 20
1443.470538105452
 30
0.0
 10
2121.821909721696
 20
1443.09354998831
 30
0.0
 10
2120.979523360104
 20
1442.783908658219
 30
0.0
 10
2120.027990780984
 20
1442.134674269161
 30
0.0
 10
2119.542974221124
 20
1441.39723466088
 30
0.0
 10
2119.36585152864
 20
1441.127929858172
 30
0.0
  0
ARC
  5
2E9
330
1F
100
AcDbEntity
  8
0
  6
Continuous
 62
     7
370
    35
100
AcDbCircle
 10
2128.3212349686
 20
1416.7788847884
 30
0.0
 40
14.99987568081287
100
AcDbArc
 50
226.8610757221
 51
269.924195537
  0
ARC
  5
2EA
330
1F
100
AcDbEntity
  8
0
  6
Continuous
 62
     7
370
    35
100
AcDbCircle
 10
2173.3012615197
 20
1416.778883716
 30
0.0
 40
14.99987460813938
100
AcDbArc
 50
270.0758036504
 51
312.1690218565
  0
SPLINE
  5
2EB
330
1F
100
AcDbEntity
  8
0
  6
Continuous
 62
     7
370
    35
100
AcDbSpline
210
0.0
220
0.0
230
1.0
 70
     8
 71
     3
 72
    14
 73
    10
 74
     0
 42
0.000000001
 43
0.00000001
 40
0.0
 40
0.0
 40
0.0
 40
0.0
 40
0.3118518498471883
 40
0.5835247383372457
 40
0.7472368347706513
 40
0.8165073455959029
 40
0.8691914210109367
 40
0.929378620002512
 40
1.0
 40
1.0
 40
1.0
 40
1.0
 10
2183.191140773155
 20
1440.155988463136
 30
0.0
 10
2183.081201684631
 20
1440.236436075365
 30
0.0
 10
2182.875488048827
 20
1440.386966437453
 30
0.0
 10
2182.651535482841
 20
1440.621627948404
 30
0.0
 10
2182.513394859102
 20
1440.793488678314
 30
0.0
 10
2182.453872970234
 20
1440.875682311142
 30
0.0
 10
2182.430622206095
 20
1440.909069480275
 30
0.0
 10
2182.418412528799
 20
1440.927119716358
 30
0.0
 10
2182.418142512694
 20
1440.927545902522
 30
0.0
 10
2182.417996735482
 20
1440.927775993356
 30
0.0
  0
SPLINE
  5
2EC
330
1F
100
AcDbEntity
  8
0
  6
Continuous
 62
     7
370
    35
100
AcDbSpline
210
0.0
220
0.0
230
1.0
 70
     8
 71
     3
 72
    12
 73
     8
 74
     0
 42
0.000000001
 43
0.00000001
 40
0.0
 40
0.0
 40
0.0
 40
0.0
 40
0.1249100435586305
 40
0.2370776954575896
 40
0.3308192653992205
 40
0.4814606094414195
 40
0.9999999999999999
 40
0.9999999999999999
 40
0.9999999999999999
 40
0.9999999999999999
 10
2119.203327349382
 20
1440.926024818402
 30
0.0
 10
2119.203448660699
 20
1440.926190669722
 30
0.0
 10
2119.203678908057
 20
1440.926505453447
 30
0.0
 10
2119.184502947446
 20
1440.898223496126
 30
0.0
 10
2119.143446120307
 20
1440.840517821577
 30
0.0
 10
2119.017059486837
 20
1440.672067911748
 30
0.0
 10
2118.878712598811
 20
1440.533292585577
 30
0.0
 10
2118.771509406468
 20
1440.425757402126
 30
0.0
  0
SPLINE
  5
2ED
330
1F
100
AcDbEntity
  8
0
  6
Continuous
 62
     7
370
    35
100
AcDbSpline
210
0.0
220
0.0
230
1.0
 70
     8
 71
     3
 72
    12
 73
     8
 74
     0
 42
0.000000001
 43
0.00000001
 40
0.0
 40
0.0
 40
0.0
 40
0.0
 40
0.0910374225037437
 40
0.2353541285707371
 40
0.3547454600281498
 40
0.5766251016133924
 40
1.0
 40
1.0
 40
1.0
 40
1.0
 10
2183.357161768629
 20
1405.673399347894
 30
0.0
 10
2183.356196587736
 20
1405.672560758787
 30
0.0
 10
2183.353701357731
 20
1405.670392799689
 30
0.0
 10
2183.368116267131
 20
1405.68276313007
 30
0.0
 10
2183.403604636821
 20
1405.712024164356
 30
0.0
 10
2183.482072171825
 20
1405.775564638044
 30
0.0
 10
2183.556398370932
 20
1405.823549078524
 30
0.0
 10
2183.605166484979
 20
1405.855033409673
 30
0.0
  0
SPLINE
  5
2EE
330
1F
100
AcDbEntity
  8
0
  6
Continuous
 62
     7
370
    35
100
AcDbSpline
210
0.0
220
0.0
230
1.0
 70
     8
 71
     3
 72
    13
 73
     9
 74
     0
 42
0.000000001
 43
0.00000001
 40
0.0
 40
0.0
 40
0.0
 40
0.0
 40
0.3192547615201392
 40
0.6030634360096098
 40
0.7318310648087412
 40
0.831116840898142
 40
0.9400008211855726
 40
1.0
 40
1.0
 40
1.0
 40
1.0
 10
2118.018011635138
 20
1405.856551704318
 30
0.0
 10
2118.054674956727
 20
1405.832783937703
 30
0.0
 10
2118.123930959639
 20
1405.787887282338
 30
0.0
 10
2118.201840309915
 20
1405.725871140446
 30
0.0
 10
2118.245019545843
 20
1405.690551785331
 30
0.0
 10
2118.261815287437
 20
1405.67638911637
 30
0.0
 10
2118.268766328226
 20
1405.670425265124
 30
0.0
 10
2118.26778726467
 20
1405.671273125251
 30
0.0
 10
2118.26743943242
 20
1405.671574344813
 30
0.0
  0
SPLINE
  5
2EF
330
1F
100
AcDbEntity
  8
0
  6
Continuous
 62
     7
370
    35
100
AcDbSpline
210
0.0
220
0.0
230
1.0
 70
     8
 71
     3
 72
    10
 73
     6
 74
     0
 42
0.000000001
 43
0.00000001
 40
0.0
 40
0.0
 40
0.0
 40
0.0
 40
0.2926068144125438
 40
0.7936688105137152
 40
1.0
 40
1.0
 40
1.0
 40
1.0
 10
2182.527340123862
 20
1441.798573278522
 30
0.0
 10
2182.425541160539
 20
1441.803867721873
 30
0.0
 10
2182.149420926312
 20
1441.818228407781
 30
0.0
 10
2181.808604119845
 20
1441.915728054085
 30
0.0
 10
2181.589896002721
 20
1442.019570735404
 30
0.0
 10
2181.526103607097
 20
1442.049859384478
 30
0.0
  0
ARC
  5
2F0
330
1F
100
AcDbEntity
  8
0
  6
Continuous
 62
     7
370
    35
100
AcDbCircle
 10
2182.3112481371
 20
1412.7790091161
 30
0.0
 40
11.0
100
AcDbArc
 50
270.0
 51
0.0
  0
LINE
  5
2F1
330
1F
100
AcDbEntity
  8
0
  6
Continuous
 62
     7
370
    35
100
AcDbLine
 10
2172.8243933468
 20
1401.7790091161
 30
0.0
 11
2182.3112481371
 21
1401.7790091161
 31
0.0
  0
SPLINE
  5
2F2
330
1F
100
AcDbEntity
  8
0
  6
Continuous
 62
     7
370
    35
100
AcDbSpline
210
0.0
220
0.0
230
1.0
 70
     8
 71
     3
 72
    13
 73
     9
 74
     0
 42
0.000000001
 43
0.00000001
 40
0.0
 40
0.0
 40
0.0
 40
0.0
 40
0.0125063875808676
 40
0.1462174497845906
 40
0.2953845422382531
 40
0.4584621320331335
 40
0.7227547062549713
 40
1.0
 40
1.0
 40
1.0
 40
1.0
 10
2179.311265696111
 20
1445.184818318784
 30
0.0
 10
2179.311265358789
 20
1445.237072936615
 30
0.0
 10
2179.311261415014
 20
1445.84800370373
 30
0.0
 10
2179.311258902563
 20
1446.627476487912
 30
0.0
 10
2179.311253787754
 20
1447.422012140906
 30
0.0
 10
2179.311250185292
 20
1447.96383975393
 30
0.0
 10
2179.311248156062
 20
1448.206625105297
 30
0.0
 10
2179.311248143527
 20
1448.221429744764
 30
0.0
 10
2179.31124813711
 20
1448.229009116144
 30
0.0
  0
LINE
  5
2F3
330
1F
100
AcDbEntity
  8
0
  6
Continuous
 62
     7
370
    35
100
AcDbLine
 10
2185.8112481371
 20
1471.2254476157
 30
0.0
 11
2115.8112481371
 21
1471.2254476157
 31
0.0
  0
LWPOLYLINE
  5
2F4
330
1F
100
AcDbEntity
  8
0
  6
Continuous
 62
     7
370
    35
100
AcDbPolyline
 90
        3
 70
   128
 43
0.0
 10
2117.8112481371
 20
1456.987366105
 10
2117.8469603702
 20
1456.6111034724
 10
2117.9362481371
 20
1456.2913955596
  0
ARC
  5
2F5
330
1F
100
AcDbEntity
  8
0
  6
Continuous
 62
     7
370
    35
100
AcDbCircle
 10
2186.8112481371
 20
1460.2254476157
 30
0.0
 40
1.0
100
AcDbArc
 50
180.0
 51
270.0
  0
LWPOLYLINE
  5
2F6
330
1F
100
AcDbEntity
  8
0
  6
Continuous
 62
     7
370
    35
100
AcDbPolyline
 90
        3
 70
   128
 43
0.0
 10
2183.8112481371
 20
1456.987366105
 10
2183.775535904
 20
1456.6111034724
 10
2183.6862481371
 20
1456.2913955596
  0
ARC
  5
2F7
330
1F
100
AcDbEntity
  8
0
  6
Continuous
 62
     7
370
    35
100
AcDbCircle
 10
2114.8112481371
 20
1460.2254476157
 30
0.0
 40
1.0
100
AcDbArc
 50
270.0
 51
0.0
  0
LINE
  5
2F8
330
1F
100
AcDbEntity
  8
0
  6
Continuous
 62
     7
370
    35
100
AcDbLine
 10
2183.8112481371
 20
1456.987366105
 30
0.0
 11
2183.8112481371
 21
1458.2254476157
 31
0.0
  0
LINE
  5
2F9
330
1F
100
AcDbEntity
  8
0
  6
Continuous
 62
     7
370
    35
100
AcDbLine
 10
2117.8112481371
 20
1458.2254476157
 30
0.0
 11
2117.8112481371
 21
1456.987366105
 31
0.0
  0
LINE
  5
2FA
330
1F
100
AcDbEntity
  8
0
  6
Continuous
 62
     7
370
    35
100
AcDbLine
 10
2178.8112481371
 20
1448.9521977822
 30
0.0
 11
2178.8112481371
 21
1448.2290091163
 31
0.0
  0
LINE
  5
2FB
330
1F
100
AcDbEntity
  8
0
  6
Continuous
 62
     7
370
    35
100
AcDbLine
 10
2122.8112481371
 20
1448.9521977822
 30
0.0
 11
2122.8112481371
 21
1448.2290091163
 31
0.0
  0
LINE
  5
2FC
330
1F
100
AcDbEntity
  8
0
  6
Continuous
 62
     7
370
    35
100
AcDbLine
 10
2122.8112481371
 20
1448.2290091163
 30
0.0
 11
2124.362131236
 21
1448.2290091163
 31
0.0
  0
LINE
  5
2FD
330
1F
100
AcDbEntity
  8
0
  6
Continuous
 62
     7
370
    35
100
AcDbLine
 10
2177.2603650382
 20
1448.2290091163
 30
0.0
 11
2178.8112481371
 21
1448.2290091163
 31
0.0
  0
SPLINE
  5
2FE
330
1F
100
AcDbEntity
  8
0
  6
Continuous
 62
     7
370
    35
100
AcDbSpline
210
0.0
220
0.0
230
1.0
 70
     8
 71
     3
 72
     9
 73
     5
 74
     0
 42
0.000000001
 43
0.00000001
 40
0.0
 40
0.0
 40
0.0
 40
0.0
 40
0.1686368433531342
 40
1.0
 40
1.0
 40
1.0
 40
1.0
 10
2182.451775133211
 20
1440.875334632852
 30
0.0
 10
2182.439525868353
 20
1440.894671529607
 30
0.0
 10
2182.366888924885
 20
1441.009337437546
 30
0.0
 10
2182.358439669463
 20
1441.019561458544
 30
0.0
 10
2182.351415269804
 20
1441.028061332914
 30
0.0
  0
SPLINE
  5
2FF
330
1F
100
AcDbEntity
  8
0
  6
Continuous
 62
     7
370
    35
100
AcDbSpline
210
0.0
220
0.0
230
1.0
 70
     8
 71
     3
 72
    14
 73
    10
 74
     0
 42
0.000000001
 43
0.00000001
 40
0.0
 40
0.0
 40
0.0
 40
0.0
 40
0.0000086772972158
 40
0.0546554576672724
 40
0.1545956188497719
 40
0.2815115513695432
 40
0.4757791841528798
 40
0.7372214479202445
 40
1.0
 40
1.0
 40
1.0
 40
1.0
 10
2182.220544234184
 20
1441.108598656751
 30
0.0
 10
2182.220545256021
 20
1441.108596535918
 30
0.0
 10
2182.226981474564
 20
1441.095238100528
 30
0.0
 10
2182.261714638924
 20
1441.030836896258
 30
0.0
 10
2182.410866299201
 20
1440.774850711014
 30
0.0
 10
2182.775469371552
 20
1440.158914107363
 30
0.0
 10
2183.405832039401
 20
1439.083240061085
 30
0.0
 10
2184.217030467616
 20
1437.662424036649
 30
0.0
 10
2184.798116401569
 20
1436.603410375178
 30
0.0
 10
2185.089399989977
 20
1436.072553781579
 30
0.0
  0
SPLINE
  5
300
330
1F
100
AcDbEntity
  8
0
  6
Continuous
 62
     7
370
    35
100
AcDbSpline
210
0.0
220
0.0
230
1.0
 70
     8
 71
     3
 72
    12
 73
     8
 74
     0
 42
0.000000001
 43
0.00000001
 40
0.0
 40
0.0
 40
0.0
 40
0.0
 40
0.1720163517394601
 40
0.4559765852487094
 40
0.667992488147798
 40
0.8863162030505051
 40
1.0
 40
1.0
 40
1.0
 40
1.0
 10
2186.523184582258
 20
1433.364974162201
 30
0.0
 10
2187.005028562814
 20
1432.317271245384
 30
0.0
 10
2188.282288373607
 20
1429.540046908659
 30
0.0
 10
2189.24215385911
 20
1425.118362643423
 30
0.0
 10
2189.442669807528
 20
1420.329621203018
 30
0.0
 10
2188.984271244962
 20
1416.687470813986
 30
0.0
 10
2188.348668747181
 20
1414.556132161773
 30
0.0
 10
2188.131029980832
 20
1413.826333401447
 30
0.0
  0
SPLINE
  5
301
330
1F
100
AcDbEntity
  8
0
  6
Continuous
 62
     7
370
    35
100
AcDbSpline
210
0.0
220
0.0
230
1.0
 70
    24
 71
     3
 72
     9
 73
     5
 74
     0
 42
0.000000001
 43
0.00000001
 40
0.0
 40
0.0
 40
0.0
 40
0.0
 40
0.5076026287551308
 40
1.0
 40
1.0
 40
1.0
 40
1.0
 10
2150.81124813711
 20
1417.550247940491
 30
0.0
 10
2150.81124813711
 20
1416.022546545763
 30
0.0
 10
2150.81124813711
 20
1413.012906114083
 30
0.0
 10
2150.81124813711
 20
1410.41615379531
 30
0.0
 10
2150.81124813711
 20
1409.137519779773
 30
0.0
  0
SPLINE
  5
302
330
1F
100
AcDbEntity
  8
0
  6
Continuous
 62
     7
370
    35
100
AcDbSpline
210
0.0
220
0.0
230
1.0
 70
    24
 71
     3
 72
    13
 73
     9
 74
     0
 42
0.000000001
 43
0.00000001
 40
0.0
 40
0.0
 40
0.0
 40
0.0
 40
0.3696467405832378
 40
0.7491634169652778
 40
0.8272821692919353
 40
0.9051799160500801
 40
0.9820955461384855
 40
1.0
 40
1.0
 40
1.0
 40
1.0
 10
2179.31124813711
 20
1448.229009116144
 30
0.0
 10
2179.323079102231
 20
1448.229009116144
 30
0.0
 10
2179.347056931015
 20
1448.229009116144
 30
0.0
 10
2179.21260286955
 20
1448.229009116143
 30
0.0
 10
2179.377037108248
 20
1448.229009116144
 30
0.0
 10
2179.060751284393
 20
1448.229009116143
 30
0.0
 10
2178.269994379944
 20
1448.229009116143
 30
0.0
 10
2177.420728187989
 20
1448.229009116143
 30
0.0
 10
2177.260365037941
 20
1448.229009116143
 30
0.0
  0
SPLINE
  5
303
330
1F
100
AcDbEntity
  8
0
  6
Continuous
 62
     7
370
    35
100
AcDbSpline
210
0.0
220
0.0
230
1.0
 70
     8
 71
     3
 72
    14
 73
    10
 74
     0
 42
0.000000001
 43
0.00000001
 40
0.0
 40
0.0
 40
0.0
 40
0.0
 40
0.0000086772972158
 40
0.0546554576672731
 40
0.1545956188497738
 40
0.2815115513695358
 40
0.4757791841528876
 40
0.737221447920248
 40
1.0
 40
1.0
 40
1.0
 40
1.0
 10
2119.401952040036
 20
1441.108598656751
 30
0.0
 10
2119.401951018198
 20
1441.108596535918
 30
0.0
 10
2119.395514799656
 20
1441.095238100528
 30
0.0
 10
2119.360781635295
 20
1441.030836896258
 30
0.0
 10
2119.211629975019
 20
1440.774850711014
 30
0.0
 10
2118.847026902667
 20
1440.158914107362
 30
0.0
 10
2118.216664234818
 20
1439.083240061085
 30
0.0
 10
2117.405465806604
 20
1437.662424036648
 30
0.0
 10
2116.82437987265
 20
1436.603410375178
 30
0.0
 10
2116.533096284242
 20
1436.072553781579
 30
0.0
  0
SPLINE
  5
304
330
1F
100
AcDbEntity
  8
0
  6
Continuous
 62
     7
370
    35
100
AcDbSpline
210
0.0
220
0.0
230
1.0
 70
     8
 71
     3
 72
     9
 73
     5
 74
     0
 42
0.000000001
 43
0.00000001
 40
0.0
 40
0.0
 40
0.0
 40
0.0
 40
0.0487880016054059
 40
1.0
 40
1.0
 40
1.0
 40
1.0
 10
2119.196813187553
 20
1440.916457811624
 30
0.0
 10
2119.199801150106
 20
1440.921169355005
 30
0.0
 10
2119.261044948878
 20
1441.017741119077
 30
0.0
 10
2119.266188447148
 20
1441.023030249036
 30
0.0
 10
2119.271081004415
 20
1441.028061332913
 30
0.0
  0
LINE
  5
305
330
1F
100
AcDbEntity
  8
0
  6
Continuous
 62
     7
370
    35
100
AcDbLine
 10
2122.3112481371
 20
1444.8128853117
 30
0.0
 11
2122.3112481371
 21
1448.2290091161
 31
0.0
  0
SPLINE
  5
306
330
1F
100
AcDbEntity
  8
0
  6
Continuous
 62
     7
370
    35
100
AcDbSpline
210
0.0
220
0.0
230
1.0
 70
     8
 71
     3
 72
    12
 73
     8
 74
     0
 42
0.000000001
 43
0.00000001
 40
0.0
 40
0.0
 40
0.0
 40
0.0
 40
0.1720163517394565
 40
0.4559765852487089
 40
0.6679924881477984
 40
0.8863162030505046
 40
1.0
 40
1.0
 40
1.0
 40
1.0
 10
2115.099311691961
 20
1433.364974162201
 30
0.0
 10
2114.617467711406
 20
1432.317271245384
 30
0.0
 10
2113.340207900613
 20
1429.540046908659
 30
0.0
 10
2112.380342415109
 20
1425.118362643423
 30
0.0
 10
2112.179826466692
 20
1420.329621203018
 30
0.0
 10
2112.638225029258
 20
1416.687470813986
 30
0.0
 10
2113.273827527039
 20
1414.556132161773
 30
0.0
 10
2113.491466293388
 20
1413.826333401447
 30
0.0
  0
SPLINE
  5
307
330
1F
100
AcDbEntity
  8
0
  6
Continuous
 62
     7
370
    35
100
AcDbSpline
210
0.0
220
0.0
230
1.0
 70
    24
 71
     3
 72
    13
 73
     9
 74
     0
 42
0.000000001
 43
0.00000001
 40
0.0
 40
0.0
 40
0.0
 40
0.0
 40
0.3696467405832349
 40
0.7491634169652718
 40
0.8272821692919288
 40
0.9051799160500729
 40
0.9820955461384777
 40
1.0
 40
1.0
 40
1.0
 40
1.0
 10
2122.31124813711
 20
1448.229009116143
 30
0.0
 10
2122.299417171989
 20
1448.229009116143
 30
0.0
 10
2122.275439343205
 20
1448.229009116143
 30
0.0
 10
2122.409893404669
 20
1448.229009116143
 30
0.0
 10
2122.245459165972
 20
1448.229009116143
 30
0.0
 10
2122.561744989826
 20
1448.229009116143
 30
0.0
 10
2123.352501894276
 20
1448.229009116143
 30
0.0
 10
2124.201768086231
 20
1448.229009116143
 30
0.0
 10
2124.362131236279
 20
1448.229009116143
 30
0.0
  0
SPLINE
  5
308
330
1F
100
AcDbEntity
  8
0
  6
Continuous
 62
     7
370
    35
100
AcDbSpline
210
0.0
220
0.0
230
1.0
 70
    24
 71
     3
 72
    12
 73
     8
 74
     0
 42
0.000000001
 43
0.00000001
 40
0.0
 40
0.0
 40
0.0
 40
0.0
 40
0.1408006786044993
 40
0.3784804122976904
 40
0.6230118132640773
 40
0.8098917120669654
 40
1.0
 40
1.0
 40
1.0
 40
1.0
 10
2150.81124813711
 20
1405.325447615694
 30
0.0
 10
2150.81124813711
 20
1405.003707761155
 30
0.0
 10
2150.81124813711
 20
1404.138852321497
 30
0.0
 10
2150.81124813711
 20
1403.098331025403
 30
0.0
 10
2150.81124813711
 20
1402.293322150626
 30
0.0
 10
2150.81124813711
 20
1401.854899516095
 30
0.0
 10
2150.81124813711
 20
1401.804449926746
 30
0.0
 10
2150.81124813711
 20
1401.779009116143
 30
0.0
  0
SPLINE
  5
309
330
1F
100
AcDbEntity
  8
0
  6
Continuous
 62
     7
370
    35
100
AcDbSpline
210
0.0
220
0.0
230
1.0
 70
    24
 71
     3
 72
    17
 73
    13
 74
     0
 42
0.000000001
 43
0.00000001
 40
0.0
 40
0.0
 40
0.0
 40
0.0
 40
0.0569795784918691
 40
0.1353024541387415
 40
0.2160128774647631
 40
0.2868547793927143
 40
0.3593481415837832
 40
0.4253072501105546
 40
0.492857949599709
 40
0.556594223632604
 40
0.6223126637270892
 40
1.0
 40
1.0
 40
1.0
 40
1.0
 10
2150.81124813711
 20
1401.779009116143
 30
0.0
 10
2149.760867704741
 20
1401.779009116143
 30
0.0
 10
2147.266657427297
 20
1401.779009116143
 30
0.0
 10
2143.447792419022
 20
1401.779009116143
 30
0.0
 10
2139.680426246614
 20
1401.779009116143
 30
0.0
 10
2136.385385074551
 20
1401.779009116143
 30
0.0
 10
2133.704865924076
 20
1401.779009116143
 30
0.0
 10
2131.514598660953
 20
1401.779009116143
 30
0.0
 10
2129.92069697507
 20
1401.779009116143
 30
0.0
 10
2128.868603740462
 20
1401.779009116143
 30
0.0
 10
2128.213294333331
 20
1401.779009116143
 30
0.0
 10
2128.272717436819
 20
1401.779009116143
 30
0.0
 10
2128.323333271942
 20
1401.779009116143
 30
0.0
  0
SPLINE
  5
30A
330
1F
100
AcDbEntity
  8
0
  6
Continuous
 62
     7
370
    35
100
AcDbSpline
210
0.0
220
0.0
230
1.0
 70
    24
 71
     3
 72
    17
 73
    13
 74
     0
 42
0.000000001
 43
0.00000001
 40
0.0
 40
0.0
 40
0.0
 40
0.0
 40
0.0569845589005247
 40
0.1364939970869584
 40
0.2160235345599394
 40
0.2876998720940897
 40
0.3593687415705766
 40
0.4261501537101939
 40
0.4928872867049882
 40
0.5575313349414198
 40
0.6222797705528385
 40
1.0
 40
1.0
 40
1.0
 40
1.0
 10
2150.81124813711
 20
1401.779009116143
 30
0.0
 10
2151.861703084013
 20
1401.779009116143
 30
0.0
 10
2154.377837230332
 20
1401.779009116143
 30
0.0
 10
2158.193386821841
 20
1401.779009116143
 30
0.0
 10
2161.973941937146
 20
1401.779009116143
 30
0.0
 10
2165.247139258003
 20
1401.779009116143
 30
0.0
 10
2167.938522650003
 20
1401.779009116143
 30
0.0
 10
2170.111069684619
 20
1401.779009116143
 30
0.0
 10
2171.724665299167
 20
1401.779009116143
 30
0.0
 10
2172.718096920244
 20
1401.779009116143
 30
0.0
 10
2173.476613088604
 20
1401.779009116143
 30
0.0
 10
2173.37781809889
 20
1401.779009116143
 30
0.0
 10
2173.293480225658
 20
1401.779009116143
 30
0.0
  0
SPLINE
  5
30B
330
1F
100
AcDbEntity
  8
0
  6
Continuous
 62
     7
370
    35
100
AcDbSpline
210
0.0
220
0.0
230
1.0
 70
     8
 71
     3
 72
    13
 73
     9
 74
     0
 42
0.000000001
 43
0.00000001
 40
0.0
 40
0.0
 40
0.0
 40
0.0
 40
0.2029467742027871
 40
0.4117773519856949
 40
0.6147258594307158
 40
0.823567233412778
 40
0.9115535143092927
 40
1.0
 40
1.0
 40
1.0
 40
1.0
 10
2189.39548995931
 20
1413.408204891053
 30
0.0
 10
2189.798553251151
 20
1414.790859639721
 30
0.0
 10
2190.616365387605
 20
1417.596254863931
 30
0.0
 10
2190.925779543754
 20
1421.969654879779
 30
0.0
 10
2190.547319042184
 20
1426.363196613333
 30
0.0
 10
2189.634196134075
 20
1429.802149770524
 30
0.0
 10
2188.633529417272
 20
1432.34270452735
 30
0.0
 10
2188.071649182941
 20
1433.459105877762
 30
0.0
 10
2187.78997626545
 20
1434.018762555909
 30
0.0
  0
SPLINE
  5
30C
330
1F
100
AcDbEntity
  8
0
  6
Continuous
 62
     7
370
    35
100
AcDbSpline
210
0.0
220
0.0
230
1.0
 70
     8
 71
     3
 72
    13
 73
     9
 74
     0
 42
0.000000001
 43
0.00000001
 40
0.0
 40
0.0
 40
0.0
 40
0.0
 40
0.2029467742027854
 40
0.4117773519856935
 40
0.6147258594307146
 40
0.8235672334127745
 40
0.9115535143092929
 40
1.0
 40
1.0
 40
1.0
 40
1.0
 10
2112.22700631491
 20
1413.408204891053
 30
0.0
 10
2111.823943023069
 20
1414.790859639721
 30
0.0
 10
2111.006130886615
 20
1417.596254863931
 30
0.0
 10
2110.696716730466
 20
1421.969654879779
 30
0.0
 10
2111.075177232036
 20
1426.363196613332
 30
0.0
 10
2111.988300140144
 20
1429.802149770524
 30
0.0
 10
2112.988966856947
 20
1432.342704527349
 30
0.0
 10
2113.550847091279
 20
1433.459105877762
 30
0.0
 10
2113.83252000877
 20
1434.018762555908
 30
0.0
  0
SPLINE
  5
30D
330
1F
100
AcDbEntity
  8
0
  6
Continuous
 62
     7
370
    35
100
AcDbSpline
210
0.0
220
0.0
230
1.0
 70
     8
 71
     3
 72
    12
 73
     8
 74
     0
 42
0.000000001
 43
0.00000001
 40
0.0
 40
0.0
 40
0.0
 40
0.0
 40
0.0542100646910234
 40
0.3612059465304399
 40
0.5267652948496007
 40
0.7633787062243826
 40
1.0
 40
1.0
 40
1.0
 40
1.0
 10
2118.489055669088
 20
1405.555387710788
 30
0.0
 10
2118.335773918457
 20
1405.653151009151
 30
0.0
 10
2117.31444549655
 20
1406.304555594672
 30
0.0
 10
2115.929850346016
 20
1407.467659467564
 30
0.0
 10
2114.34505421881
 20
1409.303507405219
 30
0.0
 10
2113.130934981433
 20
1411.142583018623
 30
0.0
 10
2112.528319216227
 20
1412.652989214251
 30
0.0
 10
2112.22700631491
 20
1413.408204891053
 30
0.0
  0
SPLINE
  5
30E
330
1F
100
AcDbEntity
  8
0
  6
Continuous
 62
     7
370
    35
100
AcDbSpline
210
0.0
220
0.0
230
1.0
 70
     8
 71
     3
 72
    12
 73
     8
 74
     0
 42
0.000000001
 43
0.00000001
 40
0.0
 40
0.0
 40
0.0
 40
0.0
 40
0.0542100646910336
 40
0.3612059465304551
 40
0.5267652948496019
 40
0.7633787062243836
 40
1.0
 40
1.0
 40
1.0
 40
1.0
 10
2183.133440605132
 20
1405.555387710788
 30
0.0
 10
2183.286722355763
 20
1405.653151009151
 30
0.0
 10
2184.30805077767
 20
1406.304555594672
 30
0.0
 10
2185.692645928204
 20
1407.467659467564
 30
0.0
 10
2187.27744205541
 20
1409.303507405219
 30
0.0
 10
2188.491561292787
 20
1411.142583018623
 30
0.0
 10
2189.094177057993
 20
1412.652989214251
 30
0.0
 10
2189.39548995931
 20
1413.408204891053
 30
0.0
  0
SPLINE
  5
30F
330
1F
100
AcDbEntity
  8
0
  6
Continuous
 62
     7
370
    35
100
AcDbSpline
210
0.0
220
0.0
230
1.0
 70
     8
 71
     3
 72
    11
 73
     7
 74
     0
 42
0.000000001
 43
0.00000001
 40
0.0
 40
0.0
 40
0.0
 40
0.0
 40
0.3166502316689839
 40
0.6422005680136252
 40
0.8852711377571084
 40
1.0
 40
1.0
 40
1.0
 40
1.0
 10
2115.310414895584
 20
1436.740290622281
 30
0.0
 10
2115.57643865287
 20
1437.172702991345
 30
0.0
 10
2116.115963311147
 20
1438.04968156662
 30
0.0
 10
2117.081218879764
 20
1439.089564270725
 30
0.0
 10
2117.907539309712
 20
1439.790156788405
 30
0.0
 10
2118.371058979144
 20
1440.108674854089
 30
0.0
 10
2118.51968717569
 20
1440.210808094148
 30
0.0
  0
SPLINE
  5
310
330
1F
100
AcDbEntity
  8
0
  6
Continuous
 62
     7
370
    35
100
AcDbSpline
210
0.0
220
0.0
230
1.0
 70
     8
 71
     3
 72
    11
 73
     7
 74
     0
 42
0.000000001
 43
0.00000001
 40
0.0
 40
0.0
 40
0.0
 40
0.0
 40
0.3166351430858569
 40
0.6421699667518281
 40
0.820357960877488
 40
1.0
 40
1.0
 40
1.0
 40
1.0
 10
2186.312081378635
 20
1436.740290622281
 30
0.0
 10
2186.046116024543
 20
1437.172732918384
 30
0.0
 10
2185.506709814195
 20
1438.049772188897
 30
0.0
 10
2184.611420384904
 20
1439.013056403634
 30
0.0
 10
2183.796043027334
 20
1439.72623537598
 30
0.0
 10
2183.334512219419
 20
1440.048846876683
 30
0.0
 10
2183.10280909853
 20
1440.210808094148
 30
0.0
  0
LINE
  5
311
330
1F
100
AcDbEntity
  8
0
  6
Continuous
 62
     7
370
    35
100
AcDbLine
 10
2187.7899762654
 20
1434.0187625559
 30
0.0
 11
2186.3120813786
 21
1436.7402906223
 31
0.0
  0
LINE
  5
312
330
1F
100
AcDbEntity
  8
0
  6
Continuous
 62
     7
370
    35
100
AcDbLine
 10
2113.8325200088
 20
1434.0187625559
 30
0.0
 11
2115.3104148956
 21
1436.7402906223
 31
0.0
  0
LINE
  5
313
330
1F
100
AcDbEntity
  8
0
  6
Continuous
 62
     7
370
    35
100
AcDbLine
 10
2183.1028090985
 20
1440.2108080941
 30
0.0
 11
2183.2036042993
 21
1440.1430340679
 31
0.0
  0
ARC
  5
314
330
1F
100
AcDbEntity
  8
0
  6
Continuous
 62
     7
370
    35
100
AcDbCircle
 10
2116.7301841921
 20
1442.6218761695
 30
0.0
 40
2.999398629784071
100
AcDbArc
 50
304.2645941137
 51
312.8939998012
  0
LINE
  5
315
330
1F
100
AcDbEntity
  8
0
  6
Continuous
 62
     7
370
    35
100
AcDbLine
 10
2118.5196871757
 20
1440.2108080941
 30
0.0
 11
2118.4188919749
 21
1440.1430340679
 31
0.0
  0
SPLINE
  5
316
330
1F
100
AcDbEntity
  8
0
  6
Continuous
 62
     7
370
    35
100
AcDbSpline
210
0.0
220
0.0
230
1.0
 70
     8
 71
     3
 72
     9
 73
     5
 74
     0
 42
0.000000001
 43
0.00000001
 40
0.0
 40
0.0
 40
0.0
 40
0.0
 40
0.6590643911420175
 40
1.0
 40
1.0
 40
1.0
 40
1.0
 10
2182.642923708511
 20
1441.780373329758
 30
0.0
 10
2182.327447988499
 20
1441.806367557028
 30
0.0
 10
2181.848775912975
 20
1441.845808661145
 30
0.0
 10
2181.448100080985
 20
1442.099986717124
 30
0.0
 10
2181.311495422251
 20
1442.186645067398
 30
0.0
  0
ARC
  5
317
330
1F
100
AcDbEntity
  8
0
  6
Continuous
 62
     7
370
    35
100
AcDbCircle
 10
2182.3112411559
 20
1430.7853680878
 30
0.0
 40
11.00000698123947
100
AcDbArc
 50
0.0000092142
 51
88.2721018854
  0
SPLINE
  5
318
330
1F
100
AcDbEntity
  8
0
  6
Continuous
 62
     7
370
    35
100
AcDbSpline
210
0.0
220
0.0
230
1.0
 70
    24
 71
     3
 72
    19
 73
    15
 74
     0
 42
0.000000001
 43
0.00000001
 40
0.0
 40
0.0
 40
0.0
 40
0.0
 40
0.0003400432997567
 40
0.1018635778277048
 40
0.2035434036526503
 40
0.3480218784455771
 40
0.4928620408160624
 40
0.5714933381061476
 40
0.6496296261320141
 40
0.7087399627822193
 40
0.768323858429566
 40
0.8224306267254519
 40
0.892610163227093
 40
1.0
 40
1.0
 40
1.0
 40
1.0
 10
2193.31124813711
 20
1430.785369856766
 30
0.0
 10
2193.31124813711
 20
1430.785372066618
 30
0.0
 10
2193.31124813711
 20
1430.786034051207
 30
0.0
 10
2193.31124813711
 20
1430.616597098392
 30
0.0
 10
2193.31124813711
 20
1429.83113822618
 30
0.0
 10
2193.31124813711
 20
1428.430981444216
 30
0.0
 10
2193.31124813711
 20
1426.765239606223
 30
0.0
 10
2193.31124813711
 20
1425.27538927007
 30
0.0
 10
2193.31124813711
 20
1424.027299550763
 30
0.0
 10
2193.31124813711
 20
1422.691548711846
 30
0.0
 10
2193.31124813711
 20
1421.378777852399
 30
0.0
 10
2193.31124813711
 20
1420.002837480384
 30
0.0
 10
2193.31124813711
 20
1418.588753005217
 30
0.0
 10
2193.31124813711
 20
1417.759618379878
 30
0.0
 10
2193.31124813711
 20
1417.258176997077
 30
0.0
  0
SPLINE
  5
319
330
1F
100
AcDbEntity
  8
0
  6
Continuous
 62
     7
370
    35
100
AcDbSpline
210
0.0
220
0.0
230
1.0
 70
    24
 71
     3
 72
     9
 73
     5
 74
     0
 42
0.000000001
 43
0.00000001
 40
0.0
 40
0.0
 40
0.0
 40
0.0
 40
0.4979466281839556
 40
1.0
 40
1.0
 40
1.0
 40
1.0
 10
2193.31124813711
 20
1417.258176997077
 30
0.0
 10
2193.31124813711
 20
1416.627409501519
 30
0.0
 10
2193.31124813711
 20
1415.360672345657
 30
0.0
 10
2193.31124813711
 20
1414.306528444591
 30
0.0
 10
2193.31124813711
 20
1413.777291944682
 30
0.0
  0
LINE
  5
31A
330
1F
100
AcDbEntity
  8
0
  6
Continuous
 62
     7
370
    35
100
AcDbLine
 10
2193.3112481371
 20
1413.7772919447
 30
0.0
 11
2193.3112481371
 21
1412.7790091161
 31
0.0
  0
LINE
  5
31B
330
1F
100
AcDbEntity
  8
0
  6
Continuous
 62
     7
370
    35
100
AcDbLine
 10
2085.3112481371
 20
1458.2254476157
 30
0.0
 11
2085.3112481371
 21
1459.2254476157
 31
0.0
  0
LINE
  5
31C
330
1F
100
AcDbEntity
  8
0
  6
Continuous
 62
     7
370
    35
100
AcDbLine
 10
2085.3112481371
 20
1459.2254476157
 30
0.0
 11
2095.3112481371
 21
1459.2254476157
 31
0.0
  0
LINE
  5
31D
330
1F
100
AcDbEntity
  8
0
  6
Continuous
 62
     7
370
    35
100
AcDbLine
 10
2095.3112481371
 20
1458.2254476157
 30
0.0
 11
2085.3112481371
 21
1458.2254476157
 31
0.0
  0
LINE
  5
31E
330
1F
100
AcDbEntity
  8
0
  6
Continuous
 62
     7
370
    35
100
AcDbLine
 10
2216.3112481371
 20
1459.2254476157
 30
0.0
 11
2216.3112481371
 21
1458.2254476157
 31
0.0
  0
LINE
  5
31F
330
1F
100
AcDbEntity
  8
0
  6
Continuous
 62
     7
370
    35
100
AcDbLine
 10
2206.3112481371
 20
1459.2254476157
 30
0.0
 11
2216.3112481371
 21
1459.2254476157
 31
0.0
  0
LINE
  5
320
330
1F
100
AcDbEntity
  8
0
  6
Continuous
 62
     7
370
    35
100
AcDbLine
 10
2216.3112481371
 20
1458.2254476157
 30
0.0
 11
2206.3112481371
 21
1458.2254476157
 31
0.0
  0
LINE
  5
321
330
1F
100
AcDbEntity
  8
0
  6
Continuous
 62
     7
370
    35
100
AcDbLine
 10
2206.3112481371
 20
1459.2254476157
 30
0.0
 11
2095.3112481371
 21
1459.2254476157
 31
0.0
  0
LINE
  5
322
330
1F
100
AcDbEntity
  8
0
  6
Continuous
 62
     7
370
    35
100
AcDbLine
 10
2206.3112481371
 20
1458.2254476157
 30
0.0
 11
2095.3112481371
 21
1458.2254476157
 31
0.0
  0
LINE
  5
323
330
1F
100
AcDbEntity
  8
0
  6
Continuous
 62
     7
370
    35
100
AcDbLine
 10
2164.8112481371
 20
1435.3254476157
 30
0.0
 11
2164.8112481371
 21
1425.3254476157
 31
0.0
  0
ARC
  5
324
330
1F
100
AcDbEntity
  8
0
  6
Continuous
 62
     7
370
    35
100
AcDbCircle
 10
2158.3112481371
 20
1435.3254476157
 30
0.0
 40
6.5
100
AcDbArc
 50
0.0
 51
180.0
  0
ARC
  5
325
330
1F
100
AcDbEntity
  8
0
  6
Continuous
 62
     7
370
    35
100
AcDbCircle
 10
2133.8112481371
 20
1441.6160577046
 30
0.0
 40
2.000000000000137
100
AcDbArc
 50
0.0
 51
65.0
  0
ARC
  5
326
330
1F
100
AcDbEntity
  8
0
  6
Continuous
 62
     7
370
    35
100
AcDbCircle
 10
2119.9362481371
 20
1452.4995881373
 30
0.0
 40
2.000000000000329
100
AcDbArc
 50
180.0
 51
245.0
  0
LINE
  5
327
330
1F
100
AcDbEntity
  8
0
  6
Continuous
 62
     7
370
    35
100
AcDbLine
 10
2115.8112481371
 20
1470.2254476157
 30
0.0
 11
2115.8112481371
 21
1459.2254476157
 31
0.0
  0
LINE
  5
328
330
1F
100
AcDbEntity
  8
0
  6
Continuous
 62
     7
370
    35
100
AcDbLine
 10
2185.8112481371
 20
1459.2254476157
 30
0.0
 11
2185.8112481371
 21
1470.2254476157
 31
0.0
  0
CIRCLE
  5
329
330
1F
100
AcDbEntity
  8
0
  6
Continuous
 62
     7
370
    35
100
AcDbCircle
 10
2150.8112481371
 20
1413.3254476157
 30
0.0
 40
4.249999999999545
  0
LINE
  5
32A
330
1F
100
AcDbEntity
  8
0
  6
Continuous
 62
     7
370
    35
100
AcDbLine
 10
2136.8112481371
 20
1435.3254476157
 30
0.0
 11
2136.8112481371
 21
1425.3254476157
 31
0.0
  0
ARC
  5
32B
330
1F
100
AcDbEntity
  8
0
  6
Continuous
 62
     7
370
    35
100
AcDbCircle
 10
2143.3112481371
 20
1425.3254476157
 30
0.0
 40
6.500000000000455
100
AcDbArc
 50
180.0
 51
0.0
  0
LINE
  5
32C
330
1F
100
AcDbEntity
  8
0
  6
Continuous
 62
     7
370
    35
100
AcDbLine
 10
2149.8112481371
 20
1425.3254476157
 30
0.0
 11
2149.8112481371
 21
1435.3254476157
 31
0.0
  0
ARC
  5
32D
330
1F
100
AcDbEntity
  8
0
  6
Continuous
 62
     7
370
    35
100
AcDbCircle
 10
2143.3112481371
 20
1435.3254476157
 30
0.0
 40
6.5
100
AcDbArc
 50
0.0
 51
180.0
  0
ARC
  5
32E
330
1F
100
AcDbEntity
  8
0
  6
Continuous
 62
     7
370
    35
100
AcDbCircle
 10
2163.8112481371
 20
1407.3254476157
 30
0.0
 40
2.000000000000227
100
AcDbArc
 50
270.0
 51
0.0
  0
ARC
  5
32F
330
1F
100
AcDbEntity
  8
0
  6
Continuous
 62
     7
370
    35
100
AcDbCircle
 10
2167.8112481371
 20
1441.6160577046
 30
0.0
 40
2.0
100
AcDbArc
 50
115.0
 51
180.0
  0
ARC
  5
330
330
1F
100
AcDbEntity
  8
0
  6
Continuous
 62
     7
370
    35
100
AcDbCircle
 10
2181.6862481371
 20
1452.4995881373
 30
0.0
 40
1.999999999999532
100
AcDbArc
 50
295.0
 51
0.0
  0
LINE
  5
331
330
1F
100
AcDbEntity
  8
0
  6
Continuous
 62
     7
370
    35
100
AcDbLine
 10
2137.8112481371
 20
1405.3254476157
 30
0.0
 11
2163.8112481371
 21
1405.3254476157
 31
0.0
  0
ARC
  5
332
330
1F
100
AcDbEntity
  8
0
  6
Continuous
 62
     7
370
    35
100
AcDbCircle
 10
2158.3112481371
 20
1425.3254476157
 30
0.0
 40
6.500000000000455
100
AcDbArc
 50
180.0
 51
0.0
  0
LINE
  5
333
330
1F
100
AcDbEntity
  8
0
  6
Continuous
 62
     7
370
    35
100
AcDbLine
 10
2119.0910116136
 20
1450.6869725632
 30
0.0
 11
2134.6564846606
 21
1443.4286732786
 31
0.0
  0
LINE
  5
334
330
1F
100
AcDbEntity
  8
0
  6
Continuous
 62
     7
370
    35
100
AcDbLine
 10
2117.9362481371
 20
1458.2254476157
 30
0.0
 11
2117.9362481371
 21
1452.4995881373
 31
0.0
  0
LINE
  5
335
330
1F
100
AcDbEntity
  8
0
  6
Continuous
 62
     7
370
    35
100
AcDbLine
 10
2183.6862481371
 20
1452.4995881373
 30
0.0
 11
2183.6862481371
 21
1458.2254476157
 31
0.0
  0
LINE
  5
336
330
1F
100
AcDbEntity
  8
0
  6
Continuous
 62
     7
370
    35
100
AcDbLine
 10
2166.9660116136
 20
1443.4286732786
 30
0.0
 11
2182.5314846606
 21
1450.6869725632
 31
0.0
  0
LINE
  5
337
330
1F
100
AcDbEntity
  8
0
  6
Continuous
 62
     7
370
    35
100
AcDbLine
 10
2165.8112481371
 20
1407.3254476157
 30
0.0
 11
2165.8112481371
 21
1441.6160577046
 31
0.0
  0
ARC
  5
338
330
1F
100
AcDbEntity
  8
0
  6
Continuous
 62
     7
370
    35
100
AcDbCircle
 10
2137.8112481371
 20
1407.3254476157
 30
0.0
 40
2.000000000000227
100
AcDbArc
 50
180.0
 51
270.0
  0
LINE
  5
339
330
1F
100
AcDbEntity
  8
0
  6
Continuous
 62
     7
370
    35
100
AcDbLine
 10
2135.8112481371
 20
1441.6160577046
 30
0.0
 11
2135.8112481371
 21
1407.3254476157
 31
0.0
  0
LINE
  5
33A
330
1F
100
AcDbEntity
  8
0
  6
Continuous
 62
     7
370
    35
100
AcDbLine
 10
2151.8112481371
 20
1425.3254476157
 30
0.0
 11
2151.8112481371
 21
1435.3254476157
 31
0.0
  0
LINE
  5
33B
330
1F
100
AcDbEntity
  8
0
  6
Continuous
 62
     7
370
    35
100
AcDbLine
 10
2115.8112481371
 20
1470.2254476157
 30
0.0
 11
2115.8112481371
 21
1471.2254476157
 31
0.0
  0
LINE
  5
33C
330
1F
100
AcDbEntity
  8
0
  6
Continuous
 62
     7
370
    35
100
AcDbLine
 10
2185.8112481371
 20
1471.2254476157
 30
0.0
 11
2185.8112481371
 21
1470.2254476157
 31
0.0
  0
LINE
  5
33D
330
1F
100
AcDbEntity
  8
0
  6
Continuous
 62
     8
370
    18
100
AcDbLine
 10
2117.8112481371
 20
1456.987366105
 30
0.0
 11
2117.9362481371
 21
1456.987366105
 31
0.0
  0
LINE
  5
33E
330
1F
100
AcDbEntity
  8
0
  6
Continuous
 62
     8
370
    18
100
AcDbLine
 10
2183.6862481371
 20
1456.987366105
 30
0.0
 11
2183.8112481371
 21
1456.987366105
 31
0.0
  0
SPLINE
  5
33F
330
1F
100
AcDbEntity
  8
0
  6
Continuous
 62
     8
370
    18
100
AcDbSpline
210
0.0
220
0.0
230
1.0
 70
     8
 71
     3
 72
    11
 73
     7
 74
     0
 42
0.000000001
 43
0.00000001
 40
0.0
 40
0.0
 40
0.0
 40
0.0
 40
0.2499912677933776
 40
0.499986756231606
 40
0.749992678491824
 40
0.9999999999999999
 40
0.9999999999999999
 40
0.9999999999999999
 40
0.9999999999999999
 10
2182.351415269804
 20
1441.028061332914
 30
0.0
 10
2182.343657640776
 20
1441.033559187842
 30
0.0
 10
2182.328142251745
 20
1441.044554990517
 30
0.0
 10
2182.297449068533
 20
1441.06591198025
 30
0.0
 10
2182.2602837869
 20
1441.09278489983
 30
0.0
 10
2182.232974387705
 20
1441.10973483057
 30
0.0
 10
2182.219319649896
 20
1441.118209819656
 30
0.0
  0
SPLINE
  5
340
330
1F
100
AcDbEntity
  8
0
  6
Continuous
 62
     8
370
    18
100
AcDbSpline
210
0.0
220
0.0
230
1.0
 70
     8
 71
     3
 72
    10
 73
     6
 74
     0
 42
0.000000001
 43
0.00000001
 40
0.0
 40
0.0
 40
0.0
 40
0.0
 40
0.4993573099105828
 40
0.9998128115878191
 40
0.9999999999999999
 40
0.9999999999999999
 40
0.9999999999999999
 40
0.9999999999999999
 10
2182.219319649896
 20
1441.118209819656
 30
0.0
 10
2182.218578814077
 20
1441.118133199556
 30
0.0
 10
2182.217095513188
 20
1441.117979790852
 30
0.0
 10
2182.219003417809
 20
1441.112365049334
 30
0.0
 10
2182.220543658294
 20
1441.108600064465
 30
0.0
 10
2182.220544234184
 20
1441.108598656751
 30
0.0
  0
SPLINE
  5
341
330
1F
100
AcDbEntity
  8
0
  6
Continuous
 62
     8
370
    18
100
AcDbSpline
210
0.0
220
0.0
230
1.0
 70
     8
 71
     3
 72
    10
 73
     6
 74
     0
 42
0.000000001
 43
0.00000001
 40
0.0
 40
0.0
 40
0.0
 40
0.0
 40
0.4999712442950857
 40
0.7499826264318712
 40
0.9999999999999999
 40
0.9999999999999999
 40
0.9999999999999999
 40
0.9999999999999999
 10
2185.089399989977
 20
1436.072553781579
 30
0.0
 10
2185.331736513321
 20
1435.623111824833
 30
0.0
 10
2185.695253784227
 20
1434.948925733143
 30
0.0
 10
2186.170487258883
 20
1434.044949670296
 30
0.0
 10
2186.405617868675
 20
1433.591634475466
 30
0.0
 10
2186.523184582258
 20
1433.364974162201
 30
0.0
  0
SPLINE
  5
342
330
1F
100
AcDbEntity
  8
0
  6
Continuous
 62
     8
370
    18
100
AcDbSpline
210
0.0
220
0.0
230
1.0
 70
     8
 71
     3
 72
    11
 73
     7
 74
     0
 42
0.000000001
 43
0.00000001
 40
0.0
 40
0.0
 40
0.0
 40
0.0
 40
0.2471593440128834
 40
0.4953474341907667
 40
0.7469783905689352
 40
1.0
 40
1.0
 40
1.0
 40
1.0
 10
2188.131029980832
 20
1413.826333401447
 30
0.0
 10
2187.978294507539
 20
1413.388919435416
 30
0.0
 10
2187.67218783329
 20
1412.512270864359
 30
0.0
 10
2187.111642965934
 20
1411.230208656547
 30
0.0
 10
2186.480732454616
 20
1409.970732903523
 30
0.0
 10
2185.996653280651
 20
1409.168022803014
 30
0.0
 10
2185.753946713822
 20
1408.765561752981
 30
0.0
  0
SPLINE
  5
343
330
1F
100
AcDbEntity
  8
0
  6
Continuous
 62
     8
370
    18
100
AcDbSpline
210
0.0
220
0.0
230
1.0
 70
     8
 71
     3
 72
    15
 73
    11
 74
     0
 42
0.000000001
 43
0.00000001
 40
0.0
 40
0.0
 40
0.0
 40
0.0
 40
0.0726415246631796
 40
0.2114867271185354
 40
0.3505587984458996
 40
0.4893756744012155
 40
0.6282357890834526
 40
0.7719640009808394
 40
0.9157054947821136
 40
1.0
 40
1.0
 40
1.0
 40
1.0
 10
2185.753946713822
 20
1408.765561752981
 30
0.0
 10
2185.736404801939
 20
1408.770984078558
 30
0.0
 10
2185.685333716238
 20
1408.786770502302
 30
0.0
 10
2185.129763001053
 20
1408.663175059057
 30
0.0
 10
2183.424741558172
 20
1408.397367504296
 30
0.0
 10
2180.906702581739
 20
1408.312166619013
 30
0.0
 10
2177.605129239837
 20
1408.210925817333
 30
0.0
 10
2173.558511420545
 20
1408.126733685147
 30
0.0
 10
2169.601413720416
 20
1408.060100990624
 30
0.0
 10
2166.834171380932
 20
1408.033814880743
 30
0.0
 10
2165.81124813711
 20
1408.024098105163
 30
0.0
  0
LINE
  5
344
330
1F
100
AcDbEntity
  8
0
  6
Continuous
 62
     8
370
    18
100
AcDbLine
 10
2116.5330962842
 20
1436.0725537816
 30
0.0
 11
2115.099311692
 21
1433.3649741622
 31
0.0
  0
SPLINE
  5
345
330
1F
100
AcDbEntity
  8
0
  6
Continuous
 62
     8
370
    18
100
AcDbSpline
210
0.0
220
0.0
230
1.0
 70
     8
 71
     3
 72
     9
 73
     5
 74
     0
 42
0.000000001
 43
0.00000001
 40
0.0
 40
0.0
 40
0.0
 40
0.0
 40
0.9998127596651308
 40
0.9999999999999999
 40
0.9999999999999999
 40
0.9999999999999999
 40
0.9999999999999999
 10
2119.403176624324
 20
1441.118209819656
 30
0.0
 10
2119.404102422185
 20
1441.117164232191
 30
0.0
 10
2119.405028393424
 20
1441.116118448913
 30
0.0
 10
2119.401952615945
 20
1441.108600064496
 30
0.0
 10
2119.401952040036
 20
1441.108598656751
 30
0.0
  0
SPLINE
  5
346
330
1F
100
AcDbEntity
  8
0
  6
Continuous
 62
     8
370
    18
100
AcDbSpline
210
0.0
220
0.0
230
1.0
 70
     8
 71
     3
 72
     9
 73
     5
 74
     0
 42
0.000000001
 43
0.00000001
 40
0.0
 40
0.0
 40
0.0
 40
0.0
 40
0.4999863548673911
 40
1.0
 40
1.0
 40
1.0
 40
1.0
 10
2119.271081004415
 20
1441.028061332913
 30
0.0
 10
2119.287595583234
 20
1441.039933995971
 30
0.0
 10
2119.320625642271
 20
1441.063679970119
 30
0.0
 10
2119.37565912968
 20
1441.10003287245
 30
0.0
 10
2119.403176624324
 20
1441.118209819656
 30
0.0
  0
SPLINE
  5
347
330
1F
100
AcDbEntity
  8
0
  6
Continuous
 62
     8
370
    18
100
AcDbSpline
210
0.0
220
0.0
230
1.0
 70
     8
 71
     3
 72
    15
 73
    11
 74
     0
 42
0.000000001
 43
0.00000001
 40
0.0
 40
0.0
 40
0.0
 40
0.0
 40
0.0726415246631715
 40
0.2114867271185276
 40
0.3505587984458925
 40
0.4893756744012089
 40
0.6282357890834468
 40
0.7719640009808327
 40
0.9157054947821059
 40
1.0
 40
1.0
 40
1.0
 40
1.0
 10
2115.868549560398
 20
1408.765561752981
 30
0.0
 10
2115.886091472281
 20
1408.770984078558
 30
0.0
 10
2115.937162557982
 20
1408.786770502302
 30
0.0
 10
2116.492733273168
 20
1408.663175059057
 30
0.0
 10
2118.197754716048
 20
1408.397367504296
 30
0.0
 10
2120.715793692482
 20
1408.312166619013
 30
0.0
 10
2124.017367034382
 20
1408.210925817332
 30
0.0
 10
2128.063984853676
 20
1408.126733685147
 30
0.0
 10
2132.021082553804
 20
1408.060100990623
 30
0.0
 10
2134.788324893289
 20
1408.033814880743
 30
0.0
 10
2135.81124813711
 20
1408.024098105163
 30
0.0
  0
SPLINE
  5
348
330
1F
100
AcDbEntity
  8
0
  6
Continuous
 62
     8
370
    18
100
AcDbSpline
210
0.0
220
0.0
230
1.0
 70
     8
 71
     3
 72
     9
 73
     5
 74
     0
 42
0.000000001
 43
0.00000001
 40
0.0
 40
0.0
 40
0.0
 40
0.0
 40
0.4953960175050925
 40
1.0
 40
1.0
 40
1.0
 40
1.0
 10
2113.491466293388
 20
1413.826333401447
 30
0.0
 10
2113.8094572542
 20
1412.95198205975
 30
0.0
 10
2114.451349698981
 20
1411.187027738761
 30
0.0
 10
2115.393258585243
 20
1409.577656758787
 30
0.0
 10
2115.868549560398
 20
1408.765561752981
 30
0.0
  0
SPLINE
  5
349
330
1F
100
AcDbEntity
  8
0
  6
Continuous
 62
     8
370
    18
100
AcDbSpline
210
0.0
220
0.0
230
1.0
 70
     8
 71
     3
 72
    13
 73
     9
 74
     0
 42
0.000000001
 43
0.00000001
 40
0.0
 40
0.0
 40
0.0
 40
0.0
 40
0.345560613655695
 40
0.7377948233629207
 40
0.848287898516053
 40
0.9091433588593546
 40
0.9540191324658089
 40
1.0
 40
1.0
 40
1.0
 40
1.0
 10
2115.868549560398
 20
1408.765561752981
 30
0.0
 10
2116.206992169602
 20
1408.264390406888
 30
0.0
 10
2116.929589581486
 20
1407.194356351636
 30
0.0
 10
2117.964744665019
 20
1406.107256205226
 30
0.0
 10
2118.594649395981
 20
1405.52707445746
 30
0.0
 10
2118.772083208039
 20
1405.367758581735
 30
0.0
 10
2118.842282167127
 20
1405.302956969357
 30
0.0
 10
2118.838310956911
 20
1405.302899806717
 30
0.0
 10
2118.836301200788
 20
1405.302870877761
 30
0.0
  0
SPLINE
  5
34A
330
1F
100
AcDbEntity
  8
0
  6
Continuous
 62
     8
370
    18
100
AcDbSpline
210
0.0
220
0.0
230
1.0
 70
     8
 71
     3
 72
     9
 73
     5
 74
     0
 42
0.000000001
 43
0.00000001
 40
0.0
 40
0.0
 40
0.0
 40
0.0
 40
0.4998468996431861
 40
1.0
 40
1.0
 40
1.0
 40
1.0
 10
2118.836301200788
 20
1405.302870877761
 30
0.0
 10
2118.730727752412
 20
1405.366462824486
 30
0.0
 10
2118.519516182527
 20
1405.493685673662
 30
0.0
 10
2118.398937344774
 20
1405.571313617587
 30
0.0
 10
2118.338629465235
 20
1405.610139474415
 30
0.0
  0
SPLINE
  5
34B
330
1F
100
AcDbEntity
  8
0
  6
Continuous
 62
     8
370
    18
100
AcDbSpline
210
0.0
220
0.0
230
1.0
 70
     8
 71
     3
 72
    13
 73
     9
 74
     0
 42
0.000000001
 43
0.00000001
 40
0.0
 40
0.0
 40
0.0
 40
0.0
 40
0.3455606136556856
 40
0.7377948233628949
 40
0.8482878985160511
 40
0.9091433588593539
 40
0.9540191324658095
 40
1.0
 40
1.0
 40
1.0
 40
1.0
 10
2185.753946713822
 20
1408.765561752981
 30
0.0
 10
2185.415504104617
 20
1408.264390406888
 30
0.0
 10
2184.692906692733
 20
1407.194356351637
 30
0.0
 10
2183.657751609202
 20
1406.107256205226
 30
0.0
 10
2183.027846878238
 20
1405.52707445746
 30
0.0
 10
2182.850413066181
 20
1405.367758581735
 30
0.0
 10
2182.780214107093
 20
1405.302956969358
 30
0.0
 10
2182.784185317309
 20
1405.302899806717
 30
0.0
 10
2182.786195073432
 20
1405.302870877761
 30
0.0
  0
SPLINE
  5
34C
330
1F
100
AcDbEntity
  8
0
  6
Continuous
 62
     8
370
    18
100
AcDbSpline
210
0.0
220
0.0
230
1.0
 70
     8
 71
     3
 72
    11
 73
     7
 74
     0
 42
0.000000001
 43
0.00000001
 40
0.0
 40
0.0
 40
0.0
 40
0.0
 40
0.2499068565621712
 40
0.4998445626142471
 40
0.7498974475611084
 40
1.0
 40
1.0
 40
1.0
 40
1.0
 10
2182.786195073432
 20
1405.302870877761
 30
0.0
 10
2182.84002680683
 20
1405.334978709898
 30
0.0
 10
2182.947696918827
 20
1405.39919833769
 30
0.0
 10
2183.083578248074
 20
1405.48307199753
 30
0.0
 10
2183.199765518524
 20
1405.556139819691
 30
0.0
 10
2183.255831189648
 20
1405.592138397906
 30
0.0
 10
2183.283866808986
 20
1405.610139474416
 30
0.0
  0
SPLINE
  5
34D
330
1F
100
AcDbEntity
  8
0
  6
Continuous
 62
     8
370
    18
100
AcDbSpline
210
0.0
220
0.0
230
1.0
 70
     8
 71
     3
 72
     9
 73
     5
 74
     0
 42
0.000000001
 43
0.00000001
 40
0.0
 40
0.0
 40
0.0
 40
0.0
 40
0.7340356503377933
 40
0.9999999999999999
 40
0.9999999999999999
 40
0.9999999999999999
 40
0.9999999999999999
 10
2183.283866808986
 20
1405.610139474416
 30
0.0
 10
2183.289419104687
 20
1405.614154319666
 30
0.0
 10
2183.29698317286
 20
1405.619623870427
 30
0.0
 10
2183.344065939489
 20
1405.661746020087
 30
0.0
 10
2183.356588276895
 20
1405.672949010228
 30
0.0
  0
SPLINE
  5
34E
330
1F
100
AcDbEntity
  8
0
  6
Continuous
 62
     8
370
    18
100
AcDbSpline
210
0.0
220
0.0
230
1.0
 70
     8
 71
     3
 72
    12
 73
     8
 74
     0
 42
0.000000001
 43
0.00000001
 40
0.0
 40
0.0
 40
0.0
 40
0.0
 40
0.1139159269059944
 40
0.3258009088085495
 40
0.5443041886655147
 40
0.8274327407183972
 40
0.9999999999999999
 40
0.9999999999999999
 40
0.9999999999999999
 40
0.9999999999999999
 10
2188.894179976849
 20
1413.5895473974
 30
0.0
 10
2189.125423966296
 20
1414.34301888115
 30
0.0
 10
2189.786784532501
 20
1416.49795630592
 30
0.0
 10
2190.309816739181
 20
1420.252863284116
 30
0.0
 10
2190.15868062258
 20
1425.198740798269
 30
0.0
 10
2189.139363984488
 20
1429.807236697756
 30
0.0
 10
2187.797775808219
 20
1432.663198483287
 30
0.0
 10
2187.289730333793
 20
1433.74472147666
 30
0.0
  0
ARC
  5
34F
330
1F
100
AcDbEntity
  8
0
  6
Continuous
 62
     8
370
    18
100
AcDbCircle
 10
2183.5118132999
 20
1397.590627363
 30
0.0
 40
16.88002705303035
100
AcDbArc
 50
71.4059989949
 51
74.11843048
  0
ARC
  5
350
330
1F
100
AcDbEntity
  8
0
  6
Continuous
 62
     8
370
    18
100
AcDbCircle
 10
2177.8076356445
 20
1451.9214377585
 30
0.0
 40
20.50129592212729
100
AcDbArc
 50
295.1583766345
 51
297.5493192595
  0
ARC
  5
351
330
1F
100
AcDbEntity
  8
0
  6
Continuous
 62
     8
370
    18
100
AcDbCircle
 10
2118.1106829741
 20
1397.5906273637
 30
0.0
 40
16.88002705233767
100
AcDbArc
 50
105.88156952
 51
108.5940010052
  0
SPLINE
  5
352
330
1F
100
AcDbEntity
  8
0
  6
Continuous
 62
     8
370
    18
100
AcDbSpline
210
0.0
220
0.0
230
1.0
 70
     8
 71
     3
 72
    12
 73
     8
 74
     0
 42
0.000000001
 43
0.00000001
 40
0.0
 40
0.0
 40
0.0
 40
0.0
 40
0.1139185701341841
 40
0.3290869588708605
 40
0.5442936150078429
 40
0.8274287365843254
 40
1.0
 40
1.0
 40
1.0
 40
1.0
 10
2112.728316297371
 20
1413.589547397399
 30
0.0
 10
2112.496942689432
 20
1414.343001264857
 30
0.0
 10
2111.82855265513
 20
1416.519572139993
 30
0.0
 10
2111.316145571654
 20
1420.27652123328
 30
0.0
 10
2111.467128541505
 20
1425.221133912816
 30
0.0
 10
2112.483394939211
 20
1429.80726409672
 30
0.0
 10
2113.824792608871
 20
1432.663206009058
 30
0.0
 10
2114.332765940427
 20
1433.74472147666
 30
0.0
  0
ARC
  5
353
330
1F
100
AcDbEntity
  8
0
  6
Continuous
 62
     8
370
    18
100
AcDbCircle
 10
2123.8148606293
 20
1451.9214377576
 30
0.0
 40
20.50129592111989
100
AcDbArc
 50
242.4506807404
 51
244.8416233656
  0
ARC
  5
354
330
1F
100
AcDbEntity
  8
0
  6
Continuous
 62
     8
370
    18
100
AcDbCircle
 10
2115.68522579
 20
1408.0936722077
 30
0.0
 40
0.6964504044237043
100
AcDbArc
 50
74.7384391007
 51
121.314184164
  0
SPLINE
  5
355
330
1F
100
AcDbEntity
  8
0
  6
Continuous
 62
     8
370
    18
100
AcDbSpline
210
0.0
220
0.0
230
1.0
 70
     8
 71
     3
 72
    11
 73
     7
 74
     0
 42
0.000000001
 43
0.00000001
 40
0.0
 40
0.0
 40
0.0
 40
0.0
 40
0.3598580230790386
 40
0.7246062069006075
 40
0.8621677510649592
 40
1.0
 40
1.0
 40
1.0
 40
1.0
 10
2115.323259185222
 20
1408.688670815191
 30
0.0
 10
2114.937956746101
 20
1409.234967163821
 30
0.0
 10
2114.162115939408
 20
1410.334983558171
 30
0.0
 10
2113.441220705954
 20
1411.769914866395
 30
0.0
 10
2112.983259634014
 20
1412.866164403368
 30
0.0
 10
2112.813353080792
 20
1413.348261769761
 30
0.0
 10
2112.728316297371
 20
1413.589547397399
 30
0.0
  0
SPLINE
  5
356
330
1F
100
AcDbEntity
  8
0
  6
Continuous
 62
     8
370
    18
100
AcDbSpline
210
0.0
220
0.0
230
1.0
 70
     8
 71
     3
 72
    11
 73
     7
 74
     0
 42
0.000000001
 43
0.00000001
 40
0.0
 40
0.0
 40
0.0
 40
0.0
 40
0.3598580230790383
 40
0.7246062069006081
 40
0.8621677510649445
 40
1.0
 40
1.0
 40
1.0
 40
1.0
 10
2186.299237088997
 20
1408.688670815191
 30
0.0
 10
2186.684539528118
 20
1409.234967163821
 30
0.0
 10
2187.460380334812
 20
1410.334983558171
 30
0.0
 10
2188.181275568266
 20
1411.769914866395
 30
0.0
 10
2188.639236640206
 20
1412.866164403368
 30
0.0
 10
2188.809143193428
 20
1413.348261769762
 30
0.0
 10
2188.894179976849
 20
1413.5895473974
 30
0.0
  0
ARC
  5
357
330
1F
100
AcDbEntity
  8
0
  6
Continuous
 62
     8
370
    18
100
AcDbCircle
 10
2185.9372704843
 20
1408.0936722077
 30
0.0
 40
0.6964504044270933
100
AcDbArc
 50
58.6858158361
 51
105.2615608992
  0
ARC
  5
358
330
1F
100
AcDbEntity
  8
0
  6
Continuous
 62
     8
370
    18
100
AcDbCircle
 10
2184.760236121
 20
1442.7083623429
 30
0.0
 40
2.997472528738815
100
AcDbArc
 50
212.0390940145
 51
236.4309513429
  0
SPLINE
  5
359
330
1F
100
AcDbEntity
  8
0
  6
Continuous
 62
     8
370
    18
100
AcDbSpline
210
0.0
220
0.0
230
1.0
 70
     8
 71
     3
 72
    14
 73
    10
 74
     0
 42
0.000000001
 43
0.00000001
 40
0.0
 40
0.0
 40
0.0
 40
0.0
 40
0.611315865394386
 40
0.79340720535834
 40
0.8854170307688745
 40
0.9194198313361063
 40
0.9434501870529949
 40
0.9749897870426377
 40
1.0
 40
1.0
 40
1.0
 40
1.0
 10
2185.828537279182
 20
1436.462893810255
 30
0.0
 10
2185.272080328896
 20
1437.34521713085
 30
0.0
 10
2184.549872745514
 20
1438.4903561983
 30
0.0
 10
2183.565195495657
 20
1439.626012311081
 30
0.0
 10
2183.240155255685
 20
1440.003759372956
 30
0.0
 10
2183.12710143205
 20
1440.144800266964
 30
0.0
 10
2183.086731489756
 20
1440.202005502892
 30
0.0
 10
2183.078619401961
 20
1440.224343308359
 30
0.0
 10
2183.095391378196
 20
1440.214958639541
 30
0.0
 10
2183.10280909853
 20
1440.210808094148
 30
0.0
  0
ARC
  5
35A
330
1F
100
AcDbEntity
  8
0
  6
Continuous
 62
     8
370
    18
100
AcDbCircle
 10
2173.2004279194
 20
1459.480163946
 30
0.0
 40
26.25383534842419
100
AcDbArc
 50
296.9264954204
 51
298.7507702117
  0
ARC
  5
35B
330
1F
100
AcDbEntity
  8
0
  6
Continuous
 62
     8
370
    18
100
AcDbCircle
 10
2128.4220683565
 20
1459.4801639491
 30
0.0
 40
26.25383535199913
100
AcDbArc
 50
241.2492297884
 51
243.0735045794
  0
SPLINE
  5
35C
330
1F
100
AcDbEntity
  8
0
  6
Continuous
 62
     8
370
    18
100
AcDbSpline
210
0.0
220
0.0
230
1.0
 70
     8
 71
     3
 72
    14
 73
    10
 74
     0
 42
0.000000001
 43
0.00000001
 40
0.0
 40
0.0
 40
0.0
 40
0.0
 40
0.6113158653943612
 40
0.7934072053583409
 40
0.8854170307688749
 40
0.9194198313361065
 40
0.9434501870529951
 40
0.9749897870426378
 40
1.0
 40
1.0
 40
1.0
 40
1.0
 10
2115.793958995038
 20
1436.462893810254
 30
0.0
 10
2116.350415945324
 20
1437.345217130849
 30
0.0
 10
2117.072623528706
 20
1438.4903561983
 30
0.0
 10
2118.057300778563
 20
1439.626012311081
 30
0.0
 10
2118.382341018535
 20
1440.003759372955
 30
0.0
 10
2118.495394842169
 20
1440.144800266964
 30
0.0
 10
2118.535764784464
 20
1440.202005502892
 30
0.0
 10
2118.543876872259
 20
1440.224343308358
 30
0.0
 10
2118.527104896024
 20
1440.214958639541
 30
0.0
 10
2118.51968717569
 20
1440.210808094148
 30
0.0
  0
ARC
  5
35D
330
1F
100
AcDbEntity
  8
0
  6
Continuous
 62
     8
370
    18
100
AcDbCircle
 10
2116.8622601532
 20
1442.7083623429
 30
0.0
 40
2.997472528739675
100
AcDbArc
 50
303.5690486571
 51
327.9609059855
  0
LINE
  5
35E
330
1F
100
AcDbEntity
  8
0
  6
Continuous
 62
     8
370
    18
100
AcDbLine
 10
2114.3327659404
 20
1433.7447214767
 30
0.0
 11
2115.793958995
 21
1436.4628938103
 31
0.0
  0
LINE
  5
35F
330
1F
100
AcDbEntity
  8
0
  6
Continuous
 62
     8
370
    18
100
AcDbLine
 10
2187.2897303338
 20
1433.7447214767
 30
0.0
 11
2185.8285372792
 21
1436.4628938103
 31
0.0
  0
ARC
  5
360
330
1F
100
AcDbEntity
  8
0
  6
Continuous
 62
     8
370
    18
100
AcDbCircle
 10
2116.9244316894
 20
1403.0387998729
 30
0.0
 40
2.963319514258427
100
AcDbArc
 50
49.8209532534
 51
58.1297763966
  0
SPLINE
  5
361
330
1F
100
AcDbEntity
  8
0
  6
Continuous
 62
     8
370
    18
100
AcDbSpline
210
0.0
220
0.0
230
1.0
 70
     8
 71
     3
 72
    16
 73
    12
 74
     0
 42
0.000000001
 43
0.00000001
 40
0.0
 40
0.0
 40
0.0
 40
0.0
 40
0.0117733620155407
 40
0.0227113902881394
 40
0.0341085178796157
 40
0.0448724470144668
 40
0.0843977891274072
 40
0.1801725761900004
 40
0.6004756555876956
 40
0.7301077904364902
 40
1.0
 40
1.0
 40
1.0
 40
1.0
 10
2118.489055669088
 20
1405.555387710788
 30
0.0
 10
2118.494629031949
 20
1405.552034343365
 30
0.0
 10
2118.505380321089
 20
1405.545565533842
 30
0.0
 10
2118.505706726345
 20
1405.547629072028
 30
0.0
 10
2118.48985110197
 20
1405.5612692569
 30
0.0
 10
2118.438733408195
 20
1405.6018471998
 30
0.0
 10
2118.268225465735
 20
1405.732513689831
 30
0.0
 10
2117.593976529755
 20
1406.259902568159
 30
0.0
 10
2116.843820405327
 20
1406.940972164514
 30
0.0
 10
2115.970980496189
 20
1407.871543369444
 30
0.0
 10
2115.584404409014
 20
1408.359225224821
 30
0.0
 10
2115.323259185222
 20
1408.688670815191
 30
0.0
  0
SPLINE
  5
362
330
1F
100
AcDbEntity
  8
0
  6
Continuous
 62
     8
370
    18
100
AcDbSpline
210
0.0
220
0.0
230
1.0
 70
     8
 71
     3
 72
    16
 73
    12
 74
     0
 42
0.000000001
 43
0.00000001
 40
0.0
 40
0.0
 40
0.0
 40
0.0
 40
0.0117733620155406
 40
0.022711390288139
 40
0.034108517879615
 40
0.0448724470144658
 40
0.0843977891274341
 40
0.1801725761900119
 40
0.6004756555876782
 40
0.7301077904365129
 40
1.0
 40
1.0
 40
1.0
 40
1.0
 10
2183.133440605132
 20
1405.555387710788
 30
0.0
 10
2183.12786724227
 20
1405.552034343365
 30
0.0
 10
2183.117115953131
 20
1405.545565533842
 30
0.0
 10
2183.116789547874
 20
1405.547629072028
 30
0.0
 10
2183.13264517225
 20
1405.5612692569
 30
0.0
 10
2183.183762866025
 20
1405.6018471998
 30
0.0
 10
2183.354270808485
 20
1405.732513689831
 30
0.0
 10
2184.028519744465
 20
1406.259902568159
 30
0.0
 10
2184.778675868893
 20
1406.940972164515
 30
0.0
 10
2185.651515778031
 20
1407.871543369445
 30
0.0
 10
2186.038091865205
 20
1408.359225224822
 30
0.0
 10
2186.299237088997
 20
1408.688670815191
 30
0.0
  0
ARC
  5
363
330
1F
100
AcDbEntity
  8
0
  6
Continuous
 62
     8
370
    18
100
AcDbCircle
 10
2184.6980645847
 20
1403.038799873
 30
0.0
 40
2.963319514154901
100
AcDbArc
 50
121.8702236033
 51
130.1790467468
  0
ARC
  5
364
330
1F
100
AcDbEntity
  8
0
  6
Continuous
 62
     8
370
    18
100
AcDbCircle
 10
2180.4957529414
 20
1446.7403344436
 30
0.0
 40
14.66438151428416
100
AcDbArc
 50
297.6001215935
 51
299.8288543735
  0
ARC
  5
365
330
1F
100
AcDbEntity
  8
0
  6
Continuous
 62
     8
370
    18
100
AcDbCircle
 10
2184.8824864211
 20
1401.7158809801
 30
0.0
 40
12.53306185155664
100
AcDbArc
 50
68.8944075233
 51
71.3317007916
  0
ARC
  5
366
330
1F
100
AcDbEntity
  8
0
  6
Continuous
 62
     8
370
    18
100
AcDbCircle
 10
2121.1267433322
 20
1446.7403344424
 30
0.0
 40
14.66438151290555
100
AcDbArc
 50
240.1711456264
 51
242.3998784067
  0
ARC
  5
367
330
1F
100
AcDbEntity
  8
0
  6
Continuous
 62
     8
370
    18
100
AcDbCircle
 10
2116.740009853
 20
1401.7158809804
 30
0.0
 40
12.53306185122518
100
AcDbArc
 50
108.6682992083
 51
111.1055924767
  0
ARC
  5
368
330
1F
100
AcDbEntity
  8
0
  6
Continuous
 62
     8
370
    18
100
AcDbCircle
 10
2123.1177443469
 20
1449.7894894162
 30
0.0
 40
15.2064454204405
100
AcDbArc
 50
239.1079369151
 51
241.2084941517
  0
ARC
  5
369
330
1F
100
AcDbEntity
  8
0
  6
Continuous
 62
     8
370
    18
100
AcDbCircle
 10
2178.5047519279
 20
1449.7894894153
 30
0.0
 40
15.20644541940099
100
AcDbArc
 50
298.7915058482
 51
300.892063085
  0
ARC
  5
36A
330
1F
100
AcDbEntity
  8
0
  6
Continuous
 62
     8
370
    18
100
AcDbCircle
 10
2185.2816906908
 20
1403.3832135568
 30
0.0
 40
2.991738508840936
100
AcDbArc
 50
124.0281034348
 51
131.8959735505
  0
ARC
  5
36B
330
1F
100
AcDbEntity
  8
0
  6
Continuous
 62
     8
370
    18
100
AcDbCircle
 10
2116.3408055834
 20
1403.3832135568
 30
0.0
 40
2.991738508807533
100
AcDbArc
 50
48.1040264494
 51
55.9718965653
  0
ARC
  5
36C
330
1F
100
AcDbEntity
  8
0
  6
Continuous
 62
     8
370
    18
100
AcDbCircle
 10
2184.8923371915
 20
1442.6219061119
 30
0.0
 40
2.999437512483904
100
AcDbArc
 50
212.0988262038
 51
235.735331513
  0
ARC
  5
36D
330
1F
100
AcDbEntity
  8
0
  6
Continuous
 62
     8
370
    18
100
AcDbCircle
 10
2116.7301396387
 20
1442.6219214831
 30
0.0
 40
2.999462152150677
100
AcDbArc
 50
312.8940341453
 51
327.9011224253
  0
SPLINE
  5
36E
330
1F
100
AcDbEntity
  8
0
  6
Continuous
 62
     8
370
    18
100
AcDbSpline
210
0.0
220
0.0
230
1.0
 70
     8
 71
     3
 72
    11
 73
     7
 74
     0
 42
0.000000001
 43
0.00000001
 40
0.0
 40
0.0
 40
0.0
 40
0.0
 40
0.2426985957037945
 40
0.5047456086937623
 40
0.7664412997887216
 40
1.0
 40
1.0
 40
1.0
 40
1.0
 10
2184.971154494816
 20
1438.562150396177
 30
0.0
 10
2184.718609204675
 20
1439.035912129813
 30
0.0
 10
2184.193385208939
 20
1440.0212048297
 30
0.0
 10
2183.478897497781
 20
1441.01633988433
 30
0.0
 10
2182.803046527155
 20
1441.66455992789
 30
0.0
 10
2182.694237382527
 20
1441.743259249451
 30
0.0
 10
2182.642923708511
 20
1441.780373329758
 30
0.0
  0
ARC
  5
36F
330
1F
100
AcDbEntity
  8
0
  6
Continuous
 62
     8
370
    18
100
AcDbCircle
 10
2184.3952134725
 20
1417.8012872936
 30
0.0
 40
8.93256082738799
100
AcDbArc
 50
287.5397504291
 51
356.514198663
  0
SPLINE
  5
370
330
1F
100
AcDbEntity
  8
0
  6
Continuous
 62
     8
370
    18
100
AcDbSpline
210
0.0
220
0.0
230
1.0
 70
     8
 71
     3
 72
    11
 73
     7
 74
     0
 42
0.000000001
 43
0.00000001
 40
0.0
 40
0.0
 40
0.0
 40
0.0
 40
0.2352104509735739
 40
0.4712568957191147
 40
0.7971477029157057
 40
1.0
 40
1.0
 40
1.0
 40
1.0
 10
2182.31124813711
 20
1403.997415401785
 30
0.0
 10
2182.673947282771
 20
1404.278181662833
 30
0.0
 10
2183.400634692948
 20
1404.840712094864
 30
0.0
 10
2184.581154488509
 20
1405.959341827501
 30
0.0
 10
2185.67947844212
 20
1407.15068675191
 30
0.0
 10
2186.343793760097
 20
1408.172429436207
 30
0.0
 10
2186.59865833828
 20
1408.564421026945
 30
0.0
  0
SPLINE
  5
371
330
1F
100
AcDbEntity
  8
0
  6
Continuous
 62
     8
370
    18
100
AcDbSpline
210
0.0
220
0.0
230
1.0
 70
     8
 71
     3
 72
    10
 73
     6
 74
     0
 42
0.000000001
 43
0.00000001
 40
0.0
 40
0.0
 40
0.0
 40
0.0
 40
0.4338511233654748
 40
0.8744573306289112
 40
1.0
 40
1.0
 40
1.0
 40
1.0
 10
2182.31124813711
 20
1403.997415401785
 30
0.0
 10
2181.276625714288
 20
1403.544054818235
 30
0.0
 10
2179.19127174528
 20
1402.630274803958
 30
0.0
 10
2176.69222106129
 20
1402.029572962886
 30
0.0
 10
2175.263260223043
 20
1401.946949673404
 30
0.0
 10
2174.946390287477
 20
1401.928628082137
 30
0.0
  0
LWPOLYLINE
  5
372
330
1F
100
AcDbEntity
  8
0
  6
Continuous
 62
     8
370
    18
100
AcDbPolyline
 90
        9
 70
   128
 43
0.0
 10
2193.3112481371
 20
1413.7772919447
 10
2193.0998862215
 20
1411.8693326807
 10
2192.4739229947
 20
1410.0346952211
 10
2191.4574138724
 20
1408.3438836548
 10
2190.0894227302
 20
1406.861874922
 10
2188.4225207003
 20
1405.6456217872
 10
2186.5207658931
 20
1404.7418641762
 10
2184.4572416793
 20
1404.1853329872
 10
2182.3112481371
 20
1403.9974154018
  0
LINE
  5
373
330
1F
100
AcDbEntity
  8
0
  6
Continuous
 62
     8
370
    18
100
AcDbLine
 10
2182.3112481371
 20
1401.7790091161
 30
0.0
 11
2182.3112481371
 21
1403.9974154018
 31
0.0
  0
LINE
  5
374
330
1F
100
AcDbEntity
  8
0
  6
Continuous
 62
     8
370
    18
100
AcDbLine
 10
2095.3112481371
 20
1459.2254476157
 30
0.0
 11
2095.3112481371
 21
1458.2254476157
 31
0.0
  0
LINE
  5
375
330
1F
100
AcDbEntity
  8
0
  6
Continuous
 62
     8
370
    18
100
AcDbLine
 10
2206.3112481371
 20
1458.2254476157
 30
0.0
 11
2206.3112481371
 21
1459.2254476157
 31
0.0
  0
LINE
  5
376
330
1F
100
AcDbEntity
  8
0
  6
Continuous
 62
     8
370
    18
100
AcDbLine
 10
2185.8112481371
 20
1470.2254476157
 30
0.0
 11
2115.8112481371
 21
1470.2254476157
 31
0.0
  0
ENDSEC
  0
SECTION
  2
OBJECTS
  0
DICTIONARY
  5
C
330
0
100
AcDbDictionary
281
     1
  3
ACAD_GROUP
350
D
  3
ACAD_LAYOUT
350
1A
  3
ACAD_MLINESTYLE
350
17
  3
ACAD_PLOTSETTINGS
350
19
  3
ACAD_PLOTSTYLENAME
350
E
  3
ACAD_SCALELIST
350
47
  0
DICTIONARY
  5
D
102
{ACAD_REACTORS
330
C
102
}
330
C
100
AcDbDictionary
281
     1
  0
DICTIONARY
  5
1A
102
{ACAD_REACTORS
330
C
102
}
330
C
100
AcDbDictionary
281
     1
  3
Layout1
350
1E
  3
Layout2
350
26
  3
Model
350
22
  0
DICTIONARY
  5
17
102
{ACAD_REACTORS
330
C
102
}
330
C
100
AcDbDictionary
281
     1
  3
Standard
350
18
  0
DICTIONARY
  5
19
102
{ACAD_REACTORS
330
C
102
}
330
C
100
AcDbDictionary
281
     1
  0
ACDBDICTIONARYWDFLT
  5
E
102
{ACAD_REACTORS
330
C
102
}
330
C
100
AcDbDictionary
281
     1
  3
Normal
350
F
100
AcDbDictionaryWithDefault
340
F
  0
DICTIONARY
  5
47
102
{ACAD_REACTORS
330
C
102
}
330
C
100
AcDbDictionary
281
     1
  3
A0
350
48
  3
A1
350
49
  3
A2
350
4A
  3
A3
350
4B
  3
A4
350
4C
  3
A5
350
4D
  3
A6
350
4E
  3
A7
350
4F
  3
A8
350
50
  3
A9
350
51
  3
B0
350
52
  3
B1
350
53
  3
B2
350
54
  3
B3
350
55
  3
B4
350
56
  3
B5
350
57
  3
B6
350
58
  3
B7
350
59
  3
B8
350
5A
  3
B9
350
5B
  3
C0
350
5C
  3
C1
350
5D
  3
C2
350
5E
  3
C3
350
5F
  3
C4
350
60
  3
C5
350
61
  3
C6
350
62
  3
C7
350
63
  3
C8
350
64
  3
C9
350
65
  3
D0
350
66
  3
D1
350
67
  3
D2
350
68
  0
LAYOUT
  5
1E
102
{ACAD_REACTORS
330
1A
102
}
330
1A
100
AcDbPlotSettings
  1

  2
none_device
  4

  6

 40
0.0
 41
0.0
 42
0.0
 43
0.0
 44
0.0
 45
0.0
 46
0.0
 47
0.0
 48
0.0
 49
0.0
140
0.0
141
0.0
142
1.0
143
1.0
 70
   688
 72
     1
 73
     0
 74
     5
  7

 75
    16
147
1.0
148
0.0
149
0.0
100
AcDbLayout
  1
Layout1
 70
     1
 71
     1
 10
0.0
 20
0.0
 11
420.0
 21
297.0
 12
0.0
 22
0.0
 32
0.0
 14
1.0000000000E+20
 24
1.0000000000E+20
 34
1.0000000000E+20
 15
-1.0000000000E+20
 25
-1.0000000000E+20
 35
-1.0000000000E+20
146
0.0
 13
0.0
 23
0.0
 33
0.0
 16
1.0
 26
0.0
 36
0.0
 17
0.0
 27
1.0
 37
0.0
 76
     0
330
1B
  0
LAYOUT
  5
26
102
{ACAD_REACTORS
330
1A
102
}
330
1A
100
AcDbPlotSettings
  1

  2
none_device
  4

  6

 40
0.0
 41
0.0
 42
0.0
 43
0.0
 44
0.0
 45
0.0
 46
0.0
 47
0.0
 48
0.0
 49
0.0
140
0.0
141
0.0
142
1.0
143
1.0
 70
   688
 72
     1
 73
     0
 74
     5
  7

 75
    16
147
1.0
148
0.0
149
0.0
100
AcDbLayout
  1
Layout2
 70
     1
 71
     2
 10
0.0
 20
0.0
 11
0.0
 21
0.0
 12
0.0
 22
0.0
 32
0.0
 14
0.0
 24
0.0
 34
0.0
 15
0.0
 25
0.0
 35
0.0
146
0.0
 13
0.0
 23
0.0
 33
0.0
 16
1.0
 26
0.0
 36
0.0
 17
0.0
 27
1.0
 37
0.0
 76
     0
330
23
  0
LAYOUT
  5
22
102
{ACAD_REACTORS
330
1A
102
}
330
1A
100
AcDbPlotSettings
  1

  2
none_device
  4
Letter_(8.50_x_11.00_Inches)
  6

 40
6.35
 41
6.35
 42
6.35000508
 43
6.35000508
 44
215.9
 45
279.4
 46
0.0
 47
0.0
 48
0.0
 49
0.0
140
0.0
141
0.0
142
1.0
143
1.0
 70
  1712
 72
     1
 73
     0
 74
     0
  7

 75
     0
147
1.0
148
0.0
149
0.0
100
AcDbLayout
  1
Model
 70
     1
 71
     0
 10
0.0
 20
0.0
 11
2970.0
 21
2100.0
 12
0.0
 22
0.0
 32
0.0
 14
0.0
 24
0.0
 34
0.0
 15
2970.0
 25
2100.0
 35
0.0
146
0.0
 13
0.0
 23
0.0
 33
0.0
 16
1.0
 26
0.0
 36
0.0
 17
0.0
 27
1.0
 37
0.0
 76
     0
330
1F
331
29
  0
MLINESTYLE
  5
18
102
{ACAD_REACTORS
330
17
102
}
330
17
100
AcDbMlineStyle
  2
Standard
 70
     0
  3

 62
   256
 51
90.0
 52
90.0
 71
     2
 49
0.5
 62
   256
  6
BYLAYER
 49
-0.5
 62
   256
  6
BYLAYER
  0
ACDBPLACEHOLDER
  5
F
102
{ACAD_REACTORS
330
E
102
}
330
E
  0
SCALE
  5
48
102
{ACAD_REACTORS
330
47
102
}
330
47
100
AcDbScale
 70
     0
300
1:1
140
1.0
141
1.0
290
     1
  0
SCALE
  5
49
102
{ACAD_REACTORS
330
47
102
}
330
47
100
AcDbScale
 70
     0
300
1:2
140
1.0
141
2.0
290
     0
  0
SCALE
  5
4A
102
{ACAD_REACTORS
330
47
102
}
330
47
100
AcDbScale
 70
     0
300
1:4
140
1.0
141
4.0
290
     0
  0
SCALE
  5
4B
102
{ACAD_REACTORS
330
47
102
}
330
47
100
AcDbScale
 70
     0
300
1:5
140
1.0
141
5.0
290
     0
  0
SCALE
  5
4C
102
{ACAD_REACTORS
330
47
102
}
330
47
100
AcDbScale
 70
     0
300
1:8
140
1.0
141
8.0
290
     0
  0
SCALE
  5
4D
102
{ACAD_REACTORS
330
47
102
}
330
47
100
AcDbScale
 70
     0
300
1:10
140
1.0
141
10.0
290
     0
  0
SCALE
  5
4E
102
{ACAD_REACTORS
330
47
102
}
330
47
100
AcDbScale
 70
     0
300
1:16
140
1.0
141
16.0
290
     0
  0
SCALE
  5
4F
102
{ACAD_REACTORS
330
47
102
}
330
47
100
AcDbScale
 70
     0
300
1:20
140
1.0
141
20.0
290
     0
  0
SCALE
  5
50
102
{ACAD_REACTORS
330
47
102
}
330
47
100
AcDbScale
 70
     0
300
1:30
140
1.0
141
30.0
290
     0
  0
SCALE
  5
51
102
{ACAD_REACTORS
330
47
102
}
330
47
100
AcDbScale
 70
     0
300
1:40
140
1.0
141
40.0
290
     0
  0
SCALE
  5
52
102
{ACAD_REACTORS
330
47
102
}
330
47
100
AcDbScale
 70
     0
300
1:50
140
1.0
141
50.0
290
     0
  0
SCALE
  5
53
102
{ACAD_REACTORS
330
47
102
}
330
47
100
AcDbScale
 70
     0
300
1:100
140
1.0
141
100.0
290
     0
  0
SCALE
  5
54
102
{ACAD_REACTORS
330
47
102
}
330
47
100
AcDbScale
 70
     0
300
2:1
140
2.0
141
1.0
290
     0
  0
SCALE
  5
55
102
{ACAD_REACTORS
330
47
102
}
330
47
100
AcDbScale
 70
     0
300
4:1
140
4.0
141
1.0
290
     0
  0
SCALE
  5
56
102
{ACAD_REACTORS
330
47
102
}
330
47
100
AcDbScale
 70
     0
300
8:1
140
8.0
141
1.0
290
     0
  0
SCALE
  5
57
102
{ACAD_REACTORS
330
47
102
}
330
47
100
AcDbScale
 70
     0
300
10:1
140
10.0
141
1.0
290
     0
  0
SCALE
  5
58
102
{ACAD_REACTORS
330
47
102
}
330
47
100
AcDbScale
 70
     0
300
100:1
140
100.0
141
1.0
290
     0
  0
SCALE
  5
59
102
{ACAD_REACTORS
330
47
102
}
330
47
100
AcDbScale
 70
     0
300
1/128" = 1'-0"
140
0.0078125
141
12.0
290
     0
  0
SCALE
  5
5A
102
{ACAD_REACTORS
330
47
102
}
330
47
100
AcDbScale
 70
     0
300
1/64" = 1'-0"
140
0.015625
141
12.0
290
     0
  0
SCALE
  5
5B
102
{ACAD_REACTORS
330
47
102
}
330
47
100
AcDbScale
 70
     0
300
1/32" = 1'-0"
140
0.03125
141
12.0
290
     0
  0
SCALE
  5
5C
102
{ACAD_REACTORS
330
47
102
}
330
47
100
AcDbScale
 70
     0
300
1/16" = 1'-0"
140
0.0625
141
12.0
290
     0
  0
SCALE
  5
5D
102
{ACAD_REACTORS
330
47
102
}
330
47
100
AcDbScale
 70
     0
300
3/32" = 1'-0"
140
0.09375
141
12.0
290
     0
  0
SCALE
  5
5E
102
{ACAD_REACTORS
330
47
102
}
330
47
100
AcDbScale
 70
     0
300
1/8" = 1'-0"
140
0.125
141
12.0
290
     0
  0
SCALE
  5
5F
102
{ACAD_REACTORS
330
47
102
}
330
47
100
AcDbScale
 70
     0
300
3/16" = 1'-0"
140
0.1875
141
12.0
290
     0
  0
SCALE
  5
60
102
{ACAD_REACTORS
330
47
102
}
330
47
100
AcDbScale
 70
     0
300
1/4" = 1'-0"
140
0.25
141
12.0
290
     0
  0
SCALE
  5
61
102
{ACAD_REACTORS
330
47
102
}
330
47
100
AcDbScale
 70
     0
300
3/8" = 1'-0"
140
0.375
141
12.0
290
     0
  0
SCALE
  5
62
102
{ACAD_REACTORS
330
47
102
}
330
47
100
AcDbScale
 70
     0
300
1/2" = 1'-0"
140
0.5
141
12.0
290
     0
  0
SCALE
  5
63
102
{ACAD_REACTORS
330
47
102
}
330
47
100
AcDbScale
 70
     0
300
3/4" = 1'-0"
140
0.75
141
12.0
290
     0
  0
SCALE
  5
64
102
{ACAD_REACTORS
330
47
102
}
330
47
100
AcDbScale
 70
     0
300
1" = 1'-0"
140
1.0
141
12.0
290
     0
  0
SCALE
  5
65
102
{ACAD_REACTORS
330
47
102
}
330
47
100
AcDbScale
 70
     0
300
1-1/2" = 1'-0"
140
1.5
141
12.0
290
     0
  0
SCALE
  5
66
102
{ACAD_REACTORS
330
47
102
}
330
47
100
AcDbScale
 70
     0
300
3" = 1'-0"
140
3.0
141
12.0
290
     0
  0
SCALE
  5
67
102
{ACAD_REACTORS
330
47
102
}
330
47
100
AcDbScale
 70
     0
300
6" = 1'-0"
140
6.0
141
12.0
290
     0
  0
SCALE
  5
68
102
{ACAD_REACTORS
330
47
102
}
330
47
100
AcDbScale
 70
     0
300
1'-0" = 1'-0"
140
12.0
141
12.0
290
     0
  0
ENDSEC
  0
EOF
