  0
SECTION
  2
HEADER
  9
$ACADVER
  1
AC1015
  9
$ACADMAINTVER
 70
     6
  9
$DWGCODEPAGE
  3
ANSI_1252
  9
$INSBASE
 10
0.0
 20
0.0
 30
0.0
  9
$EXTMIN
 10
0.0
 20
0.0
 30
0.0
  9
$EXTMAX
 10
2970.0
 20
2100.0
 30
0.0
  9
$LIMMIN
 10
0.0
 20
0.0
  9
$LIMMAX
 10
2970.0
 20
2100.0
  9
$ORTHOMODE
 70
     0
  9
$REGENMODE
 70
     1
  9
$FILLMODE
 70
     1
  9
$QTEXTMODE
 70
     0
  9
$MIRRTEXT
 70
     1
  9
$LTSCALE
 40
5.0
  9
$ATTMODE
 70
     1
  9
$TEXTSIZE
 40
12.5
  9
$TRACEWID
 40
1.0
  9
$TEXTSTYLE
  7
Standard
  9
$CLAYER
  8
0
  9
$CELTYPE
  6
ByLayer
  9
$CECOLOR
 62
   256
  9
$CELTSCALE
 40
1.0
  9
$DISPSILH
 70
     0
  9
$DIMSCALE
 40
1.0
  9
$DIMASZ
 40
12.5
  9
$DIMEXO
 40
0.0
  9
$DIMDLI
 40
3.75
  9
$DIMRND
 40
0.0
  9
$DIMDLE
 40
0.0
  9
$DIMEXE
 40
5.0
  9
$DIMTP
 40
0.0
  9
$DIMTM
 40
0.0
  9
$DIMTXT
 40
12.5
  9
$DIMCEN
 40
2.5
  9
$DIMTSZ
 40
0.0
  9
$DIMTOL
 70
     0
  9
$DIMLIM
 70
     0
  9
$DIMTIH
 70
     1
  9
$DIMTOH
 70
     1
  9
$DIMSE1
 70
     0
  9
$DIMSE2
 70
     0
  9
$DIMTAD
 70
     1
  9
$DIMZIN
 70
     0
  9
$DIMBLK
  1

  9
$DIMASO
 70
     1
  9
$DIMSHO
 70
     1
  9
$DIMPOST
  1

  9
$DIMAPOST
  1

  9
$DIMALT
 70
     0
  9
$DIMALTD
 70
     3
  9
$DIMALTF
 40
0.0393700787
  9
$DIMLFAC
 40
1.0
  9
$DIMTOFL
 70
     1
  9
$DIMTVP
 40
0.0
  9
$DIMTIX
 70
     0
  9
$DIMSOXD
 70
     0
  9
$DIMSAH
 70
     0
  9
$DIMBLK1
  1

  9
$DIMBLK2
  1

  9
$DIMSTYLE
  2
ISO-25
  9
$DIMCLRD
 70
     0
  9
$DIMCLRE
 70
     0
  9
$DIMCLRT
 70
     0
  9
$DIMTFAC
 40
1.0
  9
$DIMGAP
 40
7.62
  9
$DIMJUST
 70
     0
  9
$DIMSD1
 70
     0
  9
$DIMSD2
 70
     0
  9
$DIMTOLJ
 70
     0
  9
$DIMTZIN
 70
     0
  9
$DIMALTZ
 70
     0
  9
$DIMALTTZ
 70
     0
  9
$DIMUPT
 70
     0
  9
$DIMDEC
 70
     2
  9
$DIMTDEC
 70
     2
  9
$DIMALTU
 70
     2
  9
$DIMALTTD
 70
     3
  9
$DIMTXSTY
  7
Standard
  9
$DIMAUNIT
 70
     0
  9
$DIMADEC
 70
     2
  9
$DIMALTRND
 40
0.0
  9
$DIMAZIN
 70
     0
  9
$DIMDSEP
 70
    44
  9
$DIMATFIT
 70
     3
  9
$DIMFRAC
 70
     0
  9
$DIMLDRBLK
  1

  9
$DIMLUNIT
 70
     2
  9
$DIMLWD
 70
    -2
  9
$DIMLWE
 70
    -2
  9
$DIMTMOVE
 70
     0
  9
$LUNITS
 70
     2
  9
$LUPREC
 70
     1
  9
$SKETCHINC
 40
1.0
  9
$FILLETRAD
 40
10.0
  9
$AUNITS
 70
     0
  9
$AUPREC
 70
     2
  9
$MENU
  1
.
  9
$ELEVATION
 40
0.0
  9
$PELEVATION
 40
0.0
  9
$THICKNESS
 40
0.0
  9
$LIMCHECK
 70
     0
  9
$CHAMFERA
 40
0.0
  9
$CHAMFERB
 40
0.0
  9
$CHAMFERC
 40
0.0
  9
$CHAMFERD
 40
0.0
  9
$SKPOLY
 70
     0
  9
$TDCREATE
 40
2458906.564859051
  9
$TDUCREATE
 40
2458906.335692384
  9
$TDUPDATE
 40
2458906.564861933
  9
$TDUUPDATE
 40
2458906.335695266
  9
$TDINDWG
 40
0.0000000116
  9
$TDUSRTIMER
 40
0.0000000116
  9
$USRTIMER
 70
     1
  9
$ANGBASE
 50
0.0
  9
$ANGDIR
 70
     0
  9
$PDMODE
 70
     0
  9
$PDSIZE
 40
-1.0
  9
$PLINEWID
 40
0.0
  9
$SPLFRAME
 70
     0
  9
$SPLINETYPE
 70
     6
  9
$SPLINESEGS
 70
     8
  9
$HANDSEED
  5
377
  9
$SURFTAB1
 70
     6
  9
$SURFTAB2
 70
     6
  9
$SURFTYPE
 70
     6
  9
$SURFU
 70
     6
  9
$SURFV
 70
     6
  9
$UCSBASE
  2

  9
$UCSNAME
  2

  9
$UCSORG
 10
0.0
 20
0.0
 30
0.0
  9
$UCSXDIR
 10
1.0
 20
0.0
 30
0.0
  9
$UCSYDIR
 10
0.0
 20
1.0
 30
0.0
  9
$UCSORTHOREF
  2

  9
$UCSORTHOVIEW
 70
     0
  9
$UCSORGTOP
 10
0.0
 20
0.0
 30
0.0
  9
$UCSORGBOTTOM
 10
0.0
 20
0.0
 30
0.0
  9
$UCSORGLEFT
 10
0.0
 20
0.0
 30
0.0
  9
$UCSORGRIGHT
 10
0.0
 20
0.0
 30
0.0
  9
$UCSORGFRONT
 10
0.0
 20
0.0
 30
0.0
  9
$UCSORGBACK
 10
0.0
 20
0.0
 30
0.0
  9
$PUCSBASE
  2

  9
$PUCSNAME
  2

  9
$PUCSORG
 10
0.0
 20
0.0
 30
0.0
  9
$PUCSXDIR
 10
1.0
 20
0.0
 30
0.0
  9
$PUCSYDIR
 10
0.0
 20
1.0
 30
0.0
  9
$PUCSORTHOREF
  2

  9
$PUCSORTHOVIEW
 70
     0
  9
$PUCSORGTOP
 10
0.0
 20
0.0
 30
0.0
  9
$PUCSORGBOTTOM
 10
0.0
 20
0.0
 30
0.0
  9
$PUCSORGLEFT
 10
0.0
 20
0.0
 30
0.0
  9
$PUCSORGRIGHT
 10
0.0
 20
0.0
 30
0.0
  9
$PUCSORGFRONT
 10
0.0
 20
0.0
 30
0.0
  9
$PUCSORGBACK
 10
0.0
 20
0.0
 30
0.0
  9
$USERI1
 70
     0
  9
$USERI2
 70
     0
  9
$USERI3
 70
     0
  9
$USERI4
 70
     0
  9
$USERI5
 70
     0
  9
$USERR1
 40
0.0
  9
$USERR2
 40
0.0
  9
$USERR3
 40
0.0
  9
$USERR4
 40
0.0
  9
$USERR5
 40
0.0
  9
$WORLDVIEW
 70
     1
  9
$SHADEDGE
 70
     3
  9
$SHADEDIF
 70
    70
  9
$TILEMODE
 70
     1
  9
$MAXACTVP
 70
    64
  9
$PINSBASE
 10
0.0
 20
0.0
 30
0.0
  9
$PLIMCHECK
 70
     0
  9
$PEXTMIN
 10
1.0000000000E+20
 20
1.0000000000E+20
 30
1.0000000000E+20
  9
$PEXTMAX
 10
-1.0000000000E+20
 20
-1.0000000000E+20
 30
-1.0000000000E+20
  9
$PLIMMIN
 10
0.0
 20
0.0
  9
$PLIMMAX
 10
420.0
 20
297.0
  9
$UNITMODE
 70
     0
  9
$VISRETAIN
 70
     1
  9
$PLINEGEN
 70
     0
  9
$PSLTSCALE
 70
     1
  9
$TREEDEPTH
 70
  3020
  9
$CMLSTYLE
  2
Standard
  9
$CMLJUST
 70
     0
  9
$CMLSCALE
 40
20.0
  9
$PROXYGRAPHICS
 70
     1
  9
$MEASUREMENT
 70
     1
  9
$CELWEIGHT
370
    -1
  9
$ENDCAPS
280
     0
  9
$JOINSTYLE
280
     0
  9
$LWDISPLAY
290
     1
  9
$INSUNITS
 70
     4
  9
$HYPERLINKBASE
  1

  9
$STYLESHEET
  1

  9
$XEDIT
290
     1
  9
$CEPSNTYPE
380
     0
  9
$PSTYLEMODE
290
     1
  9
$FINGERPRINTGUID
  2
{b3a149e6-8bd5-47f7-afaf-c54281979f98}
  9
$VERSIONGUID
  2
{FAEB1C32-E019-11D5-929B-00C0DF256EC4}
  9
$EXTNAMES
290
     1
  9
$PSVPSCALE
 40
0.0
  9
$OLESTARTUP
290
     0
  0
ENDSEC
  0
SECTION
  2
CLASSES
  0
CLASS
  1
ACDBDICTIONARYWDFLT
  2
AcDbDictionaryWithDefault
  3
ObjectDBX Classes
 90
        0
280
     0
281
     0
  0
CLASS
  1
VISUALSTYLE
  2
AcDbVisualStyle
  3
ObjectDBX Classes
 90
     4095
280
     0
281
     0
  0
CLASS
  1
MATERIAL
  2
AcDbMaterial
  3
ObjectDBX Classes
 90
     1153
280
     0
281
     0
  0
CLASS
  1
SCALE
  2
AcDbScale
  3
ObjectDBX Classes
 90
     1153
280
     0
281
     0
  0
CLASS
  1
TABLESTYLE
  2
AcDbTableStyle
  3
ObjectDBX Classes
 90
     4095
280
     0
281
     0
  0
CLASS
  1
MLEADERSTYLE
  2
AcDbMLeaderStyle
  3
ACDB_MLEADERSTYLE_CLASS
 90
     4095
280
     0
281
     0
  0
CLASS
  1
SUN
  2
AcDbSun
  3
SCENEOE
 90
     1153
280
     0
281
     0
  0
CLASS
  1
ACDBPLACEHOLDER
  2
AcDbPlaceHolder
  3
ObjectDBX Classes
 90
        0
280
     0
281
     0
  0
CLASS
  1
LAYOUT
  2
AcDbLayout
  3
ObjectDBX Classes
 90
        0
280
     0
281
     0
  0
ENDSEC
  0
SECTION
  2
TABLES
  0
TABLE
  2
VPORT
  5
8
330
0
100
AcDbSymbolTable
 70
     1
  0
VPORT
  5
29
330
8
100
AcDbSymbolTableRecord
100
AcDbViewportTableRecord
  2
*Active
 70
     0
 10
0.0
 20
0.0
 11
1.0
 21
1.0
 12
1485.0
 22
1050.0
 13
0.0
 23
0.0
 14
10.0
 24
10.0
 15
10.0
 25
10.0
 16
0.0
 26
0.0
 36
1.0
 17
0.0
 27
0.0
 37
0.0
 40
2100.0
 41
1.4142857143
 42
50.0
 43
0.0
 44
0.0
 50
0.0
 51
0.0
 71
     0
 72
  2000
 73
     1
 74
     3
 75
     0
 76
     0
 77
     0
 78
     0
281
     0
 65
     1
110
0.0
120
0.0
130
0.0
111
1.0
121
0.0
131
0.0
112
0.0
122
1.0
132
0.0
 79
     0
146
0.0
  0
ENDTAB
  0
TABLE
  2
LTYPE
  5
5
330
0
100
AcDbSymbolTable
 70
     6
  0
LTYPE
  5
14
330
5
100
AcDbSymbolTableRecord
100
AcDbLinetypeTableRecord
  2
ByBlock
 70
     0
  3

 72
    65
 73
     0
 40
0.0
  0
LTYPE
  5
15
330
5
100
AcDbSymbolTableRecord
100
AcDbLinetypeTableRecord
  2
ByLayer
 70
     0
  3

 72
    65
 73
     0
 40
0.0
  0
LTYPE
  5
16
330
5
100
AcDbSymbolTableRecord
100
AcDbLinetypeTableRecord
  2
Continuous
 70
     0
  3
Solid line
 72
    65
 73
     0
 40
0.0
  0
LTYPE
  5
6E
330
5
100
AcDbSymbolTableRecord
100
AcDbLinetypeTableRecord
  2
HIDDEN
 70
     0
  3
Hidden __ __ __ __ __ __ __ __ __ __ __ __ __ __
 72
    65
 73
     2
 40
1.905
 49
1.27
 74
     0
 49
-0.635
 74
     0
  0
LTYPE
  5
6F
330
5
100
AcDbSymbolTableRecord
100
AcDbLinetypeTableRecord
  2
PHANTOM
 70
     0
  3
Phantom ______  __  __  ______  __  __  ______
 72
    65
 73
     6
 40
12.7
 49
6.35
 74
     0
 49
-1.27
 74
     0
 49
1.27
 74
     0
 49
-1.27
 74
     0
 49
1.27
 74
     0
 49
-1.27
 74
     0
  0
LTYPE
  5
70
330
5
100
AcDbSymbolTableRecord
100
AcDbLinetypeTableRecord
  2
CENTER
 70
     0
  3
Center ____ _ ____ _ ____ _ ____ _ ____ _ ____
 72
    65
 73
     4
 40
10.16
 49
6.35
 74
     0
 49
-1.27
 74
     0
 49
1.27
 74
     0
 49
-1.27
 74
     0
  0
LTYPE
  5
71
330
5
100
AcDbSymbolTableRecord
100
AcDbLinetypeTableRecord
  2
CENTERX2
 70
     0
  3
Center (2x) ________  __  ________  __  _____
 72
    65
 73
     4
 40
20.32
 49
12.7
 74
     0
 49
-2.54
 74
     0
 49
2.54
 74
     0
 49
-2.54
 74
     0
  0
LTYPE
  5
72
330
5
100
AcDbSymbolTableRecord
100
AcDbLinetypeTableRecord
  2
DOT2
 70
     0
  3
Dot (.5x) ........................................
 72
    65
 73
     2
 40
0.635
 49
0.0
 74
     0
 49
-0.635
 74
     0
  0
ENDTAB
  0
TABLE
  2
LAYER
  5
2
330
0
100
AcDbSymbolTable
 70
    10
  0
LAYER
  5
10
330
2
100
AcDbSymbolTableRecord
100
AcDbLayerTableRecord
  2
0
 70
     0
 62
     7
  6
Continuous
370
    -3
390
F
  0
LAYER
  5
73
330
2
100
AcDbSymbolTableRecord
100
AcDbLayerTableRecord
  2
DIMENSION
 70
     0
 62
     7
  6
Continuous
370
    -3
390
F
  0
LAYER
  5
74
330
2
100
AcDbSymbolTableRecord
100
AcDbLayerTableRecord
  2
NOTES
 70
     0
 62
     7
  6
Continuous
370
    -3
390
F
  0
LAYER
  5
75
330
2
100
AcDbSymbolTableRecord
100
AcDbLayerTableRecord
  2
TABLES
 70
     0
 62
     7
  6
Continuous
370
    -3
390
F
  0
LAYER
  5
76
330
2
100
AcDbSymbolTableRecord
100
AcDbLayerTableRecord
  2
INVISIBLE
 70
     0
 62
    -7
  6
Continuous
290
     0
370
    -3
390
F
  0
LAYER
  5
77
330
2
100
AcDbSymbolTableRecord
100
AcDbLayerTableRecord
  2
WEP
 70
     0
 62
  -150
  6
Continuous
290
     0
370
    -3
390
F
  0
LAYER
  5
78
330
2
100
AcDbSymbolTableRecord
100
AcDbLayerTableRecord
  2
EMP
 70
     0
 62
     1
  6
Continuous
370
    -3
390
F
  0
LAYER
  5
79
330
2
100
AcDbSymbolTableRecord
100
AcDbLayerTableRecord
  2
MARKETING_DRW
 70
     0
 62
    -7
  6
Continuous
290
     0
370
    -3
390
F
  0
LAYER
  5
7A
330
2
100
AcDbSymbolTableRecord
100
AcDbLayerTableRecord
  2
SINGLE_ARTICLE_DRW
 70
     0
 62
    -7
  6
Continuous
290
     0
370
    -3
390
F
  0
LAYER
  5
7B
330
2
100
AcDbSymbolTableRecord
100
AcDbLayerTableRecord
  2
TABLE_DRW
 70
     0
 62
     7
  6
Continuous
370
    -3
390
F
  0
ENDTAB
  0
TABLE
  2
STYLE
  5
3
330
0
100
AcDbSymbolTable
 70
     2
  0
STYLE
  5
11
330
3
100
AcDbSymbolTableRecord
100
AcDbTextStyleTableRecord
  2
Standard
 70
     0
 40
0.0
 41
1.0
 50
0.0
 71
     0
 42
12.5
  3
txt
  4

  0
STYLE
  5
B5
330
3
100
AcDbSymbolTableRecord
100
AcDbTextStyleTableRecord
  2
SLDTEXTSTYLE0
 70
     0
 40
0.0
 41
0.605
 50
0.0
 71
     0
 42
12.5
  3
TXT
  4

  0
ENDTAB
  0
TABLE
  2
VIEW
  5
6
330
0
100
AcDbSymbolTable
 70
     0
  0
ENDTAB
  0
TABLE
  2
UCS
  5
7
330
0
100
AcDbSymbolTable
 70
     0
  0
ENDTAB
  0
TABLE
  2
APPID
  5
9
330
0
100
AcDbSymbolTable
 70
     1
  0
APPID
  5
12
330
9
100
AcDbSymbolTableRecord
100
AcDbRegAppTableRecord
  2
ACAD
 70
     0
  0
ENDTAB
  0
TABLE
  2
DIMSTYLE
  5
A
330
0
100
AcDbSymbolTable
 70
     1
100
AcDbDimStyleTable
  0
DIMSTYLE
105
27
330
A
100
AcDbSymbolTableRecord
100
AcDbDimStyleTableRecord
  2
ISO-25
 70
     0
 41
2.5
 42
0.625
 43
3.75
 44
1.25
 73
     0
 74
     0
 77
     1
 78
     8
140
2.5
141
2.5
143
0.0393700787
147
0.625
171
     3
172
     1
178
     0
271
     2
272
     2
274
     3
278
    44
283
     0
284
     8
340
11
  0
ENDTAB
  0
TABLE
  2
BLOCK_RECORD
  5
1
330
0
100
AcDbSymbolTable
 70
     3
  0
BLOCK_RECORD
  5
1F
330
1
100
AcDbSymbolTableRecord
100
AcDbBlockTableRecord
  2
*Model_Space
340
22
  0
BLOCK_RECORD
  5
1B
330
1
100
AcDbSymbolTableRecord
100
AcDbBlockTableRecord
  2
*Paper_Space
340
1E
  0
BLOCK_RECORD
  5
23
330
1
100
AcDbSymbolTableRecord
100
AcDbBlockTableRecord
  2
*Paper_Space0
340
26
  0
BLOCK_RECORD
  5
C8
330
1
100
AcDbSymbolTableRecord
100
AcDbBlockTableRecord
  2
SW_NOTE_0
340
0
102
{BLKREFS
331
CE
102
}
  0
BLOCK_RECORD
  5
E8
330
1
100
AcDbSymbolTableRecord
100
AcDbBlockTableRecord
  2
SW_NOTE_0_1
340
0
102
{BLKREFS
331
EE
102
}
  0
ENDTAB
  0
ENDSEC
  0
SECTION
  2
BLOCKS
  0
BLOCK
  5
20
330
1F
100
AcDbEntity
  8
0
100
AcDbBlockBegin
  2
*Model_Space
 70
     0
 10
0.0
 20
0.0
 30
0.0
  3
*Model_Space
  1

  0
ENDBLK
  5
21
330
1F
100
AcDbEntity
  8
0
100
AcDbBlockEnd
  0
BLOCK
  5
1C
330
1B
100
AcDbEntity
 67
     1
  8
0
100
AcDbBlockBegin
  2
*Paper_Space
 70
     0
 10
0.0
 20
0.0
 30
0.0
  3
*Paper_Space
  1

  0
ENDBLK
  5
1D
330
1B
100
AcDbEntity
 67
     1
  8
0
100
AcDbBlockEnd
  0
BLOCK
  5
24
330
23
100
AcDbEntity
  8
0
100
AcDbBlockBegin
  2
*Paper_Space0
 70
     0
 10
0.0
 20
0.0
 30
0.0
  3
*Paper_Space0
  1

  0
ENDBLK
  5
25
330
23
100
AcDbEntity
  8
0
100
AcDbBlockEnd
  0
BLOCK
  5
C9
330
C8
100
AcDbEntity
  8
0
100
AcDbBlockBegin
  2
SW_NOTE_0
 70
     0
 10
0.0
 20
0.0
 30
0.0
  3
SW_NOTE_0
  1

  0
MTEXT
  5
CB
330
C8
100
AcDbEntity
  8
SINGLE_ARTICLE_DRW
 62
     0
100
AcDbMText
 10
0.0
 20
11.6016096579
 30
0.0
 40
9.0
 41
0.0
 71
     1
 72
     1
  1
The reproduction, distribution and utilization of this document as well as the communication of its contents to
  7
SLDTEXTSTYLE0
 73
     1
 44
1.0
  0
MTEXT
  5
CC
330
C8
100
AcDbEntity
  8
SINGLE_ARTICLE_DRW
 62
     0
100
AcDbMText
 10
0.0
 20
0.0016098055
 30
0.0
 40
9.0
 41
0.0
 71
     1
 72
     1
  1
others without express authorization is prohibited. Offenders will be held liable for the payment of damages.
  7
SLDTEXTSTYLE0
 73
     1
 44
1.0
  0
MTEXT
  5
CD
330
C8
100
AcDbEntity
  8
SINGLE_ARTICLE_DRW
 62
     0
100
AcDbMText
 10
0.0
 20
-11.598390047
 30
0.0
 40
9.0
 41
0.0
 71
     1
 72
     1
  1
All rights reserved in the event of the grant of a patent, utility model or design. Observe copyright by ISO 16016
  7
SLDTEXTSTYLE0
 73
     1
 44
1.0
  0
ENDBLK
  5
CA
330
C8
100
AcDbEntity
  8
0
100
AcDbBlockEnd
  0
BLOCK
  5
E9
330
E8
100
AcDbEntity
  8
0
100
AcDbBlockBegin
  2
SW_NOTE_0_1
 70
     0
 10
0.0
 20
0.0
 30
0.0
  3
SW_NOTE_0_1
  1

  0
MTEXT
  5
EB
330
E8
100
AcDbEntity
  8
MARKETING_DRW
 62
     0
100
AcDbMText
 10
0.0
 20
11.6016096579
 30
0.0
 40
9.0
 41
0.0
 71
     1
 72
     1
  1
The reproduction, distribution and utilization of this document as well as the communication of its contents to
  7
SLDTEXTSTYLE0
 73
     1
 44
1.0
  0
MTEXT
  5
EC
330
E8
100
AcDbEntity
  8
MARKETING_DRW
 62
     0
100
AcDbMText
 10
0.0
 20
-0.0233903849
 30
0.0
 40
9.0
 41
0.0
 71
     1
 72
     1
  1
others without express authorization is prohibited. Offenders will be held liable for the payment of damages.
  7
SLDTEXTSTYLE0
 73
     1
 44
1.0
  0
MTEXT
  5
ED
330
E8
100
AcDbEntity
  8
MARKETING_DRW
 62
     0
100
AcDbMText
 10
0.0
 20
-11.6483904277
 30
0.0
 40
9.0
 41
0.0
 71
     1
 72
     1
  1
All rights reserved in the event of the grant of a patent, utility model or design. Observe copyright by ISO 16016
  7
SLDTEXTSTYLE0
 73
     1
 44
1.0
  0
ENDBLK
  5
EA
330
E8
100
AcDbEntity
  8
0
100
AcDbBlockEnd
  0
ENDSEC
  0
SECTION
  2
ENTITIES
  0
LINE
  5
7C
330
1F
100
AcDbEntity
  8
SINGLE_ARTICLE_DRW
  6
CENTERX2
 62
     7
100
AcDbLine
 10
2825.0
 20
200.0
 30
0.0
 11
2850.0
 21
200.0
 31
0.0
  0
LINE
  5
7D
330
1F
100
AcDbEntity
  8
SINGLE_ARTICLE_DRW
  6
CENTERX2
 62
     7
100
AcDbLine
 10
2837.5
 20
212.5
 30
0.0
 11
2837.5
 21
187.5
 31
0.0
  0
LINE
  5
7E
330
1F
100
AcDbEntity
  8
SINGLE_ARTICLE_DRW
  6
CENTERX2
 62
     7
100
AcDbLine
 10
2785.0
 20
200.0
 30
0.0
 11
2820.0
 21
200.0
 31
0.0
  0
LINE
  5
7F
330
1F
100
AcDbEntity
  8
SINGLE_ARTICLE_DRW
 62
     7
100
AcDbLine
 10
2790.0
 20
194.95
 30
0.0
 11
2815.0
 21
190.0
 31
0.0
  0
LINE
  5
80
330
1F
100
AcDbEntity
  8
SINGLE_ARTICLE_DRW
 62
     7
100
AcDbLine
 10
2790.0
 20
205.05
 30
0.0
 11
2790.0
 21
194.95
 31
0.0
  0
LINE
  5
81
330
1F
100
AcDbEntity
  8
SINGLE_ARTICLE_DRW
 62
     7
100
AcDbLine
 10
2815.0
 20
210.0
 30
0.0
 11
2790.0
 21
205.05
 31
0.0
  0
LINE
  5
82
330
1F
100
AcDbEntity
  8
SINGLE_ARTICLE_DRW
 62
     7
100
AcDbLine
 10
2815.0
 20
190.0
 30
0.0
 11
2815.0
 21
210.0
 31
0.0
  0
LINE
  5
83
330
1F
100
AcDbEntity
  8
SINGLE_ARTICLE_DRW
 62
     7
100
AcDbLine
 10
2920.0
 20
50.0
 30
0.0
 11
2920.0
 21
340.0
 31
0.0
  0
LINE
  5
84
330
1F
100
AcDbEntity
  8
SINGLE_ARTICLE_DRW
 62
     7
100
AcDbLine
 10
2020.0
 20
340.0
 30
0.0
 11
2020.0
 21
50.0
 31
0.0
  0
LINE
  5
85
330
1F
100
AcDbEntity
  8
SINGLE_ARTICLE_DRW
 62
     7
100
AcDbLine
 10
2570.0
 20
95.0
 30
0.0
 11
2570.0
 21
50.0
 31
0.0
  0
LINE
  5
86
330
1F
100
AcDbEntity
  8
SINGLE_ARTICLE_DRW
 62
     7
100
AcDbLine
 10
2720.0
 20
50.0
 30
0.0
 11
2720.0
 21
95.0
 31
0.0
  0
LINE
  5
87
330
1F
100
AcDbEntity
  8
SINGLE_ARTICLE_DRW
 62
     7
100
AcDbLine
 10
2870.0
 20
95.0
 30
0.0
 11
2870.0
 21
50.0
 31
0.0
  0
LINE
  5
88
330
1F
100
AcDbEntity
  8
SINGLE_ARTICLE_DRW
 62
     7
100
AcDbLine
 10
2770.0
 20
320.0
 30
0.0
 11
2770.0
 21
185.0
 31
0.0
  0
LINE
  5
89
330
1F
100
AcDbEntity
  8
SINGLE_ARTICLE_DRW
 62
     7
100
AcDbLine
 10
2920.0
 20
320.0
 30
0.0
 11
2020.0
 21
320.0
 31
0.0
  0
LINE
  5
8A
330
1F
100
AcDbEntity
  8
SINGLE_ARTICLE_DRW
 62
     7
100
AcDbLine
 10
2670.0
 20
95.0
 30
0.0
 11
2670.0
 21
50.0
 31
0.0
  0
LINE
  5
8B
330
1F
100
AcDbEntity
  8
SINGLE_ARTICLE_DRW
 62
     7
100
AcDbLine
 10
2920.0
 20
275.0
 30
0.0
 11
2270.0
 21
275.0
 31
0.0
  0
LINE
  5
8C
330
1F
100
AcDbEntity
  8
SINGLE_ARTICLE_DRW
 62
     7
100
AcDbLine
 10
2520.0
 20
230.0
 30
0.0
 11
2520.0
 21
185.0
 31
0.0
  0
LINE
  5
8D
330
1F
100
AcDbEntity
  8
SINGLE_ARTICLE_DRW
 62
     7
100
AcDbLine
 10
2920.0
 20
230.0
 30
0.0
 11
2270.0
 21
230.0
 31
0.0
  0
LINE
  5
8E
330
1F
100
AcDbEntity
  8
SINGLE_ARTICLE_DRW
 62
     7
100
AcDbLine
 10
2270.0
 20
320.0
 30
0.0
 11
2270.0
 21
185.0
 31
0.0
  0
LINE
  5
8F
330
1F
100
AcDbEntity
  8
SINGLE_ARTICLE_DRW
 62
     7
100
AcDbLine
 10
2870.0
 20
230.0
 30
0.0
 11
2870.0
 21
185.0
 31
0.0
  0
LINE
  5
90
330
1F
100
AcDbEntity
  8
SINGLE_ARTICLE_DRW
 62
     7
100
AcDbLine
 10
2920.0
 20
95.0
 30
0.0
 11
2020.0
 21
95.0
 31
0.0
  0
LINE
  5
91
330
1F
100
AcDbEntity
  8
SINGLE_ARTICLE_DRW
 62
     7
100
AcDbLine
 10
2520.0
 20
275.0
 30
0.0
 11
2520.0
 21
320.0
 31
0.0
  0
LINE
  5
92
330
1F
100
AcDbEntity
  8
SINGLE_ARTICLE_DRW
 62
     7
100
AcDbLine
 10
2020.0
 20
340.0
 30
0.0
 11
2920.0
 21
340.0
 31
0.0
  0
LINE
  5
93
330
1F
100
AcDbEntity
  8
SINGLE_ARTICLE_DRW
 62
     7
100
AcDbLine
 10
2020.0
 20
185.0
 30
0.0
 11
2920.0
 21
185.0
 31
0.0
  0
LINE
  5
94
330
1F
100
AcDbEntity
  8
SINGLE_ARTICLE_DRW
 62
     7
100
AcDbLine
 10
2020.0
 20
50.0
 30
0.0
 11
2920.0
 21
50.0
 31
0.0
  0
LINE
  5
95
330
1F
100
AcDbEntity
  8
SINGLE_ARTICLE_DRW
 62
     7
100
AcDbLine
 10
2270.0
 20
275.0
 30
0.0
 11
2020.0
 21
275.0
 31
0.0
  0
LINE
  5
96
330
1F
100
AcDbEntity
  8
MARKETING_DRW
  6
CENTERX2
100
AcDbLine
 10
2825.0
 20
200.0
 30
0.0
 11
2850.0
 21
200.0
 31
0.0
  0
LINE
  5
97
330
1F
100
AcDbEntity
  8
MARKETING_DRW
  6
CENTERX2
100
AcDbLine
 10
2837.5
 20
212.5
 30
0.0
 11
2837.5
 21
187.5
 31
0.0
  0
LINE
  5
98
330
1F
100
AcDbEntity
  8
MARKETING_DRW
  6
CENTERX2
100
AcDbLine
 10
2785.0
 20
200.0
 30
0.0
 11
2820.0
 21
200.0
 31
0.0
  0
LINE
  5
99
330
1F
100
AcDbEntity
  8
MARKETING_DRW
100
AcDbLine
 10
2790.0
 20
194.95
 30
0.0
 11
2815.0
 21
190.0
 31
0.0
  0
LINE
  5
9A
330
1F
100
AcDbEntity
  8
MARKETING_DRW
100
AcDbLine
 10
2790.0
 20
205.05
 30
0.0
 11
2790.0
 21
194.95
 31
0.0
  0
LINE
  5
9B
330
1F
100
AcDbEntity
  8
MARKETING_DRW
100
AcDbLine
 10
2815.0
 20
210.0
 30
0.0
 11
2790.0
 21
205.05
 31
0.0
  0
LINE
  5
9C
330
1F
100
AcDbEntity
  8
MARKETING_DRW
100
AcDbLine
 10
2815.0
 20
190.0
 30
0.0
 11
2815.0
 21
210.0
 31
0.0
  0
LINE
  5
9D
330
1F
100
AcDbEntity
  8
MARKETING_DRW
100
AcDbLine
 10
2920.0
 20
50.0
 30
0.0
 11
2920.0
 21
230.0
 31
0.0
  0
LINE
  5
9E
330
1F
100
AcDbEntity
  8
MARKETING_DRW
100
AcDbLine
 10
2020.0
 20
50.0
 30
0.0
 11
2920.0
 21
50.0
 31
0.0
  0
LINE
  5
9F
330
1F
100
AcDbEntity
  8
MARKETING_DRW
100
AcDbLine
 10
2020.0
 20
275.0
 30
0.0
 11
2020.0
 21
50.0
 31
0.0
  0
LINE
  5
A0
330
1F
100
AcDbEntity
  8
MARKETING_DRW
100
AcDbLine
 10
2020.0
 20
275.0
 30
0.0
 11
2520.0
 21
275.0
 31
0.0
  0
LINE
  5
A1
330
1F
100
AcDbEntity
  8
MARKETING_DRW
100
AcDbLine
 10
2720.0
 20
50.0
 30
0.0
 11
2720.0
 21
95.0
 31
0.0
  0
LINE
  5
A2
330
1F
100
AcDbEntity
  8
MARKETING_DRW
100
AcDbLine
 10
2870.0
 20
95.0
 30
0.0
 11
2870.0
 21
50.0
 31
0.0
  0
LINE
  5
A3
330
1F
100
AcDbEntity
  8
MARKETING_DRW
100
AcDbLine
 10
2520.0
 20
275.0
 30
0.0
 11
2520.0
 21
230.0
 31
0.0
  0
LINE
  5
A4
330
1F
100
AcDbEntity
  8
MARKETING_DRW
100
AcDbLine
 10
2920.0
 20
230.0
 30
0.0
 11
2270.0
 21
230.0
 31
0.0
  0
LINE
  5
A5
330
1F
100
AcDbEntity
  8
MARKETING_DRW
100
AcDbLine
 10
2270.0
 20
275.0
 30
0.0
 11
2270.0
 21
185.0
 31
0.0
  0
LINE
  5
A6
330
1F
100
AcDbEntity
  8
MARKETING_DRW
100
AcDbLine
 10
2870.0
 20
230.0
 30
0.0
 11
2870.0
 21
185.0
 31
0.0
  0
LINE
  5
A7
330
1F
100
AcDbEntity
  8
MARKETING_DRW
100
AcDbLine
 10
2920.0
 20
95.0
 30
0.0
 11
2020.0
 21
95.0
 31
0.0
  0
LINE
  5
A8
330
1F
100
AcDbEntity
  8
MARKETING_DRW
100
AcDbLine
 10
2020.0
 20
185.0
 30
0.0
 11
2920.0
 21
185.0
 31
0.0
  0
LINE
  5
A9
330
1F
100
AcDbEntity
  8
MARKETING_DRW
100
AcDbLine
 10
2020.0
 20
50.0
 30
0.0
 11
2920.0
 21
50.0
 31
0.0
  0
LINE
  5
AA
330
1F
100
AcDbEntity
  8
MARKETING_DRW
100
AcDbLine
 10
2770.0
 20
230.0
 30
0.0
 11
2770.0
 21
185.0
 31
0.0
  0
LINE
  5
AB
330
1F
100
AcDbEntity
  8
MARKETING_DRW
100
AcDbLine
 10
2520.0
 20
275.0
 30
0.0
 11
2770.0
 21
275.0
 31
0.0
  0
LINE
  5
AC
330
1F
100
AcDbEntity
  8
MARKETING_DRW
100
AcDbLine
 10
2770.0
 20
275.0
 30
0.0
 11
2770.0
 21
230.0
 31
0.0
  0
LINE
  5
AD
330
1F
100
AcDbEntity
  8
MARKETING_DRW
100
AcDbLine
 10
2770.0
 20
275.0
 30
0.0
 11
2920.0
 21
275.0
 31
0.0
  0
LINE
  5
AE
330
1F
100
AcDbEntity
  8
MARKETING_DRW
100
AcDbLine
 10
2920.0
 20
275.0
 30
0.0
 11
2920.0
 21
230.0
 31
0.0
  0
LINE
  5
AF
330
1F
100
AcDbEntity
  8
MARKETING_DRW
100
AcDbLine
 10
2695.0
 20
275.0
 30
0.0
 11
2695.0
 21
230.0
 31
0.0
  0
LINE
  5
B0
330
1F
100
AcDbEntity
  8
MARKETING_DRW
100
AcDbLine
 10
2520.0
 20
230.0
 30
0.0
 11
2520.0
 21
185.0
 31
0.0
  0
CIRCLE
  5
B1
330
1F
100
AcDbEntity
  8
SINGLE_ARTICLE_DRW
 62
     7
100
AcDbCircle
 10
2837.5
 20
200.0
 30
0.0
 40
5.000000000000224
  0
CIRCLE
  5
B2
330
1F
100
AcDbEntity
  8
SINGLE_ARTICLE_DRW
 62
     7
100
AcDbCircle
 10
2837.5
 20
200.0
 30
0.0
 40
10.00000000000046
  0
CIRCLE
  5
B3
330
1F
100
AcDbEntity
  8
MARKETING_DRW
100
AcDbCircle
 10
2837.5
 20
200.0
 30
0.0
 40
4.99999999999979
  0
CIRCLE
  5
B4
330
1F
100
AcDbEntity
  8
MARKETING_DRW
100
AcDbCircle
 10
2837.5
 20
200.0
 30
0.0
 40
10.00000000000002
  0
MTEXT
  5
B6
330
1F
100
AcDbEntity
  8
SINGLE_ARTICLE_DRW
100
AcDbMText
 10
2025.0
 20
179.9766099061
 30
0.0
 40
9.0
 41
0.0
 71
     1
 72
     1
  1
title:
  7
SLDTEXTSTYLE0
 73
     1
 44
1.0
  0
MTEXT
  5
B7
330
1F
100
AcDbEntity
  8
SINGLE_ARTICLE_DRW
100
AcDbMText
 10
2025.0
 20
314.9766099061
 30
0.0
 40
9.0
 41
0.0
 71
     1
 72
     1
  1
technical reference:
  7
SLDTEXTSTYLE0
 73
     1
 44
1.0
  0
MTEXT
  5
B8
330
1F
100
AcDbEntity
  8
SINGLE_ARTICLE_DRW
100
AcDbMText
 10
2894.7829862405
 20
69.9675136777
 30
0.0
 40
12.5
 41
0.0
 71
     2
 72
     1
  1
1/1
  7
SLDTEXTSTYLE0
 73
     1
 44
1.0
  0
MTEXT
  5
B9
330
1F
100
AcDbEntity
  8
SINGLE_ARTICLE_DRW
100
AcDbMText
 10
2894.7829862405
 20
204.9675136777
 30
0.0
 40
12.5
 41
0.0
 71
     2
 72
     1
  1
1:5
  7
SLDTEXTSTYLE0
 73
     1
 44
1.0
  0
MTEXT
  5
BA
330
1F
100
AcDbEntity
  8
SINGLE_ARTICLE_DRW
100
AcDbMText
 10
2275.0
 20
314.9766099061
 30
0.0
 40
9.0
 41
0.0
 71
     1
 72
     1
  1
general tolerance:
  7
SLDTEXTSTYLE0
 73
     1
 44
1.0
  0
MTEXT
  5
BB
330
1F
100
AcDbEntity
  8
SINGLE_ARTICLE_DRW
100
AcDbMText
 10
2775.0
 20
249.9675136777
 30
0.0
 40
12.5
 41
0.0
 71
     1
 72
     1
  1
production drw.
  7
SLDTEXTSTYLE0
 73
     1
 44
1.0
  0
MTEXT
  5
BC
330
1F
100
AcDbEntity
  8
SINGLE_ARTICLE_DRW
100
AcDbMText
 10
2275.0
 20
269.9766099061
 30
0.0
 40
9.0
 41
0.0
 71
     1
 72
     1
  1
material:
  7
SLDTEXTSTYLE0
 73
     1
 44
1.0
  0
MTEXT
  5
BD
330
1F
100
AcDbEntity
  8
SINGLE_ARTICLE_DRW
100
AcDbMText
 10
2775.0
 20
224.9766099061
 30
0.0
 40
9.0
 41
0.0
 71
     1
 72
     1
  1
projection:ISO-E
  7
SLDTEXTSTYLE0
 73
     1
 44
1.0
  0
MTEXT
  5
BE
330
1F
100
AcDbEntity
  8
SINGLE_ARTICLE_DRW
100
AcDbMText
 10
2894.7500000913
 20
89.9766099061
 30
0.0
 40
9.0
 41
0.0
 71
     2
 72
     1
  1
sheet:
  7
SLDTEXTSTYLE0
 73
     1
 44
1.0
  0
MTEXT
  5
BF
330
1F
100
AcDbEntity
  8
SINGLE_ARTICLE_DRW
100
AcDbMText
 10
2725.0
 20
89.9766099061
 30
0.0
 40
9.0
 41
0.0
 71
     1
 72
     1
  1
release date:
  7
SLDTEXTSTYLE0
 73
     1
 44
1.0
  0
MTEXT
  5
C0
330
1F
100
AcDbEntity
  8
SINGLE_ARTICLE_DRW
100
AcDbMText
 10
2525.0
 20
224.9766099061
 30
0.0
 40
9.0
 41
0.0
 71
     1
 72
     1
  1
reviewed by:
  7
SLDTEXTSTYLE0
 73
     1
 44
1.0
  0
MTEXT
  5
C1
330
1F
100
AcDbEntity
  8
SINGLE_ARTICLE_DRW
100
AcDbMText
 10
2694.8125000894
 20
89.9766099061
 30
0.0
 40
9.0
 41
0.0
 71
     2
 72
     1
  1
index:
  7
SLDTEXTSTYLE0
 73
     1
 44
1.0
  0
MTEXT
  5
C2
330
1F
100
AcDbEntity
  8
SINGLE_ARTICLE_DRW
100
AcDbMText
 10
2775.0
 20
269.9766099061
 30
0.0
 40
9.0
 41
0.0
 71
     1
 72
     1
  1
documenttype:
  7
SLDTEXTSTYLE0
 73
     1
 44
1.0
  0
MTEXT
  5
C3
330
1F
100
AcDbEntity
  8
SINGLE_ARTICLE_DRW
100
AcDbMText
 10
2619.034373872
 20
89.9766099061
 30
0.0
 40
9.0
 41
0.0
 71
     2
 72
     1
  1
drawing-no.:
  7
SLDTEXTSTYLE0
 73
     1
 44
1.0
  0
MTEXT
  5
C4
330
1F
100
AcDbEntity
  8
SINGLE_ARTICLE_DRW
100
AcDbMText
 10
2775.0
 20
314.9766099061
 30
0.0
 40
9.0
 41
0.0
 71
     1
 72
     1
  1
weight:
  7
SLDTEXTSTYLE0
 73
     1
 44
1.0
  0
MTEXT
  5
C5
330
1F
100
AcDbEntity
  8
SINGLE_ARTICLE_DRW
100
AcDbMText
 10
2894.8750000875
 20
224.9766099061
 30
0.0
 40
9.0
 41
0.0
 71
     2
 72
     1
  1
scale:
  7
SLDTEXTSTYLE0
 73
     1
 44
1.0
  0
MTEXT
  5
C6
330
1F
100
AcDbEntity
  8
SINGLE_ARTICLE_DRW
100
AcDbMText
 10
2525.0
 20
314.9766099061
 30
0.0
 40
9.0
 41
0.0
 71
     1
 72
     1
  1
surface:
  7
SLDTEXTSTYLE0
 73
     1
 44
1.0
  0
MTEXT
  5
C7
330
1F
100
AcDbEntity
  8
SINGLE_ARTICLE_DRW
100
AcDbMText
 10
2275.0
 20
224.9766099061
 30
0.0
 40
9.0
 41
0.0
 71
     1
 72
     1
  1
created by:
  7
SLDTEXTSTYLE0
 73
     1
 44
1.0
  0
INSERT
  5
CE
330
1F
100
AcDbEntity
  8
SINGLE_ARTICLE_DRW
100
AcDbBlockReference
  2
SW_NOTE_0
 10
2025.0
 20
78.4000001475
 30
0.0
  0
MTEXT
  5
CF
330
1F
100
AcDbEntity
  8
SINGLE_ARTICLE_DRW
100
AcDbMText
 10
2025.0
 20
114.9675136777
 30
0.0
 40
12.5
 41
0.0
 71
     1
 72
     1
  1
ZB Duschrinne C mit Spalt und Flansch, mit DN40 Seitenauslaß, mit FAT GV25, International
  7
SLDTEXTSTYLE0
 73
     1
 44
1.0
  0
MTEXT
  5
D0
330
1F
100
AcDbEntity
  8
SINGLE_ARTICLE_DRW
100
AcDbMText
 10
2025.0
 20
137.4675136777
 30
0.0
 40
12.5
 41
0.0
 71
     1
 72
     1
  1
ASM Shower Channel C with gap and flange, with DN40 Side outlet, with FAT GV25 L680, International
  7
SLDTEXTSTYLE0
 73
     1
 44
1.0
  0
MTEXT
  5
D1
330
1F
100
AcDbEntity
  8
SINGLE_ARTICLE_DRW
100
AcDbMText
 10
2025.0
 20
295.0022357116
 30
0.0
 40
12.5
 41
0.0
 71
     1
 72
     1
  1
Bohms, Michael
  7
SLDTEXTSTYLE0
 73
     1
 44
1.0
  0
MTEXT
  5
D2
330
1F
100
AcDbEntity
  8
SINGLE_ARTICLE_DRW
100
AcDbMText
 10
2619.0407964215
 20
69.9675136777
 30
0.0
 40
12.5
 41
0.0
 71
     2
 72
     1
  1
1088216-O
  7
SLDTEXTSTYLE0
 73
     1
 44
1.0
  0
MTEXT
  5
D3
330
1F
100
AcDbEntity
  8
SINGLE_ARTICLE_DRW
100
AcDbMText
 10
2694.7395830229
 20
69.9675136777
 30
0.0
 40
12.5
 41
0.0
 71
     2
 72
     1
  1
001
  7
SLDTEXTSTYLE0
 73
     1
 44
1.0
  0
MTEXT
  5
D4
330
1F
100
AcDbEntity
  8
SINGLE_ARTICLE_DRW
100
AcDbMText
 10
2025.0
 20
159.9675136777
 30
0.0
 40
12.5
 41
0.0
 71
     1
 72
     1
  1
ACO ShowerDrain
  7
SLDTEXTSTYLE0
 73
     1
 44
1.0
  0
MTEXT
  5
D5
330
1F
100
AcDbEntity
  8
SINGLE_ARTICLE_DRW
100
AcDbMText
 10
2025.0
 20
334.9766099061
 30
0.0
 40
9.0
 41
0.0
 71
     1
 72
     1
  1
modification:
  7
SLDTEXTSTYLE0
 73
     1
 44
1.0
  0
MTEXT
  5
D6
330
1F
100
AcDbEntity
  8
SINGLE_ARTICLE_DRW
100
AcDbMText
 10
2775.0
 20
294.9675136777
 30
0.0
 40
12.5
 41
0.0
 71
     1
 72
     1
  1
1.532 kg
  7
SLDTEXTSTYLE0
 73
     1
 44
1.0
  0
MTEXT
  5
D7
330
1F
100
AcDbEntity
  8
MARKETING_DRW
100
AcDbMText
 10
2025.0
 20
114.9675136777
 30
0.0
 40
12.5
 41
0.0
 71
     1
 72
     1
  1
ZB Duschrinne C mit Spalt und Flansch, mit DN40 Seitenauslaß, mit FAT GV25, International
  7
SLDTEXTSTYLE0
 73
     1
 44
1.0
  0
MTEXT
  5
D8
330
1F
100
AcDbEntity
  8
MARKETING_DRW
100
AcDbMText
 10
2025.0
 20
137.4675136777
 30
0.0
 40
12.5
 41
0.0
 71
     1
 72
     1
  1
ASM Shower Channel C with gap and flange, with DN40 Side outlet, with FAT GV25 L680, International
  7
SLDTEXTSTYLE0
 73
     1
 44
1.0
  0
MTEXT
  5
D9
330
1F
100
AcDbEntity
  8
MARKETING_DRW
100
AcDbMText
 10
2606.5407964215
 20
249.9675136777
 30
0.0
 40
12.5
 41
0.0
 71
     2
 72
     1
  1
1088216-O
  7
SLDTEXTSTYLE0
 73
     1
 44
1.0
  0
MTEXT
  5
DA
330
1F
100
AcDbEntity
  8
MARKETING_DRW
100
AcDbMText
 10
2732.2395830229
 20
252.0971433073
 30
0.0
 40
12.5
 41
0.0
 71
     2
 72
     1
  1
001
  7
SLDTEXTSTYLE0
 73
     1
 44
1.0
  0
MTEXT
  5
DB
330
1F
100
AcDbEntity
  8
MARKETING_DRW
100
AcDbMText
 10
2025.0
 20
159.9675136777
 30
0.0
 40
12.5
 41
0.0
 71
     1
 72
     1
  1
ACO ShowerDrain
  7
SLDTEXTSTYLE0
 73
     1
 44
1.0
  0
MTEXT
  5
DC
330
1F
100
AcDbEntity
  8
MARKETING_DRW
100
AcDbMText
 10
2775.0
 20
269.9766099061
 30
0.0
 40
9.0
 41
0.0
 71
     1
 72
     1
  1
documenttype:
  7
SLDTEXTSTYLE0
 73
     1
 44
1.0
  0
MTEXT
  5
DD
330
1F
100
AcDbEntity
  8
MARKETING_DRW
100
AcDbMText
 10
2275.0
 20
224.9766099061
 30
0.0
 40
9.0
 41
0.0
 71
     1
 72
     1
  1
created by:
  7
SLDTEXTSTYLE0
 73
     1
 44
1.0
  0
MTEXT
  5
DE
330
1F
100
AcDbEntity
  8
MARKETING_DRW
100
AcDbMText
 10
2606.534373872
 20
270.0578764559
 30
0.0
 40
9.0
 41
0.0
 71
     2
 72
     1
  1
drawing-no.:
  7
SLDTEXTSTYLE0
 73
     1
 44
1.0
  0
MTEXT
  5
DF
330
1F
100
AcDbEntity
  8
MARKETING_DRW
100
AcDbMText
 10
2525.0
 20
224.9766099061
 30
0.0
 40
9.0
 41
0.0
 71
     1
 72
     1
  1
reviewed by:
  7
SLDTEXTSTYLE0
 73
     1
 44
1.0
  0
MTEXT
  5
E0
330
1F
100
AcDbEntity
  8
MARKETING_DRW
100
AcDbMText
 10
2775.0
 20
224.9766099061
 30
0.0
 40
9.0
 41
0.0
 71
     1
 72
     1
  1
projection:ISO-E
  7
SLDTEXTSTYLE0
 73
     1
 44
1.0
  0
MTEXT
  5
E1
330
1F
100
AcDbEntity
  8
MARKETING_DRW
100
AcDbMText
 10
2894.7500000913
 20
89.9766099061
 30
0.0
 40
9.0
 41
0.0
 71
     2
 72
     1
  1
sheet:
  7
SLDTEXTSTYLE0
 73
     1
 44
1.0
  0
MTEXT
  5
E2
330
1F
100
AcDbEntity
  8
MARKETING_DRW
100
AcDbMText
 10
2894.7829862405
 20
69.9675136777
 30
0.0
 40
12.5
 41
0.0
 71
     2
 72
     1
  1
1/1
  7
SLDTEXTSTYLE0
 73
     1
 44
1.0
  0
MTEXT
  5
E3
330
1F
100
AcDbEntity
  8
MARKETING_DRW
100
AcDbMText
 10
2725.0
 20
89.9766099061
 30
0.0
 40
9.0
 41
0.0
 71
     1
 72
     1
  1
release date:
  7
SLDTEXTSTYLE0
 73
     1
 44
1.0
  0
MTEXT
  5
E4
330
1F
100
AcDbEntity
  8
MARKETING_DRW
100
AcDbMText
 10
2732.3125000894
 20
269.9766099061
 30
0.0
 40
9.0
 41
0.0
 71
     2
 72
     1
  1
index:
  7
SLDTEXTSTYLE0
 73
     1
 44
1.0
  0
MTEXT
  5
E5
330
1F
100
AcDbEntity
  8
MARKETING_DRW
100
AcDbMText
 10
2025.0
 20
179.9766099061
 30
0.0
 40
9.0
 41
0.0
 71
     1
 72
     1
  1
title:
  7
SLDTEXTSTYLE0
 73
     1
 44
1.0
  0
MTEXT
  5
E6
330
1F
100
AcDbEntity
  8
MARKETING_DRW
100
AcDbMText
 10
2894.8750000875
 20
224.9766099061
 30
0.0
 40
9.0
 41
0.0
 71
     2
 72
     1
  1
scale:
  7
SLDTEXTSTYLE0
 73
     1
 44
1.0
  0
MTEXT
  5
E7
330
1F
100
AcDbEntity
  8
MARKETING_DRW
100
AcDbMText
 10
2894.7829862405
 20
204.9675136777
 30
0.0
 40
12.5
 41
0.0
 71
     2
 72
     1
  1
1:5
  7
SLDTEXTSTYLE0
 73
     1
 44
1.0
  0
INSERT
  5
EE
330
1F
100
AcDbEntity
  8
MARKETING_DRW
100
AcDbBlockReference
  2
SW_NOTE_0_1
 10
2025.0
 20
78.3750002482
 30
0.0
  0
MTEXT
  5
EF
330
1F
100
AcDbEntity
  8
MARKETING_DRW
100
AcDbMText
 10
2775.0
 20
249.9675136777
 30
0.0
 40
12.5
 41
0.0
 71
     1
 72
     1
  1
marketing drw.
  7
SLDTEXTSTYLE0
 73
     1
 44
1.0
  0
LINE
  5
F0
330
1F
100
AcDbEntity
  8
0
  6
Continuous
 62
     7
370
    35
100
AcDbLine
 10
1536.3575319454
 20
1356.5172508944
 30
0.0
 11
856.3575319454
 21
1356.5172508944
 31
0.0
  0
LINE
  5
F1
330
1F
100
AcDbEntity
  8
0
  6
Continuous
 62
     7
370
    35
100
AcDbLine
 10
1115.3575319454
 20
1336.5320758829
 30
0.0
 11
1115.3575319454
 21
1333.5208123952
 31
0.0
  0
LINE
  5
F2
330
1F
100
AcDbEntity
  8
0
  6
Continuous
 62
     7
370
    35
100
AcDbLine
 10
1277.3575319454
 20
1333.5208123952
 30
0.0
 11
1277.3575319454
 21
1336.5320758829
 31
0.0
  0
ARC
  5
F3
330
1F
100
AcDbEntity
  8
0
  6
Continuous
 62
     7
370
    35
100
AcDbCircle
 10
1113.3575319454
 20
1336.5240342355
 30
0.0
 40
1.999999999999966
100
AcDbArc
 50
0.2172817996
 51
85.9305858724
  0
ARC
  5
F4
330
1F
100
AcDbEntity
  8
0
  6
Continuous
 62
     7
370
    35
100
AcDbCircle
 10
1279.3575319454
 20
1336.5240342355
 30
0.0
 40
1.999999999999936
100
AcDbArc
 50
94.065898605
 51
179.7696267909
  0
LINE
  5
F5
330
1F
100
AcDbEntity
  8
0
  6
Continuous
 62
     7
370
    35
100
AcDbLine
 10
1279.2166700018
 20
1338.5188618147
 30
0.0
 11
1536.3575319454
 21
1338.5188618147
 31
0.0
  0
LINE
  5
F6
330
1F
100
AcDbEntity
  8
0
  6
Continuous
 62
     7
370
    35
100
AcDbLine
 10
856.3575319454
 20
1338.5188618147
 30
0.0
 11
1113.4983938889
 21
1338.5188618147
 31
0.0
  0
LINE
  5
F7
330
1F
100
AcDbEntity
  8
0
  6
Continuous
 62
     7
370
    35
100
AcDbLine
 10
1268.0491112427
 20
1287.0708123948
 30
0.0
 11
1284.8575319454
 21
1287.0708123948
 31
0.0
  0
LINE
  5
F8
330
1F
100
AcDbEntity
  8
0
  6
Continuous
 62
     7
370
    35
100
AcDbLine
 10
1284.8575319454
 20
1327.0708123948
 30
0.0
 11
1281.2783528699
 21
1327.0708123948
 31
0.0
  0
LINE
  5
F9
330
1F
100
AcDbEntity
  8
0
  6
Continuous
 62
     7
370
    35
100
AcDbLine
 10
1284.8575319454
 20
1287.0708123948
 30
0.0
 11
1324.5514804031
 21
1287.0708123948
 31
0.0
  0
LINE
  5
FA
330
1F
100
AcDbEntity
  8
0
  6
Continuous
 62
     7
370
    35
100
AcDbLine
 10
1324.5514804031
 20
1327.0708123948
 30
0.0
 11
1284.8575319454
 21
1327.0708123948
 31
0.0
  0
ARC
  5
FB
330
1F
100
AcDbEntity
  8
0
  6
Continuous
 62
     7
370
    35
100
AcDbCircle
 10
1324.5514804031
 20
1324.0708123948
 30
0.0
 40
3.0
100
AcDbArc
 50
78.3499964744
 51
90.0
  0
ARC
  5
FC
330
1F
100
AcDbEntity
  8
0
  6
Continuous
 62
     7
370
    35
100
AcDbCircle
 10
1324.5514804031
 20
1290.0708123948
 30
0.0
 40
2.999999999999961
100
AcDbArc
 50
270.0
 51
281.6500035256
  0
LINE
  5
FD
330
1F
100
AcDbEntity
  8
0
  6
Continuous
 62
     7
370
    35
100
AcDbLine
 10
1325.1572786393
 20
1287.132614223
 30
0.0
 11
1329.8575319454
 21
1288.1017133089
 31
0.0
  0
LINE
  5
FE
330
1F
100
AcDbEntity
  8
0
  6
Continuous
 62
     7
370
    35
100
AcDbLine
 10
1329.8575319454
 20
1326.0399114808
 30
0.0
 11
1325.1572786393
 21
1327.0090105667
 31
0.0
  0
LINE
  5
FF
330
1F
100
AcDbEntity
  8
0
  6
Continuous
 62
     7
370
    35
100
AcDbLine
 10
856.3575319454
 20
1344.5172508944
 30
0.0
 11
856.3575319454
 21
1343.5172508944
 31
0.0
  0
LINE
  5
100
330
1F
100
AcDbEntity
  8
0
  6
Continuous
 62
     7
370
    35
100
AcDbLine
 10
1536.3575319454
 20
1344.5172508944
 30
0.0
 11
856.3575319454
 21
1344.5172508944
 31
0.0
  0
LINE
  5
101
330
1F
100
AcDbEntity
  8
0
  6
Continuous
 62
     7
370
    35
100
AcDbLine
 10
1536.3575319454
 20
1343.5172508944
 30
0.0
 11
856.3575319454
 21
1343.5172508944
 31
0.0
  0
LINE
  5
102
330
1F
100
AcDbEntity
  8
0
  6
Continuous
 62
     7
370
    35
100
AcDbLine
 10
1536.3575319454
 20
1344.5172508944
 30
0.0
 11
1536.3575319454
 21
1343.5172508944
 31
0.0
  0
LINE
  5
103
330
1F
100
AcDbEntity
  8
0
  6
Continuous
 62
     7
370
    35
100
AcDbLine
 10
856.3575319454
 20
1345.5172508944
 30
0.0
 11
856.3575319454
 21
1344.5172508944
 31
0.0
  0
LINE
  5
104
330
1F
100
AcDbEntity
  8
0
  6
Continuous
 62
     7
370
    35
100
AcDbLine
 10
1536.3575319454
 20
1344.5172508944
 30
0.0
 11
1536.3575319454
 21
1345.5172508944
 31
0.0
  0
LINE
  5
105
330
1F
100
AcDbEntity
  8
0
  6
Continuous
 62
     7
370
    35
100
AcDbLine
 10
1536.3575319454
 20
1355.0172508944
 30
0.0
 11
1536.3575319454
 21
1345.5172508944
 31
0.0
  0
LINE
  5
106
330
1F
100
AcDbEntity
  8
0
  6
Continuous
 62
     7
370
    35
100
AcDbLine
 10
856.3575319454
 20
1345.5172508944
 30
0.0
 11
856.3575319454
 21
1355.0172508944
 31
0.0
  0
LINE
  5
107
330
1F
100
AcDbEntity
  8
0
  6
Continuous
 62
     7
370
    35
100
AcDbLine
 10
1536.3575319454
 20
1356.5172508944
 30
0.0
 11
1536.3575319454
 21
1355.5172508944
 31
0.0
  0
LINE
  5
108
330
1F
100
AcDbEntity
  8
0
  6
Continuous
 62
     7
370
    35
100
AcDbLine
 10
856.3575319454
 20
1355.5172508944
 30
0.0
 11
856.3575319454
 21
1356.5172508944
 31
0.0
  0
LINE
  5
109
330
1F
100
AcDbEntity
  8
0
  6
Continuous
 62
     7
370
    35
100
AcDbLine
 10
856.3575319454
 20
1342.2791693837
 30
0.0
 11
856.3575319454
 21
1343.5172508944
 31
0.0
  0
LINE
  5
10A
330
1F
100
AcDbEntity
  8
0
  6
Continuous
 62
     7
370
    35
100
AcDbLine
 10
1536.3575319454
 20
1342.2791693837
 30
0.0
 11
1536.3575319454
 21
1343.5172508944
 31
0.0
  0
LINE
  5
10B
330
1F
100
AcDbEntity
  8
0
  6
Continuous
 62
     7
370
    35
100
AcDbLine
 10
1536.3575319454
 20
1341.5831988383
 30
0.0
 11
1536.3575319454
 21
1342.2791693837
 31
0.0
  0
LINE
  5
10C
330
1F
100
AcDbEntity
  8
0
  6
Continuous
 62
     7
370
    35
100
AcDbLine
 10
856.3575319454
 20
1342.2791693837
 30
0.0
 11
856.3575319454
 21
1341.5831988383
 31
0.0
  0
SPLINE
  5
10D
330
1F
100
AcDbEntity
  8
0
  6
Continuous
 62
     7
370
    35
100
AcDbSpline
210
0.0
220
0.0
230
1.0
 70
     8
 71
     3
 72
     8
 73
     4
 74
     0
 42
0.000000001
 43
0.00000001
 40
0.0000000000000255
 40
0.0000000000000255
 40
0.0000000000000255
 40
0.0000000000000255
 40
0.0000564308016788
 40
0.0000564308016788
 40
0.0000564308016788
 40
0.0000564308016788
 10
1279.228994724731
 20
1338.522078473601
 30
0.0
 10
1279.234157128544
 20
1338.523103932737
 30
0.0
 10
1279.23716789644
 20
1338.524179057001
 30
0.0
 10
1279.236990447856
 20
1338.525245416032
 30
0.0
  0
SPLINE
  5
10E
330
1F
100
AcDbEntity
  8
0
  6
Continuous
 62
     7
370
    35
100
AcDbSpline
210
0.0
220
0.0
230
1.0
 70
     8
 71
     3
 72
    14
 73
    10
 74
     0
 42
0.000000001
 43
0.00000001
 40
0.0
 40
0.0
 40
0.0
 40
0.0
 40
0.25
 40
0.25
 40
0.5
 40
0.5
 40
0.75
 40
0.75
 40
1.0
 40
1.0
 40
1.0
 40
1.0
 10
1279.236990447986
 20
1338.525245416032
 30
0.0
 10
1279.205617800107
 20
1338.713776119766
 30
0.0
 10
1278.616678887867
 20
1338.901771464671
 30
0.0
 10
1276.38495832329
 20
1339.256974789258
 30
0.0
 10
1274.744713203606
 20
1339.423759036579
 30
0.0
 10
1270.587295446523
 20
1339.718062776978
 30
0.0
 10
1268.074534080678
 20
1339.845257554505
 30
0.0
 10
1262.446721543152
 20
1340.046156108378
 30
0.0
 10
1259.337515081023
 20
1340.119650899435
 30
0.0
 10
1256.097863508072
 20
1340.162245777641
 30
0.0
  0
SPLINE
  5
10F
330
1F
100
AcDbEntity
  8
0
  6
Continuous
 62
     7
370
    35
100
AcDbSpline
210
0.0
220
0.0
230
1.0
 70
     8
 71
     3
 72
    14
 73
    10
 74
     0
 42
0.000000001
 43
0.00000001
 40
0.0
 40
0.0
 40
0.0
 40
0.0
 40
0.125
 40
0.125
 40
0.2500000000000001
 40
0.2500000000000001
 40
0.5
 40
0.5
 40
1.0
 40
1.0
 40
1.0
 40
1.0
 10
1256.097863508045
 20
1340.162245777634
 30
0.0
 10
1255.821817067598
 20
1340.165875231063
 30
0.0
 10
1255.542522473702
 20
1340.167760186923
 30
0.0
 10
1254.982627433884
 20
1340.170828759935
 30
0.0
 10
1254.701927910389
 20
1340.171959165143
 30
0.0
 10
1253.859166092783
 20
1340.174994168223
 30
0.0
 10
1253.296628987771
 20
1340.176474187159
 30
0.0
 10
1251.609184957655
 20
1340.180065131468
 30
0.0
 10
1250.483631082921
 20
1340.181213741631
 30
0.0
 10
1249.357531945366
 20
1340.181213741631
 30
0.0
  0
LINE
  5
110
330
1F
100
AcDbEntity
  8
0
  6
Continuous
 62
     7
370
    35
100
AcDbLine
 10
1249.3575319454
 20
1340.1812137416
 30
0.0
 11
1143.3575319454
 21
1340.1812137416
 31
0.0
  0
SPLINE
  5
111
330
1F
100
AcDbEntity
  8
0
  6
Continuous
 62
     7
370
    35
100
AcDbSpline
210
0.0
220
0.0
230
1.0
 70
     8
 71
     3
 72
    14
 73
    10
 74
     0
 42
0.000000001
 43
0.00000001
 40
0.0
 40
0.0
 40
0.0
 40
0.0
 40
0.5
 40
0.5
 40
0.7500000000000016
 40
0.7500000000000016
 40
0.8750000000000008
 40
0.8750000000000008
 40
1.0
 40
1.0
 40
1.0
 40
1.0
 10
1143.357531945366
 20
1340.181213741631
 30
0.0
 10
1142.231629409068
 20
1340.181213741631
 30
0.0
 10
1141.106173986405
 20
1340.18006553847
 30
0.0
 10
1139.418718386654
 20
1340.176474900821
 30
0.0
 10
1138.856261030621
 20
1340.174995005781
 30
0.0
 10
1138.01391311514
 20
1340.171962198674
 30
0.0
 10
1137.733300641856
 20
1340.170832638867
 30
0.0
 10
1137.173235728157
 20
1340.16776484714
 30
0.0
 10
1136.892662612423
 20
1340.165867549871
 30
0.0
 10
1136.617200382687
 20
1340.162245777634
 30
0.0
  0
SPLINE
  5
112
330
1F
100
AcDbEntity
  8
0
  6
Continuous
 62
     7
370
    35
100
AcDbSpline
210
0.0
220
0.0
230
1.0
 70
     8
 71
     3
 72
    14
 73
    10
 74
     0
 42
0.000000001
 43
0.00000001
 40
0.0
 40
0.0
 40
0.0
 40
0.0
 40
0.25
 40
0.25
 40
0.5
 40
0.5
 40
0.75
 40
0.75
 40
1.0
 40
1.0
 40
1.0
 40
1.0
 10
1136.617200382659
 20
1340.162245777641
 30
0.0
 10
1133.377548713563
 20
1340.119650898171
 30
0.0
 10
1130.268672701437
 20
1340.046166839934
 30
0.0
 10
1124.640440280544
 20
1339.845255419719
 30
0.0
 10
1122.127870133858
 20
1339.718068532492
 30
0.0
 10
1117.970427985935
 20
1339.423765951602
 30
0.0
 10
1116.330088293626
 20
1339.256969384454
 30
0.0
 10
1114.09849731006
 20
1338.901791994989
 30
0.0
 10
1113.509446091354
 20
1338.713776124151
 30
0.0
 10
1113.478073442746
 20
1338.525245416032
 30
0.0
  0
SPLINE
  5
113
330
1F
100
AcDbEntity
  8
0
  6
Continuous
 62
     7
370
    35
100
AcDbSpline
210
0.0
220
0.0
230
1.0
 70
     8
 71
     3
 72
     8
 73
     4
 74
     0
 42
0.000000001
 43
0.00000001
 40
0.0000000000000194
 40
0.0000000000000194
 40
0.0000000000000194
 40
0.0000000000000194
 40
0.0000564308016788
 40
0.0000564308016788
 40
0.0000564308016788
 40
0.0000564308016788
 10
1113.478073442875
 20
1338.525245416032
 30
0.0
 10
1113.477895994291
 20
1338.524179057001
 30
0.0
 10
1113.480906762188
 20
1338.523103932737
 30
0.0
 10
1113.486069166
 20
1338.522078473601
 30
0.0
  0
LINE
  5
114
330
1F
100
AcDbEntity
  8
0
  6
Continuous
 62
     7
370
    35
100
AcDbLine
 10
1115.3575319454
 20
1333.5208123949
 30
0.0
 11
1143.3575319454
 21
1333.5208123949
 31
0.0
  0
LINE
  5
115
330
1F
100
AcDbEntity
  8
0
  6
Continuous
 62
     7
370
    35
100
AcDbLine
 10
1143.3575319454
 20
1333.5208123949
 30
0.0
 11
1249.3575319454
 21
1333.5208123949
 31
0.0
  0
LINE
  5
116
330
1F
100
AcDbEntity
  8
0
  6
Continuous
 62
     7
370
    35
100
AcDbLine
 10
1249.3575319454
 20
1333.5208123949
 30
0.0
 11
1270.5116882947
 21
1333.5208123949
 31
0.0
  0
LINE
  5
117
330
1F
100
AcDbEntity
  8
0
  6
Continuous
 62
     7
370
    35
100
AcDbLine
 10
1271.1467382122
 20
1333.5208123949
 30
0.0
 11
1277.3575319454
 21
1333.5208123949
 31
0.0
  0
SPLINE
  5
118
330
1F
100
AcDbEntity
  8
0
  6
Continuous
 62
     7
370
    35
100
AcDbSpline
210
0.0
220
0.0
230
1.0
 70
    24
 71
     3
 72
     9
 73
     5
 74
     0
 42
0.000000001
 43
0.00000001
 40
0.0
 40
0.0
 40
0.0
 40
0.0
 40
0.1857572773134753
 40
0.9999999999999999
 40
0.9999999999999999
 40
0.9999999999999999
 40
0.9999999999999999
 10
1113.49846267727
 20
1338.519462797311
 30
0.0
 10
1113.499400329664
 20
1338.519264903826
 30
0.0
 10
1113.504448058655
 20
1338.51819957014
 30
0.0
 10
1113.494317720292
 20
1338.520337599089
 30
0.0
 10
1113.486069166
 20
1338.522078473601
 30
0.0
  0
LINE
  5
119
330
1F
100
AcDbEntity
  8
0
  6
Continuous
 62
     7
370
    35
100
AcDbLine
 10
1279.2289947247
 20
1338.5220784736
 30
0.0
 11
1279.216583038
 21
1338.5194589613
 31
0.0
  0
ARC
  5
11A
330
1F
100
AcDbEntity
  8
0
  6
Continuous
 62
     7
370
    35
100
AcDbCircle
 10
1196.3575319454
 20
1307.0708123948
 30
0.0
 40
20.00000000000019
100
AcDbArc
 50
242.7578274734
 51
297.2421725266
  0
SPLINE
  5
11B
330
1F
100
AcDbEntity
  8
0
  6
Continuous
 62
     7
370
    35
100
AcDbSpline
210
0.0
220
0.0
230
1.0
 70
    24
 71
     3
 72
    19
 73
    15
 74
     0
 42
0.000000001
 43
0.00000001
 40
0.0
 40
0.0
 40
0.0
 40
0.0
 40
0.2409129494906413
 40
0.4882585144584838
 40
0.5391714996611927
 40
0.5899404470637029
 40
0.6400693113877648
 40
0.6899887485684958
 40
0.7400419491330548
 40
0.7904190815941273
 40
0.8413201881352514
 40
0.8929676782752878
 40
0.9456873804469079
 40
1.0
 40
1.0
 40
1.0
 40
1.0
 10
1196.357531945366
 20
1333.520812394831
 30
0.0
 10
1204.203572946808
 20
1333.520812394831
 30
0.0
 10
1220.105152051811
 20
1333.520812394831
 30
0.0
 10
1237.670576571612
 20
1333.520812394831
 30
0.0
 10
1249.032465318541
 20
1333.520812394831
 30
0.0
 10
1253.988230536858
 20
1333.520812394831
 30
0.0
 10
1258.772591296203
 20
1333.520812394831
 30
0.0
 10
1263.256169261207
 20
1333.520812394831
 30
0.0
 10
1267.334419546178
 20
1333.520812394831
 30
0.0
 10
1270.907671489189
 20
1333.520812394831
 30
0.0
 10
1273.874077233597
 20
1333.520812394831
 30
0.0
 10
1276.104103453074
 20
1333.520812394831
 30
0.0
 10
1277.577413550066
 20
1333.520812394831
 30
0.0
 10
1277.76323730115
 20
1333.520812394831
 30
0.0
 10
1277.857531945366
 20
1333.520812394831
 30
0.0
  0
SPLINE
  5
11C
330
1F
100
AcDbEntity
  8
0
  6
Continuous
 62
     7
370
    35
100
AcDbSpline
210
0.0
220
0.0
230
1.0
 70
     8
 71
     3
 72
    12
 73
     8
 74
     0
 42
0.000000001
 43
0.00000001
 40
0.0
 40
0.0
 40
0.0
 40
0.0
 40
0.5113573105439846
 40
0.6391966381109017
 40
0.7611397820034745
 40
0.8740152375255743
 40
1.0
 40
1.0
 40
1.0
 40
1.0
 10
1277.857531945366
 20
1333.520812394831
 30
0.0
 10
1277.872237951394
 20
1332.416281884804
 30
0.0
 10
1277.890620458927
 20
1331.035618747419
 30
0.0
 10
1277.830424493264
 20
1329.439387833509
 30
0.0
 10
1277.954579292239
 20
1328.589782794757
 30
0.0
 10
1278.711882605078
 20
1328.242429434441
 30
0.0
 10
1279.119282045704
 20
1327.943256394855
 30
0.0
 10
1279.33416136797
 20
1327.785460154664
 30
0.0
  0
SPLINE
  5
11D
330
1F
100
AcDbEntity
  8
0
  6
Continuous
 62
     7
370
    35
100
AcDbSpline
210
0.0
220
0.0
230
1.0
 70
     8
 71
     3
 72
    12
 73
     8
 74
     0
 42
0.000000001
 43
0.00000001
 40
0.0
 40
0.0
 40
0.0
 40
0.0
 40
0.0187022824907648
 40
0.2635054426144018
 40
0.5085219380108156
 40
0.7541594978531945
 40
1.0
 40
1.0
 40
1.0
 40
1.0
 10
1279.294758282236
 20
1327.617073317001
 30
0.0
 10
1279.294822510223
 20
1327.619224772606
 30
0.0
 10
1279.295727449177
 20
1327.649537664182
 30
0.0
 10
1279.297834549355
 20
1327.699432854857
 30
0.0
 10
1279.304207310243
 20
1327.749774861714
 30
0.0
 10
1279.315056152143
 20
1327.78056367956
 30
0.0
 10
1279.327791209831
 20
1327.783827547055
 30
0.0
 10
1279.33416136797
 20
1327.785460154664
 30
0.0
  0
SPLINE
  5
11E
330
1F
100
AcDbEntity
  8
0
  6
Continuous
 62
     7
370
    35
100
AcDbSpline
210
0.0
220
0.0
230
1.0
 70
     8
 71
     3
 72
    23
 73
    19
 74
     0
 42
0.000000001
 43
0.00000001
 40
0.0
 40
0.0
 40
0.0
 40
0.0
 40
0.0758439674746767
 40
0.0948049593331002
 40
0.1128914355571506
 40
0.1336676542610458
 40
0.1567718346598162
 40
0.2022013669991181
 40
0.2424816341995579
 40
0.2818986298408139
 40
0.3206021944779509
 40
0.3951163817032078
 40
0.4632081862901979
 40
0.5251873670652979
 40
0.5924928344462254
 40
0.7259812554141636
 40
0.8620429027987473
 40
1.0
 40
1.0
 40
1.0
 40
1.0
 10
1114.857531945366
 20
1333.520812394831
 30
0.0
 10
1114.841527421745
 20
1332.417042454808
 30
0.0
 10
1114.821521767222
 20
1331.037330029927
 30
0.0
 10
1114.887032943572
 20
1329.437985881484
 30
0.0
 10
1114.741780464707
 20
1328.531555682704
 30
0.0
 10
1113.832310684547
 20
1328.165391900591
 30
0.0
 10
1112.835889375604
 20
1327.371741018084
 30
0.0
 10
1111.839415191398
 20
1326.095108480428
 30
0.0
 10
1111.257124034901
 20
1324.375383383702
 30
0.0
 10
1110.634537584407
 20
1322.783364796222
 30
0.0
 10
1109.885351434678
 20
1320.708085948375
 30
0.0
 10
1109.026264874433
 20
1318.234051306788
 30
0.0
 10
1108.117474814864
 20
1315.417016908343
 30
0.0
 10
1107.572411003445
 20
1312.611175448429
 30
0.0
 10
1107.231025099034
 20
1308.82213821853
 30
0.0
 10
1107.619246371002
 20
1303.936445652476
 30
0.0
 10
1109.298641886957
 20
1298.215563204114
 30
0.0
 10
1111.445725844874
 20
1294.868211392943
 30
0.0
 10
1112.526693757232
 20
1293.18295829145
 30
0.0
  0
SPLINE
  5
11F
330
1F
100
AcDbEntity
  8
0
  6
Continuous
 62
     7
370
    35
100
AcDbSpline
210
0.0
220
0.0
230
1.0
 70
    24
 71
     3
 72
    19
 73
    15
 74
     0
 42
0.000000001
 43
0.00000001
 40
0.0
 40
0.0
 40
0.0
 40
0.0
 40
0.2409129494906413
 40
0.4882585144584838
 40
0.5391714996611927
 40
0.5899404470637029
 40
0.6400693113877648
 40
0.6899887485684958
 40
0.7400419491330548
 40
0.7904190815941273
 40
0.8413201881352514
 40
0.8929676782752878
 40
0.9456873804469079
 40
1.0
 40
1.0
 40
1.0
 40
1.0
 10
1196.357531945366
 20
1333.520812394831
 30
0.0
 10
1188.511490943923
 20
1333.520812394831
 30
0.0
 10
1172.609911838921
 20
1333.520812394831
 30
0.0
 10
1155.044487319119
 20
1333.520812394831
 30
0.0
 10
1143.68259857219
 20
1333.520812394831
 30
0.0
 10
1138.726833353874
 20
1333.520812394831
 30
0.0
 10
1133.942472594529
 20
1333.520812394831
 30
0.0
 10
1129.458894629524
 20
1333.520812394831
 30
0.0
 10
1125.380644344554
 20
1333.520812394831
 30
0.0
 10
1121.807392401543
 20
1333.520812394831
 30
0.0
 10
1118.840986657135
 20
1333.520812394831
 30
0.0
 10
1116.610960437657
 20
1333.520812394831
 30
0.0
 10
1115.137650340665
 20
1333.520812394831
 30
0.0
 10
1114.951826589581
 20
1333.520812394831
 30
0.0
 10
1114.857531945366
 20
1333.520812394831
 30
0.0
  0
SPLINE
  5
120
330
1F
100
AcDbEntity
  8
0
  6
Continuous
 62
     7
370
    35
100
AcDbSpline
210
0.0
220
0.0
230
1.0
 70
     8
 71
     3
 72
    13
 73
     9
 74
     0
 42
0.000000001
 43
0.00000001
 40
0.0
 40
0.0
 40
0.0
 40
0.0
 40
0.1771815196505908
 40
0.3595140594802965
 40
0.536691256885091
 40
0.7189759962167965
 40
0.8582847046484902
 40
1.0
 40
1.0
 40
1.0
 40
1.0
 10
1112.526693757232
 20
1293.18295829145
 30
0.0
 10
1113.053497556847
 20
1292.536680007899
 30
0.0
 10
1114.122420393285
 20
1291.22533484204
 30
0.0
 10
1116.106296213053
 20
1289.642148302461
 30
0.0
 10
1118.325556188344
 20
1288.379627213981
 30
0.0
 10
1120.540849109872
 20
1287.587224614306
 30
0.0
 10
1122.679657862251
 20
1287.146228296033
 30
0.0
 10
1124.000085167086
 20
1287.096094138769
 30
0.0
 10
1124.66595264807
 20
1287.070812394831
 30
0.0
  0
SPLINE
  5
121
330
1F
100
AcDbEntity
  8
0
  6
Continuous
 62
     7
370
    35
100
AcDbSpline
210
0.0
220
0.0
230
1.0
 70
    24
 71
     3
 72
    19
 73
    15
 74
     0
 42
0.000000001
 43
0.00000001
 40
0.0
 40
0.0
 40
0.0
 40
0.0
 40
0.0382207566244327
 40
0.0915494292491335
 40
0.1448915828931537
 40
0.1929664281754644
 40
0.2410362644725358
 40
0.2858279790996494
 40
0.330589994761807
 40
0.3739481339232561
 40
0.4173762879190923
 40
0.6722423197123589
 40
0.9271575473554007
 40
1.0
 40
1.0
 40
1.0
 40
1.0
 10
1124.66595264807
 20
1287.070812394831
 30
0.0
 10
1124.831629123597
 20
1287.070812394831
 30
0.0
 10
1125.228470738315
 20
1287.070812394831
 30
0.0
 10
1126.60114235722
 20
1287.070812394831
 30
0.0
 10
1128.68466581745
 20
1287.070812394831
 30
0.0
 10
1131.269063398732
 20
1287.070812394831
 30
0.0
 10
1134.134480516588
 20
1287.070812394831
 30
0.0
 10
1137.298559677428
 20
1287.070812394831
 30
0.0
 10
1140.637801213147
 20
1287.070812394831
 30
0.0
 10
1144.181589756245
 20
1287.070812394831
 30
0.0
 10
1153.665899972641
 20
1287.070812394831
 30
0.0
 10
1169.043239883872
 20
1287.070812394831
 30
0.0
 10
1185.22958395798
 20
1287.070812394831
 30
0.0
 10
1194.334100204668
 20
1287.070812394831
 30
0.0
 10
1196.357531945366
 20
1287.070812394831
 30
0.0
  0
SPLINE
  5
122
330
1F
100
AcDbEntity
  8
0
  6
Continuous
 62
     7
370
    35
100
AcDbSpline
210
0.0
220
0.0
230
1.0
 70
    24
 71
     3
 72
    19
 73
    15
 74
     0
 42
0.000000001
 43
0.00000001
 40
0.0
 40
0.0
 40
0.0
 40
0.0
 40
0.0382184429616673
 40
0.0907526742552612
 40
0.1448883276233774
 40
0.1924047757928812
 40
0.2410289232739625
 40
0.2852702899838307
 40
0.3305791993120217
 40
0.3733296235550279
 40
0.4174095644875306
 40
0.6721476066227443
 40
0.9271619568147014
 40
1.0
 40
1.0
 40
1.0
 40
1.0
 10
1268.049111242662
 20
1287.070812394831
 30
0.0
 10
1267.883241798489
 20
1287.070812394831
 30
0.0
 10
1267.489371863728
 20
1287.070812394831
 30
0.0
 10
1266.127563710573
 20
1287.070812394831
 30
0.0
 10
1264.050161361227
 20
1287.070812394831
 30
0.0
 10
1261.45835068164
 20
1287.070812394831
 30
0.0
 10
1258.60355506675
 20
1287.070812394831
 30
0.0
 10
1255.431814557247
 20
1287.070812394831
 30
0.0
 10
1252.104190753991
 20
1287.070812394831
 30
0.0
 10
1248.558866363296
 20
1287.070812394831
 30
0.0
 10
1239.05975805811
 20
1287.070812394831
 30
0.0
 10
1223.679564193185
 20
1287.070812394831
 30
0.0
 10
1207.488400171805
 20
1287.070812394831
 30
0.0
 10
1198.380916050867
 20
1287.070812394831
 30
0.0
 10
1196.357531945366
 20
1287.070812394831
 30
0.0
  0
LINE
  5
123
330
1F
100
AcDbEntity
  8
0
  6
Continuous
 62
     7
370
    35
100
AcDbLine
 10
1284.8575319454
 20
1327.0708123948
 30
0.0
 11
1284.8575319454
 21
1287.0708123948
 31
0.0
  0
SPLINE
  5
124
330
1F
100
AcDbEntity
  8
0
  6
Continuous
 62
     7
370
    35
100
AcDbSpline
210
0.0
220
0.0
230
1.0
 70
     8
 71
     3
 72
    12
 73
     8
 74
     0
 42
0.000000001
 43
0.00000001
 40
0.0
 40
0.0
 40
0.0
 40
0.0
 40
0.2459959870690836
 40
0.4997821613883149
 40
0.7360251109829915
 40
0.9791320800802426
 40
1.0
 40
1.0
 40
1.0
 40
1.0
 10
1279.33416136797
 20
1327.785460154664
 30
0.0
 10
1279.471925789797
 20
1327.67978042399
 30
0.0
 10
1279.751817349506
 20
1327.465074302802
 30
0.0
 10
1280.226277064033
 20
1327.246245289547
 30
0.0
 10
1280.725164630619
 20
1327.107564812007
 30
0.0
 10
1281.077809319881
 20
1327.07177279777
 30
0.0
 10
1281.26366081307
 20
1327.070882755082
 30
0.0
 10
1281.278352869921
 20
1327.070812394831
 30
0.0
  0
LINE
  5
125
330
1F
100
AcDbEntity
  8
0
  6
Continuous
 62
     7
370
    35
100
AcDbLine
 10
1143.3575319454
 20
1336.5708123948
 30
0.0
 11
1115.5575319454
 21
1336.5708123948
 31
0.0
  0
LINE
  5
126
330
1F
100
AcDbEntity
  8
0
  6
Continuous
 62
     7
370
    35
100
AcDbLine
 10
1249.3575319454
 20
1336.5708123948
 30
0.0
 11
1277.1575319454
 21
1336.5708123948
 31
0.0
  0
LINE
  5
127
330
1F
100
AcDbEntity
  8
0
  6
Continuous
 62
     7
370
    35
100
AcDbLine
 10
1284.8575319454
 20
1307.0708123948
 30
0.0
 11
1284.8575319454
 21
1327.0708123948
 31
0.0
  0
LINE
  5
128
330
1F
100
AcDbEntity
  8
0
  6
Continuous
 62
     7
370
    35
100
AcDbLine
 10
1284.8575319454
 20
1287.0708123948
 30
0.0
 11
1284.8575319454
 21
1307.0708123948
 31
0.0
  0
LINE
  5
129
330
1F
100
AcDbEntity
  8
0
  6
Continuous
 62
     7
370
    35
100
AcDbLine
 10
1329.8575319454
 20
1307.0708123948
 30
0.0
 11
1329.8575319454
 21
1326.0399114808
 31
0.0
  0
LINE
  5
12A
330
1F
100
AcDbEntity
  8
0
  6
Continuous
 62
     7
370
    35
100
AcDbLine
 10
1329.8575319454
 20
1288.1017133089
 30
0.0
 11
1329.8575319454
 21
1307.0708123948
 31
0.0
  0
LINE
  5
12B
330
1F
100
AcDbEntity
  8
0
  6
Continuous
 62
     7
370
    35
100
AcDbLine
 10
1568.8575319454
 20
1344.5172508944
 30
0.0
 11
1568.8575319454
 21
1343.5172508944
 31
0.0
  0
LINE
  5
12C
330
1F
100
AcDbEntity
  8
0
  6
Continuous
 62
     7
370
    35
100
AcDbLine
 10
1568.8575319454
 20
1343.5172508944
 30
0.0
 11
1558.8575319454
 21
1343.5172508944
 31
0.0
  0
LINE
  5
12D
330
1F
100
AcDbEntity
  8
0
  6
Continuous
 62
     7
370
    35
100
AcDbLine
 10
1558.8575319454
 20
1344.5172508944
 30
0.0
 11
1568.8575319454
 21
1344.5172508944
 31
0.0
  0
LINE
  5
12E
330
1F
100
AcDbEntity
  8
0
  6
Continuous
 62
     7
370
    35
100
AcDbLine
 10
1558.8575319454
 20
1343.5172508944
 30
0.0
 11
1536.3575319454
 21
1343.5172508944
 31
0.0
  0
LINE
  5
12F
330
1F
100
AcDbEntity
  8
0
  6
Continuous
 62
     7
370
    35
100
AcDbLine
 10
1558.8575319454
 20
1344.5172508944
 30
0.0
 11
1536.3575319454
 21
1344.5172508944
 31
0.0
  0
LINE
  5
130
330
1F
100
AcDbEntity
  8
0
  6
Continuous
 62
     7
370
    35
100
AcDbLine
 10
823.8575319454
 20
1343.5172508944
 30
0.0
 11
823.8575319454
 21
1344.5172508944
 31
0.0
  0
LINE
  5
131
330
1F
100
AcDbEntity
  8
0
  6
Continuous
 62
     7
370
    35
100
AcDbLine
 10
823.8575319454
 20
1344.5172508944
 30
0.0
 11
833.8575319454
 21
1344.5172508944
 31
0.0
  0
LINE
  5
132
330
1F
100
AcDbEntity
  8
0
  6
Continuous
 62
     7
370
    35
100
AcDbLine
 10
833.8575319454
 20
1343.5172508944
 30
0.0
 11
823.8575319454
 21
1343.5172508944
 31
0.0
  0
LINE
  5
133
330
1F
100
AcDbEntity
  8
0
  6
Continuous
 62
     7
370
    35
100
AcDbLine
 10
856.3575319454
 20
1344.5172508944
 30
0.0
 11
833.8575319454
 21
1344.5172508944
 31
0.0
  0
LINE
  5
134
330
1F
100
AcDbEntity
  8
0
  6
Continuous
 62
     7
370
    35
100
AcDbLine
 10
856.3575319454
 20
1343.5172508944
 30
0.0
 11
833.8575319454
 21
1343.5172508944
 31
0.0
  0
LINE
  5
135
330
1F
100
AcDbEntity
  8
0
  6
Continuous
 62
     7
370
    35
100
AcDbLine
 10
854.3575319454
 20
1344.5172508944
 30
0.0
 11
854.3575319454
 21
1355.5172508944
 31
0.0
  0
ARC
  5
136
330
1F
100
AcDbEntity
  8
0
  6
Continuous
 62
     7
370
    35
100
AcDbCircle
 10
855.3575319454
 20
1355.5172508944
 30
0.0
 40
1.000000000000114
100
AcDbArc
 50
0.0
 51
180.0
  0
LINE
  5
137
330
1F
100
AcDbEntity
  8
0
  6
Continuous
 62
     7
370
    35
100
AcDbLine
 10
856.3575319454
 20
1345.5172508944
 30
0.0
 11
856.3575319454
 21
1355.5172508944
 31
0.0
  0
LINE
  5
138
330
1F
100
AcDbEntity
  8
0
  6
Continuous
 62
     7
370
    35
100
AcDbLine
 10
854.3575319454
 20
1337.791391416
 30
0.0
 11
854.3575319454
 21
1343.5172508944
 31
0.0
  0
LINE
  5
139
330
1F
100
AcDbEntity
  8
0
  6
Continuous
 62
     7
370
    35
100
AcDbLine
 10
856.3575319454
 20
1337.791391416
 30
0.0
 11
856.3575319454
 21
1341.5831988383
 31
0.0
  0
LINE
  5
13A
330
1F
100
AcDbEntity
  8
0
  6
Continuous
 62
     7
370
    35
100
AcDbLine
 10
854.3575319454
 20
1335.9787758419
 30
0.0
 11
854.3575319454
 21
1337.791391416
 31
0.0
  0
LINE
  5
13B
330
1F
100
AcDbEntity
  8
0
  6
Continuous
 62
     7
370
    35
100
AcDbLine
 10
856.3575319454
 20
1337.791391416
 30
0.0
 11
856.3575319454
 21
1335.9787758419
 31
0.0
  0
LINE
  5
13C
330
1F
100
AcDbEntity
  8
0
  6
Continuous
 62
     7
370
    35
100
AcDbLine
 10
854.3575319454
 20
1328.7204765573
 30
0.0
 11
854.3575319454
 21
1335.9787758419
 31
0.0
  0
LINE
  5
13D
330
1F
100
AcDbEntity
  8
0
  6
Continuous
 62
     7
370
    35
100
AcDbLine
 10
856.3575319454
 20
1328.7204765573
 30
0.0
 11
856.3575319454
 21
1335.9787758419
 31
0.0
  0
LINE
  5
13E
330
1F
100
AcDbEntity
  8
0
  6
Continuous
 62
     7
370
    35
100
AcDbLine
 10
854.3575319454
 20
1326.9078609832
 30
0.0
 11
854.3575319454
 21
1328.7204765573
 31
0.0
  0
LINE
  5
13F
330
1F
100
AcDbEntity
  8
0
  6
Continuous
 62
     7
370
    35
100
AcDbLine
 10
856.3575319454
 20
1328.7204765573
 30
0.0
 11
856.3575319454
 21
1326.9078609832
 31
0.0
  0
LINE
  5
140
330
1F
100
AcDbEntity
  8
0
  6
Continuous
 62
     7
370
    35
100
AcDbLine
 10
854.3575319454
 20
1292.6172508944
 30
0.0
 11
854.3575319454
 21
1326.9078609832
 31
0.0
  0
LINE
  5
141
330
1F
100
AcDbEntity
  8
0
  6
Continuous
 62
     7
370
    35
100
AcDbLine
 10
856.3575319454
 20
1292.6172508944
 30
0.0
 11
856.3575319454
 21
1326.9078609832
 31
0.0
  0
LINE
  5
142
330
1F
100
AcDbEntity
  8
0
  6
Continuous
 62
     7
370
    35
100
AcDbLine
 10
856.3575319454
 20
1290.6172508944
 30
0.0
 11
854.3575319454
 21
1290.6172508944
 31
0.0
  0
LINE
  5
143
330
1F
100
AcDbEntity
  8
0
  6
Continuous
 62
     7
370
    35
100
AcDbLine
 10
854.3575319454
 20
1290.6172508944
 30
0.0
 11
854.3575319454
 21
1292.6172508944
 31
0.0
  0
LINE
  5
144
330
1F
100
AcDbEntity
  8
0
  6
Continuous
 62
     7
370
    35
100
AcDbLine
 10
856.3575319454
 20
1292.6172508944
 30
0.0
 11
856.3575319454
 21
1290.6172508944
 31
0.0
  0
LINE
  5
145
330
1F
100
AcDbEntity
  8
0
  6
Continuous
 62
     7
370
    35
100
AcDbLine
 10
1536.3575319454
 20
1355.5172508944
 30
0.0
 11
1536.3575319454
 21
1345.5172508944
 31
0.0
  0
ARC
  5
146
330
1F
100
AcDbEntity
  8
0
  6
Continuous
 62
     7
370
    35
100
AcDbCircle
 10
1537.3575319454
 20
1355.5172508944
 30
0.0
 40
1.000000000000227
100
AcDbArc
 50
0.0
 51
180.0
  0
LINE
  5
147
330
1F
100
AcDbEntity
  8
0
  6
Continuous
 62
     7
370
    35
100
AcDbLine
 10
1538.3575319454
 20
1355.5172508944
 30
0.0
 11
1538.3575319454
 21
1344.5172508944
 31
0.0
  0
LINE
  5
148
330
1F
100
AcDbEntity
  8
0
  6
Continuous
 62
     7
370
    35
100
AcDbLine
 10
1536.3575319454
 20
1341.5831988383
 30
0.0
 11
1536.3575319454
 21
1337.791391416
 31
0.0
  0
LINE
  5
149
330
1F
100
AcDbEntity
  8
0
  6
Continuous
 62
     7
370
    35
100
AcDbLine
 10
1538.3575319454
 20
1343.5172508944
 30
0.0
 11
1538.3575319454
 21
1337.791391416
 31
0.0
  0
LINE
  5
14A
330
1F
100
AcDbEntity
  8
0
  6
Continuous
 62
     7
370
    35
100
AcDbLine
 10
1536.3575319454
 20
1335.9787758419
 30
0.0
 11
1536.3575319454
 21
1337.791391416
 31
0.0
  0
LINE
  5
14B
330
1F
100
AcDbEntity
  8
0
  6
Continuous
 62
     7
370
    35
100
AcDbLine
 10
1538.3575319454
 20
1337.791391416
 30
0.0
 11
1538.3575319454
 21
1335.9787758419
 31
0.0
  0
LINE
  5
14C
330
1F
100
AcDbEntity
  8
0
  6
Continuous
 62
     7
370
    35
100
AcDbLine
 10
1536.3575319454
 20
1335.9787758419
 30
0.0
 11
1536.3575319454
 21
1328.7204765573
 31
0.0
  0
LINE
  5
14D
330
1F
100
AcDbEntity
  8
0
  6
Continuous
 62
     7
370
    35
100
AcDbLine
 10
1538.3575319454
 20
1335.9787758419
 30
0.0
 11
1538.3575319454
 21
1328.7204765573
 31
0.0
  0
LINE
  5
14E
330
1F
100
AcDbEntity
  8
0
  6
Continuous
 62
     7
370
    35
100
AcDbLine
 10
1536.3575319454
 20
1326.9078609832
 30
0.0
 11
1536.3575319454
 21
1328.7204765573
 31
0.0
  0
LINE
  5
14F
330
1F
100
AcDbEntity
  8
0
  6
Continuous
 62
     7
370
    35
100
AcDbLine
 10
1538.3575319454
 20
1328.7204765573
 30
0.0
 11
1538.3575319454
 21
1326.9078609832
 31
0.0
  0
LINE
  5
150
330
1F
100
AcDbEntity
  8
0
  6
Continuous
 62
     7
370
    35
100
AcDbLine
 10
1536.3575319454
 20
1326.9078609832
 30
0.0
 11
1536.3575319454
 21
1292.6172508944
 31
0.0
  0
LINE
  5
151
330
1F
100
AcDbEntity
  8
0
  6
Continuous
 62
     7
370
    35
100
AcDbLine
 10
1538.3575319454
 20
1326.9078609832
 30
0.0
 11
1538.3575319454
 21
1292.6172508944
 31
0.0
  0
LINE
  5
152
330
1F
100
AcDbEntity
  8
0
  6
Continuous
 62
     7
370
    35
100
AcDbLine
 10
1538.3575319454
 20
1290.6172508944
 30
0.0
 11
1536.3575319454
 21
1290.6172508944
 31
0.0
  0
LINE
  5
153
330
1F
100
AcDbEntity
  8
0
  6
Continuous
 62
     7
370
    35
100
AcDbLine
 10
1536.3575319454
 20
1290.6172508944
 30
0.0
 11
1536.3575319454
 21
1292.6172508944
 31
0.0
  0
LINE
  5
154
330
1F
100
AcDbEntity
  8
0
  6
Continuous
 62
     7
370
    35
100
AcDbLine
 10
1538.3575319454
 20
1292.6172508944
 30
0.0
 11
1538.3575319454
 21
1290.6172508944
 31
0.0
  0
LINE
  5
155
330
1F
100
AcDbEntity
  8
0
  6
Continuous
 62
     8
370
    18
100
AcDbLine
 10
1536.3575319454
 20
1345.5172508944
 30
0.0
 11
856.3575319454
 21
1345.5172508944
 31
0.0
  0
LINE
  5
156
330
1F
100
AcDbEntity
  8
0
  6
Continuous
 62
     8
370
    18
100
AcDbLine
 10
856.3575319454
 20
1355.0172508944
 30
0.0
 11
1536.3575319454
 21
1355.0172508944
 31
0.0
  0
LINE
  5
157
330
1F
100
AcDbEntity
  8
0
  6
Continuous
 62
     8
370
    18
100
AcDbLine
 10
856.3575319454
 20
1342.2791693837
 30
0.0
 11
1536.3575319454
 21
1342.2791693837
 31
0.0
  0
LINE
  5
158
330
1F
100
AcDbEntity
  8
0
  6
Continuous
 62
     8
370
    18
100
AcDbLine
 10
856.3575319454
 20
1340.2823860426
 30
0.0
 11
1536.3575319454
 21
1340.2823860426
 31
0.0
  0
LINE
  5
159
330
1F
100
AcDbEntity
  8
0
  6
Continuous
 62
     8
370
    18
100
AcDbLine
 10
856.3575319454
 20
1338.5220784736
 30
0.0
 11
1113.486069166
 21
1338.5220784736
 31
0.0
  0
LINE
  5
15A
330
1F
100
AcDbEntity
  8
0
  6
Continuous
 62
     8
370
    18
100
AcDbLine
 10
1279.2289947247
 20
1338.5220784736
 30
0.0
 11
1536.3575319454
 21
1338.5220784736
 31
0.0
  0
SPLINE
  5
15B
330
1F
100
AcDbEntity
  8
0
  6
Continuous
 62
     8
370
    18
100
AcDbSpline
210
0.0
220
0.0
230
1.0
 70
     8
 71
     3
 72
    10
 73
     6
 74
     0
 42
0.000000001
 43
0.00000001
 40
0.0
 40
0.0
 40
0.0
 40
0.0
 40
0.5
 40
0.5
 40
1.0
 40
1.0
 40
1.0
 40
1.0
 10
1143.357531945366
 20
1338.296179307955
 30
0.0
 10
1142.29071968802
 20
1338.296179307955
 30
0.0
 10
1141.231202276564
 20
1338.277726691096
 30
0.0
 10
1139.126075841737
 20
1338.2247030847
 30
0.0
 10
1138.080463521029
 20
1338.190233107579
 30
0.0
 10
1137.04141983827
 20
1338.175595971636
 30
0.0
  0
ARC
  5
15C
330
1F
100
AcDbEntity
  8
0
  6
Continuous
 62
     8
370
    18
100
AcDbCircle
 10
1133.8708562648
 20
1338.5371871509
 30
0.0
 40
3.191116035874342
100
AcDbArc
 50
353.4937367838
 51
30.6135263841
  0
LINE
  5
15D
330
1F
100
AcDbEntity
  8
0
  6
Continuous
 62
     8
370
    18
100
AcDbLine
 10
1143.3575319454
 20
1338.296179308
 30
0.0
 11
1143.3575319454
 21
1340.1812137416
 31
0.0
  0
SPLINE
  5
15E
330
1F
100
AcDbEntity
  8
0
  6
Continuous
 62
     8
370
    18
100
AcDbSpline
210
0.0
220
0.0
230
1.0
 70
     8
 71
     3
 72
    10
 73
     6
 74
     0
 42
0.000000001
 43
0.00000001
 40
0.0
 40
0.0
 40
0.0
 40
0.0
 40
0.5
 40
0.5
 40
1.0
 40
1.0
 40
1.0
 40
1.0
 10
1255.673644052461
 20
1338.175595971771
 30
0.0
 10
1254.634600369703
 20
1338.190233107715
 30
0.0
 10
1253.588988048995
 20
1338.2247030847
 30
0.0
 10
1251.483861614167
 20
1338.277726691096
 30
0.0
 10
1250.424344202707
 20
1338.296179307658
 30
0.0
 10
1249.357531945363
 20
1338.296179307658
 30
0.0
  0
LINE
  5
15F
330
1F
100
AcDbEntity
  8
0
  6
Continuous
 62
     8
370
    18
100
AcDbLine
 10
1249.3575319454
 20
1338.2961793078
 30
0.0
 11
1249.3575319454
 21
1340.1812137416
 31
0.0
  0
ARC
  5
160
330
1F
100
AcDbEntity
  8
0
  6
Continuous
 62
     8
370
    18
100
AcDbCircle
 10
1258.8442076256
 20
1338.5371871509
 30
0.0
 40
3.191116035544414
100
AcDbArc
 50
149.386473613
 51
186.5062632176
  0
LINE
  5
161
330
1F
100
AcDbEntity
  8
0
  6
Continuous
 62
     8
370
    18
100
AcDbLine
 10
1249.3575319454
 20
1338.2961793078
 30
0.0
 11
1143.3575319454
 21
1338.296179308
 31
0.0
  0
ELLIPSE
  5
162
330
1F
100
AcDbEntity
  8
0
  6
Continuous
 62
     8
370
    18
100
AcDbEllipse
 10
1249.3575319454
 20
1336.5159796338
 30
0.0
 11
27.99999999999977
 21
0.0
 31
0.0
210
0.0
220
0.0
230
1.0
 40
0.0608401234
 41
0.0094489386178822
 42
1.343262674843468
  0
ARC
  5
163
330
1F
100
AcDbEntity
  8
0
  6
Continuous
 62
     8
370
    18
100
AcDbCircle
 10
1279.3556828945
 20
1336.5293688251
 30
0.0
 40
1.999402726573183
100
AcDbArc
 50
93.4033047991
 51
179.9224253183
  0
ELLIPSE
  5
164
330
1F
100
AcDbEntity
  8
0
  6
Continuous
 62
     8
370
    18
100
AcDbEllipse
 10
1143.3575319454
 20
1336.5159796338
 30
0.0
 11
28.0
 21
0.0
 31
0.0
210
0.0
220
0.0
230
1.0
 40
0.0608401234
 41
1.798329978746332
 42
3.132143714971908
  0
ARC
  5
165
330
1F
100
AcDbEntity
  8
0
  6
Continuous
 62
     8
370
    18
100
AcDbCircle
 10
1113.3593809962
 20
1336.5293688251
 30
0.0
 40
1.999402726574916
100
AcDbArc
 50
0.0775746817
 51
86.5966952045
  0
LINE
  5
166
330
1F
100
AcDbEntity
  8
0
  6
Continuous
 62
     8
370
    18
100
AcDbLine
 10
1143.3575319454
 20
1338.296179308
 30
0.0
 11
1143.3575319454
 21
1333.5208123949
 31
0.0
  0
LINE
  5
167
330
1F
100
AcDbEntity
  8
0
  6
Continuous
 62
     8
370
    18
100
AcDbLine
 10
1249.3575319454
 20
1338.2961793078
 30
0.0
 11
1249.3575319454
 21
1333.5208123949
 31
0.0
  0
ARC
  5
168
330
1F
100
AcDbEntity
  8
0
  6
Continuous
 62
     8
370
    18
100
AcDbCircle
 10
1196.3575319454
 20
1307.0708123948
 30
0.0
 40
9.000000000000167
100
AcDbArc
 50
242.7578274734
 51
297.2421725266
  0
LINE
  5
169
330
1F
100
AcDbEntity
  8
0
  6
Continuous
 62
     8
370
    18
100
AcDbLine
 10
1200.4773040638
 20
1299.0690952234
 30
0.0
 11
1205.5125810975
 21
1289.2892186805
 31
0.0
  0
LINE
  5
16A
330
1F
100
AcDbEntity
  8
0
  6
Continuous
 62
     8
370
    18
100
AcDbLine
 10
1192.2377598269
 20
1299.0690952234
 30
0.0
 11
1187.2024827933
 21
1289.2892186805
 31
0.0
  0
SPLINE
  5
16B
330
1F
100
AcDbEntity
  8
0
  6
Continuous
 62
     8
370
    18
100
AcDbSpline
210
0.0
220
0.0
230
1.0
 70
     8
 71
     3
 72
     9
 73
     5
 74
     0
 42
0.000000001
 43
0.00000001
 40
0.0
 40
0.0
 40
0.0
 40
0.0
 40
0.499262191895927
 40
1.0
 40
1.0
 40
1.0
 40
1.0
 10
1200.477304063814
 20
1299.06909522337
 30
0.0
 10
1201.523951823011
 20
1299.59542783983
 30
0.0
 10
1203.620340806968
 20
1300.649648698135
 30
0.0
 10
1205.595899195342
 20
1301.915913576229
 30
0.0
 10
1206.585135972518
 20
1302.549980275765
 30
0.0
  0
LINE
  5
16C
330
1F
100
AcDbEntity
  8
0
  6
Continuous
 62
     8
370
    18
100
AcDbLine
 10
1212.467577058
 20
1294.5758214802
 30
0.0
 11
1206.5851359725
 21
1302.5499802758
 31
0.0
  0
SPLINE
  5
16D
330
1F
100
AcDbEntity
  8
0
  6
Continuous
 62
     8
370
    18
100
AcDbSpline
210
0.0
220
0.0
230
1.0
 70
     8
 71
     3
 72
    10
 73
     6
 74
     0
 42
0.000000001
 43
0.00000001
 40
0.0
 40
0.0
 40
0.0
 40
0.0
 40
0.0076204656895131
 40
0.4952213558631307
 40
1.0
 40
1.0
 40
1.0
 40
1.0
 10
1212.467577057966
 20
1294.575821480185
 30
0.0
 10
1212.452231705049
 20
1294.558394451317
 30
0.0
 10
1211.455003085774
 20
1293.425886647123
 30
0.0
 10
1209.234375750467
 20
1291.402804211997
 30
0.0
 10
1206.767413409608
 20
1290.001830650423
 30
0.0
 10
1205.512581097472
 20
1289.289218680473
 30
0.0
  0
SPLINE
  5
16E
330
1F
100
AcDbEntity
  8
0
  6
Continuous
 62
     8
370
    18
100
AcDbSpline
210
0.0
220
0.0
230
1.0
 70
     8
 71
     3
 72
    11
 73
     7
 74
     0
 42
0.000000001
 43
0.00000001
 40
0.0
 40
0.0
 40
0.0
 40
0.0
 40
0.2086522750570947
 40
0.4180461498251509
 40
0.7071398446856825
 40
1.0
 40
1.0
 40
1.0
 40
1.0
 10
1187.202482793259
 20
1289.289218680473
 30
0.0
 10
1186.678857690867
 20
1289.570195272614
 30
0.0
 10
1185.629746398182
 20
1290.133147114398
 30
0.0
 10
1183.919370440926
 20
1291.248205098849
 30
0.0
 10
1182.073192067551
 20
1292.656658377314
 30
0.0
 10
1180.858675400006
 20
1293.933346164456
 30
0.0
 10
1180.247486832764
 20
1294.575821480184
 30
0.0
  0
LINE
  5
16F
330
1F
100
AcDbEntity
  8
0
  6
Continuous
 62
     8
370
    18
100
AcDbLine
 10
1180.2474868328
 20
1294.5758214802
 30
0.0
 11
1186.1299279182
 21
1302.5499802758
 31
0.0
  0
SPLINE
  5
170
330
1F
100
AcDbEntity
  8
0
  6
Continuous
 62
     8
370
    18
100
AcDbSpline
210
0.0
220
0.0
230
1.0
 70
     8
 71
     3
 72
     9
 73
     5
 74
     0
 42
0.000000001
 43
0.00000001
 40
0.0
 40
0.0
 40
0.0
 40
0.0
 40
0.4979466281839556
 40
1.0
 40
1.0
 40
1.0
 40
1.0
 10
1186.129927918214
 20
1302.549980275764
 30
0.0
 10
1187.113502912782
 20
1301.919212780207
 30
0.0
 10
1189.088764796079
 20
1300.652475624345
 30
0.0
 10
1191.185224941853
 20
1299.598331723279
 30
0.0
 10
1192.237759826918
 20
1299.06909522337
 30
0.0
  0
SPLINE
  5
171
330
1F
100
AcDbEntity
  8
0
  6
Continuous
 62
     8
370
    18
100
AcDbSpline
210
0.0
220
0.0
230
1.0
 70
     8
 71
     3
 72
    21
 73
    17
 74
     0
 42
0.000000001
 43
0.00000001
 40
0.0
 40
0.0
 40
0.0
 40
0.0
 40
0.0575996839374351
 40
0.1356930566382776
 40
0.2164055400301528
 40
0.2512185653939512
 40
0.3293048865225191
 40
0.4092636364585418
 40
0.470467804064929
 40
0.5261582095357693
 40
0.5829972309833084
 40
0.6699291064424844
 40
0.7487170988516956
 40
0.8394997107027555
 40
0.9180548896099037
 40
1.0
 40
1.0
 40
1.0
 40
1.0
 10
1196.357531944778
 20
1327.072176608446
 30
0.0
 10
1197.262432048441
 20
1327.035683062599
 30
0.0
 10
1199.39419133295
 20
1326.949711743924
 30
0.0
 10
1202.64314185398
 20
1326.186553572718
 30
0.0
 10
1205.381273969478
 20
1325.046685319587
 30
0.0
 10
1207.928170112865
 20
1323.587863759819
 30
0.0
 10
1210.262300741312
 20
1321.862025030004
 30
0.0
 10
1212.560964797093
 20
1319.526934980936
 30
0.0
 10
1214.302262351287
 20
1317.198048487537
 30
0.0
 10
1215.559922249999
 20
1314.906414161646
 30
0.0
 10
1216.665524539273
 20
1312.056696788365
 30
0.0
 10
1217.341289662921
 20
1308.626672888028
 30
0.0
 10
1217.261099181743
 20
1304.558929788965
 30
0.0
 10
1216.32584350286
 20
1300.773758991988
 30
0.0
 10
1214.676976023386
 20
1297.325395415123
 30
0.0
 10
1213.214340833854
 20
1295.50516119921
 30
0.0
 10
1212.467577057966
 20
1294.575821480185
 30
0.0
  0
SPLINE
  5
172
330
1F
100
AcDbEntity
  8
0
  6
Continuous
 62
     8
370
    18
100
AcDbSpline
210
0.0
220
0.0
230
1.0
 70
     8
 71
     3
 72
    17
 73
    13
 74
     0
 42
0.000000001
 43
0.00000001
 40
0.0
 40
0.0
 40
0.0
 40
0.0
 40
0.0789144527054628
 40
0.1571593044481629
 40
0.2135614770373518
 40
0.2600875689337676
 40
0.3261379151498182
 40
0.4287697285227799
 40
0.5974697941885971
 40
0.7661237400516262
 40
0.9416481750856455
 40
1.0
 40
1.0
 40
1.0
 40
1.0
 10
1206.585135972518
 20
1302.549980275765
 30
0.0
 10
1207.057658522971
 20
1302.911925855754
 30
0.0
 10
1207.998694199192
 20
1303.632745853219
 30
0.0
 10
1209.075109927747
 20
1304.851046179797
 30
0.0
 10
1209.649398662768
 20
1306.126960326304
 30
0.0
 10
1209.643240701942
 20
1307.428749005566
 30
0.0
 10
1209.064528503003
 20
1308.976996527531
 30
0.0
 10
1207.433293453191
 20
1310.967295864069
 30
0.0
 10
1204.846388178443
 20
1313.065839420164
 30
0.0
 10
1201.510253695203
 20
1315.034101822147
 30
0.0
 10
1198.563891340144
 20
1315.98563078544
 30
0.0
 10
1196.801173210592
 20
1316.058894046424
 30
0.0
 10
1196.361377313003
 20
1316.077173135454
 30
0.0
  0
LWPOLYLINE
  5
173
330
1F
100
AcDbEntity
  8
0
  6
Continuous
 62
     8
370
    18
100
AcDbPolyline
 90
        9
 70
   128
 43
0.0
 10
1196.3575319448
 20
1327.0721766084
 10
1196.3589112711
 20
1326.8054395024
 10
1196.3600974269
 20
1326.1420510985
 10
1196.3610465568
 20
1325.1065385666
 10
1196.3617235693
 20
1323.7371874594
 10
1196.3621034333
 20
1322.0846261974
 10
1196.3621721043
 20
1320.2099542065
 10
1196.3619270434
 20
1318.1824829156
 10
1196.361377313
 20
1316.0771731355
  0
SPLINE
  5
174
330
1F
100
AcDbEntity
  8
0
  6
Continuous
 62
     8
370
    18
100
AcDbSpline
210
0.0
220
0.0
230
1.0
 70
     8
 71
     3
 72
    20
 73
    16
 74
     0
 42
0.000000001
 43
0.00000001
 40
0.0
 40
0.0
 40
0.0
 40
0.0
 40
0.0991423914481115
 40
0.1909579967922172
 40
0.2834490201131825
 40
0.3743163084071864
 40
0.4461862568119864
 40
0.5184421762495498
 40
0.5908322179839117
 40
0.6638400079808531
 40
0.7368167649629365
 40
0.8091054166526843
 40
0.8751601672161241
 40
0.941126359318708
 40
1.0
 40
1.0
 40
1.0
 40
1.0
 10
1180.247486832764
 20
1294.575821480184
 30
0.0
 10
1179.352711150749
 20
1295.712149969839
 30
0.0
 10
1177.629285184113
 20
1297.900830401216
 30
0.0
 10
1175.980260582003
 20
1301.953643236661
 30
0.0
 10
1175.280942908952
 20
1306.253931649847
 30
0.0
 10
1175.607400300836
 20
1310.287681011339
 30
0.0
 10
1176.633371434478
 20
1313.787632169247
 30
0.0
 10
1178.087482343067
 20
1316.723113177041
 30
0.0
 10
1179.982402276633
 20
1319.338048742542
 30
0.0
 10
1182.257658453374
 20
1321.667638439939
 30
0.0
 10
1184.852941304445
 20
1323.667892935919
 30
0.0
 10
1187.672233299947
 20
1325.232498106058
 30
0.0
 10
1190.597684872564
 20
1326.314126416839
 30
0.0
 10
1193.472057132334
 20
1326.955054242093
 30
0.0
 10
1195.432839791837
 20
1327.034643051531
 30
0.0
 10
1196.357531944778
 20
1327.072176608446
 30
0.0
  0
SPLINE
  5
175
330
1F
100
AcDbEntity
  8
0
  6
Continuous
 62
     8
370
    18
100
AcDbSpline
210
0.0
220
0.0
230
1.0
 70
     8
 71
     3
 72
    19
 73
    15
 74
     0
 42
0.000000001
 43
0.00000001
 40
0.0
 40
0.0
 40
0.0
 40
0.0
 40
0.0003400432997567
 40
0.1018635778277045
 40
0.2035434036526497
 40
0.348021878445577
 40
0.4928620408160625
 40
0.5714933381061477
 40
0.6496296261320142
 40
0.7087399627822194
 40
0.7683238584295661
 40
0.8224306267254518
 40
0.892610163227093
 40
1.0
 40
1.0
 40
1.0
 40
1.0
 10
1196.361377313003
 20
1316.077173135454
 30
0.0
 10
1196.358813739789
 20
1316.077175345306
 30
0.0
 10
1195.590868187626
 20
1316.077837329895
 30
0.0
 10
1194.05232894964
 20
1315.90840037708
 30
0.0
 10
1191.538798173064
 20
1315.122941504868
 30
0.0
 10
1188.923558952684
 20
1313.722784722904
 30
0.0
 10
1186.698118061673
 20
1312.057042884911
 30
0.0
 10
1184.979548532271
 20
1310.567192548758
 30
0.0
 10
1183.911242303555
 20
1309.31910282945
 30
0.0
 10
1183.244278433563
 20
1307.983351990533
 30
0.0
 10
1182.980299123641
 20
1306.670581131087
 30
0.0
 10
1183.362919887421
 20
1305.294640759072
 30
0.0
 10
1184.436505703076
 20
1303.880556283905
 30
0.0
 10
1185.49174417521
 20
1303.051421658566
 30
0.0
 10
1186.129927918214
 20
1302.549980275764
 30
0.0
  0
SPLINE
  5
176
330
1F
100
AcDbEntity
  8
0
  6
Continuous
 62
     8
370
    18
100
AcDbSpline
210
0.0
220
0.0
230
1.0
 70
     8
 71
     3
 72
    12
 73
     8
 74
     0
 42
0.000000001
 43
0.00000001
 40
0.0
 40
0.0
 40
0.0
 40
0.0
 40
0.000006074466645
 40
0.3341227654086636
 40
0.6739443301614018
 40
0.9999939255333558
 40
1.0
 40
1.0
 40
1.0
 40
1.0
 10
1196.357531945366
 20
1327.741376806276
 30
0.0
 10
1196.357551943184
 20
1327.741376737618
 30
0.0
 10
1197.457521143997
 20
1327.737600208023
 30
0.0
 10
1199.676735381926
 20
1327.626691351139
 30
0.0
 10
1202.895976651988
 20
1327.162840633017
 30
0.0
 10
1204.995124387009
 20
1326.673206342186
 30
0.0
 10
1206.00996223582
 20
1326.381844402985
 30
0.0
 10
1206.009981142404
 20
1326.381838974867
 30
0.0
  0
SPLINE
  5
177
330
1F
100
AcDbEntity
  8
0
  6
Continuous
 62
     8
370
    18
100
AcDbSpline
210
0.0
220
0.0
230
1.0
 70
     8
 71
     3
 72
    12
 73
     8
 74
     0
 42
0.000000001
 43
0.00000001
 40
0.0
 40
0.0
 40
0.0
 40
0.0
 40
0.0000045934025293
 40
0.414388567328435
 40
0.7037780019579084
 40
0.9999953490569341
 40
1.0
 40
1.0
 40
1.0
 40
1.0
 10
1206.009981142404
 20
1326.381838974867
 30
0.0
 10
1206.009998574532
 20
1326.381831185691
 30
0.0
 10
1207.58261815074
 20
1325.679139532238
 30
0.0
 10
1210.097346712241
 20
1324.204818825709
 30
0.0
 10
1213.134053700875
 20
1321.543808702956
 30
0.0
 10
1214.62738223022
 20
1319.736863224923
 30
0.0
 10
1215.300428300008
 20
1318.774392568513
 30
0.0
 10
1215.300438867417
 20
1318.774377456886
 30
0.0
  0
SPLINE
  5
178
330
1F
100
AcDbEntity
  8
0
  6
Continuous
 62
     8
370
    18
100
AcDbSpline
210
0.0
220
0.0
230
1.0
 70
     8
 71
     3
 72
    17
 73
    13
 74
     0
 42
0.000000001
 43
0.00000001
 40
0.0
 40
0.0
 40
0.0
 40
0.0
 40
0.0000021433935779
 40
0.1041532548279313
 40
0.2108142976269801
 40
0.3091075186364248
 40
0.4099627238957775
 40
0.5117652441981436
 40
0.617356511827076
 40
0.7189536236524918
 40
0.8238769623572195
 40
0.9999999999999999
 40
0.9999999999999999
 40
0.9999999999999999
 40
0.9999999999999999
 10
1215.300438867417
 20
1318.774377456886
 30
0.0
 10
1215.30045028188
 20
1318.774362872716
 30
0.0
 10
1215.85510970598
 20
1318.065678802643
 30
0.0
 10
1216.888329846318
 20
1316.531037571756
 30
0.0
 10
1218.088497669213
 20
1314.027690210111
 30
0.0
 10
1218.9166966214
 20
1311.352724458512
 30
0.0
 10
1219.360970341557
 20
1308.594918239089
 30
0.0
 10
1219.39538117305
 20
1305.707710589091
 30
0.0
 10
1218.975113151763
 20
1302.848333502586
 30
0.0
 10
1218.113261717442
 20
1300.114739123353
 30
0.0
 10
1216.620760016452
 20
1297.011006127639
 30
0.0
 10
1215.077615632219
 20
1295.167774097119
 30
0.0
 10
1214.110574960838
 20
1294.012677815449
 30
0.0
  0
ARC
  5
179
330
1F
100
AcDbEntity
  8
0
  6
Continuous
 62
     8
370
    18
100
AcDbCircle
 10
1212.1756996396
 20
1291.0459221689
 30
0.0
 40
3.541946015261361
100
AcDbArc
 50
56.8881881133
 51
85.2731268278
  0
SPLINE
  5
17A
330
1F
100
AcDbEntity
  8
0
  6
Continuous
 62
     8
370
    18
100
AcDbSpline
210
0.0
220
0.0
230
1.0
 70
     8
 71
     3
 72
     9
 73
     5
 74
     0
 42
0.000000001
 43
0.00000001
 40
0.0
 40
0.0
 40
0.0
 40
0.0
 40
0.4770884652791004
 40
1.0
 40
1.0
 40
1.0
 40
1.0
 10
1196.357531944778
 20
1327.072176608446
 30
0.0
 10
1196.357531945023
 20
1327.10675557904
 30
0.0
 10
1196.357531945537
 20
1327.179234737751
 30
0.0
 10
1196.357531945424
 20
1327.54835799653
 30
0.0
 10
1196.357531945365
 20
1327.741376806279
 30
0.0
  0
SPLINE
  5
17B
330
1F
100
AcDbEntity
  8
0
  6
Continuous
 62
     8
370
    18
100
AcDbSpline
210
0.0
220
0.0
230
1.0
 70
     8
 71
     3
 72
    13
 73
     9
 74
     0
 42
0.000000001
 43
0.00000001
 40
0.0
 40
0.0
 40
0.0
 40
0.0
 40
0.1436817584227083
 40
0.2896128899910151
 40
0.4254711377184164
 40
0.5627814455503001
 40
0.7787239735870504
 40
0.9999999999999999
 40
0.9999999999999999
 40
0.9999999999999999
 40
0.9999999999999999
 10
1162.757023417739
 20
1299.047233437337
 30
0.0
 10
1162.776064616704
 20
1299.979959072587
 30
0.0
 10
1162.814445109271
 20
1301.860012391526
 30
0.0
 10
1162.879857576319
 20
1304.714769541863
 30
0.0
 10
1162.929078823188
 20
1307.538754181269
 30
0.0
 10
1162.96591820536
 20
1310.81584126465
 30
0.0
 10
1162.940086567542
 20
1314.632075274747
 30
0.0
 10
1162.885587923169
 20
1317.340674669405
 30
0.0
 10
1162.858006194652
 20
1318.711495063679
 30
0.0
  0
ARC
  5
17C
330
1F
100
AcDbEntity
  8
0
  6
Continuous
 62
     8
370
    18
100
AcDbCircle
 10
1162.5315624606
 20
1290.9778476321
 30
0.0
 40
8.072534912707727
100
AcDbArc
 50
88.399555844
 51
102.2537357991
  0
SPLINE
  5
17D
330
1F
100
AcDbEntity
  8
0
  6
Continuous
 62
     8
370
    18
100
AcDbSpline
210
0.0
220
0.0
230
1.0
 70
     8
 71
     3
 72
    13
 73
     9
 74
     0
 42
0.000000001
 43
0.00000001
 40
0.0
 40
0.0
 40
0.0
 40
0.0
 40
0.2149368602724791
 40
0.4364871802266558
 40
0.5720189549561234
 40
0.7091058686892342
 40
0.8535021383530053
 40
1.0
 40
1.0
 40
1.0
 40
1.0
 10
1160.801112664732
 20
1319.0455753215
 30
0.0
 10
1160.802766122556
 20
1317.686783914547
 30
0.0
 10
1160.806123913964
 20
1314.927392021575
 30
0.0
 10
1160.808341994403
 20
1311.021341098595
 30
0.0
 10
1160.815615349059
 20
1307.610955687887
 30
0.0
 10
1160.818815361785
 20
1304.721000849085
 30
0.0
 10
1160.819300440848
 20
1301.774530803587
 30
0.0
 10
1160.81859280903
 20
1299.840479952761
 30
0.0
 10
1160.818236436945
 20
1298.866468161304
 30
0.0
  0
ARC
  5
17E
330
1F
100
AcDbEntity
  8
0
  6
Continuous
 62
     8
370
    18
100
AcDbCircle
 10
1162.6839519782
 20
1324.1389313517
 30
0.0
 40
5.430226471411901
100
AcDbArc
 50
249.71237279
 51
271.8368074448
  0
SPLINE
  5
17F
330
1F
100
AcDbEntity
  8
0
  6
Continuous
 62
     8
370
    18
100
AcDbSpline
210
0.0
220
0.0
230
1.0
 70
     8
 71
     3
 72
    13
 73
     9
 74
     0
 42
0.000000001
 43
0.00000001
 40
0.0
 40
0.0
 40
0.0
 40
0.0
 40
0.2149368602724791
 40
0.4364871802266558
 40
0.5720189549561234
 40
0.7091058686892342
 40
0.8535021383530053
 40
1.0
 40
1.0
 40
1.0
 40
1.0
 10
1231.913951225999
 20
1319.0455753215
 30
0.0
 10
1231.912297768176
 20
1317.686783914547
 30
0.0
 10
1231.908939976767
 20
1314.927392021575
 30
0.0
 10
1231.906721896328
 20
1311.021341098595
 30
0.0
 10
1231.899448541672
 20
1307.610955687887
 30
0.0
 10
1231.896248528946
 20
1304.721000849085
 30
0.0
 10
1231.895763449883
 20
1301.774530803587
 30
0.0
 10
1231.896471081701
 20
1299.840479952761
 30
0.0
 10
1231.896827453786
 20
1298.866468161304
 30
0.0
  0
ARC
  5
180
330
1F
100
AcDbEntity
  8
0
  6
Continuous
 62
     8
370
    18
100
AcDbCircle
 10
1230.1835014302
 20
1290.9778476321
 30
0.0
 40
8.072534912709331
100
AcDbArc
 50
77.7462642009
 51
91.600444156
  0
SPLINE
  5
181
330
1F
100
AcDbEntity
  8
0
  6
Continuous
 62
     8
370
    18
100
AcDbSpline
210
0.0
220
0.0
230
1.0
 70
     8
 71
     3
 72
    13
 73
     9
 74
     0
 42
0.000000001
 43
0.00000001
 40
0.0
 40
0.0
 40
0.0
 40
0.0
 40
0.1436817584227082
 40
0.2896128899910151
 40
0.4254711377184164
 40
0.5627814455503
 40
0.7787239735870501
 40
0.9999999999999999
 40
0.9999999999999999
 40
0.9999999999999999
 40
0.9999999999999999
 10
1229.958040472992
 20
1299.047233437337
 30
0.0
 10
1229.938999274027
 20
1299.979959072587
 30
0.0
 10
1229.900618781461
 20
1301.860012391526
 30
0.0
 10
1229.835206314412
 20
1304.714769541863
 30
0.0
 10
1229.785985067543
 20
1307.538754181269
 30
0.0
 10
1229.749145685371
 20
1310.81584126465
 30
0.0
 10
1229.774977323189
 20
1314.632075274747
 30
0.0
 10
1229.829475967562
 20
1317.340674669405
 30
0.0
 10
1229.85705769608
 20
1318.711495063679
 30
0.0
  0
ARC
  5
182
330
1F
100
AcDbEntity
  8
0
  6
Continuous
 62
     8
370
    18
100
AcDbCircle
 10
1230.0311119125
 20
1324.1389313517
 30
0.0
 40
5.430226471411408
100
AcDbArc
 50
268.1631925552
 51
290.28762721
  0
SPLINE
  5
183
330
1F
100
AcDbEntity
  8
0
  6
Continuous
 62
     8
370
    18
100
AcDbSpline
210
0.0
220
0.0
230
1.0
 70
     8
 71
     3
 72
    13
 73
     9
 74
     0
 42
0.000000001
 43
0.00000001
 40
0.0
 40
0.0
 40
0.0
 40
0.0
 40
0.202729976779031
 40
0.4113282396852202
 40
0.6140610633746086
 40
0.8226668372537688
 40
0.911099727678664
 40
1.0
 40
1.0
 40
1.0
 40
1.0
 10
1233.281023197864
 20
1319.310565834596
 30
0.0
 10
1233.296249325668
 20
1318.008428167061
 30
0.0
 10
1233.327142321597
 20
1315.366460742584
 30
0.0
 10
1233.349905221451
 20
1311.098235509484
 30
0.0
 10
1233.297136295264
 20
1306.704035585989
 30
0.0
 10
1233.242718156817
 20
1303.165339420511
 30
0.0
 10
1233.202173216885
 20
1300.495634733402
 30
0.0
 10
1233.186790526355
 20
1299.2996011189
 30
0.0
 10
1233.179078909667
 20
1298.700008169741
 30
0.0
  0
ARC
  5
184
330
1F
100
AcDbEntity
  8
0
  6
Continuous
 62
     8
370
    18
100
AcDbCircle
 10
1233.1837305819
 20
1303.7577008204
 30
0.0
 40
5.05769478981757
100
AcDbArc
 50
255.2593224014
 51
269.9473038141
  0
ARC
  5
185
330
1F
100
AcDbEntity
  8
0
  6
Continuous
 62
     8
370
    18
100
AcDbCircle
 10
1233.2530438823
 20
1315.796088561
 30
0.0
 40
3.514588645686136
100
AcDbArc
 50
89.543868773
 51
112.3962449548
  0
ARC
  5
186
330
1F
100
AcDbEntity
  8
0
  6
Continuous
 62
     8
370
    18
100
AcDbCircle
 10
1159.5313333088
 20
1303.7577008204
 30
0.0
 40
5.057694789815296
100
AcDbArc
 50
270.0526961859
 51
284.7406775986
  0
SPLINE
  5
187
330
1F
100
AcDbEntity
  8
0
  6
Continuous
 62
     8
370
    18
100
AcDbSpline
210
0.0
220
0.0
230
1.0
 70
     8
 71
     3
 72
    13
 73
     9
 74
     0
 42
0.000000001
 43
0.00000001
 40
0.0
 40
0.0
 40
0.0
 40
0.0
 40
0.202729976779031
 40
0.4113282396852202
 40
0.6140610633746086
 40
0.8226668372537688
 40
0.911099727678664
 40
1.0
 40
1.0
 40
1.0
 40
1.0
 10
1159.434040692868
 20
1319.310565834596
 30
0.0
 10
1159.418814565063
 20
1318.008428167061
 30
0.0
 10
1159.387921569135
 20
1315.366460742584
 30
0.0
 10
1159.36515866928
 20
1311.098235509484
 30
0.0
 10
1159.417927595468
 20
1306.704035585989
 30
0.0
 10
1159.472345733914
 20
1303.165339420511
 30
0.0
 10
1159.512890673846
 20
1300.495634733402
 30
0.0
 10
1159.528273364376
 20
1299.2996011189
 30
0.0
 10
1159.535984981064
 20
1298.700008169741
 30
0.0
  0
ARC
  5
188
330
1F
100
AcDbEntity
  8
0
  6
Continuous
 62
     8
370
    18
100
AcDbCircle
 10
1159.4620200085
 20
1315.796088561
 30
0.0
 40
3.514588645684998
100
AcDbArc
 50
67.6037550452
 51
90.456131227
  0
SPLINE
  5
189
330
1F
100
AcDbEntity
  8
0
  6
Continuous
 62
     8
370
    18
100
AcDbSpline
210
0.0
220
0.0
230
1.0
 70
     8
 71
     3
 72
    12
 73
     8
 74
     0
 42
0.000000001
 43
0.00000001
 40
0.0
 40
0.0
 40
0.0
 40
0.0
 40
0.1139159269059945
 40
0.3258009088085498
 40
0.5443041886655154
 40
0.8274327407183971
 40
1.0
 40
1.0
 40
1.0
 40
1.0
 10
1151.884902433655
 20
1298.881350676088
 30
0.0
 10
1151.885274313276
 20
1299.634822159838
 30
0.0
 10
1151.886337893424
 20
1301.789759584608
 30
0.0
 10
1151.892689480779
 20
1305.544666562804
 30
0.0
 10
1151.906199575333
 20
1310.490544076956
 30
0.0
 10
1151.907943189964
 20
1315.099039976444
 30
0.0
 10
1151.912360033483
 20
1317.955001761975
 30
0.0
 10
1151.914032646138
 20
1319.036524755348
 30
0.0
  0
ARC
  5
18A
330
1F
100
AcDbEntity
  8
0
  6
Continuous
 62
     8
370
    18
100
AcDbCircle
 10
1153.2656451728
 20
1315.8443883091
 30
0.0
 40
3.466495566615585
100
AcDbArc
 50
89.2238649505
 51
112.9487422267
  0
SPLINE
  5
18B
330
1F
100
AcDbEntity
  8
0
  6
Continuous
 62
     8
370
    18
100
AcDbSpline
210
0.0
220
0.0
230
1.0
 70
     8
 71
     3
 72
    13
 73
     9
 74
     0
 42
0.000000001
 43
0.00000001
 40
0.0
 40
0.0
 40
0.0
 40
0.0
 40
0.2029467742027883
 40
0.411777351985696
 40
0.6147258594307167
 40
0.8235672334127802
 40
0.9115535143092927
 40
1.0
 40
1.0
 40
1.0
 40
1.0
 10
1153.244298511151
 20
1298.700008169741
 30
0.0
 10
1153.254258102018
 20
1300.08266291841
 30
0.0
 10
1153.274466030774
 20
1302.888058142619
 30
0.0
 10
1153.314346011677
 20
1307.261458158467
 30
0.0
 10
1153.342527895779
 20
1311.65499989202
 30
0.0
 10
1153.331975699525
 20
1315.093953049212
 30
0.0
 10
1153.318861436879
 20
1317.634507806038
 30
0.0
 10
1153.314691620516
 20
1318.75090915645
 30
0.0
 10
1153.312601274089
 20
1319.310565834596
 30
0.0
  0
ARC
  5
18C
330
1F
100
AcDbEntity
  8
0
  6
Continuous
 62
     8
370
    18
100
AcDbCircle
 10
1153.2052640299
 20
1303.5932794566
 30
0.0
 40
4.893426976800348
100
AcDbArc
 50
254.3462356244
 51
270.4570487635
  0
SPLINE
  5
18D
330
1F
100
AcDbEntity
  8
0
  6
Continuous
 62
     8
370
    18
100
AcDbSpline
210
0.0
220
0.0
230
1.0
 70
     8
 71
     3
 72
    13
 73
     9
 74
     0
 42
0.000000001
 43
0.00000001
 40
0.0
 40
0.0
 40
0.0
 40
0.0
 40
0.2029467742027883
 40
0.411777351985696
 40
0.6147258594307167
 40
0.8235672334127802
 40
0.9115535143092927
 40
1.0
 40
1.0
 40
1.0
 40
1.0
 10
1239.47076537958
 20
1298.700008169741
 30
0.0
 10
1239.460805788713
 20
1300.08266291841
 30
0.0
 10
1239.440597859958
 20
1302.888058142619
 30
0.0
 10
1239.400717879054
 20
1307.261458158467
 30
0.0
 10
1239.372535994952
 20
1311.65499989202
 30
0.0
 10
1239.383088191206
 20
1315.093953049212
 30
0.0
 10
1239.396202453853
 20
1317.634507806038
 30
0.0
 10
1239.400372270215
 20
1318.75090915645
 30
0.0
 10
1239.402462616642
 20
1319.310565834596
 30
0.0
  0
ARC
  5
18E
330
1F
100
AcDbEntity
  8
0
  6
Continuous
 62
     8
370
    18
100
AcDbCircle
 10
1239.4494187179
 20
1315.8443883091
 30
0.0
 40
3.466495566616061
100
AcDbArc
 50
67.0512577733
 51
90.7761350495
  0
SPLINE
  5
18F
330
1F
100
AcDbEntity
  8
0
  6
Continuous
 62
     8
370
    18
100
AcDbSpline
210
0.0
220
0.0
230
1.0
 70
     8
 71
     3
 72
    12
 73
     8
 74
     0
 42
0.000000001
 43
0.00000001
 40
0.0
 40
0.0
 40
0.0
 40
0.0
 40
0.113918570134184
 40
0.3290869588708606
 40
0.5442936150078446
 40
0.8274287365843247
 40
1.0
 40
1.0
 40
1.0
 40
1.0
 10
1240.830161457076
 20
1298.881350676088
 30
0.0
 10
1240.829793010049
 20
1299.634804543545
 30
0.0
 10
1240.828728643532
 20
1301.811375418681
 30
0.0
 10
1240.822205561849
 20
1305.568324511968
 30
0.0
 10
1240.808886272039
 20
1310.512937191504
 30
0.0
 10
1240.80711592976
 20
1315.099067375408
 30
0.0
 10
1240.802702546778
 20
1317.955009287746
 30
0.0
 10
1240.801031244593
 20
1319.036524755348
 30
0.0
  0
ARC
  5
190
330
1F
100
AcDbEntity
  8
0
  6
Continuous
 62
     8
370
    18
100
AcDbCircle
 10
1239.5097998608
 20
1303.5932794566
 30
0.0
 40
4.89342697679717
100
AcDbArc
 50
269.5429512365
 51
285.6537643756
  0
SPLINE
  5
191
330
1F
100
AcDbEntity
  8
0
  6
Continuous
 62
     8
370
    18
100
AcDbSpline
210
0.0
220
0.0
230
1.0
 70
     8
 71
     3
 72
    12
 73
     8
 74
     0
 42
0.000000001
 43
0.00000001
 40
0.0
 40
0.0
 40
0.0
 40
0.0
 40
0.1720163517392795
 40
0.4559765852483136
 40
0.6679924881472427
 40
0.8863162030497852
 40
0.9999999999999999
 40
0.9999999999999999
 40
0.9999999999999999
 40
0.9999999999999999
 10
1242.867861130874
 20
1318.656777440888
 30
0.0
 10
1242.88617523491
 20
1317.609074524071
 30
0.0
 10
1242.934721797699
 20
1314.831850187347
 30
0.0
 10
1242.965841176445
 20
1310.410165922111
 30
0.0
 10
1242.90791055873
 20
1305.621424481706
 30
0.0
 10
1242.847181069137
 20
1301.979274092669
 30
0.0
 10
1242.816326590142
 20
1299.847935440451
 30
0.0
 10
1242.805761605315
 20
1299.11813668012
 30
0.0
  0
ARC
  5
192
330
1F
100
AcDbEntity
  8
0
  6
Continuous
 62
     8
370
    18
100
AcDbCircle
 10
1242.7019214716
 20
1291.62451305
 30
0.0
 40
7.494343058842273
100
AcDbArc
 50
89.206095618
 51
104.4630966536
  0
ARC
  5
193
330
1F
100
AcDbEntity
  8
0
  6
Continuous
 62
     8
370
    18
100
AcDbCircle
 10
1242.7641980986
 20
1323.9069608439
 30
0.0
 40
5.25120669842904
100
AcDbArc
 50
248.0467083646
 51
271.13113812
  0
ARC
  5
194
330
1F
100
AcDbEntity
  8
0
  6
Continuous
 62
     8
370
    18
100
AcDbCircle
 10
1150.0131424192
 20
1291.6245130509
 30
0.0
 40
7.494343057920174
100
AcDbArc
 50
75.536903345
 51
90.7939043825
  0
SPLINE
  5
195
330
1F
100
AcDbEntity
  8
0
  6
Continuous
 62
     8
370
    18
100
AcDbSpline
210
0.0
220
0.0
230
1.0
 70
     8
 71
     3
 72
    12
 73
     8
 74
     0
 42
0.000000001
 43
0.00000001
 40
0.0
 40
0.0
 40
0.0
 40
0.0
 40
0.1720163517394621
 40
0.4559765852487099
 40
0.6679924881477984
 40
0.8863162030505051
 40
0.9999999999999999
 40
0.9999999999999999
 40
0.9999999999999999
 40
0.9999999999999999
 10
1149.847202759858
 20
1318.656777440889
 30
0.0
 10
1149.828888655821
 20
1317.609074524072
 30
0.0
 10
1149.780342093032
 20
1314.831850187347
 30
0.0
 10
1149.749222714286
 20
1310.410165922111
 30
0.0
 10
1149.807153332001
 20
1305.621424481706
 30
0.0
 10
1149.867882821594
 20
1301.979274092674
 30
0.0
 10
1149.898737300589
 20
1299.847935440461
 30
0.0
 10
1149.909302285416
 20
1299.118136680135
 30
0.0
  0
ARC
  5
196
330
1F
100
AcDbEntity
  8
0
  6
Continuous
 62
     8
370
    18
100
AcDbCircle
 10
1149.9508657921
 20
1323.9069608439
 30
0.0
 40
5.251206698466635
100
AcDbArc
 50
268.8688618801
 51
291.9532916353
  0
SPLINE
  5
197
330
1F
100
AcDbEntity
  8
0
  6
Continuous
 62
     8
370
    18
100
AcDbSpline
210
0.0
220
0.0
230
1.0
 70
     8
 71
     3
 72
    18
 73
    14
 74
     0
 42
0.000000001
 43
0.00000001
 40
0.0
 40
0.0
 40
0.0
 40
0.0
 40
0.1170843799009932
 40
0.2372819249028646
 40
0.3300747022077617
 40
0.4254586925014802
 40
0.473436016495329
 40
0.5731168771933333
 40
0.6761579172513451
 40
0.7772864519268958
 40
0.881133213239927
 40
0.9999978571948125
 40
1.0
 40
1.0
 40
1.0
 40
1.0
 10
1178.604488929893
 20
1294.012677815449
 30
0.0
 10
1177.952264842123
 20
1294.763808557519
 30
0.0
 10
1176.63047463283
 20
1296.286041911643
 30
0.0
 10
1175.169266058856
 20
1298.826685637778
 30
0.0
 10
1174.139443738005
 20
1301.429738666155
 30
0.0
 10
1173.631498880683
 20
1303.561506562377
 30
0.0
 10
1173.349752327689
 20
1305.806211105343
 30
0.0
 10
1173.320077620899
 20
1308.157449395209
 30
0.0
 10
1173.707592526999
 20
1310.957151631148
 30
0.0
 10
1174.491280950121
 20
1313.674519081321
 30
0.0
 10
1175.702334594843
 20
1316.327712779617
 30
0.0
 10
1176.781424687922
 20
1317.965342268202
 30
0.0
 10
1177.414613608851
 20
1318.774362872716
 30
0.0
 10
1177.414625023314
 20
1318.774377456886
 30
0.0
  0
SPLINE
  5
198
330
1F
100
AcDbEntity
  8
0
  6
Continuous
 62
     8
370
    18
100
AcDbSpline
210
0.0
220
0.0
230
1.0
 70
     8
 71
     3
 72
    12
 73
     8
 74
     0
 42
0.000000001
 43
0.00000001
 40
0.0
 40
0.0
 40
0.0
 40
0.0
 40
0.0000046503675272
 40
0.3713978843430409
 40
0.681267617149166
 40
0.9999954071658926
 40
0.9999999999999999
 40
0.9999999999999999
 40
0.9999999999999999
 40
0.9999999999999999
 10
1177.414625023314
 20
1318.774377456886
 30
0.0
 10
1177.414635590723
 20
1318.774392568513
 30
0.0
 10
1178.258593245377
 20
1319.981270542725
 30
0.0
 10
1180.045729999775
 20
1322.055884530646
 30
0.0
 10
1183.21861465658
 20
1324.583716237817
 30
0.0
 10
1185.495314706622
 20
1325.841279819447
 30
0.0
 10
1186.705065316199
 20
1326.381831185691
 30
0.0
 10
1186.705082748328
 20
1326.381838974867
 30
0.0
  0
SPLINE
  5
199
330
1F
100
AcDbEntity
  8
0
  6
Continuous
 62
     8
370
    18
100
AcDbSpline
210
0.0
220
0.0
230
1.0
 70
     8
 71
     3
 72
    13
 73
     9
 74
     0
 42
0.000000001
 43
0.00000001
 40
0.0
 40
0.0
 40
0.0
 40
0.0
 40
0.0000060748835873
 40
0.0389961893340879
 40
0.4427059282785926
 40
0.8520774557676234
 40
0.9999939251164126
 40
1.0
 40
1.0
 40
1.0
 40
1.0
 10
1186.705082748328
 20
1326.381838974867
 30
0.0
 10
1186.705101654911
 20
1326.381844402986
 30
0.0
 10
1186.826467715117
 20
1326.416688843431
 30
0.0
 10
1188.20683090383
 20
1326.802708135589
 30
0.0
 10
1190.904345759103
 20
1327.374956293989
 30
0.0
 10
1194.036259808235
 20
1327.696049307314
 30
0.0
 10
1195.870567947626
 20
1327.739704908429
 30
0.0
 10
1196.357511947548
 20
1327.741376737618
 30
0.0
 10
1196.357531945366
 20
1327.741376806276
 30
0.0
  0
ARC
  5
19A
330
1F
100
AcDbEntity
  8
0
  6
Continuous
 62
     8
370
    18
100
AcDbCircle
 10
1180.5393642511
 20
1291.0459221689
 30
0.0
 40
3.541946015253977
100
AcDbArc
 50
94.7268731721
 51
123.1118118867
  0
LINE
  5
19B
330
1F
100
AcDbEntity
  8
0
  6
Continuous
 62
     8
370
    18
100
AcDbLine
 10
1159.4340406929
 20
1319.3105658346
 30
0.0
 11
1153.3126012741
 21
1319.3105658346
 31
0.0
  0
LINE
  5
19C
330
1F
100
AcDbEntity
  8
0
  6
Continuous
 62
     8
370
    18
100
AcDbLine
 10
1159.5359849811
 20
1298.7000081697
 30
0.0
 11
1153.2442985112
 21
1298.7000081697
 31
0.0
  0
LINE
  5
19D
330
1F
100
AcDbEntity
  8
0
  6
Continuous
 62
     8
370
    18
100
AcDbLine
 10
1233.2810231979
 20
1319.3105658346
 30
0.0
 11
1239.4024626166
 21
1319.3105658346
 31
0.0
  0
LINE
  5
19E
330
1F
100
AcDbEntity
  8
0
  6
Continuous
 62
     8
370
    18
100
AcDbLine
 10
1233.1790789097
 20
1298.7000081697
 30
0.0
 11
1239.4707653796
 21
1298.7000081697
 31
0.0
  0
SPLINE
  5
19F
330
1F
100
AcDbEntity
  8
0
  6
Continuous
 62
     8
370
    18
100
AcDbSpline
210
0.0
220
0.0
230
1.0
 70
     8
 71
     3
 72
    13
 73
     9
 74
     0
 42
0.000000001
 43
0.00000001
 40
0.0
 40
0.0
 40
0.0
 40
0.0
 40
0.0000053737334978
 40
0.0906707942514925
 40
0.4284179505337209
 40
0.7661993120302135
 40
0.9999947023277418
 40
1.0
 40
1.0
 40
1.0
 40
1.0
 10
1278.553730222035
 20
1317.681664751603
 30
0.0
 10
1278.553727945652
 20
1317.681681886722
 30
0.0
 10
1278.515318608838
 20
1317.970802071576
 30
0.0
 10
1278.348259615258
 20
1319.32167164672
 30
0.0
 10
1278.206794712624
 20
1321.602411666486
 30
0.0
 10
1278.310616293459
 20
1323.969767533946
 30
0.0
 10
1278.49862196567
 20
1325.230633698549
 30
0.0
 10
1278.585341882083
 20
1325.702859834247
 30
0.0
 10
1278.585343847063
 20
1325.702870534383
 30
0.0
  0
SPLINE
  5
1A0
330
1F
100
AcDbEntity
  8
0
  6
Continuous
 62
     8
370
    18
100
AcDbSpline
210
0.0
220
0.0
230
1.0
 70
     8
 71
     3
 72
    16
 73
    12
 74
     0
 42
0.000000001
 43
0.00000001
 40
0.0
 40
0.0
 40
0.0
 40
0.0
 40
0.1394094534900458
 40
0.2827549548329892
 40
0.4174662298324164
 40
0.5565082610192974
 40
0.6798003195682379
 40
0.8081263295826786
 40
0.903292353507241
 40
0.9999977543174701
 40
1.0
 40
1.0
 40
1.0
 40
1.0
 10
1275.360257918697
 20
1293.319926291374
 30
0.0
 10
1275.642010744462
 20
1294.252173031417
 30
0.0
 10
1276.213471327148
 20
1296.142987307457
 30
0.0
 10
1277.14215675953
 20
1299.362553285597
 30
0.0
 10
1278.005892608808
 20
1302.805033560237
 30
0.0
 10
1278.660749063738
 20
1306.269585835888
 30
0.0
 10
1279.022704029733
 20
1309.748736805657
 30
0.0
 10
1279.011951116755
 20
1312.784385128907
 30
0.0
 10
1278.813478347837
 20
1315.444624662966
 30
0.0
 10
1278.642078014338
 20
1316.949472161368
 30
0.0
 10
1278.553732273543
 20
1317.681647749495
 30
0.0
 10
1278.553730222035
 20
1317.681664751603
 30
0.0
  0
SPLINE
  5
1A1
330
1F
100
AcDbEntity
  8
0
  6
Continuous
 62
     8
370
    18
100
AcDbSpline
210
0.0
220
0.0
230
1.0
 70
     8
 71
     3
 72
    15
 73
    11
 74
     0
 42
0.000000001
 43
0.00000001
 40
0.0
 40
0.0
 40
0.0
 40
0.0
 40
0.0741043092108415
 40
0.2157454416471948
 40
0.3576180114207954
 40
0.4992302469455335
 40
0.6408865918967259
 40
0.787509063081813
 40
0.9341450836288823
 40
0.9999999999999999
 40
0.9999999999999999
 40
0.9999999999999999
 40
0.9999999999999999
 10
1242.40422083624
 20
1294.057365031669
 30
0.0
 10
1243.392850250998
 20
1294.062787443623
 30
0.0
 10
1246.271121325699
 20
1294.078574118842
 30
0.0
 10
1251.034465060767
 20
1293.954975451678
 30
0.0
 10
1256.469859948113
 20
1293.689181390694
 30
0.0
 10
1261.576598919163
 20
1293.603930433528
 30
0.0
 10
1266.292996890375
 20
1293.50287860841
 30
0.0
 10
1270.492609257303
 20
1293.417957139404
 30
0.0
 10
1273.46096096748
 20
1293.357100491789
 30
0.0
 10
1274.910895945424
 20
1293.328721478479
 30
0.0
 10
1275.360257918697
 20
1293.319926291374
 30
0.0
  0
SPLINE
  5
1A2
330
1F
100
AcDbEntity
  8
0
  6
Continuous
 62
     8
370
    18
100
AcDbSpline
210
0.0
220
0.0
230
1.0
 70
     8
 71
     3
 72
    11
 73
     7
 74
     0
 42
0.000000001
 43
0.00000001
 40
0.0
 40
0.0
 40
0.0
 40
0.0
 40
0.2471593440107308
 40
0.4953474341893521
 40
0.7469783905682514
 40
1.0
 40
1.0
 40
1.0
 40
1.0
 10
1242.805761605315
 20
1299.11813668012
 30
0.0
 10
1242.796746674128
 20
1298.680722714095
 30
0.0
 10
1242.778679289094
 20
1297.804074143042
 30
0.0
 10
1242.706131284179
 20
1296.522011935235
 30
0.0
 10
1242.599329000696
 20
1295.26253618221
 30
0.0
 10
1242.469376259768
 20
1294.459826081702
 30
0.0
 10
1242.40422083624
 20
1294.057365031669
 30
0.0
  0
SPLINE
  5
1A3
330
1F
100
AcDbEntity
  8
0
  6
Continuous
 62
     8
370
    18
100
AcDbSpline
210
0.0
220
0.0
230
1.0
 70
     8
 71
     3
 72
    10
 73
     6
 74
     0
 42
0.000000001
 43
0.00000001
 40
0.0
 40
0.0
 40
0.0
 40
0.0
 40
0.4999712442949032
 40
0.7499826264316222
 40
1.0
 40
1.0
 40
1.0
 40
1.0
 10
1242.840777529251
 20
1321.364357060267
 30
0.0
 10
1242.845280567733
 20
1320.914915103521
 30
0.0
 10
1242.852035357465
 20
1320.240729011831
 30
0.0
 10
1242.861209847094
 20
1319.336752948983
 30
0.0
 10
1242.86564401857
 20
1318.883437754154
 30
0.0
 10
1242.867861130874
 20
1318.656777440888
 30
0.0
  0
SPLINE
  5
1A4
330
1F
100
AcDbEntity
  8
0
  6
Continuous
 62
     8
370
    18
100
AcDbSpline
210
0.0
220
0.0
230
1.0
 70
     8
 71
     3
 72
    14
 73
    10
 74
     0
 42
0.000000001
 43
0.00000001
 40
0.0
 40
0.0
 40
0.0
 40
0.0
 40
0.0000086772971397
 40
0.0546554576672002
 40
0.1545956188497067
 40
0.2815115513694928
 40
0.4757791841528357
 40
0.7372214479202227
 40
1.0
 40
1.0
 40
1.0
 40
1.0
 10
1240.189894669433
 20
1326.400401935439
 30
0.0
 10
1240.18991451232
 20
1326.400399814606
 30
0.0
 10
1240.314898370873
 20
1326.387041379161
 30
0.0
 10
1240.665355275133
 20
1326.322640174994
 30
0.0
 10
1241.255569426015
 20
1326.066653989682
 30
0.0
 10
1241.937573057168
 20
1325.45071738606
 30
0.0
 10
1242.488299972919
 20
1324.375043339769
 30
0.0
 10
1242.795736630515
 20
1322.954227315338
 30
0.0
 10
1242.825738403889
 20
1321.895213653866
 30
0.0
 10
1242.840777529251
 20
1321.364357060267
 30
0.0
  0
SPLINE
  5
1A5
330
1F
100
AcDbEntity
  8
0
  6
Continuous
 62
     8
370
    18
100
AcDbSpline
210
0.0
220
0.0
230
1.0
 70
     8
 71
     3
 72
    10
 73
     6
 74
     0
 42
0.000000001
 43
0.00000001
 40
0.0
 40
0.0
 40
0.0
 40
0.0
 40
0.4993573099097663
 40
0.9998128115861746
 40
0.9999999999999999
 40
0.9999999999999999
 40
0.9999999999999999
 40
0.9999999999999999
 10
1239.869597471685
 20
1326.410013098344
 30
0.0
 10
1239.922954475881
 20
1326.409936478245
 30
0.0
 10
1240.029785827549
 20
1326.409783069543
 30
0.0
 10
1240.136538852857
 20
1326.404168328014
 30
0.0
 10
1240.189874727351
 20
1326.400403343153
 30
0.0
 10
1240.189894669433
 20
1326.400401935439
 30
0.0
  0
SPLINE
  5
1A6
330
1F
100
AcDbEntity
  8
0
  6
Continuous
 62
     8
370
    18
100
AcDbSpline
210
0.0
220
0.0
230
1.0
 70
     8
 71
     3
 72
    11
 73
     7
 74
     0
 42
0.000000001
 43
0.00000001
 40
0.0
 40
0.0
 40
0.0
 40
0.0
 40
0.2499912677933776
 40
0.499986756231606
 40
0.749992678491824
 40
0.9999999999999999
 40
0.9999999999999999
 40
0.9999999999999999
 40
0.9999999999999999
 10
1232.760413405956
 20
1326.319864611602
 30
0.0
 10
1233.352903463379
 20
1326.325362466529
 30
0.0
 10
1234.537893581335
 20
1326.336358269205
 30
0.0
 10
1236.315251593639
 20
1326.357715258938
 30
0.0
 10
1238.092443152821
 20
1326.384588178518
 30
0.0
 10
1239.27721159357
 20
1326.401538109258
 30
0.0
 10
1239.869597471685
 20
1326.410013098344
 30
0.0
  0
SPLINE
  5
1A7
330
1F
100
AcDbEntity
  8
0
  6
Continuous
 62
     8
370
    18
100
AcDbSpline
210
0.0
220
0.0
230
1.0
 70
     8
 71
     3
 72
    13
 73
     9
 74
     0
 42
0.000000001
 43
0.00000001
 40
0.0
 40
0.0
 40
0.0
 40
0.0
 40
0.2367907207557336
 40
0.4727251677986265
 40
0.6779786081237266
 40
0.8068813697292146
 40
0.9029811039670029
 40
1.0
 40
1.0
 40
1.0
 40
1.0
 10
1229.892162768921
 20
1321.428843242049
 30
0.0
 10
1229.908643905072
 20
1321.913267541938
 30
0.0
 10
1229.941546578909
 20
1322.880364384752
 30
0.0
 10
1230.227583235568
 20
1324.231532733863
 30
0.0
 10
1230.738441230369
 20
1325.302021017615
 30
0.0
 10
1231.418948073216
 20
1325.94101053799
 30
0.0
 10
1232.084571278778
 20
1326.260866952916
 30
0.0
 10
1232.534419002865
 20
1326.300136423431
 30
0.0
 10
1232.760413405956
 20
1326.319864611602
 30
0.0
  0
SPLINE
  5
1A8
330
1F
100
AcDbEntity
  8
0
  6
Continuous
 62
     8
370
    18
100
AcDbSpline
210
0.0
220
0.0
230
1.0
 70
     8
 71
     3
 72
    12
 73
     8
 74
     0
 42
0.000000001
 43
0.00000001
 40
0.0
 40
0.0
 40
0.0
 40
0.0
 40
0.1229311840443852
 40
0.3421870394857956
 40
0.5614466570298641
 40
0.7807202463634132
 40
1.0
 40
1.0
 40
1.0
 40
1.0
 10
1229.85705769608
 20
1318.711495063679
 30
0.0
 10
1229.858528441861
 20
1318.823391210276
 30
0.0
 10
1229.862622359518
 20
1319.134861496937
 30
0.0
 10
1229.868861747773
 20
1319.64483654646
 30
0.0
 10
1229.876721036792
 20
1320.241130675305
 30
0.0
 10
1229.884570558293
 20
1320.836065859505
 30
0.0
 10
1229.88963200833
 20
1321.231248929637
 30
0.0
 10
1229.892162768921
 20
1321.428843242049
 30
0.0
  0
SPLINE
  5
1A9
330
1F
100
AcDbEntity
  8
0
  6
Continuous
 62
     8
370
    18
100
AcDbSpline
210
0.0
220
0.0
230
1.0
 70
     8
 71
     3
 72
    11
 73
     7
 74
     0
 42
0.000000001
 43
0.00000001
 40
0.0
 40
0.0
 40
0.0
 40
0.0
 40
0.2462626445434073
 40
0.4941955352617288
 40
0.7464627646446513
 40
1.0
 40
1.0
 40
1.0
 40
1.0
 10
1230.41155810651
 20
1294.070427105934
 30
0.0
 10
1230.341488911052
 20
1294.453676620779
 30
0.0
 10
1230.200875284415
 20
1295.222774993287
 30
0.0
 10
1230.07866579301
 20
1296.449211960184
 30
0.0
 10
1229.992963504926
 20
1297.722253018686
 30
0.0
 10
1229.969700953334
 20
1298.604834617144
 30
0.0
 10
1229.958040472992
 20
1299.047233437337
 30
0.0
  0
SPLINE
  5
1AA
330
1F
100
AcDbEntity
  8
0
  6
Continuous
 62
     8
370
    18
100
AcDbSpline
210
0.0
220
0.0
230
1.0
 70
     8
 71
     3
 72
    10
 73
     6
 74
     0
 42
0.000000001
 43
0.00000001
 40
0.0
 40
0.0
 40
0.0
 40
0.0
 40
0.1324174185454166
 40
0.5661890535506258
 40
1.0
 40
1.0
 40
1.0
 40
1.0
 10
1214.110574960838
 20
1294.012677815449
 30
0.0
 10
1214.830026890413
 20
1294.014288003609
 30
0.0
 10
1217.906252145033
 20
1294.021172829795
 30
0.0
 10
1223.339856220971
 20
1294.045161117819
 30
0.0
 10
1228.054252939245
 20
1294.062004855491
 30
0.0
 10
1230.41155810651
 20
1294.070427105934
 30
0.0
  0
SPLINE
  5
1AB
330
1F
100
AcDbEntity
  8
0
  6
Continuous
 62
     8
370
    18
100
AcDbSpline
210
0.0
220
0.0
230
1.0
 70
    24
 71
     3
 72
    13
 73
     9
 74
     0
 42
0.000000001
 43
0.00000001
 40
0.0
 40
0.0
 40
0.0
 40
0.0
 40
0.011033813517655
 40
0.1238791831256938
 40
0.2424431658814014
 40
0.3676203809258442
 40
0.4940963046860035
 40
1.0
 40
1.0
 40
1.0
 40
1.0
 10
1196.357531945366
 20
1327.741376806286
 30
0.0
 10
1196.357531945366
 20
1327.756352944523
 30
0.0
 10
1196.357531945366
 20
1327.924493521507
 30
0.0
 10
1196.357531945366
 20
1328.226897759944
 30
0.0
 10
1196.357531945366
 20
1328.553504824058
 30
0.0
 10
1196.357531945366
 20
1329.429223911954
 30
0.0
 10
1196.357531945366
 20
1331.036283225887
 30
0.0
 10
1196.357531945366
 20
1332.416577208567
 30
0.0
 10
1196.357531945366
 20
1333.520812394831
 30
0.0
  0
SPLINE
  5
1AC
330
1F
100
AcDbEntity
  8
0
  6
Continuous
 62
     8
370
    18
100
AcDbSpline
210
0.0
220
0.0
230
1.0
 70
     8
 71
     3
 72
    11
 73
     7
 74
     0
 42
0.000000001
 43
0.00000001
 40
0.0
 40
0.0
 40
0.0
 40
0.0
 40
0.0000075172908922
 40
0.4486753649769442
 40
0.9105406426921441
 40
1.0
 40
1.0
 40
1.0
 40
1.0
 10
1278.585343847063
 20
1325.702870534383
 30
0.0
 10
1278.585347501184
 20
1325.702878718592
 30
0.0
 10
1278.803446532565
 20
1326.191359594032
 30
0.0
 10
1279.117230814454
 20
1326.977579044742
 30
0.0
 10
1279.243419698618
 20
1327.449518724127
 30
0.0
 10
1279.287590942305
 20
1327.59368114995
 30
0.0
 10
1279.294758282236
 20
1327.617073317001
 30
0.0
  0
SPLINE
  5
1AD
330
1F
100
AcDbEntity
  8
0
  6
Continuous
 62
     8
370
    18
100
AcDbSpline
210
0.0
220
0.0
230
1.0
 70
     8
 71
     3
 72
    11
 73
     7
 74
     0
 42
0.000000001
 43
0.00000001
 40
0.0
 40
0.0
 40
0.0
 40
0.0
 40
0.2462626445433337
 40
0.4941955352616803
 40
0.7464627646446259
 40
1.0
 40
1.0
 40
1.0
 40
1.0
 10
1162.303505784221
 20
1294.070427105934
 30
0.0
 10
1162.373574979679
 20
1294.45367662078
 30
0.0
 10
1162.514188606316
 20
1295.222774993287
 30
0.0
 10
1162.636398097721
 20
1296.449211960184
 30
0.0
 10
1162.722100385805
 20
1297.722253018686
 30
0.0
 10
1162.745362937397
 20
1298.604834617144
 30
0.0
 10
1162.757023417739
 20
1299.047233437337
 30
0.0
  0
SPLINE
  5
1AE
330
1F
100
AcDbEntity
  8
0
  6
Continuous
 62
     8
370
    18
100
AcDbSpline
210
0.0
220
0.0
230
1.0
 70
     8
 71
     3
 72
    12
 73
     8
 74
     0
 42
0.000000001
 43
0.00000001
 40
0.0
 40
0.0
 40
0.0
 40
0.0
 40
0.1229311840443858
 40
0.3421870394857948
 40
0.5614466570298619
 40
0.7807202463634095
 40
1.0
 40
1.0
 40
1.0
 40
1.0
 10
1162.858006194652
 20
1318.711495063679
 30
0.0
 10
1162.85653544887
 20
1318.823391210276
 30
0.0
 10
1162.852441531214
 20
1319.134861496937
 30
0.0
 10
1162.846202142958
 20
1319.64483654646
 30
0.0
 10
1162.83834285394
 20
1320.241130675305
 30
0.0
 10
1162.830493332438
 20
1320.836065859505
 30
0.0
 10
1162.825431882401
 20
1321.231248929637
 30
0.0
 10
1162.822901121811
 20
1321.428843242049
 30
0.0
  0
SPLINE
  5
1AF
330
1F
100
AcDbEntity
  8
0
  6
Continuous
 62
     8
370
    18
100
AcDbSpline
210
0.0
220
0.0
230
1.0
 70
     8
 71
     3
 72
    13
 73
     9
 74
     0
 42
0.000000001
 43
0.00000001
 40
0.0
 40
0.0
 40
0.0
 40
0.0
 40
0.2367907207557312
 40
0.4727251677986248
 40
0.6779786081237257
 40
0.8068813697292142
 40
0.9029811039670027
 40
1.0
 40
1.0
 40
1.0
 40
1.0
 10
1162.822901121811
 20
1321.428843242049
 30
0.0
 10
1162.806419985659
 20
1321.913267541938
 30
0.0
 10
1162.773517311822
 20
1322.880364384752
 30
0.0
 10
1162.487480655163
 20
1324.231532733863
 30
0.0
 10
1161.976622660362
 20
1325.302021017615
 30
0.0
 10
1161.296115817515
 20
1325.94101053799
 30
0.0
 10
1160.630492611953
 20
1326.260866952916
 30
0.0
 10
1160.180644887866
 20
1326.300136423431
 30
0.0
 10
1159.954650484775
 20
1326.319864611602
 30
0.0
  0
SPLINE
  5
1B0
330
1F
100
AcDbEntity
  8
0
  6
Continuous
 62
     8
370
    18
100
AcDbSpline
210
0.0
220
0.0
230
1.0
 70
     8
 71
     3
 72
    11
 73
     7
 74
     0
 42
0.000000001
 43
0.00000001
 40
0.0
 40
0.0
 40
0.0
 40
0.0
 40
0.2499912677933776
 40
0.499986756231606
 40
0.749992678491824
 40
0.9999999999999999
 40
0.9999999999999999
 40
0.9999999999999999
 40
0.9999999999999999
 10
1159.954650484775
 20
1326.319864611602
 30
0.0
 10
1159.362160427352
 20
1326.325362466529
 30
0.0
 10
1158.177170309397
 20
1326.336358269205
 30
0.0
 10
1156.399812297093
 20
1326.357715258938
 30
0.0
 10
1154.62262073791
 20
1326.384588178518
 30
0.0
 10
1153.437852297161
 20
1326.401538109258
 30
0.0
 10
1152.845466419046
 20
1326.410013098344
 30
0.0
  0
SPLINE
  5
1B1
330
1F
100
AcDbEntity
  8
0
  6
Continuous
 62
     8
370
    18
100
AcDbSpline
210
0.0
220
0.0
230
1.0
 70
     8
 71
     3
 72
    10
 73
     6
 74
     0
 42
0.000000001
 43
0.00000001
 40
0.0
 40
0.0
 40
0.0
 40
0.0
 40
0.4993573099105828
 40
0.9998128115878191
 40
0.9999999999999999
 40
0.9999999999999999
 40
0.9999999999999999
 40
0.9999999999999999
 10
1152.845466419046
 20
1326.410013098344
 30
0.0
 10
1152.79210941485
 20
1326.409936478244
 30
0.0
 10
1152.685278063181
 20
1326.40978306954
 30
0.0
 10
1152.578525037879
 20
1326.404168328022
 30
0.0
 10
1152.525189163381
 20
1326.400403343153
 30
0.0
 10
1152.525169221298
 20
1326.400401935439
 30
0.0
  0
SPLINE
  5
1B2
330
1F
100
AcDbEntity
  8
0
  6
Continuous
 62
     8
370
    18
100
AcDbSpline
210
0.0
220
0.0
230
1.0
 70
     8
 71
     3
 72
    14
 73
    10
 74
     0
 42
0.000000001
 43
0.00000001
 40
0.0
 40
0.0
 40
0.0
 40
0.0
 40
0.0000086772972158
 40
0.0546554576672721
 40
0.1545956188497709
 40
0.2815115513695473
 40
0.4757791841528753
 40
0.7372214479202422
 40
1.0
 40
1.0
 40
1.0
 40
1.0
 10
1152.525169221298
 20
1326.400401935439
 30
0.0
 10
1152.525149378411
 20
1326.400399814606
 30
0.0
 10
1152.400165519841
 20
1326.387041379216
 30
0.0
 10
1152.049708615614
 20
1326.322640174946
 30
0.0
 10
1151.45949446471
 20
1326.066653989702
 30
0.0
 10
1150.777490833567
 20
1325.45071738605
 30
0.0
 10
1150.226763917811
 20
1324.375043339773
 30
0.0
 10
1149.919327260217
 20
1322.954227315337
 30
0.0
 10
1149.889325486843
 20
1321.895213653866
 30
0.0
 10
1149.87428636148
 20
1321.364357060267
 30
0.0
  0
SPLINE
  5
1B3
330
1F
100
AcDbEntity
  8
0
  6
Continuous
 62
     8
370
    18
100
AcDbSpline
210
0.0
220
0.0
230
1.0
 70
     8
 71
     3
 72
    10
 73
     6
 74
     0
 42
0.000000001
 43
0.00000001
 40
0.0
 40
0.0
 40
0.0
 40
0.0
 40
0.499971244295077
 40
0.7499826264318837
 40
1.0
 40
1.0
 40
1.0
 40
1.0
 10
1149.87428636148
 20
1321.364357060267
 30
0.0
 10
1149.869783322999
 20
1320.914915103521
 30
0.0
 10
1149.863028533267
 20
1320.240729011831
 30
0.0
 10
1149.853854043637
 20
1319.336752948984
 30
0.0
 10
1149.849419872161
 20
1318.883437754154
 30
0.0
 10
1149.847202759858
 20
1318.656777440889
 30
0.0
  0
SPLINE
  5
1B4
330
1F
100
AcDbEntity
  8
0
  6
Continuous
 62
     8
370
    18
100
AcDbSpline
210
0.0
220
0.0
230
1.0
 70
     8
 71
     3
 72
    11
 73
     7
 74
     0
 42
0.000000001
 43
0.00000001
 40
0.0
 40
0.0
 40
0.0
 40
0.0
 40
0.2471593440128812
 40
0.4953474341907702
 40
0.7469783905689276
 40
1.0
 40
1.0
 40
1.0
 40
1.0
 10
1149.909302285416
 20
1299.118136680135
 30
0.0
 10
1149.918317216603
 20
1298.680722714105
 30
0.0
 10
1149.936384601637
 20
1297.804074143047
 30
0.0
 10
1150.008932606552
 20
1296.522011935235
 30
0.0
 10
1150.115734890035
 20
1295.26253618221
 30
0.0
 10
1150.245687630964
 20
1294.459826081702
 30
0.0
 10
1150.310843054492
 20
1294.057365031669
 30
0.0
  0
SPLINE
  5
1B5
330
1F
100
AcDbEntity
  8
0
  6
Continuous
 62
     8
370
    18
100
AcDbSpline
210
0.0
220
0.0
230
1.0
 70
     8
 71
     3
 72
    18
 73
    14
 74
     0
 42
0.000000001
 43
0.00000001
 40
0.0
 40
0.0
 40
0.0
 40
0.0
 40
0.0523730000254506
 40
0.1524774488988085
 40
0.2527454654215867
 40
0.3528294914886477
 40
0.4529446917616002
 40
0.5565696869728496
 40
0.6602042581553614
 40
0.7756279704749326
 40
0.8910143299899648
 40
0.9999989407468235
 40
1.0
 40
1.0
 40
1.0
 40
1.0
 10
1150.310843054492
 20
1294.057365031669
 30
0.0
 10
1149.322214524078
 20
1294.062787433782
 30
0.0
 10
1146.443946024034
 20
1294.07857408035
 30
0.0
 10
1141.680569281785
 20
1293.954975780489
 30
0.0
 10
1136.24531254662
 20
1293.689180182152
 30
0.0
 10
1131.138060928925
 20
1293.603934929702
 30
0.0
 10
1126.423597740169
 20
1293.502861574384
 30
0.0
 10
1122.216518266903
 20
1293.418023199107
 30
0.0
 10
1118.471700062766
 20
1293.340326114504
 30
0.0
 10
1115.434962301398
 20
1293.286264179706
 30
0.0
 10
1113.339063103545
 20
1293.240984595303
 30
0.0
 10
1112.675022956825
 20
1293.200250215672
 30
0.0
 10
1112.526695198859
 20
1293.182958459512
 30
0.0
 10
1112.526693757232
 20
1293.18295829145
 30
0.0
  0
SPLINE
  5
1B6
330
1F
100
AcDbEntity
  8
0
  6
Continuous
 62
     8
370
    18
100
AcDbSpline
210
0.0
220
0.0
230
1.0
 70
     8
 71
     3
 72
    10
 73
     6
 74
     0
 42
0.000000001
 43
0.00000001
 40
0.0
 40
0.0
 40
0.0
 40
0.0
 40
0.1324174185454049
 40
0.566189053550618
 40
1.0
 40
1.0
 40
1.0
 40
1.0
 10
1178.604488929893
 20
1294.012677815449
 30
0.0
 10
1177.885037000319
 20
1294.014288003609
 30
0.0
 10
1174.808811745698
 20
1294.021172829795
 30
0.0
 10
1169.375207669761
 20
1294.045161117818
 30
0.0
 10
1164.660810951487
 20
1294.062004855491
 30
0.0
 10
1162.303505784221
 20
1294.070427105934
 30
0.0
  0
SPLINE
  5
1B7
330
1F
100
AcDbEntity
  8
0
  6
Continuous
 62
     8
370
    18
100
AcDbSpline
210
0.0
220
0.0
230
1.0
 70
     8
 71
     3
 72
    13
 73
     9
 74
     0
 42
0.000000001
 43
0.00000001
 40
0.0
 40
0.0
 40
0.0
 40
0.0
 40
0.2478822118510362
 40
0.5026960354996771
 40
0.590687665685428
 40
0.6789803873276623
 40
0.8384693780655542
 40
1.0
 40
1.0
 40
1.0
 40
1.0
 10
1233.179078909667
 20
1298.700008169741
 30
0.0
 10
1233.16400562585
 20
1297.952299692
 30
0.0
 10
1233.133437559022
 20
1296.435974318495
 30
0.0
 10
1233.023868807596
 20
1294.831156511668
 30
0.0
 10
1232.910685152172
 20
1293.75286415859
 30
0.0
 10
1232.808214004497
 20
1292.955941440317
 30
0.0
 10
1232.644264074063
 20
1292.052173052499
 30
0.0
 10
1232.45189467656
 20
1291.45496345939
 30
0.0
 10
1232.355098259167
 20
1291.154459586131
 30
0.0
  0
SPLINE
  5
1B8
330
1F
100
AcDbEntity
  8
0
  6
Continuous
 62
     8
370
    18
100
AcDbSpline
210
0.0
220
0.0
230
1.0
 70
     8
 71
     3
 72
    17
 73
    13
 74
     0
 42
0.000000001
 43
0.00000001
 40
0.0
 40
0.0
 40
0.0
 40
0.0
 40
0.3465956100132951
 40
0.579799729013695
 40
0.7338947238710007
 40
0.8810219207409982
 40
0.9331891565949306
 40
0.9524593563030774
 40
0.9753918570412509
 40
0.9867243403144456
 40
0.9980977605384077
 40
1.0
 40
1.0
 40
1.0
 40
1.0
 10
1231.92039017188
 20
1294.05182827564
 30
0.0
 10
1231.930407194926
 20
1293.671167319127
 30
0.0
 10
1231.947164092821
 20
1293.034381644249
 30
0.0
 10
1231.964958462903
 20
1292.30011742393
 30
0.0
 10
1232.000051483188
 20
1291.791808312377
 30
0.0
 10
1232.048751248874
 20
1291.471465274798
 30
0.0
 10
1232.131108659496
 20
1291.28416681016
 30
0.0
 10
1232.191144935543
 20
1291.210615698023
 30
0.0
 10
1232.240516820872
 20
1291.173565436548
 30
0.0
 10
1232.298824160967
 20
1291.155425806247
 30
0.0
 10
1232.333998824597
 20
1291.153148341511
 30
0.0
 10
1232.352453876261
 20
1291.154295248416
 30
0.0
 10
1232.355098259167
 20
1291.154459586131
 30
0.0
  0
SPLINE
  5
1B9
330
1F
100
AcDbEntity
  8
0
  6
Continuous
 62
     8
370
    18
100
AcDbSpline
210
0.0
220
0.0
230
1.0
 70
     8
 71
     3
 72
    11
 73
     7
 74
     0
 42
0.000000001
 43
0.00000001
 40
0.0
 40
0.0
 40
0.0
 40
0.0
 40
0.3674155899718356
 40
0.7400731437702898
 40
0.86992189696458
 40
1.0
 40
1.0
 40
1.0
 40
1.0
 10
1231.896827453786
 20
1298.866468161304
 30
0.0
 10
1231.897198521825
 20
1298.239431032233
 30
0.0
 10
1231.897945951975
 20
1296.976410757542
 30
0.0
 10
1231.90034710247
 20
1295.588739520102
 30
0.0
 10
1231.908820554289
 20
1294.624734873614
 30
0.0
 10
1231.916531364772
 20
1294.242909444509
 30
0.0
 10
1231.92039017188
 20
1294.05182827564
 30
0.0
  0
SPLINE
  5
1BA
330
1F
100
AcDbEntity
  8
0
  6
Continuous
 62
     8
370
    18
100
AcDbSpline
210
0.0
220
0.0
230
1.0
 70
     8
 71
     3
 72
    11
 73
     7
 74
     0
 42
0.000000001
 43
0.00000001
 40
0.0
 40
0.0
 40
0.0
 40
0.0
 40
0.3674155899718352
 40
0.740073143770289
 40
0.8699218969645792
 40
1.0
 40
1.0
 40
1.0
 40
1.0
 10
1160.818236436945
 20
1298.866468161304
 30
0.0
 10
1160.817865368907
 20
1298.239431032233
 30
0.0
 10
1160.817117938756
 20
1296.976410757542
 30
0.0
 10
1160.814716788261
 20
1295.588739520102
 30
0.0
 10
1160.806243336443
 20
1294.624734873614
 30
0.0
 10
1160.79853252596
 20
1294.242909444509
 30
0.0
 10
1160.794673718852
 20
1294.05182827564
 30
0.0
  0
SPLINE
  5
1BB
330
1F
100
AcDbEntity
  8
0
  6
Continuous
 62
     8
370
    18
100
AcDbSpline
210
0.0
220
0.0
230
1.0
 70
     8
 71
     3
 72
    17
 73
    13
 74
     0
 42
0.000000001
 43
0.00000001
 40
0.0
 40
0.0
 40
0.0
 40
0.0
 40
0.3465956100133236
 40
0.5797997290136835
 40
0.7338947238709843
 40
0.8810219207409782
 40
0.9331891565949104
 40
0.9524593563030558
 40
0.9753918570412519
 40
0.986724340314446
 40
0.9980977605384078
 40
1.0
 40
1.0
 40
1.0
 40
1.0
 10
1160.794673718852
 20
1294.05182827564
 30
0.0
 10
1160.784656695805
 20
1293.671167319127
 30
0.0
 10
1160.76789979791
 20
1293.034381644248
 30
0.0
 10
1160.750105427828
 20
1292.30011742393
 30
0.0
 10
1160.715012407543
 20
1291.791808312377
 30
0.0
 10
1160.666312641857
 20
1291.471465274798
 30
0.0
 10
1160.583955231235
 20
1291.28416681016
 30
0.0
 10
1160.523918955189
 20
1291.210615698023
 30
0.0
 10
1160.47454706986
 20
1291.173565436548
 30
0.0
 10
1160.416239729764
 20
1291.155425806247
 30
0.0
 10
1160.381065066134
 20
1291.153148341511
 30
0.0
 10
1160.362610014471
 20
1291.154295248416
 30
0.0
 10
1160.359965631565
 20
1291.154459586131
 30
0.0
  0
SPLINE
  5
1BC
330
1F
100
AcDbEntity
  8
0
  6
Continuous
 62
     8
370
    18
100
AcDbSpline
210
0.0
220
0.0
230
1.0
 70
     8
 71
     3
 72
    13
 73
     9
 74
     0
 42
0.000000001
 43
0.00000001
 40
0.0
 40
0.0
 40
0.0
 40
0.0
 40
0.2478822118510331
 40
0.5026960354996708
 40
0.590687665685421
 40
0.6789803873276538
 40
0.8384693780655437
 40
1.0
 40
1.0
 40
1.0
 40
1.0
 10
1159.535984981064
 20
1298.700008169741
 30
0.0
 10
1159.551058264882
 20
1297.952299692
 30
0.0
 10
1159.581626331709
 20
1296.435974318495
 30
0.0
 10
1159.691195083135
 20
1294.831156511668
 30
0.0
 10
1159.80437873856
 20
1293.75286415859
 30
0.0
 10
1159.906849886234
 20
1292.955941440317
 30
0.0
 10
1160.070799816668
 20
1292.052173052499
 30
0.0
 10
1160.263169214171
 20
1291.45496345939
 30
0.0
 10
1160.359965631565
 20
1291.154459586131
 30
0.0
  0
SPLINE
  5
1BD
330
1F
100
AcDbEntity
  8
0
  6
Continuous
 62
     8
370
    18
100
AcDbSpline
210
0.0
220
0.0
230
1.0
 70
     8
 71
     3
 72
    16
 73
    12
 74
     0
 42
0.000000001
 43
0.00000001
 40
0.0
 40
0.0
 40
0.0
 40
0.0
 40
0.0117733620155404
 40
0.0227113902881386
 40
0.0341085178796144
 40
0.0448724470144651
 40
0.0843977891274492
 40
0.180172576190011
 40
0.6004756555876686
 40
0.7301077904365172
 40
0.9999999999999999
 40
0.9999999999999999
 40
0.9999999999999999
 40
0.9999999999999999
 10
1152.325239732051
 20
1290.847190989476
 30
0.0
 10
1152.307978651811
 20
1290.843837622053
 30
0.0
 10
1152.274681185072
 20
1290.83736881253
 30
0.0
 10
1152.220152726433
 20
1290.839432350716
 30
0.0
 10
1152.171741727561
 20
1290.853072535588
 30
0.0
 10
1152.099792626999
 20
1290.893650478488
 30
0.0
 10
1152.005783977261
 20
1291.024316968518
 30
0.0
 10
1151.880675152478
 20
1291.551705846847
 30
0.0
 10
1151.901106587889
 20
1292.232775443203
 30
0.0
 10
1151.898002537294
 20
1293.163346648133
 30
0.0
 10
1151.891665301764
 20
1293.65102850351
 30
0.0
 10
1151.88738428479
 20
1293.980474093879
 30
0.0
  0
SPLINE
  5
1BE
330
1F
100
AcDbEntity
  8
0
  6
Continuous
 62
     8
370
    18
100
AcDbSpline
210
0.0
220
0.0
230
1.0
 70
     8
 71
     3
 72
    11
 73
     7
 74
     0
 42
0.000000001
 43
0.00000001
 40
0.0
 40
0.0
 40
0.0
 40
0.0
 40
0.3598580230790386
 40
0.7246062069006086
 40
0.8621677510649375
 40
0.9999999999999999
 40
0.9999999999999999
 40
0.9999999999999999
 40
0.9999999999999999
 10
1151.88738428479
 20
1293.980474093879
 30
0.0
 10
1151.884132188539
 20
1294.52677044251
 30
0.0
 10
1151.877583802847
 20
1295.626786836859
 30
0.0
 10
1151.883642305845
 20
1297.061718145083
 30
0.0
 10
1151.884757861818
 20
1298.157967682057
 30
0.0
 10
1151.884854211473
 20
1298.64006504845
 30
0.0
 10
1151.884902433655
 20
1298.881350676088
 30
0.0
  0
SPLINE
  5
1BF
330
1F
100
AcDbEntity
  8
0
  6
Continuous
 62
     8
370
    18
100
AcDbSpline
210
0.0
220
0.0
230
1.0
 70
     8
 71
     3
 72
    12
 73
     8
 74
     0
 42
0.000000001
 43
0.00000001
 40
0.0
 40
0.0
 40
0.0
 40
0.0
 40
0.0542100646910366
 40
0.3612059465304639
 40
0.5267652948496032
 40
0.7633787062243844
 40
1.0
 40
1.0
 40
1.0
 40
1.0
 10
1152.325239732051
 20
1290.847190989476
 30
0.0
 10
1152.363971543294
 20
1290.944954287839
 30
0.0
 10
1152.622044663491
 20
1291.596358873359
 30
0.0
 10
1152.889521201096
 20
1292.759462746252
 30
0.0
 10
1153.090707237899
 20
1294.595310683907
 30
0.0
 10
1153.211738178395
 20
1296.434386297311
 30
0.0
 10
1153.23344494638
 20
1297.944792492939
 30
0.0
 10
1153.244298511151
 20
1298.700008169741
 30
0.0
  0
SPLINE
  5
1C0
330
1F
100
AcDbEntity
  8
0
  6
Continuous
 62
     8
370
    18
100
AcDbSpline
210
0.0
220
0.0
230
1.0
 70
     8
 71
     3
 72
    11
 73
     7
 74
     0
 42
0.000000001
 43
0.00000001
 40
0.0
 40
0.0
 40
0.0
 40
0.0
 40
0.3598580230790386
 40
0.7246062069006086
 40
0.8621677510649375
 40
0.9999999999999999
 40
0.9999999999999999
 40
0.9999999999999999
 40
0.9999999999999999
 10
1240.827679605941
 20
1293.980474093879
 30
0.0
 10
1240.830931702193
 20
1294.52677044251
 30
0.0
 10
1240.837480087885
 20
1295.626786836859
 30
0.0
 10
1240.831421584886
 20
1297.061718145083
 30
0.0
 10
1240.830306028913
 20
1298.157967682057
 30
0.0
 10
1240.830209679258
 20
1298.64006504845
 30
0.0
 10
1240.830161457076
 20
1298.881350676088
 30
0.0
  0
SPLINE
  5
1C1
330
1F
100
AcDbEntity
  8
0
  6
Continuous
 62
     8
370
    18
100
AcDbSpline
210
0.0
220
0.0
230
1.0
 70
     8
 71
     3
 72
    16
 73
    12
 74
     0
 42
0.000000001
 43
0.00000001
 40
0.0
 40
0.0
 40
0.0
 40
0.0
 40
0.0117733620155405
 40
0.0227113902881387
 40
0.0341085178796146
 40
0.0448724470144653
 40
0.0843977891274496
 40
0.1801725761900389
 40
0.6004756555876686
 40
0.7301077904365504
 40
1.0
 40
1.0
 40
1.0
 40
1.0
 10
1240.38982415868
 20
1290.847190989476
 30
0.0
 10
1240.40708523892
 20
1290.843837622053
 30
0.0
 10
1240.440382705659
 20
1290.83736881253
 30
0.0
 10
1240.494911164298
 20
1290.839432350716
 30
0.0
 10
1240.543322163171
 20
1290.853072535588
 30
0.0
 10
1240.615271263733
 20
1290.893650478488
 30
0.0
 10
1240.70927991347
 20
1291.024316968518
 30
0.0
 10
1240.834388738253
 20
1291.551705846847
 30
0.0
 10
1240.813957302842
 20
1292.232775443203
 30
0.0
 10
1240.817061353437
 20
1293.163346648133
 30
0.0
 10
1240.823398588967
 20
1293.65102850351
 30
0.0
 10
1240.827679605941
 20
1293.980474093879
 30
0.0
  0
SPLINE
  5
1C2
330
1F
100
AcDbEntity
  8
0
  6
Continuous
 62
     8
370
    18
100
AcDbSpline
210
0.0
220
0.0
230
1.0
 70
     8
 71
     3
 72
    12
 73
     8
 74
     0
 42
0.000000001
 43
0.00000001
 40
0.0
 40
0.0
 40
0.0
 40
0.0
 40
0.0542100646910475
 40
0.3612059465304626
 40
0.5267652948496028
 40
0.7633787062243839
 40
1.0
 40
1.0
 40
1.0
 40
1.0
 10
1240.38982415868
 20
1290.847190989476
 30
0.0
 10
1240.351092347437
 20
1290.944954287839
 30
0.0
 10
1240.09301922724
 20
1291.59635887336
 30
0.0
 10
1239.825542689635
 20
1292.759462746252
 30
0.0
 10
1239.624356652833
 20
1294.595310683907
 30
0.0
 10
1239.503325712337
 20
1296.434386297311
 30
0.0
 10
1239.481618944351
 20
1297.944792492939
 30
0.0
 10
1239.47076537958
 20
1298.700008169741
 30
0.0
  0
LINE
  5
1C3
330
1F
100
AcDbEntity
  8
0
  6
Continuous
 62
     8
370
    18
100
AcDbLine
 10
1160.3599656316
 20
1291.1544595861
 30
0.0
 11
1152.3252397321
 21
1290.8471909895
 31
0.0
  0
LINE
  5
1C4
330
1F
100
AcDbEntity
  8
0
  6
Continuous
 62
     8
370
    18
100
AcDbLine
 10
1232.3550982592
 20
1291.1544595861
 30
0.0
 11
1240.3898241587
 21
1290.8471909895
 31
0.0
  0
ARC
  5
1C5
330
1F
100
AcDbEntity
  8
0
  6
Continuous
 62
     8
370
    18
100
AcDbCircle
 10
1231.1065927934
 20
1289.2438097654
 30
0.0
 40
4.876403199915627
100
AcDbArc
 50
80.3932584449
 51
98.1942841504
  0
ARC
  5
1C6
330
1F
100
AcDbEntity
  8
0
  6
Continuous
 62
     8
370
    18
100
AcDbCircle
 10
1161.6084710973
 20
1289.2438097654
 30
0.0
 40
4.876403199913407
100
AcDbArc
 50
81.8057158497
 51
99.6067415552
  0
ARC
  5
1C7
330
1F
100
AcDbEntity
  8
0
  6
Continuous
 62
     8
370
    18
100
AcDbCircle
 10
1241.8433936242
 20
1289.3555104166
 30
0.0
 40
4.735183627164694
100
AcDbArc
 50
83.1980176218
 51
102.3864072814
  0
ARC
  5
1C8
330
1F
100
AcDbEntity
  8
0
  6
Continuous
 62
     8
370
    18
100
AcDbCircle
 10
1150.8716702665
 20
1289.3555104166
 30
0.0
 40
4.735183627173893
100
AcDbArc
 50
77.6135927186
 51
96.8019823782
  0
SPLINE
  5
1C9
330
1F
100
AcDbEntity
  8
0
  6
Continuous
 62
     8
370
    18
100
AcDbSpline
210
0.0
220
0.0
230
1.0
 70
     8
 71
     3
 72
    13
 73
     9
 74
     0
 42
0.000000001
 43
0.00000001
 40
0.0
 40
0.0
 40
0.0
 40
0.0
 40
0.345560613655686
 40
0.7377948233628823
 40
0.8482878985160511
 40
0.9091433588593539
 40
0.9540191324658096
 40
1.0
 40
1.0
 40
1.0
 40
1.0
 10
1150.310843054492
 20
1294.057365031669
 30
0.0
 10
1150.420830963888
 20
1293.556193685576
 30
0.0
 10
1150.655662443455
 20
1292.486159630324
 30
0.0
 10
1151.005481187683
 20
1291.399059483914
 30
0.0
 10
1151.559440333931
 20
1290.818877736148
 30
0.0
 10
1151.868795094792
 20
1290.659561860423
 30
0.0
 10
1152.12759746992
 20
1290.594760248046
 30
0.0
 10
1152.29061032203
 20
1290.594703085405
 30
0.0
 10
1152.373108114873
 20
1290.594674156449
 30
0.0
  0
SPLINE
  5
1CA
330
1F
100
AcDbEntity
  8
0
  6
Continuous
 62
     8
370
    18
100
AcDbSpline
210
0.0
220
0.0
230
1.0
 70
     8
 71
     3
 72
    11
 73
     7
 74
     0
 42
0.000000001
 43
0.00000001
 40
0.0
 40
0.0
 40
0.0
 40
0.0
 40
0.2499068565621712
 40
0.4998445626142471
 40
0.7498974475611084
 40
1.0
 40
1.0
 40
1.0
 40
1.0
 10
1152.373108114873
 20
1290.594674156449
 30
0.0
 10
1153.039143291384
 20
1290.626781988586
 30
0.0
 10
1154.37129586242
 20
1290.691001616377
 30
0.0
 10
1156.372372152654
 20
1290.774875276218
 30
0.0
 10
1158.375677292698
 20
1290.847943098379
 30
0.0
 10
1159.712899963803
 20
1290.883941676594
 30
0.0
 10
1160.38157769521
 20
1290.901942753104
 30
0.0
  0
SPLINE
  5
1CB
330
1F
100
AcDbEntity
  8
0
  6
Continuous
 62
     8
370
    18
100
AcDbSpline
210
0.0
220
0.0
230
1.0
 70
     8
 71
     3
 72
    14
 73
    10
 74
     0
 42
0.000000001
 43
0.00000001
 40
0.0
 40
0.0
 40
0.0
 40
0.0
 40
0.051906592071422
 40
0.1222358501282312
 40
0.1884605327707489
 40
0.3425806135662527
 40
0.4883356727123451
 40
0.6976961013112901
 40
1.0
 40
1.0
 40
1.0
 40
1.0
 10
1160.38157769521
 20
1290.901942753104
 30
0.0
 10
1160.465027025659
 20
1290.909127139813
 30
0.0
 10
1160.661543488077
 20
1290.926045792762
 30
0.0
 10
1160.924068386227
 20
1291.039685050911
 30
0.0
 10
1161.238822594673
 20
1291.275622860483
 30
0.0
 10
1161.510389282211
 20
1291.648460237793
 30
0.0
 10
1161.781306590129
 20
1292.215691775091
 30
0.0
 10
1162.048216196677
 20
1293.002737520199
 30
0.0
 10
1162.208692454725
 20
1293.673892310034
 30
0.0
 10
1162.303505784221
 20
1294.070427105934
 30
0.0
  0
SPLINE
  5
1CC
330
1F
100
AcDbEntity
  8
0
  6
Continuous
 62
     8
370
    18
100
AcDbSpline
210
0.0
220
0.0
230
1.0
 70
     8
 71
     3
 72
     9
 73
     5
 74
     0
 42
0.000000001
 43
0.00000001
 40
0.0
 40
0.0
 40
0.0
 40
0.0
 40
0.0293344768637994
 40
1.0
 40
1.0
 40
1.0
 40
1.0
 10
1196.357531945366
 20
1287.070812394831
 30
0.0
 10
1196.349470928028
 20
1287.070808652368
 30
0.0
 10
1196.07467423145
 20
1287.070681073354
 30
0.0
 10
1195.800253731361
 20
1287.095824083518
 30
0.0
 10
1195.533883213083
 20
1287.120229536632
 30
0.0
  0
SPLINE
  5
1CD
330
1F
100
AcDbEntity
  8
0
  6
Continuous
 62
     8
370
    18
100
AcDbSpline
210
0.0
220
0.0
230
1.0
 70
     8
 71
     3
 72
    12
 73
     8
 74
     0
 42
0.000000001
 43
0.00000001
 40
0.0
 40
0.0
 40
0.0
 40
0.0
 40
0.116831133092059
 40
0.3726334449299172
 40
0.6338270238932968
 40
0.8149152954169177
 40
1.0
 40
1.0
 40
1.0
 40
1.0
 10
1194.992156269096
 20
1287.153708007336
 30
0.0
 10
1194.31576318247
 20
1287.182931808245
 30
0.0
 10
1192.158404272003
 20
1287.276141257803
 30
0.0
 10
1188.518527113404
 20
1288.085731115288
 30
0.0
 10
1184.622148760837
 20
1289.619011766159
 30
0.0
 10
1181.267081028827
 20
1291.59966643775
 30
0.0
 10
1179.498453929056
 20
1293.202509515502
 30
0.0
 10
1178.604488929893
 20
1294.012677815449
 30
0.0
  0
SPLINE
  5
1CE
330
1F
100
AcDbEntity
  8
0
  6
Continuous
 62
     8
370
    18
100
AcDbSpline
210
0.0
220
0.0
230
1.0
 70
     8
 71
     3
 72
    14
 73
    10
 74
     0
 42
0.000000001
 43
0.00000001
 40
0.0
 40
0.0
 40
0.0
 40
0.0
 40
0.0519065920714874
 40
0.1222358501283154
 40
0.188460532770837
 40
0.3425806135663243
 40
0.4883356727124243
 40
0.6976961013113837
 40
0.9999999999999999
 40
0.9999999999999999
 40
0.9999999999999999
 40
0.9999999999999999
 10
1232.333486195521
 20
1290.901942753103
 30
0.0
 10
1232.250036865072
 20
1290.909127139812
 30
0.0
 10
1232.053520402654
 20
1290.926045792762
 30
0.0
 10
1231.790995504504
 20
1291.039685050911
 30
0.0
 10
1231.476241296058
 20
1291.275622860484
 30
0.0
 10
1231.20467460852
 20
1291.648460237793
 30
0.0
 10
1230.933757300603
 20
1292.215691775091
 30
0.0
 10
1230.666847694055
 20
1293.002737520199
 30
0.0
 10
1230.506371436007
 20
1293.673892310034
 30
0.0
 10
1230.41155810651
 20
1294.070427105934
 30
0.0
  0
SPLINE
  5
1CF
330
1F
100
AcDbEntity
  8
0
  6
Continuous
 62
     8
370
    18
100
AcDbSpline
210
0.0
220
0.0
230
1.0
 70
     8
 71
     3
 72
    11
 73
     7
 74
     0
 42
0.000000001
 43
0.00000001
 40
0.0
 40
0.0
 40
0.0
 40
0.0
 40
0.249906856562332
 40
0.4998445626143539
 40
0.7498974475611629
 40
1.0
 40
1.0
 40
1.0
 40
1.0
 10
1240.34195577586
 20
1290.594674156449
 30
0.0
 10
1239.675920599349
 20
1290.626781988586
 30
0.0
 10
1238.343768028312
 20
1290.691001616377
 30
0.0
 10
1236.342691738077
 20
1290.774875276218
 30
0.0
 10
1234.339386598033
 20
1290.847943098379
 30
0.0
 10
1233.002163926929
 20
1290.883941676593
 30
0.0
 10
1232.333486195521
 20
1290.901942753103
 30
0.0
  0
SPLINE
  5
1D0
330
1F
100
AcDbEntity
  8
0
  6
Continuous
 62
     8
370
    18
100
AcDbSpline
210
0.0
220
0.0
230
1.0
 70
     8
 71
     3
 72
    13
 73
     9
 74
     0
 42
0.000000001
 43
0.00000001
 40
0.0
 40
0.0
 40
0.0
 40
0.0
 40
0.3455606136558523
 40
0.737794823363148
 40
0.8482878985163455
 40
0.9091433588596637
 40
0.9540191324661307
 40
1.0
 40
1.0
 40
1.0
 40
1.0
 10
1242.40422083624
 20
1294.057365031669
 30
0.0
 10
1242.294232926844
 20
1293.556193685576
 30
0.0
 10
1242.059401447276
 20
1292.486159630325
 30
0.0
 10
1241.709582703049
 20
1291.399059483914
 30
0.0
 10
1241.1556235568
 20
1290.818877736148
 30
0.0
 10
1240.846268795939
 20
1290.659561860423
 30
0.0
 10
1240.587466420812
 20
1290.594760248046
 30
0.0
 10
1240.424453568703
 20
1290.594703085405
 30
0.0
 10
1240.34195577586
 20
1290.594674156449
 30
0.0
  0
SPLINE
  5
1D1
330
1F
100
AcDbEntity
  8
0
  6
Continuous
 62
     8
370
    18
100
AcDbSpline
210
0.0
220
0.0
230
1.0
 70
     8
 71
     3
 72
    13
 73
     9
 74
     0
 42
0.000000001
 43
0.00000001
 40
0.0
 40
0.0
 40
0.0
 40
0.0
 40
0.0016043355124024
 40
0.2727926059062309
 40
0.4428579083924353
 40
0.6159723835324838
 40
0.8046605251224438
 40
1.0
 40
1.0
 40
1.0
 40
1.0
 10
1268.049111242662
 20
1287.070812394831
 30
0.0
 10
1268.054566092837
 20
1287.070815124849
 30
0.0
 10
1268.982079560358
 20
1287.071279322514
 30
0.0
 10
1270.394915886193
 20
1287.269109650958
 30
0.0
 10
1272.115605518966
 20
1288.098101826853
 30
0.0
 10
1273.418251393104
 20
1289.241452740961
 30
0.0
 10
1274.574451137354
 20
1290.897636756696
 30
0.0
 10
1275.095315214295
 20
1292.503226874417
 30
0.0
 10
1275.360257918697
 20
1293.319926291374
 30
0.0
  0
SPLINE
  5
1D2
330
1F
100
AcDbEntity
  8
0
  6
Continuous
 62
     8
370
    18
100
AcDbSpline
210
0.0
220
0.0
230
1.0
 70
     8
 71
     3
 72
    13
 73
     9
 74
     0
 42
0.000000001
 43
0.00000001
 40
0.0
 40
0.0
 40
0.0
 40
0.0
 40
0.1765903405244129
 40
0.3535107282095465
 40
0.5953143040081169
 40
0.8373696963545589
 40
0.9987093023973762
 40
1.0
 40
1.0
 40
1.0
 40
1.0
 10
1214.110574960838
 20
1294.012677815449
 30
0.0
 10
1213.189492618952
 20
1293.180120509545
 30
0.0
 10
1211.345606433251
 20
1291.513449849009
 30
0.0
 10
1207.898952406976
 20
1289.52596354555
 30
0.0
 10
1203.912943975098
 20
1287.981126581919
 30
0.0
 10
1199.909262896053
 20
1287.211906028357
 30
0.0
 10
1197.381281862832
 20
1287.071107579844
 30
0.0
 10
1196.365592850034
 20
1287.070814719089
 30
0.0
 10
1196.357531945366
 20
1287.070812394831
 30
0.0
  0
SPLINE
  5
1D3
330
1F
100
AcDbEntity
  8
0
  6
Continuous
 62
     8
370
    18
100
AcDbSpline
210
0.0
220
0.0
230
1.0
 70
     8
 71
     3
 72
     9
 73
     5
 74
     0
 42
0.000000001
 43
0.00000001
 40
0.0
 40
0.0
 40
0.0
 40
0.0
 40
0.8741204396862029
 40
0.9999999999999999
 40
0.9999999999999999
 40
0.9999999999999999
 40
0.9999999999999999
 10
1160.804829108612
 20
1321.770709436996
 30
0.0
 10
1160.803717349311
 20
1320.979107025958
 30
0.0
 10
1160.802445488765
 20
1320.073508237623
 30
0.0
 10
1160.801261681829
 20
1319.160503905404
 30
0.0
 10
1160.801112664732
 20
1319.0455753215
 30
0.0
  0
LINE
  5
1D4
330
1F
100
AcDbEntity
  8
0
  6
Continuous
 62
     8
370
    18
100
AcDbLine
 10
1159.4654177718
 20
1322.032093901
 30
0.0
 11
1159.4340406929
 21
1319.3105658346
 31
0.0
  0
ARC
  5
1D5
330
1F
100
AcDbEntity
  8
0
  6
Continuous
 62
     8
370
    18
100
AcDbCircle
 10
1159.4906386481
 20
1318.5988708916
 30
0.0
 40
3.433315645969253
100
AcDbArc
 50
67.4942658279
 51
90.4208942352
  0
LINE
  5
1D6
330
1F
100
AcDbEntity
  8
0
  6
Continuous
 62
     8
370
    18
100
AcDbLine
 10
1233.249646119
 20
1322.032093901
 30
0.0
 11
1233.2810231979
 21
1319.3105658346
 31
0.0
  0
SPLINE
  5
1D7
330
1F
100
AcDbEntity
  8
0
  6
Continuous
 62
     8
370
    18
100
AcDbSpline
210
0.0
220
0.0
230
1.0
 70
     8
 71
     3
 72
     9
 73
     5
 74
     0
 42
0.000000001
 43
0.00000001
 40
0.0
 40
0.0
 40
0.0
 40
0.0
 40
0.8741204396862029
 40
0.9999999999999999
 40
0.9999999999999999
 40
0.9999999999999999
 40
0.9999999999999999
 10
1231.91023478212
 20
1321.770709436996
 30
0.0
 10
1231.91134654142
 20
1320.979107025958
 30
0.0
 10
1231.912618401966
 20
1320.073508237623
 30
0.0
 10
1231.913802208902
 20
1319.160503905404
 30
0.0
 10
1231.913951225999
 20
1319.0455753215
 30
0.0
  0
ARC
  5
1D8
330
1F
100
AcDbEntity
  8
0
  6
Continuous
 62
     8
370
    18
100
AcDbCircle
 10
1233.2244252427
 20
1318.5988708916
 30
0.0
 40
3.43331564597039
100
AcDbArc
 50
89.5791057648
 51
112.5057341721
  0
LINE
  5
1D9
330
1F
100
AcDbEntity
  8
0
  6
Continuous
 62
     8
370
    18
100
AcDbLine
 10
1239.4024626166
 20
1319.3105658346
 30
0.0
 11
1239.4201923549
 21
1322.032093901
 31
0.0
  0
ARC
  5
1DA
330
1F
100
AcDbEntity
  8
0
  6
Continuous
 62
     8
370
    18
100
AcDbCircle
 10
1239.4654430257
 20
1318.660615584
 30
0.0
 40
3.371781971736465
100
AcDbArc
 50
66.5834471453
 51
90.7689555
  0
LINE
  5
1DB
330
1F
100
AcDbEntity
  8
0
  6
Continuous
 62
     8
370
    18
100
AcDbLine
 10
1240.8010312446
 20
1319.0365247553
 30
0.0
 11
1240.8054330652
 21
1321.7546970889
 31
0.0
  0
LINE
  5
1DC
330
1F
100
AcDbEntity
  8
0
  6
Continuous
 62
     8
370
    18
100
AcDbLine
 10
1151.9140326461
 20
1319.0365247553
 30
0.0
 11
1151.9096308256
 21
1321.7546970889
 31
0.0
  0
ARC
  5
1DD
330
1F
100
AcDbEntity
  8
0
  6
Continuous
 62
     8
370
    18
100
AcDbCircle
 10
1153.249620865
 20
1318.660615584
 30
0.0
 40
3.371781971738016
100
AcDbArc
 50
89.2310445
 51
113.4165528547
  0
LINE
  5
1DE
330
1F
100
AcDbEntity
  8
0
  6
Continuous
 62
     8
370
    18
100
AcDbLine
 10
1153.3126012741
 20
1319.3105658346
 30
0.0
 11
1153.2948715358
 21
1322.032093901
 31
0.0
  0
LINE
  5
1DF
330
1F
100
AcDbEntity
  8
0
  6
Continuous
 62
     8
370
    18
100
AcDbLine
 10
1159.4654177718
 20
1322.032093901
 30
0.0
 11
1153.2948715358
 21
1322.032093901
 31
0.0
  0
LINE
  5
1E0
330
1F
100
AcDbEntity
  8
0
  6
Continuous
 62
     8
370
    18
100
AcDbLine
 10
1233.249646119
 20
1322.032093901
 30
0.0
 11
1239.4201923549
 21
1322.032093901
 31
0.0
  0
ARC
  5
1E1
330
1F
100
AcDbEntity
  8
0
  6
Continuous
 62
     8
370
    18
100
AcDbCircle
 10
1162.6762950526
 20
1326.6907907356
 30
0.0
 40
5.263989434314558
100
AcDbArc
 50
249.1745380237
 51
271.5959369635
  0
ARC
  5
1E2
330
1F
100
AcDbEntity
  8
0
  6
Continuous
 62
     8
370
    18
100
AcDbCircle
 10
1230.0387688381
 20
1326.6907907356
 30
0.0
 40
5.263989434313708
100
AcDbArc
 50
268.4040630365
 51
290.8254619763
  0
ARC
  5
1E3
330
1F
100
AcDbEntity
  8
0
  6
Continuous
 62
     8
370
    18
100
AcDbCircle
 10
1149.9545375456
 20
1326.4475083224
 30
0.0
 40
5.083784712842804
100
AcDbArc
 50
269.0955075017
 51
292.6173188939
  0
ARC
  5
1E4
330
1F
100
AcDbEntity
  8
0
  6
Continuous
 62
     8
370
    18
100
AcDbCircle
 10
1242.7605263451
 20
1326.4475083224
 30
0.0
 40
5.083784712845074
100
AcDbArc
 50
247.3826811061
 51
270.9044924983
  0
ARC
  5
1E5
330
1F
100
AcDbEntity
  8
0
  6
Continuous
 62
     8
370
    18
100
AcDbCircle
 10
1248.3356270343
 20
1289.6595567847
 30
0.0
 40
16.05029701654083
100
AcDbArc
 50
174.6558034199
 51
175.5605339091
  0
ARC
  5
1E6
330
1F
100
AcDbEntity
  8
0
  6
Continuous
 62
     8
370
    18
100
AcDbCircle
 10
1144.3794368554
 20
1289.6595567846
 30
0.0
 40
16.05029701752679
100
AcDbArc
 50
4.439466091
 51
5.3441965801
  0
ARC
  5
1E7
330
1F
100
AcDbEntity
  8
0
  6
Continuous
 62
     8
370
    18
100
AcDbCircle
 10
1145.7939304041
 20
1289.4782870728
 30
0.0
 40
6.673222570178501
100
AcDbArc
 50
9.6304973659
 51
11.8373353031
  0
ARC
  5
1E8
330
1F
100
AcDbEntity
  8
0
  6
Continuous
 62
     8
370
    18
100
AcDbCircle
 10
1246.9211334915
 20
1289.4782870719
 30
0.0
 40
6.673222575076776
100
AcDbArc
 50
168.1626646981
 51
170.3695026337
  0
SPLINE
  5
1E9
330
1F
100
AcDbEntity
  8
0
  6
Continuous
 62
     8
370
    18
100
AcDbSpline
210
0.0
220
0.0
230
1.0
 70
     8
 71
     3
 72
    15
 73
    11
 74
     0
 42
0.000000001
 43
0.00000001
 40
0.0
 40
0.0
 40
0.0
 40
0.0
 40
0.0357295768982811
 40
0.0559023856318702
 40
0.0935770997983555
 40
0.1154709098174199
 40
0.2166995392891703
 40
0.4238827620184403
 40
0.9068299214990564
 40
1.0
 40
1.0
 40
1.0
 40
1.0
 10
1159.937534832815
 20
1325.434837346581
 30
0.0
 10
1159.996905360272
 20
1325.43673104684
 30
0.0
 10
1160.089796304112
 20
1325.439693924416
 30
0.0
 10
1160.237890241868
 20
1325.39877703999
 30
0.0
 10
1160.345903496464
 20
1325.337027045641
 30
0.0
 10
1160.515136816111
 20
1325.181096465392
 30
0.0
 10
1160.707988996162
 20
1324.787059333189
 30
0.0
 10
1160.829101502121
 20
1323.793075649491
 30
0.0
 10
1160.804790930845
 20
1322.733055699407
 30
0.0
 10
1160.804823793965
 20
1321.904675634481
 30
0.0
 10
1160.804829108612
 20
1321.770709436996
 30
0.0
  0
SPLINE
  5
1EA
330
1F
100
AcDbEntity
  8
0
  6
Continuous
 62
     8
370
    18
100
AcDbSpline
210
0.0
220
0.0
230
1.0
 70
     8
 71
     3
 72
    11
 73
     7
 74
     0
 42
0.000000001
 43
0.00000001
 40
0.0
 40
0.0
 40
0.0
 40
0.0
 40
0.1688447665100298
 40
0.3388483789551112
 40
0.6648683581705783
 40
1.0
 40
1.0
 40
1.0
 40
1.0
 10
1159.937534832815
 20
1325.434837346581
 30
0.0
 10
1159.889487131162
 20
1325.284295720163
 30
0.0
 10
1159.79306195818
 20
1324.982179242814
 30
0.0
 10
1159.6432074821
 20
1324.304979337718
 30
0.0
 10
1159.505489643743
 20
1323.356984686735
 30
0.0
 10
1159.478897223599
 20
1322.477763160731
 30
0.0
 10
1159.465417771777
 20
1322.032093900969
 30
0.0
  0
SPLINE
  5
1EB
330
1F
100
AcDbEntity
  8
0
  6
Continuous
 62
     8
370
    18
100
AcDbSpline
210
0.0
220
0.0
230
1.0
 70
     8
 71
     3
 72
    15
 73
    11
 74
     0
 42
0.000000001
 43
0.00000001
 40
0.0
 40
0.0
 40
0.0
 40
0.0
 40
0.0357295768982811
 40
0.0559023856318702
 40
0.0935770997983555
 40
0.1154709098174199
 40
0.2166995392891703
 40
0.4238827620184403
 40
0.9068299214990564
 40
1.0
 40
1.0
 40
1.0
 40
1.0
 10
1232.777529057916
 20
1325.434837346581
 30
0.0
 10
1232.718158530459
 20
1325.43673104684
 30
0.0
 10
1232.625267586619
 20
1325.439693924416
 30
0.0
 10
1232.477173648864
 20
1325.39877703999
 30
0.0
 10
1232.369160394268
 20
1325.337027045641
 30
0.0
 10
1232.199927074621
 20
1325.181096465392
 30
0.0
 10
1232.007074894569
 20
1324.787059333189
 30
0.0
 10
1231.885962388611
 20
1323.793075649491
 30
0.0
 10
1231.910272959887
 20
1322.733055699407
 30
0.0
 10
1231.910240096766
 20
1321.904675634481
 30
0.0
 10
1231.91023478212
 20
1321.770709436996
 30
0.0
  0
SPLINE
  5
1EC
330
1F
100
AcDbEntity
  8
0
  6
Continuous
 62
     8
370
    18
100
AcDbSpline
210
0.0
220
0.0
230
1.0
 70
     8
 71
     3
 72
    11
 73
     7
 74
     0
 42
0.000000001
 43
0.00000001
 40
0.0
 40
0.0
 40
0.0
 40
0.0
 40
0.1688447665100298
 40
0.3388483789551112
 40
0.6648683581705783
 40
1.0
 40
1.0
 40
1.0
 40
1.0
 10
1232.777529057916
 20
1325.434837346581
 30
0.0
 10
1232.82557675957
 20
1325.284295720163
 30
0.0
 10
1232.922001932552
 20
1324.982179242814
 30
0.0
 10
1233.071856408631
 20
1324.304979337718
 30
0.0
 10
1233.209574246988
 20
1323.356984686735
 30
0.0
 10
1233.236166667132
 20
1322.477763160731
 30
0.0
 10
1233.249646118955
 20
1322.032093900969
 30
0.0
  0
SPLINE
  5
1ED
330
1F
100
AcDbEntity
  8
0
  6
Continuous
 62
     8
370
    18
100
AcDbSpline
210
0.0
220
0.0
230
1.0
 70
     8
 71
     3
 72
    14
 73
    10
 74
     0
 42
0.000000001
 43
0.00000001
 40
0.0
 40
0.0
 40
0.0
 40
0.0
 40
0.6113158653943994
 40
0.7934072053583396
 40
0.8854170307688742
 40
0.9194198313361062
 40
0.9434501870529948
 40
0.9749897870426377
 40
1.0
 40
1.0
 40
1.0
 40
1.0
 10
1151.909630825571
 20
1321.754697088943
 30
0.0
 10
1151.882821681934
 20
1322.637020409537
 30
0.0
 10
1151.848026956433
 20
1323.782159476988
 30
0.0
 10
1152.00463298481
 20
1324.917815589769
 30
0.0
 10
1152.209720026663
 20
1325.295562651644
 30
0.0
 10
1152.395699058373
 20
1325.436603545652
 30
0.0
 10
1152.532657941776
 20
1325.49380878158
 30
0.0
 10
1152.671538674399
 20
1325.516146587046
 30
0.0
 10
1152.766163450756
 20
1325.50676191823
 30
0.0
 10
1152.808013028755
 20
1325.502611372835
 30
0.0
  0
SPLINE
  5
1EE
330
1F
100
AcDbEntity
  8
0
  6
Continuous
 62
     8
370
    18
100
AcDbSpline
210
0.0
220
0.0
230
1.0
 70
     8
 71
     3
 72
    11
 73
     7
 74
     0
 42
0.000000001
 43
0.00000001
 40
0.0
 40
0.0
 40
0.0
 40
0.0
 40
0.3166351430858488
 40
0.6421699667518402
 40
0.8203579608774854
 40
0.9999999999999999
 40
0.9999999999999999
 40
0.9999999999999999
 40
0.9999999999999999
 10
1153.294871535838
 20
1322.032093900969
 30
0.0
 10
1153.283635386546
 20
1322.464536197072
 30
0.0
 10
1153.260847272926
 20
1323.341575467585
 30
0.0
 10
1153.125191702441
 20
1324.304859682322
 30
0.0
 10
1152.967668114128
 20
1325.018038654668
 30
0.0
 10
1152.861375364339
 20
1325.34065015537
 30
0.0
 10
1152.808013028755
 20
1325.502611372835
 30
0.0
  0
SPLINE
  5
1EF
330
1F
100
AcDbEntity
  8
0
  6
Continuous
 62
     8
370
    18
100
AcDbSpline
210
0.0
220
0.0
230
1.0
 70
     8
 71
     3
 72
    11
 73
     7
 74
     0
 42
0.000000001
 43
0.00000001
 40
0.0
 40
0.0
 40
0.0
 40
0.0
 40
0.3166351430858488
 40
0.6421699667518402
 40
0.8203579608774854
 40
0.9999999999999999
 40
0.9999999999999999
 40
0.9999999999999999
 40
0.9999999999999999
 10
1239.420192354893
 20
1322.032093900969
 30
0.0
 10
1239.431428504185
 20
1322.464536197072
 30
0.0
 10
1239.454216617806
 20
1323.341575467585
 30
0.0
 10
1239.58987218829
 20
1324.304859682322
 30
0.0
 10
1239.747395776604
 20
1325.018038654668
 30
0.0
 10
1239.853688526393
 20
1325.34065015537
 30
0.0
 10
1239.907050861976
 20
1325.502611372835
 30
0.0
  0
SPLINE
  5
1F0
330
1F
100
AcDbEntity
  8
0
  6
Continuous
 62
     8
370
    18
100
AcDbSpline
210
0.0
220
0.0
230
1.0
 70
     8
 71
     3
 72
    14
 73
    10
 74
     0
 42
0.000000001
 43
0.00000001
 40
0.0
 40
0.0
 40
0.0
 40
0.0
 40
0.6113158653943994
 40
0.7934072053583396
 40
0.8854170307688742
 40
0.9194198313361062
 40
0.9434501870529948
 40
0.9749897870426377
 40
1.0
 40
1.0
 40
1.0
 40
1.0
 10
1240.805433065161
 20
1321.754697088943
 30
0.0
 10
1240.832242208797
 20
1322.637020409537
 30
0.0
 10
1240.867036934298
 20
1323.782159476988
 30
0.0
 10
1240.710430905921
 20
1324.917815589769
 30
0.0
 10
1240.505343864068
 20
1325.295562651644
 30
0.0
 10
1240.319364832359
 20
1325.436603545652
 30
0.0
 10
1240.182405948955
 20
1325.49380878158
 30
0.0
 10
1240.043525216332
 20
1325.516146587046
 30
0.0
 10
1239.948900439975
 20
1325.50676191823
 30
0.0
 10
1239.907050861976
 20
1325.502611372835
 30
0.0
  0
LINE
  5
1F1
330
1F
100
AcDbEntity
  8
0
  6
Continuous
 62
     8
370
    18
100
AcDbLine
 10
1239.907050862
 20
1325.5026113728
 30
0.0
 11
1232.7775290579
 21
1325.4348373466
 31
0.0
  0
LINE
  5
1F2
330
1F
100
AcDbEntity
  8
0
  6
Continuous
 62
     8
370
    18
100
AcDbLine
 10
1152.8080130288
 20
1325.5026113728
 30
0.0
 11
1159.9375348328
 21
1325.4348373466
 31
0.0
  0
ARC
  5
1F3
330
1F
100
AcDbEntity
  8
0
  6
Continuous
 62
     8
370
    18
100
AcDbCircle
 10
1109.9868685119
 20
1327.7245460525
 30
0.0
 40
42.87875244752852
100
AcDbArc
 50
357.0296588464
 51
358.2432093098
  0
ARC
  5
1F4
330
1F
100
AcDbEntity
  8
0
  6
Continuous
 62
     8
370
    18
100
AcDbCircle
 10
1282.7281953805
 20
1327.7245460525
 30
0.0
 40
42.8787524491576
100
AcDbArc
 50
181.7567906902
 51
182.9703411536
  0
ARC
  5
1F5
330
1F
100
AcDbEntity
  8
0
  6
Continuous
 62
     8
370
    18
100
AcDbCircle
 10
1066.5546711029
 20
1327.6834592546
 30
0.0
 40
93.40993276350582
100
AcDbArc
 50
358.6206071693
 51
359.1635686824
  0
ARC
  5
1F6
330
1F
100
AcDbEntity
  8
0
  6
Continuous
 62
     8
370
    18
100
AcDbCircle
 10
1326.1603927759
 20
1327.6834592543
 30
0.0
 40
93.40993275155172
100
AcDbArc
 50
180.8364313175
 51
181.3793928307
  0
SPLINE
  5
1F7
330
1F
100
AcDbEntity
  8
0
  6
Continuous
 62
     8
370
    18
100
AcDbSpline
210
0.0
220
0.0
230
1.0
 70
     8
 71
     3
 72
    20
 73
    16
 74
     0
 42
0.000000001
 43
0.00000001
 40
0.0
 40
0.0
 40
0.0
 40
0.0
 40
0.0262949951381548
 40
0.1141805994167155
 40
0.2050009162995118
 40
0.3018213591643531
 40
0.4001096700271504
 40
0.4957119737796383
 40
0.568998497421639
 40
0.6442268808353194
 40
0.7075782994275371
 40
0.7721105905636341
 40
0.8325062307491627
 40
0.8941019040528458
 40
1.0
 40
1.0
 40
1.0
 40
1.0
 10
1276.300872566357
 20
1293.616676662036
 30
0.0
 10
1276.376687562863
 20
1293.901896274377
 30
0.0
 10
1276.705898566718
 20
1295.14040368354
 30
0.0
 10
1277.363269568872
 20
1297.613912109834
 30
0.0
 10
1278.25982251096
 20
1301.283239036409
 30
0.0
 10
1279.065827609772
 20
1305.400408744805
 30
0.0
 10
1279.521851360225
 20
1309.761099099908
 30
0.0
 10
1279.399976444932
 20
1313.672369425312
 30
0.0
 10
1279.052766263065
 20
1316.969118791394
 30
0.0
 10
1278.791444098337
 20
1319.581492302471
 30
0.0
 10
1278.790707792132
 20
1321.85415352077
 30
0.0
 10
1278.934332262128
 20
1323.711837961982
 30
0.0
 10
1279.249689389846
 20
1325.276843089383
 30
0.0
 10
1279.451788905205
 20
1326.791354783974
 30
0.0
 10
1279.355583954447
 20
1327.297231977273
 30
0.0
 10
1279.294758282236
 20
1327.617073317001
 30
0.0
  0
ARC
  5
1F8
330
1F
100
AcDbEntity
  8
0
  6
Continuous
 62
     8
370
    18
100
AcDbCircle
 10
1276.6272278867
 20
1290.9431064762
 30
0.0
 40
2.693415180365082
100
AcDbArc
 50
96.9595071703
 51
118.0599624146
  0
ARC
  5
1F9
330
1F
100
AcDbEntity
  8
0
  6
Continuous
 62
     8
370
    18
100
AcDbCircle
 10
1281.2841956647
 20
1329.867090203
 30
0.0
 40
3.003404249507637
100
AcDbArc
 50
228.5172796838
 51
270.3109595547
  0
SPLINE
  5
1FA
330
1F
100
AcDbEntity
  8
0
  6
Continuous
 62
     8
370
    18
100
AcDbSpline
210
0.0
220
0.0
230
1.0
 70
     8
 71
     3
 72
    22
 73
    18
 74
     0
 42
0.000000001
 43
0.00000001
 40
0.0
 40
0.0
 40
0.0
 40
0.0
 40
0.0598992882851461
 40
0.1209055859884613
 40
0.1877247567921352
 40
0.2560791674368895
 40
0.3294344309942042
 40
0.4056029880891632
 40
0.4720356910929113
 40
0.539997575464232
 40
0.613150425915961
 40
0.689226410157583
 40
0.6973920523519122
 40
0.7777025004340381
 40
0.860595742941252
 40
0.9295923180730691
 40
1.0
 40
1.0
 40
1.0
 40
1.0
 10
1281.300495864618
 20
1326.863730186405
 30
0.0
 10
1281.336599797236
 20
1326.705252731439
 30
0.0
 10
1281.409474905681
 20
1326.385368971427
 30
0.0
 10
1281.44529256486
 20
1325.439885239593
 30
0.0
 10
1281.111227667141
 20
1324.117027908682
 30
0.0
 10
1280.720462951811
 20
1322.329891956085
 30
0.0
 10
1280.606687814989
 20
1320.066985385475
 30
0.0
 10
1280.873867351135
 20
1317.493709089359
 30
0.0
 10
1281.291728767819
 20
1314.761373483437
 30
0.0
 10
1281.524007022225
 20
1311.877166907932
 30
0.0
 10
1281.481151047762
 20
1308.726358559416
 30
0.0
 10
1281.164237930652
 20
1306.429848181387
 30
0.0
 10
1280.722303905071
 20
1304.07541639289
 30
0.0
 10
1280.140037048435
 20
1301.663475694315
 30
0.0
 10
1279.19876237244
 20
1298.60017743958
 30
0.0
 10
1278.268184331992
 20
1295.868031930897
 30
0.0
 10
1277.738586484703
 20
1294.355531954735
 30
0.0
 10
1277.471107158262
 20
1293.591626895572
 30
0.0
  0
ARC
  5
1FB
330
1F
100
AcDbEntity
  8
0
  6
Continuous
 62
     8
370
    18
100
AcDbCircle
 10
1276.8023038677
 20
1289.6946444454
 30
0.0
 40
3.953956253982405
100
AcDbArc
 50
80.2617216981
 51
97.2857328837
  0
SPLINE
  5
1FC
330
1F
100
AcDbEntity
  8
0
  6
Continuous
 62
     8
370
    18
100
AcDbSpline
210
0.0
220
0.0
230
1.0
 70
     8
 71
     3
 72
    11
 73
     7
 74
     0
 42
0.000000001
 43
0.00000001
 40
0.0
 40
0.0
 40
0.0
 40
0.0
 40
0.2101620489852551
 40
0.6011741985698225
 40
0.9956880907203883
 40
1.0
 40
1.0
 40
1.0
 40
1.0
 10
1272.107531945366
 20
1287.742284842828
 30
0.0
 10
1271.844416798564
 20
1287.651034686373
 30
0.0
 10
1271.091768838218
 20
1287.390011157429
 30
0.0
 10
1269.758463646833
 20
1287.138136330954
 30
0.0
 10
1268.637744232471
 20
1287.071042260253
 30
0.0
 10
1268.05540718567
 20
1287.070814853442
 30
0.0
 10
1268.049111242662
 20
1287.070812394831
 30
0.0
  0
SPLINE
  5
1FD
330
1F
100
AcDbEntity
  8
0
  6
Continuous
 62
     8
370
    18
100
AcDbSpline
210
0.0
220
0.0
230
1.0
 70
     8
 71
     3
 72
    12
 73
     8
 74
     0
 42
0.000000001
 43
0.00000001
 40
0.0
 40
0.0
 40
0.0
 40
0.0
 40
0.246737375077577
 40
0.500975912809174
 40
0.7464462631527642
 40
0.996904547814918
 40
0.9999999999999999
 40
0.9999999999999999
 40
0.9999999999999999
 40
0.9999999999999999
 10
1277.471107158262
 20
1293.591626895572
 30
0.0
 10
1277.179159549619
 20
1292.881117471941
 30
0.0
 10
1276.586388715098
 20
1291.438498140554
 30
0.0
 10
1275.32685063192
 20
1289.803024476936
 30
0.0
 10
1273.843753338748
 20
1288.545234975762
 30
0.0
 10
1272.716603499534
 20
1287.973217388905
 30
0.0
 10
1272.11487797237
 20
1287.74507012595
 30
0.0
 10
1272.107531945366
 20
1287.742284842828
 30
0.0
  0
SPLINE
  5
1FE
330
1F
100
AcDbEntity
  8
0
  6
Continuous
 62
     8
370
    18
100
AcDbSpline
210
0.0
220
0.0
230
1.0
 70
     8
 71
     3
 72
    12
 73
     8
 74
     0
 42
0.000000001
 43
0.00000001
 40
0.0
 40
0.0
 40
0.0
 40
0.0
 40
0.0157276389524125
 40
0.2608387766935492
 40
0.506352068503594
 40
0.7530008161111343
 40
1.0
 40
1.0
 40
1.0
 40
1.0
 10
1281.278352869919
 20
1327.070812394831
 30
0.0
 10
1281.277906447188
 20
1327.070801143815
 30
0.0
 10
1281.270502642994
 20
1327.070614548647
 30
0.0
 10
1281.262592215425
 20
1327.06089229781
 30
0.0
 10
1281.26439886234
 20
1327.021447156958
 30
0.0
 10
1281.27758883628
 20
1326.958547177873
 30
0.0
 10
1281.292856575695
 20
1326.895350804409
 30
0.0
 10
1281.300495864619
 20
1326.863730186405
 30
0.0
  0
SPLINE
  5
1FF
330
1F
100
AcDbEntity
  8
0
  6
Continuous
 62
     8
370
    18
100
AcDbSpline
210
0.0
220
0.0
230
1.0
 70
     8
 71
     3
 72
    12
 73
     8
 74
     0
 42
0.000000001
 43
0.00000001
 40
0.0
 40
0.0
 40
0.0
 40
0.0
 40
0.3107222013442926
 40
0.6300915284038228
 40
0.7856616918457201
 40
0.892542319116498
 40
1.0
 40
1.0
 40
1.0
 40
1.0
 10
1272.107531945366
 20
1287.742284842828
 30
0.0
 10
1272.658463071401
 20
1288.090756494364
 30
0.0
 10
1273.775657252398
 20
1288.797397457164
 30
0.0
 10
1274.922235485664
 20
1290.302523485783
 30
0.0
 10
1275.626719688994
 20
1291.690986852832
 30
0.0
 10
1276.018395246409
 20
1292.673280303752
 30
0.0
 10
1276.206544610951
 20
1293.301647300986
 30
0.0
 10
1276.300872566357
 20
1293.616676662036
 30
0.0
  0
LINE
  5
200
330
1F
100
AcDbEntity
  8
0
  6
Continuous
 62
     8
370
    18
100
AcDbLine
 10
1143.3575319454
 20
1336.3708123948
 30
0.0
 11
1143.3575319454
 21
1336.2280108665
 31
0.0
  0
LINE
  5
201
330
1F
100
AcDbEntity
  8
0
  6
Continuous
 62
     8
370
    18
100
AcDbLine
 10
1143.3575319454
 20
1336.2280108665
 30
0.0
 11
1115.4175043641
 21
1336.2280108665
 31
0.0
  0
LINE
  5
202
330
1F
100
AcDbEntity
  8
0
  6
Continuous
 62
     8
370
    18
100
AcDbLine
 10
1249.3575319454
 20
1336.3708123948
 30
0.0
 11
1249.3575319454
 21
1336.2280108665
 31
0.0
  0
LINE
  5
203
330
1F
100
AcDbEntity
  8
0
  6
Continuous
 62
     8
370
    18
100
AcDbLine
 10
1143.3575319454
 20
1336.2280108665
 30
0.0
 11
1249.3575319454
 21
1336.2280108665
 31
0.0
  0
LINE
  5
204
330
1F
100
AcDbEntity
  8
0
  6
Continuous
 62
     8
370
    18
100
AcDbLine
 10
1249.3575319454
 20
1336.2280108665
 30
0.0
 11
1277.2975595266
 21
1336.2280108665
 31
0.0
  0
LINE
  5
205
330
1F
100
AcDbEntity
  8
0
  6
Continuous
 62
     8
370
    18
100
AcDbLine
 10
1143.3575319454
 20
1336.2280108665
 30
0.0
 11
1143.3575319454
 21
1335.3062435013
 31
0.0
  0
LINE
  5
206
330
1F
100
AcDbEntity
  8
0
  6
Continuous
 62
     8
370
    18
100
AcDbLine
 10
1249.3575319454
 20
1336.2280108665
 30
0.0
 11
1249.3575319454
 21
1335.3062435013
 31
0.0
  0
LINE
  5
207
330
1F
100
AcDbEntity
  8
0
  6
Continuous
 62
     8
370
    18
100
AcDbLine
 10
1324.5514804031
 20
1287.0708123948
 30
0.0
 11
1324.5514804031
 21
1327.0708123948
 31
0.0
  0
LINE
  5
208
330
1F
100
AcDbEntity
  8
0
  6
Continuous
 62
     8
370
    18
100
AcDbLine
 10
1325.1572786393
 20
1327.0090105667
 30
0.0
 11
1325.1572786393
 21
1287.132614223
 31
0.0
  0
LINE
  5
209
330
1F
100
AcDbEntity
  8
0
  6
Continuous
 62
     8
370
    18
100
AcDbLine
 10
1558.8575319454
 20
1343.5172508944
 30
0.0
 11
1558.8575319454
 21
1344.5172508944
 31
0.0
  0
LINE
  5
20A
330
1F
100
AcDbEntity
  8
0
  6
Continuous
 62
     8
370
    18
100
AcDbLine
 10
833.8575319454
 20
1344.5172508944
 30
0.0
 11
833.8575319454
 21
1343.5172508944
 31
0.0
  0
LINE
  5
20B
330
1F
100
AcDbEntity
  8
0
  6
Continuous
 62
     8
370
    18
100
AcDbLine
 10
854.3575319454
 20
1337.791391416
 30
0.0
 11
856.3575319454
 21
1337.791391416
 31
0.0
  0
LINE
  5
20C
330
1F
100
AcDbEntity
  8
0
  6
Continuous
 62
     8
370
    18
100
AcDbLine
 10
856.3575319454
 20
1335.9787758419
 30
0.0
 11
854.3575319454
 21
1335.9787758419
 31
0.0
  0
LINE
  5
20D
330
1F
100
AcDbEntity
  8
0
  6
Continuous
 62
     8
370
    18
100
AcDbLine
 10
854.3575319454
 20
1328.7204765573
 30
0.0
 11
856.3575319454
 21
1328.7204765573
 31
0.0
  0
LINE
  5
20E
330
1F
100
AcDbEntity
  8
0
  6
Continuous
 62
     8
370
    18
100
AcDbLine
 10
856.3575319454
 20
1326.9078609832
 30
0.0
 11
854.3575319454
 21
1326.9078609832
 31
0.0
  0
LINE
  5
20F
330
1F
100
AcDbEntity
  8
0
  6
Continuous
 62
     8
370
    18
100
AcDbLine
 10
854.3575319454
 20
1292.6172508944
 30
0.0
 11
856.3575319454
 21
1292.6172508944
 31
0.0
  0
LINE
  5
210
330
1F
100
AcDbEntity
  8
0
  6
Continuous
 62
     8
370
    18
100
AcDbLine
 10
1536.3575319454
 20
1337.791391416
 30
0.0
 11
1538.3575319454
 21
1337.791391416
 31
0.0
  0
LINE
  5
211
330
1F
100
AcDbEntity
  8
0
  6
Continuous
 62
     8
370
    18
100
AcDbLine
 10
1538.3575319454
 20
1335.9787758419
 30
0.0
 11
1536.3575319454
 21
1335.9787758419
 31
0.0
  0
LINE
  5
212
330
1F
100
AcDbEntity
  8
0
  6
Continuous
 62
     8
370
    18
100
AcDbLine
 10
1536.3575319454
 20
1328.7204765573
 30
0.0
 11
1538.3575319454
 21
1328.7204765573
 31
0.0
  0
LINE
  5
213
330
1F
100
AcDbEntity
  8
0
  6
Continuous
 62
     8
370
    18
100
AcDbLine
 10
1538.3575319454
 20
1326.9078609832
 30
0.0
 11
1536.3575319454
 21
1326.9078609832
 31
0.0
  0
LINE
  5
214
330
1F
100
AcDbEntity
  8
0
  6
Continuous
 62
     8
370
    18
100
AcDbLine
 10
1536.3575319454
 20
1292.6172508944
 30
0.0
 11
1538.3575319454
 21
1292.6172508944
 31
0.0
  0
LINE
  5
215
330
1F
100
AcDbEntity
  8
0
  6
Continuous
 62
     7
370
    35
100
AcDbLine
 10
856.3575319454
 20
943.5790770048
 30
0.0
 11
856.3575319454
 21
946.4075041295
 31
0.0
  0
LINE
  5
216
330
1F
100
AcDbEntity
  8
0
  6
Continuous
 62
     7
370
    35
100
AcDbLine
 10
1536.3575319454
 20
946.4932905671
 30
0.0
 11
856.3575319454
 21
946.4932905671
 31
0.0
  0
LINE
  5
217
330
1F
100
AcDbEntity
  8
0
  6
Continuous
 62
     7
370
    35
100
AcDbLine
 10
1536.3575319454
 20
943.4932905671
 30
0.0
 11
856.3575319454
 21
943.4932905671
 31
0.0
  0
LINE
  5
218
330
1F
100
AcDbEntity
  8
0
  6
Continuous
 62
     7
370
    35
100
AcDbLine
 10
1536.3575319454
 20
946.4075041295
 30
0.0
 11
1536.3575319454
 21
943.5790770048
 31
0.0
  0
LINE
  5
219
330
1F
100
AcDbEntity
  8
0
  6
Continuous
 62
     7
370
    35
100
AcDbLine
 10
856.3575319454
 20
879.4932905671
 30
0.0
 11
1536.3575319454
 21
879.4932905671
 31
0.0
  0
LINE
  5
21A
330
1F
100
AcDbEntity
  8
0
  6
Continuous
 62
     7
370
    35
100
AcDbLine
 10
856.3575319454
 20
876.4932905671
 30
0.0
 11
1536.3575319454
 21
876.4932905671
 31
0.0
  0
LINE
  5
21B
330
1F
100
AcDbEntity
  8
0
  6
Continuous
 62
     7
370
    35
100
AcDbLine
 10
856.3575319454
 20
876.5790770048
 30
0.0
 11
856.3575319454
 21
879.4075041295
 31
0.0
  0
LINE
  5
21C
330
1F
100
AcDbEntity
  8
0
  6
Continuous
 62
     7
370
    35
100
AcDbLine
 10
1536.3575319454
 20
879.4075041295
 30
0.0
 11
1536.3575319454
 21
876.5790770048
 31
0.0
  0
LINE
  5
21D
330
1F
100
AcDbEntity
  8
0
  6
Continuous
 62
     7
370
    35
100
AcDbLine
 10
1536.3575319454
 20
947.4932905671
 30
0.0
 11
1536.3575319454
 21
946.4932905671
 31
0.0
  0
LINE
  5
21E
330
1F
100
AcDbEntity
  8
0
  6
Continuous
 62
     7
370
    35
100
AcDbLine
 10
856.3575319454
 20
946.4932905671
 30
0.0
 11
856.3575319454
 21
947.4932905671
 31
0.0
  0
LINE
  5
21F
330
1F
100
AcDbEntity
  8
0
  6
Continuous
 62
     7
370
    35
100
AcDbLine
 10
1536.3575319454
 20
875.4932905671
 30
0.0
 11
1536.3575319454
 21
876.4932905671
 31
0.0
  0
LINE
  5
220
330
1F
100
AcDbEntity
  8
0
  6
Continuous
 62
     7
370
    35
100
AcDbLine
 10
856.3575319454
 20
876.4932905671
 30
0.0
 11
856.3575319454
 21
875.4932905671
 31
0.0
  0
LINE
  5
221
330
1F
100
AcDbEntity
  8
0
  6
Continuous
 62
     7
370
    35
100
AcDbLine
 10
856.3575319454
 20
976.9932905671
 30
0.0
 11
1536.3575319454
 21
976.9932905671
 31
0.0
  0
LINE
  5
222
330
1F
100
AcDbEntity
  8
0
  6
Continuous
 62
     7
370
    35
100
AcDbLine
 10
1536.3575319454
 20
976.9932905671
 30
0.0
 11
1536.3575319454
 21
947.4932905671
 31
0.0
  0
LINE
  5
223
330
1F
100
AcDbEntity
  8
0
  6
Continuous
 62
     7
370
    35
100
AcDbLine
 10
856.3575319454
 20
947.4932905671
 30
0.0
 11
856.3575319454
 21
976.9932905671
 31
0.0
  0
LINE
  5
224
330
1F
100
AcDbEntity
  8
0
  6
Continuous
 62
     7
370
    35
100
AcDbLine
 10
1536.3575319454
 20
845.9932905671
 30
0.0
 11
856.3575319454
 21
845.9932905671
 31
0.0
  0
LINE
  5
225
330
1F
100
AcDbEntity
  8
0
  6
Continuous
 62
     7
370
    35
100
AcDbLine
 10
1536.3575319454
 20
875.4932905671
 30
0.0
 11
1536.3575319454
 21
845.9932905671
 31
0.0
  0
LINE
  5
226
330
1F
100
AcDbEntity
  8
0
  6
Continuous
 62
     7
370
    35
100
AcDbLine
 10
856.3575319454
 20
845.9932905671
 30
0.0
 11
856.3575319454
 21
875.4932905671
 31
0.0
  0
SPLINE
  5
227
330
1F
100
AcDbEntity
  8
0
  6
Continuous
 62
     7
370
    35
100
AcDbSpline
210
0.0
220
0.0
230
1.0
 70
     8
 71
     3
 72
     8
 73
     4
 74
     0
 42
0.000000001
 43
0.00000001
 40
0.0
 40
0.0
 40
0.0
 40
0.0
 40
1.0
 40
1.0
 40
1.0
 40
1.0
 10
1249.357531945366
 20
940.7490747657362
 30
0.0
 10
1251.614654202378
 20
940.7490747657362
 30
0.0
 10
1253.871482920165
 20
940.6810835596922
 30
0.0
 10
1256.124794917253
 20
940.5501849413478
 30
0.0
  0
LINE
  5
228
330
1F
100
AcDbEntity
  8
0
  6
Continuous
 62
     7
370
    35
100
AcDbLine
 10
1143.3575319454
 20
940.7490747657
 30
0.0
 11
1249.3575319454
 21
940.7490747657
 31
0.0
  0
SPLINE
  5
229
330
1F
100
AcDbEntity
  8
0
  6
Continuous
 62
     7
370
    35
100
AcDbSpline
210
0.0
220
0.0
230
1.0
 70
     8
 71
     3
 72
     8
 73
     4
 74
     0
 42
0.000000001
 43
0.00000001
 40
0.0
 40
0.0
 40
0.0
 40
0.0
 40
1.0
 40
1.0
 40
1.0
 40
1.0
 10
1136.590268973478
 20
940.5501849413478
 30
0.0
 10
1138.843580663871
 20
940.6810835416632
 30
0.0
 10
1141.100404794135
 20
940.7490747657362
 30
0.0
 10
1143.357531945366
 20
940.7490747657362
 30
0.0
  0
SPLINE
  5
22A
330
1F
100
AcDbEntity
  8
0
  6
Continuous
 62
     7
370
    35
100
AcDbSpline
210
0.0
220
0.0
230
1.0
 70
     8
 71
     3
 72
    22
 73
    18
 74
     0
 42
0.000000001
 43
0.00000001
 40
3.369126305560274
 40
3.369126305560274
 40
3.369126305560274
 40
3.369126305560274
 40
3.535853022596993
 40
3.535853022596993
 40
3.702579739633712
 40
3.702579739633712
 40
3.869306456670431
 40
3.869306456670431
 40
4.036033173707151
 40
4.036033173707151
 40
4.20275989074387
 40
4.20275989074387
 40
4.369486607780589
 40
4.369486607780589
 40
4.536213324817307
 40
4.536213324817307
 40
4.702940041854027
 40
4.702940041854027
 40
4.702940041854027
 40
4.702940041854027
 10
1113.358871171992
 20
911.6068777289112
 30
0.0
 10
1113.374624935573
 20
913.2740803128117
 30
0.0
 10
1113.529682153892
 20
914.939925457698
 30
0.0
 10
1114.114111703453
 20
918.2228450989834
 30
0.0
 10
1114.543476425004
 20
919.8398675300004
 30
0.0
 10
1115.664619926689
 20
922.980274592495
 30
0.0
 10
1116.356384287136
 20
924.5036188333486
 30
0.0
 10
1117.983148547242
 20
927.4144189487088
 30
0.0
 10
1118.918127524127
 20
928.8018373857016
 30
0.0
 10
1121.005396733505
 20
931.4023039817415
 30
0.0
 10
1122.157660120399
 20
932.6153186946569
 30
0.0
 10
1124.647547072156
 20
934.8333318228879
 30
0.0
 10
1125.985138613118
 20
935.8383017110307
 30
0.0
 10
1128.808590115425
 20
937.6123481827042
 30
0.0
 10
1130.294413762698
 20
938.3814019491786
 30
0.0
 10
1133.373125723044
 20
939.6622813091344
 30
0.0
 10
1134.965964937107
 20
940.174088228375
 30
0.0
 10
1136.590268973478
 20
940.5501849413478
 30
0.0
  0
SPLINE
  5
22B
330
1F
100
AcDbEntity
  8
0
  6
Continuous
 62
     7
370
    35
100
AcDbSpline
210
0.0
220
0.0
230
1.0
 70
     8
 71
     3
 72
     8
 73
     4
 74
     0
 42
0.000000001
 43
0.00000001
 40
0.0
 40
0.0
 40
0.0
 40
0.0
 40
0.0000569949035218
 40
0.0000569949035218
 40
0.0000569949035218
 40
0.0000569949035218
 10
1113.357865284629
 20
911.5499833546996
 30
0.0
 10
1113.358088506889
 20
911.5689497910253
 30
0.0
 10
1113.358424015123
 20
911.587915237822
 30
0.0
 10
1113.358871171992
 20
911.6068777289112
 30
0.0
  0
SPLINE
  5
22C
330
1F
100
AcDbEntity
  8
0
  6
Continuous
 62
     7
370
    35
100
AcDbSpline
210
0.0
220
0.0
230
1.0
 70
     8
 71
     3
 72
     8
 73
     4
 74
     0
 42
0.000000001
 43
0.00000001
 40
0.0
 40
0.0
 40
0.0
 40
0.0
 40
0.0000569949035218
 40
0.0000569949035218
 40
0.0000569949035218
 40
0.0000569949035218
 10
1279.356192718739
 20
911.6068777289112
 30
0.0
 10
1279.356639875609
 20
911.587915237822
 30
0.0
 10
1279.356975383842
 20
911.5689497910253
 30
0.0
 10
1279.357198606102
 20
911.5499833546996
 30
0.0
  0
SPLINE
  5
22D
330
1F
100
AcDbEntity
  8
0
  6
Continuous
 62
     7
370
    35
100
AcDbSpline
210
0.0
220
0.0
230
1.0
 70
     8
 71
     3
 72
    22
 73
    18
 74
     0
 42
0.000000001
 43
0.00000001
 40
1.580245265325559
 40
1.580245265325559
 40
1.580245265325559
 40
1.580245265325559
 40
1.746971982362278
 40
1.746971982362278
 40
1.913698699398998
 40
1.913698699398998
 40
2.080425416435717
 40
2.080425416435717
 40
2.247152133472436
 40
2.247152133472436
 40
2.413878850509155
 40
2.413878850509155
 40
2.580605567545874
 40
2.580605567545874
 40
2.747332284582593
 40
2.747332284582593
 40
2.914059001619312
 40
2.914059001619312
 40
2.914059001619312
 40
2.914059001619312
 10
1256.124794917253
 20
940.5501849413478
 30
0.0
 10
1257.749098953625
 20
940.174088228375
 30
0.0
 10
1259.341938167687
 20
939.6622813091344
 30
0.0
 10
1262.420650128033
 20
938.3814019491786
 30
0.0
 10
1263.906473775306
 20
937.6123481827041
 30
0.0
 10
1266.729925277614
 20
935.8383017110307
 30
0.0
 10
1268.067516818575
 20
934.8333318228879
 30
0.0
 10
1270.557403770332
 20
932.6153186946569
 30
0.0
 10
1271.709667157226
 20
931.4023039817415
 30
0.0
 10
1273.796936366604
 20
928.8018373857014
 30
0.0
 10
1274.73191534349
 20
927.4144189487088
 30
0.0
 10
1276.358679603595
 20
924.5036188333486
 30
0.0
 10
1277.050443964042
 20
922.9802745924952
 30
0.0
 10
1278.171587465727
 20
919.8398675300004
 30
0.0
 10
1278.600952187278
 20
918.2228450989834
 30
0.0
 10
1279.185381736839
 20
914.939925457698
 30
0.0
 10
1279.340438955159
 20
913.2740803128115
 30
0.0
 10
1279.356192718739
 20
911.6068777289112
 30
0.0
  0
SPLINE
  5
22E
330
1F
100
AcDbEntity
  8
0
  6
Continuous
 62
     7
370
    35
100
AcDbSpline
210
0.0
220
0.0
230
1.0
 70
     8
 71
     3
 72
    14
 73
    10
 74
     0
 42
0.000000001
 43
0.00000001
 40
0.0
 40
0.0
 40
0.0
 40
0.0
 40
0.25
 40
0.25
 40
0.5
 40
0.5
 40
0.75
 40
0.75
 40
1.0
 40
1.0
 40
1.0
 40
1.0
 10
1256.124794917253
 20
940.5499833546996
 30
0.0
 10
1259.37338398623
 20
939.7977943289482
 30
0.0
 10
1262.494748024153
 20
938.4991698318926
 30
0.0
 10
1268.141651028767
 20
934.9510768885457
 30
0.0
 10
1270.666032552537
 20
932.7023356931132
 30
0.0
 10
1274.840570971293
 20
927.5014025010332
 30
0.0
 10
1276.4898722132
 20
924.5502765370942
 30
0.0
 10
1278.732159216569
 20
918.2694624121048
 30
0.0
 10
1279.324685377572
 20
914.9410616264247
 30
0.0
 10
1279.356192718739
 20
911.6066761422629
 30
0.0
  0
LINE
  5
22F
330
1F
100
AcDbEntity
  8
0
  6
Continuous
 62
     7
370
    35
100
AcDbLine
 10
1256.1247949173
 20
940.5501849413
 30
0.0
 11
1256.1247949173
 21
940.5499833547
 31
0.0
  0
LINE
  5
230
330
1F
100
AcDbEntity
  8
0
  6
Continuous
 62
     7
370
    35
100
AcDbLine
 10
1256.1247949173
 20
882.4363961929
 30
0.0
 11
1256.1247949173
 21
882.4365977796
 31
0.0
  0
SPLINE
  5
231
330
1F
100
AcDbEntity
  8
0
  6
Continuous
 62
     7
370
    35
100
AcDbSpline
210
0.0
220
0.0
230
1.0
 70
     8
 71
     3
 72
    14
 73
    10
 74
     0
 42
0.000000001
 43
0.00000001
 40
0.0
 40
0.0
 40
0.0
 40
0.0
 40
0.2499999999999999
 40
0.2499999999999999
 40
0.4999999999999999
 40
0.4999999999999999
 40
0.7499999999999999
 40
0.7499999999999999
 40
1.0
 40
1.0
 40
1.0
 40
1.0
 10
1279.356192718739
 20
911.3799049920094
 30
0.0
 10
1279.324685377572
 20
908.0455195078475
 30
0.0
 10
1278.732159216569
 20
904.7171187221676
 30
0.0
 10
1276.489872213199
 20
898.4363045971782
 30
0.0
 10
1274.840570971293
 20
895.4851786332392
 30
0.0
 10
1270.666032552537
 20
890.2842454411591
 30
0.0
 10
1268.141651028767
 20
888.0355042457268
 30
0.0
 10
1262.494748024153
 20
884.4874113023799
 30
0.0
 10
1259.37338398623
 20
883.1887868053241
 30
0.0
 10
1256.124794917253
 20
882.4365977795728
 30
0.0
  0
SPLINE
  5
232
330
1F
100
AcDbEntity
  8
0
  6
Continuous
 62
     7
370
    35
100
AcDbSpline
210
0.0
220
0.0
230
1.0
 70
     8
 71
     3
 72
    22
 73
    18
 74
     0
 42
0.000000001
 43
0.00000001
 40
3.369126305560276
 40
3.369126305560276
 40
3.369126305560276
 40
3.369126305560276
 40
3.535853022596996
 40
3.535853022596996
 40
3.702579739633714
 40
3.702579739633714
 40
3.869306456670433
 40
3.869306456670433
 40
4.036033173707152
 40
4.036033173707152
 40
4.20275989074387
 40
4.20275989074387
 40
4.369486607780589
 40
4.369486607780589
 40
4.536213324817308
 40
4.536213324817308
 40
4.702940041854027
 40
4.702940041854027
 40
4.702940041854027
 40
4.702940041854027
 10
1279.356192718739
 20
911.3797034053612
 30
0.0
 10
1279.340438955159
 20
909.7125008214607
 30
0.0
 10
1279.185381736839
 20
908.0466556765742
 30
0.0
 10
1278.600952187278
 20
904.763736035289
 30
0.0
 10
1278.171587465727
 20
903.1467136042718
 30
0.0
 10
1277.050443964042
 20
900.0063065417771
 30
0.0
 10
1276.358679603595
 20
898.4829623009236
 30
0.0
 10
1274.73191534349
 20
895.5721621855636
 30
0.0
 10
1273.796936366604
 20
894.1847437485709
 30
0.0
 10
1271.709667157226
 20
891.5842771525308
 30
0.0
 10
1270.557403770332
 20
890.3712624396155
 30
0.0
 10
1268.067516818575
 20
888.1532493113846
 30
0.0
 10
1266.729925277614
 20
887.1482794232418
 30
0.0
 10
1263.906473775306
 20
885.3742329515682
 30
0.0
 10
1262.420650128033
 20
884.6051791850937
 30
0.0
 10
1259.341938167687
 20
883.3242998251378
 30
0.0
 10
1257.749098953625
 20
882.8124929058974
 30
0.0
 10
1256.124794917253
 20
882.4363961929245
 30
0.0
  0
ARC
  5
233
330
1F
100
AcDbEntity
  8
0
  6
Continuous
 62
     7
370
    35
100
AcDbCircle
 10
1249.3575319454
 20
911.4932905671
 30
0.0
 40
27.00000000000001
100
AcDbArc
 50
283.0367179551
 51
359.4586157013
  0
SPLINE
  5
234
330
1F
100
AcDbEntity
  8
0
  6
Continuous
 62
     7
370
    35
100
AcDbSpline
210
0.0
220
0.0
230
1.0
 70
     8
 71
     3
 72
    14
 73
    10
 74
     0
 42
0.000000001
 43
0.00000001
 40
0.0
 40
0.0
 40
0.0
 40
0.0
 40
0.25
 40
0.25
 40
0.5
 40
0.5
 40
0.75
 40
0.75
 40
1.0
 40
1.0
 40
1.0
 40
1.0
 10
1136.590268973478
 20
882.4365977795728
 30
0.0
 10
1133.341679904501
 20
883.1887868053241
 30
0.0
 10
1130.220315866578
 20
884.4874113023799
 30
0.0
 10
1124.573412861964
 20
888.0355042457268
 30
0.0
 10
1122.049031338194
 20
890.2842454411591
 30
0.0
 10
1117.874492919438
 20
895.4851786332392
 30
0.0
 10
1116.225191677532
 20
898.4363045971782
 30
0.0
 10
1113.982904674162
 20
904.7171187221676
 30
0.0
 10
1113.390378513159
 20
908.0455195078475
 30
0.0
 10
1113.358871171992
 20
911.3799049920094
 30
0.0
  0
LINE
  5
235
330
1F
100
AcDbEntity
  8
0
  6
Continuous
 62
     7
370
    35
100
AcDbLine
 10
1136.5902689735
 20
882.4363961929
 30
0.0
 11
1136.5902689735
 21
882.4365977796
 31
0.0
  0
SPLINE
  5
236
330
1F
100
AcDbEntity
  8
0
  6
Continuous
 62
     7
370
    35
100
AcDbSpline
210
0.0
220
0.0
230
1.0
 70
     8
 71
     3
 72
    22
 73
    18
 74
     0
 42
0.000000001
 43
0.00000001
 40
1.580245265325559
 40
1.580245265325559
 40
1.580245265325559
 40
1.580245265325559
 40
1.746971982362278
 40
1.746971982362278
 40
1.913698699398996
 40
1.913698699398996
 40
2.080425416435715
 40
2.080425416435715
 40
2.247152133472434
 40
2.247152133472434
 40
2.413878850509152
 40
2.413878850509152
 40
2.580605567545871
 40
2.580605567545871
 40
2.74733228458259
 40
2.74733228458259
 40
2.914059001619308
 40
2.914059001619308
 40
2.914059001619308
 40
2.914059001619308
 10
1136.590268973478
 20
882.4363961929245
 30
0.0
 10
1134.965964937107
 20
882.8124929058974
 30
0.0
 10
1133.373125723044
 20
883.3242998251379
 30
0.0
 10
1130.294413762698
 20
884.6051791850938
 30
0.0
 10
1128.808590115425
 20
885.3742329515682
 30
0.0
 10
1125.985138613118
 20
887.1482794232418
 30
0.0
 10
1124.647547072156
 20
888.1532493113846
 30
0.0
 10
1122.157660120399
 20
890.3712624396155
 30
0.0
 10
1121.005396733505
 20
891.584277152531
 30
0.0
 10
1118.918127524127
 20
894.1847437485709
 30
0.0
 10
1117.983148547241
 20
895.5721621855636
 30
0.0
 10
1116.356384287136
 20
898.4829623009239
 30
0.0
 10
1115.664619926689
 20
900.0063065417772
 30
0.0
 10
1114.543476425004
 20
903.1467136042719
 30
0.0
 10
1114.114111703453
 20
904.7637360352891
 30
0.0
 10
1113.529682153892
 20
908.0466556765745
 30
0.0
 10
1113.374624935573
 20
909.7125008214607
 30
0.0
 10
1113.358871171992
 20
911.3797034053612
 30
0.0
  0
ARC
  5
237
330
1F
100
AcDbEntity
  8
0
  6
Continuous
 62
     7
370
    35
100
AcDbCircle
 10
1143.3575319454
 20
911.4932905671
 30
0.0
 40
27.00000000000017
100
AcDbArc
 50
180.5413842987
 51
256.9632820449
  0
ARC
  5
238
330
1F
100
AcDbEntity
  8
0
  6
Continuous
 62
     7
370
    35
100
AcDbCircle
 10
1249.3575319454
 20
911.4932905671
 30
0.0
 40
27.00000000000001
100
AcDbArc
 50
0.5413842987
 51
76.9632820449
  0
LINE
  5
239
330
1F
100
AcDbEntity
  8
0
  6
Continuous
 62
     7
370
    35
100
AcDbLine
 10
1136.5902689735
 20
940.5501849413
 30
0.0
 11
1136.5902689735
 21
940.5499833547
 31
0.0
  0
SPLINE
  5
23A
330
1F
100
AcDbEntity
  8
0
  6
Continuous
 62
     7
370
    35
100
AcDbSpline
210
0.0
220
0.0
230
1.0
 70
     8
 71
     3
 72
    14
 73
    10
 74
     0
 42
0.000000001
 43
0.00000001
 40
0.0
 40
0.0
 40
0.0
 40
0.0
 40
0.25
 40
0.25
 40
0.5
 40
0.5
 40
0.75
 40
0.75
 40
1.0
 40
1.0
 40
1.0
 40
1.0
 10
1113.358871171992
 20
911.6066761422629
 30
0.0
 10
1113.390378513159
 20
914.9410616264247
 30
0.0
 10
1113.982904674162
 20
918.2694624121048
 30
0.0
 10
1116.225191677532
 20
924.5502765370942
 30
0.0
 10
1117.874492919438
 20
927.5014025010332
 30
0.0
 10
1122.049031338194
 20
932.7023356931132
 30
0.0
 10
1124.573412861964
 20
934.9510768885457
 30
0.0
 10
1130.220315866579
 20
938.4991698318926
 30
0.0
 10
1133.341679904501
 20
939.7977943289482
 30
0.0
 10
1136.590268973478
 20
940.5499833546996
 30
0.0
  0
ARC
  5
23B
330
1F
100
AcDbEntity
  8
0
  6
Continuous
 62
     7
370
    35
100
AcDbCircle
 10
1143.3575319454
 20
911.4932905671
 30
0.0
 40
27.00000000000017
100
AcDbArc
 50
103.0367179551
 51
179.4586157013
  0
SPLINE
  5
23C
330
1F
100
AcDbEntity
  8
0
  6
Continuous
 62
     7
370
    35
100
AcDbSpline
210
0.0
220
0.0
230
1.0
 70
     8
 71
     3
 72
     8
 73
     4
 74
     0
 42
0.000000001
 43
0.00000001
 40
0.0
 40
0.0
 40
0.0
 40
0.0
 40
0.0000569949035229
 40
0.0000569949035229
 40
0.0000569949035229
 40
0.0000569949035229
 10
1113.358871171992
 20
911.3797034053612
 30
0.0
 10
1113.358424015123
 20
911.3986658964507
 30
0.0
 10
1113.358088506889
 20
911.4176313432479
 30
0.0
 10
1113.357865284629
 20
911.4365977795738
 30
0.0
  0
SPLINE
  5
23D
330
1F
100
AcDbEntity
  8
0
  6
Continuous
 62
     7
370
    35
100
AcDbSpline
210
0.0
220
0.0
230
1.0
 70
     8
 71
     3
 72
     8
 73
     4
 74
     0
 42
0.000000001
 43
0.00000001
 40
0.0
 40
0.0
 40
0.0
 40
0.0
 40
1.0
 40
1.0
 40
1.0
 40
1.0
 10
1143.357531945366
 20
882.2375063685363
 30
0.0
 10
1141.100409688353
 20
882.2375063685363
 30
0.0
 10
1138.843580970566
 20
882.30549757458
 30
0.0
 10
1136.590268973478
 20
882.4363961929245
 30
0.0
  0
LINE
  5
23E
330
1F
100
AcDbEntity
  8
0
  6
Continuous
 62
     7
370
    35
100
AcDbLine
 10
1249.3575319454
 20
882.2375063685
 30
0.0
 11
1143.3575319454
 21
882.2375063685
 31
0.0
  0
SPLINE
  5
23F
330
1F
100
AcDbEntity
  8
0
  6
Continuous
 62
     7
370
    35
100
AcDbSpline
210
0.0
220
0.0
230
1.0
 70
     8
 71
     3
 72
     8
 73
     4
 74
     0
 42
0.000000001
 43
0.00000001
 40
0.0
 40
0.0
 40
0.0
 40
0.0
 40
1.0
 40
1.0
 40
1.0
 40
1.0
 10
1256.124794917253
 20
882.4363961929246
 30
0.0
 10
1253.87148322686
 20
882.3054975926091
 30
0.0
 10
1251.614659096597
 20
882.2375063685363
 30
0.0
 10
1249.357531945366
 20
882.2375063685363
 30
0.0
  0
SPLINE
  5
240
330
1F
100
AcDbEntity
  8
0
  6
Continuous
 62
     7
370
    35
100
AcDbSpline
210
0.0
220
0.0
230
1.0
 70
     8
 71
     3
 72
     8
 73
     4
 74
     0
 42
0.000000001
 43
0.00000001
 40
0.0
 40
0.0
 40
0.0
 40
0.0
 40
0.0000569949035229
 40
0.0000569949035229
 40
0.0000569949035229
 40
0.0000569949035229
 10
1279.357198606102
 20
911.4365977795738
 30
0.0
 10
1279.356975383842
 20
911.4176313432479
 30
0.0
 10
1279.356639875609
 20
911.3986658964507
 30
0.0
 10
1279.356192718739
 20
911.3797034053612
 30
0.0
  0
SPLINE
  5
241
330
1F
100
AcDbEntity
  8
0
  6
Continuous
 62
     7
370
    35
100
AcDbSpline
210
0.0
220
0.0
230
1.0
 70
     8
 71
     3
 72
    10
 73
     6
 74
     0
 42
0.000000001
 43
0.00000001
 40
0.0
 40
0.0
 40
0.0
 40
0.0
 40
0.5
 40
0.5
 40
1.0
 40
1.0
 40
1.0
 40
1.0
 10
1143.357531945366
 20
882.2432905671362
 30
0.0
 10
1142.214571797408
 20
882.2432905671362
 30
0.0
 10
1141.079378319665
 20
882.2595645859647
 30
0.0
 10
1138.823851987294
 20
882.3239989779737
 30
0.0
 10
1137.703516041238
 20
882.3721565552797
 30
0.0
 10
1136.590268973478
 20
882.4365977795727
 30
0.0
  0
SPLINE
  5
242
330
1F
100
AcDbEntity
  8
0
  6
Continuous
 62
     7
370
    35
100
AcDbSpline
210
0.0
220
0.0
230
1.0
 70
     8
 71
     3
 72
    10
 73
     6
 74
     0
 42
0.000000001
 43
0.00000001
 40
0.0
 40
0.0
 40
0.0
 40
0.0
 40
0.5
 40
0.5
 40
1.0
 40
1.0
 40
1.0
 40
1.0
 10
1143.357531945366
 20
884.4932905671361
 30
0.0
 10
1142.328792212277
 20
884.4932905671361
 30
0.0
 10
1141.307112735978
 20
884.5518841041453
 30
0.0
 10
1139.277187153333
 20
884.7838467781609
 30
0.0
 10
1138.268937636568
 20
884.9572034924482
 30
0.0
 10
1137.266995270666
 20
885.1891965319077
 30
0.0
  0
SPLINE
  5
243
330
1F
100
AcDbEntity
  8
0
  6
Continuous
 62
     7
370
    35
100
AcDbSpline
210
0.0
220
0.0
230
1.0
 70
     8
 71
     3
 72
    10
 73
     6
 74
     0
 42
0.000000001
 43
0.00000001
 40
0.0
 40
0.0
 40
0.0
 40
0.0
 40
0.5
 40
0.5
 40
1.0
 40
1.0
 40
1.0
 40
1.0
 10
1256.124794917253
 20
882.4365977795727
 30
0.0
 10
1255.011547849493
 20
882.3721565552797
 30
0.0
 10
1253.891211903437
 20
882.3239989779737
 30
0.0
 10
1251.635685571066
 20
882.2595645859647
 30
0.0
 10
1250.500492093323
 20
882.2432905671362
 30
0.0
 10
1249.357531945366
 20
882.2432905671362
 30
0.0
  0
SPLINE
  5
244
330
1F
100
AcDbEntity
  8
0
  6
Continuous
 62
     7
370
    35
100
AcDbSpline
210
0.0
220
0.0
230
1.0
 70
     8
 71
     3
 72
    10
 73
     6
 74
     0
 42
0.000000001
 43
0.00000001
 40
0.0
 40
0.0
 40
0.0
 40
0.0
 40
0.5
 40
0.5
 40
1.0
 40
1.0
 40
1.0
 40
1.0
 10
1255.448068620065
 20
885.1891965319077
 30
0.0
 10
1254.446126254163
 20
884.957203492448
 30
0.0
 10
1253.437876737396
 20
884.7838467781606
 30
0.0
 10
1251.407951154749
 20
884.551884104145
 30
0.0
 10
1250.386271678455
 20
884.4932905671361
 30
0.0
 10
1249.357531945366
 20
884.4932905671361
 30
0.0
  0
SPLINE
  5
245
330
1F
100
AcDbEntity
  8
0
  6
Continuous
 62
     7
370
    35
100
AcDbSpline
210
0.0
220
0.0
230
1.0
 70
     8
 71
     3
 72
    10
 73
     6
 74
     0
 42
0.000000001
 43
0.00000001
 40
0.0
 40
0.0
 40
0.0
 40
0.0
 40
0.5
 40
0.5
 40
1.0
 40
1.0
 40
1.0
 40
1.0
 10
1136.590268973478
 20
940.5499833546997
 30
0.0
 10
1137.703516041238
 20
940.6144245789927
 30
0.0
 10
1138.823851987294
 20
940.6625821562986
 30
0.0
 10
1141.079378319665
 20
940.7270165483078
 30
0.0
 10
1142.214571797408
 20
940.7432905671362
 30
0.0
 10
1143.357531945366
 20
940.7432905671362
 30
0.0
  0
SPLINE
  5
246
330
1F
100
AcDbEntity
  8
0
  6
Continuous
 62
     7
370
    35
100
AcDbSpline
210
0.0
220
0.0
230
1.0
 70
     8
 71
     3
 72
    10
 73
     6
 74
     0
 42
0.000000001
 43
0.00000001
 40
0.0
 40
0.0
 40
0.0
 40
0.0
 40
0.5
 40
0.5
 40
1.0
 40
1.0
 40
1.0
 40
1.0
 10
1137.266995270666
 20
937.7973846023648
 30
0.0
 10
1138.268937636569
 20
938.0293776418243
 30
0.0
 10
1139.277187153335
 20
938.2027343561118
 30
0.0
 10
1141.307112735982
 20
938.4346970301275
 30
0.0
 10
1142.328792212277
 20
938.4932905671361
 30
0.0
 10
1143.357531945366
 20
938.4932905671361
 30
0.0
  0
SPLINE
  5
247
330
1F
100
AcDbEntity
  8
0
  6
Continuous
 62
     7
370
    35
100
AcDbSpline
210
0.0
220
0.0
230
1.0
 70
     8
 71
     3
 72
    10
 73
     6
 74
     0
 42
0.000000001
 43
0.00000001
 40
0.0
 40
0.0
 40
0.0
 40
0.0
 40
0.5
 40
0.5
 40
1.0
 40
1.0
 40
1.0
 40
1.0
 10
1249.357531945366
 20
940.7432905671362
 30
0.0
 10
1250.500492093323
 20
940.7432905671362
 30
0.0
 10
1251.635685571066
 20
940.7270165483078
 30
0.0
 10
1253.891211903437
 20
940.6625821562986
 30
0.0
 10
1255.011547849493
 20
940.6144245789927
 30
0.0
 10
1256.124794917253
 20
940.5499833546997
 30
0.0
  0
SPLINE
  5
248
330
1F
100
AcDbEntity
  8
0
  6
Continuous
 62
     7
370
    35
100
AcDbSpline
210
0.0
220
0.0
230
1.0
 70
     8
 71
     3
 72
    10
 73
     6
 74
     0
 42
0.000000001
 43
0.00000001
 40
0.0
 40
0.0
 40
0.0
 40
0.0
 40
0.5
 40
0.5
 40
1.0
 40
1.0
 40
1.0
 40
1.0
 10
1249.357531945366
 20
938.4932905671361
 30
0.0
 10
1250.386271678454
 20
938.4932905671361
 30
0.0
 10
1251.407951154753
 20
938.434697030127
 30
0.0
 10
1253.437876737398
 20
938.2027343561114
 30
0.0
 10
1254.446126254164
 20
938.029377641824
 30
0.0
 10
1255.448068620065
 20
937.7973846023648
 30
0.0
  0
LINE
  5
249
330
1F
100
AcDbEntity
  8
0
  6
Continuous
 62
     7
370
    35
100
AcDbLine
 10
1143.3575319454
 20
882.2432905671
 30
0.0
 11
1249.3575319454
 21
882.2432905671
 31
0.0
  0
LINE
  5
24A
330
1F
100
AcDbEntity
  8
0
  6
Continuous
 62
     7
370
    35
100
AcDbLine
 10
1249.3575319454
 20
884.4932905671
 30
0.0
 11
1143.3575319454
 21
884.4932905671
 31
0.0
  0
LINE
  5
24B
330
1F
100
AcDbEntity
  8
0
  6
Continuous
 62
     7
370
    35
100
AcDbLine
 10
1249.3575319454
 20
940.7432905671
 30
0.0
 11
1143.3575319454
 21
940.7432905671
 31
0.0
  0
LINE
  5
24C
330
1F
100
AcDbEntity
  8
0
  6
Continuous
 62
     7
370
    35
100
AcDbLine
 10
1143.3575319454
 20
938.4932905671
 30
0.0
 11
1249.3575319454
 21
938.4932905671
 31
0.0
  0
SPLINE
  5
24D
330
1F
100
AcDbEntity
  8
0
  6
Continuous
 62
     7
370
    35
100
AcDbSpline
210
0.0
220
0.0
230
1.0
 70
     8
 71
     3
 72
     8
 73
     4
 74
     0
 42
0.000000001
 43
0.00000001
 40
0.0
 40
0.0
 40
0.0
 40
0.0
 40
1.0
 40
1.0
 40
1.0
 40
1.0
 10
1279.356192718739
 20
911.6066761422629
 30
0.0
 10
1279.357978394099
 20
911.531085758845
 30
0.0
 10
1279.357978394099
 20
911.4554953754273
 30
0.0
 10
1279.356192718739
 20
911.3799049920094
 30
0.0
  0
SPLINE
  5
24E
330
1F
100
AcDbEntity
  8
0
  6
Continuous
 62
     7
370
    35
100
AcDbSpline
210
0.0
220
0.0
230
1.0
 70
     8
 71
     3
 72
     8
 73
     4
 74
     0
 42
0.000000001
 43
0.00000001
 40
0.0
 40
0.0
 40
0.0
 40
0.0
 40
1.0
 40
1.0
 40
1.0
 40
1.0
 10
1276.356326641402
 20
911.7484081111714
 30
0.0
 10
1276.357933749226
 20
911.5783297484812
 30
0.0
 10
1276.357933749226
 20
911.4082513857911
 30
0.0
 10
1276.356326641402
 20
911.238173023101
 30
0.0
  0
SPLINE
  5
24F
330
1F
100
AcDbEntity
  8
0
  6
Continuous
 62
     7
370
    35
100
AcDbSpline
210
0.0
220
0.0
230
1.0
 70
     8
 71
     3
 72
     8
 73
     4
 74
     0
 42
0.000000001
 43
0.00000001
 40
0.0
 40
0.0
 40
0.0
 40
0.0
 40
0.0001133855751267
 40
0.0001133855751267
 40
0.0001133855751267
 40
0.0001133855751267
 10
1279.357198606103
 20
911.4365977795728
 30
0.0
 10
1279.357642684131
 20
911.4743295794038
 30
0.0
 10
1279.357642684131
 20
911.512251554878
 30
0.0
 10
1279.357198606102
 20
911.5499833547091
 30
0.0
  0
SPLINE
  5
250
330
1F
100
AcDbEntity
  8
0
  6
Continuous
 62
     7
370
    35
100
AcDbSpline
210
0.0
220
0.0
230
1.0
 70
     8
 71
     3
 72
     8
 73
     4
 74
     0
 42
0.000000001
 43
0.00000001
 40
0.0
 40
0.0
 40
0.0
 40
0.0
 40
1.0
 40
1.0
 40
1.0
 40
1.0
 10
1116.358737249329
 20
911.238173023101
 30
0.0
 10
1116.357130141506
 20
911.4082513857911
 30
0.0
 10
1116.357130141506
 20
911.5783297484812
 30
0.0
 10
1116.358737249329
 20
911.7484081111714
 30
0.0
  0
SPLINE
  5
251
330
1F
100
AcDbEntity
  8
0
  6
Continuous
 62
     7
370
    35
100
AcDbSpline
210
0.0
220
0.0
230
1.0
 70
     8
 71
     3
 72
     8
 73
     4
 74
     0
 42
0.000000001
 43
0.00000001
 40
0.0
 40
0.0
 40
0.0
 40
0.0
 40
1.0
 40
1.0
 40
1.0
 40
1.0
 10
1113.358871171992
 20
911.3799049920094
 30
0.0
 10
1113.357085496632
 20
911.4554953754273
 30
0.0
 10
1113.357085496632
 20
911.531085758845
 30
0.0
 10
1113.358871171992
 20
911.6066761422629
 30
0.0
  0
SPLINE
  5
252
330
1F
100
AcDbEntity
  8
0
  6
Continuous
 62
     7
370
    35
100
AcDbSpline
210
0.0
220
0.0
230
1.0
 70
     8
 71
     3
 72
     8
 73
     4
 74
     0
 42
0.000000001
 43
0.00000001
 40
0.0
 40
0.0
 40
0.0
 40
0.0
 40
0.0001133855751265
 40
0.0001133855751265
 40
0.0001133855751265
 40
0.0001133855751265
 10
1113.357865284629
 20
911.5499833546996
 30
0.0
 10
1113.357421206601
 20
911.5122515548718
 30
0.0
 10
1113.357421206601
 20
911.4743295794008
 30
0.0
 10
1113.357865284629
 20
911.4365977795729
 30
0.0
  0
SPLINE
  5
253
330
1F
100
AcDbEntity
  8
0
  6
Continuous
 62
     7
370
    35
100
AcDbSpline
210
0.0
220
0.0
230
1.0
 70
     8
 71
     3
 72
     9
 73
     5
 74
     0
 42
0.000000001
 43
0.00000001
 40
0.0
 40
0.0
 40
0.0
 40
0.0
 40
0.4946096718337165
 40
1.0
 40
1.0
 40
1.0
 40
1.0
 10
1153.357531945369
 20
906.5601160645091
 30
0.0
 10
1153.340012576536
 20
906.0790278863528
 30
0.0
 10
1153.304591981608
 20
905.1063655921184
 30
0.0
 10
1153.061026499699
 20
904.1680052835436
 30
0.0
 10
1152.937930860867
 20
903.6937670592547
 30
0.0
  0
SPLINE
  5
254
330
1F
100
AcDbEntity
  8
0
  6
Continuous
 62
     7
370
    35
100
AcDbSpline
210
0.0
220
0.0
230
1.0
 70
     8
 71
     3
 72
    16
 73
    12
 74
     0
 42
0.000000001
 43
0.00000001
 40
0.0
 40
0.0
 40
0.0
 40
0.0
 40
0.6093642604474526
 40
0.7233750503865237
 40
0.8172213162014323
 40
0.8496365726793016
 40
0.8823612341653039
 40
0.9067814804498373
 40
0.9311421346350485
 40
0.9706402276062258
 40
1.0
 40
1.0
 40
1.0
 40
1.0
 10
1145.391810502518
 20
894.6356523094136
 30
0.0
 10
1144.814976232929
 20
894.3379972334641
 30
0.0
 10
1144.130217467257
 20
893.9846515098329
 30
0.0
 10
1143.462974496065
 20
893.4589131861754
 30
0.0
 10
1143.292721098082
 20
893.273760176118
 30
0.0
 10
1143.224447637402
 20
893.1251038759448
 30
0.0
 10
1143.212808496406
 20
893.0315032105626
 30
0.0
 10
1143.237333944618
 20
892.9475405255537
 30
0.0
 10
1143.29359665226
 20
892.8694015383804
 30
0.0
 10
1143.376668814924
 20
892.8072043425432
 30
0.0
 10
1143.44508968337
 20
892.7753144133131
 30
0.0
 10
1143.47426312803
 20
892.7617171131516
 30
0.0
  0
SPLINE
  5
255
330
1F
100
AcDbEntity
  8
0
  6
Continuous
 62
     7
370
    35
100
AcDbSpline
210
0.0
220
0.0
230
1.0
 70
     8
 71
     3
 72
    13
 73
     9
 74
     0
 42
0.000000001
 43
0.00000001
 40
0.0
 40
0.0
 40
0.0
 40
0.0
 40
0.1585077763891452
 40
0.3168380823631937
 40
0.4791716695216522
 40
0.6493085002787289
 40
0.823595348237207
 40
1.0
 40
1.0
 40
1.0
 40
1.0
 10
1130.829919708212
 20
907.1721379066569
 30
0.0
 10
1131.122494861971
 20
906.1618124548519
 30
0.0
 10
1131.707317592917
 20
904.1422927441804
 30
0.0
 10
1133.203344144603
 20
901.3216899926202
 30
0.0
 10
1135.130022814309
 20
898.691639184636
 30
0.0
 10
1137.529097212087
 20
896.3287065883874
 30
0.0
 10
1140.321423484822
 20
894.2728142433112
 30
0.0
 10
1142.419094013708
 20
893.2674399538041
 30
0.0
 10
1143.47426312803
 20
892.7617171131516
 30
0.0
  0
SPLINE
  5
256
330
1F
100
AcDbEntity
  8
0
  6
Continuous
 62
     7
370
    35
100
AcDbSpline
210
0.0
220
0.0
230
1.0
 70
     8
 71
     3
 72
     9
 73
     5
 74
     0
 42
0.000000001
 43
0.00000001
 40
0.0
 40
0.0
 40
0.0
 40
0.0
 40
0.4781757401206169
 40
0.9999999999999999
 40
0.9999999999999999
 40
0.9999999999999999
 40
0.9999999999999999
 10
1130.829919708212
 20
915.8144432276158
 30
0.0
 10
1130.583193316546
 20
914.4381971577459
 30
0.0
 10
1130.067219018889
 20
911.5600794399319
 30
0.0
 10
1130.568394292165
 20
908.6767363043567
 30
0.0
 10
1130.829919708212
 20
907.1721379066569
 30
0.0
  0
SPLINE
  5
257
330
1F
100
AcDbEntity
  8
0
  6
Continuous
 62
     7
370
    35
100
AcDbSpline
210
0.0
220
0.0
230
1.0
 70
     8
 71
     3
 72
    13
 73
     9
 74
     0
 42
0.000000001
 43
0.00000001
 40
0.0
 40
0.0
 40
0.0
 40
0.0
 40
0.158507776389146
 40
0.3168380823631955
 40
0.4791716695216542
 40
0.6493085002787318
 40
0.8235953482372199
 40
1.0
 40
1.0
 40
1.0
 40
1.0
 10
1130.829919708212
 20
915.8144432276158
 30
0.0
 10
1131.122494861971
 20
916.8247686794207
 30
0.0
 10
1131.707317592917
 20
918.8442883900922
 30
0.0
 10
1133.203344144603
 20
921.6648911416523
 30
0.0
 10
1135.130022814309
 20
924.2949419496367
 30
0.0
 10
1137.529097212088
 20
926.6578745458852
 30
0.0
 10
1140.321423484821
 20
928.7137668909619
 30
0.0
 10
1142.419094013708
 20
929.7191411804683
 30
0.0
 10
1143.47426312803
 20
930.2248640211207
 30
0.0
  0
SPLINE
  5
258
330
1F
100
AcDbEntity
  8
0
  6
Continuous
 62
     7
370
    35
100
AcDbSpline
210
0.0
220
0.0
230
1.0
 70
     8
 71
     3
 72
    16
 73
    12
 74
     0
 42
0.000000001
 43
0.00000001
 40
0.0
 40
0.0
 40
0.0
 40
0.0
 40
0.6093642604474537
 40
0.7233750503865218
 40
0.8172213162014308
 40
0.8496365726793003
 40
0.8823612341653065
 40
0.9067814804498369
 40
0.9311421346350484
 40
0.9706402276062257
 40
1.0
 40
1.0
 40
1.0
 40
1.0
 10
1145.391810502518
 20
928.3509288248587
 30
0.0
 10
1144.814976232929
 20
928.6485839008083
 30
0.0
 10
1144.130217467257
 20
929.0019296244394
 30
0.0
 10
1143.462974496065
 20
929.5276679480968
 30
0.0
 10
1143.292721098082
 20
929.7128209581542
 30
0.0
 10
1143.224447637402
 20
929.8614772583276
 30
0.0
 10
1143.212808496406
 20
929.9550779237098
 30
0.0
 10
1143.237333944618
 20
930.0390406087188
 30
0.0
 10
1143.29359665226
 20
930.1171795958918
 30
0.0
 10
1143.376668814924
 20
930.1793767917292
 30
0.0
 10
1143.44508968337
 20
930.2112667209592
 30
0.0
 10
1143.47426312803
 20
930.2248640211207
 30
0.0
  0
SPLINE
  5
259
330
1F
100
AcDbEntity
  8
0
  6
Continuous
 62
     7
370
    35
100
AcDbSpline
210
0.0
220
0.0
230
1.0
 70
     8
 71
     3
 72
    11
 73
     7
 74
     0
 42
0.000000001
 43
0.00000001
 40
0.0
 40
0.0
 40
0.0
 40
0.0
 40
0.2606216717114579
 40
0.4632004480831493
 40
0.6713667795621433
 40
1.0
 40
1.0
 40
1.0
 40
1.0
 10
1152.937930860867
 20
919.2928140750179
 30
0.0
 10
1152.571049490206
 20
920.2945322548283
 30
0.0
 10
1151.918994677697
 20
922.0748765627065
 30
0.0
 10
1150.381629815874
 20
924.3298761847693
 30
0.0
 10
1148.366864031383
 20
926.5445103651155
 30
0.0
 10
1146.521535945554
 20
927.6649724630855
 30
0.0
 10
1145.391810502518
 20
928.3509288248587
 30
0.0
  0
SPLINE
  5
25A
330
1F
100
AcDbEntity
  8
0
  6
Continuous
 62
     7
370
    35
100
AcDbSpline
210
0.0
220
0.0
230
1.0
 70
     8
 71
     3
 72
     9
 73
     5
 74
     0
 42
0.000000001
 43
0.00000001
 40
0.0
 40
0.0
 40
0.0
 40
0.0
 40
0.4946096718336995
 40
0.9999999999999999
 40
0.9999999999999999
 40
0.9999999999999999
 40
0.9999999999999999
 10
1153.357531945369
 20
916.4264650697636
 30
0.0
 10
1153.340012576536
 20
916.9075532479199
 30
0.0
 10
1153.304591981608
 20
917.880215542154
 30
0.0
 10
1153.061026499699
 20
918.8185758507288
 30
0.0
 10
1152.937930860867
 20
919.2928140750179
 30
0.0
  0
LINE
  5
25B
330
1F
100
AcDbEntity
  8
0
  6
Continuous
 62
     7
370
    35
100
AcDbLine
 10
1153.3575319454
 20
916.4264650698
 30
0.0
 11
1153.3575319454
 21
906.5601160645
 31
0.0
  0
SPLINE
  5
25C
330
1F
100
AcDbEntity
  8
0
  6
Continuous
 62
     7
370
    35
100
AcDbSpline
210
0.0
220
0.0
230
1.0
 70
     8
 71
     3
 72
    11
 73
     7
 74
     0
 42
0.000000001
 43
0.00000001
 40
0.0
 40
0.0
 40
0.0
 40
0.0
 40
0.2606216717114464
 40
0.4632004480831382
 40
0.671366779562131
 40
1.0
 40
1.0
 40
1.0
 40
1.0
 10
1152.937930860867
 20
903.6937670592547
 30
0.0
 10
1152.571049490206
 20
902.6920488794443
 30
0.0
 10
1151.918994677696
 20
900.9117045715661
 30
0.0
 10
1150.381629815874
 20
898.6567049495033
 30
0.0
 10
1148.366864031383
 20
896.4420707691571
 30
0.0
 10
1146.521535945554
 20
895.321608671187
 30
0.0
 10
1145.391810502518
 20
894.6356523094136
 30
0.0
  0
SPLINE
  5
25D
330
1F
100
AcDbEntity
  8
0
  6
Continuous
 62
     7
370
    35
100
AcDbSpline
210
0.0
220
0.0
230
1.0
 70
     8
 71
     3
 72
     9
 73
     5
 74
     0
 42
0.000000001
 43
0.00000001
 40
0.0
 40
0.0
 40
0.0
 40
0.0
 40
0.4946096718336964
 40
0.9999999999999999
 40
0.9999999999999999
 40
0.9999999999999999
 40
0.9999999999999999
 10
1239.357531945362
 20
916.4264650697633
 30
0.0
 10
1239.375051314195
 20
916.9075532479195
 30
0.0
 10
1239.410471909123
 20
917.8802155421538
 30
0.0
 10
1239.654037391032
 20
918.8185758507286
 30
0.0
 10
1239.777133029864
 20
919.2928140750175
 30
0.0
  0
SPLINE
  5
25E
330
1F
100
AcDbEntity
  8
0
  6
Continuous
 62
     7
370
    35
100
AcDbSpline
210
0.0
220
0.0
230
1.0
 70
     8
 71
     3
 72
    16
 73
    12
 74
     0
 42
0.000000001
 43
0.00000001
 40
0.0
 40
0.0
 40
0.0
 40
0.0
 40
0.6093642604474581
 40
0.7233750503865222
 40
0.8172213162014308
 40
0.8496365726793003
 40
0.8823612341653102
 40
0.9067814804498372
 40
0.9311421346350485
 40
0.9706402276062258
 40
1.0
 40
1.0
 40
1.0
 40
1.0
 10
1247.323253388213
 20
928.3509288248587
 30
0.0
 10
1247.900087657802
 20
928.6485839008083
 30
0.0
 10
1248.584846423474
 20
929.0019296244394
 30
0.0
 10
1249.252089394666
 20
929.5276679480968
 30
0.0
 10
1249.422342792649
 20
929.7128209581542
 30
0.0
 10
1249.49061625333
 20
929.8614772583276
 30
0.0
 10
1249.502255394325
 20
929.9550779237096
 30
0.0
 10
1249.477729946114
 20
930.0390406087188
 30
0.0
 10
1249.421467238472
 20
930.1171795958918
 30
0.0
 10
1249.338395075808
 20
930.179376791729
 30
0.0
 10
1249.269974207361
 20
930.2112667209592
 30
0.0
 10
1249.240800762702
 20
930.2248640211207
 30
0.0
  0
SPLINE
  5
25F
330
1F
100
AcDbEntity
  8
0
  6
Continuous
 62
     7
370
    35
100
AcDbSpline
210
0.0
220
0.0
230
1.0
 70
     8
 71
     3
 72
    13
 73
     9
 74
     0
 42
0.000000001
 43
0.00000001
 40
0.0
 40
0.0
 40
0.0
 40
0.0
 40
0.1585077763891451
 40
0.3168380823631936
 40
0.479171669521652
 40
0.6493085002787287
 40
0.8235953482372071
 40
1.0
 40
1.0
 40
1.0
 40
1.0
 10
1261.88514418252
 20
915.8144432276155
 30
0.0
 10
1261.59256902876
 20
916.8247686794203
 30
0.0
 10
1261.007746297814
 20
918.8442883900918
 30
0.0
 10
1259.511719746128
 20
921.6648911416521
 30
0.0
 10
1257.585041076422
 20
924.2949419496364
 30
0.0
 10
1255.185966678644
 20
926.657874545885
 30
0.0
 10
1252.39364040591
 20
928.7137668909612
 30
0.0
 10
1250.295969877024
 20
929.7191411804681
 30
0.0
 10
1249.240800762702
 20
930.2248640211207
 30
0.0
  0
SPLINE
  5
260
330
1F
100
AcDbEntity
  8
0
  6
Continuous
 62
     7
370
    35
100
AcDbSpline
210
0.0
220
0.0
230
1.0
 70
     8
 71
     3
 72
     9
 73
     5
 74
     0
 42
0.000000001
 43
0.00000001
 40
0.0
 40
0.0
 40
0.0
 40
0.0
 40
0.4781757401206189
 40
0.9999999999999999
 40
0.9999999999999999
 40
0.9999999999999999
 40
0.9999999999999999
 10
1261.88514418252
 20
915.8144432276155
 30
0.0
 10
1262.131870574185
 20
914.4381971577454
 30
0.0
 10
1262.647844871843
 20
911.5600794399315
 30
0.0
 10
1262.146669598567
 20
908.6767363043563
 30
0.0
 10
1261.88514418252
 20
907.1721379066565
 30
0.0
  0
SPLINE
  5
261
330
1F
100
AcDbEntity
  8
0
  6
Continuous
 62
     7
370
    35
100
AcDbSpline
210
0.0
220
0.0
230
1.0
 70
     8
 71
     3
 72
    13
 73
     9
 74
     0
 42
0.000000001
 43
0.00000001
 40
0.0
 40
0.0
 40
0.0
 40
0.0
 40
0.158507776389146
 40
0.3168380823631957
 40
0.4791716695216542
 40
0.6493085002787319
 40
0.8235953482372198
 40
1.0
 40
1.0
 40
1.0
 40
1.0
 10
1261.88514418252
 20
907.1721379066565
 30
0.0
 10
1261.59256902876
 20
906.1618124548517
 30
0.0
 10
1261.007746297814
 20
904.1422927441802
 30
0.0
 10
1259.511719746128
 20
901.3216899926199
 30
0.0
 10
1257.585041076422
 20
898.6916391846356
 30
0.0
 10
1255.185966678644
 20
896.328706588387
 30
0.0
 10
1252.39364040591
 20
894.2728142433106
 30
0.0
 10
1250.295969877024
 20
893.2674399538039
 30
0.0
 10
1249.240800762702
 20
892.7617171131516
 30
0.0
  0
SPLINE
  5
262
330
1F
100
AcDbEntity
  8
0
  6
Continuous
 62
     7
370
    35
100
AcDbSpline
210
0.0
220
0.0
230
1.0
 70
     8
 71
     3
 72
    16
 73
    12
 74
     0
 42
0.000000001
 43
0.00000001
 40
0.0
 40
0.0
 40
0.0
 40
0.0
 40
0.6093642604474567
 40
0.7233750503865239
 40
0.8172213162014322
 40
0.8496365726793014
 40
0.8823612341653075
 40
0.9067814804498375
 40
0.9311421346350487
 40
0.9706402276062259
 40
1.0
 40
1.0
 40
1.0
 40
1.0
 10
1247.323253388213
 20
894.6356523094136
 30
0.0
 10
1247.900087657802
 20
894.3379972334641
 30
0.0
 10
1248.584846423474
 20
893.9846515098329
 30
0.0
 10
1249.252089394666
 20
893.4589131861754
 30
0.0
 10
1249.422342792649
 20
893.273760176118
 30
0.0
 10
1249.49061625333
 20
893.1251038759448
 30
0.0
 10
1249.502255394325
 20
893.0315032105626
 30
0.0
 10
1249.477729946114
 20
892.9475405255537
 30
0.0
 10
1249.421467238472
 20
892.8694015383804
 30
0.0
 10
1249.338395075808
 20
892.8072043425432
 30
0.0
 10
1249.269974207361
 20
892.7753144133131
 30
0.0
 10
1249.240800762702
 20
892.7617171131516
 30
0.0
  0
SPLINE
  5
263
330
1F
100
AcDbEntity
  8
0
  6
Continuous
 62
     7
370
    35
100
AcDbSpline
210
0.0
220
0.0
230
1.0
 70
     8
 71
     3
 72
    11
 73
     7
 74
     0
 42
0.000000001
 43
0.00000001
 40
0.0
 40
0.0
 40
0.0
 40
0.0
 40
0.2606216717114535
 40
0.4632004480831469
 40
0.6713667795621419
 40
1.0
 40
1.0
 40
1.0
 40
1.0
 10
1239.777133029864
 20
903.6937670592545
 30
0.0
 10
1240.144014400525
 20
902.6920488794441
 30
0.0
 10
1240.796069213035
 20
900.9117045715659
 30
0.0
 10
1242.333434074857
 20
898.656704949503
 30
0.0
 10
1244.348199859348
 20
896.4420707691569
 30
0.0
 10
1246.193527945177
 20
895.3216086711869
 30
0.0
 10
1247.323253388213
 20
894.6356523094136
 30
0.0
  0
SPLINE
  5
264
330
1F
100
AcDbEntity
  8
0
  6
Continuous
 62
     7
370
    35
100
AcDbSpline
210
0.0
220
0.0
230
1.0
 70
     8
 71
     3
 72
     9
 73
     5
 74
     0
 42
0.000000001
 43
0.00000001
 40
0.0
 40
0.0
 40
0.0
 40
0.0
 40
0.4946096718337132
 40
0.9999999999999999
 40
0.9999999999999999
 40
0.9999999999999999
 40
0.9999999999999999
 10
1239.357531945362
 20
906.5601160645089
 30
0.0
 10
1239.375051314195
 20
906.0790278863526
 30
0.0
 10
1239.410471909123
 20
905.1063655921183
 30
0.0
 10
1239.654037391032
 20
904.1680052835434
 30
0.0
 10
1239.777133029864
 20
903.6937670592545
 30
0.0
  0
LINE
  5
265
330
1F
100
AcDbEntity
  8
0
  6
Continuous
 62
     7
370
    35
100
AcDbLine
 10
1239.3575319454
 20
916.4264650698
 30
0.0
 11
1239.3575319454
 21
906.5601160645
 31
0.0
  0
SPLINE
  5
266
330
1F
100
AcDbEntity
  8
0
  6
Continuous
 62
     7
370
    35
100
AcDbSpline
210
0.0
220
0.0
230
1.0
 70
     8
 71
     3
 72
    11
 73
     7
 74
     0
 42
0.000000001
 43
0.00000001
 40
0.0
 40
0.0
 40
0.0
 40
0.0
 40
0.2606216717114501
 40
0.4632004480831402
 40
0.6713667795621332
 40
1.0
 40
1.0
 40
1.0
 40
1.0
 10
1239.777133029864
 20
919.2928140750175
 30
0.0
 10
1240.144014400525
 20
920.2945322548279
 30
0.0
 10
1240.796069213035
 20
922.0748765627062
 30
0.0
 10
1242.333434074857
 20
924.329876184769
 30
0.0
 10
1244.348199859348
 20
926.5445103651151
 30
0.0
 10
1246.193527945177
 20
927.6649724630853
 30
0.0
 10
1247.323253388213
 20
928.3509288248587
 30
0.0
  0
SPLINE
  5
267
330
1F
100
AcDbEntity
  8
0
  6
Continuous
 62
     7
370
    35
100
AcDbSpline
210
0.0
220
0.0
230
1.0
 70
     8
 71
     3
 72
    17
 73
    13
 74
     0
 42
0.000000001
 43
0.00000001
 40
0.0
 40
0.0
 40
0.0
 40
0.0
 40
0.0352127301800322
 40
0.1768616316807783
 40
0.2808325704307489
 40
0.3877934996385707
 40
0.4930479341421612
 40
0.5965428442053727
 40
0.7000016886007004
 40
0.803475965008411
 40
0.909849555309956
 40
1.0
 40
1.0
 40
1.0
 40
1.0
 10
1143.3516274744
 20
889.7560181714584
 30
0.0
 10
1142.951446132318
 20
889.7634221786574
 30
0.0
 10
1140.94147062724
 20
889.800610002138
 30
0.0
 10
1137.76432270444
 20
890.3565049316383
 30
0.0
 10
1133.994691437722
 20
891.7593599104945
 30
0.0
 10
1130.878019362974
 20
893.5842312175727
 30
0.0
 10
1128.093727858664
 20
895.872653680675
 30
0.0
 10
1125.762364659081
 20
898.5694973887075
 30
0.0
 10
1123.902691588991
 20
901.5866497699062
 30
0.0
 10
1122.54453558288
 20
904.8919711434755
 30
0.0
 10
1121.750615437313
 20
908.232362676097
 30
0.0
 10
1121.660443246903
 20
910.4678274711333
 30
0.0
 10
1121.619079028708
 20
911.4932905671363
 30
0.0
  0
SPLINE
  5
268
330
1F
100
AcDbEntity
  8
0
  6
Continuous
 62
     7
370
    35
100
AcDbSpline
210
0.0
220
0.0
230
1.0
 70
     8
 71
     3
 72
    17
 73
    13
 74
     0
 42
0.000000001
 43
0.00000001
 40
0.0
 40
0.0
 40
0.0
 40
0.0
 40
0.0352140993686982
 40
0.176868508652271
 40
0.2823152604671271
 40
0.3877837521866069
 40
0.4930422793344849
 40
0.5965412136257862
 40
0.7000040808468497
 40
0.8049238598612662
 40
0.9098460499592906
 40
1.0
 40
1.0
 40
1.0
 40
1.0
 10
1143.3516274744
 20
933.230562962814
 30
0.0
 10
1142.951457509671
 20
933.2231290834725
 30
0.0
 10
1140.941539149189
 20
933.1857912223255
 30
0.0
 10
1137.746458079559
 20
932.6303522222472
 30
0.0
 10
1133.982791440924
 20
931.2118573619819
 30
0.0
 10
1130.863812227799
 20
929.3935436203392
 30
0.0
 10
1128.093908200844
 20
927.1134263423334
 30
0.0
 10
1125.762626607548
 20
924.4170881291275
 30
0.0
 10
1123.892821477326
 20
921.3864042616979
 30
0.0
 10
1122.544325692357
 20
918.0769696929169
 30
0.0
 10
1121.748826246433
 20
914.737968393356
 30
0.0
 10
1121.660088811993
 20
912.518850396603
 30
0.0
 10
1121.619079028708
 20
911.4932905671363
 30
0.0
  0
SPLINE
  5
269
330
1F
100
AcDbEntity
  8
0
  6
Continuous
 62
     7
370
    35
100
AcDbSpline
210
0.0
220
0.0
230
1.0
 70
     8
 71
     3
 72
    17
 73
    13
 74
     0
 42
0.000000001
 43
0.00000001
 40
0.0
 40
0.0
 40
0.0
 40
0.0
 40
0.0352140993686989
 40
0.1768685086522721
 40
0.2823152604671281
 40
0.3877837521866086
 40
0.4930422793344815
 40
0.596541213625783
 40
0.7000040808468471
 40
0.8049238598612651
 40
0.9098460499592909
 40
1.0
 40
1.0
 40
1.0
 40
1.0
 10
1249.363436416331
 20
933.230562962814
 30
0.0
 10
1249.76360638106
 20
933.2231290834723
 30
0.0
 10
1251.773524741542
 20
933.1857912223242
 30
0.0
 10
1254.968605811172
 20
932.6303522222469
 30
0.0
 10
1258.732272449807
 20
931.2118573619813
 30
0.0
 10
1261.851251662932
 20
929.3935436203386
 30
0.0
 10
1264.621155689888
 20
927.113426342333
 30
0.0
 10
1266.952437283183
 20
924.4170881291273
 30
0.0
 10
1268.822242413406
 20
921.3864042616976
 30
0.0
 10
1270.170738198374
 20
918.0769696929166
 30
0.0
 10
1270.966237644298
 20
914.7379683933557
 30
0.0
 10
1271.054975078738
 20
912.5188503966027
 30
0.0
 10
1271.095984862023
 20
911.4932905671359
 30
0.0
  0
SPLINE
  5
26A
330
1F
100
AcDbEntity
  8
0
  6
Continuous
 62
     7
370
    35
100
AcDbSpline
210
0.0
220
0.0
230
1.0
 70
     8
 71
     3
 72
    17
 73
    13
 74
     0
 42
0.000000001
 43
0.00000001
 40
0.0
 40
0.0
 40
0.0
 40
0.0
 40
0.0352127301800316
 40
0.1768616316807771
 40
0.2808325704307476
 40
0.387793499638569
 40
0.4930479341421646
 40
0.5965428442053757
 40
0.700001688600703
 40
0.8034759650084137
 40
0.9098495553099559
 40
1.0
 40
1.0
 40
1.0
 40
1.0
 10
1249.363436416331
 20
889.7560181714584
 30
0.0
 10
1249.763617758413
 20
889.7634221786572
 30
0.0
 10
1251.773593263491
 20
889.8006100021366
 30
0.0
 10
1254.950741186291
 20
890.3565049316378
 30
0.0
 10
1258.72037245301
 20
891.7593599104938
 30
0.0
 10
1261.837044527757
 20
893.5842312175721
 30
0.0
 10
1264.621336032067
 20
895.8726536806746
 30
0.0
 10
1266.952699231651
 20
898.5694973887072
 30
0.0
 10
1268.81237230174
 20
901.586649769906
 30
0.0
 10
1270.170528307851
 20
904.8919711434751
 30
0.0
 10
1270.964448453418
 20
908.2323626760967
 30
0.0
 10
1271.054620643828
 20
910.4678274711331
 30
0.0
 10
1271.095984862023
 20
911.4932905671359
 30
0.0
  0
LINE
  5
26B
330
1F
100
AcDbEntity
  8
0
  6
Continuous
 62
     7
370
    35
100
AcDbLine
 10
1196.3575319454
 20
933.2345630346
 30
0.0
 11
1143.3516274744
 21
933.2305629628
 31
0.0
  0
LINE
  5
26C
330
1F
100
AcDbEntity
  8
0
  6
Continuous
 62
     7
370
    35
100
AcDbLine
 10
1196.3575319454
 20
889.7520180996
 30
0.0
 11
1143.3516274744
 21
889.7560181715
 31
0.0
  0
LINE
  5
26D
330
1F
100
AcDbEntity
  8
0
  6
Continuous
 62
     7
370
    35
100
AcDbLine
 10
1196.3575319454
 20
933.2345630346
 30
0.0
 11
1249.3634364163
 21
933.2305629628
 31
0.0
  0
LINE
  5
26E
330
1F
100
AcDbEntity
  8
0
  6
Continuous
 62
     7
370
    35
100
AcDbLine
 10
1196.3575319454
 20
889.7520180996
 30
0.0
 11
1249.3634364163
 21
889.7560181715
 31
0.0
  0
LINE
  5
26F
330
1F
100
AcDbEntity
  8
0
  6
Continuous
 62
     7
370
    35
100
AcDbLine
 10
1239.4344679581
 20
917.4932905671
 30
0.0
 11
1153.2805959327
 21
917.4932905671
 31
0.0
  0
LINE
  5
270
330
1F
100
AcDbEntity
  8
0
  6
Continuous
 62
     7
370
    35
100
AcDbLine
 10
1239.4344679581
 20
905.4932905671
 30
0.0
 11
1153.2805959327
 21
905.4932905671
 31
0.0
  0
LINE
  5
271
330
1F
100
AcDbEntity
  8
0
  6
Continuous
 62
     7
370
    35
100
AcDbLine
 10
1143.3575319454
 20
933.2432905671
 30
0.0
 11
1249.3575319454
 21
933.2432905671
 31
0.0
  0
ARC
  5
272
330
1F
100
AcDbEntity
  8
0
  6
Continuous
 62
     7
370
    35
100
AcDbCircle
 10
1143.3575319454
 20
911.4932905671
 30
0.0
 40
21.75000000000011
100
AcDbArc
 50
90.0
 51
270.0
  0
LINE
  5
273
330
1F
100
AcDbEntity
  8
0
  6
Continuous
 62
     7
370
    35
100
AcDbLine
 10
1143.3575319454
 20
889.7432905671
 30
0.0
 11
1249.3575319454
 21
889.7432905671
 31
0.0
  0
ARC
  5
274
330
1F
100
AcDbEntity
  8
0
  6
Continuous
 62
     7
370
    35
100
AcDbCircle
 10
1249.3575319454
 20
911.4932905671
 30
0.0
 40
21.75000000000011
100
AcDbArc
 50
270.0
 51
90.0
  0
LINE
  5
275
330
1F
100
AcDbEntity
  8
0
  6
Continuous
 62
     7
370
    35
100
AcDbLine
 10
1536.3575319454
 20
976.9932905671
 30
0.0
 11
1558.8575319454
 21
976.9932905671
 31
0.0
  0
ARC
  5
276
330
1F
100
AcDbEntity
  8
0
  6
Continuous
 62
     7
370
    35
100
AcDbCircle
 10
1558.8575319454
 20
966.9932905671
 30
0.0
 40
10.0
100
AcDbArc
 50
0.0
 51
90.0
  0
LINE
  5
277
330
1F
100
AcDbEntity
  8
0
  6
Continuous
 62
     7
370
    35
100
AcDbLine
 10
1568.8575319454
 20
966.9932905671
 30
0.0
 11
1568.8575319454
 21
855.9932905671
 31
0.0
  0
ARC
  5
278
330
1F
100
AcDbEntity
  8
0
  6
Continuous
 62
     7
370
    35
100
AcDbCircle
 10
1558.8575319454
 20
855.9932905671
 30
0.0
 40
10.0
100
AcDbArc
 50
270.0
 51
0.0
  0
LINE
  5
279
330
1F
100
AcDbEntity
  8
0
  6
Continuous
 62
     7
370
    35
100
AcDbLine
 10
1558.8575319454
 20
845.9932905671
 30
0.0
 11
1536.3575319454
 21
845.9932905671
 31
0.0
  0
LINE
  5
27A
330
1F
100
AcDbEntity
  8
0
  6
Continuous
 62
     7
370
    35
100
AcDbLine
 10
856.3575319454
 20
845.9932905671
 30
0.0
 11
833.8575319454
 21
845.9932905671
 31
0.0
  0
ARC
  5
27B
330
1F
100
AcDbEntity
  8
0
  6
Continuous
 62
     7
370
    35
100
AcDbCircle
 10
833.8575319454
 20
855.9932905671
 30
0.0
 40
10.00000000000011
100
AcDbArc
 50
180.0
 51
270.0
  0
LINE
  5
27C
330
1F
100
AcDbEntity
  8
0
  6
Continuous
 62
     7
370
    35
100
AcDbLine
 10
823.8575319454
 20
855.9932905671
 30
0.0
 11
823.8575319454
 21
966.9932905671
 31
0.0
  0
LINE
  5
27D
330
1F
100
AcDbEntity
  8
0
  6
Continuous
 62
     7
370
    35
100
AcDbLine
 10
833.8575319454
 20
976.9932905671
 30
0.0
 11
856.3575319454
 21
976.9932905671
 31
0.0
  0
ARC
  5
27E
330
1F
100
AcDbEntity
  8
0
  6
Continuous
 62
     7
370
    35
100
AcDbCircle
 10
833.8575319454
 20
966.9932905671
 30
0.0
 40
10.0
100
AcDbArc
 50
90.0
 51
180.0
  0
LINE
  5
27F
330
1F
100
AcDbEntity
  8
0
  6
Continuous
 62
     7
370
    35
100
AcDbLine
 10
856.3575319454
 20
876.4932905671
 30
0.0
 11
854.3575319454
 21
876.4932905671
 31
0.0
  0
LINE
  5
280
330
1F
100
AcDbEntity
  8
0
  6
Continuous
 62
     7
370
    35
100
AcDbLine
 10
854.3575319454
 20
876.4932905671
 30
0.0
 11
854.3575319454
 21
946.4932905671
 31
0.0
  0
LINE
  5
281
330
1F
100
AcDbEntity
  8
0
  6
Continuous
 62
     7
370
    35
100
AcDbLine
 10
854.3575319454
 20
946.4932905671
 30
0.0
 11
856.3575319454
 21
946.4932905671
 31
0.0
  0
LINE
  5
282
330
1F
100
AcDbEntity
  8
0
  6
Continuous
 62
     7
370
    35
100
AcDbLine
 10
856.3575319454
 20
946.4932905671
 30
0.0
 11
856.3575319454
 21
946.4075041295
 31
0.0
  0
LINE
  5
283
330
1F
100
AcDbEntity
  8
0
  6
Continuous
 62
     7
370
    35
100
AcDbLine
 10
856.3575319454
 20
943.5790770048
 30
0.0
 11
856.3575319454
 21
879.4075041295
 31
0.0
  0
LINE
  5
284
330
1F
100
AcDbEntity
  8
0
  6
Continuous
 62
     7
370
    35
100
AcDbLine
 10
856.3575319454
 20
876.5790770048
 30
0.0
 11
856.3575319454
 21
876.4932905671
 31
0.0
  0
LINE
  5
285
330
1F
100
AcDbEntity
  8
0
  6
Continuous
 62
     7
370
    35
100
AcDbLine
 10
1536.3575319454
 20
946.4932905671
 30
0.0
 11
1538.3575319454
 21
946.4932905671
 31
0.0
  0
LINE
  5
286
330
1F
100
AcDbEntity
  8
0
  6
Continuous
 62
     7
370
    35
100
AcDbLine
 10
1538.3575319454
 20
946.4932905671
 30
0.0
 11
1538.3575319454
 21
876.4932905671
 31
0.0
  0
LINE
  5
287
330
1F
100
AcDbEntity
  8
0
  6
Continuous
 62
     7
370
    35
100
AcDbLine
 10
1538.3575319454
 20
876.4932905671
 30
0.0
 11
1536.3575319454
 21
876.4932905671
 31
0.0
  0
LINE
  5
288
330
1F
100
AcDbEntity
  8
0
  6
Continuous
 62
     7
370
    35
100
AcDbLine
 10
1536.3575319454
 20
876.4932905671
 30
0.0
 11
1536.3575319454
 21
876.5790770048
 31
0.0
  0
LINE
  5
289
330
1F
100
AcDbEntity
  8
0
  6
Continuous
 62
     7
370
    35
100
AcDbLine
 10
1536.3575319454
 20
879.4075041295
 30
0.0
 11
1536.3575319454
 21
943.5790770048
 31
0.0
  0
LINE
  5
28A
330
1F
100
AcDbEntity
  8
0
  6
Continuous
 62
     7
370
    35
100
AcDbLine
 10
1536.3575319454
 20
946.4075041295
 30
0.0
 11
1536.3575319454
 21
946.4932905671
 31
0.0
  0
LINE
  5
28B
330
1F
100
AcDbEntity
  8
0
  6
Continuous
 62
     8
370
    18
100
AcDbLine
 10
1536.3575319454
 20
947.4932905671
 30
0.0
 11
856.3575319454
 21
947.4932905671
 31
0.0
  0
LINE
  5
28C
330
1F
100
AcDbEntity
  8
0
  6
Continuous
 62
     8
370
    18
100
AcDbLine
 10
856.3575319454
 20
875.4932905671
 30
0.0
 11
1536.3575319454
 21
875.4932905671
 31
0.0
  0
LINE
  5
28D
330
1F
100
AcDbEntity
  8
0
  6
Continuous
 62
     8
370
    18
100
AcDbLine
 10
856.3575319454
 20
942.5499833547
 30
0.0
 11
1536.3575319454
 21
942.5499833547
 31
0.0
  0
LINE
  5
28E
330
1F
100
AcDbEntity
  8
0
  6
Continuous
 62
     8
370
    18
100
AcDbLine
 10
856.3575319454
 20
880.4365977796
 30
0.0
 11
1536.3575319454
 21
880.4365977796
 31
0.0
  0
LINE
  5
28F
330
1F
100
AcDbEntity
  8
0
  6
Continuous
 62
     8
370
    18
100
AcDbLine
 10
856.3575319454
 20
911.5499833547
 30
0.0
 11
1113.3578652846
 21
911.5499833547
 31
0.0
  0
LINE
  5
290
330
1F
100
AcDbEntity
  8
0
  6
Continuous
 62
     8
370
    18
100
AcDbLine
 10
1279.3571986061
 20
911.5499833547
 30
0.0
 11
1536.3575319454
 21
911.5499833547
 31
0.0
  0
LINE
  5
291
330
1F
100
AcDbEntity
  8
0
  6
Continuous
 62
     8
370
    18
100
AcDbLine
 10
1279.3561927187
 20
911.6068777289
 30
0.0
 11
1279.3561927187
 21
911.6066761423
 31
0.0
  0
LINE
  5
292
330
1F
100
AcDbEntity
  8
0
  6
Continuous
 62
     8
370
    18
100
AcDbLine
 10
1279.3561927187
 20
911.3797034054
 30
0.0
 11
1279.3561927187
 21
911.379904992
 31
0.0
  0
ARC
  5
293
330
1F
100
AcDbEntity
  8
0
  6
Continuous
 62
     8
370
    18
100
AcDbCircle
 10
1203.1078213448
 20
870.861862813
 30
0.0
 40
54.26577168278077
100
AcDbArc
 50
12.3156445559
 51
15.3088218734
  0
ARC
  5
294
330
1F
100
AcDbEntity
  8
0
  6
Continuous
 62
     8
370
    18
100
AcDbCircle
 10
1278.4831840164
 20
898.0397034866
 30
0.0
 40
13.36873667924787
100
AcDbArc
 50
86.2557918319
 51
99.1541892989
  0
LINE
  5
295
330
1F
100
AcDbEntity
  8
0
  6
Continuous
 62
     8
370
    18
100
AcDbLine
 10
1113.358871172
 20
911.3797034054
 30
0.0
 11
1113.358871172
 21
911.379904992
 31
0.0
  0
ARC
  5
296
330
1F
100
AcDbEntity
  8
0
  6
Continuous
 62
     8
370
    18
100
AcDbCircle
 10
1114.2318798744
 20
898.0397034866
 30
0.0
 40
13.36873667924874
100
AcDbArc
 50
80.8458107011
 51
93.7442081681
  0
ARC
  5
297
330
1F
100
AcDbEntity
  8
0
  6
Continuous
 62
     8
370
    18
100
AcDbCircle
 10
1189.6072425456
 20
870.8618628131
 30
0.0
 40
54.26577168239947
100
AcDbArc
 50
164.6911781266
 51
167.6843554441
  0
ARC
  5
298
330
1F
100
AcDbEntity
  8
0
  6
Continuous
 62
     8
370
    18
100
AcDbCircle
 10
1278.4831840164
 20
924.9468776477
 30
0.0
 40
13.3687366792376
100
AcDbArc
 50
260.8458107011
 51
273.7442081681
  0
ARC
  5
299
330
1F
100
AcDbEntity
  8
0
  6
Continuous
 62
     8
370
    18
100
AcDbCircle
 10
1203.1078213453
 20
952.1247183211
 30
0.0
 40
54.26577168230245
100
AcDbArc
 50
344.6911781266
 51
347.6843554441
  0
LINE
  5
29A
330
1F
100
AcDbEntity
  8
0
  6
Continuous
 62
     8
370
    18
100
AcDbLine
 10
1113.358871172
 20
911.6068777289
 30
0.0
 11
1113.358871172
 21
911.6066761423
 31
0.0
  0
ARC
  5
29B
330
1F
100
AcDbEntity
  8
0
  6
Continuous
 62
     8
370
    18
100
AcDbCircle
 10
1189.6072425457
 20
952.1247183212
 30
0.0
 40
54.2657716825686
100
AcDbArc
 50
192.3156445559
 51
195.3088218734
  0
ARC
  5
29C
330
1F
100
AcDbEntity
  8
0
  6
Continuous
 62
     8
370
    18
100
AcDbCircle
 10
1114.2318798744
 20
924.9468776477
 30
0.0
 40
13.36873667923865
100
AcDbArc
 50
266.2557918319
 51
279.1541892989
  0
LINE
  5
29D
330
1F
100
AcDbEntity
  8
0
  6
Continuous
 62
     8
370
    18
100
AcDbLine
 10
856.3575319454
 20
911.4365977796
 30
0.0
 11
1113.3578652846
 21
911.4365977796
 31
0.0
  0
LINE
  5
29E
330
1F
100
AcDbEntity
  8
0
  6
Continuous
 62
     8
370
    18
100
AcDbLine
 10
1279.3571986061
 20
911.4365977796
 30
0.0
 11
1536.3575319454
 21
911.4365977796
 31
0.0
  0
LINE
  5
29F
330
1F
100
AcDbEntity
  8
0
  6
Continuous
 62
     8
370
    18
100
AcDbLine
 10
1143.3575319454
 20
884.4932905671
 30
0.0
 11
1143.3575319454
 21
882.2432905671
 31
0.0
  0
LINE
  5
2A0
330
1F
100
AcDbEntity
  8
0
  6
Continuous
 62
     8
370
    18
100
AcDbLine
 10
1249.3575319454
 20
884.4932905671
 30
0.0
 11
1249.3575319454
 21
882.2432905671
 31
0.0
  0
LINE
  5
2A1
330
1F
100
AcDbEntity
  8
0
  6
Continuous
 62
     8
370
    18
100
AcDbLine
 10
1143.3575319454
 20
940.7432905671
 30
0.0
 11
1143.3575319454
 21
938.4932905671
 31
0.0
  0
LINE
  5
2A2
330
1F
100
AcDbEntity
  8
0
  6
Continuous
 62
     8
370
    18
100
AcDbLine
 10
1143.3575319454
 20
940.7490747657
 30
0.0
 11
1143.3575319454
 21
940.7432905671
 31
0.0
  0
LINE
  5
2A3
330
1F
100
AcDbEntity
  8
0
  6
Continuous
 62
     8
370
    18
100
AcDbLine
 10
1249.3575319454
 20
940.7432905671
 30
0.0
 11
1249.3575319454
 21
938.4932905671
 31
0.0
  0
LINE
  5
2A4
330
1F
100
AcDbEntity
  8
0
  6
Continuous
 62
     8
370
    18
100
AcDbLine
 10
1249.3575319454
 20
940.7490747657
 30
0.0
 11
1249.3575319454
 21
940.7432905671
 31
0.0
  0
LINE
  5
2A5
330
1F
100
AcDbEntity
  8
0
  6
Continuous
 62
     8
370
    18
100
AcDbLine
 10
1143.3575319454
 20
882.2375063685
 30
0.0
 11
1143.3575319454
 21
882.2432905671
 31
0.0
  0
LINE
  5
2A6
330
1F
100
AcDbEntity
  8
0
  6
Continuous
 62
     8
370
    18
100
AcDbLine
 10
1249.3575319454
 20
882.2375063685
 30
0.0
 11
1249.3575319454
 21
882.2432905671
 31
0.0
  0
SPLINE
  5
2A7
330
1F
100
AcDbEntity
  8
0
  6
Continuous
 62
     8
370
    18
100
AcDbSpline
210
0.0
220
0.0
230
1.0
 70
     8
 71
     3
 72
    17
 73
    13
 74
     0
 42
0.000000001
 43
0.00000001
 40
0.0
 40
0.0
 40
0.0
 40
0.0
 40
0.0000017599180569
 40
0.1227053397328906
 40
0.2502071717394698
 40
0.3526128094214065
 40
0.4578053944919487
 40
0.4930427252802609
 40
0.634853690367553
 40
0.7415522131116615
 40
0.8461670224033139
 40
0.9999999999999999
 40
0.9999999999999999
 40
0.9999999999999999
 40
0.9999999999999999
 10
1143.351627113467
 20
889.751578247019
 30
0.0
 10
1143.351607113467
 20
889.7515782486645
 30
0.0
 10
1141.95716334695
 20
889.7516929700719
 30
0.0
 10
1139.108369037236
 20
890.0379513546803
 30
0.0
 10
1135.241733070865
 20
891.1883655111607
 30
0.0
 10
1131.844445757997
 20
892.9441571222568
 30
0.0
 10
1129.613056181835
 20
894.5908023742555
 30
0.0
 10
1127.252567978595
 20
896.7627706689074
 30
0.0
 10
1125.197781373233
 20
899.292416672493
 30
0.0
 10
1123.307047037503
 20
902.8441504583687
 30
0.0
 10
1121.933396193234
 20
906.7948787249023
 30
0.0
 10
1121.733576020234
 20
909.7401874734977
 30
0.0
 10
1121.61463929972
 20
911.4932905671363
 30
0.0
  0
LINE
  5
2A8
330
1F
100
AcDbEntity
  8
0
  6
Continuous
 62
     8
370
    18
100
AcDbLine
 10
1121.6190790287
 20
911.4932905671
 30
0.0
 11
1121.6146392997
 21
911.4932905671
 31
0.0
  0
LINE
  5
2A9
330
1F
100
AcDbEntity
  8
0
  6
Continuous
 62
     8
370
    18
100
AcDbLine
 10
1143.3516274744
 20
889.7560181715
 30
0.0
 11
1143.3516271135
 21
889.751578247
 31
0.0
  0
LWPOLYLINE
  5
2AA
330
1F
100
AcDbEntity
  8
0
  6
Continuous
 62
     8
370
    18
100
AcDbPolyline
 90
        3
 70
   128
 43
0.0
 10
1143.3516271135
 20
889.751578247
 10
1143.3516264143
 20
889.7460392434
 10
1143.3516261399
 20
889.7432913689
  0
SPLINE
  5
2AB
330
1F
100
AcDbEntity
  8
0
  6
Continuous
 62
     8
370
    18
100
AcDbSpline
210
0.0
220
0.0
230
1.0
 70
     8
 71
     3
 72
    17
 73
    13
 74
     0
 42
0.000000001
 43
0.00000001
 40
0.0
 40
0.0
 40
0.0
 40
0.0
 40
0.0000017599180569
 40
0.1227053397328894
 40
0.2502071717394684
 40
0.3526128094214134
 40
0.4578053944919557
 40
0.4930427252802621
 40
0.6348536903675543
 40
0.741552213111663
 40
0.8461670224033153
 40
1.0
 40
1.0
 40
1.0
 40
1.0
 10
1143.351627113467
 20
933.2350028872532
 30
0.0
 10
1143.351607113467
 20
933.2350028856079
 30
0.0
 10
1141.957163347112
 20
933.2348881641196
 30
0.0
 10
1139.108369037158
 20
932.9486297796321
 30
0.0
 10
1135.241733070882
 20
931.798215623104
 30
0.0
 10
1131.844445757993
 20
930.0424240120177
 30
0.0
 10
1129.613056181835
 20
928.3957787600166
 30
0.0
 10
1127.252567978595
 20
926.2238104653654
 30
0.0
 10
1125.197781373233
 20
923.6941644617796
 30
0.0
 10
1123.307047037503
 20
920.142430675904
 30
0.0
 10
1121.933396193234
 20
916.1917024093704
 30
0.0
 10
1121.733576020234
 20
913.2463936607749
 30
0.0
 10
1121.61463929972
 20
911.4932905671363
 30
0.0
  0
LINE
  5
2AC
330
1F
100
AcDbEntity
  8
0
  6
Continuous
 62
     8
370
    18
100
AcDbLine
 10
1143.3516274744
 20
933.2305629628
 30
0.0
 11
1143.3516271135
 21
933.2350028873
 31
0.0
  0
LWPOLYLINE
  5
2AD
330
1F
100
AcDbEntity
  8
0
  6
Continuous
 62
     8
370
    18
100
AcDbPolyline
 90
        3
 70
   128
 43
0.0
 10
1143.3516271135
 20
933.2350028873
 10
1143.3516264143
 20
933.2405418909
 10
1143.3516261399
 20
933.2432897653
  0
SPLINE
  5
2AE
330
1F
100
AcDbEntity
  8
0
  6
Continuous
 62
     8
370
    18
100
AcDbSpline
210
0.0
220
0.0
230
1.0
 70
     8
 71
     3
 72
    17
 73
    13
 74
     0
 42
0.000000001
 43
0.00000001
 40
0.0
 40
0.0
 40
0.0
 40
0.0
 40
0.0000017599180569
 40
0.1227053397328915
 40
0.2502071717394705
 40
0.3526128094214117
 40
0.4578053944919542
 40
0.4930427252802634
 40
0.634853690367556
 40
0.7415522131116649
 40
0.8461670224033133
 40
1.0
 40
1.0
 40
1.0
 40
1.0
 10
1249.363436777265
 20
933.2350028872532
 30
0.0
 10
1249.363456777264
 20
933.2350028856079
 30
0.0
 10
1250.757900543781
 20
933.2348881642006
 30
0.0
 10
1253.606694853495
 20
932.9486297795919
 30
0.0
 10
1257.473330819867
 20
931.7982156231118
 30
0.0
 10
1260.870618132735
 20
930.0424240120152
 30
0.0
 10
1263.102007708897
 20
928.3957787600166
 30
0.0
 10
1265.462495912136
 20
926.2238104653649
 30
0.0
 10
1267.517282517498
 20
923.6941644617791
 30
0.0
 10
1269.408016853228
 20
920.1424306759036
 30
0.0
 10
1270.781667697497
 20
916.1917024093699
 30
0.0
 10
1270.981487870497
 20
913.2463936607746
 30
0.0
 10
1271.100424591011
 20
911.4932905671359
 30
0.0
  0
LWPOLYLINE
  5
2AF
330
1F
100
AcDbEntity
  8
0
  6
Continuous
 62
     8
370
    18
100
AcDbPolyline
 90
        3
 70
   128
 43
0.0
 10
1249.3634367773
 20
933.2350028873
 10
1249.3634374764
 20
933.2405418909
 10
1249.3634377509
 20
933.2432897653
  0
LINE
  5
2B0
330
1F
100
AcDbEntity
  8
0
  6
Continuous
 62
     8
370
    18
100
AcDbLine
 10
1271.095984862
 20
911.4932905671
 30
0.0
 11
1271.100424591
 21
911.4932905671
 31
0.0
  0
LINE
  5
2B1
330
1F
100
AcDbEntity
  8
0
  6
Continuous
 62
     8
370
    18
100
AcDbLine
 10
1249.3634364163
 20
933.2305629628
 30
0.0
 11
1249.3634367773
 21
933.2350028873
 31
0.0
  0
SPLINE
  5
2B2
330
1F
100
AcDbEntity
  8
0
  6
Continuous
 62
     8
370
    18
100
AcDbSpline
210
0.0
220
0.0
230
1.0
 70
     8
 71
     3
 72
    17
 73
    13
 74
     0
 42
0.000000001
 43
0.00000001
 40
0.0
 40
0.0
 40
0.0
 40
0.0
 40
0.0000017599180569
 40
0.1227053397328892
 40
0.2502071717394677
 40
0.3526128094214083
 40
0.4578053944919503
 40
0.4930427252802594
 40
0.6348536903675513
 40
0.7415522131116596
 40
0.8461670224033159
 40
1.0
 40
1.0
 40
1.0
 40
1.0
 10
1249.363436777265
 20
889.751578247019
 30
0.0
 10
1249.363456777264
 20
889.7515782486645
 30
0.0
 10
1250.757900543619
 20
889.7516929701527
 30
0.0
 10
1253.606694853574
 20
890.0379513546401
 30
0.0
 10
1257.47333081985
 20
891.1883655111684
 30
0.0
 10
1260.870618132739
 20
892.9441571222543
 30
0.0
 10
1263.102007708897
 20
894.5908023742555
 30
0.0
 10
1265.462495912136
 20
896.7627706689069
 30
0.0
 10
1267.517282517498
 20
899.2924166724927
 30
0.0
 10
1269.408016853228
 20
902.8441504583683
 30
0.0
 10
1270.781667697497
 20
906.794878724902
 30
0.0
 10
1270.981487870497
 20
909.7401874734974
 30
0.0
 10
1271.100424591011
 20
911.4932905671359
 30
0.0
  0
LINE
  5
2B3
330
1F
100
AcDbEntity
  8
0
  6
Continuous
 62
     8
370
    18
100
AcDbLine
 10
1249.3634364163
 20
889.7560181715
 30
0.0
 11
1249.3634367773
 21
889.751578247
 31
0.0
  0
LWPOLYLINE
  5
2B4
330
1F
100
AcDbEntity
  8
0
  6
Continuous
 62
     8
370
    18
100
AcDbPolyline
 90
        3
 70
   128
 43
0.0
 10
1249.3634367773
 20
889.751578247
 10
1249.3634374764
 20
889.7460392434
 10
1249.3634377509
 20
889.7432913689
  0
SPLINE
  5
2B5
330
1F
100
AcDbEntity
  8
0
  6
Continuous
 62
     8
370
    18
100
AcDbSpline
210
0.0
220
0.0
230
1.0
 70
     8
 71
     3
 72
     9
 73
     5
 74
     0
 42
0.000000001
 43
0.00000001
 40
0.0
 40
0.0
 40
0.0
 40
0.0
 40
0.1546895589893172
 40
1.0
 40
1.0
 40
1.0
 40
1.0
 10
1143.47426312803
 20
930.2248640211207
 30
0.0
 10
1143.717315584599
 20
930.1521894861211
 30
0.0
 10
1145.288542874649
 20
929.6823805638221
 30
0.0
 10
1146.71266078347
 20
928.8661025347784
 30
0.0
 10
1147.916482521026
 20
928.17609419406
 30
0.0
  0
ARC
  5
2B6
330
1F
100
AcDbEntity
  8
0
  6
Continuous
 62
     8
370
    18
100
AcDbCircle
 10
1149.3728991979
 20
926.7297642089
 30
0.0
 40
2.052564240823137
100
AcDbArc
 50
135.1990950654
 51
168.3527908008
  0
ARC
  5
2B7
330
1F
100
AcDbEntity
  8
0
  6
Continuous
 62
     8
370
    18
100
AcDbCircle
 10
1149.3728991979
 20
896.2568169254
 30
0.0
 40
2.052564240821978
100
AcDbArc
 50
191.6472091992
 51
224.8009049346
  0
SPLINE
  5
2B8
330
1F
100
AcDbEntity
  8
0
  6
Continuous
 62
     8
370
    18
100
AcDbSpline
210
0.0
220
0.0
230
1.0
 70
     8
 71
     3
 72
    11
 73
     7
 74
     0
 42
0.000000001
 43
0.00000001
 40
0.0
 40
0.0
 40
0.0
 40
0.0
 40
0.0771531718714959
 40
0.1543573881090452
 40
0.5727608612303009
 40
1.0
 40
1.0
 40
1.0
 40
1.0
 10
1143.47426312803
 20
892.7617171131516
 30
0.0
 10
1143.595817004062
 20
892.7973736445764
 30
0.0
 10
1143.8390051759
 20
892.8687102977075
 30
0.0
 10
1144.732533595838
 20
893.1607179936494
 30
0.0
 10
1146.145381386998
 20
893.7282900784013
 30
0.0
 10
1147.322017463464
 20
894.4472506419628
 30
0.0
 10
1147.916482521026
 20
894.8104869402124
 30
0.0
  0
SPLINE
  5
2B9
330
1F
100
AcDbEntity
  8
0
  6
Continuous
 62
     8
370
    18
100
AcDbSpline
210
0.0
220
0.0
230
1.0
 70
     8
 71
     3
 72
    11
 73
     7
 74
     0
 42
0.000000001
 43
0.00000001
 40
0.0
 40
0.0
 40
0.0
 40
0.0
 40
0.0771531718714945
 40
0.1543573881090453
 40
0.5727608612302946
 40
1.0
 40
1.0
 40
1.0
 40
1.0
 10
1249.240800762702
 20
892.7617171131516
 30
0.0
 10
1249.119246886669
 20
892.7973736445763
 30
0.0
 10
1248.876058714831
 20
892.8687102977071
 30
0.0
 10
1247.982530294893
 20
893.1607179936498
 30
0.0
 10
1246.569682503733
 20
893.7282900784011
 30
0.0
 10
1245.393046427267
 20
894.4472506419626
 30
0.0
 10
1244.798581369705
 20
894.8104869402124
 30
0.0
  0
ARC
  5
2BA
330
1F
100
AcDbEntity
  8
0
  6
Continuous
 62
     8
370
    18
100
AcDbCircle
 10
1243.3421646928
 20
896.2568169254
 30
0.0
 40
2.052564240819007
100
AcDbArc
 50
315.1990950654
 51
348.3527908008
  0
ARC
  5
2BB
330
1F
100
AcDbEntity
  8
0
  6
Continuous
 62
     8
370
    18
100
AcDbCircle
 10
1243.3421646928
 20
926.7297642089
 30
0.0
 40
2.052564240820189
100
AcDbArc
 50
11.6472091992
 51
44.8009049346
  0
SPLINE
  5
2BC
330
1F
100
AcDbEntity
  8
0
  6
Continuous
 62
     8
370
    18
100
AcDbSpline
210
0.0
220
0.0
230
1.0
 70
     8
 71
     3
 72
     9
 73
     5
 74
     0
 42
0.000000001
 43
0.00000001
 40
0.0
 40
0.0
 40
0.0
 40
0.0
 40
0.1546895589893174
 40
1.0
 40
1.0
 40
1.0
 40
1.0
 10
1249.240800762702
 20
930.2248640211207
 30
0.0
 10
1248.997748306132
 20
930.1521894861211
 30
0.0
 10
1247.426521016083
 20
929.6823805638221
 30
0.0
 10
1246.002403107262
 20
928.8661025347784
 30
0.0
 10
1244.798581369705
 20
928.17609419406
 30
0.0
  0
SPLINE
  5
2BD
330
1F
100
AcDbEntity
  8
0
  6
Continuous
 62
     8
370
    18
100
AcDbSpline
210
0.0
220
0.0
230
1.0
 70
     8
 71
     3
 72
    14
 73
    10
 74
     0
 42
0.000000001
 43
0.00000001
 40
0.0
 40
0.0
 40
0.0
 40
0.0
 40
0.1114289230463655
 40
0.4958785649708847
 40
0.7046555305635176
 40
0.8301760374267323
 40
0.9121018798664122
 40
0.9942797082137659
 40
1.0
 40
1.0
 40
1.0
 40
1.0
 10
1147.916482521026
 20
894.8104869402124
 30
0.0
 10
1148.035873566668
 20
894.8928193054654
 30
0.0
 10
1148.567184996096
 20
895.2592130030459
 30
0.0
 10
1149.241476519456
 20
895.8919841537701
 30
0.0
 10
1149.699340307218
 20
896.6829686684705
 30
0.0
 10
1149.783798057551
 20
897.1931634023331
 30
0.0
 10
1149.701333764699
 20
897.5374920079973
 30
0.0
 10
1149.581626821077
 20
897.7151917287301
 30
0.0
 10
1149.500915547871
 20
897.790574298153
 30
0.0
 10
1149.495662966445
 20
897.7954800946825
 30
0.0
  0
SPLINE
  5
2BE
330
1F
100
AcDbEntity
  8
0
  6
Continuous
 62
     8
370
    18
100
AcDbSpline
210
0.0
220
0.0
230
1.0
 70
     8
 71
     3
 72
    14
 73
    10
 74
     0
 42
0.000000001
 43
0.00000001
 40
0.0
 40
0.0
 40
0.0
 40
0.0
 40
0.11142892304637
 40
0.4958785649708517
 40
0.7046555305635057
 40
0.8301760374267106
 40
0.9121018798664106
 40
0.9942797082137677
 40
1.0
 40
1.0
 40
1.0
 40
1.0
 10
1147.916482521026
 20
928.17609419406
 30
0.0
 10
1148.035873566668
 20
928.0937618288069
 30
0.0
 10
1148.567184996096
 20
927.7273681312265
 30
0.0
 10
1149.241476519456
 20
927.0945969805025
 30
0.0
 10
1149.699340307218
 20
926.3036124658024
 30
0.0
 10
1149.783798057551
 20
925.7934177319395
 30
0.0
 10
1149.701333764699
 20
925.4490891262753
 30
0.0
 10
1149.581626821077
 20
925.2713894055425
 30
0.0
 10
1149.500915547871
 20
925.1960068361196
 30
0.0
 10
1149.495662966445
 20
925.1911010395902
 30
0.0
  0
ARC
  5
2BF
330
1F
100
AcDbEntity
  8
0
  6
Continuous
 62
     8
370
    18
100
AcDbCircle
 10
1150.3575319454
 20
911.4932905671
 30
0.0
 40
20.0
100
AcDbArc
 50
90.0
 51
167.5224163015
  0
LINE
  5
2C0
330
1F
100
AcDbEntity
  8
0
  6
Continuous
 62
     8
370
    18
100
AcDbLine
 10
1150.3575319454
 20
924.205941354
 30
0.0
 11
1150.3575319454
 21
931.4932905671
 31
0.0
  0
LINE
  5
2C1
330
1F
100
AcDbEntity
  8
0
  6
Continuous
 62
     8
370
    18
100
AcDbLine
 10
1150.3575319454
 20
898.7806397802
 30
0.0
 11
1150.3575319454
 21
891.4932905671
 31
0.0
  0
ARC
  5
2C2
330
1F
100
AcDbEntity
  8
0
  6
Continuous
 62
     8
370
    18
100
AcDbCircle
 10
1150.3575319454
 20
911.4932905671
 30
0.0
 40
20.0
100
AcDbArc
 50
192.4775836985
 51
270.0
  0
ARC
  5
2C3
330
1F
100
AcDbEntity
  8
0
  6
Continuous
 62
     8
370
    18
100
AcDbCircle
 10
1242.3575319454
 20
911.4932905671
 30
0.0
 40
19.99999999999989
100
AcDbArc
 50
270.0
 51
347.5224163015
  0
LINE
  5
2C4
330
1F
100
AcDbEntity
  8
0
  6
Continuous
 62
     8
370
    18
100
AcDbLine
 10
1242.3575319454
 20
898.7806397802
 30
0.0
 11
1242.3575319454
 21
891.4932905671
 31
0.0
  0
LINE
  5
2C5
330
1F
100
AcDbEntity
  8
0
  6
Continuous
 62
     8
370
    18
100
AcDbLine
 10
1242.3575319454
 20
924.205941354
 30
0.0
 11
1242.3575319454
 21
931.4932905671
 31
0.0
  0
ARC
  5
2C6
330
1F
100
AcDbEntity
  8
0
  6
Continuous
 62
     8
370
    18
100
AcDbCircle
 10
1242.3575319454
 20
911.4932905671
 30
0.0
 40
20.0
100
AcDbArc
 50
12.4775836985
 51
90.0
  0
SPLINE
  5
2C7
330
1F
100
AcDbEntity
  8
0
  6
Continuous
 62
     8
370
    18
100
AcDbSpline
210
0.0
220
0.0
230
1.0
 70
     8
 71
     3
 72
    14
 73
    10
 74
     0
 42
0.000000001
 43
0.00000001
 40
0.0
 40
0.0
 40
0.0
 40
0.0
 40
0.1114289230463646
 40
0.4958785649709062
 40
0.7046555305635185
 40
0.8301760374267516
 40
0.9121018798664137
 40
0.9942797082137667
 40
1.0
 40
1.0
 40
1.0
 40
1.0
 10
1244.798581369705
 20
928.17609419406
 30
0.0
 10
1244.679190324063
 20
928.0937618288069
 30
0.0
 10
1244.147878894635
 20
927.7273681312265
 30
0.0
 10
1243.473587371276
 20
927.094596980502
 30
0.0
 10
1243.015723583513
 20
926.303612465802
 30
0.0
 10
1242.93126583318
 20
925.793417731939
 30
0.0
 10
1243.013730126032
 20
925.4490891262751
 30
0.0
 10
1243.133437069654
 20
925.2713894055421
 30
0.0
 10
1243.214148342861
 20
925.1960068361194
 30
0.0
 10
1243.219400924286
 20
925.19110103959
 30
0.0
  0
SPLINE
  5
2C8
330
1F
100
AcDbEntity
  8
0
  6
Continuous
 62
     8
370
    18
100
AcDbSpline
210
0.0
220
0.0
230
1.0
 70
     8
 71
     3
 72
    14
 73
    10
 74
     0
 42
0.000000001
 43
0.00000001
 40
0.0
 40
0.0
 40
0.0
 40
0.0
 40
0.1114289230463705
 40
0.4958785649708323
 40
0.7046555305635062
 40
0.8301760374266922
 40
0.9121018798664097
 40
0.9942797082137671
 40
1.0
 40
1.0
 40
1.0
 40
1.0
 10
1244.798581369705
 20
894.8104869402124
 30
0.0
 10
1244.679190324063
 20
894.8928193054654
 30
0.0
 10
1244.147878894635
 20
895.2592130030458
 30
0.0
 10
1243.473587371275
 20
895.8919841537696
 30
0.0
 10
1243.015723583513
 20
896.68296866847
 30
0.0
 10
1242.93126583318
 20
897.1931634023326
 30
0.0
 10
1243.013730126032
 20
897.5374920079969
 30
0.0
 10
1243.133437069654
 20
897.7151917287299
 30
0.0
 10
1243.214148342861
 20
897.7905742981527
 30
0.0
 10
1243.219400924286
 20
897.7954800946821
 30
0.0
  0
LINE
  5
2C9
330
1F
100
AcDbEntity
  8
0
  6
Continuous
 62
     8
370
    18
100
AcDbLine
 10
1196.3575319454
 20
933.2390029591
 30
0.0
 11
1143.3516456282
 21
933.2350028887
 31
0.0
  0
LINE
  5
2CA
330
1F
100
AcDbEntity
  8
0
  6
Continuous
 62
     8
370
    18
100
AcDbLine
 10
1196.3575319454
 20
933.2390029591
 30
0.0
 11
1196.3575319454
 21
933.2345630346
 31
0.0
  0
LINE
  5
2CB
330
1F
100
AcDbEntity
  8
0
  6
Continuous
 62
     8
370
    18
100
AcDbLine
 10
1196.3575319454
 20
889.7475781752
 30
0.0
 11
1143.3516456282
 21
889.7515782456
 31
0.0
  0
LINE
  5
2CC
330
1F
100
AcDbEntity
  8
0
  6
Continuous
 62
     8
370
    18
100
AcDbLine
 10
1196.3575319454
 20
889.7475781752
 30
0.0
 11
1196.3575319454
 21
889.7520180996
 31
0.0
  0
LINE
  5
2CD
330
1F
100
AcDbEntity
  8
0
  6
Continuous
 62
     8
370
    18
100
AcDbLine
 10
1196.3575319454
 20
933.2390029591
 30
0.0
 11
1249.3634182625
 21
933.2350028887
 31
0.0
  0
LINE
  5
2CE
330
1F
100
AcDbEntity
  8
0
  6
Continuous
 62
     8
370
    18
100
AcDbLine
 10
1196.3575319454
 20
889.7475781752
 30
0.0
 11
1249.3634182625
 21
889.7515782456
 31
0.0
  0
LINE
  5
2CF
330
1F
100
AcDbEntity
  8
0
  6
Continuous
 62
     8
370
    18
100
AcDbLine
 10
1150.3575319454
 20
931.4932905671
 30
0.0
 11
1242.3575319454
 21
931.4932905671
 31
0.0
  0
LINE
  5
2D0
330
1F
100
AcDbEntity
  8
0
  6
Continuous
 62
     8
370
    18
100
AcDbLine
 10
1150.3575319454
 20
891.4932905671
 30
0.0
 11
1242.3575319454
 21
891.4932905671
 31
0.0
  0
LINE
  5
2D1
330
1F
100
AcDbEntity
  8
0
  6
Continuous
 62
     8
370
    18
100
AcDbLine
 10
1143.3516456282
 20
933.2350028887
 30
0.0
 11
1143.3516450028
 21
933.2432897704
 31
0.0
  0
LINE
  5
2D2
330
1F
100
AcDbEntity
  8
0
  6
Continuous
 62
     8
370
    18
100
AcDbLine
 10
1143.3516456282
 20
889.7515782456
 30
0.0
 11
1143.3516450028
 21
889.7432913638
 31
0.0
  0
LINE
  5
2D3
330
1F
100
AcDbEntity
  8
0
  6
Continuous
 62
     8
370
    18
100
AcDbLine
 10
1249.3634182625
 20
933.2350028887
 30
0.0
 11
1249.3634188879
 21
933.2432897704
 31
0.0
  0
LINE
  5
2D4
330
1F
100
AcDbEntity
  8
0
  6
Continuous
 62
     8
370
    18
100
AcDbLine
 10
1249.3634182625
 20
889.7515782456
 30
0.0
 11
1249.3634188879
 21
889.7432913638
 31
0.0
  0
LINE
  5
2D5
330
1F
100
AcDbEntity
  8
0
  6
Continuous
 62
     8
370
    18
100
AcDbLine
 10
1249.3575319454
 20
933.2432905671
 30
0.0
 11
1249.3575319454
 21
937.7432905671
 31
0.0
  0
LINE
  5
2D6
330
1F
100
AcDbEntity
  8
0
  6
Continuous
 62
     8
370
    18
100
AcDbLine
 10
1143.3575319454
 20
933.2432905671
 30
0.0
 11
1143.3575319454
 21
937.7432905671
 31
0.0
  0
LINE
  5
2D7
330
1F
100
AcDbEntity
  8
0
  6
Continuous
 62
     8
370
    18
100
AcDbLine
 10
1143.3575319454
 20
937.7432905671
 30
0.0
 11
1249.3575319454
 21
937.7432905671
 31
0.0
  0
LINE
  5
2D8
330
1F
100
AcDbEntity
  8
0
  6
Continuous
 62
     8
370
    18
100
AcDbLine
 10
1249.3575319454
 20
937.7432905671
 30
0.0
 11
1249.3575319454
 21
938.4932905671
 31
0.0
  0
LINE
  5
2D9
330
1F
100
AcDbEntity
  8
0
  6
Continuous
 62
     8
370
    18
100
AcDbLine
 10
1143.3575319454
 20
937.7432905671
 30
0.0
 11
1143.3575319454
 21
938.4932905671
 31
0.0
  0
LINE
  5
2DA
330
1F
100
AcDbEntity
  8
0
  6
Continuous
 62
     8
370
    18
100
AcDbLine
 10
1143.3575319454
 20
889.7432905671
 30
0.0
 11
1143.3575319454
 21
885.2432905671
 31
0.0
  0
ARC
  5
2DB
330
1F
100
AcDbEntity
  8
0
  6
Continuous
 62
     8
370
    18
100
AcDbCircle
 10
1143.3575319454
 20
911.4932905671
 30
0.0
 40
26.25
100
AcDbArc
 50
90.0
 51
270.0
  0
LINE
  5
2DC
330
1F
100
AcDbEntity
  8
0
  6
Continuous
 62
     8
370
    18
100
AcDbLine
 10
1143.3575319454
 20
885.2432905671
 30
0.0
 11
1143.3575319454
 21
884.4932905671
 31
0.0
  0
LINE
  5
2DD
330
1F
100
AcDbEntity
  8
0
  6
Continuous
 62
     8
370
    18
100
AcDbLine
 10
1249.3575319454
 20
889.7432905671
 30
0.0
 11
1249.3575319454
 21
885.2432905671
 31
0.0
  0
LINE
  5
2DE
330
1F
100
AcDbEntity
  8
0
  6
Continuous
 62
     8
370
    18
100
AcDbLine
 10
1143.3575319454
 20
885.2432905671
 30
0.0
 11
1249.3575319454
 21
885.2432905671
 31
0.0
  0
LINE
  5
2DF
330
1F
100
AcDbEntity
  8
0
  6
Continuous
 62
     8
370
    18
100
AcDbLine
 10
1249.3575319454
 20
885.2432905671
 30
0.0
 11
1249.3575319454
 21
884.4932905671
 31
0.0
  0
ARC
  5
2E0
330
1F
100
AcDbEntity
  8
0
  6
Continuous
 62
     8
370
    18
100
AcDbCircle
 10
1249.3575319454
 20
911.4932905671
 30
0.0
 40
26.25
100
AcDbArc
 50
270.0
 51
90.0
  0
CIRCLE
  5
2E1
330
1F
100
AcDbEntity
  8
0
  6
Continuous
 62
     8
370
    18
100
AcDbCircle
 10
1196.3575319454
 20
911.4932905671
 30
0.0
 40
3.548336454629521
  0
CIRCLE
  5
2E2
330
1F
100
AcDbEntity
  8
0
  6
Continuous
 62
     8
370
    18
100
AcDbCircle
 10
1196.3575319454
 20
911.4932905671
 30
0.0
 40
5.614709433546636
  0
ARC
  5
2E3
330
1F
100
AcDbEntity
  8
0
  6
Continuous
 62
     8
370
    18
100
AcDbCircle
 10
1196.3575319454
 20
911.4932905671
 30
0.0
 40
7.463480267439821
100
AcDbArc
 50
126.49444767
 51
233.50555233
  0
ARC
  5
2E4
330
1F
100
AcDbEntity
  8
0
  6
Continuous
 62
     8
370
    18
100
AcDbCircle
 10
1196.3575319454
 20
911.4932905671
 30
0.0
 40
7.463480267439956
100
AcDbArc
 50
306.4944476701
 51
53.5055523299
  0
ARC
  5
2E5
330
1F
100
AcDbEntity
  8
0
  6
Continuous
 62
     8
370
    18
100
AcDbCircle
 10
1196.3575319454
 20
911.4932905671
 30
0.0
 40
8.284968901366963
100
AcDbArc
 50
133.5974061618
 51
226.4025938382
  0
ARC
  5
2E6
330
1F
100
AcDbEntity
  8
0
  6
Continuous
 62
     8
370
    18
100
AcDbCircle
 10
1196.3575319454
 20
911.4932905671
 30
0.0
 40
8.284968901367119
100
AcDbArc
 50
313.5974061618
 51
46.4025938382
  0
SPLINE
  5
2E7
330
1F
100
AcDbEntity
  8
0
  6
Continuous
 62
     7
370
    35
100
AcDbSpline
210
0.0
220
0.0
230
1.0
 70
     8
 71
     3
 72
    17
 73
    13
 74
     0
 42
0.000000001
 43
0.00000001
 40
0.0
 40
0.0
 40
0.0
 40
0.0
 40
0.0944724089316911
 40
0.2037690526175698
 40
0.2658214290188814
 40
0.2993037426754506
 40
0.3336657805517069
 40
0.4040243448784234
 40
0.4775461189654334
 40
0.6372893935522744
 40
0.8168942664852196
 40
0.9999999999999999
 40
0.9999999999999999
 40
0.9999999999999999
 40
0.9999999999999999
 10
2089.506750956949
 20
1326.031165627475
 30
0.0
 10
2089.244143642455
 20
1326.440084583496
 30
0.0
 10
2088.677721717895
 20
1327.322088432111
 30
0.0
 10
2087.613840754666
 20
1328.07833840322
 30
0.0
 10
2086.769072761474
 20
1328.385089676921
 30
0.0
 10
2086.39867010161
 20
1328.762393702158
 30
0.0
 10
2086.233941017626
 20
1329.241804087029
 30
0.0
 10
2086.296061897502
 20
1329.768800696316
 30
0.0
 10
2086.269647652686
 20
1330.482022158221
 30
0.0
 10
2086.284011086398
 20
1331.099720096358
 30
0.0
 10
2086.278876340155
 20
1331.479836349342
 30
0.0
 10
2086.279595063751
 20
1331.507383087652
 30
0.0
 10
2086.279957894087
 20
1331.521289396523
 30
0.0
  0
SPLINE
  5
2E8
330
1F
100
AcDbEntity
  8
0
  6
Continuous
 62
     7
370
    35
100
AcDbSpline
210
0.0
220
0.0
230
1.0
 70
     8
 71
     3
 72
    17
 73
    13
 74
     0
 42
0.000000001
 43
0.00000001
 40
0.0
 40
0.0
 40
0.0
 40
0.0
 40
0.1890801208210025
 40
0.374545154723097
 40
0.5395005445917187
 40
0.6154211925172619
 40
0.688075421242464
 40
0.7235586262114038
 40
0.758133403254213
 40
0.8222104291448121
 40
0.9350732117384419
 40
1.0
 40
1.0
 40
1.0
 40
1.0
 10
2029.279945235575
 20
1331.521289396506
 30
0.0
 10
2029.280307862375
 20
1331.507383334619
 30
0.0
 10
2029.281026182792
 20
1331.479837085556
 30
0.0
 10
2029.275894306961
 20
1331.09971734939
 30
0.0
 10
2029.290249703089
 20
1330.48202916468
 30
0.0
 10
2029.263850231563
 20
1329.768789775723
 30
0.0
 10
2029.325936357203
 20
1329.241835339919
 30
0.0
 10
2029.161276142156
 20
1328.762341384133
 30
0.0
 10
2028.79061314941
 20
1328.385353266995
 30
0.0
 10
2027.948226787821
 20
1328.075711936905
 30
0.0
 10
2026.996694208703
 20
1327.426477547847
 30
0.0
 10
2026.511677648844
 20
1326.689037939567
 30
0.0
 10
2026.33455495636
 20
1326.41973313686
 30
0.0
  0
ARC
  5
2E9
330
1F
100
AcDbEntity
  8
0
  6
Continuous
 62
     7
370
    35
100
AcDbCircle
 10
2035.2899383964
 20
1302.0706880671
 30
0.0
 40
14.99987568081016
100
AcDbArc
 50
226.8610757221
 51
269.924195537
  0
ARC
  5
2EA
330
1F
100
AcDbEntity
  8
0
  6
Continuous
 62
     7
370
    35
100
AcDbCircle
 10
2080.2699649475
 20
1302.0706869947
 30
0.0
 40
14.99987460814762
100
AcDbArc
 50
270.0758036505
 51
312.1690218565
  0
SPLINE
  5
2EB
330
1F
100
AcDbEntity
  8
0
  6
Continuous
 62
     7
370
    35
100
AcDbSpline
210
0.0
220
0.0
230
1.0
 70
     8
 71
     3
 72
    14
 73
    10
 74
     0
 42
0.000000001
 43
0.00000001
 40
0.0
 40
0.0
 40
0.0
 40
0.0
 40
0.311851849815172
 40
0.5835247383209372
 40
0.747236834766503
 40
0.8165073455940315
 40
0.8691914210063468
 40
0.9293786200010778
 40
1.0
 40
1.0
 40
1.0
 40
1.0
 10
2090.159844200871
 20
1325.447791741829
 30
0.0
 10
2090.049905112358
 20
1325.528239354048
 30
0.0
 10
2089.84419147656
 20
1325.67876971613
 30
0.0
 10
2089.620238910573
 20
1325.913431227078
 30
0.0
 10
2089.482098286828
 20
1326.085291956994
 30
0.0
 10
2089.422576397955
 20
1326.167485589831
 30
0.0
 10
2089.399325633818
 20
1326.200872758959
 30
0.0
 10
2089.387115956519
 20
1326.218922995047
 30
0.0
 10
2089.386845940414
 20
1326.219349181211
 30
0.0
 10
2089.386700163202
 20
1326.219579272045
 30
0.0
  0
SPLINE
  5
2EC
330
1F
100
AcDbEntity
  8
0
  6
Continuous
 62
     7
370
    35
100
AcDbSpline
210
0.0
220
0.0
230
1.0
 70
     8
 71
     3
 72
    12
 73
     8
 74
     0
 42
0.000000001
 43
0.00000001
 40
0.0
 40
0.0
 40
0.0
 40
0.0
 40
0.124910043539819
 40
0.2370776954282766
 40
0.3308192653604862
 40
0.4814606093901633
 40
1.0
 40
1.0
 40
1.0
 40
1.0
 10
2026.172030777102
 20
1326.21782809709
 30
0.0
 10
2026.172152088419
 20
1326.21799394841
 30
0.0
 10
2026.172382335776
 20
1326.218308732134
 30
0.0
 10
2026.153206375167
 20
1326.190026774814
 30
0.0
 10
2026.112149548024
 20
1326.13232110026
 30
0.0
 10
2025.985762914533
 20
1325.963871190404
 30
0.0
 10
2025.847416026477
 20
1325.825095864209
 30
0.0
 10
2025.740212834107
 20
1325.717560680735
 30
0.0
  0
SPLINE
  5
2ED
330
1F
100
AcDbEntity
  8
0
  6
Continuous
 62
     7
370
    35
100
AcDbSpline
210
0.0
220
0.0
230
1.0
 70
     8
 71
     3
 72
    12
 73
     8
 74
     0
 42
0.000000001
 43
0.00000001
 40
0.0
 40
0.0
 40
0.0
 40
0.0
 40
0.0910374225000651
 40
0.2353541285758733
 40
0.3547454600443861
 40
0.5766251016233426
 40
1.0
 40
1.0
 40
1.0
 40
1.0
 10
2090.32586519635
 20
1290.965202626582
 30
0.0
 10
2090.324900015456
 20
1290.964364037475
 30
0.0
 10
2090.322404785452
 20
1290.962196078377
 30
0.0
 10
2090.33681969485
 20
1290.974566408757
 30
0.0
 10
2090.372308064541
 20
1291.003827443044
 30
0.0
 10
2090.450775599538
 20
1291.067367916726
 30
0.0
 10
2090.52510179864
 20
1291.115352357203
 30
0.0
 10
2090.573869912683
 20
1291.146836688351
 30
0.0
  0
SPLINE
  5
2EE
330
1F
100
AcDbEntity
  8
0
  6
Continuous
 62
     7
370
    35
100
AcDbSpline
210
0.0
220
0.0
230
1.0
 70
     8
 71
     3
 72
    13
 73
     9
 74
     0
 42
0.000000001
 43
0.00000001
 40
0.0
 40
0.0
 40
0.0
 40
0.0
 40
0.3192547617512889
 40
0.6030634360995728
 40
0.7318310648700561
 40
0.8311168409520656
 40
0.940000821232376
 40
1.0
 40
1.0
 40
1.0
 40
1.0
 10
2024.98671506282
 20
1291.148354983033
 30
0.0
 10
2025.02337838444
 20
1291.124587216396
 30
0.0
 10
2025.092634387368
 20
1291.079690561019
 30
0.0
 10
2025.170543737658
 20
1291.017674419116
 30
0.0
 10
2025.213722973569
 20
1290.982355064015
 30
0.0
 10
2025.230518715162
 20
1290.968192395054
 30
0.0
 10
2025.237469755948
 20
1290.962228543812
 30
0.0
 10
2025.236490692392
 20
1290.963076403938
 30
0.0
 10
2025.236142860141
 20
1290.9633776235
 30
0.0
  0
SPLINE
  5
2EF
330
1F
100
AcDbEntity
  8
0
  6
Continuous
 62
     7
370
    35
100
AcDbSpline
210
0.0
220
0.0
230
1.0
 70
     8
 71
     3
 72
    10
 73
     6
 74
     0
 42
0.000000001
 43
0.00000001
 40
0.0
 40
0.0
 40
0.0
 40
0.0
 40
0.2926068144143681
 40
0.7936688105150337
 40
1.0
 40
1.0
 40
1.0
 40
1.0
 10
2089.496043551583
 20
1327.09037655721
 30
0.0
 10
2089.394244588259
 20
1327.095671000561
 30
0.0
 10
2089.118124354032
 20
1327.110031686469
 30
0.0
 10
2088.777307547565
 20
1327.207531332774
 30
0.0
 10
2088.558599430441
 20
1327.311374014092
 30
0.0
 10
2088.494807034818
 20
1327.341662663166
 30
0.0
  0
ARC
  5
2F0
330
1F
100
AcDbEntity
  8
0
  6
Continuous
 62
     7
370
    35
100
AcDbCircle
 10
2089.2799515648
 20
1298.0708123948
 30
0.0
 40
11.0
100
AcDbArc
 50
270.0
 51
0.0
  0
LINE
  5
2F1
330
1F
100
AcDbEntity
  8
0
  6
Continuous
 62
     7
370
    35
100
AcDbLine
 10
2079.7930967745
 20
1287.0708123948
 30
0.0
 11
2089.2799515648
 21
1287.0708123948
 31
0.0
  0
SPLINE
  5
2F2
330
1F
100
AcDbEntity
  8
0
  6
Continuous
 62
     7
370
    35
100
AcDbSpline
210
0.0
220
0.0
230
1.0
 70
     8
 71
     3
 72
    13
 73
     9
 74
     0
 42
0.000000001
 43
0.00000001
 40
0.0
 40
0.0
 40
0.0
 40
0.0
 40
0.0125063879497487
 40
0.146217450103649
 40
0.2953845425016514
 40
0.4584621322356179
 40
0.7227547063586576
 40
1.0
 40
1.0
 40
1.0
 40
1.0
 10
2086.279969123832
 20
1330.476621592835
 30
0.0
 10
2086.279968786509
 20
1330.528876212241
 30
0.0
 10
2086.279964842734
 20
1331.13980698109
 30
0.0
 10
2086.279962330284
 20
1331.919279766759
 30
0.0
 10
2086.279957215474
 20
1332.71381541954
 30
0.0
 10
2086.279953613013
 20
1333.255643032639
 30
0.0
 10
2086.279951583782
 20
1333.498428383976
 30
0.0
 10
2086.279951571248
 20
1333.513233023448
 30
0.0
 10
2086.279951564831
 20
1333.520812394831
 30
0.0
  0
LINE
  5
2F3
330
1F
100
AcDbEntity
  8
0
  6
Continuous
 62
     7
370
    35
100
AcDbLine
 10
2092.7799515648
 20
1356.5172508944
 30
0.0
 11
2022.7799515648
 21
1356.5172508944
 31
0.0
  0
ARC
  5
2F4
330
1F
100
AcDbEntity
  8
0
  6
Continuous
 62
     7
370
    35
100
AcDbCircle
 10
2093.7799515648
 20
1345.5172508944
 30
0.0
 40
1.0
100
AcDbArc
 50
180.0
 51
270.0
  0
LWPOLYLINE
  5
2F5
330
1F
100
AcDbEntity
  8
0
  6
Continuous
 62
     7
370
    35
100
AcDbPolyline
 90
        3
 70
   128
 43
0.0
 10
2090.7799515648
 20
1342.2791693837
 10
2090.7442393318
 20
1341.9029067511
 10
2090.6549515648
 20
1341.5831988383
  0
LWPOLYLINE
  5
2F6
330
1F
100
AcDbEntity
  8
0
  6
Continuous
 62
     7
370
    35
100
AcDbPolyline
 90
        3
 70
   128
 43
0.0
 10
2024.7799515648
 20
1342.2791693837
 10
2024.8156637979
 20
1341.9029067511
 10
2024.9049515648
 20
1341.5831988383
  0
ARC
  5
2F7
330
1F
100
AcDbEntity
  8
0
  6
Continuous
 62
     7
370
    35
100
AcDbCircle
 10
2021.7799515648
 20
1345.5172508944
 30
0.0
 40
1.000000000000227
100
AcDbArc
 50
270.0
 51
0.0
  0
LINE
  5
2F8
330
1F
100
AcDbEntity
  8
0
  6
Continuous
 62
     7
370
    35
100
AcDbLine
 10
2090.7799515648
 20
1342.2791693837
 30
0.0
 11
2090.7799515648
 21
1343.5172508944
 31
0.0
  0
LINE
  5
2F9
330
1F
100
AcDbEntity
  8
0
  6
Continuous
 62
     7
370
    35
100
AcDbLine
 10
2024.7799515648
 20
1343.5172508944
 30
0.0
 11
2024.7799515648
 21
1342.2791693837
 31
0.0
  0
LINE
  5
2FA
330
1F
100
AcDbEntity
  8
0
  6
Continuous
 62
     7
370
    35
100
AcDbLine
 10
2085.7799515648
 20
1334.2440010609
 30
0.0
 11
2085.7799515648
 21
1333.5208123949
 31
0.0
  0
LINE
  5
2FB
330
1F
100
AcDbEntity
  8
0
  6
Continuous
 62
     7
370
    35
100
AcDbLine
 10
2029.7799515648
 20
1334.2440010609
 30
0.0
 11
2029.7799515648
 21
1333.5208123949
 31
0.0
  0
LINE
  5
2FC
330
1F
100
AcDbEntity
  8
0
  6
Continuous
 62
     7
370
    35
100
AcDbLine
 10
2029.7799515648
 20
1333.5208123949
 30
0.0
 11
2031.3308346638
 21
1333.5208123949
 31
0.0
  0
LINE
  5
2FD
330
1F
100
AcDbEntity
  8
0
  6
Continuous
 62
     7
370
    35
100
AcDbLine
 10
2084.2290684659
 20
1333.5208123949
 30
0.0
 11
2085.7799515648
 21
1333.5208123949
 31
0.0
  0
SPLINE
  5
2FE
330
1F
100
AcDbEntity
  8
0
  6
Continuous
 62
     7
370
    35
100
AcDbSpline
210
0.0
220
0.0
230
1.0
 70
     8
 71
     3
 72
     9
 73
     5
 74
     0
 42
0.000000001
 43
0.00000001
 40
0.0
 40
0.0
 40
0.0
 40
0.0
 40
0.049486576785728
 40
1.0
 40
1.0
 40
1.0
 40
1.0
 10
2089.394519535315
 20
1326.208051438555
 30
0.0
 10
2089.391485914994
 20
1326.212835009536
 30
0.0
 10
2089.330184032365
 20
1326.309499020102
 30
0.0
 10
2089.32502368088
 20
1326.31481330883
 30
0.0
 10
2089.320118697525
 20
1326.319864611602
 30
0.0
  0
SPLINE
  5
2FF
330
1F
100
AcDbEntity
  8
0
  6
Continuous
 62
     7
370
    35
100
AcDbSpline
210
0.0
220
0.0
230
1.0
 70
     8
 71
     3
 72
    14
 73
    10
 74
     0
 42
0.000000001
 43
0.00000001
 40
0.0
 40
0.0
 40
0.0
 40
0.0
 40
0.0000086772972158
 40
0.054655457667272
 40
0.1545956188497708
 40
0.2815115513695478
 40
0.4757791841528747
 40
0.737221447920242
 40
1.0
 40
1.0
 40
1.0
 40
1.0
 10
2089.189247661905
 20
1326.400401935439
 30
0.0
 10
2089.189248683741
 20
1326.400399814606
 30
0.0
 10
2089.195684902284
 20
1326.38704137922
 30
0.0
 10
2089.230418066645
 20
1326.322640174943
 30
0.0
 10
2089.379569726921
 20
1326.066653989703
 30
0.0
 10
2089.744172799273
 20
1325.45071738605
 30
0.0
 10
2090.374535467121
 20
1324.375043339774
 30
0.0
 10
2091.185733895336
 20
1322.954227315337
 30
0.0
 10
2091.76681982929
 20
1321.895213653866
 30
0.0
 10
2092.058103417698
 20
1321.364357060267
 30
0.0
  0
SPLINE
  5
300
330
1F
100
AcDbEntity
  8
0
  6
Continuous
 62
     7
370
    35
100
AcDbSpline
210
0.0
220
0.0
230
1.0
 70
     8
 71
     3
 72
    12
 73
     8
 74
     0
 42
0.000000001
 43
0.00000001
 40
0.0
 40
0.0
 40
0.0
 40
0.0
 40
0.1720163517394624
 40
0.45597658524871
 40
0.6679924881477984
 40
0.8863162030505051
 40
0.9999999999999999
 40
0.9999999999999999
 40
0.9999999999999999
 40
0.9999999999999999
 10
2093.491888009979
 20
1318.656777440889
 30
0.0
 10
2093.973731990534
 20
1317.609074524072
 30
0.0
 10
2095.250991801328
 20
1314.831850187347
 30
0.0
 10
2096.210857286831
 20
1310.410165922111
 30
0.0
 10
2096.411373235249
 20
1305.621424481706
 30
0.0
 10
2095.952974672683
 20
1301.979274092674
 30
0.0
 10
2095.317372174902
 20
1299.847935440461
 30
0.0
 10
2095.099733408553
 20
1299.118136680135
 30
0.0
  0
SPLINE
  5
301
330
1F
100
AcDbEntity
  8
0
  6
Continuous
 62
     7
370
    35
100
AcDbSpline
210
0.0
220
0.0
230
1.0
 70
    24
 71
     3
 72
     9
 73
     5
 74
     0
 42
0.000000001
 43
0.00000001
 40
0.0
 40
0.0
 40
0.0
 40
0.0
 40
0.5076026287551308
 40
1.0
 40
1.0
 40
1.0
 40
1.0
 10
2057.779951564831
 20
1302.842051219179
 30
0.0
 10
2057.779951564831
 20
1301.314349824451
 30
0.0
 10
2057.779951564831
 20
1298.304709392771
 30
0.0
 10
2057.779951564831
 20
1295.707957073998
 30
0.0
 10
2057.779951564831
 20
1294.429323058461
 30
0.0
  0
SPLINE
  5
302
330
1F
100
AcDbEntity
  8
0
  6
Continuous
 62
     7
370
    35
100
AcDbSpline
210
0.0
220
0.0
230
1.0
 70
    24
 71
     3
 72
    13
 73
     9
 74
     0
 42
0.000000001
 43
0.00000001
 40
0.0
 40
0.0
 40
0.0
 40
0.0
 40
0.3696467405832372
 40
0.7491634169652764
 40
0.8272821692919338
 40
0.9051799160500784
 40
0.9820955461384837
 40
1.0
 40
1.0
 40
1.0
 40
1.0
 10
2086.279951564831
 20
1333.520812394831
 30
0.0
 10
2086.291782529952
 20
1333.520812394831
 30
0.0
 10
2086.315760358736
 20
1333.520812394831
 30
0.0
 10
2086.181306297271
 20
1333.520812394831
 30
0.0
 10
2086.345740535969
 20
1333.520812394831
 30
0.0
 10
2086.029454712114
 20
1333.520812394831
 30
0.0
 10
2085.238697807665
 20
1333.520812394831
 30
0.0
 10
2084.389431615709
 20
1333.520812394831
 30
0.0
 10
2084.229068465662
 20
1333.520812394831
 30
0.0
  0
SPLINE
  5
303
330
1F
100
AcDbEntity
  8
0
  6
Continuous
 62
     7
370
    35
100
AcDbSpline
210
0.0
220
0.0
230
1.0
 70
     8
 71
     3
 72
    14
 73
    10
 74
     0
 42
0.000000001
 43
0.00000001
 40
0.0
 40
0.0
 40
0.0
 40
0.0
 40
0.0000086772972158
 40
0.0546554576672735
 40
0.1545956188497749
 40
0.2815115513695313
 40
0.4757791841528924
 40
0.7372214479202487
 40
0.9999999999999999
 40
0.9999999999999999
 40
0.9999999999999999
 40
0.9999999999999999
 10
2026.370655467756
 20
1326.400401935439
 30
0.0
 10
2026.370654445919
 20
1326.400399814606
 30
0.0
 10
2026.364218227377
 20
1326.387041379216
 30
0.0
 10
2026.329485063016
 20
1326.322640174946
 30
0.0
 10
2026.18033340274
 20
1326.066653989702
 30
0.0
 10
2025.815730330388
 20
1325.45071738605
 30
0.0
 10
2025.185367662539
 20
1324.375043339773
 30
0.0
 10
2024.374169234324
 20
1322.954227315336
 30
0.0
 10
2023.793083300371
 20
1321.895213653866
 30
0.0
 10
2023.501799711963
 20
1321.364357060267
 30
0.0
  0
SPLINE
  5
304
330
1F
100
AcDbEntity
  8
0
  6
Continuous
 62
     7
370
    35
100
AcDbSpline
210
0.0
220
0.0
230
1.0
 70
     8
 71
     3
 72
     9
 73
     5
 74
     0
 42
0.000000001
 43
0.00000001
 40
0.0
 40
0.0
 40
0.0
 40
0.0
 40
0.048788001606275
 40
1.0
 40
1.0
 40
1.0
 40
1.0
 10
2026.165516615274
 20
1326.208261090312
 30
0.0
 10
2026.168504577827
 20
1326.212972633693
 30
0.0
 10
2026.229748376599
 20
1326.309544397765
 30
0.0
 10
2026.234891874868
 20
1326.314833527724
 30
0.0
 10
2026.239784432136
 20
1326.319864611601
 30
0.0
  0
LINE
  5
305
330
1F
100
AcDbEntity
  8
0
  6
Continuous
 62
     7
370
    35
100
AcDbLine
 10
2029.2799515648
 20
1330.1046885904
 30
0.0
 11
2029.2799515648
 21
1333.5208123948
 31
0.0
  0
SPLINE
  5
306
330
1F
100
AcDbEntity
  8
0
  6
Continuous
 62
     7
370
    35
100
AcDbSpline
210
0.0
220
0.0
230
1.0
 70
     8
 71
     3
 72
    12
 73
     8
 74
     0
 42
0.000000001
 43
0.00000001
 40
0.0
 40
0.0
 40
0.0
 40
0.0
 40
0.1720163517394542
 40
0.4559765852487084
 40
0.667992488147798
 40
0.8863162030505045
 40
1.0
 40
1.0
 40
1.0
 40
1.0
 10
2022.068015119682
 20
1318.656777440889
 30
0.0
 10
2021.586171139127
 20
1317.609074524072
 30
0.0
 10
2020.308911328334
 20
1314.831850187347
 30
0.0
 10
2019.34904584283
 20
1310.410165922111
 30
0.0
 10
2019.148529894413
 20
1305.621424481706
 30
0.0
 10
2019.606928456979
 20
1301.979274092674
 30
0.0
 10
2020.242530954759
 20
1299.847935440461
 30
0.0
 10
2020.460169721109
 20
1299.118136680135
 30
0.0
  0
SPLINE
  5
307
330
1F
100
AcDbEntity
  8
0
  6
Continuous
 62
     7
370
    35
100
AcDbSpline
210
0.0
220
0.0
230
1.0
 70
    24
 71
     3
 72
    13
 73
     9
 74
     0
 42
0.000000001
 43
0.00000001
 40
0.0
 40
0.0
 40
0.0
 40
0.0
 40
0.3696467405832375
 40
0.7491634169652772
 40
0.8272821692919348
 40
0.9051799160500794
 40
0.9820955461384848
 40
1.0
 40
1.0
 40
1.0
 40
1.0
 10
2029.279951564831
 20
1333.520812394831
 30
0.0
 10
2029.268120599709
 20
1333.520812394831
 30
0.0
 10
2029.244142770925
 20
1333.520812394831
 30
0.0
 10
2029.37859683239
 20
1333.520812394831
 30
0.0
 10
2029.214162593692
 20
1333.520812394831
 30
0.0
 10
2029.530448417547
 20
1333.520812394831
 30
0.0
 10
2030.321205321996
 20
1333.520812394831
 30
0.0
 10
2031.170471513951
 20
1333.520812394831
 30
0.0
 10
2031.330834663999
 20
1333.520812394831
 30
0.0
  0
SPLINE
  5
308
330
1F
100
AcDbEntity
  8
0
  6
Continuous
 62
     7
370
    35
100
AcDbSpline
210
0.0
220
0.0
230
1.0
 70
    24
 71
     3
 72
    12
 73
     8
 74
     0
 42
0.000000001
 43
0.00000001
 40
0.0
 40
0.0
 40
0.0
 40
0.0
 40
0.1408006786044993
 40
0.3784804122976904
 40
0.6230118132640773
 40
0.8098917120669654
 40
1.0
 40
1.0
 40
1.0
 40
1.0
 10
2057.779951564831
 20
1290.617250894382
 30
0.0
 10
2057.779951564831
 20
1290.295511039843
 30
0.0
 10
2057.779951564831
 20
1289.430655600185
 30
0.0
 10
2057.779951564831
 20
1288.39013430409
 30
0.0
 10
2057.779951564831
 20
1287.585125429314
 30
0.0
 10
2057.779951564831
 20
1287.146702794783
 30
0.0
 10
2057.779951564831
 20
1287.096253205434
 30
0.0
 10
2057.779951564831
 20
1287.070812394831
 30
0.0
  0
SPLINE
  5
309
330
1F
100
AcDbEntity
  8
0
  6
Continuous
 62
     7
370
    35
100
AcDbSpline
210
0.0
220
0.0
230
1.0
 70
    24
 71
     3
 72
    17
 73
    13
 74
     0
 42
0.000000001
 43
0.00000001
 40
0.0
 40
0.0
 40
0.0
 40
0.0
 40
0.0569795784918634
 40
0.1353024541387284
 40
0.2160128774647417
 40
0.2868547793926858
 40
0.3593481415837475
 40
0.4253072501105123
 40
0.4928579495996601
 40
0.5565942236325487
 40
0.6223126637270273
 40
1.0
 40
1.0
 40
1.0
 40
1.0
 10
2057.779951564831
 20
1287.070812394831
 30
0.0
 10
2056.729571132462
 20
1287.070812394831
 30
0.0
 10
2054.235360855018
 20
1287.070812394831
 30
0.0
 10
2050.416495846743
 20
1287.070812394831
 30
0.0
 10
2046.649129674335
 20
1287.070812394831
 30
0.0
 10
2043.354088502272
 20
1287.070812394831
 30
0.0
 10
2040.673569351797
 20
1287.070812394831
 30
0.0
 10
2038.483302088674
 20
1287.070812394831
 30
0.0
 10
2036.889400402791
 20
1287.070812394831
 30
0.0
 10
2035.837307168183
 20
1287.070812394831
 30
0.0
 10
2035.181997761052
 20
1287.070812394831
 30
0.0
 10
2035.241420864539
 20
1287.070812394831
 30
0.0
 10
2035.292036699663
 20
1287.070812394831
 30
0.0
  0
SPLINE
  5
30A
330
1F
100
AcDbEntity
  8
0
  6
Continuous
 62
     7
370
    35
100
AcDbSpline
210
0.0
220
0.0
230
1.0
 70
    24
 71
     3
 72
    17
 73
    13
 74
     0
 42
0.000000001
 43
0.00000001
 40
0.0
 40
0.0
 40
0.0
 40
0.0
 40
0.056984558900533
 40
0.1364939970869784
 40
0.2160235345599711
 40
0.2876998720941319
 40
0.3593687415706294
 40
0.4261501537102564
 40
0.4928872867050605
 40
0.5575313349415018
 40
0.6222797705529297
 40
0.9999999999999999
 40
0.9999999999999999
 40
0.9999999999999999
 40
0.9999999999999999
 10
2057.779951564831
 20
1287.070812394831
 30
0.0
 10
2058.830406511734
 20
1287.070812394831
 30
0.0
 10
2061.346540658053
 20
1287.070812394831
 30
0.0
 10
2065.162090249562
 20
1287.070812394831
 30
0.0
 10
2068.942645364867
 20
1287.070812394831
 30
0.0
 10
2072.215842685724
 20
1287.070812394831
 30
0.0
 10
2074.907226077723
 20
1287.070812394831
 30
0.0
 10
2077.079773112339
 20
1287.070812394831
 30
0.0
 10
2078.693368726887
 20
1287.070812394831
 30
0.0
 10
2079.686800347965
 20
1287.070812394831
 30
0.0
 10
2080.445316516325
 20
1287.070812394831
 30
0.0
 10
2080.346521526611
 20
1287.070812394831
 30
0.0
 10
2080.262183653379
 20
1287.070812394831
 30
0.0
  0
SPLINE
  5
30B
330
1F
100
AcDbEntity
  8
0
  6
Continuous
 62
     7
370
    35
100
AcDbSpline
210
0.0
220
0.0
230
1.0
 70
     8
 71
     3
 72
    13
 73
     9
 74
     0
 42
0.000000001
 43
0.00000001
 40
0.0
 40
0.0
 40
0.0
 40
0.0
 40
0.2029467742027884
 40
0.4117773519856961
 40
0.6147258594307168
 40
0.8235672334127804
 40
0.9115535143092928
 40
1.0
 40
1.0
 40
1.0
 40
1.0
 10
2096.36419338703
 20
1298.700008169741
 30
0.0
 10
2096.767256678872
 20
1300.08266291841
 30
0.0
 10
2097.585068815326
 20
1302.888058142619
 30
0.0
 10
2097.894482971475
 20
1307.261458158467
 30
0.0
 10
2097.516022469905
 20
1311.65499989202
 30
0.0
 10
2096.602899561795
 20
1315.093953049212
 30
0.0
 10
2095.602232844993
 20
1317.634507806038
 30
0.0
 10
2095.040352610662
 20
1318.75090915645
 30
0.0
 10
2094.75867969317
 20
1319.310565834597
 30
0.0
  0
SPLINE
  5
30C
330
1F
100
AcDbEntity
  8
0
  6
Continuous
 62
     7
370
    35
100
AcDbSpline
210
0.0
220
0.0
230
1.0
 70
     8
 71
     3
 72
    13
 73
     9
 74
     0
 42
0.000000001
 43
0.00000001
 40
0.0
 40
0.0
 40
0.0
 40
0.0
 40
0.2029467742027841
 40
0.4117773519856923
 40
0.6147258594307135
 40
0.823567233412772
 40
0.9115535143092927
 40
1.0
 40
1.0
 40
1.0
 40
1.0
 10
2019.195709742631
 20
1298.700008169741
 30
0.0
 10
2018.792646450789
 20
1300.082662918409
 30
0.0
 10
2017.974834314336
 20
1302.888058142619
 30
0.0
 10
2017.665420158186
 20
1307.261458158467
 30
0.0
 10
2018.043880659757
 20
1311.65499989202
 30
0.0
 10
2018.957003567865
 20
1315.093953049211
 30
0.0
 10
2019.957670284668
 20
1317.634507806038
 30
0.0
 10
2020.519550519
 20
1318.75090915645
 30
0.0
 10
2020.801223436491
 20
1319.310565834596
 30
0.0
  0
SPLINE
  5
30D
330
1F
100
AcDbEntity
  8
0
  6
Continuous
 62
     7
370
    35
100
AcDbSpline
210
0.0
220
0.0
230
1.0
 70
     8
 71
     3
 72
    12
 73
     8
 74
     0
 42
0.000000001
 43
0.00000001
 40
0.0
 40
0.0
 40
0.0
 40
0.0
 40
0.0542100646910135
 40
0.3612059465304306
 40
0.5267652948495997
 40
0.7633787062243821
 40
1.0
 40
1.0
 40
1.0
 40
1.0
 10
2025.457759096808
 20
1290.847190989476
 30
0.0
 10
2025.304477346178
 20
1290.944954287839
 30
0.0
 10
2024.283148924271
 20
1291.59635887336
 30
0.0
 10
2022.898553773737
 20
1292.759462746252
 30
0.0
 10
2021.31375764653
 20
1294.595310683907
 30
0.0
 10
2020.099638409154
 20
1296.434386297311
 30
0.0
 10
2019.497022643948
 20
1297.944792492939
 30
0.0
 10
2019.195709742631
 20
1298.700008169741
 30
0.0
  0
SPLINE
  5
30E
330
1F
100
AcDbEntity
  8
0
  6
Continuous
 62
     7
370
    35
100
AcDbSpline
210
0.0
220
0.0
230
1.0
 70
     8
 71
     3
 72
    12
 73
     8
 74
     0
 42
0.000000001
 43
0.00000001
 40
0.0
 40
0.0
 40
0.0
 40
0.0
 40
0.054210064691037
 40
0.3612059465304651
 40
0.5267652948496034
 40
0.7633787062243845
 40
1.0
 40
1.0
 40
1.0
 40
1.0
 10
2090.102144032853
 20
1290.847190989476
 30
0.0
 10
2090.255425783484
 20
1290.944954287839
 30
0.0
 10
2091.276754205391
 20
1291.596358873359
 30
0.0
 10
2092.661349355924
 20
1292.759462746252
 30
0.0
 10
2094.24614548313
 20
1294.595310683907
 30
0.0
 10
2095.460264720507
 20
1296.434386297311
 30
0.0
 10
2096.062880485713
 20
1297.944792492939
 30
0.0
 10
2096.36419338703
 20
1298.700008169741
 30
0.0
  0
SPLINE
  5
30F
330
1F
100
AcDbEntity
  8
0
  6
Continuous
 62
     7
370
    35
100
AcDbSpline
210
0.0
220
0.0
230
1.0
 70
     8
 71
     3
 72
    11
 73
     7
 74
     0
 42
0.000000001
 43
0.00000001
 40
0.0
 40
0.0
 40
0.0
 40
0.0
 40
0.316650231668993
 40
0.6422005680136115
 40
0.8852711377571103
 40
0.9999999999999999
 40
0.9999999999999999
 40
0.9999999999999999
 40
0.9999999999999999
 10
2022.279118323305
 20
1322.032093900969
 30
0.0
 10
2022.545142080591
 20
1322.464506270033
 30
0.0
 10
2023.084666738868
 20
1323.341484845308
 30
0.0
 10
2024.049922307485
 20
1324.381367549413
 30
0.0
 10
2024.876242737432
 20
1325.081960067093
 30
0.0
 10
2025.339762406865
 20
1325.400478132777
 30
0.0
 10
2025.488390603411
 20
1325.502611372835
 30
0.0
  0
SPLINE
  5
310
330
1F
100
AcDbEntity
  8
0
  6
Continuous
 62
     7
370
    35
100
AcDbSpline
210
0.0
220
0.0
230
1.0
 70
     8
 71
     3
 72
    11
 73
     7
 74
     0
 42
0.000000001
 43
0.00000001
 40
0.0
 40
0.0
 40
0.0
 40
0.0
 40
0.3166351430858479
 40
0.6421699667518418
 40
0.820357960877485
 40
1.0
 40
1.0
 40
1.0
 40
1.0
 10
2093.280784806356
 20
1322.032093900969
 30
0.0
 10
2093.014819452263
 20
1322.464536197072
 30
0.0
 10
2092.475413241916
 20
1323.341575467585
 30
0.0
 10
2091.580123812625
 20
1324.304859682322
 30
0.0
 10
2090.764746455055
 20
1325.018038654668
 30
0.0
 10
2090.30321564714
 20
1325.34065015537
 30
0.0
 10
2090.07151252625
 20
1325.502611372835
 30
0.0
  0
LINE
  5
311
330
1F
100
AcDbEntity
  8
0
  6
Continuous
 62
     7
370
    35
100
AcDbLine
 10
2094.7586796932
 20
1319.3105658346
 30
0.0
 11
2093.2807848064
 21
1322.032093901
 31
0.0
  0
LINE
  5
312
330
1F
100
AcDbEntity
  8
0
  6
Continuous
 62
     7
370
    35
100
AcDbLine
 10
2020.8012234365
 20
1319.3105658346
 30
0.0
 11
2022.2791183233
 21
1322.032093901
 31
0.0
  0
LINE
  5
313
330
1F
100
AcDbEntity
  8
0
  6
Continuous
 62
     7
370
    35
100
AcDbLine
 10
2090.0715125263
 20
1325.5026113728
 30
0.0
 11
2090.1723077271
 21
1325.4348373466
 31
0.0
  0
ARC
  5
314
330
1F
100
AcDbEntity
  8
0
  6
Continuous
 62
     7
370
    35
100
AcDbCircle
 10
2023.6988876198
 20
1327.9136794481
 30
0.0
 40
2.999398629761908
100
AcDbArc
 50
304.2645941136
 51
312.8939997991
  0
LINE
  5
315
330
1F
100
AcDbEntity
  8
0
  6
Continuous
 62
     7
370
    35
100
AcDbLine
 10
2025.4883906034
 20
1325.5026113728
 30
0.0
 11
2025.3875954026
 21
1325.4348373466
 31
0.0
  0
SPLINE
  5
316
330
1F
100
AcDbEntity
  8
0
  6
Continuous
 62
     7
370
    35
100
AcDbSpline
210
0.0
220
0.0
230
1.0
 70
     8
 71
     3
 72
     9
 73
     5
 74
     0
 42
0.000000001
 43
0.00000001
 40
0.0
 40
0.0
 40
0.0
 40
0.0
 40
0.6590643911410308
 40
1.0
 40
1.0
 40
1.0
 40
1.0
 10
2089.611627136232
 20
1327.072176608446
 30
0.0
 10
2089.29615141622
 20
1327.098170835716
 30
0.0
 10
2088.817479340695
 20
1327.137611939833
 30
0.0
 10
2088.416803508705
 20
1327.391789995813
 30
0.0
 10
2088.28019884997
 20
1327.478448346087
 30
0.0
  0
ARC
  5
317
330
1F
100
AcDbEntity
  8
0
  6
Continuous
 62
     7
370
    35
100
AcDbCircle
 10
2089.2799445836
 20
1316.0771713664
 30
0.0
 40
11.00000698123879
100
AcDbArc
 50
0.0000092142
 51
88.2721018854
  0
SPLINE
  5
318
330
1F
100
AcDbEntity
  8
0
  6
Continuous
 62
     7
370
    35
100
AcDbSpline
210
0.0
220
0.0
230
1.0
 70
    24
 71
     3
 72
    19
 73
    15
 74
     0
 42
0.000000001
 43
0.00000001
 40
0.0
 40
0.0
 40
0.0
 40
0.0
 40
0.0003400432997567
 40
0.1018635778277044
 40
0.2035434036526496
 40
0.3480218784455769
 40
0.4928620408160625
 40
0.5714933381061477
 40
0.6496296261320142
 40
0.7087399627822194
 40
0.7683238584295661
 40
0.8224306267254518
 40
0.892610163227093
 40
1.0
 40
1.0
 40
1.0
 40
1.0
 10
2100.27995156483
 20
1316.077173135454
 30
0.0
 10
2100.27995156483
 20
1316.077175345306
 30
0.0
 10
2100.279951564831
 20
1316.077837329894
 30
0.0
 10
2100.27995156483
 20
1315.90840037708
 30
0.0
 10
2100.279951564831
 20
1315.122941504867
 30
0.0
 10
2100.27995156483
 20
1313.722784722904
 30
0.0
 10
2100.279951564831
 20
1312.057042884911
 30
0.0
 10
2100.27995156483
 20
1310.567192548758
 30
0.0
 10
2100.279951564831
 20
1309.31910282945
 30
0.0
 10
2100.27995156483
 20
1307.983351990533
 30
0.0
 10
2100.27995156483
 20
1306.670581131087
 30
0.0
 10
2100.279951564831
 20
1305.294640759072
 30
0.0
 10
2100.27995156483
 20
1303.880556283905
 30
0.0
 10
2100.27995156483
 20
1303.051421658566
 30
0.0
 10
2100.27995156483
 20
1302.549980275764
 30
0.0
  0
SPLINE
  5
319
330
1F
100
AcDbEntity
  8
0
  6
Continuous
 62
     7
370
    35
100
AcDbSpline
210
0.0
220
0.0
230
1.0
 70
    24
 71
     3
 72
     9
 73
     5
 74
     0
 42
0.000000001
 43
0.00000001
 40
0.0
 40
0.0
 40
0.0
 40
0.0
 40
0.4979466281839556
 40
1.0
 40
1.0
 40
1.0
 40
1.0
 10
2100.27995156483
 20
1302.549980275764
 30
0.0
 10
2100.27995156483
 20
1301.919212780207
 30
0.0
 10
2100.27995156483
 20
1300.652475624345
 30
0.0
 10
2100.27995156483
 20
1299.598331723279
 30
0.0
 10
2100.279951564831
 20
1299.06909522337
 30
0.0
  0
LINE
  5
31A
330
1F
100
AcDbEntity
  8
0
  6
Continuous
 62
     7
370
    35
100
AcDbLine
 10
2100.2799515648
 20
1299.0690952234
 30
0.0
 11
2100.2799515648
 21
1298.0708123948
 31
0.0
  0
LINE
  5
31B
330
1F
100
AcDbEntity
  8
0
  6
Continuous
 62
     7
370
    35
100
AcDbLine
 10
1992.2799515648
 20
1343.5172508944
 30
0.0
 11
1992.2799515648
 21
1344.5172508944
 31
0.0
  0
LINE
  5
31C
330
1F
100
AcDbEntity
  8
0
  6
Continuous
 62
     7
370
    35
100
AcDbLine
 10
1992.2799515648
 20
1344.5172508944
 30
0.0
 11
2002.2799515648
 21
1344.5172508944
 31
0.0
  0
LINE
  5
31D
330
1F
100
AcDbEntity
  8
0
  6
Continuous
 62
     7
370
    35
100
AcDbLine
 10
2002.2799515648
 20
1343.5172508944
 30
0.0
 11
1992.2799515648
 21
1343.5172508944
 31
0.0
  0
LINE
  5
31E
330
1F
100
AcDbEntity
  8
0
  6
Continuous
 62
     7
370
    35
100
AcDbLine
 10
2123.2799515648
 20
1344.5172508944
 30
0.0
 11
2123.2799515648
 21
1343.5172508944
 31
0.0
  0
LINE
  5
31F
330
1F
100
AcDbEntity
  8
0
  6
Continuous
 62
     7
370
    35
100
AcDbLine
 10
2113.2799515648
 20
1344.5172508944
 30
0.0
 11
2123.2799515648
 21
1344.5172508944
 31
0.0
  0
LINE
  5
320
330
1F
100
AcDbEntity
  8
0
  6
Continuous
 62
     7
370
    35
100
AcDbLine
 10
2123.2799515648
 20
1343.5172508944
 30
0.0
 11
2113.2799515648
 21
1343.5172508944
 31
0.0
  0
LINE
  5
321
330
1F
100
AcDbEntity
  8
0
  6
Continuous
 62
     7
370
    35
100
AcDbLine
 10
2113.2799515648
 20
1344.5172508944
 30
0.0
 11
2002.2799515648
 21
1344.5172508944
 31
0.0
  0
LINE
  5
322
330
1F
100
AcDbEntity
  8
0
  6
Continuous
 62
     7
370
    35
100
AcDbLine
 10
2113.2799515648
 20
1343.5172508944
 30
0.0
 11
2002.2799515648
 21
1343.5172508944
 31
0.0
  0
ARC
  5
323
330
1F
100
AcDbEntity
  8
0
  6
Continuous
 62
     7
370
    35
100
AcDbCircle
 10
2065.2799515648
 20
1310.6172508944
 30
0.0
 40
6.5
100
AcDbArc
 50
180.0
 51
0.0
  0
LINE
  5
324
330
1F
100
AcDbEntity
  8
0
  6
Continuous
 62
     7
370
    35
100
AcDbLine
 10
2071.7799515648
 20
1320.6172508944
 30
0.0
 11
2071.7799515648
 21
1310.6172508944
 31
0.0
  0
ARC
  5
325
330
1F
100
AcDbEntity
  8
0
  6
Continuous
 62
     7
370
    35
100
AcDbCircle
 10
2065.2799515648
 20
1320.6172508944
 30
0.0
 40
6.5
100
AcDbArc
 50
0.0
 51
180.0
  0
LINE
  5
326
330
1F
100
AcDbEntity
  8
0
  6
Continuous
 62
     7
370
    35
100
AcDbLine
 10
2058.7799515648
 20
1310.6172508944
 30
0.0
 11
2058.7799515648
 21
1320.6172508944
 31
0.0
  0
LINE
  5
327
330
1F
100
AcDbEntity
  8
0
  6
Continuous
 62
     7
370
    35
100
AcDbLine
 10
2090.6549515648
 20
1337.791391416
 30
0.0
 11
2090.6549515648
 21
1343.5172508944
 31
0.0
  0
ARC
  5
328
330
1F
100
AcDbEntity
  8
0
  6
Continuous
 62
     7
370
    35
100
AcDbCircle
 10
2088.6549515648
 20
1337.791391416
 30
0.0
 40
1.999999999999545
100
AcDbArc
 50
295.0
 51
0.0
  0
LINE
  5
329
330
1F
100
AcDbEntity
  8
0
  6
Continuous
 62
     7
370
    35
100
AcDbLine
 10
2073.9347150413
 20
1328.7204765573
 30
0.0
 11
2089.5001880883
 21
1335.9787758419
 31
0.0
  0
ARC
  5
32A
330
1F
100
AcDbEntity
  8
0
  6
Continuous
 62
     7
370
    35
100
AcDbCircle
 10
2074.7799515648
 20
1326.9078609832
 30
0.0
 40
2.0
100
AcDbArc
 50
115.0
 51
180.0
  0
LINE
  5
32B
330
1F
100
AcDbEntity
  8
0
  6
Continuous
 62
     7
370
    35
100
AcDbLine
 10
2072.7799515648
 20
1292.6172508944
 30
0.0
 11
2072.7799515648
 21
1326.9078609832
 31
0.0
  0
ARC
  5
32C
330
1F
100
AcDbEntity
  8
0
  6
Continuous
 62
     7
370
    35
100
AcDbCircle
 10
2070.7799515648
 20
1292.6172508944
 30
0.0
 40
2.0
100
AcDbArc
 50
270.0
 51
0.0
  0
LINE
  5
32D
330
1F
100
AcDbEntity
  8
0
  6
Continuous
 62
     7
370
    35
100
AcDbLine
 10
2044.7799515648
 20
1290.6172508944
 30
0.0
 11
2070.7799515648
 21
1290.6172508944
 31
0.0
  0
ARC
  5
32E
330
1F
100
AcDbEntity
  8
0
  6
Continuous
 62
     7
370
    35
100
AcDbCircle
 10
2044.7799515648
 20
1292.6172508944
 30
0.0
 40
2.0
100
AcDbArc
 50
180.0
 51
270.0
  0
LINE
  5
32F
330
1F
100
AcDbEntity
  8
0
  6
Continuous
 62
     7
370
    35
100
AcDbLine
 10
2042.7799515648
 20
1326.9078609832
 30
0.0
 11
2042.7799515648
 21
1292.6172508944
 31
0.0
  0
ARC
  5
330
330
1F
100
AcDbEntity
  8
0
  6
Continuous
 62
     7
370
    35
100
AcDbCircle
 10
2040.7799515648
 20
1326.9078609832
 30
0.0
 40
2.000000000000137
100
AcDbArc
 50
0.0
 51
65.0
  0
LINE
  5
331
330
1F
100
AcDbEntity
  8
0
  6
Continuous
 62
     7
370
    35
100
AcDbLine
 10
2026.0597150413
 20
1335.9787758419
 30
0.0
 11
2041.6251880883
 21
1328.7204765573
 31
0.0
  0
ARC
  5
332
330
1F
100
AcDbEntity
  8
0
  6
Continuous
 62
     7
370
    35
100
AcDbCircle
 10
2026.9049515648
 20
1337.791391416
 30
0.0
 40
2.000000000000425
100
AcDbArc
 50
180.0
 51
245.0
  0
LINE
  5
333
330
1F
100
AcDbEntity
  8
0
  6
Continuous
 62
     7
370
    35
100
AcDbLine
 10
2024.9049515648
 20
1343.5172508944
 30
0.0
 11
2024.9049515648
 21
1337.791391416
 31
0.0
  0
LINE
  5
334
330
1F
100
AcDbEntity
  8
0
  6
Continuous
 62
     7
370
    35
100
AcDbLine
 10
2022.7799515648
 20
1355.5172508944
 30
0.0
 11
2022.7799515648
 21
1344.5172508944
 31
0.0
  0
LINE
  5
335
330
1F
100
AcDbEntity
  8
0
  6
Continuous
 62
     7
370
    35
100
AcDbLine
 10
2092.7799515648
 20
1344.5172508944
 30
0.0
 11
2092.7799515648
 21
1355.5172508944
 31
0.0
  0
CIRCLE
  5
336
330
1F
100
AcDbEntity
  8
0
  6
Continuous
 62
     7
370
    35
100
AcDbCircle
 10
2057.7799515648
 20
1298.6172508944
 30
0.0
 40
4.25
  0
LINE
  5
337
330
1F
100
AcDbEntity
  8
0
  6
Continuous
 62
     7
370
    35
100
AcDbLine
 10
2043.7799515648
 20
1320.6172508944
 30
0.0
 11
2043.7799515648
 21
1310.6172508944
 31
0.0
  0
ARC
  5
338
330
1F
100
AcDbEntity
  8
0
  6
Continuous
 62
     7
370
    35
100
AcDbCircle
 10
2050.2799515648
 20
1310.6172508944
 30
0.0
 40
6.5
100
AcDbArc
 50
180.0
 51
0.0
  0
LINE
  5
339
330
1F
100
AcDbEntity
  8
0
  6
Continuous
 62
     7
370
    35
100
AcDbLine
 10
2056.7799515648
 20
1310.6172508944
 30
0.0
 11
2056.7799515648
 21
1320.6172508944
 31
0.0
  0
ARC
  5
33A
330
1F
100
AcDbEntity
  8
0
  6
Continuous
 62
     7
370
    35
100
AcDbCircle
 10
2050.2799515648
 20
1320.6172508944
 30
0.0
 40
6.5
100
AcDbArc
 50
0.0
 51
180.0
  0
LINE
  5
33B
330
1F
100
AcDbEntity
  8
0
  6
Continuous
 62
     7
370
    35
100
AcDbLine
 10
2022.7799515648
 20
1355.5172508944
 30
0.0
 11
2022.7799515648
 21
1356.5172508944
 31
0.0
  0
LINE
  5
33C
330
1F
100
AcDbEntity
  8
0
  6
Continuous
 62
     7
370
    35
100
AcDbLine
 10
2092.7799515648
 20
1356.5172508944
 30
0.0
 11
2092.7799515648
 21
1355.5172508944
 31
0.0
  0
LINE
  5
33D
330
1F
100
AcDbEntity
  8
0
  6
Continuous
 62
     8
370
    18
100
AcDbLine
 10
2090.6549515648
 20
1342.2791693837
 30
0.0
 11
2090.7799515648
 21
1342.2791693837
 31
0.0
  0
LINE
  5
33E
330
1F
100
AcDbEntity
  8
0
  6
Continuous
 62
     8
370
    18
100
AcDbLine
 10
2024.7799515648
 20
1342.2791693837
 30
0.0
 11
2024.9049515648
 21
1342.2791693837
 31
0.0
  0
SPLINE
  5
33F
330
1F
100
AcDbEntity
  8
0
  6
Continuous
 62
     8
370
    18
100
AcDbSpline
210
0.0
220
0.0
230
1.0
 70
     8
 71
     3
 72
    11
 73
     7
 74
     0
 42
0.000000001
 43
0.00000001
 40
0.0
 40
0.0
 40
0.0
 40
0.0
 40
0.2499912677933776
 40
0.499986756231606
 40
0.749992678491824
 40
0.9999999999999999
 40
0.9999999999999999
 40
0.9999999999999999
 40
0.9999999999999999
 10
2089.320118697525
 20
1326.319864611602
 30
0.0
 10
2089.312361068496
 20
1326.325362466529
 30
0.0
 10
2089.296845679466
 20
1326.336358269205
 30
0.0
 10
2089.266152496253
 20
1326.357715258938
 30
0.0
 10
2089.228987214621
 20
1326.384588178518
 30
0.0
 10
2089.201677815425
 20
1326.401538109258
 30
0.0
 10
2089.188023077616
 20
1326.410013098344
 30
0.0
  0
SPLINE
  5
340
330
1F
100
AcDbEntity
  8
0
  6
Continuous
 62
     8
370
    18
100
AcDbSpline
210
0.0
220
0.0
230
1.0
 70
     8
 71
     3
 72
    10
 73
     6
 74
     0
 42
0.000000001
 43
0.00000001
 40
0.0
 40
0.0
 40
0.0
 40
0.0
 40
0.4993573099105828
 40
0.9998128115878191
 40
0.9999999999999999
 40
0.9999999999999999
 40
0.9999999999999999
 40
0.9999999999999999
 10
2089.188023077616
 20
1326.410013098344
 30
0.0
 10
2089.187282241798
 20
1326.409936478244
 30
0.0
 10
2089.185798940909
 20
1326.40978306954
 30
0.0
 10
2089.18770684553
 20
1326.404168328022
 30
0.0
 10
2089.189247086014
 20
1326.400403343153
 30
0.0
 10
2089.189247661905
 20
1326.400401935439
 30
0.0
  0
SPLINE
  5
341
330
1F
100
AcDbEntity
  8
0
  6
Continuous
 62
     8
370
    18
100
AcDbSpline
210
0.0
220
0.0
230
1.0
 70
     8
 71
     3
 72
    10
 73
     6
 74
     0
 42
0.000000001
 43
0.00000001
 40
0.0
 40
0.0
 40
0.0
 40
0.0
 40
0.4999712442950759
 40
0.7499826264318853
 40
1.0
 40
1.0
 40
1.0
 40
1.0
 10
2092.058103417698
 20
1321.364357060267
 30
0.0
 10
2092.300439941042
 20
1320.914915103521
 30
0.0
 10
2092.663957211947
 20
1320.240729011831
 30
0.0
 10
2093.139190686603
 20
1319.336752948984
 30
0.0
 10
2093.374321296395
 20
1318.883437754154
 30
0.0
 10
2093.491888009979
 20
1318.656777440889
 30
0.0
  0
SPLINE
  5
342
330
1F
100
AcDbEntity
  8
0
  6
Continuous
 62
     8
370
    18
100
AcDbSpline
210
0.0
220
0.0
230
1.0
 70
     8
 71
     3
 72
    11
 73
     7
 74
     0
 42
0.000000001
 43
0.00000001
 40
0.0
 40
0.0
 40
0.0
 40
0.0
 40
0.247159344012881
 40
0.4953474341907706
 40
0.7469783905689266
 40
1.0
 40
1.0
 40
1.0
 40
1.0
 10
2095.099733408553
 20
1299.118136680135
 30
0.0
 10
2094.94699793526
 20
1298.680722714105
 30
0.0
 10
2094.64089126101
 20
1297.804074143047
 30
0.0
 10
2094.080346393655
 20
1296.522011935235
 30
0.0
 10
2093.449435882337
 20
1295.26253618221
 30
0.0
 10
2092.965356708371
 20
1294.459826081702
 30
0.0
 10
2092.722650141543
 20
1294.057365031669
 30
0.0
  0
SPLINE
  5
343
330
1F
100
AcDbEntity
  8
0
  6
Continuous
 62
     8
370
    18
100
AcDbSpline
210
0.0
220
0.0
230
1.0
 70
     8
 71
     3
 72
    15
 73
    11
 74
     0
 42
0.000000001
 43
0.00000001
 40
0.0
 40
0.0
 40
0.0
 40
0.0
 40
0.0726415246631796
 40
0.2114867271185353
 40
0.350558798445899
 40
0.4893756744012146
 40
0.6282357890834512
 40
0.7719640009808386
 40
0.9157054947821136
 40
1.0
 40
1.0
 40
1.0
 40
1.0
 10
2092.722650141543
 20
1294.057365031669
 30
0.0
 10
2092.70510822966
 20
1294.062787357246
 30
0.0
 10
2092.654037143959
 20
1294.07857378099
 30
0.0
 10
2092.098466428773
 20
1293.954978337745
 30
0.0
 10
2090.393444985893
 20
1293.689170782984
 30
0.0
 10
2087.875406009459
 20
1293.603969897701
 30
0.0
 10
2084.573832667558
 20
1293.50272909602
 30
0.0
 10
2080.527214848265
 20
1293.418536963835
 30
0.0
 10
2076.570117148136
 20
1293.351904269311
 30
0.0
 10
2073.802874808653
 20
1293.325618159431
 30
0.0
 10
2072.779951564831
 20
1293.315901383851
 30
0.0
  0
LINE
  5
344
330
1F
100
AcDbEntity
  8
0
  6
Continuous
 62
     8
370
    18
100
AcDbLine
 10
2023.501799712
 20
1321.3643570603
 30
0.0
 11
2022.0680151197
 21
1318.6567774409
 31
0.0
  0
SPLINE
  5
345
330
1F
100
AcDbEntity
  8
0
  6
Continuous
 62
     8
370
    18
100
AcDbSpline
210
0.0
220
0.0
230
1.0
 70
     8
 71
     3
 72
     9
 73
     5
 74
     0
 42
0.000000001
 43
0.00000001
 40
0.0
 40
0.0
 40
0.0
 40
0.0
 40
0.9998127596651308
 40
0.9999999999999999
 40
0.9999999999999999
 40
0.9999999999999999
 40
0.9999999999999999
 10
2026.371880052045
 20
1326.410013098344
 30
0.0
 10
2026.372805849905
 20
1326.408967510879
 30
0.0
 10
2026.373731821145
 20
1326.407921727601
 30
0.0
 10
2026.370656043666
 20
1326.400403343184
 30
0.0
 10
2026.370655467756
 20
1326.400401935439
 30
0.0
  0
SPLINE
  5
346
330
1F
100
AcDbEntity
  8
0
  6
Continuous
 62
     8
370
    18
100
AcDbSpline
210
0.0
220
0.0
230
1.0
 70
     8
 71
     3
 72
     9
 73
     5
 74
     0
 42
0.000000001
 43
0.00000001
 40
0.0
 40
0.0
 40
0.0
 40
0.0
 40
0.4999863548673911
 40
1.0
 40
1.0
 40
1.0
 40
1.0
 10
2026.239784432136
 20
1326.319864611601
 30
0.0
 10
2026.256299010955
 20
1326.331737274659
 30
0.0
 10
2026.289329069992
 20
1326.355483248807
 30
0.0
 10
2026.344362557401
 20
1326.391836151138
 30
0.0
 10
2026.371880052045
 20
1326.410013098344
 30
0.0
  0
SPLINE
  5
347
330
1F
100
AcDbEntity
  8
0
  6
Continuous
 62
     8
370
    18
100
AcDbSpline
210
0.0
220
0.0
230
1.0
 70
     8
 71
     3
 72
    15
 73
    11
 74
     0
 42
0.000000001
 43
0.00000001
 40
0.0
 40
0.0
 40
0.0
 40
0.0
 40
0.0726415246631714
 40
0.2114867271185276
 40
0.350558798445893
 40
0.4893756744012097
 40
0.6282357890834479
 40
0.7719640009808335
 40
0.9157054947821059
 40
1.0
 40
1.0
 40
1.0
 40
1.0
 10
2022.837252988118
 20
1294.057365031669
 30
0.0
 10
2022.854794900001
 20
1294.062787357246
 30
0.0
 10
2022.905865985702
 20
1294.07857378099
 30
0.0
 10
2023.461436700888
 20
1293.954978337745
 30
0.0
 10
2025.166458143769
 20
1293.689170782984
 30
0.0
 10
2027.684497120202
 20
1293.603969897701
 30
0.0
 10
2030.986070462103
 20
1293.50272909602
 30
0.0
 10
2035.032688281396
 20
1293.418536963835
 30
0.0
 10
2038.989785981525
 20
1293.351904269311
 30
0.0
 10
2041.757028321009
 20
1293.32561815943
 30
0.0
 10
2042.779951564831
 20
1293.315901383851
 30
0.0
  0
SPLINE
  5
348
330
1F
100
AcDbEntity
  8
0
  6
Continuous
 62
     8
370
    18
100
AcDbSpline
210
0.0
220
0.0
230
1.0
 70
     8
 71
     3
 72
     9
 73
     5
 74
     0
 42
0.000000001
 43
0.00000001
 40
0.0
 40
0.0
 40
0.0
 40
0.0
 40
0.4953960175050884
 40
1.0
 40
1.0
 40
1.0
 40
1.0
 10
2020.460169721109
 20
1299.118136680135
 30
0.0
 10
2020.77816068192
 20
1298.243785338438
 30
0.0
 10
2021.420053126702
 20
1296.478831017449
 30
0.0
 10
2022.361962012963
 20
1294.869460037475
 30
0.0
 10
2022.837252988118
 20
1294.057365031669
 30
0.0
  0
SPLINE
  5
349
330
1F
100
AcDbEntity
  8
0
  6
Continuous
 62
     8
370
    18
100
AcDbSpline
210
0.0
220
0.0
230
1.0
 70
     8
 71
     3
 72
    13
 73
     9
 74
     0
 42
0.000000001
 43
0.00000001
 40
0.0
 40
0.0
 40
0.0
 40
0.0
 40
0.3455606136556946
 40
0.7377948233629347
 40
0.848287898516053
 40
0.9091433588593545
 40
0.9540191324658089
 40
1.0
 40
1.0
 40
1.0
 40
1.0
 10
2022.837252988118
 20
1294.057365031669
 30
0.0
 10
2023.175695597323
 20
1293.556193685576
 30
0.0
 10
2023.898293009207
 20
1292.486159630324
 30
0.0
 10
2024.933448092739
 20
1291.399059483914
 30
0.0
 10
2025.563352823702
 20
1290.818877736148
 30
0.0
 10
2025.740786635759
 20
1290.659561860423
 30
0.0
 10
2025.810985594847
 20
1290.594760248045
 30
0.0
 10
2025.807014384631
 20
1290.594703085405
 30
0.0
 10
2025.805004628508
 20
1290.594674156449
 30
0.0
  0
SPLINE
  5
34A
330
1F
100
AcDbEntity
  8
0
  6
Continuous
 62
     8
370
    18
100
AcDbSpline
210
0.0
220
0.0
230
1.0
 70
     8
 71
     3
 72
     9
 73
     5
 74
     0
 42
0.000000001
 43
0.00000001
 40
0.0
 40
0.0
 40
0.0
 40
0.0
 40
0.4998468996431861
 40
1.0
 40
1.0
 40
1.0
 40
1.0
 10
2025.805004628508
 20
1290.594674156449
 30
0.0
 10
2025.699431180132
 20
1290.658266103173
 30
0.0
 10
2025.488219610247
 20
1290.78548895235
 30
0.0
 10
2025.367640772495
 20
1290.863116896275
 30
0.0
 10
2025.307332892956
 20
1290.901942753103
 30
0.0
  0
SPLINE
  5
34B
330
1F
100
AcDbEntity
  8
0
  6
Continuous
 62
     8
370
    18
100
AcDbSpline
210
0.0
220
0.0
230
1.0
 70
     8
 71
     3
 72
    13
 73
     9
 74
     0
 42
0.000000001
 43
0.00000001
 40
0.0
 40
0.0
 40
0.0
 40
0.0
 40
0.345560613655686
 40
0.7377948233628807
 40
0.848287898516051
 40
0.9091433588593539
 40
0.9540191324658096
 40
1.0
 40
1.0
 40
1.0
 40
1.0
 10
2092.722650141543
 20
1294.057365031669
 30
0.0
 10
2092.384207532338
 20
1293.556193685576
 30
0.0
 10
2091.661610120454
 20
1292.486159630324
 30
0.0
 10
2090.626455036922
 20
1291.399059483914
 30
0.0
 10
2089.996550305959
 20
1290.818877736148
 30
0.0
 10
2089.819116493902
 20
1290.659561860423
 30
0.0
 10
2089.748917534814
 20
1290.594760248046
 30
0.0
 10
2089.752888745029
 20
1290.594703085405
 30
0.0
 10
2089.754898501153
 20
1290.594674156449
 30
0.0
  0
SPLINE
  5
34C
330
1F
100
AcDbEntity
  8
0
  6
Continuous
 62
     8
370
    18
100
AcDbSpline
210
0.0
220
0.0
230
1.0
 70
     8
 71
     3
 72
    11
 73
     7
 74
     0
 42
0.000000001
 43
0.00000001
 40
0.0
 40
0.0
 40
0.0
 40
0.0
 40
0.2499068565621712
 40
0.4998445626142471
 40
0.7498974475611084
 40
1.0
 40
1.0
 40
1.0
 40
1.0
 10
2089.754898501153
 20
1290.594674156449
 30
0.0
 10
2089.808730234551
 20
1290.626781988586
 30
0.0
 10
2089.916400346548
 20
1290.691001616377
 30
0.0
 10
2090.052281675794
 20
1290.774875276218
 30
0.0
 10
2090.168468946245
 20
1290.847943098379
 30
0.0
 10
2090.224534617369
 20
1290.883941676594
 30
0.0
 10
2090.252570236707
 20
1290.901942753104
 30
0.0
  0
SPLINE
  5
34D
330
1F
100
AcDbEntity
  8
0
  6
Continuous
 62
     8
370
    18
100
AcDbSpline
210
0.0
220
0.0
230
1.0
 70
     8
 71
     3
 72
     9
 73
     5
 74
     0
 42
0.000000001
 43
0.00000001
 40
0.0
 40
0.0
 40
0.0
 40
0.0
 40
0.7340356503363221
 40
0.9999999999999999
 40
0.9999999999999999
 40
0.9999999999999999
 40
0.9999999999999999
 10
2090.252570236707
 20
1290.901942753104
 30
0.0
 10
2090.258122532407
 20
1290.905957598354
 30
0.0
 10
2090.26568660058
 20
1290.911427149115
 30
0.0
 10
2090.31276936721
 20
1290.953549298775
 30
0.0
 10
2090.325291704617
 20
1290.964752288916
 30
0.0
  0
SPLINE
  5
34E
330
1F
100
AcDbEntity
  8
0
  6
Continuous
 62
     8
370
    18
100
AcDbSpline
210
0.0
220
0.0
230
1.0
 70
     8
 71
     3
 72
    12
 73
     8
 74
     0
 42
0.000000001
 43
0.00000001
 40
0.0
 40
0.0
 40
0.0
 40
0.0
 40
0.1139159269059945
 40
0.3258009088085499
 40
0.5443041886655156
 40
0.827432740718397
 40
0.9999999999999999
 40
0.9999999999999999
 40
0.9999999999999999
 40
0.9999999999999999
 10
2095.862883404569
 20
1298.881350676088
 30
0.0
 10
2096.094127394017
 20
1299.634822159838
 30
0.0
 10
2096.755487960222
 20
1301.789759584608
 30
0.0
 10
2097.278520166901
 20
1305.544666562804
 30
0.0
 10
2097.1273840503
 20
1310.490544076956
 30
0.0
 10
2096.108067412209
 20
1315.099039976444
 30
0.0
 10
2094.766479235939
 20
1317.955001761975
 30
0.0
 10
2094.258433761514
 20
1319.036524755348
 30
0.0
  0
ARC
  5
34F
330
1F
100
AcDbEntity
  8
0
  6
Continuous
 62
     8
370
    18
100
AcDbCircle
 10
2090.4805167276
 20
1282.8824306416
 30
0.0
 40
16.88002705319584
100
AcDbArc
 50
71.4059989949
 51
74.11843048
  0
ARC
  5
350
330
1F
100
AcDbEntity
  8
0
  6
Continuous
 62
     8
370
    18
100
AcDbCircle
 10
2084.7763390714
 20
1337.2132410388
 30
0.0
 40
20.5012959239177
100
AcDbArc
 50
295.1583766346
 51
297.5493192594
  0
ARC
  5
351
330
1F
100
AcDbEntity
  8
0
  6
Continuous
 62
     8
370
    18
100
AcDbCircle
 10
2025.079386402
 20
1282.8824306419
 30
0.0
 40
16.88002705280451
100
AcDbArc
 50
105.88156952
 51
108.5940010052
  0
SPLINE
  5
352
330
1F
100
AcDbEntity
  8
0
  6
Continuous
 62
     8
370
    18
100
AcDbSpline
210
0.0
220
0.0
230
1.0
 70
     8
 71
     3
 72
    12
 73
     8
 74
     0
 42
0.000000001
 43
0.00000001
 40
0.0
 40
0.0
 40
0.0
 40
0.0
 40
0.1139185701341839
 40
0.3290869588708604
 40
0.5442936150078425
 40
0.8274287365843257
 40
1.0
 40
1.0
 40
1.0
 40
1.0
 10
2019.697019725092
 20
1298.881350676087
 30
0.0
 10
2019.465646117153
 20
1299.634804543545
 30
0.0
 10
2018.797256082851
 20
1301.811375418681
 30
0.0
 10
2018.284848999375
 20
1305.568324511968
 30
0.0
 10
2018.435831969226
 20
1310.512937191504
 30
0.0
 10
2019.452098366932
 20
1315.099067375408
 30
0.0
 10
2020.793496036591
 20
1317.955009287746
 30
0.0
 10
2021.301469368148
 20
1319.036524755348
 30
0.0
  0
ARC
  5
353
330
1F
100
AcDbEntity
  8
0
  6
Continuous
 62
     8
370
    18
100
AcDbCircle
 10
2030.783564057
 20
1337.2132410362
 30
0.0
 40
20.50129592101893
100
AcDbArc
 50
242.4506807404
 51
244.8416233656
  0
ARC
  5
354
330
1F
100
AcDbEntity
  8
0
  6
Continuous
 62
     8
370
    18
100
AcDbCircle
 10
2022.6539292177
 20
1293.3854754864
 30
0.0
 40
0.6964504044241817
100
AcDbArc
 50
74.7384391007
 51
121.3141841641
  0
SPLINE
  5
355
330
1F
100
AcDbEntity
  8
0
  6
Continuous
 62
     8
370
    18
100
AcDbSpline
210
0.0
220
0.0
230
1.0
 70
     8
 71
     3
 72
    11
 73
     7
 74
     0
 42
0.000000001
 43
0.00000001
 40
0.0
 40
0.0
 40
0.0
 40
0.0
 40
0.3598580230790382
 40
0.7246062069006066
 40
0.862167751064967
 40
1.0
 40
1.0
 40
1.0
 40
1.0
 10
2022.291962612943
 20
1293.980474093878
 30
0.0
 10
2021.906660173822
 20
1294.526770442509
 30
0.0
 10
2021.130819367128
 20
1295.626786836859
 30
0.0
 10
2020.409924133675
 20
1297.061718145083
 30
0.0
 10
2019.951963061735
 20
1298.157967682056
 30
0.0
 10
2019.782056508513
 20
1298.640065048449
 30
0.0
 10
2019.697019725092
 20
1298.881350676087
 30
0.0
  0
SPLINE
  5
356
330
1F
100
AcDbEntity
  8
0
  6
Continuous
 62
     8
370
    18
100
AcDbSpline
210
0.0
220
0.0
230
1.0
 70
     8
 71
     3
 72
    11
 73
     7
 74
     0
 42
0.000000001
 43
0.00000001
 40
0.0
 40
0.0
 40
0.0
 40
0.0
 40
0.3598580230790386
 40
0.7246062069006086
 40
0.8621677510649366
 40
0.9999999999999999
 40
0.9999999999999999
 40
0.9999999999999999
 40
0.9999999999999999
 10
2093.267940516718
 20
1293.980474093879
 30
0.0
 10
2093.653242955839
 20
1294.52677044251
 30
0.0
 10
2094.429083762533
 20
1295.626786836859
 30
0.0
 10
2095.149978995987
 20
1297.061718145083
 30
0.0
 10
2095.607940067926
 20
1298.157967682057
 30
0.0
 10
2095.777846621148
 20
1298.64006504845
 30
0.0
 10
2095.862883404569
 20
1298.881350676088
 30
0.0
  0
ARC
  5
357
330
1F
100
AcDbEntity
  8
0
  6
Continuous
 62
     8
370
    18
100
AcDbCircle
 10
2092.905973912
 20
1293.3854754864
 30
0.0
 40
0.6964504044259252
100
AcDbArc
 50
58.685815836
 51
105.2615608992
  0
ARC
  5
358
330
1F
100
AcDbEntity
  8
0
  6
Continuous
 62
     8
370
    18
100
AcDbCircle
 10
2091.7289395488
 20
1328.0001656216
 30
0.0
 40
2.997472528750227
100
AcDbArc
 50
212.0390940146
 51
236.4309513429
  0
SPLINE
  5
359
330
1F
100
AcDbEntity
  8
0
  6
Continuous
 62
     8
370
    18
100
AcDbSpline
210
0.0
220
0.0
230
1.0
 70
     8
 71
     3
 72
    14
 73
    10
 74
     0
 42
0.000000001
 43
0.00000001
 40
0.0
 40
0.0
 40
0.0
 40
0.0
 40
0.6113158653944011
 40
0.7934072053583396
 40
0.8854170307688742
 40
0.919419831336106
 40
0.9434501870529948
 40
0.9749897870426377
 40
1.0
 40
1.0
 40
1.0
 40
1.0
 10
2092.797240706903
 20
1321.754697088943
 30
0.0
 10
2092.240783756616
 20
1322.637020409537
 30
0.0
 10
2091.518576173235
 20
1323.782159476988
 30
0.0
 10
2090.533898923377
 20
1324.917815589769
 30
0.0
 10
2090.208858683406
 20
1325.295562651644
 30
0.0
 10
2090.095804859771
 20
1325.436603545652
 30
0.0
 10
2090.055434917477
 20
1325.49380878158
 30
0.0
 10
2090.047322829682
 20
1325.516146587046
 30
0.0
 10
2090.064094805917
 20
1325.50676191823
 30
0.0
 10
2090.07151252625
 20
1325.502611372835
 30
0.0
  0
ARC
  5
35A
330
1F
100
AcDbEntity
  8
0
  6
Continuous
 62
     8
370
    18
100
AcDbCircle
 10
2080.169131347
 20
1344.771967225
 30
0.0
 40
26.25383534883388
100
AcDbArc
 50
296.9264954205
 51
298.7507702117
  0
ARC
  5
35B
330
1F
100
AcDbEntity
  8
0
  6
Continuous
 62
     8
370
    18
100
AcDbCircle
 10
2035.3907717837
 20
1344.771967227
 30
0.0
 40
26.25383535104637
100
AcDbArc
 50
241.2492297884
 51
243.0735045795
  0
SPLINE
  5
35C
330
1F
100
AcDbEntity
  8
0
  6
Continuous
 62
     8
370
    18
100
AcDbSpline
210
0.0
220
0.0
230
1.0
 70
     8
 71
     3
 72
    14
 73
    10
 74
     0
 42
0.000000001
 43
0.00000001
 40
0.0
 40
0.0
 40
0.0
 40
0.0
 40
0.6113158653943465
 40
0.7934072053583412
 40
0.8854170307688751
 40
0.9194198313361067
 40
0.9434501870529953
 40
0.974989787042638
 40
1.0
 40
1.0
 40
1.0
 40
1.0
 10
2022.762662422758
 20
1321.754697088942
 30
0.0
 10
2023.319119373045
 20
1322.637020409537
 30
0.0
 10
2024.041326956426
 20
1323.782159476988
 30
0.0
 10
2025.026004206284
 20
1324.917815589768
 30
0.0
 10
2025.351044446255
 20
1325.295562651643
 30
0.0
 10
2025.46409826989
 20
1325.436603545652
 30
0.0
 10
2025.504468212185
 20
1325.49380878158
 30
0.0
 10
2025.512580299979
 20
1325.516146587046
 30
0.0
 10
2025.495808323744
 20
1325.506761918229
 30
0.0
 10
2025.488390603411
 20
1325.502611372835
 30
0.0
  0
ARC
  5
35D
330
1F
100
AcDbEntity
  8
0
  6
Continuous
 62
     8
370
    18
100
AcDbCircle
 10
2023.8309635809
 20
1328.0001656216
 30
0.0
 40
2.997472528738751
100
AcDbArc
 50
303.5690486571
 51
327.9609059855
  0
LINE
  5
35E
330
1F
100
AcDbEntity
  8
0
  6
Continuous
 62
     8
370
    18
100
AcDbLine
 10
2021.3014693681
 20
1319.0365247553
 30
0.0
 11
2022.7626624228
 21
1321.7546970889
 31
0.0
  0
LINE
  5
35F
330
1F
100
AcDbEntity
  8
0
  6
Continuous
 62
     8
370
    18
100
AcDbLine
 10
2094.2584337615
 20
1319.0365247553
 30
0.0
 11
2092.7972407069
 21
1321.7546970889
 31
0.0
  0
ARC
  5
360
330
1F
100
AcDbEntity
  8
0
  6
Continuous
 62
     8
370
    18
100
AcDbCircle
 10
2023.8931351172
 20
1288.3306031516
 30
0.0
 40
2.963319514184132
100
AcDbArc
 50
49.8209532533
 51
58.1297763967
  0
SPLINE
  5
361
330
1F
100
AcDbEntity
  8
0
  6
Continuous
 62
     8
370
    18
100
AcDbSpline
210
0.0
220
0.0
230
1.0
 70
     8
 71
     3
 72
    16
 73
    12
 74
     0
 42
0.000000001
 43
0.00000001
 40
0.0
 40
0.0
 40
0.0
 40
0.0
 40
0.0117733620155409
 40
0.0227113902881397
 40
0.0341085178796162
 40
0.0448724470144675
 40
0.0843977891273899
 40
0.1801725761899847
 40
0.6004756555877063
 40
0.7301077904364653
 40
1.0
 40
1.0
 40
1.0
 40
1.0
 10
2025.457759096808
 20
1290.847190989476
 30
0.0
 10
2025.46333245967
 20
1290.843837622053
 30
0.0
 10
2025.474083748809
 20
1290.83736881253
 30
0.0
 10
2025.474410154066
 20
1290.839432350716
 30
0.0
 10
2025.45855452969
 20
1290.853072535588
 30
0.0
 10
2025.407436835916
 20
1290.893650478488
 30
0.0
 10
2025.236928893456
 20
1291.024316968518
 30
0.0
 10
2024.562679957475
 20
1291.551705846847
 30
0.0
 10
2023.812523833048
 20
1292.232775443202
 30
0.0
 10
2022.939683923909
 20
1293.163346648132
 30
0.0
 10
2022.553107836735
 20
1293.651028503509
 30
0.0
 10
2022.291962612943
 20
1293.980474093878
 30
0.0
  0
SPLINE
  5
362
330
1F
100
AcDbEntity
  8
0
  6
Continuous
 62
     8
370
    18
100
AcDbSpline
210
0.0
220
0.0
230
1.0
 70
     8
 71
     3
 72
    16
 73
    12
 74
     0
 42
0.000000001
 43
0.00000001
 40
0.0
 40
0.0
 40
0.0
 40
0.0
 40
0.0117733620155404
 40
0.0227113902881386
 40
0.0341085178796144
 40
0.044872447014465
 40
0.0843977891274511
 40
0.1801725761900109
 40
0.6004756555876675
 40
0.7301077904365179
 40
0.9999999999999999
 40
0.9999999999999999
 40
0.9999999999999999
 40
0.9999999999999999
 10
2090.102144032853
 20
1290.847190989476
 30
0.0
 10
2090.096570669991
 20
1290.843837622053
 30
0.0
 10
2090.085819380852
 20
1290.83736881253
 30
0.0
 10
2090.085492975595
 20
1290.839432350716
 30
0.0
 10
2090.101348599971
 20
1290.853072535588
 30
0.0
 10
2090.152466293745
 20
1290.893650478488
 30
0.0
 10
2090.322974236205
 20
1291.024316968518
 30
0.0
 10
2090.997223172186
 20
1291.551705846847
 30
0.0
 10
2091.747379296613
 20
1292.232775443203
 30
0.0
 10
2092.620219205752
 20
1293.163346648133
 30
0.0
 10
2093.006795292926
 20
1293.65102850351
 30
0.0
 10
2093.267940516718
 20
1293.980474093879
 30
0.0
  0
ARC
  5
363
330
1F
100
AcDbEntity
  8
0
  6
Continuous
 62
     8
370
    18
100
AcDbCircle
 10
2091.6667680125
 20
1288.3306031516
 30
0.0
 40
2.963319514190286
100
AcDbArc
 50
121.8702236033
 51
130.1790467468
  0
ARC
  5
364
330
1F
100
AcDbEntity
  8
0
  6
Continuous
 62
     8
370
    18
100
AcDbCircle
 10
2087.4644563698
 20
1332.0321377211
 30
0.0
 40
14.66438151283787
100
AcDbArc
 50
297.6001215934
 51
299.8288543737
  0
ARC
  5
365
330
1F
100
AcDbEntity
  8
0
  6
Continuous
 62
     8
370
    18
100
AcDbCircle
 10
2091.851189849
 20
1287.0076842592
 30
0.0
 40
12.53306185109105
100
AcDbArc
 50
68.8944075232
 51
71.3317007917
  0
ARC
  5
366
330
1F
100
AcDbEntity
  8
0
  6
Continuous
 62
     8
370
    18
100
AcDbCircle
 10
2028.0954467602
 20
1332.0321377216
 30
0.0
 40
14.66438151346683
100
AcDbArc
 50
240.1711456264
 51
242.3998784066
  0
ARC
  5
367
330
1F
100
AcDbEntity
  8
0
  6
Continuous
 62
     8
370
    18
100
AcDbCircle
 10
2023.7087132809
 20
1287.0076842586
 30
0.0
 40
12.53306185171188
100
AcDbArc
 50
108.6682992084
 51
111.1055924767
  0
ARC
  5
368
330
1F
100
AcDbEntity
  8
0
  6
Continuous
 62
     8
370
    18
100
AcDbCircle
 10
2030.0864477745
 20
1335.0812926948
 30
0.0
 40
15.20644542029784
100
AcDbArc
 50
239.1079369151
 51
241.2084941517
  0
ARC
  5
369
330
1F
100
AcDbEntity
  8
0
  6
Continuous
 62
     8
370
    18
100
AcDbCircle
 10
2085.473455355
 20
1335.081292695
 30
0.0
 40
15.20644542048596
100
AcDbArc
 50
298.7915058483
 51
300.8920630849
  0
ARC
  5
36A
330
1F
100
AcDbEntity
  8
0
  6
Continuous
 62
     8
370
    18
100
AcDbCircle
 10
2092.2503941185
 20
1288.6750168355
 30
0.0
 40
2.991738508835142
100
AcDbArc
 50
124.0281034347
 51
131.8959735505
  0
ARC
  5
36B
330
1F
100
AcDbEntity
  8
0
  6
Continuous
 62
     8
370
    18
100
AcDbCircle
 10
2023.3095090111
 20
1288.6750168355
 30
0.0
 40
2.991738508823371
100
AcDbArc
 50
48.1040264494
 51
55.9718965653
  0
ARC
  5
36C
330
1F
100
AcDbEntity
  8
0
  6
Continuous
 62
     8
370
    18
100
AcDbCircle
 10
2091.8610406192
 20
1327.9137093906
 30
0.0
 40
2.999437512493074
100
AcDbArc
 50
212.0988262038
 51
235.735331513
  0
ARC
  5
36D
330
1F
100
AcDbEntity
  8
0
  6
Continuous
 62
     8
370
    18
100
AcDbCircle
 10
2023.6988430665
 20
1327.9137247617
 30
0.0
 40
2.999462152046271
100
AcDbArc
 50
312.8940341429
 51
327.9011224256
  0
SPLINE
  5
36E
330
1F
100
AcDbEntity
  8
0
  6
Continuous
 62
     8
370
    18
100
AcDbSpline
210
0.0
220
0.0
230
1.0
 70
     8
 71
     3
 72
    11
 73
     7
 74
     0
 42
0.000000001
 43
0.00000001
 40
0.0
 40
0.0
 40
0.0
 40
0.0
 40
0.2426985957038174
 40
0.5047456086937772
 40
0.7664412997887285
 40
0.9999999999999999
 40
0.9999999999999999
 40
0.9999999999999999
 40
0.9999999999999999
 10
2091.939857922537
 20
1323.853953674865
 30
0.0
 10
2091.687312632396
 20
1324.327715408501
 30
0.0
 10
2091.16208863666
 20
1325.313008108388
 30
0.0
 10
2090.447600925501
 20
1326.308143163018
 30
0.0
 10
2089.771749954875
 20
1326.956363206578
 30
0.0
 10
2089.662940810248
 20
1327.035062528139
 30
0.0
 10
2089.611627136232
 20
1327.072176608446
 30
0.0
  0
ARC
  5
36F
330
1F
100
AcDbEntity
  8
0
  6
Continuous
 62
     8
370
    18
100
AcDbCircle
 10
2091.3639169002
 20
1303.0930905723
 30
0.0
 40
8.932560827387912
100
AcDbArc
 50
287.5397504291
 51
356.514198663
  0
SPLINE
  5
370
330
1F
100
AcDbEntity
  8
0
  6
Continuous
 62
     8
370
    18
100
AcDbSpline
210
0.0
220
0.0
230
1.0
 70
     8
 71
     3
 72
    11
 73
     7
 74
     0
 42
0.000000001
 43
0.00000001
 40
0.0
 40
0.0
 40
0.0
 40
0.0
 40
0.2352104509735807
 40
0.4712568957191426
 40
0.7971477029157464
 40
1.0
 40
1.0
 40
1.0
 40
1.0
 10
2089.279951564831
 20
1289.289218680473
 30
0.0
 10
2089.642650710492
 20
1289.569984941521
 30
0.0
 10
2090.369338120668
 20
1290.132515373552
 30
0.0
 10
2091.549857916229
 20
1291.251145106189
 30
0.0
 10
2092.648181869841
 20
1292.442490030598
 30
0.0
 10
2093.312497187817
 20
1293.464232714895
 30
0.0
 10
2093.567361766
 20
1293.856224305633
 30
0.0
  0
SPLINE
  5
371
330
1F
100
AcDbEntity
  8
0
  6
Continuous
 62
     8
370
    18
100
AcDbSpline
210
0.0
220
0.0
230
1.0
 70
     8
 71
     3
 72
    10
 73
     6
 74
     0
 42
0.000000001
 43
0.00000001
 40
0.0
 40
0.0
 40
0.0
 40
0.0
 40
0.4338511233655203
 40
0.8744573306290024
 40
1.0
 40
1.0
 40
1.0
 40
1.0
 10
2089.279951564831
 20
1289.289218680473
 30
0.0
 10
2088.245329142009
 20
1288.835858096923
 30
0.0
 10
2086.159975173
 20
1287.922078082646
 30
0.0
 10
2083.660924489011
 20
1287.321376241574
 30
0.0
 10
2082.231963650765
 20
1287.238752952092
 30
0.0
 10
2081.915093715199
 20
1287.220431360825
 30
0.0
  0
LWPOLYLINE
  5
372
330
1F
100
AcDbEntity
  8
0
  6
Continuous
 62
     8
370
    18
100
AcDbPolyline
 90
        9
 70
   128
 43
0.0
 10
2100.2799515648
 20
1299.0690952234
 10
2100.0685896493
 20
1297.1611359593
 10
2099.4426264225
 20
1295.3264984998
 10
2098.4261173002
 20
1293.6356869335
 10
2097.0581261579
 20
1292.1536782007
 10
2095.391224128
 20
1290.9374250659
 10
2093.4894693208
 20
1290.0336674549
 10
2091.425945107
 20
1289.4771362659
 10
2089.2799515648
 20
1289.2892186805
  0
LINE
  5
373
330
1F
100
AcDbEntity
  8
0
  6
Continuous
 62
     8
370
    18
100
AcDbLine
 10
2089.2799515648
 20
1287.0708123948
 30
0.0
 11
2089.2799515648
 21
1289.2892186805
 31
0.0
  0
LINE
  5
374
330
1F
100
AcDbEntity
  8
0
  6
Continuous
 62
     8
370
    18
100
AcDbLine
 10
2002.2799515648
 20
1344.5172508944
 30
0.0
 11
2002.2799515648
 21
1343.5172508944
 31
0.0
  0
LINE
  5
375
330
1F
100
AcDbEntity
  8
0
  6
Continuous
 62
     8
370
    18
100
AcDbLine
 10
2113.2799515648
 20
1343.5172508944
 30
0.0
 11
2113.2799515648
 21
1344.5172508944
 31
0.0
  0
LINE
  5
376
330
1F
100
AcDbEntity
  8
0
  6
Continuous
 62
     8
370
    18
100
AcDbLine
 10
2092.7799515648
 20
1355.5172508944
 30
0.0
 11
2022.7799515648
 21
1355.5172508944
 31
0.0
  0
ENDSEC
  0
SECTION
  2
OBJECTS
  0
DICTIONARY
  5
C
330
0
100
AcDbDictionary
281
     1
  3
ACAD_GROUP
350
D
  3
ACAD_LAYOUT
350
1A
  3
ACAD_MLINESTYLE
350
17
  3
ACAD_PLOTSETTINGS
350
19
  3
ACAD_PLOTSTYLENAME
350
E
  3
ACAD_SCALELIST
350
47
  0
DICTIONARY
  5
D
102
{ACAD_REACTORS
330
C
102
}
330
C
100
AcDbDictionary
281
     1
  0
DICTIONARY
  5
1A
102
{ACAD_REACTORS
330
C
102
}
330
C
100
AcDbDictionary
281
     1
  3
Layout1
350
1E
  3
Layout2
350
26
  3
Model
350
22
  0
DICTIONARY
  5
17
102
{ACAD_REACTORS
330
C
102
}
330
C
100
AcDbDictionary
281
     1
  3
Standard
350
18
  0
DICTIONARY
  5
19
102
{ACAD_REACTORS
330
C
102
}
330
C
100
AcDbDictionary
281
     1
  0
ACDBDICTIONARYWDFLT
  5
E
102
{ACAD_REACTORS
330
C
102
}
330
C
100
AcDbDictionary
281
     1
  3
Normal
350
F
100
AcDbDictionaryWithDefault
340
F
  0
DICTIONARY
  5
47
102
{ACAD_REACTORS
330
C
102
}
330
C
100
AcDbDictionary
281
     1
  3
A0
350
48
  3
A1
350
49
  3
A2
350
4A
  3
A3
350
4B
  3
A4
350
4C
  3
A5
350
4D
  3
A6
350
4E
  3
A7
350
4F
  3
A8
350
50
  3
A9
350
51
  3
B0
350
52
  3
B1
350
53
  3
B2
350
54
  3
B3
350
55
  3
B4
350
56
  3
B5
350
57
  3
B6
350
58
  3
B7
350
59
  3
B8
350
5A
  3
B9
350
5B
  3
C0
350
5C
  3
C1
350
5D
  3
C2
350
5E
  3
C3
350
5F
  3
C4
350
60
  3
C5
350
61
  3
C6
350
62
  3
C7
350
63
  3
C8
350
64
  3
C9
350
65
  3
D0
350
66
  3
D1
350
67
  3
D2
350
68
  0
LAYOUT
  5
1E
102
{ACAD_REACTORS
330
1A
102
}
330
1A
100
AcDbPlotSettings
  1

  2
none_device
  4

  6

 40
0.0
 41
0.0
 42
0.0
 43
0.0
 44
0.0
 45
0.0
 46
0.0
 47
0.0
 48
0.0
 49
0.0
140
0.0
141
0.0
142
1.0
143
1.0
 70
   688
 72
     1
 73
     0
 74
     5
  7

 75
    16
147
1.0
148
0.0
149
0.0
100
AcDbLayout
  1
Layout1
 70
     1
 71
     1
 10
0.0
 20
0.0
 11
420.0
 21
297.0
 12
0.0
 22
0.0
 32
0.0
 14
1.0000000000E+20
 24
1.0000000000E+20
 34
1.0000000000E+20
 15
-1.0000000000E+20
 25
-1.0000000000E+20
 35
-1.0000000000E+20
146
0.0
 13
0.0
 23
0.0
 33
0.0
 16
1.0
 26
0.0
 36
0.0
 17
0.0
 27
1.0
 37
0.0
 76
     0
330
1B
  0
LAYOUT
  5
26
102
{ACAD_REACTORS
330
1A
102
}
330
1A
100
AcDbPlotSettings
  1

  2
none_device
  4

  6

 40
0.0
 41
0.0
 42
0.0
 43
0.0
 44
0.0
 45
0.0
 46
0.0
 47
0.0
 48
0.0
 49
0.0
140
0.0
141
0.0
142
1.0
143
1.0
 70
   688
 72
     1
 73
     0
 74
     5
  7

 75
    16
147
1.0
148
0.0
149
0.0
100
AcDbLayout
  1
Layout2
 70
     1
 71
     2
 10
0.0
 20
0.0
 11
0.0
 21
0.0
 12
0.0
 22
0.0
 32
0.0
 14
0.0
 24
0.0
 34
0.0
 15
0.0
 25
0.0
 35
0.0
146
0.0
 13
0.0
 23
0.0
 33
0.0
 16
1.0
 26
0.0
 36
0.0
 17
0.0
 27
1.0
 37
0.0
 76
     0
330
23
  0
LAYOUT
  5
22
102
{ACAD_REACTORS
330
1A
102
}
330
1A
100
AcDbPlotSettings
  1

  2
none_device
  4
Letter_(8.50_x_11.00_Inches)
  6

 40
6.35
 41
6.35
 42
6.35000508
 43
6.35000508
 44
215.9
 45
279.4
 46
0.0
 47
0.0
 48
0.0
 49
0.0
140
0.0
141
0.0
142
1.0
143
1.0
 70
  1712
 72
     1
 73
     0
 74
     0
  7

 75
     0
147
1.0
148
0.0
149
0.0
100
AcDbLayout
  1
Model
 70
     1
 71
     0
 10
0.0
 20
0.0
 11
2970.0
 21
2100.0
 12
0.0
 22
0.0
 32
0.0
 14
0.0
 24
0.0
 34
0.0
 15
2970.0
 25
2100.0
 35
0.0
146
0.0
 13
0.0
 23
0.0
 33
0.0
 16
1.0
 26
0.0
 36
0.0
 17
0.0
 27
1.0
 37
0.0
 76
     0
330
1F
331
29
  0
MLINESTYLE
  5
18
102
{ACAD_REACTORS
330
17
102
}
330
17
100
AcDbMlineStyle
  2
Standard
 70
     0
  3

 62
   256
 51
90.0
 52
90.0
 71
     2
 49
0.5
 62
   256
  6
BYLAYER
 49
-0.5
 62
   256
  6
BYLAYER
  0
ACDBPLACEHOLDER
  5
F
102
{ACAD_REACTORS
330
E
102
}
330
E
  0
SCALE
  5
48
102
{ACAD_REACTORS
330
47
102
}
330
47
100
AcDbScale
 70
     0
300
1:1
140
1.0
141
1.0
290
     1
  0
SCALE
  5
49
102
{ACAD_REACTORS
330
47
102
}
330
47
100
AcDbScale
 70
     0
300
1:2
140
1.0
141
2.0
290
     0
  0
SCALE
  5
4A
102
{ACAD_REACTORS
330
47
102
}
330
47
100
AcDbScale
 70
     0
300
1:4
140
1.0
141
4.0
290
     0
  0
SCALE
  5
4B
102
{ACAD_REACTORS
330
47
102
}
330
47
100
AcDbScale
 70
     0
300
1:5
140
1.0
141
5.0
290
     0
  0
SCALE
  5
4C
102
{ACAD_REACTORS
330
47
102
}
330
47
100
AcDbScale
 70
     0
300
1:8
140
1.0
141
8.0
290
     0
  0
SCALE
  5
4D
102
{ACAD_REACTORS
330
47
102
}
330
47
100
AcDbScale
 70
     0
300
1:10
140
1.0
141
10.0
290
     0
  0
SCALE
  5
4E
102
{ACAD_REACTORS
330
47
102
}
330
47
100
AcDbScale
 70
     0
300
1:16
140
1.0
141
16.0
290
     0
  0
SCALE
  5
4F
102
{ACAD_REACTORS
330
47
102
}
330
47
100
AcDbScale
 70
     0
300
1:20
140
1.0
141
20.0
290
     0
  0
SCALE
  5
50
102
{ACAD_REACTORS
330
47
102
}
330
47
100
AcDbScale
 70
     0
300
1:30
140
1.0
141
30.0
290
     0
  0
SCALE
  5
51
102
{ACAD_REACTORS
330
47
102
}
330
47
100
AcDbScale
 70
     0
300
1:40
140
1.0
141
40.0
290
     0
  0
SCALE
  5
52
102
{ACAD_REACTORS
330
47
102
}
330
47
100
AcDbScale
 70
     0
300
1:50
140
1.0
141
50.0
290
     0
  0
SCALE
  5
53
102
{ACAD_REACTORS
330
47
102
}
330
47
100
AcDbScale
 70
     0
300
1:100
140
1.0
141
100.0
290
     0
  0
SCALE
  5
54
102
{ACAD_REACTORS
330
47
102
}
330
47
100
AcDbScale
 70
     0
300
2:1
140
2.0
141
1.0
290
     0
  0
SCALE
  5
55
102
{ACAD_REACTORS
330
47
102
}
330
47
100
AcDbScale
 70
     0
300
4:1
140
4.0
141
1.0
290
     0
  0
SCALE
  5
56
102
{ACAD_REACTORS
330
47
102
}
330
47
100
AcDbScale
 70
     0
300
8:1
140
8.0
141
1.0
290
     0
  0
SCALE
  5
57
102
{ACAD_REACTORS
330
47
102
}
330
47
100
AcDbScale
 70
     0
300
10:1
140
10.0
141
1.0
290
     0
  0
SCALE
  5
58
102
{ACAD_REACTORS
330
47
102
}
330
47
100
AcDbScale
 70
     0
300
100:1
140
100.0
141
1.0
290
     0
  0
SCALE
  5
59
102
{ACAD_REACTORS
330
47
102
}
330
47
100
AcDbScale
 70
     0
300
1/128" = 1'-0"
140
0.0078125
141
12.0
290
     0
  0
SCALE
  5
5A
102
{ACAD_REACTORS
330
47
102
}
330
47
100
AcDbScale
 70
     0
300
1/64" = 1'-0"
140
0.015625
141
12.0
290
     0
  0
SCALE
  5
5B
102
{ACAD_REACTORS
330
47
102
}
330
47
100
AcDbScale
 70
     0
300
1/32" = 1'-0"
140
0.03125
141
12.0
290
     0
  0
SCALE
  5
5C
102
{ACAD_REACTORS
330
47
102
}
330
47
100
AcDbScale
 70
     0
300
1/16" = 1'-0"
140
0.0625
141
12.0
290
     0
  0
SCALE
  5
5D
102
{ACAD_REACTORS
330
47
102
}
330
47
100
AcDbScale
 70
     0
300
3/32" = 1'-0"
140
0.09375
141
12.0
290
     0
  0
SCALE
  5
5E
102
{ACAD_REACTORS
330
47
102
}
330
47
100
AcDbScale
 70
     0
300
1/8" = 1'-0"
140
0.125
141
12.0
290
     0
  0
SCALE
  5
5F
102
{ACAD_REACTORS
330
47
102
}
330
47
100
AcDbScale
 70
     0
300
3/16" = 1'-0"
140
0.1875
141
12.0
290
     0
  0
SCALE
  5
60
102
{ACAD_REACTORS
330
47
102
}
330
47
100
AcDbScale
 70
     0
300
1/4" = 1'-0"
140
0.25
141
12.0
290
     0
  0
SCALE
  5
61
102
{ACAD_REACTORS
330
47
102
}
330
47
100
AcDbScale
 70
     0
300
3/8" = 1'-0"
140
0.375
141
12.0
290
     0
  0
SCALE
  5
62
102
{ACAD_REACTORS
330
47
102
}
330
47
100
AcDbScale
 70
     0
300
1/2" = 1'-0"
140
0.5
141
12.0
290
     0
  0
SCALE
  5
63
102
{ACAD_REACTORS
330
47
102
}
330
47
100
AcDbScale
 70
     0
300
3/4" = 1'-0"
140
0.75
141
12.0
290
     0
  0
SCALE
  5
64
102
{ACAD_REACTORS
330
47
102
}
330
47
100
AcDbScale
 70
     0
300
1" = 1'-0"
140
1.0
141
12.0
290
     0
  0
SCALE
  5
65
102
{ACAD_REACTORS
330
47
102
}
330
47
100
AcDbScale
 70
     0
300
1-1/2" = 1'-0"
140
1.5
141
12.0
290
     0
  0
SCALE
  5
66
102
{ACAD_REACTORS
330
47
102
}
330
47
100
AcDbScale
 70
     0
300
3" = 1'-0"
140
3.0
141
12.0
290
     0
  0
SCALE
  5
67
102
{ACAD_REACTORS
330
47
102
}
330
47
100
AcDbScale
 70
     0
300
6" = 1'-0"
140
6.0
141
12.0
290
     0
  0
SCALE
  5
68
102
{ACAD_REACTORS
330
47
102
}
330
47
100
AcDbScale
 70
     0
300
1'-0" = 1'-0"
140
12.0
141
12.0
290
     0
  0
ENDSEC
  0
EOF
