  0
SECTION
  2
HEADER
  9
$ACADVER
  1
AC1015
  9
$ACADMAINTVER
 70
     6
  9
$DWGCODEPAGE
  3
ANSI_1252
  9
$INSBASE
 10
0.0
 20
0.0
 30
0.0
  9
$EXTMIN
 10
0.0
 20
0.0
 30
0.0
  9
$EXTMAX
 10
2100.0
 20
1485.0
 30
0.0
  9
$LIMMIN
 10
0.0
 20
0.0
  9
$LIMMAX
 10
2100.0
 20
1485.0
  9
$ORTHOMODE
 70
     0
  9
$REGENMODE
 70
     1
  9
$FILLMODE
 70
     1
  9
$QTEXTMODE
 70
     0
  9
$MIRRTEXT
 70
     1
  9
$LTSCALE
 40
5.0
  9
$ATTMODE
 70
     1
  9
$TEXTSIZE
 40
12.5
  9
$TRACEWID
 40
1.0
  9
$TEXTSTYLE
  7
Standard
  9
$CLAYER
  8
0
  9
$CELTYPE
  6
ByLayer
  9
$CECOLOR
 62
   256
  9
$CELTSCALE
 40
1.0
  9
$DISPSILH
 70
     0
  9
$DIMSCALE
 40
1.0
  9
$DIMASZ
 40
12.5
  9
$DIMEXO
 40
0.0
  9
$DIMDLI
 40
3.75
  9
$DIMRND
 40
0.0
  9
$DIMDLE
 40
0.0
  9
$DIMEXE
 40
5.0
  9
$DIMTP
 40
0.0
  9
$DIMTM
 40
0.0
  9
$DIMTXT
 40
12.5
  9
$DIMCEN
 40
2.5
  9
$DIMTSZ
 40
0.0
  9
$DIMTOL
 70
     0
  9
$DIMLIM
 70
     0
  9
$DIMTIH
 70
     1
  9
$DIMTOH
 70
     1
  9
$DIMSE1
 70
     0
  9
$DIMSE2
 70
     0
  9
$DIMTAD
 70
     1
  9
$DIMZIN
 70
     0
  9
$DIMBLK
  1

  9
$DIMASO
 70
     1
  9
$DIMSHO
 70
     1
  9
$DIMPOST
  1

  9
$DIMAPOST
  1

  9
$DIMALT
 70
     0
  9
$DIMALTD
 70
     3
  9
$DIMALTF
 40
0.0393700787
  9
$DIMLFAC
 40
1.0
  9
$DIMTOFL
 70
     1
  9
$DIMTVP
 40
0.0
  9
$DIMTIX
 70
     0
  9
$DIMSOXD
 70
     0
  9
$DIMSAH
 70
     0
  9
$DIMBLK1
  1

  9
$DIMBLK2
  1

  9
$DIMSTYLE
  2
ISO-25
  9
$DIMCLRD
 70
     0
  9
$DIMCLRE
 70
     0
  9
$DIMCLRT
 70
     0
  9
$DIMTFAC
 40
1.0
  9
$DIMGAP
 40
7.62
  9
$DIMJUST
 70
     0
  9
$DIMSD1
 70
     0
  9
$DIMSD2
 70
     0
  9
$DIMTOLJ
 70
     0
  9
$DIMTZIN
 70
     0
  9
$DIMALTZ
 70
     0
  9
$DIMALTTZ
 70
     0
  9
$DIMUPT
 70
     0
  9
$DIMDEC
 70
     2
  9
$DIMTDEC
 70
     2
  9
$DIMALTU
 70
     2
  9
$DIMALTTD
 70
     3
  9
$DIMTXSTY
  7
Standard
  9
$DIMAUNIT
 70
     0
  9
$DIMADEC
 70
     2
  9
$DIMALTRND
 40
0.0
  9
$DIMAZIN
 70
     0
  9
$DIMDSEP
 70
    44
  9
$DIMATFIT
 70
     3
  9
$DIMFRAC
 70
     0
  9
$DIMLDRBLK
  1

  9
$DIMLUNIT
 70
     2
  9
$DIMLWD
 70
    -2
  9
$DIMLWE
 70
    -2
  9
$DIMTMOVE
 70
     0
  9
$LUNITS
 70
     2
  9
$LUPREC
 70
     1
  9
$SKETCHINC
 40
1.0
  9
$FILLETRAD
 40
10.0
  9
$AUNITS
 70
     0
  9
$AUPREC
 70
     2
  9
$MENU
  1
.
  9
$ELEVATION
 40
0.0
  9
$PELEVATION
 40
0.0
  9
$THICKNESS
 40
0.0
  9
$LIMCHECK
 70
     0
  9
$CHAMFERA
 40
0.0
  9
$CHAMFERB
 40
0.0
  9
$CHAMFERC
 40
0.0
  9
$CHAMFERD
 40
0.0
  9
$SKPOLY
 70
     0
  9
$TDCREATE
 40
2458907.507820162
  9
$TDUCREATE
 40
2458907.278653495
  9
$TDUPDATE
 40
2458907.507823472
  9
$TDUUPDATE
 40
2458907.278656805
  9
$TDINDWG
 40
0.0000000116
  9
$TDUSRTIMER
 40
0.0000000116
  9
$USRTIMER
 70
     1
  9
$ANGBASE
 50
0.0
  9
$ANGDIR
 70
     0
  9
$PDMODE
 70
     0
  9
$PDSIZE
 40
-1.0
  9
$PLINEWID
 40
0.0
  9
$SPLFRAME
 70
     0
  9
$SPLINETYPE
 70
     6
  9
$SPLINESEGS
 70
     8
  9
$HANDSEED
  5
398
  9
$SURFTAB1
 70
     6
  9
$SURFTAB2
 70
     6
  9
$SURFTYPE
 70
     6
  9
$SURFU
 70
     6
  9
$SURFV
 70
     6
  9
$UCSBASE
  2

  9
$UCSNAME
  2

  9
$UCSORG
 10
0.0
 20
0.0
 30
0.0
  9
$UCSXDIR
 10
1.0
 20
0.0
 30
0.0
  9
$UCSYDIR
 10
0.0
 20
1.0
 30
0.0
  9
$UCSORTHOREF
  2

  9
$UCSORTHOVIEW
 70
     0
  9
$UCSORGTOP
 10
0.0
 20
0.0
 30
0.0
  9
$UCSORGBOTTOM
 10
0.0
 20
0.0
 30
0.0
  9
$UCSORGLEFT
 10
0.0
 20
0.0
 30
0.0
  9
$UCSORGRIGHT
 10
0.0
 20
0.0
 30
0.0
  9
$UCSORGFRONT
 10
0.0
 20
0.0
 30
0.0
  9
$UCSORGBACK
 10
0.0
 20
0.0
 30
0.0
  9
$PUCSBASE
  2

  9
$PUCSNAME
  2

  9
$PUCSORG
 10
0.0
 20
0.0
 30
0.0
  9
$PUCSXDIR
 10
1.0
 20
0.0
 30
0.0
  9
$PUCSYDIR
 10
0.0
 20
1.0
 30
0.0
  9
$PUCSORTHOREF
  2

  9
$PUCSORTHOVIEW
 70
     0
  9
$PUCSORGTOP
 10
0.0
 20
0.0
 30
0.0
  9
$PUCSORGBOTTOM
 10
0.0
 20
0.0
 30
0.0
  9
$PUCSORGLEFT
 10
0.0
 20
0.0
 30
0.0
  9
$PUCSORGRIGHT
 10
0.0
 20
0.0
 30
0.0
  9
$PUCSORGFRONT
 10
0.0
 20
0.0
 30
0.0
  9
$PUCSORGBACK
 10
0.0
 20
0.0
 30
0.0
  9
$USERI1
 70
     0
  9
$USERI2
 70
     0
  9
$USERI3
 70
     0
  9
$USERI4
 70
     0
  9
$USERI5
 70
     0
  9
$USERR1
 40
0.0
  9
$USERR2
 40
0.0
  9
$USERR3
 40
0.0
  9
$USERR4
 40
0.0
  9
$USERR5
 40
0.0
  9
$WORLDVIEW
 70
     1
  9
$SHADEDGE
 70
     3
  9
$SHADEDIF
 70
    70
  9
$TILEMODE
 70
     1
  9
$MAXACTVP
 70
    64
  9
$PINSBASE
 10
0.0
 20
0.0
 30
0.0
  9
$PLIMCHECK
 70
     0
  9
$PEXTMIN
 10
1.0000000000E+20
 20
1.0000000000E+20
 30
1.0000000000E+20
  9
$PEXTMAX
 10
-1.0000000000E+20
 20
-1.0000000000E+20
 30
-1.0000000000E+20
  9
$PLIMMIN
 10
0.0
 20
0.0
  9
$PLIMMAX
 10
420.0
 20
297.0
  9
$UNITMODE
 70
     0
  9
$VISRETAIN
 70
     1
  9
$PLINEGEN
 70
     0
  9
$PSLTSCALE
 70
     1
  9
$TREEDEPTH
 70
  3020
  9
$CMLSTYLE
  2
Standard
  9
$CMLJUST
 70
     0
  9
$CMLSCALE
 40
20.0
  9
$PROXYGRAPHICS
 70
     1
  9
$MEASUREMENT
 70
     1
  9
$CELWEIGHT
370
    -1
  9
$ENDCAPS
280
     0
  9
$JOINSTYLE
280
     0
  9
$LWDISPLAY
290
     1
  9
$INSUNITS
 70
     4
  9
$HYPERLINKBASE
  1

  9
$STYLESHEET
  1

  9
$XEDIT
290
     1
  9
$CEPSNTYPE
380
     0
  9
$PSTYLEMODE
290
     1
  9
$FINGERPRINTGUID
  2
{267cc9cf-3e10-4f9a-a6ee-43d6cc70ea6c}
  9
$VERSIONGUID
  2
{FAEB1C32-E019-11D5-929B-00C0DF256EC4}
  9
$EXTNAMES
290
     1
  9
$PSVPSCALE
 40
0.0
  9
$OLESTARTUP
290
     0
  0
ENDSEC
  0
SECTION
  2
CLASSES
  0
CLASS
  1
ACDBDICTIONARYWDFLT
  2
AcDbDictionaryWithDefault
  3
ObjectDBX Classes
 90
        0
280
     0
281
     0
  0
CLASS
  1
VISUALSTYLE
  2
AcDbVisualStyle
  3
ObjectDBX Classes
 90
     4095
280
     0
281
     0
  0
CLASS
  1
MATERIAL
  2
AcDbMaterial
  3
ObjectDBX Classes
 90
     1153
280
     0
281
     0
  0
CLASS
  1
SCALE
  2
AcDbScale
  3
ObjectDBX Classes
 90
     1153
280
     0
281
     0
  0
CLASS
  1
TABLESTYLE
  2
AcDbTableStyle
  3
ObjectDBX Classes
 90
     4095
280
     0
281
     0
  0
CLASS
  1
MLEADERSTYLE
  2
AcDbMLeaderStyle
  3
ACDB_MLEADERSTYLE_CLASS
 90
     4095
280
     0
281
     0
  0
CLASS
  1
SUN
  2
AcDbSun
  3
SCENEOE
 90
     1153
280
     0
281
     0
  0
CLASS
  1
ACDBPLACEHOLDER
  2
AcDbPlaceHolder
  3
ObjectDBX Classes
 90
        0
280
     0
281
     0
  0
CLASS
  1
LAYOUT
  2
AcDbLayout
  3
ObjectDBX Classes
 90
        0
280
     0
281
     0
  0
ENDSEC
  0
SECTION
  2
TABLES
  0
TABLE
  2
VPORT
  5
8
330
0
100
AcDbSymbolTable
 70
     1
  0
VPORT
  5
29
330
8
100
AcDbSymbolTableRecord
100
AcDbViewportTableRecord
  2
*Active
 70
     0
 10
0.0
 20
0.0
 11
1.0
 21
1.0
 12
1050.0
 22
742.5
 13
0.0
 23
0.0
 14
10.0
 24
10.0
 15
10.0
 25
10.0
 16
0.0
 26
0.0
 36
1.0
 17
0.0
 27
0.0
 37
0.0
 40
1485.0
 41
1.4141414141
 42
50.0
 43
0.0
 44
0.0
 50
0.0
 51
0.0
 71
     0
 72
  2000
 73
     1
 74
     3
 75
     0
 76
     0
 77
     0
 78
     0
281
     0
 65
     1
110
0.0
120
0.0
130
0.0
111
1.0
121
0.0
131
0.0
112
0.0
122
1.0
132
0.0
 79
     0
146
0.0
  0
ENDTAB
  0
TABLE
  2
LTYPE
  5
5
330
0
100
AcDbSymbolTable
 70
     6
  0
LTYPE
  5
14
330
5
100
AcDbSymbolTableRecord
100
AcDbLinetypeTableRecord
  2
ByBlock
 70
     0
  3

 72
    65
 73
     0
 40
0.0
  0
LTYPE
  5
15
330
5
100
AcDbSymbolTableRecord
100
AcDbLinetypeTableRecord
  2
ByLayer
 70
     0
  3

 72
    65
 73
     0
 40
0.0
  0
LTYPE
  5
16
330
5
100
AcDbSymbolTableRecord
100
AcDbLinetypeTableRecord
  2
Continuous
 70
     0
  3
Solid line
 72
    65
 73
     0
 40
0.0
  0
LTYPE
  5
6E
330
5
100
AcDbSymbolTableRecord
100
AcDbLinetypeTableRecord
  2
HIDDEN
 70
     0
  3
Hidden __ __ __ __ __ __ __ __ __ __ __ __ __ __
 72
    65
 73
     2
 40
1.905
 49
1.27
 74
     0
 49
-0.635
 74
     0
  0
LTYPE
  5
6F
330
5
100
AcDbSymbolTableRecord
100
AcDbLinetypeTableRecord
  2
PHANTOM
 70
     0
  3
Phantom ______  __  __  ______  __  __  ______
 72
    65
 73
     6
 40
12.7
 49
6.35
 74
     0
 49
-1.27
 74
     0
 49
1.27
 74
     0
 49
-1.27
 74
     0
 49
1.27
 74
     0
 49
-1.27
 74
     0
  0
LTYPE
  5
70
330
5
100
AcDbSymbolTableRecord
100
AcDbLinetypeTableRecord
  2
CENTER
 70
     0
  3
Center ____ _ ____ _ ____ _ ____ _ ____ _ ____
 72
    65
 73
     4
 40
10.16
 49
6.35
 74
     0
 49
-1.27
 74
     0
 49
1.27
 74
     0
 49
-1.27
 74
     0
  0
LTYPE
  5
71
330
5
100
AcDbSymbolTableRecord
100
AcDbLinetypeTableRecord
  2
CENTERX2
 70
     0
  3
Center (2x) ________  __  ________  __  _____
 72
    65
 73
     4
 40
20.32
 49
12.7
 74
     0
 49
-2.54
 74
     0
 49
2.54
 74
     0
 49
-2.54
 74
     0
  0
LTYPE
  5
72
330
5
100
AcDbSymbolTableRecord
100
AcDbLinetypeTableRecord
  2
DOT2
 70
     0
  3
Dot (.5x) ........................................
 72
    65
 73
     2
 40
0.635
 49
0.0
 74
     0
 49
-0.635
 74
     0
  0
ENDTAB
  0
TABLE
  2
LAYER
  5
2
330
0
100
AcDbSymbolTable
 70
    10
  0
LAYER
  5
10
330
2
100
AcDbSymbolTableRecord
100
AcDbLayerTableRecord
  2
0
 70
     0
 62
     7
  6
Continuous
370
    -3
390
F
  0
LAYER
  5
73
330
2
100
AcDbSymbolTableRecord
100
AcDbLayerTableRecord
  2
DIMENSION
 70
     0
 62
     7
  6
Continuous
370
    -3
390
F
  0
LAYER
  5
74
330
2
100
AcDbSymbolTableRecord
100
AcDbLayerTableRecord
  2
NOTES
 70
     0
 62
     7
  6
Continuous
370
    -3
390
F
  0
LAYER
  5
75
330
2
100
AcDbSymbolTableRecord
100
AcDbLayerTableRecord
  2
TABLES
 70
     0
 62
     7
  6
Continuous
370
    -3
390
F
  0
LAYER
  5
76
330
2
100
AcDbSymbolTableRecord
100
AcDbLayerTableRecord
  2
INVISIBLE
 70
     0
 62
    -7
  6
Continuous
290
     0
370
    -3
390
F
  0
LAYER
  5
77
330
2
100
AcDbSymbolTableRecord
100
AcDbLayerTableRecord
  2
WEP
 70
     0
 62
  -150
  6
Continuous
290
     0
370
    -3
390
F
  0
LAYER
  5
78
330
2
100
AcDbSymbolTableRecord
100
AcDbLayerTableRecord
  2
EMP
 70
     0
 62
     1
  6
Continuous
370
    -3
390
F
  0
LAYER
  5
79
330
2
100
AcDbSymbolTableRecord
100
AcDbLayerTableRecord
  2
MARKETING_DRW
 70
     0
 62
    -7
  6
Continuous
290
     0
370
    -3
390
F
  0
LAYER
  5
7A
330
2
100
AcDbSymbolTableRecord
100
AcDbLayerTableRecord
  2
SINGLE_ARTICLE_DRW
 70
     0
 62
     7
  6
Continuous
370
    -3
390
F
  0
LAYER
  5
7B
330
2
100
AcDbSymbolTableRecord
100
AcDbLayerTableRecord
  2
TABLE_DRW
 70
     0
 62
    -7
  6
Continuous
290
     0
370
    -3
390
F
  0
ENDTAB
  0
TABLE
  2
STYLE
  5
3
330
0
100
AcDbSymbolTable
 70
     2
  0
STYLE
  5
11
330
3
100
AcDbSymbolTableRecord
100
AcDbTextStyleTableRecord
  2
Standard
 70
     0
 40
0.0
 41
1.0
 50
0.0
 71
     0
 42
12.5
  3
txt
  4

  0
STYLE
  5
B5
330
3
100
AcDbSymbolTableRecord
100
AcDbTextStyleTableRecord
  2
SLDTEXTSTYLE0
 70
     0
 40
0.0
 41
0.605
 50
0.0
 71
     0
 42
12.5
  3
TXT
  4

  0
ENDTAB
  0
TABLE
  2
VIEW
  5
6
330
0
100
AcDbSymbolTable
 70
     0
  0
ENDTAB
  0
TABLE
  2
UCS
  5
7
330
0
100
AcDbSymbolTable
 70
     0
  0
ENDTAB
  0
TABLE
  2
APPID
  5
9
330
0
100
AcDbSymbolTable
 70
     1
  0
APPID
  5
12
330
9
100
AcDbSymbolTableRecord
100
AcDbRegAppTableRecord
  2
ACAD
 70
     0
  0
ENDTAB
  0
TABLE
  2
DIMSTYLE
  5
A
330
0
100
AcDbSymbolTable
 70
     1
100
AcDbDimStyleTable
  0
DIMSTYLE
105
27
330
A
100
AcDbSymbolTableRecord
100
AcDbDimStyleTableRecord
  2
ISO-25
 70
     0
 41
2.5
 42
0.625
 43
3.75
 44
1.25
 73
     0
 74
     0
 77
     1
 78
     8
140
2.5
141
2.5
143
0.0393700787
147
0.625
171
     3
172
     1
178
     0
271
     2
272
     2
274
     3
278
    44
283
     0
284
     8
340
11
  0
ENDTAB
  0
TABLE
  2
BLOCK_RECORD
  5
1
330
0
100
AcDbSymbolTable
 70
     3
  0
BLOCK_RECORD
  5
1F
330
1
100
AcDbSymbolTableRecord
100
AcDbBlockTableRecord
  2
*Model_Space
340
22
  0
BLOCK_RECORD
  5
1B
330
1
100
AcDbSymbolTableRecord
100
AcDbBlockTableRecord
  2
*Paper_Space
340
1E
  0
BLOCK_RECORD
  5
23
330
1
100
AcDbSymbolTableRecord
100
AcDbBlockTableRecord
  2
*Paper_Space0
340
26
  0
BLOCK_RECORD
  5
BF
330
1
100
AcDbSymbolTableRecord
100
AcDbBlockTableRecord
  2
SW_NOTE_0
340
0
102
{BLKREFS
331
C5
102
}
  0
BLOCK_RECORD
  5
E8
330
1
100
AcDbSymbolTableRecord
100
AcDbBlockTableRecord
  2
SW_NOTE_0_1
340
0
102
{BLKREFS
331
EE
102
}
  0
ENDTAB
  0
ENDSEC
  0
SECTION
  2
BLOCKS
  0
BLOCK
  5
20
330
1F
100
AcDbEntity
  8
0
100
AcDbBlockBegin
  2
*Model_Space
 70
     0
 10
0.0
 20
0.0
 30
0.0
  3
*Model_Space
  1

  0
ENDBLK
  5
21
330
1F
100
AcDbEntity
  8
0
100
AcDbBlockEnd
  0
BLOCK
  5
1C
330
1B
100
AcDbEntity
 67
     1
  8
0
100
AcDbBlockBegin
  2
*Paper_Space
 70
     0
 10
0.0
 20
0.0
 30
0.0
  3
*Paper_Space
  1

  0
ENDBLK
  5
1D
330
1B
100
AcDbEntity
 67
     1
  8
0
100
AcDbBlockEnd
  0
BLOCK
  5
24
330
23
100
AcDbEntity
  8
0
100
AcDbBlockBegin
  2
*Paper_Space0
 70
     0
 10
0.0
 20
0.0
 30
0.0
  3
*Paper_Space0
  1

  0
ENDBLK
  5
25
330
23
100
AcDbEntity
  8
0
100
AcDbBlockEnd
  0
BLOCK
  5
C0
330
BF
100
AcDbEntity
  8
0
100
AcDbBlockBegin
  2
SW_NOTE_0
 70
     0
 10
0.0
 20
0.0
 30
0.0
  3
SW_NOTE_0
  1

  0
MTEXT
  5
C2
330
BF
100
AcDbEntity
  8
TABLE_DRW
 62
     0
100
AcDbMText
 10
0.0
 20
11.6016096579
 30
0.0
 40
9.0
 41
0.0
 71
     1
 72
     1
  1
The reproduction, distribution and utilization of this document as well as the communication of its contents to
  7
SLDTEXTSTYLE0
 73
     1
 44
1.0
  0
MTEXT
  5
C3
330
BF
100
AcDbEntity
  8
TABLE_DRW
 62
     0
100
AcDbMText
 10
0.0
 20
0.0016098055
 30
0.0
 40
9.0
 41
0.0
 71
     1
 72
     1
  1
others without express authorization is prohibited. Offenders will be held liable for the payment of damages.
  7
SLDTEXTSTYLE0
 73
     1
 44
1.0
  0
MTEXT
  5
C4
330
BF
100
AcDbEntity
  8
TABLE_DRW
 62
     0
100
AcDbMText
 10
0.0
 20
-11.598390047
 30
0.0
 40
9.0
 41
0.0
 71
     1
 72
     1
  1
All rights reserved in the event of the grant of a patent, utility model or design. Observe copyright by ISO 16016
  7
SLDTEXTSTYLE0
 73
     1
 44
1.0
  0
ENDBLK
  5
C1
330
BF
100
AcDbEntity
  8
0
100
AcDbBlockEnd
  0
BLOCK
  5
E9
330
E8
100
AcDbEntity
  8
0
100
AcDbBlockBegin
  2
SW_NOTE_0_1
 70
     0
 10
0.0
 20
0.0
 30
0.0
  3
SW_NOTE_0_1
  1

  0
MTEXT
  5
EB
330
E8
100
AcDbEntity
  8
MARKETING_DRW
 62
     0
100
AcDbMText
 10
0.0
 20
11.6016096579
 30
0.0
 40
9.0
 41
0.0
 71
     1
 72
     1
  1
The reproduction, distribution and utilization of this document as well as the communication of its contents to
  7
SLDTEXTSTYLE0
 73
     1
 44
1.0
  0
MTEXT
  5
EC
330
E8
100
AcDbEntity
  8
MARKETING_DRW
 62
     0
100
AcDbMText
 10
0.0
 20
-0.0233903849
 30
0.0
 40
9.0
 41
0.0
 71
     1
 72
     1
  1
others without express authorization is prohibited. Offenders will be held liable for the payment of damages.
  7
SLDTEXTSTYLE0
 73
     1
 44
1.0
  0
MTEXT
  5
ED
330
E8
100
AcDbEntity
  8
MARKETING_DRW
 62
     0
100
AcDbMText
 10
0.0
 20
-11.6483904277
 30
0.0
 40
9.0
 41
0.0
 71
     1
 72
     1
  1
All rights reserved in the event of the grant of a patent, utility model or design. Observe copyright by ISO 16016
  7
SLDTEXTSTYLE0
 73
     1
 44
1.0
  0
ENDBLK
  5
EA
330
E8
100
AcDbEntity
  8
0
100
AcDbBlockEnd
  0
ENDSEC
  0
SECTION
  2
ENTITIES
  0
LINE
  5
7C
330
1F
100
AcDbEntity
  8
TABLE_DRW
  6
CENTERX2
 62
     7
100
AcDbLine
 10
1955.0
 20
200.0
 30
0.0
 11
1980.0
 21
200.0
 31
0.0
  0
LINE
  5
7D
330
1F
100
AcDbEntity
  8
TABLE_DRW
  6
CENTERX2
 62
     7
100
AcDbLine
 10
1967.5
 20
212.5
 30
0.0
 11
1967.5
 21
187.5
 31
0.0
  0
LINE
  5
7E
330
1F
100
AcDbEntity
  8
TABLE_DRW
  6
CENTERX2
 62
     7
100
AcDbLine
 10
1915.0
 20
200.0
 30
0.0
 11
1950.0
 21
200.0
 31
0.0
  0
LINE
  5
7F
330
1F
100
AcDbEntity
  8
TABLE_DRW
 62
     7
100
AcDbLine
 10
1920.0
 20
194.95
 30
0.0
 11
1945.0
 21
190.0
 31
0.0
  0
LINE
  5
80
330
1F
100
AcDbEntity
  8
TABLE_DRW
 62
     7
100
AcDbLine
 10
1920.0
 20
205.05
 30
0.0
 11
1920.0
 21
194.95
 31
0.0
  0
LINE
  5
81
330
1F
100
AcDbEntity
  8
TABLE_DRW
 62
     7
100
AcDbLine
 10
1945.0
 20
210.0
 30
0.0
 11
1920.0
 21
205.05
 31
0.0
  0
LINE
  5
82
330
1F
100
AcDbEntity
  8
TABLE_DRW
 62
     7
100
AcDbLine
 10
1945.0
 20
190.0
 30
0.0
 11
1945.0
 21
210.0
 31
0.0
  0
LINE
  5
83
330
1F
100
AcDbEntity
  8
TABLE_DRW
 62
     7
100
AcDbLine
 10
2050.0
 20
50.0
 30
0.0
 11
2050.0
 21
340.0
 31
0.0
  0
LINE
  5
84
330
1F
100
AcDbEntity
  8
TABLE_DRW
 62
     7
100
AcDbLine
 10
1150.0
 20
340.0
 30
0.0
 11
1150.0
 21
50.0
 31
0.0
  0
LINE
  5
85
330
1F
100
AcDbEntity
  8
TABLE_DRW
 62
     7
100
AcDbLine
 10
1700.0
 20
95.0
 30
0.0
 11
1700.0
 21
50.0
 31
0.0
  0
LINE
  5
86
330
1F
100
AcDbEntity
  8
TABLE_DRW
 62
     7
100
AcDbLine
 10
1850.0
 20
50.0
 30
0.0
 11
1850.0
 21
95.0
 31
0.0
  0
LINE
  5
87
330
1F
100
AcDbEntity
  8
TABLE_DRW
 62
     7
100
AcDbLine
 10
2000.0
 20
95.0
 30
0.0
 11
2000.0
 21
50.0
 31
0.0
  0
LINE
  5
88
330
1F
100
AcDbEntity
  8
TABLE_DRW
 62
     7
100
AcDbLine
 10
1900.0
 20
320.0
 30
0.0
 11
1900.0
 21
185.0
 31
0.0
  0
LINE
  5
89
330
1F
100
AcDbEntity
  8
TABLE_DRW
 62
     7
100
AcDbLine
 10
2050.0
 20
320.0
 30
0.0
 11
1150.0
 21
320.0
 31
0.0
  0
LINE
  5
8A
330
1F
100
AcDbEntity
  8
TABLE_DRW
 62
     7
100
AcDbLine
 10
1800.0
 20
95.0
 30
0.0
 11
1800.0
 21
50.0
 31
0.0
  0
LINE
  5
8B
330
1F
100
AcDbEntity
  8
TABLE_DRW
 62
     7
100
AcDbLine
 10
2050.0
 20
275.0
 30
0.0
 11
1400.0
 21
275.0
 31
0.0
  0
LINE
  5
8C
330
1F
100
AcDbEntity
  8
TABLE_DRW
 62
     7
100
AcDbLine
 10
1650.0
 20
230.0
 30
0.0
 11
1650.0
 21
185.0
 31
0.0
  0
LINE
  5
8D
330
1F
100
AcDbEntity
  8
TABLE_DRW
 62
     7
100
AcDbLine
 10
2050.0
 20
230.0
 30
0.0
 11
1400.0
 21
230.0
 31
0.0
  0
LINE
  5
8E
330
1F
100
AcDbEntity
  8
TABLE_DRW
 62
     7
100
AcDbLine
 10
1400.0
 20
320.0
 30
0.0
 11
1400.0
 21
185.0
 31
0.0
  0
LINE
  5
8F
330
1F
100
AcDbEntity
  8
TABLE_DRW
 62
     7
100
AcDbLine
 10
2000.0
 20
230.0
 30
0.0
 11
2000.0
 21
185.0
 31
0.0
  0
LINE
  5
90
330
1F
100
AcDbEntity
  8
TABLE_DRW
 62
     7
100
AcDbLine
 10
2050.0
 20
95.0
 30
0.0
 11
1150.0
 21
95.0
 31
0.0
  0
LINE
  5
91
330
1F
100
AcDbEntity
  8
TABLE_DRW
 62
     7
100
AcDbLine
 10
1650.0
 20
275.0
 30
0.0
 11
1650.0
 21
320.0
 31
0.0
  0
LINE
  5
92
330
1F
100
AcDbEntity
  8
TABLE_DRW
 62
     7
100
AcDbLine
 10
1150.0
 20
340.0
 30
0.0
 11
2050.0
 21
340.0
 31
0.0
  0
LINE
  5
93
330
1F
100
AcDbEntity
  8
TABLE_DRW
 62
     7
100
AcDbLine
 10
1150.0
 20
185.0
 30
0.0
 11
2050.0
 21
185.0
 31
0.0
  0
LINE
  5
94
330
1F
100
AcDbEntity
  8
TABLE_DRW
 62
     7
100
AcDbLine
 10
1150.0
 20
50.0
 30
0.0
 11
2050.0
 21
50.0
 31
0.0
  0
LINE
  5
95
330
1F
100
AcDbEntity
  8
TABLE_DRW
 62
     7
100
AcDbLine
 10
1400.0
 20
275.0
 30
0.0
 11
1150.0
 21
275.0
 31
0.0
  0
LINE
  5
96
330
1F
100
AcDbEntity
  8
MARKETING_DRW
  6
CENTERX2
100
AcDbLine
 10
1955.0
 20
200.0
 30
0.0
 11
1980.0
 21
200.0
 31
0.0
  0
LINE
  5
97
330
1F
100
AcDbEntity
  8
MARKETING_DRW
  6
CENTERX2
100
AcDbLine
 10
1967.5
 20
212.5
 30
0.0
 11
1967.5
 21
187.5
 31
0.0
  0
LINE
  5
98
330
1F
100
AcDbEntity
  8
MARKETING_DRW
  6
CENTERX2
100
AcDbLine
 10
1915.0
 20
200.0
 30
0.0
 11
1950.0
 21
200.0
 31
0.0
  0
LINE
  5
99
330
1F
100
AcDbEntity
  8
MARKETING_DRW
100
AcDbLine
 10
1920.0
 20
194.95
 30
0.0
 11
1945.0
 21
190.0
 31
0.0
  0
LINE
  5
9A
330
1F
100
AcDbEntity
  8
MARKETING_DRW
100
AcDbLine
 10
1920.0
 20
205.05
 30
0.0
 11
1920.0
 21
194.95
 31
0.0
  0
LINE
  5
9B
330
1F
100
AcDbEntity
  8
MARKETING_DRW
100
AcDbLine
 10
1945.0
 20
210.0
 30
0.0
 11
1920.0
 21
205.05
 31
0.0
  0
LINE
  5
9C
330
1F
100
AcDbEntity
  8
MARKETING_DRW
100
AcDbLine
 10
1945.0
 20
190.0
 30
0.0
 11
1945.0
 21
210.0
 31
0.0
  0
LINE
  5
9D
330
1F
100
AcDbEntity
  8
MARKETING_DRW
100
AcDbLine
 10
2050.0
 20
50.0
 30
0.0
 11
2050.0
 21
230.0
 31
0.0
  0
LINE
  5
9E
330
1F
100
AcDbEntity
  8
MARKETING_DRW
100
AcDbLine
 10
1150.0
 20
50.0
 30
0.0
 11
2050.0
 21
50.0
 31
0.0
  0
LINE
  5
9F
330
1F
100
AcDbEntity
  8
MARKETING_DRW
100
AcDbLine
 10
1150.0
 20
275.0
 30
0.0
 11
1150.0
 21
50.0
 31
0.0
  0
LINE
  5
A0
330
1F
100
AcDbEntity
  8
MARKETING_DRW
100
AcDbLine
 10
1150.0
 20
275.0
 30
0.0
 11
1650.0
 21
275.0
 31
0.0
  0
LINE
  5
A1
330
1F
100
AcDbEntity
  8
MARKETING_DRW
 62
     7
100
AcDbLine
 10
1850.0
 20
50.0
 30
0.0
 11
1850.0
 21
95.0
 31
0.0
  0
LINE
  5
A2
330
1F
100
AcDbEntity
  8
MARKETING_DRW
100
AcDbLine
 10
2000.0
 20
95.0
 30
0.0
 11
2000.0
 21
50.0
 31
0.0
  0
LINE
  5
A3
330
1F
100
AcDbEntity
  8
MARKETING_DRW
100
AcDbLine
 10
1650.0
 20
275.0
 30
0.0
 11
1650.0
 21
230.0
 31
0.0
  0
LINE
  5
A4
330
1F
100
AcDbEntity
  8
MARKETING_DRW
100
AcDbLine
 10
2050.0
 20
230.0
 30
0.0
 11
1400.0
 21
230.0
 31
0.0
  0
LINE
  5
A5
330
1F
100
AcDbEntity
  8
MARKETING_DRW
100
AcDbLine
 10
1400.0
 20
275.0
 30
0.0
 11
1400.0
 21
185.0
 31
0.0
  0
LINE
  5
A6
330
1F
100
AcDbEntity
  8
MARKETING_DRW
100
AcDbLine
 10
2000.0
 20
230.0
 30
0.0
 11
2000.0
 21
185.0
 31
0.0
  0
LINE
  5
A7
330
1F
100
AcDbEntity
  8
MARKETING_DRW
100
AcDbLine
 10
2050.0
 20
95.0
 30
0.0
 11
1150.0
 21
95.0
 31
0.0
  0
LINE
  5
A8
330
1F
100
AcDbEntity
  8
MARKETING_DRW
100
AcDbLine
 10
1150.0
 20
185.0
 30
0.0
 11
2050.0
 21
185.0
 31
0.0
  0
LINE
  5
A9
330
1F
100
AcDbEntity
  8
MARKETING_DRW
100
AcDbLine
 10
1150.0
 20
50.0
 30
0.0
 11
2050.0
 21
50.0
 31
0.0
  0
LINE
  5
AA
330
1F
100
AcDbEntity
  8
MARKETING_DRW
100
AcDbLine
 10
1900.0
 20
230.0
 30
0.0
 11
1900.0
 21
185.0
 31
0.0
  0
LINE
  5
AB
330
1F
100
AcDbEntity
  8
MARKETING_DRW
100
AcDbLine
 10
1650.0
 20
275.0
 30
0.0
 11
1900.0
 21
275.0
 31
0.0
  0
LINE
  5
AC
330
1F
100
AcDbEntity
  8
MARKETING_DRW
100
AcDbLine
 10
1900.0
 20
275.0
 30
0.0
 11
1900.0
 21
230.0
 31
0.0
  0
LINE
  5
AD
330
1F
100
AcDbEntity
  8
MARKETING_DRW
100
AcDbLine
 10
1900.0
 20
275.0
 30
0.0
 11
2050.0
 21
275.0
 31
0.0
  0
LINE
  5
AE
330
1F
100
AcDbEntity
  8
MARKETING_DRW
100
AcDbLine
 10
2050.0
 20
275.0
 30
0.0
 11
2050.0
 21
230.0
 31
0.0
  0
LINE
  5
AF
330
1F
100
AcDbEntity
  8
MARKETING_DRW
100
AcDbLine
 10
1825.0
 20
275.0
 30
0.0
 11
1825.0
 21
230.0
 31
0.0
  0
LINE
  5
B0
330
1F
100
AcDbEntity
  8
MARKETING_DRW
100
AcDbLine
 10
1650.0
 20
230.0
 30
0.0
 11
1650.0
 21
185.0
 31
0.0
  0
CIRCLE
  5
B1
330
1F
100
AcDbEntity
  8
TABLE_DRW
 62
     7
100
AcDbCircle
 10
1967.5
 20
200.0
 30
0.0
 40
5.000000000000224
  0
CIRCLE
  5
B2
330
1F
100
AcDbEntity
  8
TABLE_DRW
 62
     7
100
AcDbCircle
 10
1967.5
 20
200.0
 30
0.0
 40
10.00000000000024
  0
CIRCLE
  5
B3
330
1F
100
AcDbEntity
  8
MARKETING_DRW
100
AcDbCircle
 10
1967.5
 20
200.0
 30
0.0
 40
5.000000000000224
  0
CIRCLE
  5
B4
330
1F
100
AcDbEntity
  8
MARKETING_DRW
100
AcDbCircle
 10
1967.5
 20
200.0
 30
0.0
 40
10.00000000000024
  0
MTEXT
  5
B6
330
1F
100
AcDbEntity
  8
TABLE_DRW
100
AcDbMText
 10
1905.0
 20
294.9675136777
 30
0.0
 40
12.5
 41
0.0
 71
     1
 72
     1
  1
see table
  7
SLDTEXTSTYLE0
 73
     1
 44
1.0
  0
MTEXT
  5
B7
330
1F
100
AcDbEntity
  8
TABLE_DRW
100
AcDbMText
 10
1155.0
 20
334.9766099061
 30
0.0
 40
9.0
 41
0.0
 71
     1
 72
     1
  1
modification:
  7
SLDTEXTSTYLE0
 73
     1
 44
1.0
  0
MTEXT
  5
B8
330
1F
100
AcDbEntity
  8
TABLE_DRW
100
AcDbMText
 10
1405.0
 20
249.9675136777
 30
0.0
 40
12.5
 41
0.0
 71
     1
 72
     1
  1
see table
  7
SLDTEXTSTYLE0
 73
     1
 44
1.0
  0
MTEXT
  5
B9
330
1F
100
AcDbEntity
  8
TABLE_DRW
100
AcDbMText
 10
1155.0
 20
159.9675136777
 30
0.0
 40
12.5
 41
0.0
 71
     1
 72
     1
  1
ACO ShowerDrain
  7
SLDTEXTSTYLE0
 73
     1
 44
1.0
  0
MTEXT
  5
BA
330
1F
100
AcDbEntity
  8
TABLE_DRW
100
AcDbMText
 10
1824.7395830229
 20
69.9675136777
 30
0.0
 40
12.5
 41
0.0
 71
     2
 72
     1
  1
001
  7
SLDTEXTSTYLE0
 73
     1
 44
1.0
  0
MTEXT
  5
BB
330
1F
100
AcDbEntity
  8
TABLE_DRW
100
AcDbMText
 10
1749.0407964215
 20
69.9675136777
 30
0.0
 40
12.5
 41
0.0
 71
     2
 72
     1
  1
1088283-O
  7
SLDTEXTSTYLE0
 73
     1
 44
1.0
  0
MTEXT
  5
BC
330
1F
100
AcDbEntity
  8
TABLE_DRW
100
AcDbMText
 10
1155.0
 20
295.0022357116
 30
0.0
 40
12.5
 41
0.0
 71
     1
 72
     1
  1
Bohms, Michael
  7
SLDTEXTSTYLE0
 73
     1
 44
1.0
  0
MTEXT
  5
BD
330
1F
100
AcDbEntity
  8
TABLE_DRW
100
AcDbMText
 10
1155.0
 20
137.4675136777
 30
0.0
 40
12.5
 41
0.0
 71
     1
 72
     1
  1
ASM Shower Channel C with WA and gap, with DN40 side outlet, with FAT GV25 L1180, International
  7
SLDTEXTSTYLE0
 73
     1
 44
1.0
  0
MTEXT
  5
BE
330
1F
100
AcDbEntity
  8
TABLE_DRW
100
AcDbMText
 10
1155.0
 20
114.9675136777
 30
0.0
 40
12.5
 41
0.0
 71
     1
 72
     1
  1
ZB Duschrinne C mit Spalt, mit Wandaufkantung, mit DN40 Seite Auslass, mit FAT GV25 L1180, International
  7
SLDTEXTSTYLE0
 73
     1
 44
1.0
  0
INSERT
  5
C5
330
1F
100
AcDbEntity
  8
TABLE_DRW
100
AcDbBlockReference
  2
SW_NOTE_0
 10
1155.0
 20
78.4000001475
 30
0.0
  0
MTEXT
  5
C6
330
1F
100
AcDbEntity
  8
TABLE_DRW
100
AcDbMText
 10
1405.0
 20
224.9766099061
 30
0.0
 40
9.0
 41
0.0
 71
     1
 72
     1
  1
created by:
  7
SLDTEXTSTYLE0
 73
     1
 44
1.0
  0
MTEXT
  5
C7
330
1F
100
AcDbEntity
  8
TABLE_DRW
100
AcDbMText
 10
1655.0
 20
314.9766099061
 30
0.0
 40
9.0
 41
0.0
 71
     1
 72
     1
  1
surface:
  7
SLDTEXTSTYLE0
 73
     1
 44
1.0
  0
MTEXT
  5
C8
330
1F
100
AcDbEntity
  8
TABLE_DRW
100
AcDbMText
 10
2024.8750000875
 20
224.9766099061
 30
0.0
 40
9.0
 41
0.0
 71
     2
 72
     1
  1
scale:
  7
SLDTEXTSTYLE0
 73
     1
 44
1.0
  0
MTEXT
  5
C9
330
1F
100
AcDbEntity
  8
TABLE_DRW
100
AcDbMText
 10
1905.0
 20
314.9766099061
 30
0.0
 40
9.0
 41
0.0
 71
     1
 72
     1
  1
weight:
  7
SLDTEXTSTYLE0
 73
     1
 44
1.0
  0
MTEXT
  5
CA
330
1F
100
AcDbEntity
  8
TABLE_DRW
100
AcDbMText
 10
1749.034373872
 20
89.9766099061
 30
0.0
 40
9.0
 41
0.0
 71
     2
 72
     1
  1
drawing-no.:
  7
SLDTEXTSTYLE0
 73
     1
 44
1.0
  0
MTEXT
  5
CB
330
1F
100
AcDbEntity
  8
TABLE_DRW
100
AcDbMText
 10
1905.0
 20
269.9766099061
 30
0.0
 40
9.0
 41
0.0
 71
     1
 72
     1
  1
documenttype:
  7
SLDTEXTSTYLE0
 73
     1
 44
1.0
  0
MTEXT
  5
CC
330
1F
100
AcDbEntity
  8
TABLE_DRW
100
AcDbMText
 10
1824.8125000894
 20
89.9766099061
 30
0.0
 40
9.0
 41
0.0
 71
     2
 72
     1
  1
index:
  7
SLDTEXTSTYLE0
 73
     1
 44
1.0
  0
MTEXT
  5
CD
330
1F
100
AcDbEntity
  8
TABLE_DRW
100
AcDbMText
 10
1655.0
 20
224.9766099061
 30
0.0
 40
9.0
 41
0.0
 71
     1
 72
     1
  1
reviewed by:
  7
SLDTEXTSTYLE0
 73
     1
 44
1.0
  0
MTEXT
  5
CE
330
1F
100
AcDbEntity
  8
TABLE_DRW
100
AcDbMText
 10
1855.0
 20
89.9766099061
 30
0.0
 40
9.0
 41
0.0
 71
     1
 72
     1
  1
release date:
  7
SLDTEXTSTYLE0
 73
     1
 44
1.0
  0
MTEXT
  5
CF
330
1F
100
AcDbEntity
  8
TABLE_DRW
100
AcDbMText
 10
2024.7500000913
 20
89.9766099061
 30
0.0
 40
9.0
 41
0.0
 71
     2
 72
     1
  1
sheet:
  7
SLDTEXTSTYLE0
 73
     1
 44
1.0
  0
MTEXT
  5
D0
330
1F
100
AcDbEntity
  8
TABLE_DRW
100
AcDbMText
 10
1905.0
 20
224.9766099061
 30
0.0
 40
9.0
 41
0.0
 71
     1
 72
     1
  1
projection:ISO-E
  7
SLDTEXTSTYLE0
 73
     1
 44
1.0
  0
MTEXT
  5
D1
330
1F
100
AcDbEntity
  8
TABLE_DRW
100
AcDbMText
 10
1405.0
 20
269.9766099061
 30
0.0
 40
9.0
 41
0.0
 71
     1
 72
     1
  1
material:
  7
SLDTEXTSTYLE0
 73
     1
 44
1.0
  0
MTEXT
  5
D2
330
1F
100
AcDbEntity
  8
TABLE_DRW
100
AcDbMText
 10
1905.0
 20
249.9675136777
 30
0.0
 40
12.5
 41
0.0
 71
     1
 72
     1
  1
production drw.
  7
SLDTEXTSTYLE0
 73
     1
 44
1.0
  0
MTEXT
  5
D3
330
1F
100
AcDbEntity
  8
TABLE_DRW
100
AcDbMText
 10
1405.0
 20
314.9766099061
 30
0.0
 40
9.0
 41
0.0
 71
     1
 72
     1
  1
general tolerance:
  7
SLDTEXTSTYLE0
 73
     1
 44
1.0
  0
MTEXT
  5
D4
330
1F
100
AcDbEntity
  8
TABLE_DRW
100
AcDbMText
 10
2024.7829862405
 20
204.9675136777
 30
0.0
 40
12.5
 41
0.0
 71
     2
 72
     1
  1
1:5
  7
SLDTEXTSTYLE0
 73
     1
 44
1.0
  0
MTEXT
  5
D5
330
1F
100
AcDbEntity
  8
TABLE_DRW
100
AcDbMText
 10
2024.7829862405
 20
69.9675136777
 30
0.0
 40
12.5
 41
0.0
 71
     2
 72
     1
  1
1/1
  7
SLDTEXTSTYLE0
 73
     1
 44
1.0
  0
MTEXT
  5
D6
330
1F
100
AcDbEntity
  8
TABLE_DRW
100
AcDbMText
 10
1155.0
 20
314.9766099061
 30
0.0
 40
9.0
 41
0.0
 71
     1
 72
     1
  1
technical reference:
  7
SLDTEXTSTYLE0
 73
     1
 44
1.0
  0
MTEXT
  5
D7
330
1F
100
AcDbEntity
  8
TABLE_DRW
100
AcDbMText
 10
1155.0
 20
179.9766099061
 30
0.0
 40
9.0
 41
0.0
 71
     1
 72
     1
  1
title:
  7
SLDTEXTSTYLE0
 73
     1
 44
1.0
  0
MTEXT
  5
D8
330
1F
100
AcDbEntity
  8
MARKETING_DRW
100
AcDbMText
 10
1155.0
 20
114.9675136777
 30
0.0
 40
12.5
 41
0.0
 71
     1
 72
     1
  1
ZB Duschrinne C mit Spalt, mit Wandaufkantung, mit DN40 Seite Auslass, mit FAT GV25 L1180, International
  7
SLDTEXTSTYLE0
 73
     1
 44
1.0
  0
MTEXT
  5
D9
330
1F
100
AcDbEntity
  8
MARKETING_DRW
100
AcDbMText
 10
1155.0
 20
137.4675136777
 30
0.0
 40
12.5
 41
0.0
 71
     1
 72
     1
  1
ASM Shower Channel C with WA and gap, with DN40 side outlet, with FAT GV25 L1180, International
  7
SLDTEXTSTYLE0
 73
     1
 44
1.0
  0
MTEXT
  5
DA
330
1F
100
AcDbEntity
  8
MARKETING_DRW
100
AcDbMText
 10
1736.5407964215
 20
249.9675136777
 30
0.0
 40
12.5
 41
0.0
 71
     2
 72
     1
  1
1088283-O
  7
SLDTEXTSTYLE0
 73
     1
 44
1.0
  0
MTEXT
  5
DB
330
1F
100
AcDbEntity
  8
MARKETING_DRW
100
AcDbMText
 10
1862.2395830229
 20
252.0971433073
 30
0.0
 40
12.5
 41
0.0
 71
     2
 72
     1
  1
001
  7
SLDTEXTSTYLE0
 73
     1
 44
1.0
  0
MTEXT
  5
DC
330
1F
100
AcDbEntity
  8
MARKETING_DRW
100
AcDbMText
 10
1155.0
 20
159.9675136777
 30
0.0
 40
12.5
 41
0.0
 71
     1
 72
     1
  1
ACO ShowerDrain
  7
SLDTEXTSTYLE0
 73
     1
 44
1.0
  0
MTEXT
  5
DD
330
1F
100
AcDbEntity
  8
MARKETING_DRW
100
AcDbMText
 10
1905.0
 20
269.9766099061
 30
0.0
 40
9.0
 41
0.0
 71
     1
 72
     1
  1
documenttype:
  7
SLDTEXTSTYLE0
 73
     1
 44
1.0
  0
MTEXT
  5
DE
330
1F
100
AcDbEntity
  8
MARKETING_DRW
100
AcDbMText
 10
1655.0
 20
224.9766099061
 30
0.0
 40
9.0
 41
0.0
 71
     1
 72
     1
  1
reviewed by:
  7
SLDTEXTSTYLE0
 73
     1
 44
1.0
  0
MTEXT
  5
DF
330
1F
100
AcDbEntity
  8
MARKETING_DRW
100
AcDbMText
 10
1736.534373872
 20
270.0578764559
 30
0.0
 40
9.0
 41
0.0
 71
     2
 72
     1
  1
drawing-no.:
  7
SLDTEXTSTYLE0
 73
     1
 44
1.0
  0
MTEXT
  5
E0
330
1F
100
AcDbEntity
  8
MARKETING_DRW
100
AcDbMText
 10
1905.0
 20
224.9766099061
 30
0.0
 40
9.0
 41
0.0
 71
     1
 72
     1
  1
projection:ISO-E
  7
SLDTEXTSTYLE0
 73
     1
 44
1.0
  0
MTEXT
  5
E1
330
1F
100
AcDbEntity
  8
MARKETING_DRW
100
AcDbMText
 10
2024.7500000913
 20
89.9766099061
 30
0.0
 40
9.0
 41
0.0
 71
     2
 72
     1
  1
sheet:
  7
SLDTEXTSTYLE0
 73
     1
 44
1.0
  0
MTEXT
  5
E2
330
1F
100
AcDbEntity
  8
MARKETING_DRW
100
AcDbMText
 10
2024.7829862405
 20
69.9675136777
 30
0.0
 40
12.5
 41
0.0
 71
     2
 72
     1
  1
1/1
  7
SLDTEXTSTYLE0
 73
     1
 44
1.0
  0
MTEXT
  5
E3
330
1F
100
AcDbEntity
  8
MARKETING_DRW
100
AcDbMText
 10
1855.0
 20
89.9766099061
 30
0.0
 40
9.0
 41
0.0
 71
     1
 72
     1
  1
release date:
  7
SLDTEXTSTYLE0
 73
     1
 44
1.0
  0
MTEXT
  5
E4
330
1F
100
AcDbEntity
  8
MARKETING_DRW
100
AcDbMText
 10
1862.3125000894
 20
269.9766099061
 30
0.0
 40
9.0
 41
0.0
 71
     2
 72
     1
  1
index:
  7
SLDTEXTSTYLE0
 73
     1
 44
1.0
  0
MTEXT
  5
E5
330
1F
100
AcDbEntity
  8
MARKETING_DRW
100
AcDbMText
 10
1155.0
 20
179.9766099061
 30
0.0
 40
9.0
 41
0.0
 71
     1
 72
     1
  1
title:
  7
SLDTEXTSTYLE0
 73
     1
 44
1.0
  0
MTEXT
  5
E6
330
1F
100
AcDbEntity
  8
MARKETING_DRW
100
AcDbMText
 10
2024.8750000875
 20
224.9766099061
 30
0.0
 40
9.0
 41
0.0
 71
     2
 72
     1
  1
scale:
  7
SLDTEXTSTYLE0
 73
     1
 44
1.0
  0
MTEXT
  5
E7
330
1F
100
AcDbEntity
  8
MARKETING_DRW
100
AcDbMText
 10
2024.7829862405
 20
204.9675136777
 30
0.0
 40
12.5
 41
0.0
 71
     2
 72
     1
  1
1:5
  7
SLDTEXTSTYLE0
 73
     1
 44
1.0
  0
INSERT
  5
EE
330
1F
100
AcDbEntity
  8
MARKETING_DRW
100
AcDbBlockReference
  2
SW_NOTE_0_1
 10
1155.0
 20
78.3750002482
 30
0.0
  0
MTEXT
  5
EF
330
1F
100
AcDbEntity
  8
MARKETING_DRW
100
AcDbMText
 10
1905.0
 20
249.9675136777
 30
0.0
 40
12.5
 41
0.0
 71
     1
 72
     1
  1
marketing drw.
  7
SLDTEXTSTYLE0
 73
     1
 44
1.0
  0
MTEXT
  5
F0
330
1F
100
AcDbEntity
  8
MARKETING_DRW
100
AcDbMText
 10
1405.0
 20
224.9766099061
 30
0.0
 40
9.0
 41
0.0
 71
     1
 72
     1
  1
created by:
  7
SLDTEXTSTYLE0
 73
     1
 44
1.0
  0
LINE
  5
F1
330
1F
100
AcDbEntity
  8
0
  6
Continuous
 62
     7
370
    35
100
AcDbLine
 10
1522.0546682673
 20
998.6112793807
 30
0.0
 11
342.0546682673
 21
998.6112793807
 31
0.0
  0
LINE
  5
F2
330
1F
100
AcDbEntity
  8
0
  6
Continuous
 62
     7
370
    35
100
AcDbLine
 10
851.0546682673
 20
978.5197236188
 30
0.0
 11
851.0546682673
 21
975.6116793807
 31
0.0
  0
LINE
  5
F3
330
1F
100
AcDbEntity
  8
0
  6
Continuous
 62
     7
370
    35
100
AcDbLine
 10
1013.0546682673
 20
975.6116793807
 30
0.0
 11
1013.0546682673
 21
978.5197236188
 31
0.0
  0
ARC
  5
F4
330
1F
100
AcDbEntity
  8
0
  6
Continuous
 62
     7
370
    35
100
AcDbCircle
 10
849.0546682673
 20
978.513290301
 30
0.0
 40
2.00000000000007
100
AcDbArc
 50
0.1603835477
 51
88.7916387136
  0
ARC
  5
F5
330
1F
100
AcDbEntity
  8
0
  6
Continuous
 62
     7
370
    35
100
AcDbCircle
 10
1015.0546682673
 20
978.513290301
 30
0.0
 40
2.000000000000099
100
AcDbArc
 50
91.1928878275
 51
179.8251412338
  0
LINE
  5
F6
330
1F
100
AcDbEntity
  8
0
  6
Continuous
 62
     7
370
    35
100
AcDbLine
 10
1015.0138474552
 20
980.512890301
 30
0.0
 11
1522.0546682673
 21
980.512890301
 31
0.0
  0
LINE
  5
F7
330
1F
100
AcDbEntity
  8
0
  6
Continuous
 62
     7
370
    35
100
AcDbLine
 10
342.0546682673
 20
980.512890301
 30
0.0
 11
849.0954890792
 21
980.512890301
 31
0.0
  0
LINE
  5
F8
330
1F
100
AcDbEntity
  8
0
  6
Continuous
 62
     7
370
    35
100
AcDbLine
 10
1003.7462475646
 20
929.1616793807
 30
0.0
 11
1020.5546682673
 21
929.1616793807
 31
0.0
  0
LINE
  5
F9
330
1F
100
AcDbEntity
  8
0
  6
Continuous
 62
     7
370
    35
100
AcDbLine
 10
1020.5546682673
 20
969.1616793807
 30
0.0
 11
1016.9754891918
 21
969.1616793807
 31
0.0
  0
LINE
  5
FA
330
1F
100
AcDbEntity
  8
0
  6
Continuous
 62
     7
370
    35
100
AcDbLine
 10
1020.5546682673
 20
929.1616793807
 30
0.0
 11
1060.2486167251
 21
929.1616793807
 31
0.0
  0
LINE
  5
FB
330
1F
100
AcDbEntity
  8
0
  6
Continuous
 62
     7
370
    35
100
AcDbLine
 10
1060.2486167251
 20
969.1616793807
 30
0.0
 11
1020.5546682673
 21
969.1616793807
 31
0.0
  0
ARC
  5
FC
330
1F
100
AcDbEntity
  8
0
  6
Continuous
 62
     7
370
    35
100
AcDbCircle
 10
1060.248616725
 20
966.1616793807
 30
0.0
 40
3.0
100
AcDbArc
 50
78.3499964744
 51
90.0
  0
ARC
  5
FD
330
1F
100
AcDbEntity
  8
0
  6
Continuous
 62
     7
370
    35
100
AcDbCircle
 10
1060.248616725
 20
932.1616793807
 30
0.0
 40
3.000000000000114
100
AcDbArc
 50
270.0
 51
281.6500035255
  0
LINE
  5
FE
330
1F
100
AcDbEntity
  8
0
  6
Continuous
 62
     7
370
    35
100
AcDbLine
 10
1060.8544149613
 20
929.2234812088
 30
0.0
 11
1065.5546682673
 21
930.1925802948
 31
0.0
  0
LINE
  5
FF
330
1F
100
AcDbEntity
  8
0
  6
Continuous
 62
     7
370
    35
100
AcDbLine
 10
1065.5546682673
 20
968.1307784666
 30
0.0
 11
1060.8544149613
 21
969.0998775525
 31
0.0
  0
LINE
  5
100
330
1F
100
AcDbEntity
  8
0
  6
Continuous
 62
     7
370
    35
100
AcDbLine
 10
1522.0546682673
 20
986.6112793807
 30
0.0
 11
342.0546682673
 21
986.6112793807
 31
0.0
  0
LINE
  5
101
330
1F
100
AcDbEntity
  8
0
  6
Continuous
 62
     7
370
    35
100
AcDbLine
 10
1522.0546682673
 20
985.6112793807
 30
0.0
 11
1522.0546682673
 21
986.6112793807
 31
0.0
  0
LINE
  5
102
330
1F
100
AcDbEntity
  8
0
  6
Continuous
 62
     7
370
    35
100
AcDbLine
 10
342.0546682673
 20
985.6112793807
 30
0.0
 11
342.0546682673
 21
986.6112793807
 31
0.0
  0
LINE
  5
103
330
1F
100
AcDbEntity
  8
0
  6
Continuous
 62
     7
370
    35
100
AcDbLine
 10
1522.0546682673
 20
985.6112793807
 30
0.0
 11
342.0546682673
 21
985.6112793807
 31
0.0
  0
LINE
  5
104
330
1F
100
AcDbEntity
  8
0
  6
Continuous
 62
     7
370
    35
100
AcDbLine
 10
342.0546682673
 20
987.6112793807
 30
0.0
 11
342.0546682673
 21
986.6112793807
 31
0.0
  0
LINE
  5
105
330
1F
100
AcDbEntity
  8
0
  6
Continuous
 62
     7
370
    35
100
AcDbLine
 10
1522.0546682673
 20
986.6112793807
 30
0.0
 11
1522.0546682673
 21
987.6112793807
 31
0.0
  0
LINE
  5
106
330
1F
100
AcDbEntity
  8
0
  6
Continuous
 62
     7
370
    35
100
AcDbLine
 10
1522.0546682673
 20
997.1112793807
 30
0.0
 11
1522.0546682673
 21
987.6112793807
 31
0.0
  0
LINE
  5
107
330
1F
100
AcDbEntity
  8
0
  6
Continuous
 62
     7
370
    35
100
AcDbLine
 10
342.0546682673
 20
987.6112793807
 30
0.0
 11
342.0546682673
 21
997.1112793807
 31
0.0
  0
LINE
  5
108
330
1F
100
AcDbEntity
  8
0
  6
Continuous
 62
     7
370
    35
100
AcDbLine
 10
1522.0546682673
 20
998.6112793807
 30
0.0
 11
1522.0546682673
 21
997.6112793807
 31
0.0
  0
LINE
  5
109
330
1F
100
AcDbEntity
  8
0
  6
Continuous
 62
     7
370
    35
100
AcDbLine
 10
342.0546682673
 20
997.6112793807
 30
0.0
 11
342.0546682673
 21
998.6112793807
 31
0.0
  0
LINE
  5
10A
330
1F
100
AcDbEntity
  8
0
  6
Continuous
 62
     7
370
    35
100
AcDbLine
 10
1522.0546682673
 20
984.27319787
 30
0.0
 11
1522.0546682673
 21
985.6112793807
 31
0.0
  0
LINE
  5
10B
330
1F
100
AcDbEntity
  8
0
  6
Continuous
 62
     7
370
    35
100
AcDbLine
 10
342.0546682673
 20
984.27319787
 30
0.0
 11
342.0546682673
 21
985.6112793807
 31
0.0
  0
LINE
  5
10C
330
1F
100
AcDbEntity
  8
0
  6
Continuous
 62
     7
370
    35
100
AcDbLine
 10
342.0546682673
 20
983.5132636623
 30
0.0
 11
342.0546682673
 21
984.27319787
 31
0.0
  0
LINE
  5
10D
330
1F
100
AcDbEntity
  8
0
  6
Continuous
 62
     7
370
    35
100
AcDbLine
 10
1522.0546682673
 20
983.5132636623
 30
0.0
 11
1522.0546682673
 21
984.27319787
 31
0.0
  0
SPLINE
  5
10E
330
1F
100
AcDbEntity
  8
0
  6
Continuous
 62
     7
370
    35
100
AcDbSpline
210
0.0
220
0.0
230
1.0
 70
     8
 71
     3
 72
    14
 73
    10
 74
     0
 42
0.000000001
 43
0.00000001
 40
0.0
 40
0.0
 40
0.0
 40
0.0
 40
0.25
 40
0.25
 40
0.5
 40
0.5
 40
0.75
 40
0.75
 40
1.0
 40
1.0
 40
1.0
 40
1.0
 10
1015.013844375979
 20
980.5161069598971
 30
0.0
 10
1014.98862028043
 20
980.7053542860464
 30
0.0
 10
1014.402443800045
 20
980.8942739000545
 30
0.0
 10
1012.171052462
 20
981.2510109491815
 30
0.0
 10
1010.526794879113
 20
981.418666287379
 30
0.0
 10
1006.358266294452
 20
981.7143231753548
 30
0.0
 10
1003.835765417069
 20
981.8421923576497
 30
0.0
 10
998.1878030477818
 20
982.0440184222234
 30
0.0
 10
995.0648118922106
 20
982.1178843415895
 30
0.0
 10
991.8129021486693
 20
982.1606403899925
 30
0.0
  0
SPLINE
  5
10F
330
1F
100
AcDbEntity
  8
0
  6
Continuous
 62
     7
370
    35
100
AcDbSpline
210
0.0
220
0.0
230
1.0
 70
     8
 71
     3
 72
    16
 73
    12
 74
     0
 42
0.000000001
 43
0.00000001
 40
0.0
 40
0.0
 40
0.0
 40
0.0
 40
0.0624999999999992
 40
0.0624999999999992
 40
0.1249999999999984
 40
0.1249999999999984
 40
0.2499999999999969
 40
0.2499999999999969
 40
0.4999999999999969
 40
0.4999999999999969
 40
1.0
 40
1.0
 40
1.0
 40
1.0
 10
991.8129021486133
 20
982.1606403899779
 30
0.0
 10
991.6744369796525
 20
982.1624609274259
 30
0.0
 10
991.534017144593
 20
982.163135645853
 30
0.0
 10
991.253179915936
 20
982.1644865138843
 30
0.0
 10
991.1125434563274
 20
982.1650342476928
 30
0.0
 10
990.6905042641778
 20
982.1666013529631
 30
0.0
 10
990.4089546502865
 20
982.1675073122361
 30
0.0
 10
989.564287198063
 20
982.1700232480697
 30
0.0
 10
989.0009692392812
 20
982.1713993183992
 30
0.0
 10
987.3104668433323
 20
982.1747267247002
 30
0.0
 10
986.1825807757706
 20
982.1758517000416
 30
0.0
 10
985.0546682672936
 20
982.1758517000416
 30
0.0
  0
LINE
  5
110
330
1F
100
AcDbEntity
  8
0
  6
Continuous
 62
     7
370
    35
100
AcDbLine
 10
985.0546682673
 20
982.1758517
 30
0.0
 11
879.0546682673
 21
982.1758517
 31
0.0
  0
SPLINE
  5
111
330
1F
100
AcDbEntity
  8
0
  6
Continuous
 62
     7
370
    35
100
AcDbSpline
210
0.0
220
0.0
230
1.0
 70
     8
 71
     3
 72
    16
 73
    12
 74
     0
 42
0.000000001
 43
0.00000001
 40
0.0
 40
0.0
 40
0.0
 40
0.0
 40
0.499999999999997
 40
0.499999999999997
 40
0.749999999999997
 40
0.749999999999997
 40
0.8749999999999986
 40
0.8749999999999986
 40
0.9374999999999992
 40
0.9374999999999992
 40
1.0
 40
1.0
 40
1.0
 40
1.0
 10
879.0546682672936
 20
982.1758517000416
 30
0.0
 10
877.9267182456288
 20
982.1758517000416
 30
0.0
 10
876.7991765154763
 20
982.1747272221891
 30
0.0
 10
875.1084597405305
 20
982.1713995535605
 30
0.0
 10
874.5449725836226
 20
982.1700230764106
 30
0.0
 10
873.70019148154
 20
982.1675067166099
 30
0.0
 10
873.4186521472768
 20
982.1666007617877
 30
0.0
 10
872.9965785575612
 20
982.1650334122764
 30
0.0
 10
872.855899570739
 20
982.1644854658484
 30
0.0
 10
872.5750610547694
 20
982.1631342144746
 30
0.0
 10
872.4346437796542
 20
982.1624575644975
 30
0.0
 10
872.2964343859737
 20
982.1606403899779
 30
0.0
  0
SPLINE
  5
112
330
1F
100
AcDbEntity
  8
0
  6
Continuous
 62
     7
370
    35
100
AcDbSpline
210
0.0
220
0.0
230
1.0
 70
     8
 71
     3
 72
    14
 73
    10
 74
     0
 42
0.000000001
 43
0.00000001
 40
0.0
 40
0.0
 40
0.0
 40
0.0
 40
0.25
 40
0.25
 40
0.5
 40
0.5
 40
0.75
 40
0.75
 40
1.0
 40
1.0
 40
1.0
 40
1.0
 10
872.2964343858868
 20
982.1606403899991
 30
0.0
 10
869.0445246513257
 20
982.1178843417141
 30
0.0
 10
865.9215571894061
 20
982.0440193675187
 30
0.0
 10
860.2735251454834
 20
981.8421906165619
 30
0.0
 10
857.7510608762432
 20
981.7143226446151
 30
0.0
 10
853.5825345312054
 20
981.4186656486795
 30
0.0
 10
851.9382643531129
 20
981.2510080434912
 30
0.0
 10
849.7069036984745
 20
980.894275406001
 30
0.0
 10
849.1207162542418
 20
980.7053542856385
 30
0.0
 10
849.0954921587471
 20
980.5161069598965
 30
0.0
  0
LINE
  5
113
330
1F
100
AcDbEntity
  8
0
  6
Continuous
 62
     7
370
    35
100
AcDbLine
 10
851.0546682673
 20
975.6116793807
 30
0.0
 11
879.0546682673
 21
975.6116793807
 31
0.0
  0
LINE
  5
114
330
1F
100
AcDbEntity
  8
0
  6
Continuous
 62
     7
370
    35
100
AcDbLine
 10
985.0546682673
 20
975.6116793807
 30
0.0
 11
1006.2088246166
 21
975.6116793807
 31
0.0
  0
LINE
  5
115
330
1F
100
AcDbEntity
  8
0
  6
Continuous
 62
     7
370
    35
100
AcDbLine
 10
1006.8438745341
 20
975.6116793807
 30
0.0
 11
1013.0546682673
 21
975.6116793807
 31
0.0
  0
LINE
  5
116
330
1F
100
AcDbEntity
  8
0
  6
Continuous
 62
     7
370
    35
100
AcDbLine
 10
879.0546682673
 20
975.6116793807
 30
0.0
 11
985.0546682673
 21
975.6116793807
 31
0.0
  0
LINE
  5
117
330
1F
100
AcDbEntity
  8
0
  6
Continuous
 62
     7
370
    35
100
AcDbLine
 10
1522.0546682673
 20
998.6112793807
 30
0.0
 11
342.0546682673
 21
998.6112793807
 31
0.0
  0
LINE
  5
118
330
1F
100
AcDbEntity
  8
0
  6
Continuous
 62
     7
370
    35
100
AcDbLine
 10
342.0546682673
 20
999.6112793807
 30
0.0
 11
342.0546682673
 21
998.6112793807
 31
0.0
  0
LINE
  5
119
330
1F
100
AcDbEntity
  8
0
  6
Continuous
 62
     7
370
    35
100
AcDbLine
 10
1522.0546682673
 20
998.6112793807
 30
0.0
 11
1522.0546682673
 21
999.6112793807
 31
0.0
  0
LINE
  5
11A
330
1F
100
AcDbEntity
  8
0
  6
Continuous
 62
     7
370
    35
100
AcDbLine
 10
342.0546682673
 20
1029.1112793807
 30
0.0
 11
1522.0546682673
 21
1029.1112793807
 31
0.0
  0
LINE
  5
11B
330
1F
100
AcDbEntity
  8
0
  6
Continuous
 62
     7
370
    35
100
AcDbLine
 10
342.0546682673
 20
999.6112793807
 30
0.0
 11
342.0546682673
 21
1029.1112793807
 31
0.0
  0
LINE
  5
11C
330
1F
100
AcDbEntity
  8
0
  6
Continuous
 62
     7
370
    35
100
AcDbLine
 10
1522.0546682673
 20
1029.1112793807
 30
0.0
 11
1522.0546682673
 21
999.6112793807
 31
0.0
  0
ARC
  5
11D
330
1F
100
AcDbEntity
  8
0
  6
Continuous
 62
     7
370
    35
100
AcDbCircle
 10
932.0546682673
 20
949.1616793807
 30
0.0
 40
19.99999999999999
100
AcDbArc
 50
242.7578274734
 51
297.2421725266
  0
SPLINE
  5
11E
330
1F
100
AcDbEntity
  8
0
  6
Continuous
 62
     7
370
    35
100
AcDbSpline
210
0.0
220
0.0
230
1.0
 70
     8
 71
     3
 72
    23
 73
    19
 74
     0
 42
0.000000001
 43
0.00000001
 40
0.0
 40
0.0
 40
0.0
 40
0.0
 40
0.0758439674746768
 40
0.0948049593331004
 40
0.1128914355571506
 40
0.1336676542610453
 40
0.1567718346598155
 40
0.2022013669991174
 40
0.2424816341995573
 40
0.2818986298408134
 40
0.3206021944779505
 40
0.3951163817032071
 40
0.4632081862901972
 40
0.5251873670652971
 40
0.5924928344462245
 40
0.7259812554141629
 40
0.8620429027987473
 40
1.0
 40
1.0
 40
1.0
 40
1.0
 10
850.5546682672932
 20
975.6116793806783
 30
0.0
 10
850.5386637436728
 20
974.5079094406548
 30
0.0
 10
850.5186580891492
 20
973.1281970157744
 30
0.0
 10
850.5841692654993
 20
971.5288528673309
 30
0.0
 10
850.4389167866349
 20
970.622422668551
 30
0.0
 10
849.5294470064746
 20
970.2562588864384
 30
0.0
 10
848.5330256975323
 20
969.4626080039308
 30
0.0
 10
847.5365515133254
 20
968.185975466275
 30
0.0
 10
846.9542603568293
 20
966.4662503695492
 30
0.0
 10
846.3316739063347
 20
964.8742317820696
 30
0.0
 10
845.5824877566055
 20
962.7989529342223
 30
0.0
 10
844.7234011963609
 20
960.3249182926353
 30
0.0
 10
843.8146111367914
 20
957.5078838941905
 30
0.0
 10
843.2695473253724
 20
954.7020424342766
 30
0.0
 10
842.9281614209617
 20
950.9130052043772
 30
0.0
 10
843.3163826929297
 20
946.027312638323
 30
0.0
 10
844.9957782088844
 20
940.3064301899612
 30
0.0
 10
847.1428621668023
 20
936.9590783787902
 30
0.0
 10
848.2238300791596
 20
935.2738252772971
 30
0.0
  0
SPLINE
  5
11F
330
1F
100
AcDbEntity
  8
0
  6
Continuous
 62
     7
370
    35
100
AcDbSpline
210
0.0
220
0.0
230
1.0
 70
    24
 71
     3
 72
    19
 73
    15
 74
     0
 42
0.000000001
 43
0.00000001
 40
0.0
 40
0.0
 40
0.0
 40
0.0
 40
0.2409129494906415
 40
0.4882585144584842
 40
0.5391714996611934
 40
0.5899404470637034
 40
0.6400693113877657
 40
0.6899887485684968
 40
0.7400419491330559
 40
0.7904190815941281
 40
0.8413201881352518
 40
0.892967678275288
 40
0.9456873804469079
 40
0.9999999999999999
 40
0.9999999999999999
 40
0.9999999999999999
 40
0.9999999999999999
 10
932.0546682672934
 20
975.6116793806783
 30
0.0
 10
924.2086272658506
 20
975.6116793806783
 30
0.0
 10
908.3070481608482
 20
975.6116793806783
 30
0.0
 10
890.7416236410469
 20
975.6116793806783
 30
0.0
 10
879.3797348941179
 20
975.6116793806783
 30
0.0
 10
874.423969675801
 20
975.6116793806781
 30
0.0
 10
869.6396089164564
 20
975.6116793806782
 30
0.0
 10
865.156030951452
 20
975.6116793806783
 30
0.0
 10
861.0777806664813
 20
975.6116793806783
 30
0.0
 10
857.50452872347
 20
975.6116793806783
 30
0.0
 10
854.5381229790623
 20
975.6116793806783
 30
0.0
 10
852.3080967595847
 20
975.6116793806783
 30
0.0
 10
850.834786662593
 20
975.6116793806783
 30
0.0
 10
850.6489629115086
 20
975.6116793806783
 30
0.0
 10
850.5546682672932
 20
975.6116793806783
 30
0.0
  0
SPLINE
  5
120
330
1F
100
AcDbEntity
  8
0
  6
Continuous
 62
     7
370
    35
100
AcDbSpline
210
0.0
220
0.0
230
1.0
 70
    24
 71
     3
 72
    19
 73
    15
 74
     0
 42
0.000000001
 43
0.00000001
 40
0.0
 40
0.0
 40
0.0
 40
0.0
 40
0.2409129494906413
 40
0.4882585144584841
 40
0.5391714996611934
 40
0.5899404470637034
 40
0.6400693113877651
 40
0.6899887485684956
 40
0.7400419491330547
 40
0.7904190815941273
 40
0.8413201881352514
 40
0.892967678275288
 40
0.9456873804469079
 40
1.0
 40
1.0
 40
1.0
 40
1.0
 10
932.0546682672934
 20
975.6116793806783
 30
0.0
 10
939.9007092687363
 20
975.6116793806783
 30
0.0
 10
955.8022883737385
 20
975.6116793806783
 30
0.0
 10
973.36771289354
 20
975.6116793806783
 30
0.0
 10
984.729601640469
 20
975.6116793806783
 30
0.0
 10
989.6853668587858
 20
975.611679380678
 30
0.0
 10
994.4697276181305
 20
975.6116793806781
 30
0.0
 10
998.9533055831347
 20
975.6116793806783
 30
0.0
 10
1003.031555868105
 20
975.6116793806783
 30
0.0
 10
1006.604807811117
 20
975.6116793806783
 30
0.0
 10
1009.571213555524
 20
975.6116793806783
 30
0.0
 10
1011.801239775002
 20
975.6116793806782
 30
0.0
 10
1013.274549871994
 20
975.6116793806783
 30
0.0
 10
1013.460373623078
 20
975.6116793806783
 30
0.0
 10
1013.554668267294
 20
975.6116793806783
 30
0.0
  0
SPLINE
  5
121
330
1F
100
AcDbEntity
  8
0
  6
Continuous
 62
     7
370
    35
100
AcDbSpline
210
0.0
220
0.0
230
1.0
 70
     8
 71
     3
 72
    12
 73
     8
 74
     0
 42
0.000000001
 43
0.00000001
 40
0.0
 40
0.0
 40
0.0
 40
0.0
 40
0.5113573105439807
 40
0.6391966381108966
 40
0.7611397820034705
 40
0.874015237525575
 40
1.0
 40
1.0
 40
1.0
 40
1.0
 10
1013.554668267294
 20
975.6116793806783
 30
0.0
 10
1013.569374273322
 20
974.5071488706511
 30
0.0
 10
1013.587756780855
 20
973.1264857332661
 30
0.0
 10
1013.527560815192
 20
971.5302548193566
 30
0.0
 10
1013.651715614167
 20
970.6806497806047
 30
0.0
 10
1014.409018927007
 20
970.3332964202876
 30
0.0
 10
1014.816418367632
 20
970.0341233807018
 30
0.0
 10
1015.031297689898
 20
969.8763271405112
 30
0.0
  0
SPLINE
  5
122
330
1F
100
AcDbEntity
  8
0
  6
Continuous
 62
     7
370
    35
100
AcDbSpline
210
0.0
220
0.0
230
1.0
 70
     8
 71
     3
 72
    12
 73
     8
 74
     0
 42
0.000000001
 43
0.00000001
 40
0.0
 40
0.0
 40
0.0
 40
0.0
 40
0.0187022824907647
 40
0.2635054426144015
 40
0.5085219380108148
 40
0.7541594978531967
 40
1.0
 40
1.0
 40
1.0
 40
1.0
 10
1014.991894604164
 20
969.7079403028484
 30
0.0
 10
1014.991958832151
 20
969.710091758453
 30
0.0
 10
1014.992863771105
 20
969.7404046500291
 30
0.0
 10
1014.994970871283
 20
969.7902998407039
 30
0.0
 10
1015.001343632171
 20
969.8406418475606
 30
0.0
 10
1015.012192474071
 20
969.8714306654076
 30
0.0
 10
1015.024927531759
 20
969.874694532902
 30
0.0
 10
1015.031297689898
 20
969.8763271405112
 30
0.0
  0
SPLINE
  5
123
330
1F
100
AcDbEntity
  8
0
  6
Continuous
 62
     7
370
    35
100
AcDbSpline
210
0.0
220
0.0
230
1.0
 70
     8
 71
     3
 72
    13
 73
     9
 74
     0
 42
0.000000001
 43
0.00000001
 40
0.0
 40
0.0
 40
0.0
 40
0.0
 40
0.1771815196505904
 40
0.3595140594802962
 40
0.536691256885091
 40
0.7189759962167964
 40
0.85828470464849
 40
1.0
 40
1.0
 40
1.0
 40
1.0
 10
848.2238300791596
 20
935.2738252772971
 30
0.0
 10
848.7506338787748
 20
934.6275469937464
 30
0.0
 10
849.8195567152127
 20
933.3162018278877
 30
0.0
 10
851.8034325349809
 20
931.7330152883078
 30
0.0
 10
854.0226925102718
 20
930.4704941998282
 30
0.0
 10
856.2379854317998
 20
929.6780916001532
 30
0.0
 10
858.3767941841791
 20
929.2370952818806
 30
0.0
 10
859.6972214890142
 20
929.1869611246159
 30
0.0
 10
860.3630889699973
 20
929.1616793806783
 30
0.0
  0
SPLINE
  5
124
330
1F
100
AcDbEntity
  8
0
  6
Continuous
 62
     7
370
    35
100
AcDbSpline
210
0.0
220
0.0
230
1.0
 70
    24
 71
     3
 72
    19
 73
    15
 74
     0
 42
0.000000001
 43
0.00000001
 40
0.0
 40
0.0
 40
0.0
 40
0.0
 40
0.0382207566244326
 40
0.0915494292491332
 40
0.1448915828931533
 40
0.192966428175464
 40
0.2410362644725352
 40
0.2858279790996485
 40
0.3305899947618061
 40
0.3739481339232552
 40
0.4173762879190912
 40
0.6722423197123583
 40
0.9271575473554005
 40
1.0
 40
1.0
 40
1.0
 40
1.0
 10
860.3630889699973
 20
929.1616793806783
 30
0.0
 10
860.5287654455249
 20
929.1616793806783
 30
0.0
 10
860.9256070602423
 20
929.1616793806783
 30
0.0
 10
862.2982786791473
 20
929.1616793806783
 30
0.0
 10
864.3818021393774
 20
929.1616793806784
 30
0.0
 10
866.9661997206597
 20
929.1616793806783
 30
0.0
 10
869.8316168385162
 20
929.1616793806783
 30
0.0
 10
872.995695999356
 20
929.1616793806783
 30
0.0
 10
876.3349375350745
 20
929.1616793806783
 30
0.0
 10
879.8787260781729
 20
929.1616793806783
 30
0.0
 10
889.3630362945692
 20
929.1616793806783
 30
0.0
 10
904.7403762057994
 20
929.1616793806783
 30
0.0
 10
920.9267202799081
 20
929.1616793806783
 30
0.0
 10
930.0312365265961
 20
929.1616793806783
 30
0.0
 10
932.0546682672936
 20
929.1616793806783
 30
0.0
  0
SPLINE
  5
125
330
1F
100
AcDbEntity
  8
0
  6
Continuous
 62
     7
370
    35
100
AcDbSpline
210
0.0
220
0.0
230
1.0
 70
    24
 71
     3
 72
    19
 73
    15
 74
     0
 42
0.000000001
 43
0.00000001
 40
0.0
 40
0.0
 40
0.0
 40
0.0
 40
0.0382184429616672
 40
0.0907526742552612
 40
0.1448883276233771
 40
0.1924047757928808
 40
0.2410289232739622
 40
0.2852702899838303
 40
0.3305791993120212
 40
0.3733296235550273
 40
0.4174095644875299
 40
0.6721476066227443
 40
0.9271619568147013
 40
1.0
 40
1.0
 40
1.0
 40
1.0
 10
1003.74624756459
 20
929.1616793806782
 30
0.0
 10
1003.580378120417
 20
929.1616793806782
 30
0.0
 10
1003.186508185657
 20
929.1616793806782
 30
0.0
 10
1001.824700032502
 20
929.1616793806783
 30
0.0
 10
999.7472976831549
 20
929.1616793806783
 30
0.0
 10
997.1554870035677
 20
929.1616793806783
 30
0.0
 10
994.3006913886776
 20
929.1616793806783
 30
0.0
 10
991.1289508791746
 20
929.1616793806783
 30
0.0
 10
987.8013270759192
 20
929.1616793806783
 30
0.0
 10
984.2560026852238
 20
929.1616793806783
 30
0.0
 10
974.7568943800378
 20
929.1616793806783
 30
0.0
 10
959.3767005151128
 20
929.1616793806783
 30
0.0
 10
943.1855364937328
 20
929.1616793806783
 30
0.0
 10
934.0780523727952
 20
929.1616793806783
 30
0.0
 10
932.0546682672936
 20
929.1616793806783
 30
0.0
  0
LINE
  5
126
330
1F
100
AcDbEntity
  8
0
  6
Continuous
 62
     7
370
    35
100
AcDbLine
 10
1020.5546682673
 20
969.1616793807
 30
0.0
 11
1020.5546682673
 21
929.1616793807
 31
0.0
  0
SPLINE
  5
127
330
1F
100
AcDbEntity
  8
0
  6
Continuous
 62
     7
370
    35
100
AcDbSpline
210
0.0
220
0.0
230
1.0
 70
     8
 71
     3
 72
    10
 73
     6
 74
     0
 42
0.000000001
 43
0.00000001
 40
0.0
 40
0.0
 40
0.0
 40
0.0
 40
0.4996662810518022
 40
0.9790557875043399
 40
1.0
 40
1.0
 40
1.0
 40
1.0
 10
1015.031297689896
 20
969.8763271405089
 30
0.0
 10
1015.322702241144
 20
969.675489952792
 30
0.0
 10
1015.893685962125
 20
969.2819656778172
 30
0.0
 10
1016.609916220866
 20
969.1635280236937
 30
0.0
 10
1016.960800985185
 20
969.1617536565487
 30
0.0
 10
1016.97548919185
 20
969.1616793806783
 30
0.0
  0
LINE
  5
128
330
1F
100
AcDbEntity
  8
0
  6
Continuous
 62
     7
370
    35
100
AcDbLine
 10
879.0546682673
 20
978.6616793807
 30
0.0
 11
851.2546682673
 21
978.6616793807
 31
0.0
  0
LINE
  5
129
330
1F
100
AcDbEntity
  8
0
  6
Continuous
 62
     7
370
    35
100
AcDbLine
 10
985.0546682673
 20
978.6616793807
 30
0.0
 11
1012.8546682673
 21
978.6616793807
 31
0.0
  0
LINE
  5
12A
330
1F
100
AcDbEntity
  8
0
  6
Continuous
 62
     7
370
    35
100
AcDbLine
 10
1020.5546682673
 20
949.1616793807
 30
0.0
 11
1020.5546682673
 21
969.1616793807
 31
0.0
  0
LINE
  5
12B
330
1F
100
AcDbEntity
  8
0
  6
Continuous
 62
     7
370
    35
100
AcDbLine
 10
1020.5546682673
 20
929.1616793807
 30
0.0
 11
1020.5546682673
 21
949.1616793807
 31
0.0
  0
LINE
  5
12C
330
1F
100
AcDbEntity
  8
0
  6
Continuous
 62
     7
370
    35
100
AcDbLine
 10
1065.5546682673
 20
949.1616793807
 30
0.0
 11
1065.5546682673
 21
968.1307784666
 31
0.0
  0
LINE
  5
12D
330
1F
100
AcDbEntity
  8
0
  6
Continuous
 62
     7
370
    35
100
AcDbLine
 10
1065.5546682673
 20
930.1925802948
 30
0.0
 11
1065.5546682673
 21
949.1616793807
 31
0.0
  0
ARC
  5
12E
330
1F
100
AcDbEntity
  8
0
  6
Continuous
 62
     7
370
    35
100
AcDbCircle
 10
1523.0546682673
 20
997.6112793807
 30
0.0
 40
0.9999999999998863
100
AcDbArc
 50
90.0
 51
180.0
  0
ARC
  5
12F
330
1F
100
AcDbEntity
  8
0
  6
Continuous
 62
     7
370
    35
100
AcDbCircle
 10
1523.0546682673
 20
997.6112793807
 30
0.0
 40
1.0
100
AcDbArc
 50
0.0
 51
90.0
  0
LINE
  5
130
330
1F
100
AcDbEntity
  8
0
  6
Continuous
 62
     7
370
    35
100
AcDbLine
 10
1522.0546682673
 20
997.6112793807
 30
0.0
 11
1522.0546682673
 21
987.6112793807
 31
0.0
  0
LINE
  5
131
330
1F
100
AcDbEntity
  8
0
  6
Continuous
 62
     7
370
    35
100
AcDbLine
 10
1524.0546682673
 20
997.6112793807
 30
0.0
 11
1524.0546682673
 21
986.6112793807
 31
0.0
  0
LINE
  5
132
330
1F
100
AcDbEntity
  8
0
  6
Continuous
 62
     7
370
    35
100
AcDbLine
 10
1522.0546682673
 20
983.5132636623
 30
0.0
 11
1522.0546682673
 21
979.8854199023
 31
0.0
  0
LINE
  5
133
330
1F
100
AcDbEntity
  8
0
  6
Continuous
 62
     7
370
    35
100
AcDbLine
 10
1524.0546682673
 20
985.6112793807
 30
0.0
 11
1524.0546682673
 21
979.8854199023
 31
0.0
  0
LINE
  5
134
330
1F
100
AcDbEntity
  8
0
  6
Continuous
 62
     7
370
    35
100
AcDbLine
 10
1522.0546682673
 20
978.0728043282
 30
0.0
 11
1522.0546682673
 21
979.8854199023
 31
0.0
  0
LINE
  5
135
330
1F
100
AcDbEntity
  8
0
  6
Continuous
 62
     7
370
    35
100
AcDbLine
 10
1524.0546682673
 20
979.8854199023
 30
0.0
 11
1524.0546682673
 21
978.0728043282
 31
0.0
  0
LINE
  5
136
330
1F
100
AcDbEntity
  8
0
  6
Continuous
 62
     7
370
    35
100
AcDbLine
 10
1522.0546682673
 20
978.0728043282
 30
0.0
 11
1522.0546682673
 21
970.8145050436
 31
0.0
  0
LINE
  5
137
330
1F
100
AcDbEntity
  8
0
  6
Continuous
 62
     7
370
    35
100
AcDbLine
 10
1524.0546682673
 20
978.0728043282
 30
0.0
 11
1524.0546682673
 21
970.8145050436
 31
0.0
  0
LINE
  5
138
330
1F
100
AcDbEntity
  8
0
  6
Continuous
 62
     7
370
    35
100
AcDbLine
 10
1522.0546682673
 20
969.0018894695
 30
0.0
 11
1522.0546682673
 21
970.8145050436
 31
0.0
  0
LINE
  5
139
330
1F
100
AcDbEntity
  8
0
  6
Continuous
 62
     7
370
    35
100
AcDbLine
 10
1524.0546682673
 20
970.8145050436
 30
0.0
 11
1524.0546682673
 21
969.0018894695
 31
0.0
  0
LINE
  5
13A
330
1F
100
AcDbEntity
  8
0
  6
Continuous
 62
     7
370
    35
100
AcDbLine
 10
1522.0546682673
 20
969.0018894695
 30
0.0
 11
1522.0546682673
 21
934.7112793807
 31
0.0
  0
LINE
  5
13B
330
1F
100
AcDbEntity
  8
0
  6
Continuous
 62
     7
370
    35
100
AcDbLine
 10
1524.0546682673
 20
969.0018894695
 30
0.0
 11
1524.0546682673
 21
934.7112793807
 31
0.0
  0
LINE
  5
13C
330
1F
100
AcDbEntity
  8
0
  6
Continuous
 62
     7
370
    35
100
AcDbLine
 10
1524.0546682673
 20
932.7112793807
 30
0.0
 11
1522.0546682673
 21
932.7112793807
 31
0.0
  0
LINE
  5
13D
330
1F
100
AcDbEntity
  8
0
  6
Continuous
 62
     7
370
    35
100
AcDbLine
 10
1522.0546682673
 20
932.7112793807
 30
0.0
 11
1522.0546682673
 21
934.7112793807
 31
0.0
  0
LINE
  5
13E
330
1F
100
AcDbEntity
  8
0
  6
Continuous
 62
     7
370
    35
100
AcDbLine
 10
1524.0546682673
 20
934.7112793807
 30
0.0
 11
1524.0546682673
 21
932.7112793807
 31
0.0
  0
LINE
  5
13F
330
1F
100
AcDbEntity
  8
0
  6
Continuous
 62
     7
370
    35
100
AcDbLine
 10
340.0546682673
 20
997.6112793807
 30
0.0
 11
340.0546682673
 21
986.6112793807
 31
0.0
  0
ARC
  5
140
330
1F
100
AcDbEntity
  8
0
  6
Continuous
 62
     7
370
    35
100
AcDbCircle
 10
341.0546682673
 20
997.6112793807
 30
0.0
 40
1.000000000000057
100
AcDbArc
 50
90.0
 51
180.0
  0
ARC
  5
141
330
1F
100
AcDbEntity
  8
0
  6
Continuous
 62
     7
370
    35
100
AcDbCircle
 10
341.0546682673
 20
997.6112793807
 30
0.0
 40
1.0
100
AcDbArc
 50
0.0
 51
90.0
  0
LINE
  5
142
330
1F
100
AcDbEntity
  8
0
  6
Continuous
 62
     7
370
    35
100
AcDbLine
 10
342.0546682673
 20
997.6112793807
 30
0.0
 11
342.0546682673
 21
987.6112793807
 31
0.0
  0
LINE
  5
143
330
1F
100
AcDbEntity
  8
0
  6
Continuous
 62
     7
370
    35
100
AcDbLine
 10
340.0546682673
 20
985.6112793807
 30
0.0
 11
340.0546682673
 21
979.8854199023
 31
0.0
  0
LINE
  5
144
330
1F
100
AcDbEntity
  8
0
  6
Continuous
 62
     7
370
    35
100
AcDbLine
 10
342.0546682673
 20
983.5132636623
 30
0.0
 11
342.0546682673
 21
979.8854199023
 31
0.0
  0
LINE
  5
145
330
1F
100
AcDbEntity
  8
0
  6
Continuous
 62
     7
370
    35
100
AcDbLine
 10
340.0546682673
 20
978.0728043282
 30
0.0
 11
340.0546682673
 21
979.8854199023
 31
0.0
  0
LINE
  5
146
330
1F
100
AcDbEntity
  8
0
  6
Continuous
 62
     7
370
    35
100
AcDbLine
 10
342.0546682673
 20
979.8854199023
 30
0.0
 11
342.0546682673
 21
978.0728043282
 31
0.0
  0
LINE
  5
147
330
1F
100
AcDbEntity
  8
0
  6
Continuous
 62
     7
370
    35
100
AcDbLine
 10
340.0546682673
 20
978.0728043282
 30
0.0
 11
340.0546682673
 21
970.8145050436
 31
0.0
  0
LINE
  5
148
330
1F
100
AcDbEntity
  8
0
  6
Continuous
 62
     7
370
    35
100
AcDbLine
 10
342.0546682673
 20
978.0728043282
 30
0.0
 11
342.0546682673
 21
970.8145050436
 31
0.0
  0
LINE
  5
149
330
1F
100
AcDbEntity
  8
0
  6
Continuous
 62
     7
370
    35
100
AcDbLine
 10
340.0546682673
 20
969.0018894695
 30
0.0
 11
340.0546682673
 21
970.8145050436
 31
0.0
  0
LINE
  5
14A
330
1F
100
AcDbEntity
  8
0
  6
Continuous
 62
     7
370
    35
100
AcDbLine
 10
342.0546682673
 20
970.8145050436
 30
0.0
 11
342.0546682673
 21
969.0018894695
 31
0.0
  0
LINE
  5
14B
330
1F
100
AcDbEntity
  8
0
  6
Continuous
 62
     7
370
    35
100
AcDbLine
 10
340.0546682673
 20
969.0018894695
 30
0.0
 11
340.0546682673
 21
934.7112793807
 31
0.0
  0
LINE
  5
14C
330
1F
100
AcDbEntity
  8
0
  6
Continuous
 62
     7
370
    35
100
AcDbLine
 10
342.0546682673
 20
969.0018894695
 30
0.0
 11
342.0546682673
 21
934.7112793807
 31
0.0
  0
LINE
  5
14D
330
1F
100
AcDbEntity
  8
0
  6
Continuous
 62
     7
370
    35
100
AcDbLine
 10
342.0546682673
 20
932.7112793807
 30
0.0
 11
340.0546682673
 21
932.7112793807
 31
0.0
  0
LINE
  5
14E
330
1F
100
AcDbEntity
  8
0
  6
Continuous
 62
     7
370
    35
100
AcDbLine
 10
340.0546682673
 20
932.7112793807
 30
0.0
 11
340.0546682673
 21
934.7112793807
 31
0.0
  0
LINE
  5
14F
330
1F
100
AcDbEntity
  8
0
  6
Continuous
 62
     7
370
    35
100
AcDbLine
 10
342.0546682673
 20
934.7112793807
 30
0.0
 11
342.0546682673
 21
932.7112793807
 31
0.0
  0
LINE
  5
150
330
1F
100
AcDbEntity
  8
0
  6
Continuous
 62
     7
370
    35
100
AcDbLine
 10
309.5546682673
 20
985.6112793807
 30
0.0
 11
309.5546682673
 21
986.6112793807
 31
0.0
  0
LINE
  5
151
330
1F
100
AcDbEntity
  8
0
  6
Continuous
 62
     7
370
    35
100
AcDbLine
 10
309.5546682673
 20
986.6112793807
 30
0.0
 11
319.5546682673
 21
986.6112793807
 31
0.0
  0
LINE
  5
152
330
1F
100
AcDbEntity
  8
0
  6
Continuous
 62
     7
370
    35
100
AcDbLine
 10
319.5546682673
 20
985.6112793807
 30
0.0
 11
309.5546682673
 21
985.6112793807
 31
0.0
  0
LINE
  5
153
330
1F
100
AcDbEntity
  8
0
  6
Continuous
 62
     7
370
    35
100
AcDbLine
 10
342.0546682673
 20
986.6112793807
 30
0.0
 11
319.5546682673
 21
986.6112793807
 31
0.0
  0
LINE
  5
154
330
1F
100
AcDbEntity
  8
0
  6
Continuous
 62
     7
370
    35
100
AcDbLine
 10
342.0546682673
 20
985.6112793807
 30
0.0
 11
319.5546682673
 21
985.6112793807
 31
0.0
  0
LINE
  5
155
330
1F
100
AcDbEntity
  8
0
  6
Continuous
 62
     7
370
    35
100
AcDbLine
 10
309.5546682673
 20
987.6112793807
 30
0.0
 11
309.5546682673
 21
986.6112793807
 31
0.0
  0
ARC
  5
156
330
1F
100
AcDbEntity
  8
0
  6
Continuous
 62
     7
370
    35
100
AcDbCircle
 10
319.5546682673
 20
1019.1112793807
 30
0.0
 40
10.00000000000006
100
AcDbArc
 50
90.0
 51
180.0
  0
LINE
  5
157
330
1F
100
AcDbEntity
  8
0
  6
Continuous
 62
     7
370
    35
100
AcDbLine
 10
342.0546682673
 20
1029.1112793807
 30
0.0
 11
319.5546682673
 21
1029.1112793807
 31
0.0
  0
LINE
  5
158
330
1F
100
AcDbEntity
  8
0
  6
Continuous
 62
     7
370
    35
100
AcDbLine
 10
309.5546682673
 20
1019.1112793807
 30
0.0
 11
309.5546682673
 21
987.6112793807
 31
0.0
  0
LINE
  5
159
330
1F
100
AcDbEntity
  8
0
  6
Continuous
 62
     7
370
    35
100
AcDbLine
 10
1522.0546682673
 20
986.6112793807
 30
0.0
 11
1544.5546682673
 21
986.6112793807
 31
0.0
  0
LINE
  5
15A
330
1F
100
AcDbEntity
  8
0
  6
Continuous
 62
     7
370
    35
100
AcDbLine
 10
1522.0546682673
 20
985.6112793807
 30
0.0
 11
1544.5546682673
 21
985.6112793807
 31
0.0
  0
LINE
  5
15B
330
1F
100
AcDbEntity
  8
0
  6
Continuous
 62
     7
370
    35
100
AcDbLine
 10
1554.5546682673
 20
986.6112793807
 30
0.0
 11
1554.5546682673
 21
985.6112793807
 31
0.0
  0
LINE
  5
15C
330
1F
100
AcDbEntity
  8
0
  6
Continuous
 62
     7
370
    35
100
AcDbLine
 10
1544.5546682673
 20
986.6112793807
 30
0.0
 11
1554.5546682673
 21
986.6112793807
 31
0.0
  0
LINE
  5
15D
330
1F
100
AcDbEntity
  8
0
  6
Continuous
 62
     7
370
    35
100
AcDbLine
 10
1554.5546682673
 20
985.6112793807
 30
0.0
 11
1544.5546682673
 21
985.6112793807
 31
0.0
  0
LINE
  5
15E
330
1F
100
AcDbEntity
  8
0
  6
Continuous
 62
     7
370
    35
100
AcDbLine
 10
1554.5546682673
 20
986.6112793807
 30
0.0
 11
1554.5546682673
 21
987.6112793807
 31
0.0
  0
LINE
  5
15F
330
1F
100
AcDbEntity
  8
0
  6
Continuous
 62
     7
370
    35
100
AcDbLine
 10
1522.0546682673
 20
1029.1112793807
 30
0.0
 11
1544.5546682673
 21
1029.1112793807
 31
0.0
  0
ARC
  5
160
330
1F
100
AcDbEntity
  8
0
  6
Continuous
 62
     7
370
    35
100
AcDbCircle
 10
1544.5546682673
 20
1019.1112793807
 30
0.0
 40
10.0
100
AcDbArc
 50
0.0
 51
90.0
  0
LINE
  5
161
330
1F
100
AcDbEntity
  8
0
  6
Continuous
 62
     7
370
    35
100
AcDbLine
 10
1554.5546682673
 20
1019.1112793807
 30
0.0
 11
1554.5546682673
 21
987.6112793807
 31
0.0
  0
LINE
  5
162
330
1F
100
AcDbEntity
  8
0
  6
Continuous
 62
     8
370
    18
100
AcDbLine
 10
1522.0546682673
 20
987.6112793807
 30
0.0
 11
342.0546682673
 21
987.6112793807
 31
0.0
  0
LINE
  5
163
330
1F
100
AcDbEntity
  8
0
  6
Continuous
 62
     8
370
    18
100
AcDbLine
 10
342.0546682673
 20
997.1112793807
 30
0.0
 11
1522.0546682673
 21
997.1112793807
 31
0.0
  0
LINE
  5
164
330
1F
100
AcDbEntity
  8
0
  6
Continuous
 62
     8
370
    18
100
AcDbLine
 10
342.0546682673
 20
984.27319787
 30
0.0
 11
1522.0546682673
 21
984.27319787
 31
0.0
  0
LINE
  5
165
330
1F
100
AcDbEntity
  8
0
  6
Continuous
 62
     8
370
    18
100
AcDbLine
 10
342.0546682673
 20
982.2764145289
 30
0.0
 11
1522.0546682673
 21
982.2764145289
 31
0.0
  0
LINE
  5
166
330
1F
100
AcDbEntity
  8
0
  6
Continuous
 62
     8
370
    18
100
AcDbLine
 10
342.0546682673
 20
980.5161069599
 30
0.0
 11
849.0954921586
 21
980.5161069599
 31
0.0
  0
LINE
  5
167
330
1F
100
AcDbEntity
  8
0
  6
Continuous
 62
     8
370
    18
100
AcDbLine
 10
1015.013844376
 20
980.5161069599
 30
0.0
 11
1522.0546682673
 21
980.5161069599
 31
0.0
  0
SPLINE
  5
168
330
1F
100
AcDbEntity
  8
0
  6
Continuous
 62
     8
370
    18
100
AcDbSpline
210
0.0
220
0.0
230
1.0
 70
     8
 71
     3
 72
    10
 73
     6
 74
     0
 42
0.000000001
 43
0.00000001
 40
0.0
 40
0.0
 40
0.0
 40
0.0
 40
0.5
 40
0.5
 40
1.0
 40
1.0
 40
1.0
 40
1.0
 10
991.3707803743889
 20
980.1664629574508
 30
0.0
 10
990.3317366916306
 20
980.1811000933943
 30
0.0
 10
989.2861243709262
 20
980.2155700705468
 30
0.0
 10
987.1809979360997
 20
980.2685936769432
 30
0.0
 10
986.1214805246384
 20
980.2870462935047
 30
0.0
 10
985.0546682672941
 20
980.2870462935047
 30
0.0
  0
LINE
  5
169
330
1F
100
AcDbEntity
  8
0
  6
Continuous
 62
     8
370
    18
100
AcDbLine
 10
985.0546682673
 20
980.2870462935
 30
0.0
 11
985.0546682673
 21
982.1758517
 31
0.0
  0
ARC
  5
16A
330
1F
100
AcDbEntity
  8
0
  6
Continuous
 62
     8
370
    18
100
AcDbCircle
 10
994.3348952764
 20
980.5553992153
 30
0.0
 40
2.989523133341918
100
AcDbArc
 50
147.5233674626
 51
187.4753574051
  0
SPLINE
  5
16B
330
1F
100
AcDbEntity
  8
0
  6
Continuous
 62
     8
370
    18
100
AcDbSpline
210
0.0
220
0.0
230
1.0
 70
     8
 71
     3
 72
    10
 73
     6
 74
     0
 42
0.000000001
 43
0.00000001
 40
0.0
 40
0.0
 40
0.0
 40
0.0
 40
0.5
 40
0.5
 40
1.0
 40
1.0
 40
1.0
 40
1.0
 10
879.0546682672936
 20
980.2870462934641
 30
0.0
 10
877.9878560099495
 20
980.2870462934641
 30
0.0
 10
876.9283385984876
 20
980.2685936769432
 30
0.0
 10
874.823212163661
 20
980.2155700705468
 30
0.0
 10
873.7775998429564
 20
980.1811000934263
 30
0.0
 10
872.7385561601982
 20
980.1664629574828
 30
0.0
  0
ARC
  5
16C
330
1F
100
AcDbEntity
  8
0
  6
Continuous
 62
     8
370
    18
100
AcDbCircle
 10
869.7744412572
 20
980.5553992152
 30
0.0
 40
2.989523134308619
100
AcDbArc
 50
352.5246425999
 51
32.476632528
  0
LINE
  5
16D
330
1F
100
AcDbEntity
  8
0
  6
Continuous
 62
     8
370
    18
100
AcDbLine
 10
879.0546682673
 20
980.2870462935
 30
0.0
 11
879.0546682673
 21
982.1758517
 31
0.0
  0
LINE
  5
16E
330
1F
100
AcDbEntity
  8
0
  6
Continuous
 62
     8
370
    18
100
AcDbLine
 10
985.0546682673
 20
980.2870462935
 30
0.0
 11
879.0546682673
 21
980.2870462935
 31
0.0
  0
ELLIPSE
  5
16F
330
1F
100
AcDbEntity
  8
0
  6
Continuous
 62
     8
370
    18
100
AcDbEllipse
 10
985.0546682673
 20
978.5068466197
 30
0.0
 11
27.99999999999989
 21
0.0
 31
0.0
210
0.0
220
0.0
230
1.0
 40
0.0608401234
 41
0.0075591103181333
 42
1.343262674821319
  0
ARC
  5
170
330
1F
100
AcDbEntity
  8
0
  6
Continuous
 62
     8
370
    18
100
AcDbCircle
 10
1015.0531671134
 20
978.5171774216
 30
0.0
 40
1.999300425703757
100
AcDbArc
 50
91.1268920303
 51
179.9270312827
  0
ELLIPSE
  5
171
330
1F
100
AcDbEntity
  8
0
  6
Continuous
 62
     8
370
    18
100
AcDbEllipse
 10
879.0546682673
 20
978.5068466197
 30
0.0
 11
28.0
 21
0.0
 31
0.0
210
0.0
220
0.0
230
1.0
 40
0.0608401234
 41
1.798329978768473
 42
3.134033543271658
  0
ARC
  5
172
330
1F
100
AcDbEntity
  8
0
  6
Continuous
 62
     8
370
    18
100
AcDbCircle
 10
849.0561694212
 20
978.5171774216
 30
0.0
 40
1.999300425704085
100
AcDbArc
 50
0.0729687173
 51
88.8731079808
  0
LINE
  5
173
330
1F
100
AcDbEntity
  8
0
  6
Continuous
 62
     8
370
    18
100
AcDbLine
 10
879.0546682673
 20
980.2870462935
 30
0.0
 11
879.0546682673
 21
975.6116793807
 31
0.0
  0
LINE
  5
174
330
1F
100
AcDbEntity
  8
0
  6
Continuous
 62
     8
370
    18
100
AcDbLine
 10
985.0546682673
 20
980.2870462935
 30
0.0
 11
985.0546682673
 21
975.6116793807
 31
0.0
  0
LINE
  5
175
330
1F
100
AcDbEntity
  8
0
  6
Continuous
 62
     8
370
    18
100
AcDbLine
 10
1522.0546682673
 20
999.6112793807
 30
0.0
 11
342.0546682673
 21
999.6112793807
 31
0.0
  0
SPLINE
  5
176
330
1F
100
AcDbEntity
  8
0
  6
Continuous
 62
     8
370
    18
100
AcDbSpline
210
0.0
220
0.0
230
1.0
 70
     8
 71
     3
 72
    20
 73
    16
 74
     0
 42
0.000000001
 43
0.00000001
 40
0.0
 40
0.0
 40
0.0
 40
0.0
 40
0.099142391448111
 40
0.1909579967922166
 40
0.2834490201131833
 40
0.3743163084071863
 40
0.4461862568119869
 40
0.5184421762495499
 40
0.5908322179839115
 40
0.663840007980853
 40
0.7368167649629365
 40
0.8091054166526839
 40
0.8751601672161239
 40
0.941126359318708
 40
1.0
 40
1.0
 40
1.0
 40
1.0
 10
915.944623154692
 20
936.6666884660306
 30
0.0
 10
915.0498474726764
 20
937.8030169556856
 30
0.0
 10
913.3264215060408
 20
939.991697387063
 30
0.0
 10
911.6773969039307
 20
944.0445102225078
 30
0.0
 10
910.97807923088
 20
948.3447986356942
 30
0.0
 10
911.3045366227639
 20
952.3785479971858
 30
0.0
 10
912.3305077564057
 20
955.8784991550945
 30
0.0
 10
913.7846186649952
 20
958.8139801628884
 30
0.0
 10
915.6795385985608
 20
961.4289157283893
 30
0.0
 10
917.954794775302
 20
963.7585054257858
 30
0.0
 10
920.5500776263726
 20
965.758759921766
 30
0.0
 10
923.3693696218742
 20
967.3233650919049
 30
0.0
 10
926.2948211944913
 20
968.404993402686
 30
0.0
 10
929.169193454262
 20
969.0459212279405
 30
0.0
 10
931.129976113765
 20
969.1255100373779
 30
0.0
 10
932.0546682667056
 20
969.1630435942928
 30
0.0
  0
LWPOLYLINE
  5
177
330
1F
100
AcDbEntity
  8
0
  6
Continuous
 62
     8
370
    18
100
AcDbPolyline
 90
        9
 70
   128
 43
0.0
 10
932.0546682667
 20
969.1630435943
 10
932.056047593
 20
968.8963064882
 10
932.0572337488
 20
968.2329180844
 10
932.0581828788
 20
967.1974055525
 10
932.0588598912
 20
965.8280544453
 10
932.0592397552
 20
964.1754931833
 10
932.0593084262
 20
962.3008211924
 10
932.0590633653
 20
960.2733499015
 10
932.0585136349
 20
958.1680401213
  0
SPLINE
  5
178
330
1F
100
AcDbEntity
  8
0
  6
Continuous
 62
     8
370
    18
100
AcDbSpline
210
0.0
220
0.0
230
1.0
 70
     8
 71
     3
 72
    19
 73
    15
 74
     0
 42
0.000000001
 43
0.00000001
 40
0.0
 40
0.0
 40
0.0
 40
0.0
 40
0.0003400432997567
 40
0.101863577827705
 40
0.2035434036526508
 40
0.3480218784455776
 40
0.4928620408160623
 40
0.5714933381061474
 40
0.6496296261320138
 40
0.7087399627822191
 40
0.7683238584295653
 40
0.8224306267254512
 40
0.8926101632270923
 40
1.0
 40
1.0
 40
1.0
 40
1.0
 10
932.0585136349304
 20
958.1680401213009
 30
0.0
 10
932.0559500617164
 20
958.1680423311528
 30
0.0
 10
931.2880045095534
 20
958.1687043157414
 30
0.0
 10
929.7494652715674
 20
957.9992673629275
 30
0.0
 10
927.2359344949919
 20
957.2138084907144
 30
0.0
 10
924.6206952746121
 20
955.8136517087511
 30
0.0
 10
922.3952543836006
 20
954.1479098707582
 30
0.0
 10
920.6766848541992
 20
952.6580595346047
 30
0.0
 10
919.6083786254832
 20
951.4099698152975
 30
0.0
 10
918.9414147554911
 20
950.0742189763804
 30
0.0
 10
918.6774354455684
 20
948.7614481169344
 30
0.0
 10
919.0600562093491
 20
947.3855077449186
 30
0.0
 10
920.1336420250035
 20
945.9714232697517
 30
0.0
 10
921.1888804971383
 20
945.1422886444127
 30
0.0
 10
921.8270642401412
 20
944.6408472616116
 30
0.0
  0
LINE
  5
179
330
1F
100
AcDbEntity
  8
0
  6
Continuous
 62
     8
370
    18
100
AcDbLine
 10
915.9446231547
 20
936.666688466
 30
0.0
 11
921.8270642401
 21
944.6408472616
 31
0.0
  0
SPLINE
  5
17A
330
1F
100
AcDbEntity
  8
0
  6
Continuous
 62
     8
370
    18
100
AcDbSpline
210
0.0
220
0.0
230
1.0
 70
     8
 71
     3
 72
    11
 73
     7
 74
     0
 42
0.000000001
 43
0.00000001
 40
0.0
 40
0.0
 40
0.0
 40
0.0
 40
0.2086522750571027
 40
0.4180461498251465
 40
0.7071398446856866
 40
1.0
 40
1.0
 40
1.0
 40
1.0
 10
922.899619115187
 20
931.3800856663198
 30
0.0
 10
922.3759940127949
 20
931.6610622584614
 30
0.0
 10
921.3268827201096
 20
932.224014100245
 30
0.0
 10
919.6165067628535
 20
933.339072084696
 30
0.0
 10
917.7703283894788
 20
934.747525363161
 30
0.0
 10
916.5558117219335
 20
936.0242131503027
 30
0.0
 10
915.944623154692
 20
936.6666884660306
 30
0.0
  0
SPLINE
  5
17B
330
1F
100
AcDbEntity
  8
0
  6
Continuous
 62
     8
370
    18
100
AcDbSpline
210
0.0
220
0.0
230
1.0
 70
     8
 71
     3
 72
     9
 73
     5
 74
     0
 42
0.000000001
 43
0.00000001
 40
0.0
 40
0.0
 40
0.0
 40
0.0
 40
0.497946628183954
 40
1.0
 40
1.0
 40
1.0
 40
1.0
 10
921.8270642401412
 20
944.6408472616116
 30
0.0
 10
922.8106392347094
 20
944.0100797660544
 30
0.0
 10
924.7859011180066
 20
942.7433426101916
 30
0.0
 10
926.8823612637813
 20
941.6891987091261
 30
0.0
 10
927.9348961488455
 20
941.1599622092169
 30
0.0
  0
LINE
  5
17C
330
1F
100
AcDbEntity
  8
0
  6
Continuous
 62
     8
370
    18
100
AcDbLine
 10
927.9348961488
 20
941.1599622092
 30
0.0
 11
922.8996191152
 21
931.3800856663
 31
0.0
  0
SPLINE
  5
17D
330
1F
100
AcDbEntity
  8
0
  6
Continuous
 62
     8
370
    18
100
AcDbSpline
210
0.0
220
0.0
230
1.0
 70
     8
 71
     3
 72
    21
 73
    17
 74
     0
 42
0.000000001
 43
0.00000001
 40
0.0
 40
0.0
 40
0.0
 40
0.0
 40
0.0575996839374352
 40
0.1356930566382793
 40
0.2164055400301529
 40
0.2512185653939525
 40
0.329304886522521
 40
0.4092636364585419
 40
0.4704678040649295
 40
0.5261582095357697
 40
0.5829972309833098
 40
0.6699291064424857
 40
0.748717098851696
 40
0.8394997107027559
 40
0.918054889609905
 40
0.9999999999999999
 40
0.9999999999999999
 40
0.9999999999999999
 40
0.9999999999999999
 10
932.0546682667056
 20
969.1630435942928
 30
0.0
 10
932.959568370369
 20
969.1265500484468
 30
0.0
 10
935.0913276548777
 20
969.0405787297707
 30
0.0
 10
938.3402781759078
 20
968.2774205585653
 30
0.0
 10
941.0784102914059
 20
967.1375523054336
 30
0.0
 10
943.6253064347931
 20
965.6787307456659
 30
0.0
 10
945.9594370632399
 20
963.952892015851
 30
0.0
 10
948.2581011190208
 20
961.6178019667828
 30
0.0
 10
949.9993986732154
 20
959.2889154733839
 30
0.0
 10
951.2570585719271
 20
956.9972811474928
 30
0.0
 10
952.3626608612011
 20
954.1475637742121
 30
0.0
 10
953.0384259848487
 20
950.7175398738752
 30
0.0
 10
952.9582355036708
 20
946.6497967748124
 30
0.0
 10
952.022979824788
 20
942.8646259778347
 30
0.0
 10
950.3741123453137
 20
939.4162624009698
 30
0.0
 10
948.9114771557817
 20
937.5960281850568
 30
0.0
 10
948.1647133798941
 20
936.6666884660324
 30
0.0
  0
LINE
  5
17E
330
1F
100
AcDbEntity
  8
0
  6
Continuous
 62
     8
370
    18
100
AcDbLine
 10
948.1647133799
 20
936.666688466
 30
0.0
 11
942.2822722944
 21
944.6408472616
 31
0.0
  0
SPLINE
  5
17F
330
1F
100
AcDbEntity
  8
0
  6
Continuous
 62
     8
370
    18
100
AcDbSpline
210
0.0
220
0.0
230
1.0
 70
     8
 71
     3
 72
    17
 73
    13
 74
     0
 42
0.000000001
 43
0.00000001
 40
0.0
 40
0.0
 40
0.0
 40
0.0
 40
0.0789144527054627
 40
0.1571593044481631
 40
0.2135614770373522
 40
0.2600875689337679
 40
0.3261379151498165
 40
0.4287697285227788
 40
0.5974697941885968
 40
0.7661237400516269
 40
0.941648175085645
 40
1.0
 40
1.0
 40
1.0
 40
1.0
 10
942.282272294446
 20
944.640847261612
 30
0.0
 10
942.7547948448989
 20
945.0027928416008
 30
0.0
 10
943.6958305211194
 20
945.7236128390662
 30
0.0
 10
944.772246249675
 20
946.9419131656437
 30
0.0
 10
945.3465349846958
 20
948.2178273121507
 30
0.0
 10
945.3403770238695
 20
949.5196159914135
 30
0.0
 10
944.7616648249303
 20
951.0678635133779
 30
0.0
 10
943.1304297751191
 20
953.0581628499162
 30
0.0
 10
940.5435245003703
 20
955.1567064060109
 30
0.0
 10
937.2073900171308
 20
957.124968807994
 30
0.0
 10
934.2610276620718
 20
958.0764977712873
 30
0.0
 10
932.4983095325202
 20
958.149761032271
 30
0.0
 10
932.0585136349304
 20
958.1680401213009
 30
0.0
  0
ARC
  5
180
330
1F
100
AcDbEntity
  8
0
  6
Continuous
 62
     8
370
    18
100
AcDbCircle
 10
932.0546682673
 20
949.1616793807
 30
0.0
 40
9.000000000000014
100
AcDbArc
 50
242.7578274734
 51
297.2421725266
  0
LINE
  5
181
330
1F
100
AcDbEntity
  8
0
  6
Continuous
 62
     8
370
    18
100
AcDbLine
 10
936.1744403857
 20
941.1599622092
 30
0.0
 11
941.2097174194
 21
931.3800856663
 31
0.0
  0
SPLINE
  5
182
330
1F
100
AcDbEntity
  8
0
  6
Continuous
 62
     8
370
    18
100
AcDbSpline
210
0.0
220
0.0
230
1.0
 70
     8
 71
     3
 72
     9
 73
     5
 74
     0
 42
0.000000001
 43
0.00000001
 40
0.0
 40
0.0
 40
0.0
 40
0.0
 40
0.4992621918959266
 40
1.0
 40
1.0
 40
1.0
 40
1.0
 10
936.1744403857414
 20
941.1599622092169
 30
0.0
 10
937.2210881449382
 20
941.6862948256769
 30
0.0
 10
939.3174771288953
 20
942.7405156839822
 30
0.0
 10
941.2930355172698
 20
944.006780562076
 30
0.0
 10
942.282272294446
 20
944.640847261612
 30
0.0
  0
SPLINE
  5
183
330
1F
100
AcDbEntity
  8
0
  6
Continuous
 62
     8
370
    18
100
AcDbSpline
210
0.0
220
0.0
230
1.0
 70
     8
 71
     3
 72
    10
 73
     6
 74
     0
 42
0.000000001
 43
0.00000001
 40
0.0
 40
0.0
 40
0.0
 40
0.0
 40
0.0076204656895135
 40
0.4952213558631348
 40
0.9999999999999999
 40
0.9999999999999999
 40
0.9999999999999999
 40
0.9999999999999999
 10
948.1647133798941
 20
936.6666884660324
 30
0.0
 10
948.1493680269771
 20
936.6492614371638
 30
0.0
 10
947.1521394077021
 20
935.5167536329692
 30
0.0
 10
944.9315120723951
 20
933.4936711978443
 30
0.0
 10
942.4645497315361
 20
932.0926976362698
 30
0.0
 10
941.2097174193999
 20
931.3800856663198
 30
0.0
  0
SPLINE
  5
184
330
1F
100
AcDbEntity
  8
0
  6
Continuous
 62
     8
370
    18
100
AcDbSpline
210
0.0
220
0.0
230
1.0
 70
     8
 71
     3
 72
    12
 73
     8
 74
     0
 42
0.000000001
 43
0.00000001
 40
0.0
 40
0.0
 40
0.0
 40
0.0
 40
0.000006074466645
 40
0.3341227654086641
 40
0.6739443301613983
 40
0.9999939255333555
 40
1.0
 40
1.0
 40
1.0
 40
1.0
 10
932.0546682672934
 20
969.8322437921233
 30
0.0
 10
932.0546882651114
 20
969.8322437234648
 30
0.0
 10
933.154657465925
 20
969.8284671938111
 30
0.0
 10
935.3738717038486
 20
969.7175583370318
 30
0.0
 10
938.5931129739338
 20
969.2537076187928
 30
0.0
 10
940.6922607089003
 20
968.7640733281631
 30
0.0
 10
941.707098557748
 20
968.4727113888317
 30
0.0
 10
941.7071174643313
 20
968.4727059607144
 30
0.0
  0
SPLINE
  5
185
330
1F
100
AcDbEntity
  8
0
  6
Continuous
 62
     8
370
    18
100
AcDbSpline
210
0.0
220
0.0
230
1.0
 70
     8
 71
     3
 72
    12
 73
     8
 74
     0
 42
0.000000001
 43
0.00000001
 40
0.0
 40
0.0
 40
0.0
 40
0.0
 40
0.0000045934025293
 40
0.4143885673284382
 40
0.7037780019579074
 40
0.999995349056934
 40
1.0
 40
1.0
 40
1.0
 40
1.0
 10
941.7071174643313
 20
968.4727059607144
 30
0.0
 10
941.7071348964598
 20
968.4726981715381
 30
0.0
 10
943.2797544727725
 20
967.7700065179697
 30
0.0
 10
945.7944830340956
 20
966.2956858115904
 30
0.0
 10
948.8311900229074
 20
963.6346756887999
 30
0.0
 10
950.3245185519331
 20
961.8277302107556
 30
0.0
 10
950.9975646219364
 20
960.8652595543601
 30
0.0
 10
950.9975751893452
 20
960.8652444427335
 30
0.0
  0
SPLINE
  5
186
330
1F
100
AcDbEntity
  8
0
  6
Continuous
 62
     8
370
    18
100
AcDbSpline
210
0.0
220
0.0
230
1.0
 70
     8
 71
     3
 72
    17
 73
    13
 74
     0
 42
0.000000001
 43
0.00000001
 40
0.0
 40
0.0
 40
0.0
 40
0.0
 40
0.0000021433935779
 40
0.104153254827935
 40
0.210814297626983
 40
0.3091075186364264
 40
0.4099627238957801
 40
0.5117652441981463
 40
0.6173565118270782
 40
0.7189536236524944
 40
0.8238769623572229
 40
1.0
 40
1.0
 40
1.0
 40
1.0
 10
950.9975751893452
 20
960.8652444427335
 30
0.0
 10
950.9975866038078
 20
960.8652298585624
 30
0.0
 10
951.5522460279088
 20
960.1565457884775
 30
0.0
 10
952.5854661682456
 20
958.6219045576088
 30
0.0
 10
953.7856339911409
 20
956.1185571959564
 30
0.0
 10
954.6138329433272
 20
953.4435914443588
 30
0.0
 10
955.0581066634851
 20
950.6857852249358
 30
0.0
 10
955.092517494978
 20
947.7985775749379
 30
0.0
 10
954.6722494736907
 20
944.9392004884336
 30
0.0
 10
953.81039803937
 20
942.2056061091994
 30
0.0
 10
952.3178963383799
 20
939.1018731134858
 30
0.0
 10
950.7747519541472
 20
937.2586410829656
 30
0.0
 10
949.8077112827656
 20
936.1035448012959
 30
0.0
  0
ARC
  5
187
330
1F
100
AcDbEntity
  8
0
  6
Continuous
 62
     8
370
    18
100
AcDbCircle
 10
947.8728359615
 20
933.1367891548
 30
0.0
 40
3.541946015253372
100
AcDbArc
 50
56.8881881133
 51
85.2731268278
  0
SPLINE
  5
188
330
1F
100
AcDbEntity
  8
0
  6
Continuous
 62
     8
370
    18
100
AcDbSpline
210
0.0
220
0.0
230
1.0
 70
     8
 71
     3
 72
     9
 73
     5
 74
     0
 42
0.000000001
 43
0.00000001
 40
0.0
 40
0.0
 40
0.0
 40
0.0
 40
0.4770884652791041
 40
0.9999999999999999
 40
0.9999999999999999
 40
0.9999999999999999
 40
0.9999999999999999
 10
932.0546682667056
 20
969.1630435942928
 30
0.0
 10
932.0546682669509
 20
969.1976225648873
 30
0.0
 10
932.0546682674652
 20
969.2701017235986
 30
0.0
 10
932.0546682673522
 20
969.6392249823774
 30
0.0
 10
932.0546682672932
 20
969.8322437921265
 30
0.0
  0
SPLINE
  5
189
330
1F
100
AcDbEntity
  8
0
  6
Continuous
 62
     8
370
    18
100
AcDbSpline
210
0.0
220
0.0
230
1.0
 70
     8
 71
     3
 72
    13
 73
     9
 74
     0
 42
0.000000001
 43
0.00000001
 40
0.0
 40
0.0
 40
0.0
 40
0.0
 40
0.2149368602724814
 40
0.43648718022666
 40
0.5720189549561245
 40
0.7091058686892359
 40
0.8535021383530083
 40
1.0
 40
1.0
 40
1.0
 40
1.0
 10
896.4982489866601
 20
961.1364423073469
 30
0.0
 10
896.4999024444833
 20
959.7776509003944
 30
0.0
 10
896.5032602358921
 20
957.0182590074215
 30
0.0
 10
896.5054783163308
 20
953.1122080844422
 30
0.0
 10
896.5127516709867
 20
949.7018226737339
 30
0.0
 10
896.5159516837131
 20
946.8118678349324
 30
0.0
 10
896.5164367627758
 20
943.865397789434
 30
0.0
 10
896.5157291309579
 20
941.9313469386083
 30
0.0
 10
896.5153727588729
 20
940.9573351471506
 30
0.0
  0
ARC
  5
18A
330
1F
100
AcDbEntity
  8
0
  6
Continuous
 62
     8
370
    18
100
AcDbCircle
 10
895.2284696307
 20
945.8485678063
 30
0.0
 40
5.057694789829845
100
AcDbArc
 50
270.0526961859
 51
284.7406775986
  0
SPLINE
  5
18B
330
1F
100
AcDbEntity
  8
0
  6
Continuous
 62
     8
370
    18
100
AcDbSpline
210
0.0
220
0.0
230
1.0
 70
     8
 71
     3
 72
    13
 73
     9
 74
     0
 42
0.000000001
 43
0.00000001
 40
0.0
 40
0.0
 40
0.0
 40
0.0
 40
0.2027299767790328
 40
0.4113282396852215
 40
0.6140610633746088
 40
0.8226668372537687
 40
0.9110997276786645
 40
1.0
 40
1.0
 40
1.0
 40
1.0
 10
895.1311770147954
 20
961.4014328204436
 30
0.0
 10
895.1159508869906
 20
960.0992951529082
 30
0.0
 10
895.0850578910621
 20
957.4573277284313
 30
0.0
 10
895.0622949912076
 20
953.1891024953313
 30
0.0
 10
895.1150639173952
 20
948.7949025718361
 30
0.0
 10
895.1694820558417
 20
945.256206406358
 30
0.0
 10
895.210026995774
 20
942.5865017192492
 30
0.0
 10
895.2254096863038
 20
941.3904681047469
 30
0.0
 10
895.2331213029917
 20
940.7908751555879
 30
0.0
  0
ARC
  5
18C
330
1F
100
AcDbEntity
  8
0
  6
Continuous
 62
     8
370
    18
100
AcDbCircle
 10
895.1591563304
 20
957.8869555469
 30
0.0
 40
3.514588645696672
100
AcDbArc
 50
67.6037550453
 51
90.456131227
  0
SPLINE
  5
18D
330
1F
100
AcDbEntity
  8
0
  6
Continuous
 62
     8
370
    18
100
AcDbSpline
210
0.0
220
0.0
230
1.0
 70
     8
 71
     3
 72
    13
 73
     9
 74
     0
 42
0.000000001
 43
0.00000001
 40
0.0
 40
0.0
 40
0.0
 40
0.0
 40
0.1436817584227076
 40
0.2896128899910154
 40
0.4254711377184154
 40
0.5627814455502962
 40
0.7787239735870458
 40
1.0
 40
1.0
 40
1.0
 40
1.0
 10
898.4541597396667
 20
941.1381004231841
 30
0.0
 10
898.4732009386316
 20
942.0708260584346
 30
0.0
 10
898.5115814311982
 20
943.9508793773732
 30
0.0
 10
898.576993898247
 20
946.80563652771
 30
0.0
 10
898.626215145116
 20
949.6296211671165
 30
0.0
 10
898.6630545272878
 20
952.9067082504973
 30
0.0
 10
898.6372228894699
 20
956.722942260594
 30
0.0
 10
898.5827242450971
 20
959.4315416552522
 30
0.0
 10
898.5551425165794
 20
960.802362049526
 30
0.0
  0
ARC
  5
18E
330
1F
100
AcDbEntity
  8
0
  6
Continuous
 62
     8
370
    18
100
AcDbCircle
 10
898.2286987825
 20
933.068714618
 30
0.0
 40
8.072534912691639
100
AcDbArc
 50
88.399555844
 51
102.2537357991
  0
ARC
  5
18F
330
1F
100
AcDbEntity
  8
0
  6
Continuous
 62
     8
370
    18
100
AcDbCircle
 10
898.3810883001
 20
966.2297983375
 30
0.0
 40
5.430226471405081
100
AcDbArc
 50
249.71237279
 51
271.8368074448
  0
SPLINE
  5
190
330
1F
100
AcDbEntity
  8
0
  6
Continuous
 62
     8
370
    18
100
AcDbSpline
210
0.0
220
0.0
230
1.0
 70
     8
 71
     3
 72
    13
 73
     9
 74
     0
 42
0.000000001
 43
0.00000001
 40
0.0
 40
0.0
 40
0.0
 40
0.0
 40
0.2027299767790306
 40
0.4113282396852193
 40
0.6140610633746082
 40
0.8226668372537687
 40
0.911099727678664
 40
0.9999999999999999
 40
0.9999999999999999
 40
0.9999999999999999
 40
0.9999999999999999
 10
968.9781595197915
 20
961.4014328204435
 30
0.0
 10
968.9933856475963
 20
960.0992951529082
 30
0.0
 10
969.0242786435248
 20
957.4573277284313
 30
0.0
 10
969.0470415433792
 20
953.1891024953313
 30
0.0
 10
968.9942726171915
 20
948.794902571836
 30
0.0
 10
968.9398544787451
 20
945.2562064063578
 30
0.0
 10
968.8993095388129
 20
942.5865017192492
 30
0.0
 10
968.8839268482831
 20
941.3904681047468
 30
0.0
 10
968.8762152315952
 20
940.7908751555876
 30
0.0
  0
ARC
  5
191
330
1F
100
AcDbEntity
  8
0
  6
Continuous
 62
     8
370
    18
100
AcDbCircle
 10
968.8808669038
 20
945.8485678063
 30
0.0
 40
5.057694789840093
100
AcDbArc
 50
255.2593224014
 51
269.947303814
  0
SPLINE
  5
192
330
1F
100
AcDbEntity
  8
0
  6
Continuous
 62
     8
370
    18
100
AcDbSpline
210
0.0
220
0.0
230
1.0
 70
     8
 71
     3
 72
    13
 73
     9
 74
     0
 42
0.000000001
 43
0.00000001
 40
0.0
 40
0.0
 40
0.0
 40
0.0
 40
0.2149368602724792
 40
0.4364871802266578
 40
0.5720189549561241
 40
0.7091058686892353
 40
0.8535021383530079
 40
1.0
 40
1.0
 40
1.0
 40
1.0
 10
967.6110875479269
 20
961.1364423073468
 30
0.0
 10
967.6094340901037
 20
959.7776509003943
 30
0.0
 10
967.606076298695
 20
957.0182590074215
 30
0.0
 10
967.6038582182558
 20
953.1122080844422
 30
0.0
 10
967.5965848636002
 20
949.7018226737338
 30
0.0
 10
967.5933848508739
 20
946.8118678349324
 30
0.0
 10
967.5928997718112
 20
943.8653977894339
 30
0.0
 10
967.593607403629
 20
941.9313469386082
 30
0.0
 10
967.5939637757142
 20
940.9573351471505
 30
0.0
  0
ARC
  5
193
330
1F
100
AcDbEntity
  8
0
  6
Continuous
 62
     8
370
    18
100
AcDbCircle
 10
968.9501802042
 20
957.8869555469
 30
0.0
 40
3.514588645695397
100
AcDbArc
 50
89.543868773
 51
112.3962449547
  0
ARC
  5
194
330
1F
100
AcDbEntity
  8
0
  6
Continuous
 62
     8
370
    18
100
AcDbCircle
 10
965.8806377521
 20
933.068714618
 30
0.0
 40
8.072534912694914
100
AcDbArc
 50
77.7462642009
 51
91.600444156
  0
SPLINE
  5
195
330
1F
100
AcDbEntity
  8
0
  6
Continuous
 62
     8
370
    18
100
AcDbSpline
210
0.0
220
0.0
230
1.0
 70
     8
 71
     3
 72
    13
 73
     9
 74
     0
 42
0.000000001
 43
0.00000001
 40
0.0
 40
0.0
 40
0.0
 40
0.0
 40
0.1436817584227073
 40
0.2896128899910155
 40
0.4254711377184157
 40
0.5627814455502982
 40
0.7787239735870479
 40
1.0
 40
1.0
 40
1.0
 40
1.0
 10
965.6551767949201
 20
941.138100423184
 30
0.0
 10
965.6361355959552
 20
942.0708260584345
 30
0.0
 10
965.5977551033889
 20
943.9508793773731
 30
0.0
 10
965.5323426363399
 20
946.8056365277099
 30
0.0
 10
965.4831213894709
 20
949.6296211671165
 30
0.0
 10
965.446282007299
 20
952.9067082504972
 30
0.0
 10
965.472113645117
 20
956.7229422605939
 30
0.0
 10
965.5266122894898
 20
959.4315416552522
 30
0.0
 10
965.5541940180076
 20
960.8023620495259
 30
0.0
  0
ARC
  5
196
330
1F
100
AcDbEntity
  8
0
  6
Continuous
 62
     8
370
    18
100
AcDbCircle
 10
965.7282482344
 20
966.2297983375
 30
0.0
 40
5.43022647140672
100
AcDbArc
 50
268.1631925552
 51
290.28762721
  0
SPLINE
  5
197
330
1F
100
AcDbEntity
  8
0
  6
Continuous
 62
     8
370
    18
100
AcDbSpline
210
0.0
220
0.0
230
1.0
 70
     8
 71
     3
 72
    12
 73
     8
 74
     0
 42
0.000000001
 43
0.00000001
 40
0.0
 40
0.0
 40
0.0
 40
0.0
 40
0.1139159269059948
 40
0.3258009088085496
 40
0.5443041886655123
 40
0.8274327407183955
 40
1.0
 40
1.0
 40
1.0
 40
1.0
 10
887.5820387555833
 20
940.9722176619348
 30
0.0
 10
887.582410635204
 20
941.7256891456849
 30
0.0
 10
887.5834742153521
 20
943.8806265704551
 30
0.0
 10
887.5898258027065
 20
947.635533548651
 30
0.0
 10
887.6033358972604
 20
952.5814110628037
 30
0.0
 10
887.6050795118913
 20
957.189906962291
 30
0.0
 10
887.609496355411
 20
960.0458687478222
 30
0.0
 10
887.6111689680658
 20
961.1273917411954
 30
0.0
  0
ARC
  5
198
330
1F
100
AcDbEntity
  8
0
  6
Continuous
 62
     8
370
    18
100
AcDbCircle
 10
888.9627814947
 20
957.935255295
 30
0.0
 40
3.466495566627824
100
AcDbArc
 50
89.2238649506
 51
112.9487422267
  0
SPLINE
  5
199
330
1F
100
AcDbEntity
  8
0
  6
Continuous
 62
     8
370
    18
100
AcDbSpline
210
0.0
220
0.0
230
1.0
 70
     8
 71
     3
 72
    13
 73
     9
 74
     0
 42
0.000000001
 43
0.00000001
 40
0.0
 40
0.0
 40
0.0
 40
0.0
 40
0.2029467742027864
 40
0.4117773519856945
 40
0.6147258594307135
 40
0.8235672334127742
 40
0.9115535143092908
 40
1.0
 40
1.0
 40
1.0
 40
1.0
 10
888.9414348330789
 20
940.7908751555879
 30
0.0
 10
888.9513944239462
 20
942.1735299042565
 30
0.0
 10
888.9716023527014
 20
944.978925128466
 30
0.0
 10
889.0114823336048
 20
949.3523251443138
 30
0.0
 10
889.039664217707
 20
953.7458668778675
 30
0.0
 10
889.029112021453
 20
957.1848200350588
 30
0.0
 10
889.0159977588064
 20
959.7253747918847
 30
0.0
 10
889.0118279424436
 20
960.8417761422975
 30
0.0
 10
889.0097375960165
 20
961.4014328204436
 30
0.0
  0
ARC
  5
19A
330
1F
100
AcDbEntity
  8
0
  6
Continuous
 62
     8
370
    18
100
AcDbCircle
 10
888.9024003519
 20
945.6841464424
 30
0.0
 40
4.893426976804419
100
AcDbArc
 50
254.3462356244
 51
270.4570487635
  0
ARC
  5
19B
330
1F
100
AcDbEntity
  8
0
  6
Continuous
 62
     8
370
    18
100
AcDbCircle
 10
885.7102787411
 20
933.7153800368
 30
0.0
 40
7.494343057924023
100
AcDbArc
 50
75.536903345
 51
90.7939043825
  0
SPLINE
  5
19C
330
1F
100
AcDbEntity
  8
0
  6
Continuous
 62
     8
370
    18
100
AcDbSpline
210
0.0
220
0.0
230
1.0
 70
     8
 71
     3
 72
    12
 73
     8
 74
     0
 42
0.000000001
 43
0.00000001
 40
0.0
 40
0.0
 40
0.0
 40
0.0
 40
0.1720163517394605
 40
0.4559765852487111
 40
0.6679924881477984
 40
0.8863162030505051
 40
1.0
 40
1.0
 40
1.0
 40
1.0
 10
885.5443390817854
 20
960.7476444267361
 30
0.0
 10
885.526024977749
 20
959.699941509919
 30
0.0
 10
885.4774784149598
 20
956.9227171731945
 30
0.0
 10
885.4463590362135
 20
952.5010329079579
 30
0.0
 10
885.5042896539286
 20
947.7122914675532
 30
0.0
 10
885.5650191435216
 20
944.0701410785211
 30
0.0
 10
885.5958736225169
 20
941.9388024263084
 30
0.0
 10
885.6064386073436
 20
941.2090036659822
 30
0.0
  0
ARC
  5
19D
330
1F
100
AcDbEntity
  8
0
  6
Continuous
 62
     8
370
    18
100
AcDbCircle
 10
885.648002114
 20
965.9978278298
 30
0.0
 40
5.251206698455058
100
AcDbArc
 50
268.86886188
 51
291.9532916353
  0
SPLINE
  5
19E
330
1F
100
AcDbEntity
  8
0
  6
Continuous
 62
     8
370
    18
100
AcDbSpline
210
0.0
220
0.0
230
1.0
 70
     8
 71
     3
 72
    12
 73
     8
 74
     0
 42
0.000000001
 43
0.00000001
 40
0.0
 40
0.0
 40
0.0
 40
0.0
 40
0.1720163517392756
 40
0.4559765852483126
 40
0.6679924881472421
 40
0.886316203049785
 40
1.0
 40
1.0
 40
1.0
 40
1.0
 10
978.5649974528014
 20
960.7476444267351
 30
0.0
 10
978.5833115568379
 20
959.6999415099182
 30
0.0
 10
978.631858119627
 20
956.9227171731941
 30
0.0
 10
978.6629774983733
 20
952.5010329079579
 30
0.0
 10
978.6050468806584
 20
947.7122914675532
 30
0.0
 10
978.5443173910652
 20
944.0701410785157
 30
0.0
 10
978.5134629120699
 20
941.938802426298
 30
0.0
 10
978.5028979272432
 20
941.2090036659666
 30
0.0
  0
ARC
  5
19F
330
1F
100
AcDbEntity
  8
0
  6
Continuous
 62
     8
370
    18
100
AcDbCircle
 10
978.3990577935
 20
933.7153800358
 30
0.0
 40
7.494343058827487
100
AcDbArc
 50
89.206095618
 51
104.4630966537
  0
SPLINE
  5
1A0
330
1F
100
AcDbEntity
  8
0
  6
Continuous
 62
     8
370
    18
100
AcDbSpline
210
0.0
220
0.0
230
1.0
 70
     8
 71
     3
 72
    12
 73
     8
 74
     0
 42
0.000000001
 43
0.00000001
 40
0.0
 40
0.0
 40
0.0
 40
0.0
 40
0.1139185701341835
 40
0.3290869588708604
 40
0.5442936150078438
 40
0.8274287365843253
 40
1.0
 40
1.0
 40
1.0
 40
1.0
 10
976.5272977790038
 20
940.9722176619348
 30
0.0
 10
976.5269293319765
 20
941.7256715293925
 30
0.0
 10
976.5258649654596
 20
943.902242404528
 30
0.0
 10
976.5193418837765
 20
947.659191497815
 30
0.0
 10
976.506022593967
 20
952.6038041773509
 30
0.0
 10
976.5042522516878
 20
957.1899343612553
 30
0.0
 10
976.4998388687063
 20
960.0458762735934
 30
0.0
 10
976.498167566521
 20
961.1273917411954
 30
0.0
  0
ARC
  5
1A1
330
1F
100
AcDbEntity
  8
0
  6
Continuous
 62
     8
370
    18
100
AcDbCircle
 10
978.4613344206
 20
965.9978278298
 30
0.0
 40
5.251206698433389
100
AcDbArc
 50
248.0467083646
 51
271.13113812
  0
SPLINE
  5
1A2
330
1F
100
AcDbEntity
  8
0
  6
Continuous
 62
     8
370
    18
100
AcDbSpline
210
0.0
220
0.0
230
1.0
 70
     8
 71
     3
 72
    13
 73
     9
 74
     0
 42
0.000000001
 43
0.00000001
 40
0.0
 40
0.0
 40
0.0
 40
0.0
 40
0.2029467742027864
 40
0.4117773519856944
 40
0.6147258594307154
 40
0.8235672334127762
 40
0.9115535143092928
 40
1.0
 40
1.0
 40
1.0
 40
1.0
 10
975.1679017015082
 20
940.7908751555876
 30
0.0
 10
975.1579421106409
 20
942.1735299042564
 30
0.0
 10
975.1377341818855
 20
944.978925128466
 30
0.0
 10
975.097854200982
 20
949.3523251443138
 30
0.0
 10
975.0696723168799
 20
953.7458668778675
 30
0.0
 10
975.0802245131339
 20
957.1848200350587
 30
0.0
 10
975.0933387757806
 20
959.7253747918847
 30
0.0
 10
975.0975085921433
 20
960.8417761422972
 30
0.0
 10
975.0995989385704
 20
961.4014328204435
 30
0.0
  0
ARC
  5
1A3
330
1F
100
AcDbEntity
  8
0
  6
Continuous
 62
     8
370
    18
100
AcDbCircle
 10
975.1465550399
 20
957.935255295
 30
0.0
 40
3.466495566624878
100
AcDbArc
 50
67.0512577733
 51
90.7761350494
  0
ARC
  5
1A4
330
1F
100
AcDbEntity
  8
0
  6
Continuous
 62
     8
370
    18
100
AcDbCircle
 10
975.2069361827
 20
945.6841464424
 30
0.0
 40
4.893426976806134
100
AcDbArc
 50
269.5429512365
 51
285.6537643756
  0
SPLINE
  5
1A5
330
1F
100
AcDbEntity
  8
0
  6
Continuous
 62
     8
370
    18
100
AcDbSpline
210
0.0
220
0.0
230
1.0
 70
     8
 71
     3
 72
    18
 73
    14
 74
     0
 42
0.000000001
 43
0.00000001
 40
0.0
 40
0.0
 40
0.0
 40
0.0
 40
0.1170843799009928
 40
0.2372819249028641
 40
0.3300747022077608
 40
0.4254586925014808
 40
0.4734360164953295
 40
0.573116877193334
 40
0.676157917251345
 40
0.777286451926896
 40
0.8811332132399241
 40
0.9999978571948126
 40
1.0
 40
1.0
 40
1.0
 40
1.0
 10
914.3016252518211
 20
936.1035448012958
 30
0.0
 10
913.6494011640505
 20
936.8546755433662
 30
0.0
 10
912.3276109547578
 20
938.3769088974894
 30
0.0
 10
910.8664023807833
 20
940.917552623625
 30
0.0
 10
909.8365800599325
 20
943.5206056520025
 30
0.0
 10
909.3286352026112
 20
945.6523735482244
 30
0.0
 10
909.0468886496167
 20
947.8970780911903
 30
0.0
 10
909.0172139428272
 20
950.248316381057
 30
0.0
 10
909.4047288489254
 20
953.0480186169943
 30
0.0
 10
910.188417272053
 20
955.7653860671733
 30
0.0
 10
911.3994709167526
 20
958.4185797654432
 30
0.0
 10
912.4785610098936
 20
960.0562092541018
 30
0.0
 10
913.111749930779
 20
960.8652298585625
 30
0.0
 10
913.1117613452417
 20
960.8652444427335
 30
0.0
  0
SPLINE
  5
1A6
330
1F
100
AcDbEntity
  8
0
  6
Continuous
 62
     8
370
    18
100
AcDbSpline
210
0.0
220
0.0
230
1.0
 70
     8
 71
     3
 72
    12
 73
     8
 74
     0
 42
0.000000001
 43
0.00000001
 40
0.0
 40
0.0
 40
0.0
 40
0.0
 40
0.0000046503675272
 40
0.3713978843430377
 40
0.6812676171491644
 40
0.9999954071658926
 40
0.9999999999999999
 40
0.9999999999999999
 40
0.9999999999999999
 40
0.9999999999999999
 10
913.1117613452417
 20
960.8652444427335
 30
0.0
 10
913.1117719126504
 20
960.8652595543601
 30
0.0
 10
913.9557295673976
 20
962.0721375285895
 30
0.0
 10
915.7428663216673
 20
964.1467515164888
 30
0.0
 10
918.9157509785173
 20
966.67458322366
 30
0.0
 10
921.1924510285503
 20
967.9321468053072
 30
0.0
 10
922.4022016381272
 20
968.4726981715381
 30
0.0
 10
922.4022190702557
 20
968.4727059607144
 30
0.0
  0
SPLINE
  5
1A7
330
1F
100
AcDbEntity
  8
0
  6
Continuous
 62
     8
370
    18
100
AcDbSpline
210
0.0
220
0.0
230
1.0
 70
     8
 71
     3
 72
    13
 73
     9
 74
     0
 42
0.000000001
 43
0.00000001
 40
0.0
 40
0.0
 40
0.0
 40
0.0
 40
0.0000060748835873
 40
0.0389961893340876
 40
0.4427059282785949
 40
0.8520774557676251
 40
0.9999939251164126
 40
1.0
 40
1.0
 40
1.0
 40
1.0
 10
922.4022190702557
 20
968.4727059607144
 30
0.0
 10
922.4022379768385
 20
968.4727113888325
 30
0.0
 10
922.5236040370407
 20
968.5075558292747
 30
0.0
 10
923.9039672257762
 20
968.8935751214526
 30
0.0
 10
926.6014820810219
 20
969.4658232798239
 30
0.0
 10
929.733396130164
 20
969.7869162931738
 30
0.0
 10
931.5677042695539
 20
969.8305718942667
 30
0.0
 10
932.0546482694756
 20
969.8322437234646
 30
0.0
 10
932.0546682672934
 20
969.8322437921233
 30
0.0
  0
ARC
  5
1A8
330
1F
100
AcDbEntity
  8
0
  6
Continuous
 62
     8
370
    18
100
AcDbCircle
 10
916.2365005731
 20
933.1367891548
 30
0.0
 40
3.541946015255718
100
AcDbArc
 50
94.7268731721
 51
123.1118118867
  0
LINE
  5
1A9
330
1F
100
AcDbEntity
  8
0
  6
Continuous
 62
     8
370
    18
100
AcDbLine
 10
895.1311770148
 20
961.4014328204
 30
0.0
 11
889.009737596
 21
961.4014328204
 31
0.0
  0
LINE
  5
1AA
330
1F
100
AcDbEntity
  8
0
  6
Continuous
 62
     8
370
    18
100
AcDbLine
 10
895.233121303
 20
940.7908751556
 30
0.0
 11
888.9414348331
 21
940.7908751556
 31
0.0
  0
LINE
  5
1AB
330
1F
100
AcDbEntity
  8
0
  6
Continuous
 62
     8
370
    18
100
AcDbLine
 10
968.9781595198
 20
961.4014328204
 30
0.0
 11
975.0995989386
 21
961.4014328204
 31
0.0
  0
LINE
  5
1AC
330
1F
100
AcDbEntity
  8
0
  6
Continuous
 62
     8
370
    18
100
AcDbLine
 10
968.8762152316
 20
940.7908751556
 30
0.0
 11
975.1679017015
 21
940.7908751556
 31
0.0
  0
SPLINE
  5
1AD
330
1F
100
AcDbEntity
  8
0
  6
Continuous
 62
     8
370
    18
100
AcDbSpline
210
0.0
220
0.0
230
1.0
 70
     8
 71
     3
 72
    11
 73
     7
 74
     0
 42
0.000000001
 43
0.00000001
 40
0.0
 40
0.0
 40
0.0
 40
0.0
 40
0.2462626445433184
 40
0.4941955352616855
 40
0.7464627646446215
 40
1.0
 40
1.0
 40
1.0
 40
1.0
 10
898.0006421061491
 20
936.1612940917814
 30
0.0
 10
898.0707113016066
 20
936.5445436066265
 30
0.0
 10
898.2113249282436
 20
937.3136419791339
 30
0.0
 10
898.3335344196487
 20
938.5400789460308
 30
0.0
 10
898.419236707733
 20
939.8131200045327
 30
0.0
 10
898.4424992593248
 20
940.6957016029911
 30
0.0
 10
898.4541597396667
 20
941.1381004231841
 30
0.0
  0
SPLINE
  5
1AE
330
1F
100
AcDbEntity
  8
0
  6
Continuous
 62
     8
370
    18
100
AcDbSpline
210
0.0
220
0.0
230
1.0
 70
     8
 71
     3
 72
    12
 73
     8
 74
     0
 42
0.000000001
 43
0.00000001
 40
0.0
 40
0.0
 40
0.0
 40
0.0
 40
0.1229311840443836
 40
0.3421870394857943
 40
0.5614466570298289
 40
0.7807202463634099
 40
1.0
 40
1.0
 40
1.0
 40
1.0
 10
898.5551425165794
 20
960.802362049526
 30
0.0
 10
898.5536717707977
 20
960.9142581961229
 30
0.0
 10
898.5495778531413
 20
961.2257284827837
 30
0.0
 10
898.5433384648858
 20
961.7357035323074
 30
0.0
 10
898.5354791758675
 20
962.3319976611525
 30
0.0
 10
898.5276296543656
 20
962.9269328453519
 30
0.0
 10
898.5225682043286
 20
963.3221159154842
 30
0.0
 10
898.5200374437384
 20
963.5197102278959
 30
0.0
  0
SPLINE
  5
1AF
330
1F
100
AcDbEntity
  8
0
  6
Continuous
 62
     8
370
    18
100
AcDbSpline
210
0.0
220
0.0
230
1.0
 70
     8
 71
     3
 72
    13
 73
     9
 74
     0
 42
0.000000001
 43
0.00000001
 40
0.0
 40
0.0
 40
0.0
 40
0.0
 40
0.2367907207557265
 40
0.4727251677986153
 40
0.6779786081237327
 40
0.8068813697292117
 40
0.9029811039670014
 40
1.0
 40
1.0
 40
1.0
 40
1.0
 10
898.5200374437383
 20
963.5197102278959
 30
0.0
 10
898.503556307587
 20
964.0041345277847
 30
0.0
 10
898.47065363375
 20
964.9712313705992
 30
0.0
 10
898.184616977091
 20
966.3223997197103
 30
0.0
 10
897.6737589822903
 20
967.3928880034624
 30
0.0
 10
896.9932521394431
 20
968.0318775238367
 30
0.0
 10
896.3276289338808
 20
968.3517339387633
 30
0.0
 10
895.877781209794
 20
968.3910034092785
 30
0.0
 10
895.6517868067028
 20
968.410731597449
 30
0.0
  0
SPLINE
  5
1B0
330
1F
100
AcDbEntity
  8
0
  6
Continuous
 62
     8
370
    18
100
AcDbSpline
210
0.0
220
0.0
230
1.0
 70
     8
 71
     3
 72
    11
 73
     7
 74
     0
 42
0.000000001
 43
0.00000001
 40
0.0
 40
0.0
 40
0.0
 40
0.0
 40
0.2499912677933777
 40
0.499986756231606
 40
0.749992678491824
 40
1.0
 40
1.0
 40
1.0
 40
1.0
 10
895.6517868067028
 20
968.410731597449
 30
0.0
 10
895.0592967492798
 20
968.4162294523765
 30
0.0
 10
893.8743066313244
 20
968.4272252550526
 30
0.0
 10
892.0969486190203
 20
968.4485822447848
 30
0.0
 10
890.3197570598381
 20
968.4754551643653
 30
0.0
 10
889.1349886190893
 20
968.4924050951049
 30
0.0
 10
888.5426027409741
 20
968.5008800841914
 30
0.0
  0
SPLINE
  5
1B1
330
1F
100
AcDbEntity
  8
0
  6
Continuous
 62
     8
370
    18
100
AcDbSpline
210
0.0
220
0.0
230
1.0
 70
     8
 71
     3
 72
    10
 73
     6
 74
     0
 42
0.000000001
 43
0.00000001
 40
0.0
 40
0.0
 40
0.0
 40
0.0
 40
0.4993573099105828
 40
0.9998128115878191
 40
0.9999999999999999
 40
0.9999999999999999
 40
0.9999999999999999
 40
0.9999999999999999
 10
888.5426027409741
 20
968.5008800841914
 30
0.0
 10
888.4892457367775
 20
968.5008034640907
 30
0.0
 10
888.3824143851084
 20
968.5006500553861
 30
0.0
 10
888.2756613598063
 20
968.4950353138706
 30
0.0
 10
888.2223254853084
 20
968.4912703289998
 30
0.0
 10
888.2223055432262
 20
968.4912689212863
 30
0.0
  0
SPLINE
  5
1B2
330
1F
100
AcDbEntity
  8
0
  6
Continuous
 62
     8
370
    18
100
AcDbSpline
210
0.0
220
0.0
230
1.0
 70
     8
 71
     3
 72
    14
 73
    10
 74
     0
 42
0.000000001
 43
0.00000001
 40
0.0
 40
0.0
 40
0.0
 40
0.0
 40
0.0000086772972158
 40
0.0546554576672727
 40
0.1545956188497728
 40
0.2815115513695395
 40
0.4757791841528836
 40
0.7372214479202452
 40
1.0
 40
1.0
 40
1.0
 40
1.0
 10
888.2223055432262
 20
968.4912689212863
 30
0.0
 10
888.2222857003388
 20
968.4912668004529
 30
0.0
 10
888.0973018417832
 20
968.4779083650701
 30
0.0
 10
887.7468449375287
 20
968.4135071607878
 30
0.0
 10
887.1566307866431
 20
968.1575209755515
 30
0.0
 10
886.4746271554917
 20
967.5415843718965
 30
0.0
 10
885.9239002397399
 20
966.465910325621
 30
0.0
 10
885.6164635821441
 20
965.0450943011838
 30
0.0
 10
885.5864618087703
 20
963.986080639713
 30
0.0
 10
885.571422683408
 20
963.4552240461146
 30
0.0
  0
SPLINE
  5
1B3
330
1F
100
AcDbEntity
  8
0
  6
Continuous
 62
     8
370
    18
100
AcDbSpline
210
0.0
220
0.0
230
1.0
 70
     8
 71
     3
 72
    10
 73
     6
 74
     0
 42
0.000000001
 43
0.00000001
 40
0.0
 40
0.0
 40
0.0
 40
0.0
 40
0.4999712442950947
 40
0.7499826264318606
 40
1.0
 40
1.0
 40
1.0
 40
1.0
 10
885.571422683408
 20
963.4552240461146
 30
0.0
 10
885.5669196449264
 20
963.0057820893685
 30
0.0
 10
885.5601648551944
 20
962.3315959976779
 30
0.0
 10
885.5509903655648
 20
961.4276199348305
 30
0.0
 10
885.5465561940889
 20
960.9743047400015
 30
0.0
 10
885.5443390817854
 20
960.7476444267361
 30
0.0
  0
SPLINE
  5
1B4
330
1F
100
AcDbEntity
  8
0
  6
Continuous
 62
     8
370
    18
100
AcDbSpline
210
0.0
220
0.0
230
1.0
 70
     8
 71
     3
 72
    11
 73
     7
 74
     0
 42
0.000000001
 43
0.00000001
 40
0.0
 40
0.0
 40
0.0
 40
0.0
 40
0.2471593440128864
 40
0.4953474341907619
 40
0.7469783905689381
 40
1.0
 40
1.0
 40
1.0
 40
1.0
 10
885.6064386073436
 20
941.2090036659822
 30
0.0
 10
885.6154535385309
 20
940.7715896999516
 30
0.0
 10
885.6335209235649
 20
939.8949411288944
 30
0.0
 10
885.7060689284796
 20
938.612878921082
 30
0.0
 10
885.8128712119632
 20
937.3534031680573
 30
0.0
 10
885.9428239528919
 20
936.5506930675487
 30
0.0
 10
886.00797937642
 20
936.148232017516
 30
0.0
  0
SPLINE
  5
1B5
330
1F
100
AcDbEntity
  8
0
  6
Continuous
 62
     8
370
    18
100
AcDbSpline
210
0.0
220
0.0
230
1.0
 70
     8
 71
     3
 72
    18
 73
    14
 74
     0
 42
0.000000001
 43
0.00000001
 40
0.0
 40
0.0
 40
0.0
 40
0.0
 40
0.0523730000254521
 40
0.1524774488988102
 40
0.2527454654215888
 40
0.3528294914886502
 40
0.4529446917616035
 40
0.556569686972852
 40
0.6602042581553627
 40
0.775627970474933
 40
0.8910143299899645
 40
0.9999989407468235
 40
1.0
 40
1.0
 40
1.0
 40
1.0
 10
886.00797937642
 20
936.148232017516
 30
0.0
 10
885.0193508460062
 20
936.1536544196292
 30
0.0
 10
882.141082345962
 20
936.1694410661975
 30
0.0
 10
877.3777056037126
 20
936.0458427663361
 30
0.0
 10
871.9424488685479
 20
935.780047167999
 30
0.0
 10
866.835197250853
 20
935.6948019155493
 30
0.0
 10
862.1207340620947
 20
935.5937285602298
 30
0.0
 10
857.9136545888362
 20
935.5088901849609
 30
0.0
 10
854.1688363846708
 20
935.4311931003253
 30
0.0
 10
851.1320986234226
 20
935.3771311656618
 30
0.0
 10
849.0361994251206
 20
935.3318515807547
 30
0.0
 10
848.3721592794666
 20
935.2911172023204
 30
0.0
 10
848.2238315207862
 20
935.2738254453592
 30
0.0
 10
848.2238300791596
 20
935.2738252772971
 30
0.0
  0
SPLINE
  5
1B6
330
1F
100
AcDbEntity
  8
0
  6
Continuous
 62
     8
370
    18
100
AcDbSpline
210
0.0
220
0.0
230
1.0
 70
    24
 71
     3
 72
    13
 73
     9
 74
     0
 42
0.000000001
 43
0.00000001
 40
0.0
 40
0.0
 40
0.0
 40
0.0
 40
0.0110338135176561
 40
0.1238791831256928
 40
0.2424431658814002
 40
0.3676203809258461
 40
0.4940963046860039
 40
1.0
 40
1.0
 40
1.0
 40
1.0
 10
932.0546682672934
 20
969.8322437921329
 30
0.0
 10
932.0546682672934
 20
969.8472199303701
 30
0.0
 10
932.0546682672934
 20
970.0153605073538
 30
0.0
 10
932.0546682672934
 20
970.3177647457907
 30
0.0
 10
932.0546682672934
 20
970.6443718099051
 30
0.0
 10
932.0546682672934
 20
971.5200908978015
 30
0.0
 10
932.0546682672934
 20
973.1271502117338
 30
0.0
 10
932.0546682672934
 20
974.5074441944145
 30
0.0
 10
932.0546682672934
 20
975.6116793806783
 30
0.0
  0
SPLINE
  5
1B7
330
1F
100
AcDbEntity
  8
0
  6
Continuous
 62
     8
370
    18
100
AcDbSpline
210
0.0
220
0.0
230
1.0
 70
     8
 71
     3
 72
    10
 73
     6
 74
     0
 42
0.000000001
 43
0.00000001
 40
0.0
 40
0.0
 40
0.0
 40
0.0
 40
0.1324174185454047
 40
0.56618905355062
 40
1.0
 40
1.0
 40
1.0
 40
1.0
 10
914.3016252518211
 20
936.1035448012958
 30
0.0
 10
913.5821733222464
 20
936.1051549894564
 30
0.0
 10
910.5059480676256
 20
936.112039815642
 30
0.0
 10
905.0723439916885
 20
936.1360281036655
 30
0.0
 10
900.3579472734145
 20
936.1528718413379
 30
0.0
 10
898.0006421061491
 20
936.1612940917814
 30
0.0
  0
SPLINE
  5
1B8
330
1F
100
AcDbEntity
  8
0
  6
Continuous
 62
     8
370
    18
100
AcDbSpline
210
0.0
220
0.0
230
1.0
 70
     8
 71
     3
 72
    13
 73
     9
 74
     0
 42
0.000000001
 43
0.00000001
 40
0.0
 40
0.0
 40
0.0
 40
0.0
 40
0.0000053737334978
 40
0.0906707942514922
 40
0.4284179505337224
 40
0.7661993120302167
 40
0.9999947023277419
 40
1.0
 40
1.0
 40
1.0
 40
1.0
 10
1014.250866543964
 20
959.7725317374503
 30
0.0
 10
1014.25086426758
 20
959.772548872569
 30
0.0
 10
1014.212454930767
 20
960.0616690574072
 30
0.0
 10
1014.045395937182
 20
961.4125386325967
 30
0.0
 10
1013.903931034594
 20
963.6932786523171
 30
0.0
 10
1014.007752615258
 20
966.0606345198107
 30
0.0
 10
1014.195758287787
 20
967.3215006843748
 30
0.0
 10
1014.282478204011
 20
967.7937268200939
 30
0.0
 10
1014.282480168991
 20
967.7937375202305
 30
0.0
  0
SPLINE
  5
1B9
330
1F
100
AcDbEntity
  8
0
  6
Continuous
 62
     8
370
    18
100
AcDbSpline
210
0.0
220
0.0
230
1.0
 70
     8
 71
     3
 72
    16
 73
    12
 74
     0
 42
0.000000001
 43
0.00000001
 40
0.0
 40
0.0
 40
0.0
 40
0.0
 40
0.1394094534900457
 40
0.2827549548329896
 40
0.4174662298324172
 40
0.5565082610192973
 40
0.6798003195682376
 40
0.8081263295826784
 40
0.9032923535072406
 40
0.9999977543174701
 40
1.0
 40
1.0
 40
1.0
 40
1.0
 10
1011.057394240625
 20
935.4107932772208
 30
0.0
 10
1011.33914706639
 20
936.3430400172637
 30
0.0
 10
1011.910607649076
 20
938.233854293304
 30
0.0
 10
1012.839293081458
 20
941.4534202714439
 30
0.0
 10
1013.703028930735
 20
944.8959005460835
 30
0.0
 10
1014.357885385671
 20
948.3604528217361
 30
0.0
 10
1014.719840351647
 20
951.8396037915015
 30
0.0
 10
1014.709087438732
 20
954.8752521147632
 30
0.0
 10
1014.510614669631
 20
957.5354916487896
 30
0.0
 10
1014.339214336565
 20
959.040339147267
 30
0.0
 10
1014.250868595471
 20
959.7725147353416
 30
0.0
 10
1014.250866543964
 20
959.7725317374503
 30
0.0
  0
SPLINE
  5
1BA
330
1F
100
AcDbEntity
  8
0
  6
Continuous
 62
     8
370
    18
100
AcDbSpline
210
0.0
220
0.0
230
1.0
 70
     8
 71
     3
 72
    15
 73
    11
 74
     0
 42
0.000000001
 43
0.00000001
 40
0.0
 40
0.0
 40
0.0
 40
0.0
 40
0.0741043092108435
 40
0.2157454416471968
 40
0.3576180114207978
 40
0.4992302469455353
 40
0.6408865918967271
 40
0.7875090630818136
 40
0.9341450836288825
 40
1.0
 40
1.0
 40
1.0
 40
1.0
 10
978.1013571581677
 20
936.1482320175162
 30
0.0
 10
979.0899865729253
 20
936.1536544294702
 30
0.0
 10
981.9682576476268
 20
936.1694411046891
 30
0.0
 10
986.7316013826947
 20
936.0458424375248
 30
0.0
 10
992.1669962700405
 20
935.780048376541
 30
0.0
 10
997.2737352410909
 20
935.6947974193748
 30
0.0
 10
1001.990133212303
 20
935.5937455942567
 30
0.0
 10
1006.189745579231
 20
935.5088241252504
 30
0.0
 10
1009.158097289408
 20
935.4479674776364
 30
0.0
 10
1010.608032267352
 20
935.4195884643257
 30
0.0
 10
1011.057394240625
 20
935.4107932772208
 30
0.0
  0
SPLINE
  5
1BB
330
1F
100
AcDbEntity
  8
0
  6
Continuous
 62
     8
370
    18
100
AcDbSpline
210
0.0
220
0.0
230
1.0
 70
     8
 71
     3
 72
    11
 73
     7
 74
     0
 42
0.000000001
 43
0.00000001
 40
0.0
 40
0.0
 40
0.0
 40
0.0
 40
0.2471593440107359
 40
0.4953474341893453
 40
0.7469783905682664
 40
1.0
 40
1.0
 40
1.0
 40
1.0
 10
978.5028979272432
 20
941.2090036659666
 30
0.0
 10
978.4938829960558
 20
940.7715896999415
 30
0.0
 10
978.4758156110216
 20
939.8949411288894
 30
0.0
 10
978.4032676061073
 20
938.612878921082
 30
0.0
 10
978.2964653226238
 20
937.3534031680575
 30
0.0
 10
978.1665125816954
 20
936.5506930675488
 30
0.0
 10
978.1013571581677
 20
936.1482320175162
 30
0.0
  0
SPLINE
  5
1BC
330
1F
100
AcDbEntity
  8
0
  6
Continuous
 62
     8
370
    18
100
AcDbSpline
210
0.0
220
0.0
230
1.0
 70
     8
 71
     3
 72
    10
 73
     6
 74
     0
 42
0.000000001
 43
0.00000001
 40
0.0
 40
0.0
 40
0.0
 40
0.0
 40
0.499971244294921
 40
0.749982626431599
 40
1.0
 40
1.0
 40
1.0
 40
1.0
 10
978.5379138511788
 20
963.4552240461145
 30
0.0
 10
978.5424168896603
 20
963.0057820893684
 30
0.0
 10
978.5491716793924
 20
962.3315959976777
 30
0.0
 10
978.5583461690221
 20
961.4276199348301
 30
0.0
 10
978.562780340498
 20
960.9743047400005
 30
0.0
 10
978.5649974528014
 20
960.7476444267351
 30
0.0
  0
SPLINE
  5
1BD
330
1F
100
AcDbEntity
  8
0
  6
Continuous
 62
     8
370
    18
100
AcDbSpline
210
0.0
220
0.0
230
1.0
 70
     8
 71
     3
 72
    14
 73
    10
 74
     0
 42
0.000000001
 43
0.00000001
 40
0.0
 40
0.0
 40
0.0
 40
0.0
 40
0.0000086772971397
 40
0.0546554576672008
 40
0.15459561884971
 40
0.2815115513694862
 40
0.475779184152845
 40
0.7372214479202271
 40
1.0
 40
1.0
 40
1.0
 40
1.0
 10
975.8870309913611
 20
968.4912689212862
 30
0.0
 10
975.8870508342484
 20
968.4912668004529
 30
0.0
 10
976.0120346928159
 20
968.4779083650035
 30
0.0
 10
976.3624915970479
 20
968.413507160845
 30
0.0
 10
976.9527057479481
 20
968.1575209755271
 30
0.0
 10
977.6347093790932
 20
967.5415843719078
 30
0.0
 10
978.1854362948479
 20
966.465910325616
 30
0.0
 10
978.4928729524427
 20
965.045094301185
 30
0.0
 10
978.5228747258165
 20
963.9860806397132
 30
0.0
 10
978.5379138511788
 20
963.4552240461145
 30
0.0
  0
SPLINE
  5
1BE
330
1F
100
AcDbEntity
  8
0
  6
Continuous
 62
     8
370
    18
100
AcDbSpline
210
0.0
220
0.0
230
1.0
 70
     8
 71
     3
 72
    10
 73
     6
 74
     0
 42
0.000000001
 43
0.00000001
 40
0.0
 40
0.0
 40
0.0
 40
0.0
 40
0.4993573099096776
 40
0.9998128115861747
 40
1.0
 40
1.0
 40
1.0
 40
1.0
 10
975.5667337936129
 20
968.5008800841913
 30
0.0
 10
975.6200907978116
 20
968.5008034640914
 30
0.0
 10
975.7269221494853
 20
968.5006500553882
 30
0.0
 10
975.8336751747645
 20
968.4950353138656
 30
0.0
 10
975.8870110492788
 20
968.4912703289998
 30
0.0
 10
975.8870309913611
 20
968.4912689212862
 30
0.0
  0
SPLINE
  5
1BF
330
1F
100
AcDbEntity
  8
0
  6
Continuous
 62
     8
370
    18
100
AcDbSpline
210
0.0
220
0.0
230
1.0
 70
     8
 71
     3
 72
    11
 73
     7
 74
     0
 42
0.000000001
 43
0.00000001
 40
0.0
 40
0.0
 40
0.0
 40
0.0
 40
0.2499912677933776
 40
0.4999867562316061
 40
0.7499926784918242
 40
1.0
 40
1.0
 40
1.0
 40
1.0
 10
968.4575497278842
 20
968.4107315974488
 30
0.0
 10
969.0500397853069
 20
968.4162294523762
 30
0.0
 10
970.2350299032624
 20
968.4272252550525
 30
0.0
 10
972.0123879155665
 20
968.4485822447847
 30
0.0
 10
973.7895794747487
 20
968.4754551643653
 30
0.0
 10
974.9743479154977
 20
968.4924050951048
 30
0.0
 10
975.5667337936129
 20
968.5008800841913
 30
0.0
  0
SPLINE
  5
1C0
330
1F
100
AcDbEntity
  8
0
  6
Continuous
 62
     8
370
    18
100
AcDbSpline
210
0.0
220
0.0
230
1.0
 70
     8
 71
     3
 72
    13
 73
     9
 74
     0
 42
0.000000001
 43
0.00000001
 40
0.0
 40
0.0
 40
0.0
 40
0.0
 40
0.236790720755729
 40
0.472725167798617
 40
0.6779786081237344
 40
0.8068813697292123
 40
0.9029811039670017
 40
0.9999999999999999
 40
0.9999999999999999
 40
0.9999999999999999
 40
0.9999999999999999
 10
965.5892990908484
 20
963.5197102278958
 30
0.0
 10
965.6057802269997
 20
964.0041345277846
 30
0.0
 10
965.6386829008369
 20
964.9712313705992
 30
0.0
 10
965.9247195574959
 20
966.3223997197102
 30
0.0
 10
966.4355775522966
 20
967.3928880034624
 30
0.0
 10
967.1160843951437
 20
968.0318775238366
 30
0.0
 10
967.7817076007061
 20
968.3517339387631
 30
0.0
 10
968.2315553247928
 20
968.3910034092785
 30
0.0
 10
968.4575497278842
 20
968.4107315974488
 30
0.0
  0
SPLINE
  5
1C1
330
1F
100
AcDbEntity
  8
0
  6
Continuous
 62
     8
370
    18
100
AcDbSpline
210
0.0
220
0.0
230
1.0
 70
     8
 71
     3
 72
    12
 73
     8
 74
     0
 42
0.000000001
 43
0.00000001
 40
0.0
 40
0.0
 40
0.0
 40
0.0
 40
0.1229311840443831
 40
0.3421870394857952
 40
0.5614466570298312
 40
0.7807202463634135
 40
1.0
 40
1.0
 40
1.0
 40
1.0
 10
965.5541940180076
 20
960.8023620495259
 30
0.0
 10
965.5556647637892
 20
960.9142581961228
 30
0.0
 10
965.5597586814455
 20
961.2257284827836
 30
0.0
 10
965.5659980697011
 20
961.7357035323072
 30
0.0
 10
965.5738573587195
 20
962.3319976611523
 30
0.0
 10
965.5817068802214
 20
962.9269328453518
 30
0.0
 10
965.5867683302581
 20
963.3221159154842
 30
0.0
 10
965.5892990908484
 20
963.5197102278958
 30
0.0
  0
SPLINE
  5
1C2
330
1F
100
AcDbEntity
  8
0
  6
Continuous
 62
     8
370
    18
100
AcDbSpline
210
0.0
220
0.0
230
1.0
 70
     8
 71
     3
 72
    11
 73
     7
 74
     0
 42
0.000000001
 43
0.00000001
 40
0.0
 40
0.0
 40
0.0
 40
0.0
 40
0.2462626445433908
 40
0.4941955352617329
 40
0.7464627646446462
 40
1.0
 40
1.0
 40
1.0
 40
1.0
 10
966.1086944284377
 20
936.1612940917809
 30
0.0
 10
966.0386252329803
 20
936.5445436066261
 30
0.0
 10
965.8980116063433
 20
937.3136419791336
 30
0.0
 10
965.7758021149382
 20
938.5400789460308
 30
0.0
 10
965.6900998268541
 20
939.8131200045327
 30
0.0
 10
965.666837275262
 20
940.695701602991
 30
0.0
 10
965.6551767949201
 20
941.138100423184
 30
0.0
  0
SPLINE
  5
1C3
330
1F
100
AcDbEntity
  8
0
  6
Continuous
 62
     8
370
    18
100
AcDbSpline
210
0.0
220
0.0
230
1.0
 70
     8
 71
     3
 72
    10
 73
     6
 74
     0
 42
0.000000001
 43
0.00000001
 40
0.0
 40
0.0
 40
0.0
 40
0.0
 40
0.1324174185454161
 40
0.5661890535506261
 40
1.0
 40
1.0
 40
1.0
 40
1.0
 10
949.8077112827656
 20
936.1035448012959
 30
0.0
 10
950.5271632123404
 20
936.1051549894564
 30
0.0
 10
953.6033884669612
 20
936.1120398156418
 30
0.0
 10
959.0369925428985
 20
936.1360281036656
 30
0.0
 10
963.7513892611726
 20
936.1528718413375
 30
0.0
 10
966.1086944284377
 20
936.1612940917809
 30
0.0
  0
SPLINE
  5
1C4
330
1F
100
AcDbEntity
  8
0
  6
Continuous
 62
     8
370
    18
100
AcDbSpline
210
0.0
220
0.0
230
1.0
 70
     8
 71
     3
 72
    11
 73
     7
 74
     0
 42
0.000000001
 43
0.00000001
 40
0.0
 40
0.0
 40
0.0
 40
0.0
 40
0.0000075172908922
 40
0.4486753649769363
 40
0.9105406426921419
 40
1.0
 40
1.0
 40
1.0
 40
1.0
 10
1014.282480168991
 20
967.7937375202305
 30
0.0
 10
1014.282483823112
 20
967.7937457044392
 30
0.0
 10
1014.500582853939
 20
968.2822265799275
 30
0.0
 10
1014.81436713666
 20
969.0684460305653
 30
0.0
 10
1014.940556020535
 20
969.5403857099752
 30
0.0
 10
1014.984727264232
 20
969.6845481357972
 30
0.0
 10
1014.991894604164
 20
969.7079403028484
 30
0.0
  0
SPLINE
  5
1C5
330
1F
100
AcDbEntity
  8
0
  6
Continuous
 62
     8
370
    18
100
AcDbSpline
210
0.0
220
0.0
230
1.0
 70
     8
 71
     3
 72
    11
 73
     7
 74
     0
 42
0.000000001
 43
0.00000001
 40
0.0
 40
0.0
 40
0.0
 40
0.0
 40
0.3674155899718534
 40
0.7400731437703103
 40
0.8699218969645782
 40
1.0
 40
1.0
 40
1.0
 40
1.0
 10
896.5153727588729
 20
940.9573351471506
 30
0.0
 10
896.5150016908344
 20
940.3302980180802
 30
0.0
 10
896.5142542606836
 20
939.0672777433894
 30
0.0
 10
896.5118531101891
 20
937.6796065059488
 30
0.0
 10
896.5033796583701
 20
936.7156018594608
 30
0.0
 10
896.4956688478876
 20
936.3337764303556
 30
0.0
 10
896.4918100407792
 20
936.1426952614871
 30
0.0
  0
SPLINE
  5
1C6
330
1F
100
AcDbEntity
  8
0
  6
Continuous
 62
     8
370
    18
100
AcDbSpline
210
0.0
220
0.0
230
1.0
 70
     8
 71
     3
 72
    17
 73
    13
 74
     0
 42
0.000000001
 43
0.00000001
 40
0.0
 40
0.0
 40
0.0
 40
0.0
 40
0.3465956100132797
 40
0.5797997290136695
 40
0.7338947238710126
 40
0.8810219207410026
 40
0.9331891565949327
 40
0.9524593563030795
 40
0.9753918570412519
 40
0.9867243403144462
 40
0.9980977605384078
 40
1.0
 40
1.0
 40
1.0
 40
1.0
 10
896.4918100407792
 20
936.1426952614871
 30
0.0
 10
896.4817930177327
 20
935.7620343049742
 30
0.0
 10
896.4650361198376
 20
935.1252486300958
 30
0.0
 10
896.4472417497564
 20
934.3909844097775
 30
0.0
 10
896.4121487294711
 20
933.8826752982246
 30
0.0
 10
896.363448963785
 20
933.562332260645
 30
0.0
 10
896.2810915531626
 20
933.375033796007
 30
0.0
 10
896.2210552771166
 20
933.3014826838698
 30
0.0
 10
896.1716833917874
 20
933.2644324223954
 30
0.0
 10
896.1133760516916
 20
933.246292792094
 30
0.0
 10
896.0782013880615
 20
933.2440153273584
 30
0.0
 10
896.0597463363983
 20
933.2451622342634
 30
0.0
 10
896.0571019534924
 20
933.2453265719781
 30
0.0
  0
SPLINE
  5
1C7
330
1F
100
AcDbEntity
  8
0
  6
Continuous
 62
     8
370
    18
100
AcDbSpline
210
0.0
220
0.0
230
1.0
 70
     8
 71
     3
 72
    13
 73
     9
 74
     0
 42
0.000000001
 43
0.00000001
 40
0.0
 40
0.0
 40
0.0
 40
0.0
 40
0.2478822118510315
 40
0.5026960354996678
 40
0.5906876656854322
 40
0.678980387327664
 40
0.8384693780655371
 40
1.0
 40
1.0
 40
1.0
 40
1.0
 10
895.2331213029917
 20
940.7908751555879
 30
0.0
 10
895.2481945868096
 20
940.0431666778466
 30
0.0
 10
895.278762653637
 20
938.5268413043424
 30
0.0
 10
895.3883314050631
 20
936.9220234975149
 30
0.0
 10
895.5015150604872
 20
935.8437311444374
 30
0.0
 10
895.6039862081616
 20
935.0468084261637
 30
0.0
 10
895.7679361385956
 20
934.1430400383466
 30
0.0
 10
895.9603055360986
 20
933.5458304452374
 30
0.0
 10
896.0571019534924
 20
933.2453265719782
 30
0.0
  0
SPLINE
  5
1C8
330
1F
100
AcDbEntity
  8
0
  6
Continuous
 62
     8
370
    18
100
AcDbSpline
210
0.0
220
0.0
230
1.0
 70
     8
 71
     3
 72
    13
 73
     9
 74
     0
 42
0.000000001
 43
0.00000001
 40
0.0
 40
0.0
 40
0.0
 40
0.0
 40
0.2478822118510322
 40
0.502696035499669
 40
0.5906876656854326
 40
0.6789803873276651
 40
0.8384693780655392
 40
1.0
 40
1.0
 40
1.0
 40
1.0
 10
968.8762152315952
 20
940.7908751555876
 30
0.0
 10
968.8611419477774
 20
940.0431666778466
 30
0.0
 10
968.8305738809498
 20
938.5268413043424
 30
0.0
 10
968.7210051295239
 20
936.9220234975148
 30
0.0
 10
968.6078214740998
 20
935.8437311444371
 30
0.0
 10
968.5053503264254
 20
935.0468084261636
 30
0.0
 10
968.3414003959913
 20
934.1430400383465
 30
0.0
 10
968.1490309984883
 20
933.5458304452372
 30
0.0
 10
968.0522345810946
 20
933.2453265719781
 30
0.0
  0
SPLINE
  5
1C9
330
1F
100
AcDbEntity
  8
0
  6
Continuous
 62
     8
370
    18
100
AcDbSpline
210
0.0
220
0.0
230
1.0
 70
     8
 71
     3
 72
    17
 73
    13
 74
     0
 42
0.000000001
 43
0.00000001
 40
0.0
 40
0.0
 40
0.0
 40
0.0
 40
0.3465956100132824
 40
0.5797997290136738
 40
0.7338947238710104
 40
0.8810219207410025
 40
0.9331891565949331
 40
0.9524593563030792
 40
0.9753918570412518
 40
0.9867243403144461
 40
0.9980977605384078
 40
1.0
 40
1.0
 40
1.0
 40
1.0
 10
967.6175264938076
 20
936.1426952614869
 30
0.0
 10
967.6275435168542
 20
935.7620343049741
 30
0.0
 10
967.6443004147495
 20
935.1252486300958
 30
0.0
 10
967.6620947848306
 20
934.3909844097774
 30
0.0
 10
967.697187805116
 20
933.8826752982246
 30
0.0
 10
967.7458875708019
 20
933.562332260645
 30
0.0
 10
967.8282449814243
 20
933.375033796007
 30
0.0
 10
967.8882812574705
 20
933.3014826838698
 30
0.0
 10
967.9376531427997
 20
933.2644324223954
 30
0.0
 10
967.9959604828953
 20
933.246292792094
 30
0.0
 10
968.0311351465253
 20
933.2440153273583
 30
0.0
 10
968.0495901981885
 20
933.2451622342634
 30
0.0
 10
968.0522345810946
 20
933.2453265719781
 30
0.0
  0
SPLINE
  5
1CA
330
1F
100
AcDbEntity
  8
0
  6
Continuous
 62
     8
370
    18
100
AcDbSpline
210
0.0
220
0.0
230
1.0
 70
     8
 71
     3
 72
    11
 73
     7
 74
     0
 42
0.000000001
 43
0.00000001
 40
0.0
 40
0.0
 40
0.0
 40
0.0
 40
0.367415589971851
 40
0.7400731437703101
 40
0.8699218969645782
 40
1.0
 40
1.0
 40
1.0
 40
1.0
 10
967.5939637757142
 20
940.9573351471505
 30
0.0
 10
967.5943348437527
 20
940.33029801808
 30
0.0
 10
967.5950822739034
 20
939.0672777433892
 30
0.0
 10
967.5974834243978
 20
937.6796065059486
 30
0.0
 10
967.6059568762169
 20
936.7156018594607
 30
0.0
 10
967.6136676866995
 20
936.3337764303556
 30
0.0
 10
967.6175264938076
 20
936.1426952614869
 30
0.0
  0
SPLINE
  5
1CB
330
1F
100
AcDbEntity
  8
0
  6
Continuous
 62
     8
370
    18
100
AcDbSpline
210
0.0
220
0.0
230
1.0
 70
     8
 71
     3
 72
    16
 73
    12
 74
     0
 42
0.000000001
 43
0.00000001
 40
0.0
 40
0.0
 40
0.0
 40
0.0
 40
0.0117733620155408
 40
0.0227113902881394
 40
0.0341085178796155
 40
0.0448724470144665
 40
0.0843977891274209
 40
0.1801725761900129
 40
0.6004756555876873
 40
0.7301077904365098
 40
1.0
 40
1.0
 40
1.0
 40
1.0
 10
888.0223760539792
 20
932.938057975323
 30
0.0
 10
888.0051149737392
 20
932.9347046079002
 30
0.0
 10
887.9718175069995
 20
932.9282357983773
 30
0.0
 10
887.9172890483611
 20
932.9302993365633
 30
0.0
 10
887.8688780494883
 20
932.9439395214354
 30
0.0
 10
887.7969289489265
 20
932.984517464335
 30
0.0
 10
887.7029202991886
 20
933.1151839543656
 30
0.0
 10
887.577811474406
 20
933.6425728326941
 30
0.0
 10
887.598242909817
 20
934.3236424290495
 30
0.0
 10
887.5951388592218
 20
935.2542136339797
 30
0.0
 10
887.5888016236916
 20
935.7418954893568
 30
0.0
 10
887.584520606718
 20
936.0713410797258
 30
0.0
  0
SPLINE
  5
1CC
330
1F
100
AcDbEntity
  8
0
  6
Continuous
 62
     8
370
    18
100
AcDbSpline
210
0.0
220
0.0
230
1.0
 70
     8
 71
     3
 72
    11
 73
     7
 74
     0
 42
0.000000001
 43
0.00000001
 40
0.0
 40
0.0
 40
0.0
 40
0.0
 40
0.3598580230790419
 40
0.72460620690061
 40
0.8621677510649537
 40
1.0
 40
1.0
 40
1.0
 40
1.0
 10
887.584520606718
 20
936.0713410797258
 30
0.0
 10
887.5812685104663
 20
936.6176374283566
 30
0.0
 10
887.5747201247742
 20
937.717653822706
 30
0.0
 10
887.5807786277732
 20
939.1525851309299
 30
0.0
 10
887.5818941837457
 20
940.2488346679035
 30
0.0
 10
887.581990533401
 20
940.7309320342968
 30
0.0
 10
887.5820387555833
 20
940.9722176619348
 30
0.0
  0
SPLINE
  5
1CD
330
1F
100
AcDbEntity
  8
0
  6
Continuous
 62
     8
370
    18
100
AcDbSpline
210
0.0
220
0.0
230
1.0
 70
     8
 71
     3
 72
    12
 73
     8
 74
     0
 42
0.000000001
 43
0.00000001
 40
0.0
 40
0.0
 40
0.0
 40
0.0
 40
0.0542100646910309
 40
0.3612059465304456
 40
0.5267652948495993
 40
0.7633787062243813
 40
1.0
 40
1.0
 40
1.0
 40
1.0
 10
888.0223760539792
 20
932.938057975323
 30
0.0
 10
888.0611078652222
 20
933.035821273686
 30
0.0
 10
888.319180985419
 20
933.687225859207
 30
0.0
 10
888.5866575230237
 20
934.850329732099
 30
0.0
 10
888.7878435598263
 20
936.6861776697543
 30
0.0
 10
888.9088745003223
 20
938.525253283158
 30
0.0
 10
888.9305812683076
 20
940.0356594787861
 30
0.0
 10
888.9414348330789
 20
940.7908751555879
 30
0.0
  0
SPLINE
  5
1CE
330
1F
100
AcDbEntity
  8
0
  6
Continuous
 62
     8
370
    18
100
AcDbSpline
210
0.0
220
0.0
230
1.0
 70
     8
 71
     3
 72
    11
 73
     7
 74
     0
 42
0.000000001
 43
0.00000001
 40
0.0
 40
0.0
 40
0.0
 40
0.0
 40
0.3598580230790374
 40
0.7246062069006073
 40
0.8621677510649506
 40
1.0
 40
1.0
 40
1.0
 40
1.0
 10
976.5248159278689
 20
936.0713410797257
 30
0.0
 10
976.5280680241208
 20
936.6176374283566
 30
0.0
 10
976.5346164098127
 20
937.717653822706
 30
0.0
 10
976.528557906814
 20
939.1525851309298
 30
0.0
 10
976.5274423508413
 20
940.2488346679035
 30
0.0
 10
976.527346001186
 20
940.7309320342965
 30
0.0
 10
976.5272977790038
 20
940.9722176619348
 30
0.0
  0
SPLINE
  5
1CF
330
1F
100
AcDbEntity
  8
0
  6
Continuous
 62
     8
370
    18
100
AcDbSpline
210
0.0
220
0.0
230
1.0
 70
     8
 71
     3
 72
    16
 73
    12
 74
     0
 42
0.000000001
 43
0.00000001
 40
0.0
 40
0.0
 40
0.0
 40
0.0
 40
0.0117733620155406
 40
0.0227113902881391
 40
0.0341085178796156
 40
0.044872447014466
 40
0.0843977891274212
 40
0.1801725761900122
 40
0.6004756555876863
 40
0.7301077904365099
 40
1.0
 40
1.0
 40
1.0
 40
1.0
 10
976.0869604806077
 20
932.938057975323
 30
0.0
 10
976.1042215608479
 20
932.9347046079
 30
0.0
 10
976.1375190275874
 20
932.9282357983773
 30
0.0
 10
976.1920474862258
 20
932.9302993365633
 30
0.0
 10
976.2404584850985
 20
932.9439395214354
 30
0.0
 10
976.3124075856605
 20
932.9845174643349
 30
0.0
 10
976.4064162353983
 20
933.1151839543656
 30
0.0
 10
976.5315250601809
 20
933.642572832694
 30
0.0
 10
976.5110936247701
 20
934.3236424290494
 30
0.0
 10
976.5141976753652
 20
935.2542136339797
 30
0.0
 10
976.5205349108953
 20
935.7418954893568
 30
0.0
 10
976.5248159278689
 20
936.0713410797257
 30
0.0
  0
SPLINE
  5
1D0
330
1F
100
AcDbEntity
  8
0
  6
Continuous
 62
     8
370
    18
100
AcDbSpline
210
0.0
220
0.0
230
1.0
 70
     8
 71
     3
 72
    12
 73
     8
 74
     0
 42
0.000000001
 43
0.00000001
 40
0.0
 40
0.0
 40
0.0
 40
0.0
 40
0.0542100646910311
 40
0.3612059465304473
 40
0.5267652948496011
 40
0.7633787062243828
 40
1.0
 40
1.0
 40
1.0
 40
1.0
 10
976.0869604806077
 20
932.938057975323
 30
0.0
 10
976.0482286693648
 20
933.035821273686
 30
0.0
 10
975.7901555491678
 20
933.6872258592069
 30
0.0
 10
975.5226790115632
 20
934.850329732099
 30
0.0
 10
975.3214929747605
 20
936.6861776697543
 30
0.0
 10
975.2004620342645
 20
938.525253283158
 30
0.0
 10
975.1787552662794
 20
940.0356594787859
 30
0.0
 10
975.1679017015082
 20
940.7908751555876
 30
0.0
  0
LINE
  5
1D1
330
1F
100
AcDbEntity
  8
0
  6
Continuous
 62
     8
370
    18
100
AcDbLine
 10
896.0571019535
 20
933.245326572
 30
0.0
 11
888.022376054
 21
932.9380579753
 31
0.0
  0
LINE
  5
1D2
330
1F
100
AcDbEntity
  8
0
  6
Continuous
 62
     8
370
    18
100
AcDbLine
 10
968.0522345811
 20
933.245326572
 30
0.0
 11
976.0869604806
 21
932.9380579753
 31
0.0
  0
ARC
  5
1D3
330
1F
100
AcDbEntity
  8
0
  6
Continuous
 62
     8
370
    18
100
AcDbCircle
 10
897.3056074192
 20
931.3346767512
 30
0.0
 40
4.876403199905256
100
AcDbArc
 50
81.8057158496
 51
99.6067415552
  0
ARC
  5
1D4
330
1F
100
AcDbEntity
  8
0
  6
Continuous
 62
     8
370
    18
100
AcDbCircle
 10
966.8037291154
 20
931.3346767512
 30
0.0
 40
4.876403199916318
100
AcDbArc
 50
80.3932584449
 51
98.1942841504
  0
ARC
  5
1D5
330
1F
100
AcDbEntity
  8
0
  6
Continuous
 62
     8
370
    18
100
AcDbCircle
 10
886.5688065885
 20
931.4463774024
 30
0.0
 40
4.735183627176516
100
AcDbArc
 50
77.6135927186
 51
96.8019823782
  0
ARC
  5
1D6
330
1F
100
AcDbEntity
  8
0
  6
Continuous
 62
     8
370
    18
100
AcDbCircle
 10
977.5405299461
 20
931.4463774025
 30
0.0
 40
4.735183627154359
100
AcDbArc
 50
83.1980176217
 51
102.3864072814
  0
SPLINE
  5
1D7
330
1F
100
AcDbEntity
  8
0
  6
Continuous
 62
     8
370
    18
100
AcDbSpline
210
0.0
220
0.0
230
1.0
 70
     8
 71
     3
 72
    13
 73
     9
 74
     0
 42
0.000000001
 43
0.00000001
 40
0.0
 40
0.0
 40
0.0
 40
0.0
 40
0.3455606136556849
 40
0.7377948233629062
 40
0.8482878985160515
 40
0.9091433588593542
 40
0.9540191324658097
 40
1.0
 40
1.0
 40
1.0
 40
1.0
 10
886.00797937642
 20
936.148232017516
 30
0.0
 10
886.1179672858159
 20
935.647060671423
 30
0.0
 10
886.352798765383
 20
934.5770266161716
 30
0.0
 10
886.7026175096103
 20
933.4899264697609
 30
0.0
 10
887.2565766558585
 20
932.909744721995
 30
0.0
 10
887.56593141672
 20
932.7504288462704
 30
0.0
 10
887.8247337918475
 20
932.6856272338925
 30
0.0
 10
887.9877466439577
 20
932.6855700712522
 30
0.0
 10
888.0702444368009
 20
932.685541142296
 30
0.0
  0
SPLINE
  5
1D8
330
1F
100
AcDbEntity
  8
0
  6
Continuous
 62
     8
370
    18
100
AcDbSpline
210
0.0
220
0.0
230
1.0
 70
     8
 71
     3
 72
    11
 73
     7
 74
     0
 42
0.000000001
 43
0.00000001
 40
0.0
 40
0.0
 40
0.0
 40
0.0
 40
0.2499068565621724
 40
0.499844562614247
 40
0.7498974475611092
 40
1.0
 40
1.0
 40
1.0
 40
1.0
 10
888.0702444368009
 20
932.685541142296
 30
0.0
 10
888.7362796133118
 20
932.7176489744329
 30
0.0
 10
890.0684321843476
 20
932.7818686022246
 30
0.0
 10
892.069508474582
 20
932.8657422620654
 30
0.0
 10
894.0728136146258
 20
932.9388100842255
 30
0.0
 10
895.4100362857304
 20
932.9748086624404
 30
0.0
 10
896.078714017138
 20
932.9928097389513
 30
0.0
  0
SPLINE
  5
1D9
330
1F
100
AcDbEntity
  8
0
  6
Continuous
 62
     8
370
    18
100
AcDbSpline
210
0.0
220
0.0
230
1.0
 70
     8
 71
     3
 72
    14
 73
    10
 74
     0
 42
0.000000001
 43
0.00000001
 40
0.0
 40
0.0
 40
0.0
 40
0.0
 40
0.0519065920714214
 40
0.1222358501282133
 40
0.1884605327707516
 40
0.3425806135662271
 40
0.4883356727123453
 40
0.6976961013112942
 40
1.0
 40
1.0
 40
1.0
 40
1.0
 10
896.078714017138
 20
932.9928097389513
 30
0.0
 10
896.1621633475869
 20
932.9999941256604
 30
0.0
 10
896.358679810005
 20
933.0169127786093
 30
0.0
 10
896.6212047081553
 20
933.1305520367586
 30
0.0
 10
896.935958916601
 20
933.3664898463308
 30
0.0
 10
897.2075256041386
 20
933.7393272236402
 30
0.0
 10
897.4784429120564
 20
934.3065587609383
 30
0.0
 10
897.7453525186042
 20
935.0936045060462
 30
0.0
 10
897.9058287766522
 20
935.7647592958809
 30
0.0
 10
898.0006421061491
 20
936.1612940917814
 30
0.0
  0
SPLINE
  5
1DA
330
1F
100
AcDbEntity
  8
0
  6
Continuous
 62
     8
370
    18
100
AcDbSpline
210
0.0
220
0.0
230
1.0
 70
     8
 71
     3
 72
     9
 73
     5
 74
     0
 42
0.000000001
 43
0.00000001
 40
0.0
 40
0.0
 40
0.0
 40
0.0
 40
0.0293344768638219
 40
1.0
 40
1.0
 40
1.0
 40
1.0
 10
932.0546682672936
 20
929.1616793806783
 30
0.0
 10
932.0466072499554
 20
929.1616756382145
 30
0.0
 10
931.7718105533781
 20
929.1615480592006
 30
0.0
 10
931.4973900532892
 20
929.186691069365
 30
0.0
 10
931.2310195350111
 20
929.2110965224794
 30
0.0
  0
SPLINE
  5
1DB
330
1F
100
AcDbEntity
  8
0
  6
Continuous
 62
     8
370
    18
100
AcDbSpline
210
0.0
220
0.0
230
1.0
 70
     8
 71
     3
 72
    12
 73
     8
 74
     0
 42
0.000000001
 43
0.00000001
 40
0.0
 40
0.0
 40
0.0
 40
0.0
 40
0.1168311330920248
 40
0.372633444929892
 40
0.6338270238932804
 40
0.8149152954169068
 40
1.0
 40
1.0
 40
1.0
 40
1.0
 10
930.6892925910234
 20
929.2445749931829
 30
0.0
 10
930.0128995043979
 20
929.2737987940922
 30
0.0
 10
927.8555405939304
 20
929.3670082436497
 30
0.0
 10
924.2156634353321
 20
930.1765981011354
 30
0.0
 10
920.3192850827653
 20
931.7098787520065
 30
0.0
 10
916.9642173507551
 20
933.6905334235964
 30
0.0
 10
915.1955902509841
 20
935.293376501349
 30
0.0
 10
914.3016252518211
 20
936.1035448012958
 30
0.0
  0
SPLINE
  5
1DC
330
1F
100
AcDbEntity
  8
0
  6
Continuous
 62
     8
370
    18
100
AcDbSpline
210
0.0
220
0.0
230
1.0
 70
     8
 71
     3
 72
    14
 73
    10
 74
     0
 42
0.000000001
 43
0.00000001
 40
0.0
 40
0.0
 40
0.0
 40
0.0
 40
0.0519065920714864
 40
0.1222358501282813
 40
0.1884605327708231
 40
0.3425806135663074
 40
0.4883356727124331
 40
0.6976961013113864
 40
1.0
 40
1.0
 40
1.0
 40
1.0
 10
968.0306225174487
 20
932.9928097389501
 30
0.0
 10
967.947173187
 20
932.9999941256594
 30
0.0
 10
967.7506567245822
 20
933.0169127786095
 30
0.0
 10
967.4881318264315
 20
933.1305520367583
 30
0.0
 10
967.1733776179861
 20
933.3664898463308
 30
0.0
 10
966.9018109304484
 20
933.7393272236402
 30
0.0
 10
966.6308936225307
 20
934.3065587609381
 30
0.0
 10
966.3639840159829
 20
935.093604506046
 30
0.0
 10
966.2035077579346
 20
935.7647592958804
 30
0.0
 10
966.1086944284377
 20
936.1612940917809
 30
0.0
  0
SPLINE
  5
1DD
330
1F
100
AcDbEntity
  8
0
  6
Continuous
 62
     8
370
    18
100
AcDbSpline
210
0.0
220
0.0
230
1.0
 70
     8
 71
     3
 72
    11
 73
     7
 74
     0
 42
0.000000001
 43
0.00000001
 40
0.0
 40
0.0
 40
0.0
 40
0.0
 40
0.2499068565623326
 40
0.4998445626143546
 40
0.7498974475611632
 40
1.0
 40
1.0
 40
1.0
 40
1.0
 10
976.0390920977878
 20
932.6855411422963
 30
0.0
 10
975.3730569212764
 20
932.717648974433
 30
0.0
 10
974.04090435024
 20
932.7818686022244
 30
0.0
 10
972.039828060005
 20
932.8657422620649
 30
0.0
 10
970.036522919961
 20
932.9388100842258
 30
0.0
 10
968.6993002488566
 20
932.9748086624397
 30
0.0
 10
968.0306225174487
 20
932.9928097389501
 30
0.0
  0
SPLINE
  5
1DE
330
1F
100
AcDbEntity
  8
0
  6
Continuous
 62
     8
370
    18
100
AcDbSpline
210
0.0
220
0.0
230
1.0
 70
     8
 71
     3
 72
    13
 73
     9
 74
     0
 42
0.000000001
 43
0.00000001
 40
0.0
 40
0.0
 40
0.0
 40
0.0
 40
0.3455606136558529
 40
0.7377948233631723
 40
0.8482878985163453
 40
0.9091433588596641
 40
0.9540191324661307
 40
1.0
 40
1.0
 40
1.0
 40
1.0
 10
978.1013571581677
 20
936.1482320175162
 30
0.0
 10
977.9913692487714
 20
935.6470606714232
 30
0.0
 10
977.7565377692038
 20
934.5770266161716
 30
0.0
 10
977.4067190249767
 20
933.4899264697609
 30
0.0
 10
976.8527598787284
 20
932.9097447219949
 30
0.0
 10
976.5434051178669
 20
932.7504288462704
 30
0.0
 10
976.28460274274
 20
932.6856272338925
 30
0.0
 10
976.1215898906304
 20
932.6855700712524
 30
0.0
 10
976.0390920977878
 20
932.6855411422963
 30
0.0
  0
SPLINE
  5
1DF
330
1F
100
AcDbEntity
  8
0
  6
Continuous
 62
     8
370
    18
100
AcDbSpline
210
0.0
220
0.0
230
1.0
 70
     8
 71
     3
 72
    13
 73
     9
 74
     0
 42
0.000000001
 43
0.00000001
 40
0.0
 40
0.0
 40
0.0
 40
0.0
 40
0.0016043355124024
 40
0.2727926059062325
 40
0.4428579083924356
 40
0.615972383532482
 40
0.8046605251224445
 40
1.0
 40
1.0
 40
1.0
 40
1.0
 10
1003.74624756459
 20
929.1616793806782
 30
0.0
 10
1003.751702414765
 20
929.1616821106966
 30
0.0
 10
1004.679215882284
 20
929.1621463083619
 30
0.0
 10
1006.092052208121
 20
929.3599766368052
 30
0.0
 10
1007.812741840894
 20
930.1889688126997
 30
0.0
 10
1009.115387715032
 20
931.3323197268082
 30
0.0
 10
1010.271587459282
 20
932.9885037425433
 30
0.0
 10
1010.792451536223
 20
934.5940938602644
 30
0.0
 10
1011.057394240625
 20
935.4107932772208
 30
0.0
  0
SPLINE
  5
1E0
330
1F
100
AcDbEntity
  8
0
  6
Continuous
 62
     8
370
    18
100
AcDbSpline
210
0.0
220
0.0
230
1.0
 70
     8
 71
     3
 72
    13
 73
     9
 74
     0
 42
0.000000001
 43
0.00000001
 40
0.0
 40
0.0
 40
0.0
 40
0.0
 40
0.1765903405244139
 40
0.3535107282095488
 40
0.5953143040081181
 40
0.8373696963545589
 40
0.9987093023973762
 40
1.0
 40
1.0
 40
1.0
 40
1.0
 10
949.8077112827656
 20
936.1035448012959
 30
0.0
 10
948.8866289408795
 20
935.2709874953922
 30
0.0
 10
947.0427427551792
 20
933.6043168348556
 30
0.0
 10
943.5960887289037
 20
931.6168305313973
 30
0.0
 10
939.6100802970255
 20
930.0719935677658
 30
0.0
 10
935.6063992179813
 20
929.3027730142037
 30
0.0
 10
933.0784181847596
 20
929.1619745656907
 30
0.0
 10
932.0627291719616
 20
929.1616817049355
 30
0.0
 10
932.0546682672936
 20
929.1616793806783
 30
0.0
  0
SPLINE
  5
1E1
330
1F
100
AcDbEntity
  8
0
  6
Continuous
 62
     8
370
    18
100
AcDbSpline
210
0.0
220
0.0
230
1.0
 70
     8
 71
     3
 72
     9
 73
     5
 74
     0
 42
0.000000001
 43
0.00000001
 40
0.0
 40
0.0
 40
0.0
 40
0.0
 40
0.8741204396861987
 40
1.0
 40
1.0
 40
1.0
 40
1.0
 10
896.5019654305394
 20
963.8615764228432
 30
0.0
 10
896.5008536712392
 20
963.069974011805
 30
0.0
 10
896.4995818106926
 20
962.1643752234703
 30
0.0
 10
896.4983980037566
 20
961.2513708912511
 30
0.0
 10
896.4982489866601
 20
961.1364423073469
 30
0.0
  0
LINE
  5
1E2
330
1F
100
AcDbEntity
  8
0
  6
Continuous
 62
     8
370
    18
100
AcDbLine
 10
895.1625540937
 20
964.1229608868
 30
0.0
 11
895.1311770148
 21
961.4014328204
 31
0.0
  0
ARC
  5
1E3
330
1F
100
AcDbEntity
  8
0
  6
Continuous
 62
     8
370
    18
100
AcDbCircle
 10
895.18777497
 20
960.6897378774
 30
0.0
 40
3.43331564597868
100
AcDbArc
 50
67.4942658279
 51
90.4208942352
  0
LINE
  5
1E4
330
1F
100
AcDbEntity
  8
0
  6
Continuous
 62
     8
370
    18
100
AcDbLine
 10
968.9467824409
 20
964.1229608868
 30
0.0
 11
968.9781595198
 21
961.4014328204
 31
0.0
  0
SPLINE
  5
1E5
330
1F
100
AcDbEntity
  8
0
  6
Continuous
 62
     8
370
    18
100
AcDbSpline
210
0.0
220
0.0
230
1.0
 70
     8
 71
     3
 72
     9
 73
     5
 74
     0
 42
0.000000001
 43
0.00000001
 40
0.0
 40
0.0
 40
0.0
 40
0.0
 40
0.8741204396861987
 40
1.0
 40
1.0
 40
1.0
 40
1.0
 10
967.6073711040475
 20
963.8615764228431
 30
0.0
 10
967.6084828633478
 20
963.0699740118048
 30
0.0
 10
967.6097547238944
 20
962.1643752234703
 30
0.0
 10
967.6109385308303
 20
961.2513708912511
 30
0.0
 10
967.6110875479269
 20
961.1364423073468
 30
0.0
  0
ARC
  5
1E6
330
1F
100
AcDbEntity
  8
0
  6
Continuous
 62
     8
370
    18
100
AcDbCircle
 10
968.9215615646
 20
960.6897378774
 30
0.0
 40
3.433315645972107
100
AcDbArc
 50
89.5791057647
 51
112.5057341721
  0
LINE
  5
1E7
330
1F
100
AcDbEntity
  8
0
  6
Continuous
 62
     8
370
    18
100
AcDbLine
 10
887.6111689681
 20
961.1273917412
 30
0.0
 11
887.6067671475
 21
963.8455640748
 31
0.0
  0
ARC
  5
1E8
330
1F
100
AcDbEntity
  8
0
  6
Continuous
 62
     8
370
    18
100
AcDbCircle
 10
888.9467571869
 20
960.7514825699
 30
0.0
 40
3.371781971736299
100
AcDbArc
 50
89.2310445
 51
113.4165528547
  0
LINE
  5
1E9
330
1F
100
AcDbEntity
  8
0
  6
Continuous
 62
     8
370
    18
100
AcDbLine
 10
889.009737596
 20
961.4014328204
 30
0.0
 11
888.9920078578
 21
964.1229608868
 31
0.0
  0
LINE
  5
1EA
330
1F
100
AcDbEntity
  8
0
  6
Continuous
 62
     8
370
    18
100
AcDbLine
 10
975.0995989386
 20
961.4014328204
 30
0.0
 11
975.1173286768
 21
964.1229608868
 31
0.0
  0
ARC
  5
1EB
330
1F
100
AcDbEntity
  8
0
  6
Continuous
 62
     8
370
    18
100
AcDbCircle
 10
975.1625793477
 20
960.7514825699
 30
0.0
 40
3.371781971734702
100
AcDbArc
 50
66.5834471453
 51
90.7689555
  0
LINE
  5
1EC
330
1F
100
AcDbEntity
  8
0
  6
Continuous
 62
     8
370
    18
100
AcDbLine
 10
976.4981675665
 20
961.1273917412
 30
0.0
 11
976.5025693871
 21
963.8455640748
 31
0.0
  0
LINE
  5
1ED
330
1F
100
AcDbEntity
  8
0
  6
Continuous
 62
     8
370
    18
100
AcDbLine
 10
895.1625540937
 20
964.1229608868
 30
0.0
 11
888.9920078578
 21
964.1229608868
 31
0.0
  0
LINE
  5
1EE
330
1F
100
AcDbEntity
  8
0
  6
Continuous
 62
     8
370
    18
100
AcDbLine
 10
968.9467824409
 20
964.1229608868
 30
0.0
 11
975.1173286768
 21
964.1229608868
 31
0.0
  0
ARC
  5
1EF
330
1F
100
AcDbEntity
  8
0
  6
Continuous
 62
     8
370
    18
100
AcDbCircle
 10
898.3734313745
 20
968.7816577215
 30
0.0
 40
5.263989434305401
100
AcDbArc
 50
249.1745380236
 51
271.5959369635
  0
ARC
  5
1F0
330
1F
100
AcDbEntity
  8
0
  6
Continuous
 62
     8
370
    18
100
AcDbCircle
 10
965.73590516
 20
968.7816577215
 30
0.0
 40
5.263989434307287
100
AcDbArc
 50
268.4040630365
 51
290.8254619764
  0
ARC
  5
1F1
330
1F
100
AcDbEntity
  8
0
  6
Continuous
 62
     8
370
    18
100
AcDbCircle
 10
885.6516738675
 20
968.5383753083
 30
0.0
 40
5.083784712838926
100
AcDbArc
 50
269.0955075017
 51
292.6173188939
  0
ARC
  5
1F2
330
1F
100
AcDbEntity
  8
0
  6
Continuous
 62
     8
370
    18
100
AcDbCircle
 10
978.4576626671
 20
968.5383753083
 30
0.0
 40
5.083784712840989
100
AcDbArc
 50
247.3826811061
 51
270.9044924983
  0
ARC
  5
1F3
330
1F
100
AcDbEntity
  8
0
  6
Continuous
 62
     8
370
    18
100
AcDbCircle
 10
880.0765731763
 20
931.7504237703
 30
0.0
 40
16.05029701863748
100
AcDbArc
 50
4.439466091
 51
5.3441965801
  0
ARC
  5
1F4
330
1F
100
AcDbEntity
  8
0
  6
Continuous
 62
     8
370
    18
100
AcDbCircle
 10
984.0327633597
 20
931.7504237702
 30
0.0
 40
16.05029702001364
100
AcDbArc
 50
174.65580342
 51
175.5605339089
  0
ARC
  5
1F5
330
1F
100
AcDbEntity
  8
0
  6
Continuous
 62
     8
370
    18
100
AcDbCircle
 10
881.4910667263
 20
931.5691540587
 30
0.0
 40
6.673222569863223
100
AcDbArc
 50
9.6304973658
 51
11.8373353031
  0
ARC
  5
1F6
330
1F
100
AcDbEntity
  8
0
  6
Continuous
 62
     8
370
    18
100
AcDbCircle
 10
982.6182698146
 20
931.5691540575
 30
0.0
 40
6.673222576313947
100
AcDbArc
 50
168.1626646983
 51
170.3695026335
  0
SPLINE
  5
1F7
330
1F
100
AcDbEntity
  8
0
  6
Continuous
 62
     8
370
    18
100
AcDbSpline
210
0.0
220
0.0
230
1.0
 70
     8
 71
     3
 72
    15
 73
    11
 74
     0
 42
0.000000001
 43
0.00000001
 40
0.0
 40
0.0
 40
0.0
 40
0.0
 40
0.0357295768982801
 40
0.0559023856318683
 40
0.0935770997983526
 40
0.1154709098174164
 40
0.2166995392891669
 40
0.4238827620184569
 40
0.9068299214990614
 40
1.0
 40
1.0
 40
1.0
 40
1.0
 10
895.6346711547429
 20
967.5257043324277
 30
0.0
 10
895.6940416822001
 20
967.5275980326875
 30
0.0
 10
895.7869326260399
 20
967.5305609102636
 30
0.0
 10
895.9350265637955
 20
967.4896440258373
 30
0.0
 10
896.0430398183917
 20
967.4278940314878
 30
0.0
 10
896.2122731380384
 20
967.2719634512388
 30
0.0
 10
896.4051253180895
 20
966.8779263190363
 30
0.0
 10
896.5262378240484
 20
965.8839426353387
 30
0.0
 10
896.5019272527725
 20
964.8239226852542
 30
0.0
 10
896.5019601158929
 20
963.9955426203279
 30
0.0
 10
896.5019654305394
 20
963.8615764228432
 30
0.0
  0
SPLINE
  5
1F8
330
1F
100
AcDbEntity
  8
0
  6
Continuous
 62
     8
370
    18
100
AcDbSpline
210
0.0
220
0.0
230
1.0
 70
     8
 71
     3
 72
    11
 73
     7
 74
     0
 42
0.000000001
 43
0.00000001
 40
0.0
 40
0.0
 40
0.0
 40
0.0
 40
0.1688447665100252
 40
0.3388483789551351
 40
0.6648683581705616
 40
1.0
 40
1.0
 40
1.0
 40
1.0
 10
895.6346711547429
 20
967.5257043324277
 30
0.0
 10
895.5866234530893
 20
967.3751627060102
 30
0.0
 10
895.4901982801073
 20
967.0730462286612
 30
0.0
 10
895.340343804028
 20
966.3958463235657
 30
0.0
 10
895.2026259656707
 20
965.4478516725817
 30
0.0
 10
895.1760335455267
 20
964.5686301465778
 30
0.0
 10
895.1625540937043
 20
964.1229608868158
 30
0.0
  0
SPLINE
  5
1F9
330
1F
100
AcDbEntity
  8
0
  6
Continuous
 62
     8
370
    18
100
AcDbSpline
210
0.0
220
0.0
230
1.0
 70
     8
 71
     3
 72
    15
 73
    11
 74
     0
 42
0.000000001
 43
0.00000001
 40
0.0
 40
0.0
 40
0.0
 40
0.0
 40
0.0357295768982801
 40
0.0559023856318686
 40
0.0935770997983523
 40
0.1154709098174169
 40
0.2166995392891664
 40
0.4238827620184563
 40
0.9068299214990614
 40
1.0
 40
1.0
 40
1.0
 40
1.0
 10
968.4746653798438
 20
967.5257043324277
 30
0.0
 10
968.4152948523868
 20
967.5275980326874
 30
0.0
 10
968.3224039085471
 20
967.5305609102634
 30
0.0
 10
968.1743099707913
 20
967.4896440258373
 30
0.0
 10
968.0662967161953
 20
967.4278940314878
 30
0.0
 10
967.8970633965484
 20
967.2719634512388
 30
0.0
 10
967.7042112164972
 20
966.8779263190362
 30
0.0
 10
967.5830987105386
 20
965.8839426353387
 30
0.0
 10
967.6074092818145
 20
964.8239226852542
 30
0.0
 10
967.6073764186942
 20
963.9955426203278
 30
0.0
 10
967.6073711040475
 20
963.8615764228431
 30
0.0
  0
SPLINE
  5
1FA
330
1F
100
AcDbEntity
  8
0
  6
Continuous
 62
     8
370
    18
100
AcDbSpline
210
0.0
220
0.0
230
1.0
 70
     8
 71
     3
 72
    11
 73
     7
 74
     0
 42
0.000000001
 43
0.00000001
 40
0.0
 40
0.0
 40
0.0
 40
0.0
 40
0.1688447665100256
 40
0.338848378955135
 40
0.6648683581705624
 40
1.0
 40
1.0
 40
1.0
 40
1.0
 10
968.4746653798438
 20
967.5257043324277
 30
0.0
 10
968.5227130814976
 20
967.3751627060101
 30
0.0
 10
968.6191382544797
 20
967.0730462286612
 30
0.0
 10
968.768992730559
 20
966.3958463235656
 30
0.0
 10
968.9067105689163
 20
965.4478516725816
 30
0.0
 10
968.9333029890604
 20
964.5686301465777
 30
0.0
 10
968.9467824408827
 20
964.1229608868157
 30
0.0
  0
SPLINE
  5
1FB
330
1F
100
AcDbEntity
  8
0
  6
Continuous
 62
     8
370
    18
100
AcDbSpline
210
0.0
220
0.0
230
1.0
 70
     8
 71
     3
 72
    14
 73
    10
 74
     0
 42
0.000000001
 43
0.00000001
 40
0.0
 40
0.0
 40
0.0
 40
0.0
 40
0.6113158653943738
 40
0.7934072053583404
 40
0.8854170307688747
 40
0.9194198313361065
 40
0.9434501870529951
 40
0.9749897870426378
 40
1.0
 40
1.0
 40
1.0
 40
1.0
 10
887.6067671474985
 20
963.8455640747899
 30
0.0
 10
887.579958003862
 20
964.7278873953845
 30
0.0
 10
887.5451632783611
 20
965.8730264628352
 30
0.0
 10
887.7017693067378
 20
967.0086825756157
 30
0.0
 10
887.9068563485906
 20
967.3864296374907
 30
0.0
 10
888.0928353803004
 20
967.5274705314996
 30
0.0
 10
888.2297942637038
 20
967.5846757674273
 30
0.0
 10
888.3686749963264
 20
967.6070135728936
 30
0.0
 10
888.4632997726837
 20
967.5976289040765
 30
0.0
 10
888.5051493506827
 20
967.5934783586828
 30
0.0
  0
SPLINE
  5
1FC
330
1F
100
AcDbEntity
  8
0
  6
Continuous
 62
     8
370
    18
100
AcDbSpline
210
0.0
220
0.0
230
1.0
 70
     8
 71
     3
 72
    11
 73
     7
 74
     0
 42
0.000000001
 43
0.00000001
 40
0.0
 40
0.0
 40
0.0
 40
0.0
 40
0.3166351430858646
 40
0.6421699667518173
 40
0.8203579608774898
 40
1.0
 40
1.0
 40
1.0
 40
1.0
 10
888.9920078577657
 20
964.1229608868158
 30
0.0
 10
888.9807717084741
 20
964.5554031829192
 30
0.0
 10
888.9579835948533
 20
965.4324424534324
 30
0.0
 10
888.8223280243691
 20
966.395726668169
 30
0.0
 10
888.6648044360554
 20
967.1089056405157
 30
0.0
 10
888.5585116862661
 20
967.4315171412176
 30
0.0
 10
888.5051493506827
 20
967.5934783586828
 30
0.0
  0
SPLINE
  5
1FD
330
1F
100
AcDbEntity
  8
0
  6
Continuous
 62
     8
370
    18
100
AcDbSpline
210
0.0
220
0.0
230
1.0
 70
     8
 71
     3
 72
    11
 73
     7
 74
     0
 42
0.000000001
 43
0.00000001
 40
0.0
 40
0.0
 40
0.0
 40
0.0
 40
0.316635143085869
 40
0.6421699667518187
 40
0.8203579608774905
 40
1.0
 40
1.0
 40
1.0
 40
1.0
 10
975.1173286768213
 20
964.1229608868157
 30
0.0
 10
975.1285648261129
 20
964.5554031829192
 30
0.0
 10
975.1513529397337
 20
965.4324424534321
 30
0.0
 10
975.2870085102178
 20
966.395726668169
 30
0.0
 10
975.4445320985313
 20
967.1089056405154
 30
0.0
 10
975.5508248483206
 20
967.4315171412175
 30
0.0
 10
975.6041871839043
 20
967.5934783586825
 30
0.0
  0
SPLINE
  5
1FE
330
1F
100
AcDbEntity
  8
0
  6
Continuous
 62
     8
370
    18
100
AcDbSpline
210
0.0
220
0.0
230
1.0
 70
     8
 71
     3
 72
    14
 73
    10
 74
     0
 42
0.000000001
 43
0.00000001
 40
0.0
 40
0.0
 40
0.0
 40
0.0
 40
0.6113158653943703
 40
0.7934072053583362
 40
0.8854170307688753
 40
0.9194198313361069
 40
0.9434501870529953
 40
0.974989787042638
 40
1.0
 40
1.0
 40
1.0
 40
1.0
 10
976.5025693870886
 20
963.8455640747898
 30
0.0
 10
976.529378530725
 20
964.7278873953845
 30
0.0
 10
976.5641732562258
 20
965.8730264628351
 30
0.0
 10
976.407567227849
 20
967.0086825756157
 30
0.0
 10
976.2024801859963
 20
967.3864296374906
 30
0.0
 10
976.0165011542864
 20
967.5274705314994
 30
0.0
 10
975.8795422708831
 20
967.5846757674273
 30
0.0
 10
975.7406615382605
 20
967.6070135728936
 30
0.0
 10
975.646036761903
 20
967.5976289040765
 30
0.0
 10
975.6041871839043
 20
967.5934783586825
 30
0.0
  0
LINE
  5
1FF
330
1F
100
AcDbEntity
  8
0
  6
Continuous
 62
     8
370
    18
100
AcDbLine
 10
888.5051493507
 20
967.5934783587
 30
0.0
 11
895.6346711547
 21
967.5257043324
 31
0.0
  0
LINE
  5
200
330
1F
100
AcDbEntity
  8
0
  6
Continuous
 62
     8
370
    18
100
AcDbLine
 10
975.6041871839
 20
967.5934783587
 30
0.0
 11
968.4746653798
 21
967.5257043324
 31
0.0
  0
ARC
  5
201
330
1F
100
AcDbEntity
  8
0
  6
Continuous
 62
     8
370
    18
100
AcDbCircle
 10
845.6840048306
 20
969.8154130384
 30
0.0
 40
42.87875245068003
100
AcDbArc
 50
357.0296588465
 51
358.2432093097
  0
ARC
  5
202
330
1F
100
AcDbEntity
  8
0
  6
Continuous
 62
     8
370
    18
100
AcDbCircle
 10
1018.4253317007
 20
969.8154130383
 30
0.0
 40
42.87875244744681
100
AcDbArc
 50
181.7567906902
 51
182.9703411536
  0
ARC
  5
203
330
1F
100
AcDbEntity
  8
0
  6
Continuous
 62
     8
370
    18
100
AcDbCircle
 10
802.2518074361
 20
969.7743262402
 30
0.0
 40
93.40993275223936
100
AcDbArc
 50
358.6206071693
 51
359.1635686825
  0
ARC
  5
204
330
1F
100
AcDbEntity
  8
0
  6
Continuous
 62
     8
370
    18
100
AcDbCircle
 10
1061.8575290954
 20
969.7743262401
 30
0.0
 40
93.40993274918985
100
AcDbArc
 50
180.8364313175
 51
181.3793928307
  0
SPLINE
  5
205
330
1F
100
AcDbEntity
  8
0
  6
Continuous
 62
     8
370
    18
100
AcDbSpline
210
0.0
220
0.0
230
1.0
 70
     8
 71
     3
 72
    20
 73
    16
 74
     0
 42
0.000000001
 43
0.00000001
 40
0.0
 40
0.0
 40
0.0
 40
0.0
 40
0.0262949951381528
 40
0.114180599416715
 40
0.2050009162995109
 40
0.3018213591643525
 40
0.4001096700271498
 40
0.4957119737796375
 40
0.5689984974216382
 40
0.6442268808353192
 40
0.7075782994275366
 40
0.7721105905636336
 40
0.8325062307491623
 40
0.8941019040528453
 40
1.0
 40
1.0
 40
1.0
 40
1.0
 10
1011.998008888285
 20
935.7075436478827
 30
0.0
 10
1012.073823884791
 20
935.992763260224
 30
0.0
 10
1012.403034888646
 20
937.2312706693873
 30
0.0
 10
1013.0604058908
 20
939.7047790956808
 30
0.0
 10
1013.956958832888
 20
943.3741060222565
 30
0.0
 10
1014.7629639317
 20
947.4912757306522
 30
0.0
 10
1015.218987682153
 20
951.8519660857545
 30
0.0
 10
1015.09711276686
 20
955.7632364111593
 30
0.0
 10
1014.749902584993
 20
959.0599857772412
 30
0.0
 10
1014.488580420266
 20
961.6723592883183
 30
0.0
 10
1014.48784411406
 20
963.9450205066173
 30
0.0
 10
1014.631468584056
 20
965.8027049478296
 30
0.0
 10
1014.946825711774
 20
967.3677100752305
 30
0.0
 10
1015.148925227133
 20
968.8822217698213
 30
0.0
 10
1015.052720276376
 20
969.3880989631197
 30
0.0
 10
1014.991894604164
 20
969.7079403028484
 30
0.0
  0
ARC
  5
206
330
1F
100
AcDbEntity
  8
0
  6
Continuous
 62
     8
370
    18
100
AcDbCircle
 10
1012.3243642087
 20
933.033973462
 30
0.0
 40
2.693415180355818
100
AcDbArc
 50
96.9595071703
 51
118.0599624147
  0
ARC
  5
207
330
1F
100
AcDbEntity
  8
0
  6
Continuous
 62
     8
370
    18
100
AcDbCircle
 10
1016.9813319866
 20
971.9579571889
 30
0.0
 40
3.003404249507043
100
AcDbArc
 50
228.5172796838
 51
270.3109595547
  0
SPLINE
  5
208
330
1F
100
AcDbEntity
  8
0
  6
Continuous
 62
     8
370
    18
100
AcDbSpline
210
0.0
220
0.0
230
1.0
 70
     8
 71
     3
 72
    22
 73
    18
 74
     0
 42
0.000000001
 43
0.00000001
 40
0.0
 40
0.0
 40
0.0
 40
0.0
 40
0.0604782955210948
 40
0.1209107522713745
 40
0.1884749139443859
 40
0.2560958620764554
 40
0.3308528003812596
 40
0.4056041325902898
 40
0.4728286997367325
 40
0.5400039932488327
 40
0.6145903506605177
 40
0.6892095991779484
 40
0.6973759092103057
 40
0.7789456219531089
 40
0.8605868885159249
 40
0.9302996545740237
 40
1.0
 40
1.0
 40
1.0
 40
1.0
 10
1016.997632186547
 20
968.9545971722526
 30
0.0
 10
1017.032886295983
 20
968.7938301519534
 30
0.0
 10
1017.103367794443
 20
968.4724179627157
 30
0.0
 10
1017.140548833474
 20
967.5238568285888
 30
0.0
 10
1016.816065430602
 20
966.2006098163895
 30
0.0
 10
1016.40917563619
 20
964.4025230806318
 30
0.0
 10
1016.316472172815
 20
962.1379394868994
 30
0.0
 10
1016.573670290327
 20
959.5579263300008
 30
0.0
 10
1016.985814197572
 20
956.8401303503855
 30
0.0
 10
1017.227805050135
 20
953.9371423805462
 30
0.0
 10
1017.1590099804
 20
950.7961683028489
 30
0.0
 10
1016.857801802188
 20
948.4997672939918
 30
0.0
 10
1016.415780376597
 20
946.148371469882
 30
0.0
 10
1015.832180899098
 20
943.7375816200968
 30
0.0
 10
1014.887288276488
 20
940.6660318736509
 30
0.0
 10
1013.963814105894
 20
937.9507157786919
 30
0.0
 10
1013.433417937356
 20
936.4385229389396
 30
0.0
 10
1013.16824348019
 20
935.6824938814184
 30
0.0
  0
ARC
  5
209
330
1F
100
AcDbEntity
  8
0
  6
Continuous
 62
     8
370
    18
100
AcDbCircle
 10
1012.4994401897
 20
931.7855114313
 30
0.0
 40
3.953956253951982
100
AcDbArc
 50
80.261721698
 51
97.2857328838
  0
SPLINE
  5
20A
330
1F
100
AcDbEntity
  8
0
  6
Continuous
 62
     8
370
    18
100
AcDbSpline
210
0.0
220
0.0
230
1.0
 70
     8
 71
     3
 72
    11
 73
     7
 74
     0
 42
0.000000001
 43
0.00000001
 40
0.0
 40
0.0
 40
0.0
 40
0.0
 40
0.2101620489852547
 40
0.6011741985698237
 40
0.9956880907203883
 40
1.0
 40
1.0
 40
1.0
 40
1.0
 10
1007.804668267294
 20
929.8331518286753
 30
0.0
 10
1007.541553120491
 20
929.7419016722203
 30
0.0
 10
1006.788905160147
 20
929.4808781432758
 30
0.0
 10
1005.455599968761
 20
929.2290033168015
 30
0.0
 10
1004.3348805544
 20
929.1619092461001
 30
0.0
 10
1003.752543507598
 20
929.1616818392894
 30
0.0
 10
1003.74624756459
 20
929.1616793806782
 30
0.0
  0
SPLINE
  5
20B
330
1F
100
AcDbEntity
  8
0
  6
Continuous
 62
     8
370
    18
100
AcDbSpline
210
0.0
220
0.0
230
1.0
 70
     8
 71
     3
 72
    12
 73
     8
 74
     0
 42
0.000000001
 43
0.00000001
 40
0.0
 40
0.0
 40
0.0
 40
0.0
 40
0.2467373750775633
 40
0.5009759128091619
 40
0.7464462631527692
 40
0.9969045478149675
 40
1.0
 40
1.0
 40
1.0
 40
1.0
 10
1013.16824348019
 20
935.6824938814184
 30
0.0
 10
1012.876295871548
 20
934.971984457788
 30
0.0
 10
1012.283525037029
 20
933.5293651264005
 30
0.0
 10
1011.023986953838
 20
931.8938914627847
 30
0.0
 10
1009.540889660711
 20
930.6361019616029
 30
0.0
 10
1008.413739821385
 20
930.0640843747651
 30
0.0
 10
1007.812014294297
 20
929.835937111797
 30
0.0
 10
1007.804668267294
 20
929.8331518286753
 30
0.0
  0
SPLINE
  5
20C
330
1F
100
AcDbEntity
  8
0
  6
Continuous
 62
     8
370
    18
100
AcDbSpline
210
0.0
220
0.0
230
1.0
 70
     8
 71
     3
 72
    10
 73
     6
 74
     0
 42
0.000000001
 43
0.00000001
 40
0.0
 40
0.0
 40
0.0
 40
0.0
 40
0.0157305655563993
 40
0.5063466828769152
 40
1.0
 40
1.0
 40
1.0
 40
1.0
 10
1016.975489191848
 20
969.1616793806783
 30
0.0
 10
1016.975043122277
 20
969.1616673164742
 30
0.0
 10
1016.960684716222
 20
969.1612789852538
 30
0.0
 10
1016.954924987407
 20
969.1296334250043
 30
0.0
 10
1016.983367198408
 20
969.0130624923759
 30
0.0
 10
1016.997632186547
 20
968.9545971722526
 30
0.0
  0
SPLINE
  5
20D
330
1F
100
AcDbEntity
  8
0
  6
Continuous
 62
     8
370
    18
100
AcDbSpline
210
0.0
220
0.0
230
1.0
 70
     8
 71
     3
 72
    12
 73
     8
 74
     0
 42
0.000000001
 43
0.00000001
 40
0.0
 40
0.0
 40
0.0
 40
0.0
 40
0.3107222013442916
 40
0.6300915284038191
 40
0.7856616918457194
 40
0.8925423191164942
 40
1.0
 40
1.0
 40
1.0
 40
1.0
 10
1007.804668267294
 20
929.8331518286753
 30
0.0
 10
1008.355599393329
 20
930.1816234802109
 30
0.0
 10
1009.472793574326
 20
930.8882644430109
 30
0.0
 10
1010.619371807592
 20
932.3933904716296
 30
0.0
 10
1011.323856010922
 20
933.7818538386791
 30
0.0
 10
1011.715531568337
 20
934.7641472895992
 30
0.0
 10
1011.903680932879
 20
935.3925142868326
 30
0.0
 10
1011.998008888285
 20
935.7075436478827
 30
0.0
  0
LINE
  5
20E
330
1F
100
AcDbEntity
  8
0
  6
Continuous
 62
     8
370
    18
100
AcDbLine
 10
879.0546682673
 20
978.4616793807
 30
0.0
 11
879.0546682673
 21
978.3188778524
 31
0.0
  0
LINE
  5
20F
330
1F
100
AcDbEntity
  8
0
  6
Continuous
 62
     8
370
    18
100
AcDbLine
 10
879.0546682673
 20
978.3188778524
 30
0.0
 11
851.114640686
 21
978.3188778524
 31
0.0
  0
LINE
  5
210
330
1F
100
AcDbEntity
  8
0
  6
Continuous
 62
     8
370
    18
100
AcDbLine
 10
985.0546682673
 20
978.4616793807
 30
0.0
 11
985.0546682673
 21
978.3188778524
 31
0.0
  0
LINE
  5
211
330
1F
100
AcDbEntity
  8
0
  6
Continuous
 62
     8
370
    18
100
AcDbLine
 10
879.0546682673
 20
978.3188778524
 30
0.0
 11
985.0546682673
 21
978.3188778524
 31
0.0
  0
LINE
  5
212
330
1F
100
AcDbEntity
  8
0
  6
Continuous
 62
     8
370
    18
100
AcDbLine
 10
985.0546682673
 20
978.3188778524
 30
0.0
 11
1012.9946958486
 21
978.3188778524
 31
0.0
  0
LINE
  5
213
330
1F
100
AcDbEntity
  8
0
  6
Continuous
 62
     8
370
    18
100
AcDbLine
 10
879.0546682673
 20
978.3188778524
 30
0.0
 11
879.0546682673
 21
977.3971104869
 31
0.0
  0
LINE
  5
214
330
1F
100
AcDbEntity
  8
0
  6
Continuous
 62
     8
370
    18
100
AcDbLine
 10
985.0546682673
 20
978.3188778524
 30
0.0
 11
985.0546682673
 21
977.3971104869
 31
0.0
  0
LINE
  5
215
330
1F
100
AcDbEntity
  8
0
  6
Continuous
 62
     8
370
    18
100
AcDbLine
 10
1060.248616725
 20
929.1616793807
 30
0.0
 11
1060.248616725
 21
969.1616793807
 31
0.0
  0
LINE
  5
216
330
1F
100
AcDbEntity
  8
0
  6
Continuous
 62
     8
370
    18
100
AcDbLine
 10
1060.8544149613
 20
969.0998775525
 30
0.0
 11
1060.8544149613
 21
929.2234812088
 31
0.0
  0
LINE
  5
217
330
1F
100
AcDbEntity
  8
0
  6
Continuous
 62
     8
370
    18
100
AcDbLine
 10
1522.0546682673
 20
979.8854199023
 30
0.0
 11
1524.0546682673
 21
979.8854199023
 31
0.0
  0
LINE
  5
218
330
1F
100
AcDbEntity
  8
0
  6
Continuous
 62
     8
370
    18
100
AcDbLine
 10
1524.0546682673
 20
978.0728043282
 30
0.0
 11
1522.0546682673
 21
978.0728043282
 31
0.0
  0
LINE
  5
219
330
1F
100
AcDbEntity
  8
0
  6
Continuous
 62
     8
370
    18
100
AcDbLine
 10
1522.0546682673
 20
970.8145050436
 30
0.0
 11
1524.0546682673
 21
970.8145050436
 31
0.0
  0
LINE
  5
21A
330
1F
100
AcDbEntity
  8
0
  6
Continuous
 62
     8
370
    18
100
AcDbLine
 10
1524.0546682673
 20
969.0018894695
 30
0.0
 11
1522.0546682673
 21
969.0018894695
 31
0.0
  0
LINE
  5
21B
330
1F
100
AcDbEntity
  8
0
  6
Continuous
 62
     8
370
    18
100
AcDbLine
 10
1522.0546682673
 20
934.7112793807
 30
0.0
 11
1524.0546682673
 21
934.7112793807
 31
0.0
  0
LINE
  5
21C
330
1F
100
AcDbEntity
  8
0
  6
Continuous
 62
     8
370
    18
100
AcDbLine
 10
340.0546682673
 20
979.8854199023
 30
0.0
 11
342.0546682673
 21
979.8854199023
 31
0.0
  0
LINE
  5
21D
330
1F
100
AcDbEntity
  8
0
  6
Continuous
 62
     8
370
    18
100
AcDbLine
 10
342.0546682673
 20
978.0728043282
 30
0.0
 11
340.0546682673
 21
978.0728043282
 31
0.0
  0
LINE
  5
21E
330
1F
100
AcDbEntity
  8
0
  6
Continuous
 62
     8
370
    18
100
AcDbLine
 10
340.0546682673
 20
970.8145050436
 30
0.0
 11
342.0546682673
 21
970.8145050436
 31
0.0
  0
LINE
  5
21F
330
1F
100
AcDbEntity
  8
0
  6
Continuous
 62
     8
370
    18
100
AcDbLine
 10
342.0546682673
 20
969.0018894695
 30
0.0
 11
340.0546682673
 21
969.0018894695
 31
0.0
  0
LINE
  5
220
330
1F
100
AcDbEntity
  8
0
  6
Continuous
 62
     8
370
    18
100
AcDbLine
 10
340.0546682673
 20
934.7112793807
 30
0.0
 11
342.0546682673
 21
934.7112793807
 31
0.0
  0
LINE
  5
221
330
1F
100
AcDbEntity
  8
0
  6
Continuous
 62
     8
370
    18
100
AcDbLine
 10
319.5546682673
 20
986.6112793807
 30
0.0
 11
319.5546682673
 21
985.6112793807
 31
0.0
  0
LINE
  5
222
330
1F
100
AcDbEntity
  8
0
  6
Continuous
 62
     8
370
    18
100
AcDbLine
 10
340.0546682673
 20
987.6112793807
 30
0.0
 11
309.5546682673
 21
987.6112793807
 31
0.0
  0
LINE
  5
223
330
1F
100
AcDbEntity
  8
0
  6
Continuous
 62
     8
370
    18
100
AcDbLine
 10
1544.5546682673
 20
985.6112793807
 30
0.0
 11
1544.5546682673
 21
986.6112793807
 31
0.0
  0
LINE
  5
224
330
1F
100
AcDbEntity
  8
0
  6
Continuous
 62
     8
370
    18
100
AcDbLine
 10
1554.5546682673
 20
987.6112793807
 30
0.0
 11
1524.0546682673
 21
987.6112793807
 31
0.0
  0
SPLINE
  5
225
330
1F
100
AcDbEntity
  8
0
  6
Continuous
 62
     7
370
    35
100
AcDbSpline
210
0.0
220
0.0
230
1.0
 70
     8
 71
     3
 72
    17
 73
    13
 74
     0
 42
0.000000001
 43
0.00000001
 40
0.0
 40
0.0
 40
0.0
 40
0.0
 40
0.0944724089329529
 40
0.2037690526194546
 40
0.2658214290207899
 40
0.29930374267728
 40
0.3336657805533168
 40
0.4040243448795573
 40
0.4775461189662142
 40
0.6372893935530038
 40
0.8168942664869109
 40
1.0
 40
1.0
 40
1.0
 40
1.0
 10
1872.168441432644
 20
968.1220326133309
 30
0.0
 10
1871.905834118148
 20
968.5309515693531
 30
0.0
 10
1871.339412193586
 20
969.4129554179683
 30
0.0
 10
1870.275531230347
 20
970.1692053890795
 30
0.0
 10
1869.430763237139
 20
970.4759566627828
 30
0.0
 10
1869.060360577287
 20
970.8532606880411
 30
0.0
 10
1868.895631493327
 20
971.3326710729185
 30
0.0
 10
1868.957752373201
 20
971.8596676822049
 30
0.0
 10
1868.931338128386
 20
972.5728891441132
 30
0.0
 10
1868.945701562098
 20
973.1905870822495
 30
0.0
 10
1868.940566815856
 20
973.5707033352288
 30
0.0
 10
1868.941285539451
 20
973.5982500735358
 30
0.0
 10
1868.941648369786
 20
973.6121563824057
 30
0.0
  0
SPLINE
  5
226
330
1F
100
AcDbEntity
  8
0
  6
Continuous
 62
     7
370
    35
100
AcDbSpline
210
0.0
220
0.0
230
1.0
 70
     8
 71
     3
 72
    17
 73
    13
 74
     0
 42
0.000000001
 43
0.00000001
 40
0.0
 40
0.0
 40
0.0
 40
0.0
 40
0.1880128869586947
 40
0.3724310918045071
 40
0.536455416170004
 40
0.6119475415943192
 40
0.6841916846225669
 40
0.719474610060704
 40
0.7538542350553837
 40
0.8175695879603484
 40
0.9297953338160667
 40
1.0
 40
1.0
 40
1.0
 40
1.0
 10
1811.941635711274
 20
973.6121563823514
 30
0.0
 10
1811.941998379294
 20
973.598250270447
 30
0.0
 10
1811.94271678136
 20
973.570703922305
 30
0.0
 10
1811.937584324233
 20
973.1905848915287
 30
0.0
 10
1811.951941348077
 20
972.5728947316219
 30
0.0
 10
1811.925538884766
 20
971.8596589731277
 30
0.0
 10
1811.987632048594
 20
971.3326959966411
 30
0.0
 10
1811.822957886682
 20
970.8532189650603
 30
0.0
 10
1811.452347614752
 20
970.4761668723983
 30
0.0
 10
1810.609478941575
 20
970.1671108165762
 30
0.0
 10
1809.638539465443
 20
969.499090437526
 30
0.0
 10
1809.139380396847
 20
968.7364766224514
 30
0.0
 10
1808.947289092597
 20
968.4430000704007
 30
0.0
  0
ARC
  5
227
330
1F
100
AcDbEntity
  8
0
  6
Continuous
 62
     7
370
    35
100
AcDbCircle
 10
1817.9516316447
 20
944.1615621591
 30
0.0
 40
14.99988279068566
100
AcDbArc
 50
226.5821055238
 51
269.9241849821
  0
ARC
  5
228
330
1F
100
AcDbEntity
  8
0
  6
Continuous
 62
     7
370
    35
100
AcDbCircle
 10
1862.9316554232
 20
944.1615539805
 30
0.0
 40
14.99987460814279
100
AcDbArc
 50
270.0758036504
 51
312.1690218565
  0
SPLINE
  5
229
330
1F
100
AcDbEntity
  8
0
  6
Continuous
 62
     7
370
    35
100
AcDbSpline
210
0.0
220
0.0
230
1.0
 70
     8
 71
     3
 72
    14
 73
    10
 74
     0
 42
0.000000001
 43
0.00000001
 40
0.0
 40
0.0
 40
0.0
 40
0.0
 40
0.3118518498447912
 40
0.5835247383371605
 40
0.7472368347708432
 40
0.8165073455962452
 40
0.8691914210092039
 40
0.9293786200030077
 40
1.0
 40
1.0
 40
1.0
 40
1.0
 10
1872.821534676577
 20
967.53865872767
 30
0.0
 10
1872.711595588053
 20
967.6191063398979
 30
0.0
 10
1872.50588195225
 20
967.7696367019867
 30
0.0
 10
1872.281929386262
 20
968.0042982129381
 30
0.0
 10
1872.143788762524
 20
968.1761589428465
 30
0.0
 10
1872.084266873655
 20
968.2583525756776
 30
0.0
 10
1872.061016109517
 20
968.2917397448075
 30
0.0
 10
1872.048806432219
 20
968.3097899808935
 30
0.0
 10
1872.048536416115
 20
968.3102161670574
 30
0.0
 10
1872.048390638903
 20
968.3104462578915
 30
0.0
  0
SPLINE
  5
22A
330
1F
100
AcDbEntity
  8
0
  6
Continuous
 62
     7
370
    35
100
AcDbSpline
210
0.0
220
0.0
230
1.0
 70
     8
 71
     3
 72
    12
 73
     8
 74
     0
 42
0.000000001
 43
0.00000001
 40
0.0
 40
0.0
 40
0.0
 40
0.0
 40
0.1249100435353532
 40
0.2370776954213374
 40
0.3308192653519209
 40
0.4814606093758959
 40
0.9999999999999999
 40
0.9999999999999999
 40
0.9999999999999999
 40
0.9999999999999999
 10
1808.833721252803
 20
968.3086950829371
 30
0.0
 10
1808.83384256412
 20
968.308860934257
 30
0.0
 10
1808.834072811477
 20
968.3091757179817
 30
0.0
 10
1808.814896850866
 20
968.2808937606611
 30
0.0
 10
1808.773840023724
 20
968.2231880861068
 30
0.0
 10
1808.64745339023
 20
968.0547381762472
 30
0.0
 10
1808.509106502168
 20
967.9159628500478
 30
0.0
 10
1808.401903309792
 20
967.8084276665686
 30
0.0
  0
SPLINE
  5
22B
330
1F
100
AcDbEntity
  8
0
  6
Continuous
 62
     7
370
    35
100
AcDbSpline
210
0.0
220
0.0
230
1.0
 70
     8
 71
     3
 72
    12
 73
     8
 74
     0
 42
0.000000001
 43
0.00000001
 40
0.0
 40
0.0
 40
0.0
 40
0.0
 40
0.091037422499571
 40
0.2353541285684264
 40
0.3547454600275129
 40
0.5766251016015842
 40
0.9999999999999999
 40
0.9999999999999999
 40
0.9999999999999999
 40
0.9999999999999999
 10
1872.98755567205
 20
933.0560696124288
 30
0.0
 10
1872.986590491157
 20
933.0552310233224
 30
0.0
 10
1872.984095261153
 20
933.0530630642245
 30
0.0
 10
1872.998510170551
 20
933.0654333946046
 30
0.0
 10
1873.033998540242
 20
933.0946944288918
 30
0.0
 10
1873.112466075247
 20
933.15823490258
 30
0.0
 10
1873.186792274356
 20
933.2062193430604
 30
0.0
 10
1873.235560388405
 20
933.2377036742115
 30
0.0
  0
SPLINE
  5
22C
330
1F
100
AcDbEntity
  8
0
  6
Continuous
 62
     7
370
    35
100
AcDbSpline
210
0.0
220
0.0
230
1.0
 70
     8
 71
     3
 72
    13
 73
     9
 74
     0
 42
0.000000001
 43
0.00000001
 40
0.0
 40
0.0
 40
0.0
 40
0.0
 40
0.3192547611386868
 40
0.6030634358610164
 40
0.7318310647048729
 40
0.8311168408297892
 40
0.940000821124065
 40
1.0
 40
1.0
 40
1.0
 40
1.0
 10
1807.648405538629
 20
933.2392219688054
 30
0.0
 10
1807.685068860167
 20
933.2154542022247
 30
0.0
 10
1807.754324863048
 20
933.1705575468836
 30
0.0
 10
1807.832234213303
 20
933.1085414050076
 30
0.0
 10
1807.875413449251
 20
933.0732220498768
 30
0.0
 10
1807.892209190855
 20
933.0590593809079
 30
0.0
 10
1807.899160231645
 20
933.0530955296615
 30
0.0
 10
1807.898181168091
 20
933.0539433897858
 30
0.0
 10
1807.897833335841
 20
933.0542446093478
 30
0.0
  0
SPLINE
  5
22D
330
1F
100
AcDbEntity
  8
0
  6
Continuous
 62
     7
370
    35
100
AcDbSpline
210
0.0
220
0.0
230
1.0
 70
     8
 71
     3
 72
    10
 73
     6
 74
     0
 42
0.000000001
 43
0.00000001
 40
0.0
 40
0.0
 40
0.0
 40
0.0
 40
0.2926068144158452
 40
0.7936688105157593
 40
1.0
 40
1.0
 40
1.0
 40
1.0
 10
1872.15773402728
 20
969.1812435430576
 30
0.0
 10
1872.055935063956
 20
969.1865379864084
 30
0.0
 10
1871.779814829729
 20
969.2008986723172
 30
0.0
 10
1871.438998023263
 20
969.2983983186215
 30
0.0
 10
1871.220289906139
 20
969.4022409999397
 30
0.0
 10
1871.156497510516
 20
969.432529649014
 30
0.0
  0
ARC
  5
22E
330
1F
100
AcDbEntity
  8
0
  6
Continuous
 62
     7
370
    35
100
AcDbCircle
 10
1871.9416420405
 20
940.1616793807
 30
0.0
 40
11.0
100
AcDbArc
 50
270.0
 51
0.0
  0
LINE
  5
22F
330
1F
100
AcDbEntity
  8
0
  6
Continuous
 62
     7
370
    35
100
AcDbLine
 10
1862.4547872502
 20
929.1616793807
 30
0.0
 11
1871.9416420405
 21
929.1616793807
 31
0.0
  0
SPLINE
  5
230
330
1F
100
AcDbEntity
  8
0
  6
Continuous
 62
     7
370
    35
100
AcDbSpline
210
0.0
220
0.0
230
1.0
 70
     8
 71
     3
 72
    13
 73
     9
 74
     0
 42
0.000000001
 43
0.00000001
 40
0.0
 40
0.0
 40
0.0
 40
0.0
 40
0.012506379625902
 40
0.1462174429095662
 40
0.2953845365666474
 40
0.4584621276760795
 40
0.7227547040269788
 40
1.0
 40
1.0
 40
1.0
 40
1.0
 10
1868.941659599531
 20
972.567488683199
 30
0.0
 10
1868.941659262209
 20
972.6197432670491
 30
0.0
 10
1868.941655318434
 20
973.2306739967597
 30
0.0
 10
1868.941652805984
 20
974.0101467488552
 30
0.0
 10
1868.941647691175
 20
974.8046824064623
 30
0.0
 10
1868.941644088713
 20
975.3465100179113
 30
0.0
 10
1868.941642059482
 20
975.5892953699644
 30
0.0
 10
1868.941642046948
 20
975.6041000093433
 30
0.0
 10
1868.94164204053
 20
975.6116793806783
 30
0.0
  0
LINE
  5
231
330
1F
100
AcDbEntity
  8
0
  6
Continuous
 62
     7
370
    35
100
AcDbLine
 10
1905.9416420405
 20
986.6112793807
 30
0.0
 11
1905.9166420405
 21
986.6112793807
 31
0.0
  0
LINE
  5
232
330
1F
100
AcDbEntity
  8
0
  6
Continuous
 62
     7
370
    35
100
AcDbLine
 10
1905.9416420405
 20
985.6112793807
 30
0.0
 11
1905.9416420405
 21
986.6112793807
 31
0.0
  0
LINE
  5
233
330
1F
100
AcDbEntity
  8
0
  6
Continuous
 62
     7
370
    35
100
AcDbLine
 10
1905.9416420405
 20
985.6112793807
 30
0.0
 11
1905.9166420405
 21
985.6112793807
 31
0.0
  0
ARC
  5
234
330
1F
100
AcDbEntity
  8
0
  6
Continuous
 62
     7
370
    35
100
AcDbCircle
 10
1876.4416420405
 20
987.6112793807
 30
0.0
 40
1.000000000000227
100
AcDbArc
 50
180.0
 51
270.0
  0
ARC
  5
235
330
1F
100
AcDbEntity
  8
0
  6
Continuous
 62
     7
370
    35
100
AcDbCircle
 10
1791.9416420405
 20
999.6112793807
 30
0.0
 40
1.0
100
AcDbArc
 50
180.0
 51
270.0
  0
LINE
  5
236
330
1F
100
AcDbEntity
  8
0
  6
Continuous
 62
     7
370
    35
100
AcDbLine
 10
1807.4416420405
 20
985.6112793807
 30
0.0
 11
1807.4416420405
 21
984.27319787
 31
0.0
  0
LWPOLYLINE
  5
237
330
1F
100
AcDbEntity
  8
0
  6
Continuous
 62
     7
370
    35
100
AcDbPolyline
 90
        3
 70
   128
 43
0.0
 10
1807.4416420405
 20
984.27319787
 10
1807.4773542736
 20
983.8969352374
 10
1807.5416420405
 20
983.6486980701
  0
LINE
  5
238
330
1F
100
AcDbEntity
  8
0
  6
Continuous
 62
     7
370
    35
100
AcDbLine
 10
1873.4416420405
 20
984.27319787
 30
0.0
 11
1873.4416420405
 21
985.6112793807
 31
0.0
  0
LINE
  5
239
330
1F
100
AcDbEntity
  8
0
  6
Continuous
 62
     7
370
    35
100
AcDbLine
 10
1790.9416420405
 20
999.6112793807
 30
0.0
 11
1790.9416420405
 21
1029.1112793807
 31
0.0
  0
LINE
  5
23A
330
1F
100
AcDbEntity
  8
0
  6
Continuous
 62
     7
370
    35
100
AcDbLine
 10
1790.9166420405
 20
1029.1112793807
 30
0.0
 11
1790.9416420405
 21
1029.1112793807
 31
0.0
  0
ARC
  5
23B
330
1F
100
AcDbEntity
  8
0
  6
Continuous
 62
     7
370
    35
100
AcDbCircle
 10
1871.4416420405
 20
984.27319787
 30
0.0
 40
1.999999999999816
100
AcDbArc
 50
337.6683549908
 51
0.0
  0
LINE
  5
23C
330
1F
100
AcDbEntity
  8
0
  6
Continuous
 62
     7
370
    35
100
AcDbLine
 10
1868.4416420405
 20
976.3496872386
 30
0.0
 11
1868.4416420405
 21
975.6116793807
 31
0.0
  0
LINE
  5
23D
330
1F
100
AcDbEntity
  8
0
  6
Continuous
 62
     7
370
    35
100
AcDbLine
 10
1812.4416420405
 20
976.3263718557
 30
0.0
 11
1812.4416420405
 21
975.6116793807
 31
0.0
  0
LINE
  5
23E
330
1F
100
AcDbEntity
  8
0
  6
Continuous
 62
     7
370
    35
100
AcDbLine
 10
1812.4416420405
 20
975.6116793807
 30
0.0
 11
1813.9743049993
 21
975.6116793807
 31
0.0
  0
LINE
  5
23F
330
1F
100
AcDbEntity
  8
0
  6
Continuous
 62
     7
370
    35
100
AcDbLine
 10
1866.8589790817
 20
975.6116793807
 30
0.0
 11
1868.4416420405
 21
975.6116793807
 31
0.0
  0
SPLINE
  5
240
330
1F
100
AcDbEntity
  8
0
  6
Continuous
 62
     7
370
    35
100
AcDbSpline
210
0.0
220
0.0
230
1.0
 70
     8
 71
     3
 72
     9
 73
     5
 74
     0
 42
0.000000001
 43
0.00000001
 40
0.0
 40
0.0
 40
0.0
 40
0.0
 40
0.0494865767861819
 40
1.0
 40
1.0
 40
1.0
 40
1.0
 10
1872.056210011016
 20
968.2989184244018
 30
0.0
 10
1872.053176390694
 20
968.3037019953831
 30
0.0
 10
1871.991874508065
 20
968.400366005949
 30
0.0
 10
1871.98671415658
 20
968.4056802946776
 30
0.0
 10
1871.981809173225
 20
968.410731597449
 30
0.0
  0
SPLINE
  5
241
330
1F
100
AcDbEntity
  8
0
  6
Continuous
 62
     7
370
    35
100
AcDbSpline
210
0.0
220
0.0
230
1.0
 70
     8
 71
     3
 72
    14
 73
    10
 74
     0
 42
0.000000001
 43
0.00000001
 40
0.0
 40
0.0
 40
0.0
 40
0.0
 40
0.0000086772972158
 40
0.0546554576672727
 40
0.1545956188497728
 40
0.2815115513695395
 40
0.4757791841528836
 40
0.7372214479202452
 40
1.0
 40
1.0
 40
1.0
 40
1.0
 10
1871.850938137605
 20
968.4912689212863
 30
0.0
 10
1871.850939159442
 20
968.4912668004529
 30
0.0
 10
1871.85737537797
 20
968.4779083650739
 30
0.0
 10
1871.892108542358
 20
968.4135071607847
 30
0.0
 10
1872.041260202616
 20
968.1575209755529
 30
0.0
 10
1872.405863274975
 20
967.5415843718959
 30
0.0
 10
1873.036225942821
 20
966.4659103256213
 30
0.0
 10
1873.847424371037
 20
965.0450943011836
 30
0.0
 10
1874.42851030499
 20
963.986080639713
 30
0.0
 10
1874.719793893398
 20
963.4552240461146
 30
0.0
  0
SPLINE
  5
242
330
1F
100
AcDbEntity
  8
0
  6
Continuous
 62
     7
370
    35
100
AcDbSpline
210
0.0
220
0.0
230
1.0
 70
     8
 71
     3
 72
    12
 73
     8
 74
     0
 42
0.000000001
 43
0.00000001
 40
0.0
 40
0.0
 40
0.0
 40
0.0
 40
0.1720163517394608
 40
0.4559765852487114
 40
0.6679924881477983
 40
0.886316203050505
 40
1.0
 40
1.0
 40
1.0
 40
1.0
 10
1876.153578485679
 20
960.7476444267361
 30
0.0
 10
1876.635422466234
 20
959.699941509919
 30
0.0
 10
1877.912682277028
 20
956.9227171731945
 30
0.0
 10
1878.872547762531
 20
952.5010329079579
 30
0.0
 10
1879.073063710948
 20
947.7122914675532
 30
0.0
 10
1878.614665148383
 20
944.0701410785213
 30
0.0
 10
1877.979062650602
 20
941.9388024263084
 30
0.0
 10
1877.761423884253
 20
941.2090036659822
 30
0.0
  0
SPLINE
  5
243
330
1F
100
AcDbEntity
  8
0
  6
Continuous
 62
     7
370
    35
100
AcDbSpline
210
0.0
220
0.0
230
1.0
 70
    24
 71
     3
 72
     9
 73
     5
 74
     0
 42
0.000000001
 43
0.00000001
 40
0.0
 40
0.0
 40
0.0
 40
0.0
 40
0.508383987752657
 40
1.0
 40
1.0
 40
1.0
 40
1.0
 10
1840.441642040531
 20
944.9403313073195
 30
0.0
 10
1840.441642040531
 20
943.4100454798084
 30
0.0
 10
1840.441642040531
 20
940.399947081006
 30
0.0
 10
1840.441642040531
 20
937.8027848682525
 30
0.0
 10
1840.441642040531
 20
936.5259783380593
 30
0.0
  0
SPLINE
  5
244
330
1F
100
AcDbEntity
  8
0
  6
Continuous
 62
     7
370
    35
100
AcDbSpline
210
0.0
220
0.0
230
1.0
 70
    24
 71
     3
 72
    13
 73
     9
 74
     0
 42
0.000000001
 43
0.00000001
 40
0.0
 40
0.0
 40
0.0
 40
0.0
 40
0.3691962178006857
 40
0.7482503419935773
 40
0.826273883748076
 40
0.9040766892940548
 40
0.9808985751670121
 40
1.0
 40
1.0
 40
1.0
 40
1.0
 10
1868.94164204053
 20
975.6116793806783
 30
0.0
 10
1868.953423962665
 20
975.6116793806783
 30
0.0
 10
1868.977302395977
 20
975.6116793806783
 30
0.0
 10
1868.843405926103
 20
975.6116793806783
 30
0.0
 10
1869.00715926415
 20
975.6116793806783
 30
0.0
 10
1868.692197238062
 20
975.6116793806782
 30
0.0
 10
1867.892148624658
 20
975.6116793806782
 30
0.0
 10
1867.030550963859
 20
975.6116793806782
 30
0.0
 10
1866.85897908177
 20
975.6116793806782
 30
0.0
  0
SPLINE
  5
245
330
1F
100
AcDbEntity
  8
0
  6
Continuous
 62
     7
370
    35
100
AcDbSpline
210
0.0
220
0.0
230
1.0
 70
     8
 71
     3
 72
    14
 73
    10
 74
     0
 42
0.000000001
 43
0.00000001
 40
0.0
 40
0.0
 40
0.0
 40
0.0
 40
0.0000086772972158
 40
0.0546554576672727
 40
0.1545956188497728
 40
0.2815115513695395
 40
0.4757791841528836
 40
0.7372214479202458
 40
1.0
 40
1.0
 40
1.0
 40
1.0
 10
1809.032345943456
 20
968.4912689212862
 30
0.0
 10
1809.032344921619
 20
968.4912668004529
 30
0.0
 10
1809.025908703091
 20
968.4779083650739
 30
0.0
 10
1808.991175538704
 20
968.4135071607845
 30
0.0
 10
1808.842023878445
 20
968.1575209755529
 30
0.0
 10
1808.477420806086
 20
967.5415843718959
 30
0.0
 10
1807.84705813824
 20
966.465910325621
 30
0.0
 10
1807.035859710024
 20
965.0450943011834
 30
0.0
 10
1806.454773776071
 20
963.9860806397128
 30
0.0
 10
1806.163490187663
 20
963.4552240461145
 30
0.0
  0
SPLINE
  5
246
330
1F
100
AcDbEntity
  8
0
  6
Continuous
 62
     7
370
    35
100
AcDbSpline
210
0.0
220
0.0
230
1.0
 70
     8
 71
     3
 72
     9
 73
     5
 74
     0
 42
0.000000001
 43
0.00000001
 40
0.0
 40
0.0
 40
0.0
 40
0.0
 40
0.0487880016050364
 40
1.0
 40
1.0
 40
1.0
 40
1.0
 10
1808.827207090974
 20
968.2991280761596
 30
0.0
 10
1808.830195053527
 20
968.3038396195401
 30
0.0
 10
1808.891438852299
 20
968.4004113836119
 30
0.0
 10
1808.896582350568
 20
968.4057005135709
 30
0.0
 10
1808.901474907836
 20
968.4107315974488
 30
0.0
  0
LINE
  5
247
330
1F
100
AcDbEntity
  8
0
  6
Continuous
 62
     7
370
    35
100
AcDbLine
 10
1811.9416420405
 20
972.1955555763
 30
0.0
 11
1811.9416420405
 21
975.6116793807
 31
0.0
  0
SPLINE
  5
248
330
1F
100
AcDbEntity
  8
0
  6
Continuous
 62
     7
370
    35
100
AcDbSpline
210
0.0
220
0.0
230
1.0
 70
     8
 71
     3
 72
    12
 73
     8
 74
     0
 42
0.000000001
 43
0.00000001
 40
0.0
 40
0.0
 40
0.0
 40
0.0
 40
0.1720163517394583
 40
0.4559765852487095
 40
0.6679924881477985
 40
0.8863162030505048
 40
1.0
 40
1.0
 40
1.0
 40
1.0
 10
1804.729705595382
 20
960.747644426736
 30
0.0
 10
1804.247861614827
 20
959.6999415099189
 30
0.0
 10
1802.970601804033
 20
956.9227171731943
 30
0.0
 10
1802.01073631853
 20
952.5010329079579
 30
0.0
 10
1801.810220370113
 20
947.7122914675532
 30
0.0
 10
1802.268618932679
 20
944.0701410785211
 30
0.0
 10
1802.904221430459
 20
941.9388024263084
 30
0.0
 10
1803.121860196808
 20
941.209003665982
 30
0.0
  0
SPLINE
  5
249
330
1F
100
AcDbEntity
  8
0
  6
Continuous
 62
     7
370
    35
100
AcDbSpline
210
0.0
220
0.0
230
1.0
 70
    24
 71
     3
 72
    13
 73
     9
 74
     0
 42
0.000000001
 43
0.00000001
 40
0.0
 40
0.0
 40
0.0
 40
0.0
 40
0.3699055321299796
 40
0.7496879100505762
 40
0.8278613537095919
 40
0.9058136370729813
 40
0.9827831161817995
 40
1.0
 40
1.0
 40
1.0
 40
1.0
 10
1811.94164204053
 20
975.6116793806782
 30
0.0
 10
1811.929782314572
 20
975.6116793806783
 30
0.0
 10
1811.905746196172
 20
975.6116793806783
 30
0.0
 10
1812.040527252415
 20
975.6116793806783
 30
0.0
 10
1811.875693705404
 20
975.6116793806783
 30
0.0
 10
1812.192755859042
 20
975.6116793806781
 30
0.0
 10
1812.978160990008
 20
975.6116793806781
 30
0.0
 10
1813.820355305947
 20
975.6116793806782
 30
0.0
 10
1813.974304999291
 20
975.6116793806782
 30
0.0
  0
SPLINE
  5
24A
330
1F
100
AcDbEntity
  8
0
  6
Continuous
 62
     7
370
    35
100
AcDbSpline
210
0.0
220
0.0
230
1.0
 70
    24
 71
     3
 72
    12
 73
     8
 74
     0
 42
0.000000001
 43
0.00000001
 40
0.0
 40
0.0
 40
0.0
 40
0.0
 40
0.1412104094081674
 40
0.378776799543145
 40
0.6231915895614722
 40
0.8099823699849353
 40
1.0
 40
1.0
 40
1.0
 40
1.0
 10
1840.441642040531
 20
932.7112793806784
 30
0.0
 10
1840.441642040531
 20
932.3884276584579
 30
0.0
 10
1840.441642040531
 20
931.5224239227401
 30
0.0
 10
1840.441642040531
 20
930.4809661240516
 30
0.0
 10
1840.441642040531
 20
929.6759994408643
 30
0.0
 10
1840.441642040531
 20
929.2375681925438
 30
0.0
 10
1840.441642040531
 20
929.1871196589051
 30
0.0
 10
1840.441642040531
 20
929.1616793806783
 30
0.0
  0
SPLINE
  5
24B
330
1F
100
AcDbEntity
  8
0
  6
Continuous
 62
     7
370
    35
100
AcDbSpline
210
0.0
220
0.0
230
1.0
 70
    24
 71
     3
 72
    17
 73
    13
 74
     0
 42
0.000000001
 43
0.00000001
 40
0.0
 40
0.0
 40
0.0
 40
0.0
 40
0.0569795784918673
 40
0.1353024541387374
 40
0.2160128774647567
 40
0.2868547793927059
 40
0.359348141583773
 40
0.4253072501105425
 40
0.4928579495996949
 40
0.5565942236325879
 40
0.6223126637270711
 40
1.0
 40
1.0
 40
1.0
 40
1.0
 10
1840.441642040531
 20
929.1616793806783
 30
0.0
 10
1839.391261608162
 20
929.1616793806783
 30
0.0
 10
1836.897051330718
 20
929.1616793806783
 30
0.0
 10
1833.078186322443
 20
929.1616793806783
 30
0.0
 10
1829.310820150034
 20
929.1616793806783
 30
0.0
 10
1826.015778977972
 20
929.1616793806783
 30
0.0
 10
1823.335259827497
 20
929.1616793806783
 30
0.0
 10
1821.144992564374
 20
929.1616793806783
 30
0.0
 10
1819.551090878491
 20
929.1616793806783
 30
0.0
 10
1818.498997643883
 20
929.1616793806783
 30
0.0
 10
1817.843688236752
 20
929.1616793806783
 30
0.0
 10
1817.903111340239
 20
929.1616793806783
 30
0.0
 10
1817.953727175363
 20
929.1616793806783
 30
0.0
  0
SPLINE
  5
24C
330
1F
100
AcDbEntity
  8
0
  6
Continuous
 62
     7
370
    35
100
AcDbSpline
210
0.0
220
0.0
230
1.0
 70
    24
 71
     3
 72
    17
 73
    13
 74
     0
 42
0.000000001
 43
0.00000001
 40
0.0
 40
0.0
 40
0.0
 40
0.0
 40
0.0569845589005256
 40
0.1364939970869605
 40
0.2160235345599427
 40
0.2876998720940943
 40
0.3593687415705822
 40
0.4261501537102006
 40
0.4928872867049957
 40
0.5575313349414285
 40
0.622279770552848
 40
0.9999999999999999
 40
0.9999999999999999
 40
0.9999999999999999
 40
0.9999999999999999
 10
1840.441642040531
 20
929.1616793806783
 30
0.0
 10
1841.492096987434
 20
929.1616793806783
 30
0.0
 10
1844.008231133752
 20
929.1616793806783
 30
0.0
 10
1847.823780725261
 20
929.1616793806783
 30
0.0
 10
1851.604335840567
 20
929.1616793806784
 30
0.0
 10
1854.877533161423
 20
929.1616793806783
 30
0.0
 10
1857.568916553423
 20
929.1616793806783
 30
0.0
 10
1859.741463588039
 20
929.1616793806783
 30
0.0
 10
1861.355059202587
 20
929.1616793806783
 30
0.0
 10
1862.348490823665
 20
929.1616793806783
 30
0.0
 10
1863.107006992025
 20
929.1616793806783
 30
0.0
 10
1863.008212002311
 20
929.1616793806783
 30
0.0
 10
1862.923874129079
 20
929.1616793806783
 30
0.0
  0
SPLINE
  5
24D
330
1F
100
AcDbEntity
  8
0
  6
Continuous
 62
     7
370
    35
100
AcDbSpline
210
0.0
220
0.0
230
1.0
 70
     8
 71
     3
 72
    13
 73
     9
 74
     0
 42
0.000000001
 43
0.00000001
 40
0.0
 40
0.0
 40
0.0
 40
0.0
 40
0.2029467742027864
 40
0.4117773519856945
 40
0.6147258594307131
 40
0.8235672334127738
 40
0.9115535143092904
 40
1.0
 40
1.0
 40
1.0
 40
1.0
 10
1879.02588386273
 20
940.7908751555879
 30
0.0
 10
1879.428947154572
 20
942.1735299042565
 30
0.0
 10
1880.246759291025
 20
944.978925128466
 30
0.0
 10
1880.556173447175
 20
949.3523251443138
 30
0.0
 10
1880.177712945604
 20
953.7458668778675
 30
0.0
 10
1879.264590037496
 20
957.1848200350588
 30
0.0
 10
1878.263923320693
 20
959.7253747918847
 30
0.0
 10
1877.702043086362
 20
960.8417761422975
 30
0.0
 10
1877.42037016887
 20
961.4014328204436
 30
0.0
  0
SPLINE
  5
24E
330
1F
100
AcDbEntity
  8
0
  6
Continuous
 62
     7
370
    35
100
AcDbSpline
210
0.0
220
0.0
230
1.0
 70
     8
 71
     3
 72
    13
 73
     9
 74
     0
 42
0.000000001
 43
0.00000001
 40
0.0
 40
0.0
 40
0.0
 40
0.0
 40
0.2029467742027862
 40
0.4117773519856939
 40
0.6147258594307146
 40
0.8235672334127762
 40
0.9115535143092927
 40
1.0
 40
1.0
 40
1.0
 40
1.0
 10
1801.857400218331
 20
940.7908751555876
 30
0.0
 10
1801.454336926489
 20
942.1735299042564
 30
0.0
 10
1800.636524790036
 20
944.978925128466
 30
0.0
 10
1800.327110633886
 20
949.3523251443138
 30
0.0
 10
1800.705571135457
 20
953.7458668778675
 30
0.0
 10
1801.618694043565
 20
957.1848200350587
 30
0.0
 10
1802.619360760368
 20
959.7253747918847
 30
0.0
 10
1803.181240994699
 20
960.8417761422972
 30
0.0
 10
1803.462913912191
 20
961.4014328204435
 30
0.0
  0
SPLINE
  5
24F
330
1F
100
AcDbEntity
  8
0
  6
Continuous
 62
     7
370
    35
100
AcDbSpline
210
0.0
220
0.0
230
1.0
 70
     8
 71
     3
 72
    12
 73
     8
 74
     0
 42
0.000000001
 43
0.00000001
 40
0.0
 40
0.0
 40
0.0
 40
0.0
 40
0.0542100646910308
 40
0.3612059465304454
 40
0.5267652948495991
 40
0.7633787062243814
 40
1.0
 40
1.0
 40
1.0
 40
1.0
 10
1872.763834508553
 20
932.938057975323
 30
0.0
 10
1872.917116259184
 20
933.035821273686
 30
0.0
 10
1873.93844468109
 20
933.687225859207
 30
0.0
 10
1875.323039831624
 20
934.850329732099
 30
0.0
 10
1876.90783595883
 20
936.6861776697543
 30
0.0
 10
1878.121955196207
 20
938.525253283158
 30
0.0
 10
1878.724570961413
 20
940.0356594787861
 30
0.0
 10
1879.02588386273
 20
940.7908751555879
 30
0.0
  0
SPLINE
  5
250
330
1F
100
AcDbEntity
  8
0
  6
Continuous
 62
     7
370
    35
100
AcDbSpline
210
0.0
220
0.0
230
1.0
 70
     8
 71
     3
 72
    12
 73
     8
 74
     0
 42
0.000000001
 43
0.00000001
 40
0.0
 40
0.0
 40
0.0
 40
0.0
 40
0.0542100646910311
 40
0.3612059465304473
 40
0.5267652948496011
 40
0.7633787062243828
 40
1.0
 40
1.0
 40
1.0
 40
1.0
 10
1808.119449572508
 20
932.938057975323
 30
0.0
 10
1807.966167821877
 20
933.035821273686
 30
0.0
 10
1806.944839399971
 20
933.6872258592069
 30
0.0
 10
1805.560244249437
 20
934.850329732099
 30
0.0
 10
1803.975448122231
 20
936.6861776697542
 30
0.0
 10
1802.761328884854
 20
938.525253283158
 30
0.0
 10
1802.158713119648
 20
940.0356594787859
 30
0.0
 10
1801.857400218331
 20
940.7908751555876
 30
0.0
  0
SPLINE
  5
251
330
1F
100
AcDbEntity
  8
0
  6
Continuous
 62
     7
370
    35
100
AcDbSpline
210
0.0
220
0.0
230
1.0
 70
     8
 71
     3
 72
    11
 73
     7
 74
     0
 42
0.000000001
 43
0.00000001
 40
0.0
 40
0.0
 40
0.0
 40
0.0
 40
0.3166351430858646
 40
0.6421699667518174
 40
0.8203579608774898
 40
1.0
 40
1.0
 40
1.0
 40
1.0
 10
1875.942475282056
 20
964.1229608868158
 30
0.0
 10
1875.676509927963
 20
964.5554031829195
 30
0.0
 10
1875.137103717616
 20
965.4324424534324
 30
0.0
 10
1874.241814288325
 20
966.395726668169
 30
0.0
 10
1873.426436930755
 20
967.1089056405157
 30
0.0
 10
1872.96490612284
 20
967.4315171412176
 30
0.0
 10
1872.73320300195
 20
967.5934783586828
 30
0.0
  0
SPLINE
  5
252
330
1F
100
AcDbEntity
  8
0
  6
Continuous
 62
     7
370
    35
100
AcDbSpline
210
0.0
220
0.0
230
1.0
 70
     8
 71
     3
 72
    11
 73
     7
 74
     0
 42
0.000000001
 43
0.00000001
 40
0.0
 40
0.0
 40
0.0
 40
0.0
 40
0.3166502316689759
 40
0.6422005680136363
 40
0.8852711377571085
 40
1.0
 40
1.0
 40
1.0
 40
1.0
 10
1804.940808799005
 20
964.1229608868157
 30
0.0
 10
1805.206832556291
 20
964.5553732558803
 30
0.0
 10
1805.746357214567
 20
965.432351831155
 30
0.0
 10
1806.711612783185
 20
966.4722345352599
 30
0.0
 10
1807.537933213132
 20
967.17282705294
 30
0.0
 10
1808.001452882565
 20
967.4913451186244
 30
0.0
 10
1808.150081079111
 20
967.5934783586825
 30
0.0
  0
LINE
  5
253
330
1F
100
AcDbEntity
  8
0
  6
Continuous
 62
     7
370
    35
100
AcDbLine
 10
1877.4203701689
 20
961.4014328204
 30
0.0
 11
1875.9424752821
 21
964.1229608868
 31
0.0
  0
LINE
  5
254
330
1F
100
AcDbEntity
  8
0
  6
Continuous
 62
     7
370
    35
100
AcDbLine
 10
1803.4629139122
 20
961.4014328204
 30
0.0
 11
1804.940808799
 21
964.1229608868
 31
0.0
  0
LINE
  5
255
330
1F
100
AcDbEntity
  8
0
  6
Continuous
 62
     7
370
    35
100
AcDbLine
 10
1873.2379092893
 20
933.245326572
 30
0.0
 11
1873.2242549585
 21
933.2364766031
 31
0.0
  0
LINE
  5
256
330
1F
100
AcDbEntity
  8
0
  6
Continuous
 62
     7
370
    35
100
AcDbLine
 10
1807.6453747918
 20
933.245326572
 30
0.0
 11
1807.6590291226
 21
933.2364766031
 31
0.0
  0
LINE
  5
257
330
1F
100
AcDbEntity
  8
0
  6
Continuous
 62
     7
370
    35
100
AcDbLine
 10
1872.733203002
 20
967.5934783587
 30
0.0
 11
1872.8339982028
 21
967.5257043324
 31
0.0
  0
ARC
  5
258
330
1F
100
AcDbEntity
  8
0
  6
Continuous
 62
     7
370
    35
100
AcDbCircle
 10
1806.3605780955
 20
970.004546434
 30
0.0
 40
2.999398629788534
100
AcDbArc
 50
304.2645941136
 51
312.8939997986
  0
LINE
  5
259
330
1F
100
AcDbEntity
  8
0
  6
Continuous
 62
     7
370
    35
100
AcDbLine
 10
1808.1500810791
 20
967.5934783587
 30
0.0
 11
1808.0492858783
 21
967.5257043324
 31
0.0
  0
SPLINE
  5
25A
330
1F
100
AcDbEntity
  8
0
  6
Continuous
 62
     7
370
    35
100
AcDbSpline
210
0.0
220
0.0
230
1.0
 70
     8
 71
     3
 72
     9
 73
     5
 74
     0
 42
0.000000001
 43
0.00000001
 40
0.0
 40
0.0
 40
0.0
 40
0.0
 40
0.6590643911440316
 40
1.0
 40
1.0
 40
1.0
 40
1.0
 10
1872.273317611932
 20
969.1630435942928
 30
0.0
 10
1871.95784189192
 20
969.1890378215633
 30
0.0
 10
1871.479169816397
 20
969.2284789256796
 30
0.0
 10
1871.078493984408
 20
969.4826569816581
 30
0.0
 10
1870.941889325675
 20
969.569315331931
 30
0.0
  0
ARC
  5
25B
330
1F
100
AcDbEntity
  8
0
  6
Continuous
 62
     7
370
    35
100
AcDbCircle
 10
1871.9416350593
 20
958.1680383523
 30
0.0
 40
11.000006981239
100
AcDbArc
 50
0.0000092142
 51
88.2721018854
  0
SPLINE
  5
25C
330
1F
100
AcDbEntity
  8
0
  6
Continuous
 62
     7
370
    35
100
AcDbSpline
210
0.0
220
0.0
230
1.0
 70
    24
 71
     3
 72
    19
 73
    15
 74
     0
 42
0.000000001
 43
0.00000001
 40
0.0
 40
0.0
 40
0.0
 40
0.0
 40
0.0003400432997567
 40
0.101863577827705
 40
0.2035434036526508
 40
0.3480218784455774
 40
0.4928620408160622
 40
0.5714933381061473
 40
0.6496296261320137
 40
0.7087399627822188
 40
0.7683238584295651
 40
0.822430626725451
 40
0.8926101632270921
 40
1.0
 40
1.0
 40
1.0
 40
1.0
 10
1882.94164204053
 20
958.1680401213009
 30
0.0
 10
1882.94164204053
 20
958.1680423311528
 30
0.0
 10
1882.94164204053
 20
958.1687043157416
 30
0.0
 10
1882.941642040531
 20
957.9992673629273
 30
0.0
 10
1882.94164204053
 20
957.2138084907144
 30
0.0
 10
1882.941642040531
 20
955.8136517087511
 30
0.0
 10
1882.94164204053
 20
954.1479098707582
 30
0.0
 10
1882.94164204053
 20
952.6580595346047
 30
0.0
 10
1882.94164204053
 20
951.4099698152975
 30
0.0
 10
1882.94164204053
 20
950.0742189763804
 30
0.0
 10
1882.94164204053
 20
948.7614481169344
 30
0.0
 10
1882.94164204053
 20
947.3855077449186
 30
0.0
 10
1882.94164204053
 20
945.9714232697517
 30
0.0
 10
1882.94164204053
 20
945.1422886444127
 30
0.0
 10
1882.94164204053
 20
944.6408472616116
 30
0.0
  0
SPLINE
  5
25D
330
1F
100
AcDbEntity
  8
0
  6
Continuous
 62
     7
370
    35
100
AcDbSpline
210
0.0
220
0.0
230
1.0
 70
    24
 71
     3
 72
     9
 73
     5
 74
     0
 42
0.000000001
 43
0.00000001
 40
0.0
 40
0.0
 40
0.0
 40
0.0
 40
0.4979466281839539
 40
1.0
 40
1.0
 40
1.0
 40
1.0
 10
1882.94164204053
 20
944.6408472616116
 30
0.0
 10
1882.94164204053
 20
944.0100797660544
 30
0.0
 10
1882.94164204053
 20
942.7433426101913
 30
0.0
 10
1882.94164204053
 20
941.6891987091261
 30
0.0
 10
1882.94164204053
 20
941.1599622092169
 30
0.0
  0
LINE
  5
25E
330
1F
100
AcDbEntity
  8
0
  6
Continuous
 62
     7
370
    35
100
AcDbLine
 10
1882.9416420405
 20
941.1599622092
 30
0.0
 11
1882.9416420405
 21
940.1616793807
 31
0.0
  0
ARC
  5
25F
330
1F
100
AcDbEntity
  8
0
  6
Continuous
 62
     7
370
    35
100
AcDbCircle
 10
1791.9416420405
 20
987.6112793807
 30
0.0
 40
1.0
100
AcDbArc
 50
180.0
 51
270.0
  0
LINE
  5
260
330
1F
100
AcDbEntity
  8
0
  6
Continuous
 62
     7
370
    35
100
AcDbLine
 10
1790.9416420405
 20
987.6112793807
 30
0.0
 11
1790.9416420405
 21
997.6112793807
 31
0.0
  0
LINE
  5
261
330
1F
100
AcDbEntity
  8
0
  6
Continuous
 62
     7
370
    35
100
AcDbLine
 10
1875.4416420405
 20
997.6112793807
 30
0.0
 11
1875.4416420405
 21
986.6112793807
 31
0.0
  0
LINE
  5
262
330
1F
100
AcDbEntity
  8
0
  6
Continuous
 62
     7
370
    35
100
AcDbLine
 10
1873.2916420405
 20
985.6112793807
 30
0.0
 11
1873.2916420405
 21
979.8854199023
 31
0.0
  0
LINE
  5
263
330
1F
100
AcDbEntity
  8
0
  6
Continuous
 62
     7
370
    35
100
AcDbLine
 10
1872.136878564
 20
978.0728043282
 30
0.0
 11
1856.571405517
 21
970.8145050436
 31
0.0
  0
ARC
  5
264
330
1F
100
AcDbEntity
  8
0
  6
Continuous
 62
     7
370
    35
100
AcDbCircle
 10
1857.4166420405
 20
969.0018894695
 30
0.0
 40
2.000000000000227
100
AcDbArc
 50
115.0
 51
180.0
  0
LINE
  5
265
330
1F
100
AcDbEntity
  8
0
  6
Continuous
 62
     7
370
    35
100
AcDbLine
 10
1855.4166420405
 20
969.0018894695
 30
0.0
 11
1855.4166420405
 21
934.7112793807
 31
0.0
  0
ARC
  5
266
330
1F
100
AcDbEntity
  8
0
  6
Continuous
 62
     7
370
    35
100
AcDbCircle
 10
1853.4166420405
 20
934.7112793807
 30
0.0
 40
2.0
100
AcDbArc
 50
270.0
 51
0.0
  0
LINE
  5
267
330
1F
100
AcDbEntity
  8
0
  6
Continuous
 62
     7
370
    35
100
AcDbLine
 10
1853.4166420405
 20
932.7112793807
 30
0.0
 11
1827.4166420405
 21
932.7112793807
 31
0.0
  0
ARC
  5
268
330
1F
100
AcDbEntity
  8
0
  6
Continuous
 62
     7
370
    35
100
AcDbCircle
 10
1827.4166420405
 20
934.7112793807
 30
0.0
 40
2.0
100
AcDbArc
 50
180.0
 51
270.0
  0
LINE
  5
269
330
1F
100
AcDbEntity
  8
0
  6
Continuous
 62
     7
370
    35
100
AcDbLine
 10
1825.4166420405
 20
934.7112793807
 30
0.0
 11
1825.4166420405
 21
969.0018894695
 31
0.0
  0
ARC
  5
26A
330
1F
100
AcDbEntity
  8
0
  6
Continuous
 62
     7
370
    35
100
AcDbCircle
 10
1823.4166420405
 20
969.0018894695
 30
0.0
 40
2.000000000000027
100
AcDbArc
 50
0.0
 51
65.0
  0
LINE
  5
26B
330
1F
100
AcDbEntity
  8
0
  6
Continuous
 62
     7
370
    35
100
AcDbLine
 10
1824.261878564
 20
970.8145050436
 30
0.0
 11
1808.696405517
 21
978.0728043282
 31
0.0
  0
ARC
  5
26C
330
1F
100
AcDbEntity
  8
0
  6
Continuous
 62
     7
370
    35
100
AcDbCircle
 10
1809.5416420405
 20
979.8854199023
 30
0.0
 40
1.999999999999835
100
AcDbArc
 50
180.0
 51
245.0
  0
LINE
  5
26D
330
1F
100
AcDbEntity
  8
0
  6
Continuous
 62
     7
370
    35
100
AcDbLine
 10
1807.5416420405
 20
979.8854199023
 30
0.0
 11
1807.5416420405
 21
985.6112793807
 31
0.0
  0
LINE
  5
26E
330
1F
100
AcDbEntity
  8
0
  6
Continuous
 62
     7
370
    35
100
AcDbLine
 10
1826.4166420405
 20
952.7112793807
 30
0.0
 11
1826.4166420405
 21
962.7112793807
 31
0.0
  0
ARC
  5
26F
330
1F
100
AcDbEntity
  8
0
  6
Continuous
 62
     7
370
    35
100
AcDbCircle
 10
1832.9166420405
 20
952.7112793807
 30
0.0
 40
6.500000000000227
100
AcDbArc
 50
180.0
 51
0.0
  0
LINE
  5
270
330
1F
100
AcDbEntity
  8
0
  6
Continuous
 62
     7
370
    35
100
AcDbLine
 10
1839.4166420405
 20
962.7112793807
 30
0.0
 11
1839.4166420405
 21
952.7112793807
 31
0.0
  0
LINE
  5
271
330
1F
100
AcDbEntity
  8
0
  6
Continuous
 62
     7
370
    35
100
AcDbLine
 10
1841.4166420405
 20
952.7112793807
 30
0.0
 11
1841.4166420405
 21
962.7112793807
 31
0.0
  0
ARC
  5
272
330
1F
100
AcDbEntity
  8
0
  6
Continuous
 62
     7
370
    35
100
AcDbCircle
 10
1847.9166420405
 20
952.7112793807
 30
0.0
 40
6.5
100
AcDbArc
 50
180.0
 51
0.0
  0
LINE
  5
273
330
1F
100
AcDbEntity
  8
0
  6
Continuous
 62
     7
370
    35
100
AcDbLine
 10
1854.4166420405
 20
962.7112793807
 30
0.0
 11
1854.4166420405
 21
952.7112793807
 31
0.0
  0
ARC
  5
274
330
1F
100
AcDbEntity
  8
0
  6
Continuous
 62
     7
370
    35
100
AcDbCircle
 10
1847.9166420405
 20
962.7112793807
 30
0.0
 40
6.5
100
AcDbArc
 50
0.0
 51
180.0
  0
CIRCLE
  5
275
330
1F
100
AcDbEntity
  8
0
  6
Continuous
 62
     7
370
    35
100
AcDbCircle
 10
1840.4166420405
 20
940.7112793807
 30
0.0
 40
4.25
  0
ARC
  5
276
330
1F
100
AcDbEntity
  8
0
  6
Continuous
 62
     7
370
    35
100
AcDbCircle
 10
1871.2916420405
 20
979.8854199023
 30
0.0
 40
2.00000000000013
100
AcDbArc
 50
295.0
 51
360.0
  0
ARC
  5
277
330
1F
100
AcDbEntity
  8
0
  6
Continuous
 62
     7
370
    35
100
AcDbCircle
 10
1832.9166420405
 20
962.7112793807
 30
0.0
 40
6.500000000000227
100
AcDbArc
 50
360.0
 51
180.0
  0
LINE
  5
278
330
1F
100
AcDbEntity
  8
0
  6
Continuous
 62
     7
370
    35
100
AcDbLine
 10
1875.4416420405
 20
998.6112793807
 30
0.0
 11
1790.9416420405
 21
998.6112793807
 31
0.0
  0
LINE
  5
279
330
1F
100
AcDbEntity
  8
0
  6
Continuous
 62
     7
370
    35
100
AcDbLine
 10
1875.4416420405
 20
998.6112793807
 30
0.0
 11
1875.4416420405
 21
997.6112793807
 31
0.0
  0
LINE
  5
27A
330
1F
100
AcDbEntity
  8
0
  6
Continuous
 62
     7
370
    35
100
AcDbLine
 10
1790.9416420405
 20
997.6112793807
 30
0.0
 11
1790.9416420405
 21
998.6112793807
 31
0.0
  0
LINE
  5
27B
330
1F
100
AcDbEntity
  8
0
  6
Continuous
 62
     7
370
    35
100
AcDbLine
 10
1789.9166420405
 20
1029.1112793807
 30
0.0
 11
1790.9166420405
 21
1029.1112793807
 31
0.0
  0
LINE
  5
27C
330
1F
100
AcDbEntity
  8
0
  6
Continuous
 62
     7
370
    35
100
AcDbLine
 10
1790.9166420405
 20
1029.1112793807
 30
0.0
 11
1790.9166420405
 21
1019.1112793807
 31
0.0
  0
LINE
  5
27D
330
1F
100
AcDbEntity
  8
0
  6
Continuous
 62
     7
370
    35
100
AcDbLine
 10
1789.9166420405
 20
1019.1112793807
 30
0.0
 11
1789.9166420405
 21
1029.1112793807
 31
0.0
  0
LINE
  5
27E
330
1F
100
AcDbEntity
  8
0
  6
Continuous
 62
     7
370
    35
100
AcDbLine
 10
1790.9166420405
 20
1019.1112793807
 30
0.0
 11
1790.9166420405
 21
987.6112793807
 31
0.0
  0
LINE
  5
27F
330
1F
100
AcDbEntity
  8
0
  6
Continuous
 62
     7
370
    35
100
AcDbLine
 10
1789.9166420405
 20
1019.1112793807
 30
0.0
 11
1789.9166420405
 21
987.6112793807
 31
0.0
  0
LINE
  5
280
330
1F
100
AcDbEntity
  8
0
  6
Continuous
 62
     7
370
    35
100
AcDbLine
 10
1895.9166420405
 20
985.6112793807
 30
0.0
 11
1791.9166420405
 21
985.6112793807
 31
0.0
  0
LINE
  5
281
330
1F
100
AcDbEntity
  8
0
  6
Continuous
 62
     7
370
    35
100
AcDbLine
 10
1895.9166420405
 20
986.6112793807
 30
0.0
 11
1791.9166420405
 21
986.6112793807
 31
0.0
  0
ARC
  5
282
330
1F
100
AcDbEntity
  8
0
  6
Continuous
 62
     7
370
    35
100
AcDbCircle
 10
1791.9166420405
 20
987.6112793807
 30
0.0
 40
2.000000000000227
100
AcDbArc
 50
180.0
 51
270.0
  0
ARC
  5
283
330
1F
100
AcDbEntity
  8
0
  6
Continuous
 62
     7
370
    35
100
AcDbCircle
 10
1791.9166420405
 20
987.6112793807
 30
0.0
 40
1.0
100
AcDbArc
 50
180.0
 51
270.0
  0
LINE
  5
284
330
1F
100
AcDbEntity
  8
0
  6
Continuous
 62
     7
370
    35
100
AcDbLine
 10
1905.9166420405
 20
986.6112793807
 30
0.0
 11
1905.9166420405
 21
985.6112793807
 31
0.0
  0
LINE
  5
285
330
1F
100
AcDbEntity
  8
0
  6
Continuous
 62
     7
370
    35
100
AcDbLine
 10
1905.9166420405
 20
985.6112793807
 30
0.0
 11
1895.9166420405
 21
985.6112793807
 31
0.0
  0
LINE
  5
286
330
1F
100
AcDbEntity
  8
0
  6
Continuous
 62
     7
370
    35
100
AcDbLine
 10
1895.9166420405
 20
986.6112793807
 30
0.0
 11
1905.9166420405
 21
986.6112793807
 31
0.0
  0
LINE
  5
287
330
1F
100
AcDbEntity
  8
0
  6
Continuous
 62
     8
370
    18
100
AcDbLine
 10
1790.9166420405
 20
999.6112793807
 30
0.0
 11
1790.9416420405
 21
999.6112793807
 31
0.0
  0
LINE
  5
288
330
1F
100
AcDbEntity
  8
0
  6
Continuous
 62
     8
370
    18
100
AcDbLine
 10
1807.4416420405
 20
984.27319787
 30
0.0
 11
1807.5416420405
 21
984.27319787
 31
0.0
  0
LINE
  5
289
330
1F
100
AcDbEntity
  8
0
  6
Continuous
 62
     8
370
    18
100
AcDbLine
 10
1873.4416420405
 20
984.27319787
 30
0.0
 11
1873.2916420405
 21
984.27319787
 31
0.0
  0
SPLINE
  5
28A
330
1F
100
AcDbEntity
  8
0
  6
Continuous
 62
     8
370
    18
100
AcDbSpline
210
0.0
220
0.0
230
1.0
 70
     8
 71
     3
 72
    11
 73
     7
 74
     0
 42
0.000000001
 43
0.00000001
 40
0.0
 40
0.0
 40
0.0
 40
0.0
 40
0.2499912677933777
 40
0.499986756231606
 40
0.749992678491824
 40
1.0
 40
1.0
 40
1.0
 40
1.0
 10
1871.981809173225
 20
968.410731597449
 30
0.0
 10
1871.974051544196
 20
968.4162294523765
 30
0.0
 10
1871.958536155166
 20
968.4272252550526
 30
0.0
 10
1871.927842971953
 20
968.4485822447848
 30
0.0
 10
1871.890677690321
 20
968.4754551643653
 30
0.0
 10
1871.863368291125
 20
968.4924050951049
 30
0.0
 10
1871.849713553316
 20
968.5008800841914
 30
0.0
  0
SPLINE
  5
28B
330
1F
100
AcDbEntity
  8
0
  6
Continuous
 62
     8
370
    18
100
AcDbSpline
210
0.0
220
0.0
230
1.0
 70
     8
 71
     3
 72
    10
 73
     6
 74
     0
 42
0.000000001
 43
0.00000001
 40
0.0
 40
0.0
 40
0.0
 40
0.0
 40
0.4993573099105828
 40
0.9998128115878191
 40
0.9999999999999999
 40
0.9999999999999999
 40
0.9999999999999999
 40
0.9999999999999999
 10
1871.849713553316
 20
968.5008800841914
 30
0.0
 10
1871.848972717498
 20
968.5008034640906
 30
0.0
 10
1871.847489416609
 20
968.5006500553851
 30
0.0
 10
1871.849397321229
 20
968.495035313873
 30
0.0
 10
1871.850937561715
 20
968.4912703289998
 30
0.0
 10
1871.850938137605
 20
968.4912689212863
 30
0.0
  0
SPLINE
  5
28C
330
1F
100
AcDbEntity
  8
0
  6
Continuous
 62
     8
370
    18
100
AcDbSpline
210
0.0
220
0.0
230
1.0
 70
     8
 71
     3
 72
    10
 73
     6
 74
     0
 42
0.000000001
 43
0.00000001
 40
0.0
 40
0.0
 40
0.0
 40
0.0
 40
0.4999712442950947
 40
0.7499826264318606
 40
1.0
 40
1.0
 40
1.0
 40
1.0
 10
1874.719793893398
 20
963.4552240461146
 30
0.0
 10
1874.962130416742
 20
963.0057820893685
 30
0.0
 10
1875.325647687648
 20
962.3315959976779
 30
0.0
 10
1875.800881162303
 20
961.4276199348305
 30
0.0
 10
1876.036011772095
 20
960.9743047400015
 30
0.0
 10
1876.153578485679
 20
960.7476444267361
 30
0.0
  0
SPLINE
  5
28D
330
1F
100
AcDbEntity
  8
0
  6
Continuous
 62
     8
370
    18
100
AcDbSpline
210
0.0
220
0.0
230
1.0
 70
     8
 71
     3
 72
    11
 73
     7
 74
     0
 42
0.000000001
 43
0.00000001
 40
0.0
 40
0.0
 40
0.0
 40
0.0
 40
0.2471593440128861
 40
0.4953474341907614
 40
0.7469783905689373
 40
0.9999999999999999
 40
0.9999999999999999
 40
0.9999999999999999
 40
0.9999999999999999
 10
1877.761423884253
 20
941.2090036659822
 30
0.0
 10
1877.60868841096
 20
940.7715896999517
 30
0.0
 10
1877.30258173671
 20
939.8949411288944
 30
0.0
 10
1876.742036869355
 20
938.612878921082
 30
0.0
 10
1876.111126358036
 20
937.3534031680573
 30
0.0
 10
1875.627047184071
 20
936.5506930675487
 30
0.0
 10
1875.384340617243
 20
936.148232017516
 30
0.0
  0
SPLINE
  5
28E
330
1F
100
AcDbEntity
  8
0
  6
Continuous
 62
     8
370
    18
100
AcDbSpline
210
0.0
220
0.0
230
1.0
 70
     8
 71
     3
 72
    15
 73
    11
 74
     0
 42
0.000000001
 43
0.00000001
 40
0.0
 40
0.0
 40
0.0
 40
0.0
 40
0.0725909092871154
 40
0.2113393667722917
 40
0.3503145350511137
 40
0.489034685773673
 40
0.6277980450951456
 40
0.7714261096246134
 40
0.9150674468033645
 40
1.0
 40
1.0
 40
1.0
 40
1.0
 10
1875.384340617243
 20
936.148232017516
 30
0.0
 10
1875.366798687389
 20
936.1536543438642
 30
0.0
 10
1875.31572754937
 20
936.1694407698525
 30
0.0
 10
1874.760157504915
 20
936.0458452978346
 30
0.0
 10
1873.055133254674
 20
935.780037863505
 30
0.0
 10
1870.537104695621
 20
935.6948365313308
 30
0.0
 10
1867.23549203743
 20
935.5935974162629
 30
0.0
 10
1863.189025955568
 20
935.5093987747606
 30
0.0
 10
1859.224013796336
 20
935.4426622403681
 30
0.0
 10
1856.448103469217
 20
935.4163046159081
 30
0.0
 10
1855.41664204053
 20
935.4065107573972
 30
0.0
  0
LINE
  5
28F
330
1F
100
AcDbEntity
  8
0
  6
Continuous
 62
     8
370
    18
100
AcDbLine
 10
1806.1634901877
 20
963.4552240461
 30
0.0
 11
1804.7297055954
 21
960.7476444267
 31
0.0
  0
SPLINE
  5
290
330
1F
100
AcDbEntity
  8
0
  6
Continuous
 62
     8
370
    18
100
AcDbSpline
210
0.0
220
0.0
230
1.0
 70
     8
 71
     3
 72
     9
 73
     5
 74
     0
 42
0.000000001
 43
0.00000001
 40
0.0
 40
0.0
 40
0.0
 40
0.0
 40
0.9998127596651308
 40
0.9999999999999999
 40
0.9999999999999999
 40
0.9999999999999999
 40
0.9999999999999999
 10
1809.033570527745
 20
968.5008800841913
 30
0.0
 10
1809.034496325605
 20
968.4998344967215
 30
0.0
 10
1809.035422296845
 20
968.4987887134389
 30
0.0
 10
1809.032346519366
 20
968.491270329031
 30
0.0
 10
1809.032345943456
 20
968.4912689212862
 30
0.0
  0
SPLINE
  5
291
330
1F
100
AcDbEntity
  8
0
  6
Continuous
 62
     8
370
    18
100
AcDbSpline
210
0.0
220
0.0
230
1.0
 70
     8
 71
     3
 72
     9
 73
     5
 74
     0
 42
0.000000001
 43
0.00000001
 40
0.0
 40
0.0
 40
0.0
 40
0.0
 40
0.4999863548673912
 40
1.0
 40
1.0
 40
1.0
 40
1.0
 10
1808.901474907836
 20
968.4107315974488
 30
0.0
 10
1808.917989486655
 20
968.4226042605059
 30
0.0
 10
1808.951019545692
 20
968.4463502346539
 30
0.0
 10
1809.006053033101
 20
968.4827031369853
 30
0.0
 10
1809.033570527745
 20
968.5008800841913
 30
0.0
  0
SPLINE
  5
292
330
1F
100
AcDbEntity
  8
0
  6
Continuous
 62
     8
370
    18
100
AcDbSpline
210
0.0
220
0.0
230
1.0
 70
     8
 71
     3
 72
    15
 73
    11
 74
     0
 42
0.000000001
 43
0.00000001
 40
0.0
 40
0.0
 40
0.0
 40
0.0
 40
0.0726922106735363
 40
0.2116342931077068
 40
0.3508034027128485
 40
0.4897171388820131
 40
0.6286741439481502
 40
0.7725026429701721
 40
0.9163444331636004
 40
1.0
 40
1.0
 40
1.0
 40
1.0
 10
1805.498943463818
 20
936.1482320175159
 30
0.0
 10
1805.51648535761
 20
936.1536543423173
 30
0.0
 10
1805.567556390641
 20
936.1694407638015
 30
0.0
 10
1806.123127781055
 20
936.0458453495232
 30
0.0
 10
1807.828146397758
 20
935.780037673523
 30
0.0
 10
1810.346195861396
 20
935.6948372381256
 30
0.0
 10
1813.647729623484
 20
935.5935947385284
 30
0.0
 10
1817.694500197249
 20
935.5094091592903
 30
0.0
 10
1821.643681993103
 20
935.4428802426387
 30
0.0
 10
1824.402256228253
 20
935.4166656423313
 30
0.0
 10
1825.41664204053
 20
935.4070259819996
 30
0.0
  0
SPLINE
  5
293
330
1F
100
AcDbEntity
  8
0
  6
Continuous
 62
     8
370
    18
100
AcDbSpline
210
0.0
220
0.0
230
1.0
 70
     8
 71
     3
 72
     9
 73
     5
 74
     0
 42
0.000000001
 43
0.00000001
 40
0.0
 40
0.0
 40
0.0
 40
0.0
 40
0.4953960175050964
 40
1.0
 40
1.0
 40
1.0
 40
1.0
 10
1803.121860196808
 20
941.209003665982
 30
0.0
 10
1803.43985115762
 20
940.3346523242853
 30
0.0
 10
1804.081743602402
 20
938.5696980032958
 30
0.0
 10
1805.023652488663
 20
936.9603270233222
 30
0.0
 10
1805.498943463818
 20
936.1482320175159
 30
0.0
  0
SPLINE
  5
294
330
1F
100
AcDbEntity
  8
0
  6
Continuous
 62
     8
370
    18
100
AcDbSpline
210
0.0
220
0.0
230
1.0
 70
     8
 71
     3
 72
    13
 73
     9
 74
     0
 42
0.000000001
 43
0.00000001
 40
0.0
 40
0.0
 40
0.0
 40
0.0
 40
0.3455606136556955
 40
0.7377948233629087
 40
0.8482878985160521
 40
0.9091433588593544
 40
0.9540191324658088
 40
1.0
 40
1.0
 40
1.0
 40
1.0
 10
1805.498943463818
 20
936.1482320175159
 30
0.0
 10
1805.837386073023
 20
935.6470606714229
 30
0.0
 10
1806.559983484907
 20
934.5770266161715
 30
0.0
 10
1807.595138568439
 20
933.4899264697609
 30
0.0
 10
1808.225043299402
 20
932.9097447219949
 30
0.0
 10
1808.402477111459
 20
932.7504288462704
 30
0.0
 10
1808.472676070547
 20
932.6856272338923
 30
0.0
 10
1808.468704860331
 20
932.6855700712522
 30
0.0
 10
1808.466695104208
 20
932.6855411422962
 30
0.0
  0
SPLINE
  5
295
330
1F
100
AcDbEntity
  8
0
  6
Continuous
 62
     8
370
    18
100
AcDbSpline
210
0.0
220
0.0
230
1.0
 70
     8
 71
     3
 72
     9
 73
     5
 74
     0
 42
0.000000001
 43
0.00000001
 40
0.0
 40
0.0
 40
0.0
 40
0.0
 40
0.4998468996431858
 40
1.0
 40
1.0
 40
1.0
 40
1.0
 10
1808.466695104208
 20
932.6855411422962
 30
0.0
 10
1808.361121655832
 20
932.7491330890206
 30
0.0
 10
1808.149910085947
 20
932.8763559381969
 30
0.0
 10
1808.029331248195
 20
932.9539838821217
 30
0.0
 10
1807.969023368656
 20
932.9928097389501
 30
0.0
  0
SPLINE
  5
296
330
1F
100
AcDbEntity
  8
0
  6
Continuous
 62
     8
370
    18
100
AcDbSpline
210
0.0
220
0.0
230
1.0
 70
     8
 71
     3
 72
    13
 73
     9
 74
     0
 42
0.000000001
 43
0.00000001
 40
0.0
 40
0.0
 40
0.0
 40
0.0
 40
0.3455606136556849
 40
0.7377948233629062
 40
0.8482878985160515
 40
0.9091433588593542
 40
0.9540191324658097
 40
1.0
 40
1.0
 40
1.0
 40
1.0
 10
1875.384340617243
 20
936.148232017516
 30
0.0
 10
1875.045898008038
 20
935.647060671423
 30
0.0
 10
1874.323300596154
 20
934.5770266161716
 30
0.0
 10
1873.288145512622
 20
933.4899264697609
 30
0.0
 10
1872.658240781659
 20
932.909744721995
 30
0.0
 10
1872.480806969602
 20
932.7504288462704
 30
0.0
 10
1872.410608010514
 20
932.6856272338925
 30
0.0
 10
1872.414579220729
 20
932.6855700712522
 30
0.0
 10
1872.416588976853
 20
932.685541142296
 30
0.0
  0
SPLINE
  5
297
330
1F
100
AcDbEntity
  8
0
  6
Continuous
 62
     8
370
    18
100
AcDbSpline
210
0.0
220
0.0
230
1.0
 70
     8
 71
     3
 72
    11
 73
     7
 74
     0
 42
0.000000001
 43
0.00000001
 40
0.0
 40
0.0
 40
0.0
 40
0.0
 40
0.2499068565621724
 40
0.499844562614247
 40
0.7498974475611092
 40
1.0
 40
1.0
 40
1.0
 40
1.0
 10
1872.416588976853
 20
932.685541142296
 30
0.0
 10
1872.47042071025
 20
932.7176489744329
 30
0.0
 10
1872.578090822248
 20
932.7818686022246
 30
0.0
 10
1872.713972151494
 20
932.8657422620654
 30
0.0
 10
1872.830159421944
 20
932.9388100842255
 30
0.0
 10
1872.886225093069
 20
932.9748086624404
 30
0.0
 10
1872.914260712407
 20
932.9928097389513
 30
0.0
  0
SPLINE
  5
298
330
1F
100
AcDbEntity
  8
0
  6
Continuous
 62
     8
370
    18
100
AcDbSpline
210
0.0
220
0.0
230
1.0
 70
     8
 71
     3
 72
     9
 73
     5
 74
     0
 42
0.000000001
 43
0.00000001
 40
0.0
 40
0.0
 40
0.0
 40
0.0
 40
0.734035650335971
 40
1.0
 40
1.0
 40
1.0
 40
1.0
 10
1872.914260712407
 20
932.9928097389513
 30
0.0
 10
1872.919813008107
 20
932.9968245842011
 30
0.0
 10
1872.92737707628
 20
933.0022941349623
 30
0.0
 10
1872.97445984291
 20
933.0444162846222
 30
0.0
 10
1872.986982180316
 20
933.0556192747631
 30
0.0
  0
SPLINE
  5
299
330
1F
100
AcDbEntity
  8
0
  6
Continuous
 62
     8
370
    18
100
AcDbSpline
210
0.0
220
0.0
230
1.0
 70
     8
 71
     3
 72
    12
 73
     8
 74
     0
 42
0.000000001
 43
0.00000001
 40
0.0
 40
0.0
 40
0.0
 40
0.0
 40
0.1139159269059948
 40
0.3258009088085496
 40
0.544304188665512
 40
0.8274327407183951
 40
1.0
 40
1.0
 40
1.0
 40
1.0
 10
1878.524573880269
 20
940.9722176619348
 30
0.0
 10
1878.755817869716
 20
941.725689145685
 30
0.0
 10
1879.417178435921
 20
943.8806265704551
 30
0.0
 10
1879.940210642601
 20
947.635533548651
 30
0.0
 10
1879.789074526001
 20
952.5814110628037
 30
0.0
 10
1878.769757887908
 20
957.189906962291
 30
0.0
 10
1877.428169711639
 20
960.0458687478222
 30
0.0
 10
1876.920124237213
 20
961.1273917411954
 30
0.0
  0
ARC
  5
29A
330
1F
100
AcDbEntity
  8
0
  6
Continuous
 62
     8
370
    18
100
AcDbCircle
 10
1873.1422072032
 20
924.9732976271
 30
0.0
 40
16.88002705353608
100
AcDbArc
 50
71.4059989949
 51
74.1184304799
  0
ARC
  5
29B
330
1F
100
AcDbEntity
  8
0
  6
Continuous
 62
     8
370
    18
100
AcDbCircle
 10
1867.4380295477
 20
979.3041080235
 30
0.0
 40
20.50129592263199
100
AcDbArc
 50
295.1583766345
 51
297.5493192595
  0
ARC
  5
29C
330
1F
100
AcDbEntity
  8
0
  6
Continuous
 62
     8
370
    18
100
AcDbCircle
 10
1807.7410768779
 20
924.9732976272
 30
0.0
 40
16.88002705340744
100
AcDbArc
 50
105.8815695201
 51
108.5940010051
  0
SPLINE
  5
29D
330
1F
100
AcDbEntity
  8
0
  6
Continuous
 62
     8
370
    18
100
AcDbSpline
210
0.0
220
0.0
230
1.0
 70
     8
 71
     3
 72
    12
 73
     8
 74
     0
 42
0.000000001
 43
0.00000001
 40
0.0
 40
0.0
 40
0.0
 40
0.0
 40
0.1139185701341834
 40
0.3290869588708601
 40
0.5442936150078429
 40
0.827428736584325
 40
1.0
 40
1.0
 40
1.0
 40
1.0
 10
1802.358710200792
 20
940.9722176619348
 30
0.0
 10
1802.127336592853
 20
941.7256715293925
 30
0.0
 10
1801.458946558551
 20
943.9022424045279
 30
0.0
 10
1800.946539475075
 20
947.659191497815
 30
0.0
 10
1801.097522444926
 20
952.6038041773509
 30
0.0
 10
1802.113788842631
 20
957.1899343612553
 30
0.0
 10
1803.455186512291
 20
960.0458762735934
 30
0.0
 10
1803.963159843848
 20
961.1273917411954
 30
0.0
  0
ARC
  5
29E
330
1F
100
AcDbEntity
  8
0
  6
Continuous
 62
     8
370
    18
100
AcDbCircle
 10
1813.4452545332
 20
979.3041080232
 30
0.0
 40
20.50129592233934
100
AcDbArc
 50
242.4506807405
 51
244.8416233655
  0
ARC
  5
29F
330
1F
100
AcDbEntity
  8
0
  6
Continuous
 62
     8
370
    18
100
AcDbCircle
 10
1805.3156196934
 20
935.4763424723
 30
0.0
 40
0.6964504044244112
100
AcDbArc
 50
74.7384391007
 51
121.314184164
  0
SPLINE
  5
2A0
330
1F
100
AcDbEntity
  8
0
  6
Continuous
 62
     8
370
    18
100
AcDbSpline
210
0.0
220
0.0
230
1.0
 70
     8
 71
     3
 72
    11
 73
     7
 74
     0
 42
0.000000001
 43
0.00000001
 40
0.0
 40
0.0
 40
0.0
 40
0.0
 40
0.3598580230790378
 40
0.7246062069006073
 40
0.8621677510649521
 40
1.0
 40
1.0
 40
1.0
 40
1.0
 10
1804.953653088643
 20
936.0713410797257
 30
0.0
 10
1804.568350649522
 20
936.6176374283566
 30
0.0
 10
1803.792509842828
 20
937.7176538227059
 30
0.0
 10
1803.071614609375
 20
939.1525851309298
 30
0.0
 10
1802.613653537435
 20
940.2488346679035
 30
0.0
 10
1802.443746984213
 20
940.7309320342965
 30
0.0
 10
1802.358710200792
 20
940.9722176619348
 30
0.0
  0
SPLINE
  5
2A1
330
1F
100
AcDbEntity
  8
0
  6
Continuous
 62
     8
370
    18
100
AcDbSpline
210
0.0
220
0.0
230
1.0
 70
     8
 71
     3
 72
    11
 73
     7
 74
     0
 42
0.000000001
 43
0.00000001
 40
0.0
 40
0.0
 40
0.0
 40
0.0
 40
0.3598580230790425
 40
0.7246062069006102
 40
0.8621677510649538
 40
1.0
 40
1.0
 40
1.0
 40
1.0
 10
1875.929630992418
 20
936.0713410797258
 30
0.0
 10
1876.314933431539
 20
936.6176374283566
 30
0.0
 10
1877.090774238233
 20
937.717653822706
 30
0.0
 10
1877.811669471686
 20
939.1525851309299
 30
0.0
 10
1878.269630543626
 20
940.2488346679036
 30
0.0
 10
1878.439537096848
 20
940.7309320342968
 30
0.0
 10
1878.524573880269
 20
940.9722176619348
 30
0.0
  0
ARC
  5
2A2
330
1F
100
AcDbEntity
  8
0
  6
Continuous
 62
     8
370
    18
100
AcDbCircle
 10
1875.5676643877
 20
935.4763424723
 30
0.0
 40
0.6964504044255917
100
AcDbArc
 50
58.685815836
 51
105.2615608992
  0
ARC
  5
2A3
330
1F
100
AcDbEntity
  8
0
  6
Continuous
 62
     8
370
    18
100
AcDbCircle
 10
1874.3906300244
 20
970.0910326075
 30
0.0
 40
2.997472528739735
100
AcDbArc
 50
212.0390940145
 51
236.4309513429
  0
SPLINE
  5
2A4
330
1F
100
AcDbEntity
  8
0
  6
Continuous
 62
     8
370
    18
100
AcDbSpline
210
0.0
220
0.0
230
1.0
 70
     8
 71
     3
 72
    14
 73
    10
 74
     0
 42
0.000000001
 43
0.00000001
 40
0.0
 40
0.0
 40
0.0
 40
0.0
 40
0.6113158653943738
 40
0.7934072053583404
 40
0.8854170307688747
 40
0.9194198313361065
 40
0.9434501870529951
 40
0.9749897870426378
 40
1.0
 40
1.0
 40
1.0
 40
1.0
 10
1875.458931182603
 20
963.8455640747899
 30
0.0
 10
1874.902474232316
 20
964.7278873953845
 30
0.0
 10
1874.180266648935
 20
965.8730264628352
 30
0.0
 10
1873.195589399078
 20
967.0086825756157
 30
0.0
 10
1872.870549159106
 20
967.3864296374907
 30
0.0
 10
1872.757495335471
 20
967.5274705314996
 30
0.0
 10
1872.717125393177
 20
967.5846757674274
 30
0.0
 10
1872.709013305382
 20
967.6070135728937
 30
0.0
 10
1872.725785281617
 20
967.5976289040765
 30
0.0
 10
1872.73320300195
 20
967.5934783586828
 30
0.0
  0
ARC
  5
2A5
330
1F
100
AcDbEntity
  8
0
  6
Continuous
 62
     8
370
    18
100
AcDbCircle
 10
1862.8308218227
 20
986.8628342109
 30
0.0
 40
26.25383534883203
100
AcDbArc
 50
296.9264954205
 51
298.7507702117
  0
ARC
  5
2A6
330
1F
100
AcDbEntity
  8
0
  6
Continuous
 62
     8
370
    18
100
AcDbCircle
 10
1818.0524622583
 20
986.8628342107
 30
0.0
 40
26.25383534869018
100
AcDbArc
 50
241.2492297883
 51
243.0735045796
  0
SPLINE
  5
2A7
330
1F
100
AcDbEntity
  8
0
  6
Continuous
 62
     8
370
    18
100
AcDbSpline
210
0.0
220
0.0
230
1.0
 70
     8
 71
     3
 72
    14
 73
    10
 74
     0
 42
0.000000001
 43
0.00000001
 40
0.0
 40
0.0
 40
0.0
 40
0.0
 40
0.6113158653943737
 40
0.7934072053583404
 40
0.8854170307688746
 40
0.9194198313361064
 40
0.943450187052995
 40
0.9749897870426377
 40
1.0
 40
1.0
 40
1.0
 40
1.0
 10
1805.424352898458
 20
963.8455640747898
 30
0.0
 10
1805.980809848745
 20
964.7278873953845
 30
0.0
 10
1806.703017432126
 20
965.8730264628351
 30
0.0
 10
1807.687694681984
 20
967.0086825756157
 30
0.0
 10
1808.012734921955
 20
967.3864296374906
 30
0.0
 10
1808.12578874559
 20
967.5274705314994
 30
0.0
 10
1808.166158687884
 20
967.5846757674273
 30
0.0
 10
1808.174270775679
 20
967.6070135728936
 30
0.0
 10
1808.157498799444
 20
967.5976289040765
 30
0.0
 10
1808.150081079111
 20
967.5934783586825
 30
0.0
  0
ARC
  5
2A8
330
1F
100
AcDbEntity
  8
0
  6
Continuous
 62
     8
370
    18
100
AcDbCircle
 10
1806.4926540566
 20
970.0910326075
 30
0.0
 40
2.997472528742579
100
AcDbArc
 50
303.5690486571
 51
327.9609059855
  0
LINE
  5
2A9
330
1F
100
AcDbEntity
  8
0
  6
Continuous
 62
     8
370
    18
100
AcDbLine
 10
1876.9201242372
 20
961.1273917412
 30
0.0
 11
1875.4589311826
 21
963.8455640748
 31
0.0
  0
LINE
  5
2AA
330
1F
100
AcDbEntity
  8
0
  6
Continuous
 62
     8
370
    18
100
AcDbLine
 10
1803.9631598438
 20
961.1273917412
 30
0.0
 11
1805.4243528985
 21
963.8455640748
 31
0.0
  0
ARC
  5
2AB
330
1F
100
AcDbEntity
  8
0
  6
Continuous
 62
     8
370
    18
100
AcDbCircle
 10
1806.5548255929
 20
930.4214701375
 30
0.0
 40
2.963319514219577
100
AcDbArc
 50
49.8209532533
 51
58.1297763967
  0
SPLINE
  5
2AC
330
1F
100
AcDbEntity
  8
0
  6
Continuous
 62
     8
370
    18
100
AcDbSpline
210
0.0
220
0.0
230
1.0
 70
     8
 71
     3
 72
    16
 73
    12
 74
     0
 42
0.000000001
 43
0.00000001
 40
0.0
 40
0.0
 40
0.0
 40
0.0
 40
0.0117733620155406
 40
0.0227113902881391
 40
0.0341085178796156
 40
0.044872447014466
 40
0.0843977891274212
 40
0.1801725761900122
 40
0.6004756555876863
 40
0.7301077904365099
 40
1.0
 40
1.0
 40
1.0
 40
1.0
 10
1808.119449572508
 20
932.938057975323
 30
0.0
 10
1808.12502293537
 20
932.9347046079
 30
0.0
 10
1808.135774224509
 20
932.9282357983773
 30
0.0
 10
1808.136100629766
 20
932.9302993365632
 30
0.0
 10
1808.12024500539
 20
932.9439395214354
 30
0.0
 10
1808.069127311616
 20
932.9845174643349
 30
0.0
 10
1807.898619369156
 20
933.1151839543656
 30
0.0
 10
1807.224370433175
 20
933.642572832694
 30
0.0
 10
1806.474214308748
 20
934.3236424290494
 30
0.0
 10
1805.601374399609
 20
935.2542136339797
 30
0.0
 10
1805.214798312435
 20
935.7418954893568
 30
0.0
 10
1804.953653088643
 20
936.0713410797257
 30
0.0
  0
SPLINE
  5
2AD
330
1F
100
AcDbEntity
  8
0
  6
Continuous
 62
     8
370
    18
100
AcDbSpline
210
0.0
220
0.0
230
1.0
 70
     8
 71
     3
 72
    16
 73
    12
 74
     0
 42
0.000000001
 43
0.00000001
 40
0.0
 40
0.0
 40
0.0
 40
0.0
 40
0.0117733620155408
 40
0.0227113902881394
 40
0.0341085178796155
 40
0.0448724470144665
 40
0.0843977891274209
 40
0.1801725761900129
 40
0.6004756555876873
 40
0.7301077904365098
 40
1.0
 40
1.0
 40
1.0
 40
1.0
 10
1872.763834508553
 20
932.938057975323
 30
0.0
 10
1872.758261145691
 20
932.9347046079002
 30
0.0
 10
1872.747509856552
 20
932.9282357983773
 30
0.0
 10
1872.747183451295
 20
932.9302993365633
 30
0.0
 10
1872.763039075671
 20
932.9439395214354
 30
0.0
 10
1872.814156769445
 20
932.984517464335
 30
0.0
 10
1872.984664711905
 20
933.1151839543656
 30
0.0
 10
1873.658913647886
 20
933.6425728326941
 30
0.0
 10
1874.409069772313
 20
934.3236424290495
 30
0.0
 10
1875.281909681452
 20
935.2542136339797
 30
0.0
 10
1875.668485768626
 20
935.7418954893568
 30
0.0
 10
1875.929630992418
 20
936.0713410797258
 30
0.0
  0
ARC
  5
2AE
330
1F
100
AcDbEntity
  8
0
  6
Continuous
 62
     8
370
    18
100
AcDbCircle
 10
1874.3284584882
 20
930.4214701375
 30
0.0
 40
2.963319514150703
100
AcDbArc
 50
121.8702236032
 51
130.1790467468
  0
ARC
  5
2AF
330
1F
100
AcDbEntity
  8
0
  6
Continuous
 62
     8
370
    18
100
AcDbCircle
 10
1870.1261468453
 20
974.1230047072
 30
0.0
 40
14.66438151312808
100
AcDbArc
 50
297.6001215934
 51
299.8288543736
  0
ARC
  5
2B0
330
1F
100
AcDbEntity
  8
0
  6
Continuous
 62
     8
370
    18
100
AcDbCircle
 10
1874.5128803244
 20
929.0985512445
 30
0.0
 40
12.53306185171936
100
AcDbArc
 50
68.8944075233
 51
71.3317007916
  0
ARC
  5
2B1
330
1F
100
AcDbEntity
  8
0
  6
Continuous
 62
     8
370
    18
100
AcDbCircle
 10
1810.7571372358
 20
974.1230047073
 30
0.0
 40
14.66438151325827
100
AcDbArc
 50
240.1711456264
 51
242.3998784066
  0
ARC
  5
2B2
330
1F
100
AcDbEntity
  8
0
  6
Continuous
 62
     8
370
    18
100
AcDbCircle
 10
1806.3704037566
 20
929.0985512445
 30
0.0
 40
12.53306185169129
100
AcDbArc
 50
108.6682992084
 51
111.1055924767
  0
ARC
  5
2B3
330
1F
100
AcDbEntity
  8
0
  6
Continuous
 62
     8
370
    18
100
AcDbCircle
 10
1868.1351458305
 20
977.1721596813
 30
0.0
 40
15.20644542103543
100
AcDbArc
 50
298.7915058483
 51
300.8920630848
  0
ARC
  5
2B4
330
1F
100
AcDbEntity
  8
0
  6
Continuous
 62
     8
370
    18
100
AcDbCircle
 10
1812.7481382508
 20
977.1721596817
 30
0.0
 40
15.20644542150642
100
AcDbArc
 50
239.1079369152
 51
241.2084941516
  0
ARC
  5
2B5
330
1F
100
AcDbEntity
  8
0
  6
Continuous
 62
     8
370
    18
100
AcDbCircle
 10
1874.9120845943
 20
930.7658838213
 30
0.0
 40
2.991738508921545
100
AcDbArc
 50
124.0281034349
 51
131.8959735504
  0
ARC
  5
2B6
330
1F
100
AcDbEntity
  8
0
  6
Continuous
 62
     8
370
    18
100
AcDbCircle
 10
1805.9711994869
 20
930.7658838214
 30
0.0
 40
2.991738508790128
100
AcDbArc
 50
48.1040264494
 51
55.9718965654
  0
ARC
  5
2B7
330
1F
100
AcDbEntity
  8
0
  6
Continuous
 62
     8
370
    18
100
AcDbCircle
 10
1874.5227310949
 20
970.0045763764
 30
0.0
 40
2.999437512486056
100
AcDbArc
 50
212.0988262038
 51
235.735331513
  0
ARC
  5
2B8
330
1F
100
AcDbEntity
  8
0
  6
Continuous
 62
     8
370
    18
100
AcDbCircle
 10
1806.360533542
 20
970.0045917478
 30
0.0
 40
2.999462152328097
100
AcDbArc
 50
312.8940341432
 51
327.9011224249
  0
ARC
  5
2B9
330
1F
100
AcDbEntity
  8
0
  6
Continuous
 62
     8
370
    18
100
AcDbCircle
 10
1874.0256073759
 20
945.1839575581
 30
0.0
 40
8.932560827389
100
AcDbArc
 50
287.5397504291
 51
356.514198663
  0
SPLINE
  5
2BA
330
1F
100
AcDbEntity
  8
0
  6
Continuous
 62
     8
370
    18
100
AcDbSpline
210
0.0
220
0.0
230
1.0
 70
     8
 71
     3
 72
    11
 73
     7
 74
     0
 42
0.000000001
 43
0.00000001
 40
0.0
 40
0.0
 40
0.0
 40
0.0
 40
0.2352104509735765
 40
0.4712568957191098
 40
0.7971477029157052
 40
1.0
 40
1.0
 40
1.0
 40
1.0
 10
1871.94164204053
 20
931.3800856663198
 30
0.0
 10
1872.304341186192
 20
931.6608519273682
 30
0.0
 10
1873.031028596368
 20
932.2233823593992
 30
0.0
 10
1874.211548391929
 20
933.3420120920362
 30
0.0
 10
1875.309872345541
 20
934.5333570164453
 30
0.0
 10
1875.974187663518
 20
935.5550997007421
 30
0.0
 10
1876.229052241701
 20
935.9470912914799
 30
0.0
  0
SPLINE
  5
2BB
330
1F
100
AcDbEntity
  8
0
  6
Continuous
 62
     8
370
    18
100
AcDbSpline
210
0.0
220
0.0
230
1.0
 70
     8
 71
     3
 72
    10
 73
     6
 74
     0
 42
0.000000001
 43
0.00000001
 40
0.0
 40
0.0
 40
0.0
 40
0.0
 40
0.4338511233656741
 40
0.8744573306293164
 40
1.0
 40
1.0
 40
1.0
 40
1.0
 10
1871.94164204053
 20
931.3800856663198
 30
0.0
 10
1870.907019617709
 20
930.9267250827702
 30
0.0
 10
1868.8216656487
 20
930.0129450684927
 30
0.0
 10
1866.322614964712
 20
929.4122432274213
 30
0.0
 10
1864.893654126466
 20
929.3296199379391
 30
0.0
 10
1864.576784190901
 20
929.3112983466725
 30
0.0
  0
LWPOLYLINE
  5
2BC
330
1F
100
AcDbEntity
  8
0
  6
Continuous
 62
     8
370
    18
100
AcDbPolyline
 90
        9
 70
   128
 43
0.0
 10
1882.9416420405
 20
941.1599622092
 10
1882.730280125
 20
939.2520029452
 10
1882.1043168982
 20
937.4173654857
 10
1881.0878077759
 20
935.7265539194
 10
1879.7198166336
 20
934.2445451866
 10
1878.0529146037
 20
933.0282920517
 10
1876.1511597965
 20
932.1245344407
 10
1874.0876355827
 20
931.5680032518
 10
1871.9416420405
 20
931.3800856663
  0
LINE
  5
2BD
330
1F
100
AcDbEntity
  8
0
  6
Continuous
 62
     8
370
    18
100
AcDbLine
 10
1871.9416420405
 20
929.1616793807
 30
0.0
 11
1871.9416420405
 21
931.3800856663
 31
0.0
  0
LINE
  5
2BE
330
1F
100
AcDbEntity
  8
0
  6
Continuous
 62
     8
370
    18
100
AcDbLine
 10
1875.4416420405
 20
997.6112793807
 30
0.0
 11
1790.9416420405
 21
997.6112793807
 31
0.0
  0
LINE
  5
2BF
330
1F
100
AcDbEntity
  8
0
  6
Continuous
 62
     8
370
    18
100
AcDbLine
 10
1790.9166420405
 20
1019.1112793807
 30
0.0
 11
1789.9166420405
 21
1019.1112793807
 31
0.0
  0
LINE
  5
2C0
330
1F
100
AcDbEntity
  8
0
  6
Continuous
 62
     8
370
    18
100
AcDbLine
 10
1790.9166420405
 20
987.6112793807
 30
0.0
 11
1789.9166420405
 21
987.6112793807
 31
0.0
  0
LINE
  5
2C1
330
1F
100
AcDbEntity
  8
0
  6
Continuous
 62
     8
370
    18
100
AcDbLine
 10
1895.9166420405
 20
985.6112793807
 30
0.0
 11
1895.9166420405
 21
986.6112793807
 31
0.0
  0
LINE
  5
2C2
330
1F
100
AcDbEntity
  8
0
  6
Continuous
 62
     8
370
    18
100
AcDbLine
 10
1791.9166420405
 20
986.6112793807
 30
0.0
 11
1791.9166420405
 21
985.6112793807
 31
0.0
  0
LINE
  5
2C3
330
1F
100
AcDbEntity
  8
0
  6
Continuous
 62
     7
370
    35
100
AcDbLine
 10
342.0546682673
 20
724.6073209512
 30
0.0
 11
1522.0546682673
 21
724.6073209512
 31
0.0
  0
LINE
  5
2C4
330
1F
100
AcDbEntity
  8
0
  6
Continuous
 62
     7
370
    35
100
AcDbLine
 10
342.0546682673
 20
725.6073209512
 30
0.0
 11
342.0546682673
 21
724.6073209512
 31
0.0
  0
LINE
  5
2C5
330
1F
100
AcDbEntity
  8
0
  6
Continuous
 62
     7
370
    35
100
AcDbLine
 10
1522.0546682673
 20
725.6073209512
 30
0.0
 11
1522.0546682673
 21
724.6073209512
 31
0.0
  0
LINE
  5
2C6
330
1F
100
AcDbEntity
  8
0
  6
Continuous
 62
     7
370
    35
100
AcDbLine
 10
342.0546682673
 20
725.6073209512
 30
0.0
 11
1522.0546682673
 21
725.6073209512
 31
0.0
  0
LINE
  5
2C7
330
1F
100
AcDbEntity
  8
0
  6
Continuous
 62
     7
370
    35
100
AcDbLine
 10
1522.0546682673
 20
723.6073209512
 30
0.0
 11
1522.0546682673
 21
724.6073209512
 31
0.0
  0
LINE
  5
2C8
330
1F
100
AcDbEntity
  8
0
  6
Continuous
 62
     7
370
    35
100
AcDbLine
 10
342.0546682673
 20
724.6073209512
 30
0.0
 11
342.0546682673
 21
723.6073209512
 31
0.0
  0
LINE
  5
2C9
330
1F
100
AcDbEntity
  8
0
  6
Continuous
 62
     7
370
    35
100
AcDbLine
 10
1522.0546682673
 20
709.1073209512
 30
0.0
 11
1522.0546682673
 21
723.6073209512
 31
0.0
  0
LINE
  5
2CA
330
1F
100
AcDbEntity
  8
0
  6
Continuous
 62
     7
370
    35
100
AcDbLine
 10
342.0546682673
 20
723.6073209512
 30
0.0
 11
342.0546682673
 21
709.1073209512
 31
0.0
  0
LINE
  5
2CB
330
1F
100
AcDbEntity
  8
0
  6
Continuous
 62
     7
370
    35
100
AcDbLine
 10
1522.0546682673
 20
709.1073209512
 30
0.0
 11
1522.0546682673
 21
707.3752701436
 31
0.0
  0
LINE
  5
2CC
330
1F
100
AcDbEntity
  8
0
  6
Continuous
 62
     7
370
    35
100
AcDbLine
 10
1522.0546682673
 20
707.1073209512
 30
0.0
 11
342.0546682673
 21
707.1073209512
 31
0.0
  0
LINE
  5
2CD
330
1F
100
AcDbEntity
  8
0
  6
Continuous
 62
     7
370
    35
100
AcDbLine
 10
342.0546682673
 20
707.3752701436
 30
0.0
 11
342.0546682673
 21
709.1073209512
 31
0.0
  0
LINE
  5
2CE
330
1F
100
AcDbEntity
  8
0
  6
Continuous
 62
     7
370
    35
100
AcDbLine
 10
1522.0546682673
 20
643.0215345136
 30
0.0
 11
1522.0546682673
 21
640.1931073888
 31
0.0
  0
LINE
  5
2CF
330
1F
100
AcDbEntity
  8
0
  6
Continuous
 62
     7
370
    35
100
AcDbLine
 10
342.0546682673
 20
640.1073209512
 30
0.0
 11
1522.0546682673
 21
640.1073209512
 31
0.0
  0
LINE
  5
2D0
330
1F
100
AcDbEntity
  8
0
  6
Continuous
 62
     7
370
    35
100
AcDbLine
 10
342.0546682673
 20
643.1073209512
 30
0.0
 11
1522.0546682673
 21
643.1073209512
 31
0.0
  0
LINE
  5
2D1
330
1F
100
AcDbEntity
  8
0
  6
Continuous
 62
     7
370
    35
100
AcDbLine
 10
342.0546682673
 20
640.1931073888
 30
0.0
 11
342.0546682673
 21
643.0215345136
 31
0.0
  0
LINE
  5
2D2
330
1F
100
AcDbEntity
  8
0
  6
Continuous
 62
     7
370
    35
100
AcDbLine
 10
342.0546682673
 20
640.1073209512
 30
0.0
 11
342.0546682673
 21
639.1073209512
 31
0.0
  0
LINE
  5
2D3
330
1F
100
AcDbEntity
  8
0
  6
Continuous
 62
     7
370
    35
100
AcDbLine
 10
1522.0546682673
 20
639.1073209512
 30
0.0
 11
1522.0546682673
 21
640.1073209512
 31
0.0
  0
LINE
  5
2D4
330
1F
100
AcDbEntity
  8
0
  6
Continuous
 62
     7
370
    35
100
AcDbLine
 10
1522.0546682673
 20
609.6073209512
 30
0.0
 11
342.0546682673
 21
609.6073209512
 31
0.0
  0
LINE
  5
2D5
330
1F
100
AcDbEntity
  8
0
  6
Continuous
 62
     7
370
    35
100
AcDbLine
 10
342.0546682673
 20
609.6073209512
 30
0.0
 11
342.0546682673
 21
639.1073209512
 31
0.0
  0
LINE
  5
2D6
330
1F
100
AcDbEntity
  8
0
  6
Continuous
 62
     7
370
    35
100
AcDbLine
 10
1522.0546682673
 20
639.1073209512
 30
0.0
 11
1522.0546682673
 21
609.6073209512
 31
0.0
  0
LINE
  5
2D7
330
1F
100
AcDbEntity
  8
0
  6
Continuous
 62
     7
370
    35
100
AcDbLine
 10
879.0546682673
 20
704.3623006492
 30
0.0
 11
985.0546682673
 21
704.3623006492
 31
0.0
  0
SPLINE
  5
2D8
330
1F
100
AcDbEntity
  8
0
  6
Continuous
 62
     7
370
    35
100
AcDbSpline
210
0.0
220
0.0
230
1.0
 70
     8
 71
     3
 72
     8
 73
     4
 74
     0
 42
0.000000001
 43
0.00000001
 40
0.0
 40
0.0
 40
0.0
 40
0.0
 40
1.0
 40
1.0
 40
1.0
 40
1.0
 10
872.2874052954057
 20
704.1640363794207
 30
0.0
 10
874.5407322865151
 20
704.2945241602218
 30
0.0
 10
876.797549735013
 20
704.362300649172
 30
0.0
 10
879.0546682672936
 20
704.362300649172
 30
0.0
  0
SPLINE
  5
2D9
330
1F
100
AcDbEntity
  8
0
  6
Continuous
 62
     7
370
    35
100
AcDbSpline
210
0.0
220
0.0
230
1.0
 70
     8
 71
     3
 72
     8
 73
     4
 74
     0
 42
0.000000001
 43
0.00000001
 40
0.0
 40
0.0
 40
0.0
 40
0.0
 40
1.0
 40
1.0
 40
1.0
 40
1.0
 10
985.0546682672936
 20
704.362300649172
 30
0.0
 10
987.311781937039
 20
704.362300649172
 30
0.0
 10
989.5686039418111
 20
704.2945241779812
 30
0.0
 10
991.8219312391813
 20
704.1640363794208
 30
0.0
  0
SPLINE
  5
2DA
330
1F
100
AcDbEntity
  8
0
  6
Continuous
 62
     7
370
    35
100
AcDbSpline
210
0.0
220
0.0
230
1.0
 70
     8
 71
     3
 72
     8
 73
     4
 74
     0
 42
0.000000001
 43
0.00000001
 40
0.0
 40
0.0
 40
0.0
 40
0.0
 40
1.0
 40
1.0
 40
1.0
 40
1.0
 10
879.0546682672936
 20
645.8523412532576
 30
0.0
 10
876.797554597548
 20
645.8523412532576
 30
0.0
 10
874.5407325927758
 20
645.9201177244485
 30
0.0
 10
872.2874052954056
 20
646.0506055230086
 30
0.0
  0
LINE
  5
2DB
330
1F
100
AcDbEntity
  8
0
  6
Continuous
 62
     7
370
    35
100
AcDbLine
 10
985.0546682673
 20
645.8523412533
 30
0.0
 11
879.0546682673
 21
645.8523412533
 31
0.0
  0
SPLINE
  5
2DC
330
1F
100
AcDbEntity
  8
0
  6
Continuous
 62
     7
370
    35
100
AcDbSpline
210
0.0
220
0.0
230
1.0
 70
     8
 71
     3
 72
     8
 73
     4
 74
     0
 42
0.000000001
 43
0.00000001
 40
0.0
 40
0.0
 40
0.0
 40
0.0
 40
1.0
 40
1.0
 40
1.0
 40
1.0
 10
991.8219312391814
 20
646.0506055230088
 30
0.0
 10
989.568604248072
 20
645.9201177422079
 30
0.0
 10
987.311786799574
 20
645.8523412532576
 30
0.0
 10
985.0546682672936
 20
645.8523412532576
 30
0.0
  0
SPLINE
  5
2DD
330
1F
100
AcDbEntity
  8
0
  6
Continuous
 62
     7
370
    35
100
AcDbSpline
210
0.0
220
0.0
230
1.0
 70
     8
 71
     3
 72
    10
 73
     6
 74
     0
 42
0.000000001
 43
0.00000001
 40
0.0
 40
0.0
 40
0.0
 40
0.0
 40
0.5
 40
0.5
 40
1.0
 40
1.0
 40
1.0
 40
1.0
 10
985.0546682672936
 20
704.3573209512148
 30
0.0
 10
986.1976284152508
 20
704.3573209512148
 30
0.0
 10
987.3328218929943
 20
704.3410469323865
 30
0.0
 10
989.5883482253652
 20
704.2766125403772
 30
0.0
 10
990.708684171421
 20
704.2284549630713
 30
0.0
 10
991.8219312391814
 20
704.1640137387783
 30
0.0
  0
SPLINE
  5
2DE
330
1F
100
AcDbEntity
  8
0
  6
Continuous
 62
     7
370
    35
100
AcDbSpline
210
0.0
220
0.0
230
1.0
 70
     8
 71
     3
 72
    10
 73
     6
 74
     0
 42
0.000000001
 43
0.00000001
 40
0.0
 40
0.0
 40
0.0
 40
0.0
 40
0.5
 40
0.5
 40
1.0
 40
1.0
 40
1.0
 40
1.0
 10
872.2874052954056
 20
704.1640137387783
 30
0.0
 10
873.400652363166
 20
704.2284549630713
 30
0.0
 10
874.5209883092218
 20
704.2766125403774
 30
0.0
 10
876.7765146415927
 20
704.3410469323865
 30
0.0
 10
877.9117081193361
 20
704.3573209512148
 30
0.0
 10
879.0546682672936
 20
704.3573209512148
 30
0.0
  0
SPLINE
  5
2DF
330
1F
100
AcDbEntity
  8
0
  6
Continuous
 62
     7
370
    35
100
AcDbSpline
210
0.0
220
0.0
230
1.0
 70
     8
 71
     3
 72
    10
 73
     6
 74
     0
 42
0.000000001
 43
0.00000001
 40
0.0
 40
0.0
 40
0.0
 40
0.0
 40
0.5
 40
0.5
 40
1.0
 40
1.0
 40
1.0
 40
1.0
 10
985.0546682672936
 20
702.1073209512148
 30
0.0
 10
986.0834080003823
 20
702.1073209512148
 30
0.0
 10
987.1050874766781
 20
702.0487274142058
 30
0.0
 10
989.1350130593249
 20
701.8167647401905
 30
0.0
 10
990.1432625760908
 20
701.6434080259028
 30
0.0
 10
991.1452049419925
 20
701.4114149864433
 30
0.0
  0
SPLINE
  5
2E0
330
1F
100
AcDbEntity
  8
0
  6
Continuous
 62
     7
370
    35
100
AcDbSpline
210
0.0
220
0.0
230
1.0
 70
     8
 71
     3
 72
    10
 73
     6
 74
     0
 42
0.000000001
 43
0.00000001
 40
0.0
 40
0.0
 40
0.0
 40
0.0
 40
0.5
 40
0.5
 40
1.0
 40
1.0
 40
1.0
 40
1.0
 10
872.9641315925945
 20
701.4114149864433
 30
0.0
 10
873.9660739584962
 20
701.6434080259028
 30
0.0
 10
874.9743234752622
 20
701.8167647401905
 30
0.0
 10
877.0042490579089
 20
702.0487274142058
 30
0.0
 10
878.0259285342047
 20
702.1073209512148
 30
0.0
 10
879.0546682672936
 20
702.1073209512148
 30
0.0
  0
SPLINE
  5
2E1
330
1F
100
AcDbEntity
  8
0
  6
Continuous
 62
     7
370
    35
100
AcDbSpline
210
0.0
220
0.0
230
1.0
 70
     8
 71
     3
 72
    10
 73
     6
 74
     0
 42
0.000000001
 43
0.00000001
 40
0.0
 40
0.0
 40
0.0
 40
0.0
 40
0.5
 40
0.5
 40
1.0
 40
1.0
 40
1.0
 40
1.0
 10
879.0546682672936
 20
645.8573209512148
 30
0.0
 10
877.9117081193361
 20
645.8573209512148
 30
0.0
 10
876.7765146415927
 20
645.8735949700432
 30
0.0
 10
874.5209883092217
 20
645.9380293620522
 30
0.0
 10
873.4006523631658
 20
645.9861869393584
 30
0.0
 10
872.2874052954055
 20
646.0506281636514
 30
0.0
  0
SPLINE
  5
2E2
330
1F
100
AcDbEntity
  8
0
  6
Continuous
 62
     7
370
    35
100
AcDbSpline
210
0.0
220
0.0
230
1.0
 70
     8
 71
     3
 72
    10
 73
     6
 74
     0
 42
0.000000001
 43
0.00000001
 40
0.0
 40
0.0
 40
0.0
 40
0.0
 40
0.5
 40
0.5
 40
1.0
 40
1.0
 40
1.0
 40
1.0
 10
879.0546682672936
 20
648.1073209512148
 30
0.0
 10
878.0259285342047
 20
648.1073209512148
 30
0.0
 10
877.0042490579089
 20
648.1659144882237
 30
0.0
 10
874.974323475262
 20
648.3978771622392
 30
0.0
 10
873.966073958496
 20
648.5712338765268
 30
0.0
 10
872.9641315925944
 20
648.8032269159863
 30
0.0
  0
SPLINE
  5
2E3
330
1F
100
AcDbEntity
  8
0
  6
Continuous
 62
     7
370
    35
100
AcDbSpline
210
0.0
220
0.0
230
1.0
 70
     8
 71
     3
 72
    10
 73
     6
 74
     0
 42
0.000000001
 43
0.00000001
 40
0.0
 40
0.0
 40
0.0
 40
0.0
 40
0.5
 40
0.5
 40
1.0
 40
1.0
 40
1.0
 40
1.0
 10
991.8219312391816
 20
646.0506281636514
 30
0.0
 10
990.7086841714212
 20
645.9861869393584
 30
0.0
 10
989.5883482253654
 20
645.9380293620522
 30
0.0
 10
987.3328218929943
 20
645.8735949700432
 30
0.0
 10
986.1976284152508
 20
645.8573209512148
 30
0.0
 10
985.0546682672936
 20
645.8573209512148
 30
0.0
  0
SPLINE
  5
2E4
330
1F
100
AcDbEntity
  8
0
  6
Continuous
 62
     7
370
    35
100
AcDbSpline
210
0.0
220
0.0
230
1.0
 70
     8
 71
     3
 72
    10
 73
     6
 74
     0
 42
0.000000001
 43
0.00000001
 40
0.0
 40
0.0
 40
0.0
 40
0.0
 40
0.5
 40
0.5
 40
1.0
 40
1.0
 40
1.0
 40
1.0
 10
991.1452049419926
 20
648.8032269159863
 30
0.0
 10
990.1432625760908
 20
648.5712338765269
 30
0.0
 10
989.135013059325
 20
648.3978771622392
 30
0.0
 10
987.1050874766781
 20
648.1659144882238
 30
0.0
 10
986.0834080003823
 20
648.1073209512148
 30
0.0
 10
985.0546682672936
 20
648.1073209512148
 30
0.0
  0
LINE
  5
2E5
330
1F
100
AcDbEntity
  8
0
  6
Continuous
 62
     7
370
    35
100
AcDbLine
 10
985.0546682673
 20
704.3573209512
 30
0.0
 11
879.0546682673
 21
704.3573209512
 31
0.0
  0
LINE
  5
2E6
330
1F
100
AcDbEntity
  8
0
  6
Continuous
 62
     7
370
    35
100
AcDbLine
 10
879.0546682673
 20
702.1073209512
 30
0.0
 11
985.0546682673
 21
702.1073209512
 31
0.0
  0
LINE
  5
2E7
330
1F
100
AcDbEntity
  8
0
  6
Continuous
 62
     7
370
    35
100
AcDbLine
 10
879.0546682673
 20
645.8573209512
 30
0.0
 11
985.0546682673
 21
645.8573209512
 31
0.0
  0
LINE
  5
2E8
330
1F
100
AcDbEntity
  8
0
  6
Continuous
 62
     7
370
    35
100
AcDbLine
 10
985.0546682673
 20
648.1073209512
 30
0.0
 11
879.0546682673
 21
648.1073209512
 31
0.0
  0
ARC
  5
2E9
330
1F
100
AcDbEntity
  8
0
  6
Continuous
 62
     7
370
    35
100
AcDbCircle
 10
985.0546682673
 20
675.1073209512
 30
0.0
 40
27.0000000000001
100
AcDbArc
 50
0.4331051188
 51
76.9632820449
  0
ARC
  5
2EA
330
1F
100
AcDbEntity
  8
0
  6
Continuous
 62
     7
370
    35
100
AcDbCircle
 10
879.0546682673
 20
675.1073209512
 30
0.0
 40
27.0000000000001
100
AcDbArc
 50
103.0367179551
 51
179.5668948812
  0
ARC
  5
2EB
330
1F
100
AcDbEntity
  8
0
  6
Continuous
 62
     7
370
    35
100
AcDbCircle
 10
879.0546682673
 20
675.1073209512
 30
0.0
 40
27.0000000000001
100
AcDbArc
 50
180.4331051188
 51
256.9632820449
  0
ARC
  5
2EC
330
1F
100
AcDbEntity
  8
0
  6
Continuous
 62
     7
370
    35
100
AcDbCircle
 10
985.0546682673
 20
675.1073209512
 30
0.0
 40
27.0000000000001
100
AcDbArc
 50
283.0367179551
 51
359.5668948812
  0
LINE
  5
2ED
330
1F
100
AcDbEntity
  8
0
  6
Continuous
 62
     7
370
    35
100
AcDbLine
 10
975.0546682673
 20
680.0404954538
 30
0.0
 11
975.4742693518
 21
682.9068444591
 31
0.0
  0
SPLINE
  5
2EE
330
1F
100
AcDbEntity
  8
0
  6
Continuous
 62
     7
370
    35
100
AcDbSpline
210
0.0
220
0.0
230
1.0
 70
     8
 71
     3
 72
    11
 73
     7
 74
     0
 42
0.000000001
 43
0.00000001
 40
0.0
 40
0.0
 40
0.0
 40
0.0
 40
0.2606216717114497
 40
0.463200448083142
 40
0.6713667795621365
 40
1.0
 40
1.0
 40
1.0
 40
1.0
 10
975.4742693517958
 20
682.9068444590963
 30
0.0
 10
975.8411507224571
 20
683.9085626389067
 30
0.0
 10
976.4932055349666
 20
685.688906946785
 30
0.0
 10
978.0305703967894
 20
687.9439065688478
 30
0.0
 10
980.0453361812799
 20
690.1585407491939
 30
0.0
 10
981.8906642671094
 20
691.279002847164
 30
0.0
 10
983.0203897101449
 20
691.9649592089373
 30
0.0
  0
SPLINE
  5
2EF
330
1F
100
AcDbEntity
  8
0
  6
Continuous
 62
     7
370
    35
100
AcDbSpline
210
0.0
220
0.0
230
1.0
 70
     8
 71
     3
 72
    16
 73
    12
 74
     0
 42
0.000000001
 43
0.00000001
 40
0.0
 40
0.0
 40
0.0
 40
0.0
 40
0.6093642604474571
 40
0.7233750503865248
 40
0.8172213162014312
 40
0.8496365726793007
 40
0.882361234165307
 40
0.9067814804498371
 40
0.9311421346350484
 40
0.9706402276062257
 40
1.0
 40
1.0
 40
1.0
 40
1.0
 10
983.0203897101449
 20
691.9649592089373
 30
0.0
 10
983.5972239797338
 20
692.2626142848868
 30
0.0
 10
984.2819827454059
 20
692.615960008518
 30
0.0
 10
984.9492257165974
 20
693.1416983321755
 30
0.0
 10
985.1194791145813
 20
693.3268513422329
 30
0.0
 10
985.1877525752612
 20
693.4755076424062
 30
0.0
 10
985.199391716257
 20
693.5691083077884
 30
0.0
 10
985.1748662680454
 20
693.6530709927974
 30
0.0
 10
985.1186035604036
 20
693.7312099799705
 30
0.0
 10
985.0355313977393
 20
693.7934071758078
 30
0.0
 10
984.9671105292925
 20
693.8252971050377
 30
0.0
 10
984.9379370846334
 20
693.8388944051993
 30
0.0
  0
SPLINE
  5
2F0
330
1F
100
AcDbEntity
  8
0
  6
Continuous
 62
     7
370
    35
100
AcDbSpline
210
0.0
220
0.0
230
1.0
 70
     8
 71
     3
 72
    13
 73
     9
 74
     0
 42
0.000000001
 43
0.00000001
 40
0.0
 40
0.0
 40
0.0
 40
0.0
 40
0.1585077763891388
 40
0.316838082363181
 40
0.4791716695216224
 40
0.6493085002786922
 40
0.823595348237168
 40
1.0
 40
1.0
 40
1.0
 40
1.0
 10
997.5822805044522
 20
679.4284736116942
 30
0.0
 10
997.2897053506932
 20
680.4387990634991
 30
0.0
 10
996.704882619747
 20
682.4583187741706
 30
0.0
 10
995.2088560680608
 20
685.2789215257308
 30
0.0
 10
993.2821773983555
 20
687.9089723337154
 30
0.0
 10
990.8831030005766
 20
690.2719049299636
 30
0.0
 10
988.0907767278426
 20
692.3277972750406
 30
0.0
 10
985.9931061989561
 20
693.333171564547
 30
0.0
 10
984.9379370846334
 20
693.8388944051993
 30
0.0
  0
SPLINE
  5
2F1
330
1F
100
AcDbEntity
  8
0
  6
Continuous
 62
     7
370
    35
100
AcDbSpline
210
0.0
220
0.0
230
1.0
 70
     8
 71
     3
 72
     9
 73
     5
 74
     0
 42
0.000000001
 43
0.00000001
 40
0.0
 40
0.0
 40
0.0
 40
0.0
 40
0.4781757401206178
 40
0.9999999999999999
 40
0.9999999999999999
 40
0.9999999999999999
 40
0.9999999999999999
 10
997.5822805044522
 20
679.4284736116942
 30
0.0
 10
997.8290068961177
 20
678.0522275418243
 30
0.0
 10
998.3449811937752
 20
675.1741098240103
 30
0.0
 10
997.8438059204993
 20
672.2907666884352
 30
0.0
 10
997.5822805044522
 20
670.7861682907354
 30
0.0
  0
SPLINE
  5
2F2
330
1F
100
AcDbEntity
  8
0
  6
Continuous
 62
     7
370
    35
100
AcDbSpline
210
0.0
220
0.0
230
1.0
 70
     8
 71
     3
 72
    13
 73
     9
 74
     0
 42
0.000000001
 43
0.00000001
 40
0.0
 40
0.0
 40
0.0
 40
0.0
 40
0.1585077763891389
 40
0.3168380823631814
 40
0.4791716695216221
 40
0.6493085002786919
 40
0.8235953482371678
 40
1.0
 40
1.0
 40
1.0
 40
1.0
 10
997.5822805044522
 20
670.7861682907354
 30
0.0
 10
997.2897053506932
 20
669.7758428389304
 30
0.0
 10
996.704882619747
 20
667.7563231282589
 30
0.0
 10
995.2088560680608
 20
664.9357203766988
 30
0.0
 10
993.2821773983557
 20
662.3056695687142
 30
0.0
 10
990.8831030005766
 20
659.942736972466
 30
0.0
 10
988.0907767278426
 20
657.8868446273892
 30
0.0
 10
985.9931061989561
 20
656.8814703378827
 30
0.0
 10
984.9379370846334
 20
656.3757474972302
 30
0.0
  0
SPLINE
  5
2F3
330
1F
100
AcDbEntity
  8
0
  6
Continuous
 62
     7
370
    35
100
AcDbSpline
210
0.0
220
0.0
230
1.0
 70
     8
 71
     3
 72
    16
 73
    12
 74
     0
 42
0.000000001
 43
0.00000001
 40
0.0
 40
0.0
 40
0.0
 40
0.0
 40
0.6093642604474552
 40
0.7233750503865206
 40
0.8172213162014315
 40
0.8496365726793009
 40
0.8823612341653071
 40
0.9067814804498372
 40
0.9311421346350484
 40
0.9706402276062257
 40
0.9999999999999999
 40
0.9999999999999999
 40
0.9999999999999999
 40
0.9999999999999999
 10
983.0203897101449
 20
658.2496826934922
 30
0.0
 10
983.5972239797338
 20
657.9520276175426
 30
0.0
 10
984.2819827454059
 20
657.5986818939116
 30
0.0
 10
984.9492257165977
 20
657.0729435702541
 30
0.0
 10
985.1194791145813
 20
656.8877905601967
 30
0.0
 10
985.1877525752612
 20
656.7391342600234
 30
0.0
 10
985.199391716257
 20
656.6455335946413
 30
0.0
 10
985.1748662680454
 20
656.5615709096323
 30
0.0
 10
985.1186035604036
 20
656.4834319224591
 30
0.0
 10
985.0355313977393
 20
656.4212347266218
 30
0.0
 10
984.9671105292925
 20
656.3893447973918
 30
0.0
 10
984.9379370846334
 20
656.3757474972302
 30
0.0
  0
SPLINE
  5
2F4
330
1F
100
AcDbEntity
  8
0
  6
Continuous
 62
     7
370
    35
100
AcDbSpline
210
0.0
220
0.0
230
1.0
 70
     8
 71
     3
 72
    11
 73
     7
 74
     0
 42
0.000000001
 43
0.00000001
 40
0.0
 40
0.0
 40
0.0
 40
0.0
 40
0.2606216717114546
 40
0.4632004480831451
 40
0.6713667795621383
 40
1.0
 40
1.0
 40
1.0
 40
1.0
 10
975.4742693517958
 20
667.3077974433334
 30
0.0
 10
975.8411507224571
 20
666.306079263523
 30
0.0
 10
976.4932055349665
 20
664.5257349556447
 30
0.0
 10
978.0305703967892
 20
662.2707353335818
 30
0.0
 10
980.0453361812802
 20
660.0561011532357
 30
0.0
 10
981.8906642671094
 20
658.9356390552656
 30
0.0
 10
983.0203897101449
 20
658.2496826934922
 30
0.0
  0
LINE
  5
2F5
330
1F
100
AcDbEntity
  8
0
  6
Continuous
 62
     7
370
    35
100
AcDbLine
 10
975.0546682673
 20
670.1741464486
 30
0.0
 11
975.4742693518
 21
667.3077974433
 31
0.0
  0
LINE
  5
2F6
330
1F
100
AcDbEntity
  8
0
  6
Continuous
 62
     7
370
    35
100
AcDbLine
 10
975.0546682673
 20
680.0404954538
 30
0.0
 11
975.0546682673
 21
670.1741464486
 31
0.0
  0
LINE
  5
2F7
330
1F
100
AcDbEntity
  8
0
  6
Continuous
 62
     7
370
    35
100
AcDbLine
 10
889.0546682673
 20
670.1741464486
 30
0.0
 11
888.6350671828
 21
667.3077974433
 31
0.0
  0
SPLINE
  5
2F8
330
1F
100
AcDbEntity
  8
0
  6
Continuous
 62
     7
370
    35
100
AcDbSpline
210
0.0
220
0.0
230
1.0
 70
     8
 71
     3
 72
    11
 73
     7
 74
     0
 42
0.000000001
 43
0.00000001
 40
0.0
 40
0.0
 40
0.0
 40
0.0
 40
0.2606216717114519
 40
0.4632004480831438
 40
0.6713667795621374
 40
1.0
 40
1.0
 40
1.0
 40
1.0
 10
888.635067182792
 20
667.3077974433332
 30
0.0
 10
888.2681858121307
 20
666.3060792635229
 30
0.0
 10
887.6161309996213
 20
664.5257349556447
 30
0.0
 10
886.0787661377983
 20
662.2707353335818
 30
0.0
 10
884.0640003533076
 20
660.0561011532357
 30
0.0
 10
882.2186722674784
 20
658.9356390552656
 30
0.0
 10
881.0889468244429
 20
658.2496826934922
 30
0.0
  0
SPLINE
  5
2F9
330
1F
100
AcDbEntity
  8
0
  6
Continuous
 62
     7
370
    35
100
AcDbSpline
210
0.0
220
0.0
230
1.0
 70
     8
 71
     3
 72
    16
 73
    12
 74
     0
 42
0.000000001
 43
0.00000001
 40
0.0
 40
0.0
 40
0.0
 40
0.0
 40
0.6093642604474535
 40
0.723375050386521
 40
0.8172213162014317
 40
0.849636572679301
 40
0.8823612341653072
 40
0.9067814804498373
 40
0.9311421346350485
 40
0.9706402276062257
 40
0.9999999999999999
 40
0.9999999999999999
 40
0.9999999999999999
 40
0.9999999999999999
 10
881.0889468244429
 20
658.2496826934922
 30
0.0
 10
880.5121125548538
 20
657.9520276175429
 30
0.0
 10
879.8273537891818
 20
657.5986818939116
 30
0.0
 10
879.1601108179901
 20
657.0729435702541
 30
0.0
 10
878.9898574200064
 20
656.8877905601968
 30
0.0
 10
878.9215839593264
 20
656.7391342600234
 30
0.0
 10
878.9099448183307
 20
656.6455335946413
 30
0.0
 10
878.9344702665423
 20
656.5615709096323
 30
0.0
 10
878.9907329741842
 20
656.4834319224591
 30
0.0
 10
879.0738051368484
 20
656.4212347266218
 30
0.0
 10
879.142226005295
 20
656.3893447973918
 30
0.0
 10
879.1713994499544
 20
656.3757474972302
 30
0.0
  0
SPLINE
  5
2FA
330
1F
100
AcDbEntity
  8
0
  6
Continuous
 62
     7
370
    35
100
AcDbSpline
210
0.0
220
0.0
230
1.0
 70
     8
 71
     3
 72
    13
 73
     9
 74
     0
 42
0.000000001
 43
0.00000001
 40
0.0
 40
0.0
 40
0.0
 40
0.0
 40
0.1585077763891355
 40
0.3168380823631743
 40
0.4791716695216334
 40
0.6493085002786997
 40
0.8235953482371716
 40
1.0
 40
1.0
 40
1.0
 40
1.0
 10
866.5270560301349
 20
670.7861682907354
 30
0.0
 10
866.8196311838939
 20
669.7758428389304
 30
0.0
 10
867.4044539148401
 20
667.7563231282589
 30
0.0
 10
868.9004804665261
 20
664.9357203766987
 30
0.0
 10
870.8271591362322
 20
662.3056695687145
 30
0.0
 10
873.226233534011
 20
659.9427369724658
 30
0.0
 10
876.0185598067452
 20
657.8868446273892
 30
0.0
 10
878.1162303356317
 20
656.8814703378827
 30
0.0
 10
879.1713994499544
 20
656.3757474972302
 30
0.0
  0
SPLINE
  5
2FB
330
1F
100
AcDbEntity
  8
0
  6
Continuous
 62
     7
370
    35
100
AcDbSpline
210
0.0
220
0.0
230
1.0
 70
     8
 71
     3
 72
     9
 73
     5
 74
     0
 42
0.000000001
 43
0.00000001
 40
0.0
 40
0.0
 40
0.0
 40
0.0
 40
0.4781757401206179
 40
0.9999999999999999
 40
0.9999999999999999
 40
0.9999999999999999
 40
0.9999999999999999
 10
866.5270560301349
 20
679.4284736116942
 30
0.0
 10
866.2803296384693
 20
678.0522275418243
 30
0.0
 10
865.7643553408119
 20
675.1741098240103
 30
0.0
 10
866.2655306140878
 20
672.2907666884352
 30
0.0
 10
866.5270560301349
 20
670.7861682907354
 30
0.0
  0
SPLINE
  5
2FC
330
1F
100
AcDbEntity
  8
0
  6
Continuous
 62
     7
370
    35
100
AcDbSpline
210
0.0
220
0.0
230
1.0
 70
     8
 71
     3
 72
    13
 73
     9
 74
     0
 42
0.000000001
 43
0.00000001
 40
0.0
 40
0.0
 40
0.0
 40
0.0
 40
0.1585077763891355
 40
0.3168380823631746
 40
0.479171669521633
 40
0.6493085002786992
 40
0.8235953482371716
 40
1.0
 40
1.0
 40
1.0
 40
1.0
 10
866.5270560301349
 20
679.4284736116942
 30
0.0
 10
866.8196311838939
 20
680.4387990634991
 30
0.0
 10
867.4044539148401
 20
682.4583187741706
 30
0.0
 10
868.9004804665262
 20
685.278921525731
 30
0.0
 10
870.8271591362322
 20
687.908972333715
 30
0.0
 10
873.226233534011
 20
690.2719049299636
 30
0.0
 10
876.0185598067452
 20
692.3277972750406
 30
0.0
 10
878.1162303356317
 20
693.333171564547
 30
0.0
 10
879.1713994499544
 20
693.8388944051993
 30
0.0
  0
SPLINE
  5
2FD
330
1F
100
AcDbEntity
  8
0
  6
Continuous
 62
     7
370
    35
100
AcDbSpline
210
0.0
220
0.0
230
1.0
 70
     8
 71
     3
 72
    16
 73
    12
 74
     0
 42
0.000000001
 43
0.00000001
 40
0.0
 40
0.0
 40
0.0
 40
0.0
 40
0.6093642604474555
 40
0.7233750503865252
 40
0.8172213162014316
 40
0.8496365726793009
 40
0.8823612341653071
 40
0.9067814804498373
 40
0.9311421346350485
 40
0.9706402276062258
 40
1.0
 40
1.0
 40
1.0
 40
1.0
 10
881.0889468244429
 20
691.9649592089373
 30
0.0
 10
880.5121125548538
 20
692.2626142848868
 30
0.0
 10
879.8273537891818
 20
692.615960008518
 30
0.0
 10
879.1601108179902
 20
693.1416983321755
 30
0.0
 10
878.9898574200064
 20
693.3268513422329
 30
0.0
 10
878.9215839593264
 20
693.4755076424062
 30
0.0
 10
878.9099448183307
 20
693.5691083077884
 30
0.0
 10
878.9344702665423
 20
693.6530709927974
 30
0.0
 10
878.9907329741842
 20
693.7312099799705
 30
0.0
 10
879.0738051368484
 20
693.7934071758078
 30
0.0
 10
879.142226005295
 20
693.8252971050377
 30
0.0
 10
879.1713994499544
 20
693.8388944051993
 30
0.0
  0
SPLINE
  5
2FE
330
1F
100
AcDbEntity
  8
0
  6
Continuous
 62
     7
370
    35
100
AcDbSpline
210
0.0
220
0.0
230
1.0
 70
     8
 71
     3
 72
    11
 73
     7
 74
     0
 42
0.000000001
 43
0.00000001
 40
0.0
 40
0.0
 40
0.0
 40
0.0
 40
0.2606216717114517
 40
0.4632004480831434
 40
0.6713667795621371
 40
0.9999999999999999
 40
0.9999999999999999
 40
0.9999999999999999
 40
0.9999999999999999
 10
888.635067182792
 20
682.9068444590963
 30
0.0
 10
888.2681858121307
 20
683.9085626389067
 30
0.0
 10
887.6161309996211
 20
685.688906946785
 30
0.0
 10
886.0787661377983
 20
687.9439065688478
 30
0.0
 10
884.0640003533076
 20
690.1585407491939
 30
0.0
 10
882.2186722674784
 20
691.279002847164
 30
0.0
 10
881.0889468244429
 20
691.9649592089373
 30
0.0
  0
LINE
  5
2FF
330
1F
100
AcDbEntity
  8
0
  6
Continuous
 62
     7
370
    35
100
AcDbLine
 10
889.0546682673
 20
680.0404954538
 30
0.0
 11
888.6350671828
 21
682.9068444591
 31
0.0
  0
LINE
  5
300
330
1F
100
AcDbEntity
  8
0
  6
Continuous
 62
     7
370
    35
100
AcDbLine
 10
889.0546682673
 20
680.0404954538
 30
0.0
 11
889.0546682673
 21
670.1741464486
 31
0.0
  0
SPLINE
  5
301
330
1F
100
AcDbEntity
  8
0
  6
Continuous
 62
     7
370
    35
100
AcDbSpline
210
0.0
220
0.0
230
1.0
 70
     8
 71
     3
 72
    17
 73
    13
 74
     0
 42
0.000000001
 43
0.00000001
 40
0.0
 40
0.0
 40
0.0
 40
0.0
 40
0.0352140993686977
 40
0.1768685086523014
 40
0.2823152604671503
 40
0.3877837521866228
 40
0.4930422793344957
 40
0.5965412136257945
 40
0.7000040808468557
 40
0.8049238598612708
 40
0.9098460499592931
 40
1.0
 40
1.0
 40
1.0
 40
1.0
 10
985.0605727382629
 20
696.8445933468927
 30
0.0
 10
985.4607427029916
 20
696.837159467551
 30
0.0
 10
987.4706610634745
 20
696.7998216064035
 30
0.0
 10
990.665742133105
 20
696.244382606326
 30
0.0
 10
994.4294087717396
 20
694.8258877460602
 30
0.0
 10
997.5483879848645
 20
693.0075740044175
 30
0.0
 10
1000.31829201182
 20
690.7274567264118
 30
0.0
 10
1002.649573605116
 20
688.031118513206
 30
0.0
 10
1004.519378735338
 20
685.0004346457764
 30
0.0
 10
1005.867874520307
 20
681.6910000769955
 30
0.0
 10
1006.663373966231
 20
678.3519987774345
 30
0.0
 10
1006.752111400671
 20
676.1328807806816
 30
0.0
 10
1006.793121183956
 20
675.1073209512149
 30
0.0
  0
SPLINE
  5
302
330
1F
100
AcDbEntity
  8
0
  6
Continuous
 62
     7
370
    35
100
AcDbSpline
210
0.0
220
0.0
230
1.0
 70
     8
 71
     3
 72
    17
 73
    13
 74
     0
 42
0.000000001
 43
0.00000001
 40
0.0
 40
0.0
 40
0.0
 40
0.0
 40
0.035214099368697
 40
0.1768685086522981
 40
0.2823152604671548
 40
0.3877837521866346
 40
0.4930422793345054
 40
0.5965412136258023
 40
0.7000040808468615
 40
0.8049238598612746
 40
0.9098460499592947
 40
1.0
 40
1.0
 40
1.0
 40
1.0
 10
879.0487637963248
 20
696.8445933468927
 30
0.0
 10
878.648593831596
 20
696.837159467551
 30
0.0
 10
876.6386754711132
 20
696.7998216064035
 30
0.0
 10
873.4435944014826
 20
696.2443826063259
 30
0.0
 10
869.6799277628477
 20
694.8258877460602
 30
0.0
 10
866.5609485497226
 20
693.0075740044176
 30
0.0
 10
863.7910445227668
 20
690.7274567264118
 30
0.0
 10
861.4597629294711
 20
688.031118513206
 30
0.0
 10
859.589957799249
 20
685.0004346457764
 30
0.0
 10
858.2414620142799
 20
681.6910000769955
 30
0.0
 10
857.4459625683563
 20
678.3519987774345
 30
0.0
 10
857.3572251339162
 20
676.1328807806816
 30
0.0
 10
857.3162153506308
 20
675.1073209512149
 30
0.0
  0
SPLINE
  5
303
330
1F
100
AcDbEntity
  8
0
  6
Continuous
 62
     7
370
    35
100
AcDbSpline
210
0.0
220
0.0
230
1.0
 70
     8
 71
     3
 72
    17
 73
    13
 74
     0
 42
0.000000001
 43
0.00000001
 40
0.0
 40
0.0
 40
0.0
 40
0.0
 40
0.035212730180031
 40
0.1768616316808075
 40
0.2808325704307755
 40
0.3877934996385855
 40
0.4930479341421758
 40
0.5965428442053845
 40
0.7000016886007094
 40
0.8034759650084174
 40
0.9098495553099583
 40
1.0
 40
1.0
 40
1.0
 40
1.0
 10
985.0605727382629
 20
653.370048555537
 30
0.0
 10
985.4607540803448
 20
653.3774525627359
 30
0.0
 10
987.4707295854232
 20
653.414640386216
 30
0.0
 10
990.6478775082238
 20
653.9705353157165
 30
0.0
 10
994.4175087749426
 20
655.3733902945727
 30
0.0
 10
997.5341808496898
 20
657.1982616016511
 30
0.0
 10
1000.318472353999
 20
659.4866840647534
 30
0.0
 10
1002.649835553583
 20
662.183527772786
 30
0.0
 10
1004.509508623673
 20
665.2006801539848
 30
0.0
 10
1005.867664629784
 20
668.5060015275538
 30
0.0
 10
1006.661584775351
 20
671.8463930601755
 30
0.0
 10
1006.75175696576
 20
674.0818578552119
 30
0.0
 10
1006.793121183956
 20
675.1073209512149
 30
0.0
  0
SPLINE
  5
304
330
1F
100
AcDbEntity
  8
0
  6
Continuous
 62
     7
370
    35
100
AcDbSpline
210
0.0
220
0.0
230
1.0
 70
     8
 71
     3
 72
    17
 73
    13
 74
     0
 42
0.000000001
 43
0.00000001
 40
0.0
 40
0.0
 40
0.0
 40
0.0
 40
0.0352127301800304
 40
0.1768616316808044
 40
0.2808325704307703
 40
0.3877934996385963
 40
0.4930479341421849
 40
0.5965428442053918
 40
0.7000016886007148
 40
0.8034759650084208
 40
0.9098495553099599
 40
1.0
 40
1.0
 40
1.0
 40
1.0
 10
879.0487637963247
 20
653.370048555537
 30
0.0
 10
878.648582454243
 20
653.3774525627359
 30
0.0
 10
876.6386069491646
 20
653.414640386216
 30
0.0
 10
873.461459026364
 20
653.9705353157165
 30
0.0
 10
869.6918277596451
 20
655.3733902945728
 30
0.0
 10
866.5751556848974
 20
657.1982616016509
 30
0.0
 10
863.7908641805877
 20
659.4866840647534
 30
0.0
 10
861.4595009810038
 20
662.183527772786
 30
0.0
 10
859.5998279109143
 20
665.2006801539848
 30
0.0
 10
858.2416719048032
 20
668.506001527554
 30
0.0
 10
857.4477517592362
 20
671.8463930601755
 30
0.0
 10
857.3575795688265
 20
674.0818578552119
 30
0.0
 10
857.3162153506308
 20
675.1073209512149
 30
0.0
  0
LINE
  5
305
330
1F
100
AcDbEntity
  8
0
  6
Continuous
 62
     7
370
    35
100
AcDbLine
 10
932.0546682673
 20
696.8485934187
 30
0.0
 11
985.0605727383
 21
696.8445933469
 31
0.0
  0
LINE
  5
306
330
1F
100
AcDbEntity
  8
0
  6
Continuous
 62
     7
370
    35
100
AcDbLine
 10
932.0546682673
 20
696.8485934187
 30
0.0
 11
879.0487637963
 21
696.8445933469
 31
0.0
  0
LINE
  5
307
330
1F
100
AcDbEntity
  8
0
  6
Continuous
 62
     7
370
    35
100
AcDbLine
 10
932.0546682673
 20
653.3660484837
 30
0.0
 11
985.0605727383
 21
653.3700485555
 31
0.0
  0
LINE
  5
308
330
1F
100
AcDbEntity
  8
0
  6
Continuous
 62
     7
370
    35
100
AcDbLine
 10
932.0546682673
 20
653.3660484837
 30
0.0
 11
879.0487637963
 21
653.3700485555
 31
0.0
  0
LINE
  5
309
330
1F
100
AcDbEntity
  8
0
  6
Continuous
 62
     7
370
    35
100
AcDbLine
 10
975.2108394575
 20
669.1073209512
 30
0.0
 11
888.8984970771
 21
669.1073209512
 31
0.0
  0
LINE
  5
30A
330
1F
100
AcDbEntity
  8
0
  6
Continuous
 62
     7
370
    35
100
AcDbLine
 10
975.2108394575
 20
681.1073209512
 30
0.0
 11
888.8984970771
 21
681.1073209512
 31
0.0
  0
ARC
  5
30B
330
1F
100
AcDbEntity
  8
0
  6
Continuous
 62
     7
370
    35
100
AcDbCircle
 10
985.0546682673
 20
675.1073209512
 30
0.0
 40
21.75000000000011
100
AcDbArc
 50
270.0
 51
90.0
  0
LINE
  5
30C
330
1F
100
AcDbEntity
  8
0
  6
Continuous
 62
     7
370
    35
100
AcDbLine
 10
879.0546682673
 20
696.8573209512
 30
0.0
 11
985.0546682673
 21
696.8573209512
 31
0.0
  0
ARC
  5
30D
330
1F
100
AcDbEntity
  8
0
  6
Continuous
 62
     7
370
    35
100
AcDbCircle
 10
879.0546682673
 20
675.1073209512
 30
0.0
 40
21.75000000000011
100
AcDbArc
 50
90.0
 51
270.0
  0
LINE
  5
30E
330
1F
100
AcDbEntity
  8
0
  6
Continuous
 62
     7
370
    35
100
AcDbLine
 10
879.0546682673
 20
653.3573209512
 30
0.0
 11
985.0546682673
 21
653.3573209512
 31
0.0
  0
LINE
  5
30F
330
1F
100
AcDbEntity
  8
0
  6
Continuous
 62
     7
370
    35
100
AcDbLine
 10
1524.0546682673
 20
640.1073209512
 30
0.0
 11
1523.0546682673
 21
640.1073209512
 31
0.0
  0
LINE
  5
310
330
1F
100
AcDbEntity
  8
0
  6
Continuous
 62
     7
370
    35
100
AcDbLine
 10
1523.0546682673
 20
724.6073209512
 30
0.0
 11
1524.0546682673
 21
724.6073209512
 31
0.0
  0
LINE
  5
311
330
1F
100
AcDbEntity
  8
0
  6
Continuous
 62
     7
370
    35
100
AcDbLine
 10
1524.0546682673
 20
724.6073209512
 30
0.0
 11
1524.0546682673
 21
640.1073209512
 31
0.0
  0
LINE
  5
312
330
1F
100
AcDbEntity
  8
0
  6
Continuous
 62
     7
370
    35
100
AcDbLine
 10
1523.0546682673
 20
640.1073209512
 30
0.0
 11
1522.0546682673
 21
640.1073209512
 31
0.0
  0
LINE
  5
313
330
1F
100
AcDbEntity
  8
0
  6
Continuous
 62
     7
370
    35
100
AcDbLine
 10
1522.0546682673
 20
640.1073209512
 30
0.0
 11
1522.0546682673
 21
640.1931073888
 31
0.0
  0
LINE
  5
314
330
1F
100
AcDbEntity
  8
0
  6
Continuous
 62
     7
370
    35
100
AcDbLine
 10
1522.0546682673
 20
643.0215345136
 30
0.0
 11
1522.0546682673
 21
707.3752701436
 31
0.0
  0
LINE
  5
315
330
1F
100
AcDbEntity
  8
0
  6
Continuous
 62
     7
370
    35
100
AcDbLine
 10
1522.0546682673
 20
724.6073209512
 30
0.0
 11
1523.0546682673
 21
724.6073209512
 31
0.0
  0
LINE
  5
316
330
1F
100
AcDbEntity
  8
0
  6
Continuous
 62
     7
370
    35
100
AcDbLine
 10
342.0546682673
 20
640.1073209512
 30
0.0
 11
341.0546682673
 21
640.1073209512
 31
0.0
  0
LINE
  5
317
330
1F
100
AcDbEntity
  8
0
  6
Continuous
 62
     7
370
    35
100
AcDbLine
 10
341.0546682673
 20
724.6073209512
 30
0.0
 11
342.0546682673
 21
724.6073209512
 31
0.0
  0
LINE
  5
318
330
1F
100
AcDbEntity
  8
0
  6
Continuous
 62
     7
370
    35
100
AcDbLine
 10
342.0546682673
 20
707.3752701436
 30
0.0
 11
342.0546682673
 21
643.0215345136
 31
0.0
  0
LINE
  5
319
330
1F
100
AcDbEntity
  8
0
  6
Continuous
 62
     7
370
    35
100
AcDbLine
 10
342.0546682673
 20
640.1931073888
 30
0.0
 11
342.0546682673
 21
640.1073209512
 31
0.0
  0
LINE
  5
31A
330
1F
100
AcDbEntity
  8
0
  6
Continuous
 62
     7
370
    35
100
AcDbLine
 10
341.0546682673
 20
640.1073209512
 30
0.0
 11
340.0546682673
 21
640.1073209512
 31
0.0
  0
LINE
  5
31B
330
1F
100
AcDbEntity
  8
0
  6
Continuous
 62
     7
370
    35
100
AcDbLine
 10
340.0546682673
 20
640.1073209512
 30
0.0
 11
340.0546682673
 21
724.6073209512
 31
0.0
  0
LINE
  5
31C
330
1F
100
AcDbEntity
  8
0
  6
Continuous
 62
     7
370
    35
100
AcDbLine
 10
340.0546682673
 20
724.6073209512
 30
0.0
 11
341.0546682673
 21
724.6073209512
 31
0.0
  0
LINE
  5
31D
330
1F
100
AcDbEntity
  8
0
  6
Continuous
 62
     7
370
    35
100
AcDbLine
 10
342.0546682673
 20
725.6323209512
 30
0.0
 11
342.0546682673
 21
724.6323209512
 31
0.0
  0
LINE
  5
31E
330
1F
100
AcDbEntity
  8
0
  6
Continuous
 62
     7
370
    35
100
AcDbLine
 10
342.0546682673
 20
725.6323209512
 30
0.0
 11
319.5546682673
 21
725.6323209512
 31
0.0
  0
LINE
  5
31F
330
1F
100
AcDbEntity
  8
0
  6
Continuous
 62
     7
370
    35
100
AcDbLine
 10
342.0546682673
 20
724.6323209512
 30
0.0
 11
319.5546682673
 21
724.6323209512
 31
0.0
  0
LINE
  5
320
330
1F
100
AcDbEntity
  8
0
  6
Continuous
 62
     7
370
    35
100
AcDbLine
 10
309.5546682673
 20
724.6323209512
 30
0.0
 11
309.5546682673
 21
725.6323209512
 31
0.0
  0
LINE
  5
321
330
1F
100
AcDbEntity
  8
0
  6
Continuous
 62
     7
370
    35
100
AcDbLine
 10
309.5546682673
 20
725.6323209512
 30
0.0
 11
319.5546682673
 21
725.6323209512
 31
0.0
  0
LINE
  5
322
330
1F
100
AcDbEntity
  8
0
  6
Continuous
 62
     7
370
    35
100
AcDbLine
 10
319.5546682673
 20
724.6323209512
 30
0.0
 11
309.5546682673
 21
724.6323209512
 31
0.0
  0
LINE
  5
323
330
1F
100
AcDbEntity
  8
0
  6
Continuous
 62
     7
370
    35
100
AcDbLine
 10
309.5546682673
 20
724.6323209512
 30
0.0
 11
309.5546682673
 21
723.6323209512
 31
0.0
  0
LINE
  5
324
330
1F
100
AcDbEntity
  8
0
  6
Continuous
 62
     7
370
    35
100
AcDbLine
 10
342.0546682673
 20
639.1073209512
 30
0.0
 11
342.0546682673
 21
609.6323209512
 31
0.0
  0
LINE
  5
325
330
1F
100
AcDbEntity
  8
0
  6
Continuous
 62
     7
370
    35
100
AcDbLine
 10
342.0546682673
 20
609.6323209512
 30
0.0
 11
319.5546682673
 21
609.6323209512
 31
0.0
  0
ARC
  5
326
330
1F
100
AcDbEntity
  8
0
  6
Continuous
 62
     7
370
    35
100
AcDbCircle
 10
319.5546682673
 20
619.6323209512
 30
0.0
 40
10.0
100
AcDbArc
 50
180.0
 51
270.0
  0
LINE
  5
327
330
1F
100
AcDbEntity
  8
0
  6
Continuous
 62
     7
370
    35
100
AcDbLine
 10
309.5546682673
 20
619.6323209512
 30
0.0
 11
309.5546682673
 21
723.6323209512
 31
0.0
  0
LINE
  5
328
330
1F
100
AcDbEntity
  8
0
  6
Continuous
 62
     7
370
    35
100
AcDbLine
 10
1522.0546682673
 20
725.6323209512
 30
0.0
 11
1522.0546682673
 21
724.6323209512
 31
0.0
  0
LINE
  5
329
330
1F
100
AcDbEntity
  8
0
  6
Continuous
 62
     7
370
    35
100
AcDbLine
 10
1522.0546682673
 20
725.6323209512
 30
0.0
 11
1544.5546682673
 21
725.6323209512
 31
0.0
  0
LINE
  5
32A
330
1F
100
AcDbEntity
  8
0
  6
Continuous
 62
     7
370
    35
100
AcDbLine
 10
1522.0546682673
 20
724.6323209512
 30
0.0
 11
1544.5546682673
 21
724.6323209512
 31
0.0
  0
LINE
  5
32B
330
1F
100
AcDbEntity
  8
0
  6
Continuous
 62
     7
370
    35
100
AcDbLine
 10
1554.5546682673
 20
725.6323209512
 30
0.0
 11
1554.5546682673
 21
724.6323209512
 31
0.0
  0
LINE
  5
32C
330
1F
100
AcDbEntity
  8
0
  6
Continuous
 62
     7
370
    35
100
AcDbLine
 10
1544.5546682673
 20
725.6323209512
 30
0.0
 11
1554.5546682673
 21
725.6323209512
 31
0.0
  0
LINE
  5
32D
330
1F
100
AcDbEntity
  8
0
  6
Continuous
 62
     7
370
    35
100
AcDbLine
 10
1554.5546682673
 20
724.6323209512
 30
0.0
 11
1544.5546682673
 21
724.6323209512
 31
0.0
  0
LINE
  5
32E
330
1F
100
AcDbEntity
  8
0
  6
Continuous
 62
     7
370
    35
100
AcDbLine
 10
1554.5546682673
 20
723.6323209512
 30
0.0
 11
1554.5546682673
 21
724.6323209512
 31
0.0
  0
ARC
  5
32F
330
1F
100
AcDbEntity
  8
0
  6
Continuous
 62
     7
370
    35
100
AcDbCircle
 10
1544.5546682673
 20
619.6323209512
 30
0.0
 40
10.0
100
AcDbArc
 50
270.0
 51
0.0
  0
LINE
  5
330
330
1F
100
AcDbEntity
  8
0
  6
Continuous
 62
     7
370
    35
100
AcDbLine
 10
1522.0546682673
 20
609.6323209512
 30
0.0
 11
1544.5546682673
 21
609.6323209512
 31
0.0
  0
LINE
  5
331
330
1F
100
AcDbEntity
  8
0
  6
Continuous
 62
     7
370
    35
100
AcDbLine
 10
1522.0546682673
 20
639.1073209512
 30
0.0
 11
1522.0546682673
 21
609.6323209512
 31
0.0
  0
LINE
  5
332
330
1F
100
AcDbEntity
  8
0
  6
Continuous
 62
     7
370
    35
100
AcDbLine
 10
1554.5546682673
 20
619.6323209512
 30
0.0
 11
1554.5546682673
 21
723.6323209512
 31
0.0
  0
LINE
  5
333
330
1F
100
AcDbEntity
  8
0
  6
Continuous
 62
     8
370
    18
100
AcDbLine
 10
342.0546682673
 20
723.6073209512
 30
0.0
 11
1522.0546682673
 21
723.6073209512
 31
0.0
  0
LINE
  5
334
330
1F
100
AcDbEntity
  8
0
  6
Continuous
 62
     8
370
    18
100
AcDbLine
 10
1522.0546682673
 20
709.1073209512
 30
0.0
 11
342.0546682673
 21
709.1073209512
 31
0.0
  0
LINE
  5
335
330
1F
100
AcDbEntity
  8
0
  6
Continuous
 62
     8
370
    18
100
AcDbLine
 10
342.0546682673
 20
639.1073209512
 30
0.0
 11
1522.0546682673
 21
639.1073209512
 31
0.0
  0
LINE
  5
336
330
1F
100
AcDbEntity
  8
0
  6
Continuous
 62
     8
370
    18
100
AcDbLine
 10
342.0546682673
 20
706.1640137388
 30
0.0
 11
1522.0546682673
 21
706.1640137388
 31
0.0
  0
LINE
  5
337
330
1F
100
AcDbEntity
  8
0
  6
Continuous
 62
     8
370
    18
100
AcDbLine
 10
342.0546682673
 20
644.0506281637
 30
0.0
 11
1522.0546682673
 21
644.0506281637
 31
0.0
  0
SPLINE
  5
338
330
1F
100
AcDbEntity
  8
0
  6
Continuous
 62
     8
370
    18
100
AcDbSpline
210
0.0
220
0.0
230
1.0
 70
     8
 71
     3
 72
    14
 73
    10
 74
     0
 42
0.000000001
 43
0.00000001
 40
0.0
 40
0.0
 40
0.0
 40
0.0
 40
0.2500000000000001
 40
0.2500000000000001
 40
0.5000000000000001
 40
0.5000000000000001
 40
0.7500000000000001
 40
0.7500000000000001
 40
1.0
 40
1.0
 40
1.0
 40
1.0
 10
849.0555253654469
 20
675.1640137387782
 30
0.0
 10
849.0807669515901
 20
678.5031772475934
 30
0.0
 10
849.6686428947779
 20
681.8373993173343
 30
0.0
 10
851.9051897958736
 20
688.1302888177383
 30
0.0
 10
853.553399733176
 20
691.0876590917326
 30
0.0
 10
857.728929627429
 20
696.299909124808
 30
0.0
 10
860.2553888801754
 20
698.5537144800103
 30
0.0
 10
865.908613431757
 20
702.1095058791915
 30
0.0
 10
869.0342134284003
 20
703.4107589659928
 30
0.0
 10
872.2874052954057
 20
704.1640137387782
 30
0.0
  0
LINE
  5
339
330
1F
100
AcDbEntity
  8
0
  6
Continuous
 62
     8
370
    18
100
AcDbLine
 10
342.0546682673
 20
675.1640137388
 30
0.0
 11
849.0555253654
 21
675.1640137388
 31
0.0
  0
LINE
  5
33A
330
1F
100
AcDbEntity
  8
0
  6
Continuous
 62
     8
370
    18
100
AcDbLine
 10
1015.0538111691
 20
675.1640137388
 30
0.0
 11
1522.0546682673
 21
675.1640137388
 31
0.0
  0
SPLINE
  5
33B
330
1F
100
AcDbEntity
  8
0
  6
Continuous
 62
     8
370
    18
100
AcDbSpline
210
0.0
220
0.0
230
1.0
 70
     8
 71
     3
 72
    14
 73
    10
 74
     0
 42
0.000000001
 43
0.00000001
 40
0.0
 40
0.0
 40
0.0
 40
0.0
 40
0.25
 40
0.25
 40
0.5
 40
0.5
 40
0.75
 40
0.75
 40
1.0
 40
1.0
 40
1.0
 40
1.0
 10
991.8219312391813
 20
704.1640137387782
 30
0.0
 10
995.0751231061868
 20
703.4107589659928
 30
0.0
 10
998.20072310283
 20
702.1095058791915
 30
0.0
 10
1003.853947654412
 20
698.5537144800103
 30
0.0
 10
1006.380406907158
 20
696.299909124808
 30
0.0
 10
1010.555936801411
 20
691.0876590917326
 30
0.0
 10
1012.204146738713
 20
688.1302888177383
 30
0.0
 10
1014.440693639809
 20
681.8373993173343
 30
0.0
 10
1015.028569582997
 20
678.5031772475934
 30
0.0
 10
1015.05381116914
 20
675.1640137387782
 30
0.0
  0
LINE
  5
33C
330
1F
100
AcDbEntity
  8
0
  6
Continuous
 62
     8
370
    18
100
AcDbLine
 10
342.0546682673
 20
675.0506281637
 30
0.0
 11
849.0555253654
 21
675.0506281637
 31
0.0
  0
SPLINE
  5
33D
330
1F
100
AcDbEntity
  8
0
  6
Continuous
 62
     8
370
    18
100
AcDbSpline
210
0.0
220
0.0
230
1.0
 70
     8
 71
     3
 72
    14
 73
    10
 74
     0
 42
0.000000001
 43
0.00000001
 40
0.0
 40
0.0
 40
0.0
 40
0.0
 40
0.2500000000000002
 40
0.2500000000000002
 40
0.5000000000000003
 40
0.5000000000000003
 40
0.7500000000000002
 40
0.7500000000000002
 40
1.0
 40
1.0
 40
1.0
 40
1.0
 10
872.2874052954056
 20
646.0506281636515
 30
0.0
 10
869.0342134284001
 20
646.8038829364367
 30
0.0
 10
865.908613431757
 20
648.1051360232382
 30
0.0
 10
860.2553888801754
 20
651.6609274224193
 30
0.0
 10
857.7289296274289
 20
653.9147327776216
 30
0.0
 10
853.553399733176
 20
659.1269828106972
 30
0.0
 10
851.9051897958736
 20
662.0843530846912
 30
0.0
 10
849.6686428947778
 20
668.3772425850954
 30
0.0
 10
849.0807669515901
 20
671.7114646548363
 30
0.0
 10
849.0555253654469
 20
675.0506281636515
 30
0.0
  0
SPLINE
  5
33E
330
1F
100
AcDbEntity
  8
0
  6
Continuous
 62
     8
370
    18
100
AcDbSpline
210
0.0
220
0.0
230
1.0
 70
     8
 71
     3
 72
    14
 73
    10
 74
     0
 42
0.000000001
 43
0.00000001
 40
0.0
 40
0.0
 40
0.0
 40
0.0
 40
0.25
 40
0.25
 40
0.5
 40
0.5
 40
0.75
 40
0.75
 40
1.0
 40
1.0
 40
1.0
 40
1.0
 10
1015.05381116914
 20
675.0506281636515
 30
0.0
 10
1015.028569582997
 20
671.7114646548363
 30
0.0
 10
1014.440693639809
 20
668.3772425850954
 30
0.0
 10
1012.204146738713
 20
662.0843530846912
 30
0.0
 10
1010.555936801411
 20
659.1269828106972
 30
0.0
 10
1006.380406907158
 20
653.9147327776216
 30
0.0
 10
1003.853947654412
 20
651.6609274224193
 30
0.0
 10
998.20072310283
 20
648.1051360232382
 30
0.0
 10
995.0751231061868
 20
646.8038829364367
 30
0.0
 10
991.8219312391814
 20
646.0506281636515
 30
0.0
  0
LINE
  5
33F
330
1F
100
AcDbEntity
  8
0
  6
Continuous
 62
     8
370
    18
100
AcDbLine
 10
1015.0538111691
 20
675.0506281637
 30
0.0
 11
1522.0546682673
 21
675.0506281637
 31
0.0
  0
LINE
  5
340
330
1F
100
AcDbEntity
  8
0
  6
Continuous
 62
     8
370
    18
100
AcDbLine
 10
985.0546682673
 20
704.3623006492
 30
0.0
 11
985.0546682673
 21
704.3573209512
 31
0.0
  0
LINE
  5
341
330
1F
100
AcDbEntity
  8
0
  6
Continuous
 62
     8
370
    18
100
AcDbLine
 10
879.0546682673
 20
704.3623006492
 30
0.0
 11
879.0546682673
 21
704.3573209512
 31
0.0
  0
ARC
  5
342
330
1F
100
AcDbEntity
  8
0
  6
Continuous
 62
     8
370
    18
100
AcDbCircle
 10
938.8049576674
 20
715.7387487052
 30
0.0
 40
54.26577168207994
100
AcDbArc
 50
344.6911781266
 51
347.6843554441
  0
LINE
  5
343
330
1F
100
AcDbEntity
  8
0
  6
Continuous
 62
     8
370
    18
100
AcDbLine
 10
985.0546682673
 20
704.3573209512
 30
0.0
 11
985.0546682673
 21
702.1073209512
 31
0.0
  0
LINE
  5
344
330
1F
100
AcDbEntity
  8
0
  6
Continuous
 62
     8
370
    18
100
AcDbLine
 10
879.0546682673
 20
704.3573209512
 30
0.0
 11
879.0546682673
 21
702.1073209512
 31
0.0
  0
ARC
  5
345
330
1F
100
AcDbEntity
  8
0
  6
Continuous
 62
     8
370
    18
100
AcDbCircle
 10
925.3043788676
 20
715.7387487052
 30
0.0
 40
54.2657716824838
100
AcDbArc
 50
192.3156445559
 51
195.3088218734
  0
ARC
  5
346
330
1F
100
AcDbEntity
  8
0
  6
Continuous
 62
     8
370
    18
100
AcDbCircle
 10
925.3043788676
 20
634.4758931972
 30
0.0
 40
54.26577168249437
100
AcDbArc
 50
164.6911781266
 51
167.6843554441
  0
LINE
  5
347
330
1F
100
AcDbEntity
  8
0
  6
Continuous
 62
     8
370
    18
100
AcDbLine
 10
879.0546682673
 20
648.1073209512
 30
0.0
 11
879.0546682673
 21
645.8573209512
 31
0.0
  0
LINE
  5
348
330
1F
100
AcDbEntity
  8
0
  6
Continuous
 62
     8
370
    18
100
AcDbLine
 10
985.0546682673
 20
648.1073209512
 30
0.0
 11
985.0546682673
 21
645.8573209512
 31
0.0
  0
ARC
  5
349
330
1F
100
AcDbEntity
  8
0
  6
Continuous
 62
     8
370
    18
100
AcDbCircle
 10
938.8049576669
 20
634.4758931971
 30
0.0
 40
54.26577168262367
100
AcDbArc
 50
12.3156445559
 51
15.3088218734
  0
LINE
  5
34A
330
1F
100
AcDbEntity
  8
0
  6
Continuous
 62
     8
370
    18
100
AcDbLine
 10
879.0546682673
 20
645.8523412533
 30
0.0
 11
879.0546682673
 21
645.8573209512
 31
0.0
  0
LINE
  5
34B
330
1F
100
AcDbEntity
  8
0
  6
Continuous
 62
     8
370
    18
100
AcDbLine
 10
985.0546682673
 20
645.8523412533
 30
0.0
 11
985.0546682673
 21
645.8573209512
 31
0.0
  0
ARC
  5
34C
330
1F
100
AcDbEntity
  8
0
  6
Continuous
 62
     8
370
    18
100
AcDbCircle
 10
1014.2219740347
 20
689.5618858633
 30
0.0
 40
14.42188180275224
100
AcDbArc
 50
261.3675974434
 51
273.306588142
  0
ARC
  5
34D
330
1F
100
AcDbEntity
  8
0
  6
Continuous
 62
     8
370
    18
100
AcDbCircle
 10
849.8873624999
 20
689.5618858633
 30
0.0
 40
14.42188180275565
100
AcDbArc
 50
266.693411858
 51
278.6324025566
  0
ARC
  5
34E
330
1F
100
AcDbEntity
  8
0
  6
Continuous
 62
     8
370
    18
100
AcDbCircle
 10
849.8873624999
 20
660.6527560391
 30
0.0
 40
14.42188180278292
100
AcDbArc
 50
81.3675974434
 51
93.306588142
  0
ARC
  5
34F
330
1F
100
AcDbEntity
  8
0
  6
Continuous
 62
     8
370
    18
100
AcDbCircle
 10
1014.2219740347
 20
660.6527560391
 30
0.0
 40
14.42188180278008
100
AcDbArc
 50
86.693411858
 51
98.6324025566
  0
SPLINE
  5
350
330
1F
100
AcDbEntity
  8
0
  6
Continuous
 62
     8
370
    18
100
AcDbSpline
210
0.0
220
0.0
230
1.0
 70
     8
 71
     3
 72
     8
 73
     4
 74
     0
 42
0.000000001
 43
0.00000001
 40
0.0
 40
0.0
 40
0.0
 40
0.0
 40
1.0
 40
1.0
 40
1.0
 40
1.0
 10
849.0555253654469
 20
675.0506281636515
 30
0.0
 10
849.0543825515838
 20
675.0884233553603
 30
0.0
 10
849.0543825515838
 20
675.1262185470692
 30
0.0
 10
849.0555253654469
 20
675.1640137387782
 30
0.0
  0
SPLINE
  5
351
330
1F
100
AcDbEntity
  8
0
  6
Continuous
 62
     8
370
    18
100
AcDbSpline
210
0.0
220
0.0
230
1.0
 70
     8
 71
     3
 72
     8
 73
     4
 74
     0
 42
0.000000001
 43
0.00000001
 40
0.0
 40
0.0
 40
0.0
 40
0.0
 40
1.0
 40
1.0
 40
1.0
 40
1.0
 10
1015.05381116914
 20
675.1640137387782
 30
0.0
 10
1015.054953983003
 20
675.1262185470692
 30
0.0
 10
1015.054953983003
 20
675.0884233553603
 30
0.0
 10
1015.05381116914
 20
675.0506281636515
 30
0.0
  0
SPLINE
  5
352
330
1F
100
AcDbEntity
  8
0
  6
Continuous
 62
     8
370
    18
100
AcDbSpline
210
0.0
220
0.0
230
1.0
 70
     8
 71
     3
 72
    17
 73
    13
 74
     0
 42
0.000000001
 43
0.00000001
 40
0.0
 40
0.0
 40
0.0
 40
0.0
 40
0.0000017599180569
 40
0.1227053397329219
 40
0.2502071717394974
 40
0.3526128094214264
 40
0.4578053944919659
 40
0.4930427252802743
 40
0.634853690367563
 40
0.7415522131116687
 40
0.8461670224033185
 40
1.0
 40
1.0
 40
1.0
 40
1.0
 10
985.0605730991964
 20
696.8490332713319
 30
0.0
 10
985.0605930991961
 20
696.8490332696865
 30
0.0
 10
986.4550368660468
 20
696.8489185484464
 30
0.0
 10
989.3038311752651
 20
696.5626601635896
 30
0.0
 10
993.1704671418341
 20
695.4122460072082
 30
0.0
 10
996.5677544546584
 20
693.6564543960895
 30
0.0
 10
998.79914403083
 20
692.0098091440957
 30
0.0
 10
1001.159632234068
 20
689.8378408494435
 30
0.0
 10
1003.214418839431
 20
687.3081948458581
 30
0.0
 10
1005.105153175161
 20
683.7564610599824
 30
0.0
 10
1006.47880401943
 20
679.8057327934488
 30
0.0
 10
1006.67862419243
 20
676.8604240448534
 30
0.0
 10
1006.797560912944
 20
675.1073209512149
 30
0.0
  0
LWPOLYLINE
  5
353
330
1F
100
AcDbEntity
  8
0
  6
Continuous
 62
     8
370
    18
100
AcDbPolyline
 90
        3
 70
   128
 43
0.0
 10
985.0605730992
 20
696.8490332713
 10
985.0605737983
 20
696.854572275
 10
985.0605740728
 20
696.8573201494
  0
LINE
  5
354
330
1F
100
AcDbEntity
  8
0
  6
Continuous
 62
     8
370
    18
100
AcDbLine
 10
1006.793121184
 20
675.1073209512
 30
0.0
 11
1006.7975609129
 21
675.1073209512
 31
0.0
  0
LINE
  5
355
330
1F
100
AcDbEntity
  8
0
  6
Continuous
 62
     8
370
    18
100
AcDbLine
 10
985.0605727383
 20
696.8445933469
 30
0.0
 11
985.0605730992
 21
696.8490332713
 31
0.0
  0
SPLINE
  5
356
330
1F
100
AcDbEntity
  8
0
  6
Continuous
 62
     8
370
    18
100
AcDbSpline
210
0.0
220
0.0
230
1.0
 70
     8
 71
     3
 72
    17
 73
    13
 74
     0
 42
0.000000001
 43
0.00000001
 40
0.0
 40
0.0
 40
0.0
 40
0.0
 40
0.0000017599180569
 40
0.1227053397329195
 40
0.2502071717394927
 40
0.3526128094214385
 40
0.4578053944919761
 40
0.4930427252802837
 40
0.6348536903675697
 40
0.7415522131116736
 40
0.8461670224033213
 40
1.0
 40
1.0
 40
1.0
 40
1.0
 10
879.0487634353914
 20
696.8490332713319
 30
0.0
 10
879.0487434353917
 20
696.8490332696865
 30
0.0
 10
877.6542996687016
 20
696.8489185482852
 30
0.0
 10
874.8055053592443
 20
696.5626601636682
 30
0.0
 10
870.9388693927701
 20
695.4122460071911
 30
0.0
 10
867.5415820799245
 20
693.6564543960941
 30
0.0
 10
865.3101925037573
 20
692.0098091440955
 30
0.0
 10
862.9497043005185
 20
689.8378408494438
 30
0.0
 10
860.8949176951558
 20
687.308194845858
 30
0.0
 10
859.0041833594262
 20
683.7564610599825
 30
0.0
 10
857.6305325151575
 20
679.8057327934488
 30
0.0
 10
857.4307123421571
 20
676.8604240448534
 30
0.0
 10
857.3117756216434
 20
675.1073209512149
 30
0.0
  0
LWPOLYLINE
  5
357
330
1F
100
AcDbEntity
  8
0
  6
Continuous
 62
     8
370
    18
100
AcDbPolyline
 90
        3
 70
   128
 43
0.0
 10
879.0487634354
 20
696.8490332713
 10
879.0487627363
 20
696.854572275
 10
879.0487624618
 20
696.8573201494
  0
LINE
  5
358
330
1F
100
AcDbEntity
  8
0
  6
Continuous
 62
     8
370
    18
100
AcDbLine
 10
857.3162153506
 20
675.1073209512
 30
0.0
 11
857.3117756216
 21
675.1073209512
 31
0.0
  0
LINE
  5
359
330
1F
100
AcDbEntity
  8
0
  6
Continuous
 62
     8
370
    18
100
AcDbLine
 10
879.0487637963
 20
696.8445933469
 30
0.0
 11
879.0487634354
 21
696.8490332713
 31
0.0
  0
SPLINE
  5
35A
330
1F
100
AcDbEntity
  8
0
  6
Continuous
 62
     8
370
    18
100
AcDbSpline
210
0.0
220
0.0
230
1.0
 70
     8
 71
     3
 72
    17
 73
    13
 74
     0
 42
0.000000001
 43
0.00000001
 40
0.0
 40
0.0
 40
0.0
 40
0.0
 40
0.0000017599180569
 40
0.1227053397329219
 40
0.2502071717394974
 40
0.3526128094214265
 40
0.4578053944919661
 40
0.4930427252802743
 40
0.634853690367563
 40
0.7415522131116687
 40
0.8461670224033184
 40
1.0
 40
1.0
 40
1.0
 40
1.0
 10
985.0605730991964
 20
653.3656086310976
 30
0.0
 10
985.0605930991961
 20
653.3656086327431
 30
0.0
 10
986.4550368660468
 20
653.3657233539832
 30
0.0
 10
989.3038311752651
 20
653.6519817388399
 30
0.0
 10
993.1704671418343
 20
654.8023958952214
 30
0.0
 10
996.5677544546584
 20
656.55818750634
 30
0.0
 10
998.7991440308301
 20
658.2048327583339
 30
0.0
 10
1001.159632234068
 20
660.376801052986
 30
0.0
 10
1003.214418839431
 20
662.9064470565716
 30
0.0
 10
1005.105153175161
 20
666.4581808424472
 30
0.0
 10
1006.47880401943
 20
670.4089091089809
 30
0.0
 10
1006.67862419243
 20
673.3542178575761
 30
0.0
 10
1006.797560912944
 20
675.1073209512149
 30
0.0
  0
LWPOLYLINE
  5
35B
330
1F
100
AcDbEntity
  8
0
  6
Continuous
 62
     8
370
    18
100
AcDbPolyline
 90
        3
 70
   128
 43
0.0
 10
985.0605730992
 20
653.3656086311
 10
985.0605737983
 20
653.3600696274
 10
985.0605740728
 20
653.357321753
  0
LINE
  5
35C
330
1F
100
AcDbEntity
  8
0
  6
Continuous
 62
     8
370
    18
100
AcDbLine
 10
985.0605727383
 20
653.3700485555
 30
0.0
 11
985.0605730992
 21
653.3656086311
 31
0.0
  0
SPLINE
  5
35D
330
1F
100
AcDbEntity
  8
0
  6
Continuous
 62
     8
370
    18
100
AcDbSpline
210
0.0
220
0.0
230
1.0
 70
     8
 71
     3
 72
    17
 73
    13
 74
     0
 42
0.000000001
 43
0.00000001
 40
0.0
 40
0.0
 40
0.0
 40
0.0
 40
0.0000017599180569
 40
0.1227053397329191
 40
0.2502071717394928
 40
0.3526128094214382
 40
0.4578053944919759
 40
0.4930427252802836
 40
0.6348536903675697
 40
0.7415522131116735
 40
0.8461670224033213
 40
1.0
 40
1.0
 40
1.0
 40
1.0
 10
879.0487634353914
 20
653.3656086310976
 30
0.0
 10
879.0487434353917
 20
653.3656086327431
 30
0.0
 10
877.6542996688631
 20
653.3657233540639
 30
0.0
 10
874.8055053591656
 20
653.6519817388006
 30
0.0
 10
870.938869392787
 20
654.8023958952301
 30
0.0
 10
867.5415820799201
 20
656.5581875063377
 30
0.0
 10
865.3101925037577
 20
658.204832758334
 30
0.0
 10
862.9497043005184
 20
660.376801052986
 30
0.0
 10
860.8949176951558
 20
662.9064470565716
 30
0.0
 10
859.0041833594262
 20
666.4581808424472
 30
0.0
 10
857.6305325151575
 20
670.4089091089809
 30
0.0
 10
857.4307123421571
 20
673.3542178575761
 30
0.0
 10
857.3117756216434
 20
675.1073209512149
 30
0.0
  0
LINE
  5
35E
330
1F
100
AcDbEntity
  8
0
  6
Continuous
 62
     8
370
    18
100
AcDbLine
 10
879.0487637963
 20
653.3700485555
 30
0.0
 11
879.0487634354
 21
653.3656086311
 31
0.0
  0
LWPOLYLINE
  5
35F
330
1F
100
AcDbEntity
  8
0
  6
Continuous
 62
     8
370
    18
100
AcDbPolyline
 90
        3
 70
   128
 43
0.0
 10
879.0487634354
 20
653.3656086311
 10
879.0487627363
 20
653.3600696274
 10
879.0487624618
 20
653.357321753
  0
ARC
  5
360
330
1F
100
AcDbEntity
  8
0
  6
Continuous
 62
     8
370
    18
100
AcDbCircle
 10
979.0393010148
 20
690.343794593
 30
0.0
 40
2.052564240820627
100
AcDbArc
 50
11.6472091992
 51
44.8009049346
  0
SPLINE
  5
361
330
1F
100
AcDbEntity
  8
0
  6
Continuous
 62
     8
370
    18
100
AcDbSpline
210
0.0
220
0.0
230
1.0
 70
     8
 71
     3
 72
     9
 73
     5
 74
     0
 42
0.000000001
 43
0.00000001
 40
0.0
 40
0.0
 40
0.0
 40
0.0
 40
0.1546895589893173
 40
1.0
 40
1.0
 40
1.0
 40
1.0
 10
984.9379370846334
 20
693.8388944051993
 30
0.0
 10
984.6948846280637
 20
693.7662198701996
 30
0.0
 10
983.1236573380145
 20
693.2964109479009
 30
0.0
 10
981.6995394291936
 20
692.4801329188571
 30
0.0
 10
980.4957176916371
 20
691.7901245781387
 30
0.0
  0
SPLINE
  5
362
330
1F
100
AcDbEntity
  8
0
  6
Continuous
 62
     8
370
    18
100
AcDbSpline
210
0.0
220
0.0
230
1.0
 70
     8
 71
     3
 72
     9
 73
     5
 74
     0
 42
0.000000001
 43
0.00000001
 40
0.0
 40
0.0
 40
0.0
 40
0.0
 40
0.1546895589893171
 40
1.0
 40
1.0
 40
1.0
 40
1.0
 10
879.1713994499544
 20
693.8388944051993
 30
0.0
 10
879.414451906524
 20
693.7662198701996
 30
0.0
 10
880.9856791965733
 20
693.2964109479009
 30
0.0
 10
882.4097971053942
 20
692.4801329188571
 30
0.0
 10
883.6136188429507
 20
691.7901245781387
 30
0.0
  0
ARC
  5
363
330
1F
100
AcDbEntity
  8
0
  6
Continuous
 62
     8
370
    18
100
AcDbCircle
 10
885.0700355198
 20
690.343794593
 30
0.0
 40
2.052564240821306
100
AcDbArc
 50
135.1990950654
 51
168.3527908008
  0
SPLINE
  5
364
330
1F
100
AcDbEntity
  8
0
  6
Continuous
 62
     8
370
    18
100
AcDbSpline
210
0.0
220
0.0
230
1.0
 70
     8
 71
     3
 72
     9
 73
     5
 74
     0
 42
0.000000001
 43
0.00000001
 40
0.0
 40
0.0
 40
0.0
 40
0.0
 40
0.1546895589893174
 40
0.9999999999999999
 40
0.9999999999999999
 40
0.9999999999999999
 40
0.9999999999999999
 10
984.9379370846334
 20
656.3757474972302
 30
0.0
 10
984.6948846280637
 20
656.4484220322299
 30
0.0
 10
983.1236573380145
 20
656.9182309545288
 30
0.0
 10
981.6995394291936
 20
657.7345089835726
 30
0.0
 10
980.4957176916371
 20
658.424517324291
 30
0.0
  0
ARC
  5
365
330
1F
100
AcDbEntity
  8
0
  6
Continuous
 62
     8
370
    18
100
AcDbCircle
 10
979.0393010148
 20
659.8708473095
 30
0.0
 40
2.052564240819501
100
AcDbArc
 50
315.1990950654
 51
348.3527908008
  0
ARC
  5
366
330
1F
100
AcDbEntity
  8
0
  6
Continuous
 62
     8
370
    18
100
AcDbCircle
 10
885.0700355198
 20
659.8708473095
 30
0.0
 40
2.052564240819609
100
AcDbArc
 50
191.6472091992
 51
224.8009049346
  0
SPLINE
  5
367
330
1F
100
AcDbEntity
  8
0
  6
Continuous
 62
     8
370
    18
100
AcDbSpline
210
0.0
220
0.0
230
1.0
 70
     8
 71
     3
 72
     9
 73
     5
 74
     0
 42
0.000000001
 43
0.00000001
 40
0.0
 40
0.0
 40
0.0
 40
0.0
 40
0.1546895589893173
 40
1.0
 40
1.0
 40
1.0
 40
1.0
 10
879.1713994499544
 20
656.3757474972302
 30
0.0
 10
879.414451906524
 20
656.4484220322299
 30
0.0
 10
880.9856791965733
 20
656.9182309545288
 30
0.0
 10
882.409797105394
 20
657.7345089835726
 30
0.0
 10
883.6136188429507
 20
658.424517324291
 30
0.0
  0
ARC
  5
368
330
1F
100
AcDbEntity
  8
0
  6
Continuous
 62
     8
370
    18
100
AcDbCircle
 10
978.0546682673
 20
675.1073209512
 30
0.0
 40
20.00000000000011
100
AcDbArc
 50
270.0
 51
347.5224163015
  0
LINE
  5
369
330
1F
100
AcDbEntity
  8
0
  6
Continuous
 62
     8
370
    18
100
AcDbLine
 10
978.0546682673
 20
662.3946701643
 30
0.0
 11
978.0546682673
 21
655.1073209512
 31
0.0
  0
LINE
  5
36A
330
1F
100
AcDbEntity
  8
0
  6
Continuous
 62
     8
370
    18
100
AcDbLine
 10
978.0546682673
 20
687.8199717381
 30
0.0
 11
978.0546682673
 21
695.1073209512
 31
0.0
  0
ARC
  5
36B
330
1F
100
AcDbEntity
  8
0
  6
Continuous
 62
     8
370
    18
100
AcDbCircle
 10
978.0546682673
 20
675.1073209512
 30
0.0
 40
20.0
100
AcDbArc
 50
12.4775836985
 51
90.0
  0
SPLINE
  5
36C
330
1F
100
AcDbEntity
  8
0
  6
Continuous
 62
     8
370
    18
100
AcDbSpline
210
0.0
220
0.0
230
1.0
 70
     8
 71
     3
 72
    14
 73
    10
 74
     0
 42
0.000000001
 43
0.00000001
 40
0.0
 40
0.0
 40
0.0
 40
0.0
 40
0.1114289230463675
 40
0.4958785649708676
 40
0.7046555305635106
 40
0.8301760374267202
 40
0.9121018798664099
 40
0.9942797082137652
 40
1.0
 40
1.0
 40
1.0
 40
1.0
 10
980.4957176916371
 20
691.7901245781387
 30
0.0
 10
980.376326645995
 20
691.7077922128856
 30
0.0
 10
979.845015216567
 20
691.3413985153051
 30
0.0
 10
979.1707236932072
 20
690.708627364581
 30
0.0
 10
978.7128599054453
 20
689.9176428498807
 30
0.0
 10
978.6284021551118
 20
689.407448116018
 30
0.0
 10
978.7108664479639
 20
689.0631195103539
 30
0.0
 10
978.8305733915863
 20
688.885419789621
 30
0.0
 10
978.9112846647923
 20
688.8100372201982
 30
0.0
 10
978.9165372462184
 20
688.8051314236687
 30
0.0
  0
SPLINE
  5
36D
330
1F
100
AcDbEntity
  8
0
  6
Continuous
 62
     8
370
    18
100
AcDbSpline
210
0.0
220
0.0
230
1.0
 70
     8
 71
     3
 72
    14
 73
    10
 74
     0
 42
0.000000001
 43
0.00000001
 40
0.0
 40
0.0
 40
0.0
 40
0.0
 40
0.1114289230463679
 40
0.4958785649708705
 40
0.7046555305635143
 40
0.8301760374267243
 40
0.9121018798664143
 40
0.99427970821377
 40
1.0
 40
1.0
 40
1.0
 40
1.0
 10
980.4957176916371
 20
658.424517324291
 30
0.0
 10
980.376326645995
 20
658.5068496895441
 30
0.0
 10
979.845015216567
 20
658.8732433871245
 30
0.0
 10
979.1707236932072
 20
659.5060145378485
 30
0.0
 10
978.7128599054453
 20
660.2969990525488
 30
0.0
 10
978.6284021551118
 20
660.8071937864115
 30
0.0
 10
978.7108664479639
 20
661.1515223920758
 30
0.0
 10
978.8305733915861
 20
661.3292221128087
 30
0.0
 10
978.9112846647923
 20
661.4046046822315
 30
0.0
 10
978.9165372462184
 20
661.4095104787609
 30
0.0
  0
SPLINE
  5
36E
330
1F
100
AcDbEntity
  8
0
  6
Continuous
 62
     8
370
    18
100
AcDbSpline
210
0.0
220
0.0
230
1.0
 70
     8
 71
     3
 72
    14
 73
    10
 74
     0
 42
0.000000001
 43
0.00000001
 40
0.0
 40
0.0
 40
0.0
 40
0.0
 40
0.1114289230463678
 40
0.4958785649708698
 40
0.7046555305635135
 40
0.8301760374267233
 40
0.9121018798664129
 40
0.9942797082137684
 40
1.0
 40
1.0
 40
1.0
 40
1.0
 10
883.6136188429507
 20
658.424517324291
 30
0.0
 10
883.7330098885927
 20
658.5068496895441
 30
0.0
 10
884.2643213180207
 20
658.8732433871245
 30
0.0
 10
884.9386128413805
 20
659.5060145378485
 30
0.0
 10
885.3964766291425
 20
660.2969990525488
 30
0.0
 10
885.480934379476
 20
660.8071937864117
 30
0.0
 10
885.3984700866237
 20
661.1515223920758
 30
0.0
 10
885.2787631430016
 20
661.3292221128087
 30
0.0
 10
885.1980518697952
 20
661.4046046822315
 30
0.0
 10
885.1927992883694
 20
661.4095104787609
 30
0.0
  0
SPLINE
  5
36F
330
1F
100
AcDbEntity
  8
0
  6
Continuous
 62
     8
370
    18
100
AcDbSpline
210
0.0
220
0.0
230
1.0
 70
     8
 71
     3
 72
    14
 73
    10
 74
     0
 42
0.000000001
 43
0.00000001
 40
0.0
 40
0.0
 40
0.0
 40
0.0
 40
0.1114289230463676
 40
0.4958785649708684
 40
0.7046555305635115
 40
0.8301760374267211
 40
0.9121018798664113
 40
0.9942797082137667
 40
1.0
 40
1.0
 40
1.0
 40
1.0
 10
883.6136188429507
 20
691.7901245781387
 30
0.0
 10
883.7330098885927
 20
691.7077922128856
 30
0.0
 10
884.2643213180207
 20
691.3413985153051
 30
0.0
 10
884.9386128413805
 20
690.708627364581
 30
0.0
 10
885.3964766291425
 20
689.9176428498807
 30
0.0
 10
885.480934379476
 20
689.407448116018
 30
0.0
 10
885.3984700866237
 20
689.0631195103539
 30
0.0
 10
885.2787631430015
 20
688.885419789621
 30
0.0
 10
885.1980518697952
 20
688.8100372201982
 30
0.0
 10
885.1927992883694
 20
688.8051314236687
 30
0.0
  0
ARC
  5
370
330
1F
100
AcDbEntity
  8
0
  6
Continuous
 62
     8
370
    18
100
AcDbCircle
 10
886.0546682673
 20
675.1073209512
 30
0.0
 40
20.00000000000026
100
AcDbArc
 50
90.0
 51
167.5224163015
  0
LINE
  5
371
330
1F
100
AcDbEntity
  8
0
  6
Continuous
 62
     8
370
    18
100
AcDbLine
 10
886.0546682673
 20
687.8199717381
 30
0.0
 11
886.0546682673
 21
695.1073209512
 31
0.0
  0
LINE
  5
372
330
1F
100
AcDbEntity
  8
0
  6
Continuous
 62
     8
370
    18
100
AcDbLine
 10
886.0546682673
 20
662.3946701643
 30
0.0
 11
886.0546682673
 21
655.1073209512
 31
0.0
  0
ARC
  5
373
330
1F
100
AcDbEntity
  8
0
  6
Continuous
 62
     8
370
    18
100
AcDbCircle
 10
886.0546682673
 20
675.1073209512
 30
0.0
 40
20.00000000000029
100
AcDbArc
 50
192.4775836985
 51
270.0
  0
LINE
  5
374
330
1F
100
AcDbEntity
  8
0
  6
Continuous
 62
     8
370
    18
100
AcDbLine
 10
932.0546682673
 20
696.8530333432
 30
0.0
 11
985.0605545845
 21
696.8490332727
 31
0.0
  0
LINE
  5
375
330
1F
100
AcDbEntity
  8
0
  6
Continuous
 62
     8
370
    18
100
AcDbLine
 10
932.0546682673
 20
696.8530333432
 30
0.0
 11
932.0546682673
 21
696.8485934187
 31
0.0
  0
LINE
  5
376
330
1F
100
AcDbEntity
  8
0
  6
Continuous
 62
     8
370
    18
100
AcDbLine
 10
932.0546682673
 20
696.8530333432
 30
0.0
 11
879.0487819501
 21
696.8490332727
 31
0.0
  0
LINE
  5
377
330
1F
100
AcDbEntity
  8
0
  6
Continuous
 62
     8
370
    18
100
AcDbLine
 10
932.0546682673
 20
653.3616085592
 30
0.0
 11
985.0605545845
 21
653.3656086297
 31
0.0
  0
LINE
  5
378
330
1F
100
AcDbEntity
  8
0
  6
Continuous
 62
     8
370
    18
100
AcDbLine
 10
932.0546682673
 20
653.3616085592
 30
0.0
 11
932.0546682673
 21
653.3660484837
 31
0.0
  0
LINE
  5
379
330
1F
100
AcDbEntity
  8
0
  6
Continuous
 62
     8
370
    18
100
AcDbLine
 10
932.0546682673
 20
653.3616085592
 30
0.0
 11
879.0487819501
 21
653.3656086297
 31
0.0
  0
LINE
  5
37A
330
1F
100
AcDbEntity
  8
0
  6
Continuous
 62
     8
370
    18
100
AcDbLine
 10
886.0546682673
 20
655.1073209512
 30
0.0
 11
978.0546682673
 21
655.1073209512
 31
0.0
  0
LINE
  5
37B
330
1F
100
AcDbEntity
  8
0
  6
Continuous
 62
     8
370
    18
100
AcDbLine
 10
886.0546682673
 20
695.1073209512
 30
0.0
 11
978.0546682673
 21
695.1073209512
 31
0.0
  0
LINE
  5
37C
330
1F
100
AcDbEntity
  8
0
  6
Continuous
 62
     8
370
    18
100
AcDbLine
 10
985.0605545845
 20
696.8490332727
 30
0.0
 11
985.0605552098
 21
696.8573201545
 31
0.0
  0
LINE
  5
37D
330
1F
100
AcDbEntity
  8
0
  6
Continuous
 62
     8
370
    18
100
AcDbLine
 10
879.0487819501
 20
696.8490332727
 30
0.0
 11
879.0487813248
 21
696.8573201545
 31
0.0
  0
LINE
  5
37E
330
1F
100
AcDbEntity
  8
0
  6
Continuous
 62
     8
370
    18
100
AcDbLine
 10
985.0605545845
 20
653.3656086297
 30
0.0
 11
985.0605552098
 21
653.3573217479
 31
0.0
  0
LINE
  5
37F
330
1F
100
AcDbEntity
  8
0
  6
Continuous
 62
     8
370
    18
100
AcDbLine
 10
879.0487819501
 20
653.3656086297
 30
0.0
 11
879.0487813248
 21
653.3573217479
 31
0.0
  0
LINE
  5
380
330
1F
100
AcDbEntity
  8
0
  6
Continuous
 62
     8
370
    18
100
AcDbLine
 10
985.0546682673
 20
648.8573209512
 30
0.0
 11
985.0546682673
 21
648.1073209512
 31
0.0
  0
ARC
  5
381
330
1F
100
AcDbEntity
  8
0
  6
Continuous
 62
     8
370
    18
100
AcDbCircle
 10
985.0546682673
 20
675.1073209512
 30
0.0
 40
26.25000000000011
100
AcDbArc
 50
270.0
 51
90.0
  0
LINE
  5
382
330
1F
100
AcDbEntity
  8
0
  6
Continuous
 62
     8
370
    18
100
AcDbLine
 10
985.0546682673
 20
701.3573209512
 30
0.0
 11
985.0546682673
 21
702.1073209512
 31
0.0
  0
LINE
  5
383
330
1F
100
AcDbEntity
  8
0
  6
Continuous
 62
     8
370
    18
100
AcDbLine
 10
985.0546682673
 20
653.3573209512
 30
0.0
 11
985.0546682673
 21
648.8573209512
 31
0.0
  0
LINE
  5
384
330
1F
100
AcDbEntity
  8
0
  6
Continuous
 62
     8
370
    18
100
AcDbLine
 10
985.0546682673
 20
696.8573209512
 30
0.0
 11
985.0546682673
 21
701.3573209512
 31
0.0
  0
LINE
  5
385
330
1F
100
AcDbEntity
  8
0
  6
Continuous
 62
     8
370
    18
100
AcDbLine
 10
879.0546682673
 20
701.3573209512
 30
0.0
 11
985.0546682673
 21
701.3573209512
 31
0.0
  0
LINE
  5
386
330
1F
100
AcDbEntity
  8
0
  6
Continuous
 62
     8
370
    18
100
AcDbLine
 10
879.0546682673
 20
701.3573209512
 30
0.0
 11
879.0546682673
 21
702.1073209512
 31
0.0
  0
LINE
  5
387
330
1F
100
AcDbEntity
  8
0
  6
Continuous
 62
     8
370
    18
100
AcDbLine
 10
879.0546682673
 20
696.8573209512
 30
0.0
 11
879.0546682673
 21
701.3573209512
 31
0.0
  0
ARC
  5
388
330
1F
100
AcDbEntity
  8
0
  6
Continuous
 62
     8
370
    18
100
AcDbCircle
 10
879.0546682673
 20
675.1073209512
 30
0.0
 40
26.25000000000011
100
AcDbArc
 50
90.0
 51
270.0
  0
LINE
  5
389
330
1F
100
AcDbEntity
  8
0
  6
Continuous
 62
     8
370
    18
100
AcDbLine
 10
879.0546682673
 20
648.8573209512
 30
0.0
 11
879.0546682673
 21
648.1073209512
 31
0.0
  0
LINE
  5
38A
330
1F
100
AcDbEntity
  8
0
  6
Continuous
 62
     8
370
    18
100
AcDbLine
 10
879.0546682673
 20
653.3573209512
 30
0.0
 11
879.0546682673
 21
648.8573209512
 31
0.0
  0
LINE
  5
38B
330
1F
100
AcDbEntity
  8
0
  6
Continuous
 62
     8
370
    18
100
AcDbLine
 10
879.0546682673
 20
648.8573209512
 30
0.0
 11
985.0546682673
 21
648.8573209512
 31
0.0
  0
CIRCLE
  5
38C
330
1F
100
AcDbEntity
  8
0
  6
Continuous
 62
     8
370
    18
100
AcDbCircle
 10
932.0546682673
 20
675.1073209512
 30
0.0
 40
3.548336454629748
  0
CIRCLE
  5
38D
330
1F
100
AcDbEntity
  8
0
  6
Continuous
 62
     8
370
    18
100
AcDbCircle
 10
932.0546682673
 20
675.1073209512
 30
0.0
 40
5.614709433546864
  0
ARC
  5
38E
330
1F
100
AcDbEntity
  8
0
  6
Continuous
 62
     8
370
    18
100
AcDbCircle
 10
932.0546682673
 20
675.1073209512
 30
0.0
 40
7.46348026743998
100
AcDbArc
 50
126.4944476701
 51
233.50555233
  0
ARC
  5
38F
330
1F
100
AcDbEntity
  8
0
  6
Continuous
 62
     8
370
    18
100
AcDbCircle
 10
932.0546682673
 20
675.1073209512
 30
0.0
 40
7.463480267439913
100
AcDbArc
 50
306.4944476701
 51
53.5055523299
  0
ARC
  5
390
330
1F
100
AcDbEntity
  8
0
  6
Continuous
 62
     8
370
    18
100
AcDbCircle
 10
932.0546682673
 20
675.1073209512
 30
0.0
 40
8.284968901367122
100
AcDbArc
 50
133.5974061618
 51
226.4025938382
  0
ARC
  5
391
330
1F
100
AcDbEntity
  8
0
  6
Continuous
 62
     8
370
    18
100
AcDbCircle
 10
932.0546682673
 20
675.1073209512
 30
0.0
 40
8.284968901367122
100
AcDbArc
 50
313.5974061618
 51
46.4025938382
  0
LINE
  5
392
330
1F
100
AcDbEntity
  8
0
  6
Continuous
 62
     8
370
    18
100
AcDbLine
 10
1523.0546682673
 20
640.1073209512
 30
0.0
 11
1523.0546682673
 21
724.6073209512
 31
0.0
  0
LINE
  5
393
330
1F
100
AcDbEntity
  8
0
  6
Continuous
 62
     8
370
    18
100
AcDbLine
 10
341.0546682673
 20
640.1073209512
 30
0.0
 11
341.0546682673
 21
724.6073209512
 31
0.0
  0
LINE
  5
394
330
1F
100
AcDbEntity
  8
0
  6
Continuous
 62
     8
370
    18
100
AcDbLine
 10
319.5546682673
 20
725.6323209512
 30
0.0
 11
319.5546682673
 21
724.6323209512
 31
0.0
  0
LINE
  5
395
330
1F
100
AcDbEntity
  8
0
  6
Continuous
 62
     8
370
    18
100
AcDbLine
 10
309.5546682673
 20
723.6323209512
 30
0.0
 11
340.0546682673
 21
723.6323209512
 31
0.0
  0
LINE
  5
396
330
1F
100
AcDbEntity
  8
0
  6
Continuous
 62
     8
370
    18
100
AcDbLine
 10
1544.5546682673
 20
724.6323209512
 30
0.0
 11
1544.5546682673
 21
725.6323209512
 31
0.0
  0
LINE
  5
397
330
1F
100
AcDbEntity
  8
0
  6
Continuous
 62
     8
370
    18
100
AcDbLine
 10
1524.0546682673
 20
723.6323209512
 30
0.0
 11
1554.5546682673
 21
723.6323209512
 31
0.0
  0
ENDSEC
  0
SECTION
  2
OBJECTS
  0
DICTIONARY
  5
C
330
0
100
AcDbDictionary
281
     1
  3
ACAD_GROUP
350
D
  3
ACAD_LAYOUT
350
1A
  3
ACAD_MLINESTYLE
350
17
  3
ACAD_PLOTSETTINGS
350
19
  3
ACAD_PLOTSTYLENAME
350
E
  3
ACAD_SCALELIST
350
47
  0
DICTIONARY
  5
D
102
{ACAD_REACTORS
330
C
102
}
330
C
100
AcDbDictionary
281
     1
  0
DICTIONARY
  5
1A
102
{ACAD_REACTORS
330
C
102
}
330
C
100
AcDbDictionary
281
     1
  3
Layout1
350
1E
  3
Layout2
350
26
  3
Model
350
22
  0
DICTIONARY
  5
17
102
{ACAD_REACTORS
330
C
102
}
330
C
100
AcDbDictionary
281
     1
  3
Standard
350
18
  0
DICTIONARY
  5
19
102
{ACAD_REACTORS
330
C
102
}
330
C
100
AcDbDictionary
281
     1
  0
ACDBDICTIONARYWDFLT
  5
E
102
{ACAD_REACTORS
330
C
102
}
330
C
100
AcDbDictionary
281
     1
  3
Normal
350
F
100
AcDbDictionaryWithDefault
340
F
  0
DICTIONARY
  5
47
102
{ACAD_REACTORS
330
C
102
}
330
C
100
AcDbDictionary
281
     1
  3
A0
350
48
  3
A1
350
49
  3
A2
350
4A
  3
A3
350
4B
  3
A4
350
4C
  3
A5
350
4D
  3
A6
350
4E
  3
A7
350
4F
  3
A8
350
50
  3
A9
350
51
  3
B0
350
52
  3
B1
350
53
  3
B2
350
54
  3
B3
350
55
  3
B4
350
56
  3
B5
350
57
  3
B6
350
58
  3
B7
350
59
  3
B8
350
5A
  3
B9
350
5B
  3
C0
350
5C
  3
C1
350
5D
  3
C2
350
5E
  3
C3
350
5F
  3
C4
350
60
  3
C5
350
61
  3
C6
350
62
  3
C7
350
63
  3
C8
350
64
  3
C9
350
65
  3
D0
350
66
  3
D1
350
67
  3
D2
350
68
  0
LAYOUT
  5
1E
102
{ACAD_REACTORS
330
1A
102
}
330
1A
100
AcDbPlotSettings
  1

  2
none_device
  4

  6

 40
0.0
 41
0.0
 42
0.0
 43
0.0
 44
0.0
 45
0.0
 46
0.0
 47
0.0
 48
0.0
 49
0.0
140
0.0
141
0.0
142
1.0
143
1.0
 70
   688
 72
     1
 73
     0
 74
     5
  7

 75
    16
147
1.0
148
0.0
149
0.0
100
AcDbLayout
  1
Layout1
 70
     1
 71
     1
 10
0.0
 20
0.0
 11
420.0
 21
297.0
 12
0.0
 22
0.0
 32
0.0
 14
1.0000000000E+20
 24
1.0000000000E+20
 34
1.0000000000E+20
 15
-1.0000000000E+20
 25
-1.0000000000E+20
 35
-1.0000000000E+20
146
0.0
 13
0.0
 23
0.0
 33
0.0
 16
1.0
 26
0.0
 36
0.0
 17
0.0
 27
1.0
 37
0.0
 76
     0
330
1B
  0
LAYOUT
  5
26
102
{ACAD_REACTORS
330
1A
102
}
330
1A
100
AcDbPlotSettings
  1

  2
none_device
  4

  6

 40
0.0
 41
0.0
 42
0.0
 43
0.0
 44
0.0
 45
0.0
 46
0.0
 47
0.0
 48
0.0
 49
0.0
140
0.0
141
0.0
142
1.0
143
1.0
 70
   688
 72
     1
 73
     0
 74
     5
  7

 75
    16
147
1.0
148
0.0
149
0.0
100
AcDbLayout
  1
Layout2
 70
     1
 71
     2
 10
0.0
 20
0.0
 11
0.0
 21
0.0
 12
0.0
 22
0.0
 32
0.0
 14
0.0
 24
0.0
 34
0.0
 15
0.0
 25
0.0
 35
0.0
146
0.0
 13
0.0
 23
0.0
 33
0.0
 16
1.0
 26
0.0
 36
0.0
 17
0.0
 27
1.0
 37
0.0
 76
     0
330
23
  0
LAYOUT
  5
22
102
{ACAD_REACTORS
330
1A
102
}
330
1A
100
AcDbPlotSettings
  1

  2
none_device
  4
Letter_(8.50_x_11.00_Inches)
  6

 40
6.35
 41
6.35
 42
6.35000508
 43
6.35000508
 44
215.9
 45
279.4
 46
0.0
 47
0.0
 48
0.0
 49
0.0
140
0.0
141
0.0
142
1.0
143
1.0
 70
  1712
 72
     1
 73
     0
 74
     0
  7

 75
     0
147
1.0
148
0.0
149
0.0
100
AcDbLayout
  1
Model
 70
     1
 71
     0
 10
0.0
 20
0.0
 11
2100.0
 21
1485.0
 12
0.0
 22
0.0
 32
0.0
 14
0.0
 24
0.0
 34
0.0
 15
2100.0
 25
1485.0
 35
0.0
146
0.0
 13
0.0
 23
0.0
 33
0.0
 16
1.0
 26
0.0
 36
0.0
 17
0.0
 27
1.0
 37
0.0
 76
     0
330
1F
331
29
  0
MLINESTYLE
  5
18
102
{ACAD_REACTORS
330
17
102
}
330
17
100
AcDbMlineStyle
  2
Standard
 70
     0
  3

 62
   256
 51
90.0
 52
90.0
 71
     2
 49
0.5
 62
   256
  6
BYLAYER
 49
-0.5
 62
   256
  6
BYLAYER
  0
ACDBPLACEHOLDER
  5
F
102
{ACAD_REACTORS
330
E
102
}
330
E
  0
SCALE
  5
48
102
{ACAD_REACTORS
330
47
102
}
330
47
100
AcDbScale
 70
     0
300
1:1
140
1.0
141
1.0
290
     1
  0
SCALE
  5
49
102
{ACAD_REACTORS
330
47
102
}
330
47
100
AcDbScale
 70
     0
300
1:2
140
1.0
141
2.0
290
     0
  0
SCALE
  5
4A
102
{ACAD_REACTORS
330
47
102
}
330
47
100
AcDbScale
 70
     0
300
1:4
140
1.0
141
4.0
290
     0
  0
SCALE
  5
4B
102
{ACAD_REACTORS
330
47
102
}
330
47
100
AcDbScale
 70
     0
300
1:5
140
1.0
141
5.0
290
     0
  0
SCALE
  5
4C
102
{ACAD_REACTORS
330
47
102
}
330
47
100
AcDbScale
 70
     0
300
1:8
140
1.0
141
8.0
290
     0
  0
SCALE
  5
4D
102
{ACAD_REACTORS
330
47
102
}
330
47
100
AcDbScale
 70
     0
300
1:10
140
1.0
141
10.0
290
     0
  0
SCALE
  5
4E
102
{ACAD_REACTORS
330
47
102
}
330
47
100
AcDbScale
 70
     0
300
1:16
140
1.0
141
16.0
290
     0
  0
SCALE
  5
4F
102
{ACAD_REACTORS
330
47
102
}
330
47
100
AcDbScale
 70
     0
300
1:20
140
1.0
141
20.0
290
     0
  0
SCALE
  5
50
102
{ACAD_REACTORS
330
47
102
}
330
47
100
AcDbScale
 70
     0
300
1:30
140
1.0
141
30.0
290
     0
  0
SCALE
  5
51
102
{ACAD_REACTORS
330
47
102
}
330
47
100
AcDbScale
 70
     0
300
1:40
140
1.0
141
40.0
290
     0
  0
SCALE
  5
52
102
{ACAD_REACTORS
330
47
102
}
330
47
100
AcDbScale
 70
     0
300
1:50
140
1.0
141
50.0
290
     0
  0
SCALE
  5
53
102
{ACAD_REACTORS
330
47
102
}
330
47
100
AcDbScale
 70
     0
300
1:100
140
1.0
141
100.0
290
     0
  0
SCALE
  5
54
102
{ACAD_REACTORS
330
47
102
}
330
47
100
AcDbScale
 70
     0
300
2:1
140
2.0
141
1.0
290
     0
  0
SCALE
  5
55
102
{ACAD_REACTORS
330
47
102
}
330
47
100
AcDbScale
 70
     0
300
4:1
140
4.0
141
1.0
290
     0
  0
SCALE
  5
56
102
{ACAD_REACTORS
330
47
102
}
330
47
100
AcDbScale
 70
     0
300
8:1
140
8.0
141
1.0
290
     0
  0
SCALE
  5
57
102
{ACAD_REACTORS
330
47
102
}
330
47
100
AcDbScale
 70
     0
300
10:1
140
10.0
141
1.0
290
     0
  0
SCALE
  5
58
102
{ACAD_REACTORS
330
47
102
}
330
47
100
AcDbScale
 70
     0
300
100:1
140
100.0
141
1.0
290
     0
  0
SCALE
  5
59
102
{ACAD_REACTORS
330
47
102
}
330
47
100
AcDbScale
 70
     0
300
1/128" = 1'-0"
140
0.0078125
141
12.0
290
     0
  0
SCALE
  5
5A
102
{ACAD_REACTORS
330
47
102
}
330
47
100
AcDbScale
 70
     0
300
1/64" = 1'-0"
140
0.015625
141
12.0
290
     0
  0
SCALE
  5
5B
102
{ACAD_REACTORS
330
47
102
}
330
47
100
AcDbScale
 70
     0
300
1/32" = 1'-0"
140
0.03125
141
12.0
290
     0
  0
SCALE
  5
5C
102
{ACAD_REACTORS
330
47
102
}
330
47
100
AcDbScale
 70
     0
300
1/16" = 1'-0"
140
0.0625
141
12.0
290
     0
  0
SCALE
  5
5D
102
{ACAD_REACTORS
330
47
102
}
330
47
100
AcDbScale
 70
     0
300
3/32" = 1'-0"
140
0.09375
141
12.0
290
     0
  0
SCALE
  5
5E
102
{ACAD_REACTORS
330
47
102
}
330
47
100
AcDbScale
 70
     0
300
1/8" = 1'-0"
140
0.125
141
12.0
290
     0
  0
SCALE
  5
5F
102
{ACAD_REACTORS
330
47
102
}
330
47
100
AcDbScale
 70
     0
300
3/16" = 1'-0"
140
0.1875
141
12.0
290
     0
  0
SCALE
  5
60
102
{ACAD_REACTORS
330
47
102
}
330
47
100
AcDbScale
 70
     0
300
1/4" = 1'-0"
140
0.25
141
12.0
290
     0
  0
SCALE
  5
61
102
{ACAD_REACTORS
330
47
102
}
330
47
100
AcDbScale
 70
     0
300
3/8" = 1'-0"
140
0.375
141
12.0
290
     0
  0
SCALE
  5
62
102
{ACAD_REACTORS
330
47
102
}
330
47
100
AcDbScale
 70
     0
300
1/2" = 1'-0"
140
0.5
141
12.0
290
     0
  0
SCALE
  5
63
102
{ACAD_REACTORS
330
47
102
}
330
47
100
AcDbScale
 70
     0
300
3/4" = 1'-0"
140
0.75
141
12.0
290
     0
  0
SCALE
  5
64
102
{ACAD_REACTORS
330
47
102
}
330
47
100
AcDbScale
 70
     0
300
1" = 1'-0"
140
1.0
141
12.0
290
     0
  0
SCALE
  5
65
102
{ACAD_REACTORS
330
47
102
}
330
47
100
AcDbScale
 70
     0
300
1-1/2" = 1'-0"
140
1.5
141
12.0
290
     0
  0
SCALE
  5
66
102
{ACAD_REACTORS
330
47
102
}
330
47
100
AcDbScale
 70
     0
300
3" = 1'-0"
140
3.0
141
12.0
290
     0
  0
SCALE
  5
67
102
{ACAD_REACTORS
330
47
102
}
330
47
100
AcDbScale
 70
     0
300
6" = 1'-0"
140
6.0
141
12.0
290
     0
  0
SCALE
  5
68
102
{ACAD_REACTORS
330
47
102
}
330
47
100
AcDbScale
 70
     0
300
1'-0" = 1'-0"
140
12.0
141
12.0
290
     0
  0
ENDSEC
  0
EOF
