  0
SECTION
  2
HEADER
  9
$ACADVER
  1
AC1015
  9
$ACADMAINTVER
 70
     6
  9
$DWGCODEPAGE
  3
ANSI_1252
  9
$INSBASE
 10
0.0
 20
0.0
 30
0.0
  9
$EXTMIN
 10
0.0
 20
0.0
 30
0.0
  9
$EXTMAX
 10
2100.0
 20
1485.0
 30
0.0
  9
$LIMMIN
 10
0.0
 20
0.0
  9
$LIMMAX
 10
2100.0
 20
1485.0
  9
$ORTHOMODE
 70
     0
  9
$REGENMODE
 70
     1
  9
$FILLMODE
 70
     1
  9
$QTEXTMODE
 70
     0
  9
$MIRRTEXT
 70
     1
  9
$LTSCALE
 40
5.0
  9
$ATTMODE
 70
     1
  9
$TEXTSIZE
 40
12.5
  9
$TRACEWID
 40
1.0
  9
$TEXTSTYLE
  7
Standard
  9
$CLAYER
  8
0
  9
$CELTYPE
  6
ByLayer
  9
$CECOLOR
 62
   256
  9
$CELTSCALE
 40
1.0
  9
$DISPSILH
 70
     0
  9
$DIMSCALE
 40
1.0
  9
$DIMASZ
 40
12.5
  9
$DIMEXO
 40
0.0
  9
$DIMDLI
 40
3.75
  9
$DIMRND
 40
0.0
  9
$DIMDLE
 40
0.0
  9
$DIMEXE
 40
5.0
  9
$DIMTP
 40
0.0
  9
$DIMTM
 40
0.0
  9
$DIMTXT
 40
12.5
  9
$DIMCEN
 40
2.5
  9
$DIMTSZ
 40
0.0
  9
$DIMTOL
 70
     0
  9
$DIMLIM
 70
     0
  9
$DIMTIH
 70
     1
  9
$DIMTOH
 70
     1
  9
$DIMSE1
 70
     0
  9
$DIMSE2
 70
     0
  9
$DIMTAD
 70
     1
  9
$DIMZIN
 70
     0
  9
$DIMBLK
  1

  9
$DIMASO
 70
     1
  9
$DIMSHO
 70
     1
  9
$DIMPOST
  1

  9
$DIMAPOST
  1

  9
$DIMALT
 70
     0
  9
$DIMALTD
 70
     3
  9
$DIMALTF
 40
0.0393700787
  9
$DIMLFAC
 40
1.0
  9
$DIMTOFL
 70
     1
  9
$DIMTVP
 40
0.0
  9
$DIMTIX
 70
     0
  9
$DIMSOXD
 70
     0
  9
$DIMSAH
 70
     0
  9
$DIMBLK1
  1

  9
$DIMBLK2
  1

  9
$DIMSTYLE
  2
ISO-25
  9
$DIMCLRD
 70
     0
  9
$DIMCLRE
 70
     0
  9
$DIMCLRT
 70
     0
  9
$DIMTFAC
 40
1.0
  9
$DIMGAP
 40
7.62
  9
$DIMJUST
 70
     0
  9
$DIMSD1
 70
     0
  9
$DIMSD2
 70
     0
  9
$DIMTOLJ
 70
     0
  9
$DIMTZIN
 70
     0
  9
$DIMALTZ
 70
     0
  9
$DIMALTTZ
 70
     0
  9
$DIMUPT
 70
     0
  9
$DIMDEC
 70
     2
  9
$DIMTDEC
 70
     2
  9
$DIMALTU
 70
     2
  9
$DIMALTTD
 70
     3
  9
$DIMTXSTY
  7
Standard
  9
$DIMAUNIT
 70
     0
  9
$DIMADEC
 70
     2
  9
$DIMALTRND
 40
0.0
  9
$DIMAZIN
 70
     0
  9
$DIMDSEP
 70
    44
  9
$DIMATFIT
 70
     3
  9
$DIMFRAC
 70
     0
  9
$DIMLDRBLK
  1

  9
$DIMLUNIT
 70
     2
  9
$DIMLWD
 70
    -2
  9
$DIMLWE
 70
    -2
  9
$DIMTMOVE
 70
     0
  9
$LUNITS
 70
     2
  9
$LUPREC
 70
     1
  9
$SKETCHINC
 40
1.0
  9
$FILLETRAD
 40
10.0
  9
$AUNITS
 70
     0
  9
$AUPREC
 70
     2
  9
$MENU
  1
.
  9
$ELEVATION
 40
0.0
  9
$PELEVATION
 40
0.0
  9
$THICKNESS
 40
0.0
  9
$LIMCHECK
 70
     0
  9
$CHAMFERA
 40
0.0
  9
$CHAMFERB
 40
0.0
  9
$CHAMFERC
 40
0.0
  9
$CHAMFERD
 40
0.0
  9
$SKPOLY
 70
     0
  9
$TDCREATE
 40
2458907.507582616
  9
$TDUCREATE
 40
2458907.278415949
  9
$TDUPDATE
 40
2458907.507585254
  9
$TDUUPDATE
 40
2458907.278418588
  9
$TDINDWG
 40
0.0000000116
  9
$TDUSRTIMER
 40
0.0000000116
  9
$USRTIMER
 70
     1
  9
$ANGBASE
 50
0.0
  9
$ANGDIR
 70
     0
  9
$PDMODE
 70
     0
  9
$PDSIZE
 40
-1.0
  9
$PLINEWID
 40
0.0
  9
$SPLFRAME
 70
     0
  9
$SPLINETYPE
 70
     6
  9
$SPLINESEGS
 70
     8
  9
$HANDSEED
  5
397
  9
$SURFTAB1
 70
     6
  9
$SURFTAB2
 70
     6
  9
$SURFTYPE
 70
     6
  9
$SURFU
 70
     6
  9
$SURFV
 70
     6
  9
$UCSBASE
  2

  9
$UCSNAME
  2

  9
$UCSORG
 10
0.0
 20
0.0
 30
0.0
  9
$UCSXDIR
 10
1.0
 20
0.0
 30
0.0
  9
$UCSYDIR
 10
0.0
 20
1.0
 30
0.0
  9
$UCSORTHOREF
  2

  9
$UCSORTHOVIEW
 70
     0
  9
$UCSORGTOP
 10
0.0
 20
0.0
 30
0.0
  9
$UCSORGBOTTOM
 10
0.0
 20
0.0
 30
0.0
  9
$UCSORGLEFT
 10
0.0
 20
0.0
 30
0.0
  9
$UCSORGRIGHT
 10
0.0
 20
0.0
 30
0.0
  9
$UCSORGFRONT
 10
0.0
 20
0.0
 30
0.0
  9
$UCSORGBACK
 10
0.0
 20
0.0
 30
0.0
  9
$PUCSBASE
  2

  9
$PUCSNAME
  2

  9
$PUCSORG
 10
0.0
 20
0.0
 30
0.0
  9
$PUCSXDIR
 10
1.0
 20
0.0
 30
0.0
  9
$PUCSYDIR
 10
0.0
 20
1.0
 30
0.0
  9
$PUCSORTHOREF
  2

  9
$PUCSORTHOVIEW
 70
     0
  9
$PUCSORGTOP
 10
0.0
 20
0.0
 30
0.0
  9
$PUCSORGBOTTOM
 10
0.0
 20
0.0
 30
0.0
  9
$PUCSORGLEFT
 10
0.0
 20
0.0
 30
0.0
  9
$PUCSORGRIGHT
 10
0.0
 20
0.0
 30
0.0
  9
$PUCSORGFRONT
 10
0.0
 20
0.0
 30
0.0
  9
$PUCSORGBACK
 10
0.0
 20
0.0
 30
0.0
  9
$USERI1
 70
     0
  9
$USERI2
 70
     0
  9
$USERI3
 70
     0
  9
$USERI4
 70
     0
  9
$USERI5
 70
     0
  9
$USERR1
 40
0.0
  9
$USERR2
 40
0.0
  9
$USERR3
 40
0.0
  9
$USERR4
 40
0.0
  9
$USERR5
 40
0.0
  9
$WORLDVIEW
 70
     1
  9
$SHADEDGE
 70
     3
  9
$SHADEDIF
 70
    70
  9
$TILEMODE
 70
     1
  9
$MAXACTVP
 70
    64
  9
$PINSBASE
 10
0.0
 20
0.0
 30
0.0
  9
$PLIMCHECK
 70
     0
  9
$PEXTMIN
 10
1.0000000000E+20
 20
1.0000000000E+20
 30
1.0000000000E+20
  9
$PEXTMAX
 10
-1.0000000000E+20
 20
-1.0000000000E+20
 30
-1.0000000000E+20
  9
$PLIMMIN
 10
0.0
 20
0.0
  9
$PLIMMAX
 10
420.0
 20
297.0
  9
$UNITMODE
 70
     0
  9
$VISRETAIN
 70
     1
  9
$PLINEGEN
 70
     0
  9
$PSLTSCALE
 70
     1
  9
$TREEDEPTH
 70
  3020
  9
$CMLSTYLE
  2
Standard
  9
$CMLJUST
 70
     0
  9
$CMLSCALE
 40
20.0
  9
$PROXYGRAPHICS
 70
     1
  9
$MEASUREMENT
 70
     1
  9
$CELWEIGHT
370
    -1
  9
$ENDCAPS
280
     0
  9
$JOINSTYLE
280
     0
  9
$LWDISPLAY
290
     1
  9
$INSUNITS
 70
     4
  9
$HYPERLINKBASE
  1

  9
$STYLESHEET
  1

  9
$XEDIT
290
     1
  9
$CEPSNTYPE
380
     0
  9
$PSTYLEMODE
290
     1
  9
$FINGERPRINTGUID
  2
{a9ba7a59-642f-4dde-bfd6-ba601208f451}
  9
$VERSIONGUID
  2
{FAEB1C32-E019-11D5-929B-00C0DF256EC4}
  9
$EXTNAMES
290
     1
  9
$PSVPSCALE
 40
0.0
  9
$OLESTARTUP
290
     0
  0
ENDSEC
  0
SECTION
  2
CLASSES
  0
CLASS
  1
ACDBDICTIONARYWDFLT
  2
AcDbDictionaryWithDefault
  3
ObjectDBX Classes
 90
        0
280
     0
281
     0
  0
CLASS
  1
VISUALSTYLE
  2
AcDbVisualStyle
  3
ObjectDBX Classes
 90
     4095
280
     0
281
     0
  0
CLASS
  1
MATERIAL
  2
AcDbMaterial
  3
ObjectDBX Classes
 90
     1153
280
     0
281
     0
  0
CLASS
  1
SCALE
  2
AcDbScale
  3
ObjectDBX Classes
 90
     1153
280
     0
281
     0
  0
CLASS
  1
TABLESTYLE
  2
AcDbTableStyle
  3
ObjectDBX Classes
 90
     4095
280
     0
281
     0
  0
CLASS
  1
MLEADERSTYLE
  2
AcDbMLeaderStyle
  3
ACDB_MLEADERSTYLE_CLASS
 90
     4095
280
     0
281
     0
  0
CLASS
  1
SUN
  2
AcDbSun
  3
SCENEOE
 90
     1153
280
     0
281
     0
  0
CLASS
  1
ACDBPLACEHOLDER
  2
AcDbPlaceHolder
  3
ObjectDBX Classes
 90
        0
280
     0
281
     0
  0
CLASS
  1
LAYOUT
  2
AcDbLayout
  3
ObjectDBX Classes
 90
        0
280
     0
281
     0
  0
ENDSEC
  0
SECTION
  2
TABLES
  0
TABLE
  2
VPORT
  5
8
330
0
100
AcDbSymbolTable
 70
     1
  0
VPORT
  5
29
330
8
100
AcDbSymbolTableRecord
100
AcDbViewportTableRecord
  2
*Active
 70
     0
 10
0.0
 20
0.0
 11
1.0
 21
1.0
 12
1050.0
 22
742.5
 13
0.0
 23
0.0
 14
10.0
 24
10.0
 15
10.0
 25
10.0
 16
0.0
 26
0.0
 36
1.0
 17
0.0
 27
0.0
 37
0.0
 40
1485.0
 41
1.4141414141
 42
50.0
 43
0.0
 44
0.0
 50
0.0
 51
0.0
 71
     0
 72
  2000
 73
     1
 74
     3
 75
     0
 76
     0
 77
     0
 78
     0
281
     0
 65
     1
110
0.0
120
0.0
130
0.0
111
1.0
121
0.0
131
0.0
112
0.0
122
1.0
132
0.0
 79
     0
146
0.0
  0
ENDTAB
  0
TABLE
  2
LTYPE
  5
5
330
0
100
AcDbSymbolTable
 70
     6
  0
LTYPE
  5
14
330
5
100
AcDbSymbolTableRecord
100
AcDbLinetypeTableRecord
  2
ByBlock
 70
     0
  3

 72
    65
 73
     0
 40
0.0
  0
LTYPE
  5
15
330
5
100
AcDbSymbolTableRecord
100
AcDbLinetypeTableRecord
  2
ByLayer
 70
     0
  3

 72
    65
 73
     0
 40
0.0
  0
LTYPE
  5
16
330
5
100
AcDbSymbolTableRecord
100
AcDbLinetypeTableRecord
  2
Continuous
 70
     0
  3
Solid line
 72
    65
 73
     0
 40
0.0
  0
LTYPE
  5
6E
330
5
100
AcDbSymbolTableRecord
100
AcDbLinetypeTableRecord
  2
HIDDEN
 70
     0
  3
Hidden __ __ __ __ __ __ __ __ __ __ __ __ __ __
 72
    65
 73
     2
 40
1.905
 49
1.27
 74
     0
 49
-0.635
 74
     0
  0
LTYPE
  5
6F
330
5
100
AcDbSymbolTableRecord
100
AcDbLinetypeTableRecord
  2
PHANTOM
 70
     0
  3
Phantom ______  __  __  ______  __  __  ______
 72
    65
 73
     6
 40
12.7
 49
6.35
 74
     0
 49
-1.27
 74
     0
 49
1.27
 74
     0
 49
-1.27
 74
     0
 49
1.27
 74
     0
 49
-1.27
 74
     0
  0
LTYPE
  5
70
330
5
100
AcDbSymbolTableRecord
100
AcDbLinetypeTableRecord
  2
CENTER
 70
     0
  3
Center ____ _ ____ _ ____ _ ____ _ ____ _ ____
 72
    65
 73
     4
 40
10.16
 49
6.35
 74
     0
 49
-1.27
 74
     0
 49
1.27
 74
     0
 49
-1.27
 74
     0
  0
LTYPE
  5
71
330
5
100
AcDbSymbolTableRecord
100
AcDbLinetypeTableRecord
  2
CENTERX2
 70
     0
  3
Center (2x) ________  __  ________  __  _____
 72
    65
 73
     4
 40
20.32
 49
12.7
 74
     0
 49
-2.54
 74
     0
 49
2.54
 74
     0
 49
-2.54
 74
     0
  0
LTYPE
  5
72
330
5
100
AcDbSymbolTableRecord
100
AcDbLinetypeTableRecord
  2
DOT2
 70
     0
  3
Dot (.5x) ........................................
 72
    65
 73
     2
 40
0.635
 49
0.0
 74
     0
 49
-0.635
 74
     0
  0
ENDTAB
  0
TABLE
  2
LAYER
  5
2
330
0
100
AcDbSymbolTable
 70
    10
  0
LAYER
  5
10
330
2
100
AcDbSymbolTableRecord
100
AcDbLayerTableRecord
  2
0
 70
     0
 62
     7
  6
Continuous
370
    -3
390
F
  0
LAYER
  5
73
330
2
100
AcDbSymbolTableRecord
100
AcDbLayerTableRecord
  2
DIMENSION
 70
     0
 62
     7
  6
Continuous
370
    -3
390
F
  0
LAYER
  5
74
330
2
100
AcDbSymbolTableRecord
100
AcDbLayerTableRecord
  2
NOTES
 70
     0
 62
     7
  6
Continuous
370
    -3
390
F
  0
LAYER
  5
75
330
2
100
AcDbSymbolTableRecord
100
AcDbLayerTableRecord
  2
TABLES
 70
     0
 62
     7
  6
Continuous
370
    -3
390
F
  0
LAYER
  5
76
330
2
100
AcDbSymbolTableRecord
100
AcDbLayerTableRecord
  2
INVISIBLE
 70
     0
 62
    -7
  6
Continuous
290
     0
370
    -3
390
F
  0
LAYER
  5
77
330
2
100
AcDbSymbolTableRecord
100
AcDbLayerTableRecord
  2
WEP
 70
     0
 62
  -150
  6
Continuous
290
     0
370
    -3
390
F
  0
LAYER
  5
78
330
2
100
AcDbSymbolTableRecord
100
AcDbLayerTableRecord
  2
EMP
 70
     0
 62
     1
  6
Continuous
370
    -3
390
F
  0
LAYER
  5
79
330
2
100
AcDbSymbolTableRecord
100
AcDbLayerTableRecord
  2
MARKETING_DRW
 70
     0
 62
    -7
  6
Continuous
290
     0
370
    -3
390
F
  0
LAYER
  5
7A
330
2
100
AcDbSymbolTableRecord
100
AcDbLayerTableRecord
  2
SINGLE_ARTICLE_DRW
 70
     0
 62
     7
  6
Continuous
370
    -3
390
F
  0
LAYER
  5
7B
330
2
100
AcDbSymbolTableRecord
100
AcDbLayerTableRecord
  2
TABLE_DRW
 70
     0
 62
    -7
  6
Continuous
290
     0
370
    -3
390
F
  0
ENDTAB
  0
TABLE
  2
STYLE
  5
3
330
0
100
AcDbSymbolTable
 70
     2
  0
STYLE
  5
11
330
3
100
AcDbSymbolTableRecord
100
AcDbTextStyleTableRecord
  2
Standard
 70
     0
 40
0.0
 41
1.0
 50
0.0
 71
     0
 42
12.5
  3
txt
  4

  0
STYLE
  5
B5
330
3
100
AcDbSymbolTableRecord
100
AcDbTextStyleTableRecord
  2
SLDTEXTSTYLE0
 70
     0
 40
0.0
 41
0.605
 50
0.0
 71
     0
 42
12.5
  3
TXT
  4

  0
ENDTAB
  0
TABLE
  2
VIEW
  5
6
330
0
100
AcDbSymbolTable
 70
     0
  0
ENDTAB
  0
TABLE
  2
UCS
  5
7
330
0
100
AcDbSymbolTable
 70
     0
  0
ENDTAB
  0
TABLE
  2
APPID
  5
9
330
0
100
AcDbSymbolTable
 70
     1
  0
APPID
  5
12
330
9
100
AcDbSymbolTableRecord
100
AcDbRegAppTableRecord
  2
ACAD
 70
     0
  0
ENDTAB
  0
TABLE
  2
DIMSTYLE
  5
A
330
0
100
AcDbSymbolTable
 70
     1
100
AcDbDimStyleTable
  0
DIMSTYLE
105
27
330
A
100
AcDbSymbolTableRecord
100
AcDbDimStyleTableRecord
  2
ISO-25
 70
     0
 41
2.5
 42
0.625
 43
3.75
 44
1.25
 73
     0
 74
     0
 77
     1
 78
     8
140
2.5
141
2.5
143
0.0393700787
147
0.625
171
     3
172
     1
178
     0
271
     2
272
     2
274
     3
278
    44
283
     0
284
     8
340
11
  0
ENDTAB
  0
TABLE
  2
BLOCK_RECORD
  5
1
330
0
100
AcDbSymbolTable
 70
     3
  0
BLOCK_RECORD
  5
1F
330
1
100
AcDbSymbolTableRecord
100
AcDbBlockTableRecord
  2
*Model_Space
340
22
  0
BLOCK_RECORD
  5
1B
330
1
100
AcDbSymbolTableRecord
100
AcDbBlockTableRecord
  2
*Paper_Space
340
1E
  0
BLOCK_RECORD
  5
23
330
1
100
AcDbSymbolTableRecord
100
AcDbBlockTableRecord
  2
*Paper_Space0
340
26
  0
BLOCK_RECORD
  5
BF
330
1
100
AcDbSymbolTableRecord
100
AcDbBlockTableRecord
  2
SW_NOTE_0
340
0
102
{BLKREFS
331
C5
102
}
  0
BLOCK_RECORD
  5
E8
330
1
100
AcDbSymbolTableRecord
100
AcDbBlockTableRecord
  2
SW_NOTE_0_1
340
0
102
{BLKREFS
331
EE
102
}
  0
ENDTAB
  0
ENDSEC
  0
SECTION
  2
BLOCKS
  0
BLOCK
  5
20
330
1F
100
AcDbEntity
  8
0
100
AcDbBlockBegin
  2
*Model_Space
 70
     0
 10
0.0
 20
0.0
 30
0.0
  3
*Model_Space
  1

  0
ENDBLK
  5
21
330
1F
100
AcDbEntity
  8
0
100
AcDbBlockEnd
  0
BLOCK
  5
1C
330
1B
100
AcDbEntity
 67
     1
  8
0
100
AcDbBlockBegin
  2
*Paper_Space
 70
     0
 10
0.0
 20
0.0
 30
0.0
  3
*Paper_Space
  1

  0
ENDBLK
  5
1D
330
1B
100
AcDbEntity
 67
     1
  8
0
100
AcDbBlockEnd
  0
BLOCK
  5
24
330
23
100
AcDbEntity
  8
0
100
AcDbBlockBegin
  2
*Paper_Space0
 70
     0
 10
0.0
 20
0.0
 30
0.0
  3
*Paper_Space0
  1

  0
ENDBLK
  5
25
330
23
100
AcDbEntity
  8
0
100
AcDbBlockEnd
  0
BLOCK
  5
C0
330
BF
100
AcDbEntity
  8
0
100
AcDbBlockBegin
  2
SW_NOTE_0
 70
     0
 10
0.0
 20
0.0
 30
0.0
  3
SW_NOTE_0
  1

  0
MTEXT
  5
C2
330
BF
100
AcDbEntity
  8
TABLE_DRW
 62
     0
100
AcDbMText
 10
0.0
 20
11.6016096579
 30
0.0
 40
9.0
 41
0.0
 71
     1
 72
     1
  1
The reproduction, distribution and utilization of this document as well as the communication of its contents to
  7
SLDTEXTSTYLE0
 73
     1
 44
1.0
  0
MTEXT
  5
C3
330
BF
100
AcDbEntity
  8
TABLE_DRW
 62
     0
100
AcDbMText
 10
0.0
 20
0.0016098055
 30
0.0
 40
9.0
 41
0.0
 71
     1
 72
     1
  1
others without express authorization is prohibited. Offenders will be held liable for the payment of damages.
  7
SLDTEXTSTYLE0
 73
     1
 44
1.0
  0
MTEXT
  5
C4
330
BF
100
AcDbEntity
  8
TABLE_DRW
 62
     0
100
AcDbMText
 10
0.0
 20
-11.598390047
 30
0.0
 40
9.0
 41
0.0
 71
     1
 72
     1
  1
All rights reserved in the event of the grant of a patent, utility model or design. Observe copyright by ISO 16016
  7
SLDTEXTSTYLE0
 73
     1
 44
1.0
  0
ENDBLK
  5
C1
330
BF
100
AcDbEntity
  8
0
100
AcDbBlockEnd
  0
BLOCK
  5
E9
330
E8
100
AcDbEntity
  8
0
100
AcDbBlockBegin
  2
SW_NOTE_0_1
 70
     0
 10
0.0
 20
0.0
 30
0.0
  3
SW_NOTE_0_1
  1

  0
MTEXT
  5
EB
330
E8
100
AcDbEntity
  8
MARKETING_DRW
 62
     0
100
AcDbMText
 10
0.0
 20
11.6016096579
 30
0.0
 40
9.0
 41
0.0
 71
     1
 72
     1
  1
The reproduction, distribution and utilization of this document as well as the communication of its contents to
  7
SLDTEXTSTYLE0
 73
     1
 44
1.0
  0
MTEXT
  5
EC
330
E8
100
AcDbEntity
  8
MARKETING_DRW
 62
     0
100
AcDbMText
 10
0.0
 20
-0.0233903849
 30
0.0
 40
9.0
 41
0.0
 71
     1
 72
     1
  1
others without express authorization is prohibited. Offenders will be held liable for the payment of damages.
  7
SLDTEXTSTYLE0
 73
     1
 44
1.0
  0
MTEXT
  5
ED
330
E8
100
AcDbEntity
  8
MARKETING_DRW
 62
     0
100
AcDbMText
 10
0.0
 20
-11.6483904277
 30
0.0
 40
9.0
 41
0.0
 71
     1
 72
     1
  1
All rights reserved in the event of the grant of a patent, utility model or design. Observe copyright by ISO 16016
  7
SLDTEXTSTYLE0
 73
     1
 44
1.0
  0
ENDBLK
  5
EA
330
E8
100
AcDbEntity
  8
0
100
AcDbBlockEnd
  0
ENDSEC
  0
SECTION
  2
ENTITIES
  0
LINE
  5
7C
330
1F
100
AcDbEntity
  8
TABLE_DRW
  6
CENTERX2
 62
     7
100
AcDbLine
 10
1955.0
 20
200.0
 30
0.0
 11
1980.0
 21
200.0
 31
0.0
  0
LINE
  5
7D
330
1F
100
AcDbEntity
  8
TABLE_DRW
  6
CENTERX2
 62
     7
100
AcDbLine
 10
1967.5
 20
212.5
 30
0.0
 11
1967.5
 21
187.5
 31
0.0
  0
LINE
  5
7E
330
1F
100
AcDbEntity
  8
TABLE_DRW
  6
CENTERX2
 62
     7
100
AcDbLine
 10
1915.0
 20
200.0
 30
0.0
 11
1950.0
 21
200.0
 31
0.0
  0
LINE
  5
7F
330
1F
100
AcDbEntity
  8
TABLE_DRW
 62
     7
100
AcDbLine
 10
1920.0
 20
194.95
 30
0.0
 11
1945.0
 21
190.0
 31
0.0
  0
LINE
  5
80
330
1F
100
AcDbEntity
  8
TABLE_DRW
 62
     7
100
AcDbLine
 10
1920.0
 20
205.05
 30
0.0
 11
1920.0
 21
194.95
 31
0.0
  0
LINE
  5
81
330
1F
100
AcDbEntity
  8
TABLE_DRW
 62
     7
100
AcDbLine
 10
1945.0
 20
210.0
 30
0.0
 11
1920.0
 21
205.05
 31
0.0
  0
LINE
  5
82
330
1F
100
AcDbEntity
  8
TABLE_DRW
 62
     7
100
AcDbLine
 10
1945.0
 20
190.0
 30
0.0
 11
1945.0
 21
210.0
 31
0.0
  0
LINE
  5
83
330
1F
100
AcDbEntity
  8
TABLE_DRW
 62
     7
100
AcDbLine
 10
2050.0
 20
50.0
 30
0.0
 11
2050.0
 21
340.0
 31
0.0
  0
LINE
  5
84
330
1F
100
AcDbEntity
  8
TABLE_DRW
 62
     7
100
AcDbLine
 10
1150.0
 20
340.0
 30
0.0
 11
1150.0
 21
50.0
 31
0.0
  0
LINE
  5
85
330
1F
100
AcDbEntity
  8
TABLE_DRW
 62
     7
100
AcDbLine
 10
1700.0
 20
95.0
 30
0.0
 11
1700.0
 21
50.0
 31
0.0
  0
LINE
  5
86
330
1F
100
AcDbEntity
  8
TABLE_DRW
 62
     7
100
AcDbLine
 10
1850.0
 20
50.0
 30
0.0
 11
1850.0
 21
95.0
 31
0.0
  0
LINE
  5
87
330
1F
100
AcDbEntity
  8
TABLE_DRW
 62
     7
100
AcDbLine
 10
2000.0
 20
95.0
 30
0.0
 11
2000.0
 21
50.0
 31
0.0
  0
LINE
  5
88
330
1F
100
AcDbEntity
  8
TABLE_DRW
 62
     7
100
AcDbLine
 10
1900.0
 20
320.0
 30
0.0
 11
1900.0
 21
185.0
 31
0.0
  0
LINE
  5
89
330
1F
100
AcDbEntity
  8
TABLE_DRW
 62
     7
100
AcDbLine
 10
2050.0
 20
320.0
 30
0.0
 11
1150.0
 21
320.0
 31
0.0
  0
LINE
  5
8A
330
1F
100
AcDbEntity
  8
TABLE_DRW
 62
     7
100
AcDbLine
 10
1800.0
 20
95.0
 30
0.0
 11
1800.0
 21
50.0
 31
0.0
  0
LINE
  5
8B
330
1F
100
AcDbEntity
  8
TABLE_DRW
 62
     7
100
AcDbLine
 10
2050.0
 20
275.0
 30
0.0
 11
1400.0
 21
275.0
 31
0.0
  0
LINE
  5
8C
330
1F
100
AcDbEntity
  8
TABLE_DRW
 62
     7
100
AcDbLine
 10
1650.0
 20
230.0
 30
0.0
 11
1650.0
 21
185.0
 31
0.0
  0
LINE
  5
8D
330
1F
100
AcDbEntity
  8
TABLE_DRW
 62
     7
100
AcDbLine
 10
2050.0
 20
230.0
 30
0.0
 11
1400.0
 21
230.0
 31
0.0
  0
LINE
  5
8E
330
1F
100
AcDbEntity
  8
TABLE_DRW
 62
     7
100
AcDbLine
 10
1400.0
 20
320.0
 30
0.0
 11
1400.0
 21
185.0
 31
0.0
  0
LINE
  5
8F
330
1F
100
AcDbEntity
  8
TABLE_DRW
 62
     7
100
AcDbLine
 10
2000.0
 20
230.0
 30
0.0
 11
2000.0
 21
185.0
 31
0.0
  0
LINE
  5
90
330
1F
100
AcDbEntity
  8
TABLE_DRW
 62
     7
100
AcDbLine
 10
2050.0
 20
95.0
 30
0.0
 11
1150.0
 21
95.0
 31
0.0
  0
LINE
  5
91
330
1F
100
AcDbEntity
  8
TABLE_DRW
 62
     7
100
AcDbLine
 10
1650.0
 20
275.0
 30
0.0
 11
1650.0
 21
320.0
 31
0.0
  0
LINE
  5
92
330
1F
100
AcDbEntity
  8
TABLE_DRW
 62
     7
100
AcDbLine
 10
1150.0
 20
340.0
 30
0.0
 11
2050.0
 21
340.0
 31
0.0
  0
LINE
  5
93
330
1F
100
AcDbEntity
  8
TABLE_DRW
 62
     7
100
AcDbLine
 10
1150.0
 20
185.0
 30
0.0
 11
2050.0
 21
185.0
 31
0.0
  0
LINE
  5
94
330
1F
100
AcDbEntity
  8
TABLE_DRW
 62
     7
100
AcDbLine
 10
1150.0
 20
50.0
 30
0.0
 11
2050.0
 21
50.0
 31
0.0
  0
LINE
  5
95
330
1F
100
AcDbEntity
  8
TABLE_DRW
 62
     7
100
AcDbLine
 10
1400.0
 20
275.0
 30
0.0
 11
1150.0
 21
275.0
 31
0.0
  0
LINE
  5
96
330
1F
100
AcDbEntity
  8
MARKETING_DRW
  6
CENTERX2
100
AcDbLine
 10
1955.0
 20
200.0
 30
0.0
 11
1980.0
 21
200.0
 31
0.0
  0
LINE
  5
97
330
1F
100
AcDbEntity
  8
MARKETING_DRW
  6
CENTERX2
100
AcDbLine
 10
1967.5
 20
212.5
 30
0.0
 11
1967.5
 21
187.5
 31
0.0
  0
LINE
  5
98
330
1F
100
AcDbEntity
  8
MARKETING_DRW
  6
CENTERX2
100
AcDbLine
 10
1915.0
 20
200.0
 30
0.0
 11
1950.0
 21
200.0
 31
0.0
  0
LINE
  5
99
330
1F
100
AcDbEntity
  8
MARKETING_DRW
100
AcDbLine
 10
1920.0
 20
194.95
 30
0.0
 11
1945.0
 21
190.0
 31
0.0
  0
LINE
  5
9A
330
1F
100
AcDbEntity
  8
MARKETING_DRW
100
AcDbLine
 10
1920.0
 20
205.05
 30
0.0
 11
1920.0
 21
194.95
 31
0.0
  0
LINE
  5
9B
330
1F
100
AcDbEntity
  8
MARKETING_DRW
100
AcDbLine
 10
1945.0
 20
210.0
 30
0.0
 11
1920.0
 21
205.05
 31
0.0
  0
LINE
  5
9C
330
1F
100
AcDbEntity
  8
MARKETING_DRW
100
AcDbLine
 10
1945.0
 20
190.0
 30
0.0
 11
1945.0
 21
210.0
 31
0.0
  0
LINE
  5
9D
330
1F
100
AcDbEntity
  8
MARKETING_DRW
100
AcDbLine
 10
2050.0
 20
50.0
 30
0.0
 11
2050.0
 21
230.0
 31
0.0
  0
LINE
  5
9E
330
1F
100
AcDbEntity
  8
MARKETING_DRW
100
AcDbLine
 10
1150.0
 20
50.0
 30
0.0
 11
2050.0
 21
50.0
 31
0.0
  0
LINE
  5
9F
330
1F
100
AcDbEntity
  8
MARKETING_DRW
100
AcDbLine
 10
1150.0
 20
275.0
 30
0.0
 11
1150.0
 21
50.0
 31
0.0
  0
LINE
  5
A0
330
1F
100
AcDbEntity
  8
MARKETING_DRW
100
AcDbLine
 10
1150.0
 20
275.0
 30
0.0
 11
1650.0
 21
275.0
 31
0.0
  0
LINE
  5
A1
330
1F
100
AcDbEntity
  8
MARKETING_DRW
 62
     7
100
AcDbLine
 10
1850.0
 20
50.0
 30
0.0
 11
1850.0
 21
95.0
 31
0.0
  0
LINE
  5
A2
330
1F
100
AcDbEntity
  8
MARKETING_DRW
100
AcDbLine
 10
2000.0
 20
95.0
 30
0.0
 11
2000.0
 21
50.0
 31
0.0
  0
LINE
  5
A3
330
1F
100
AcDbEntity
  8
MARKETING_DRW
100
AcDbLine
 10
1650.0
 20
275.0
 30
0.0
 11
1650.0
 21
230.0
 31
0.0
  0
LINE
  5
A4
330
1F
100
AcDbEntity
  8
MARKETING_DRW
100
AcDbLine
 10
2050.0
 20
230.0
 30
0.0
 11
1400.0
 21
230.0
 31
0.0
  0
LINE
  5
A5
330
1F
100
AcDbEntity
  8
MARKETING_DRW
100
AcDbLine
 10
1400.0
 20
275.0
 30
0.0
 11
1400.0
 21
185.0
 31
0.0
  0
LINE
  5
A6
330
1F
100
AcDbEntity
  8
MARKETING_DRW
100
AcDbLine
 10
2000.0
 20
230.0
 30
0.0
 11
2000.0
 21
185.0
 31
0.0
  0
LINE
  5
A7
330
1F
100
AcDbEntity
  8
MARKETING_DRW
100
AcDbLine
 10
2050.0
 20
95.0
 30
0.0
 11
1150.0
 21
95.0
 31
0.0
  0
LINE
  5
A8
330
1F
100
AcDbEntity
  8
MARKETING_DRW
100
AcDbLine
 10
1150.0
 20
185.0
 30
0.0
 11
2050.0
 21
185.0
 31
0.0
  0
LINE
  5
A9
330
1F
100
AcDbEntity
  8
MARKETING_DRW
100
AcDbLine
 10
1150.0
 20
50.0
 30
0.0
 11
2050.0
 21
50.0
 31
0.0
  0
LINE
  5
AA
330
1F
100
AcDbEntity
  8
MARKETING_DRW
100
AcDbLine
 10
1900.0
 20
230.0
 30
0.0
 11
1900.0
 21
185.0
 31
0.0
  0
LINE
  5
AB
330
1F
100
AcDbEntity
  8
MARKETING_DRW
100
AcDbLine
 10
1650.0
 20
275.0
 30
0.0
 11
1900.0
 21
275.0
 31
0.0
  0
LINE
  5
AC
330
1F
100
AcDbEntity
  8
MARKETING_DRW
100
AcDbLine
 10
1900.0
 20
275.0
 30
0.0
 11
1900.0
 21
230.0
 31
0.0
  0
LINE
  5
AD
330
1F
100
AcDbEntity
  8
MARKETING_DRW
100
AcDbLine
 10
1900.0
 20
275.0
 30
0.0
 11
2050.0
 21
275.0
 31
0.0
  0
LINE
  5
AE
330
1F
100
AcDbEntity
  8
MARKETING_DRW
100
AcDbLine
 10
2050.0
 20
275.0
 30
0.0
 11
2050.0
 21
230.0
 31
0.0
  0
LINE
  5
AF
330
1F
100
AcDbEntity
  8
MARKETING_DRW
100
AcDbLine
 10
1825.0
 20
275.0
 30
0.0
 11
1825.0
 21
230.0
 31
0.0
  0
LINE
  5
B0
330
1F
100
AcDbEntity
  8
MARKETING_DRW
100
AcDbLine
 10
1650.0
 20
230.0
 30
0.0
 11
1650.0
 21
185.0
 31
0.0
  0
CIRCLE
  5
B1
330
1F
100
AcDbEntity
  8
TABLE_DRW
 62
     7
100
AcDbCircle
 10
1967.5
 20
200.0
 30
0.0
 40
5.000000000000224
  0
CIRCLE
  5
B2
330
1F
100
AcDbEntity
  8
TABLE_DRW
 62
     7
100
AcDbCircle
 10
1967.5
 20
200.0
 30
0.0
 40
10.00000000000024
  0
CIRCLE
  5
B3
330
1F
100
AcDbEntity
  8
MARKETING_DRW
100
AcDbCircle
 10
1967.5
 20
200.0
 30
0.0
 40
5.000000000000224
  0
CIRCLE
  5
B4
330
1F
100
AcDbEntity
  8
MARKETING_DRW
100
AcDbCircle
 10
1967.5
 20
200.0
 30
0.0
 40
10.00000000000024
  0
MTEXT
  5
B6
330
1F
100
AcDbEntity
  8
TABLE_DRW
100
AcDbMText
 10
1905.0
 20
294.9675136777
 30
0.0
 40
12.5
 41
0.0
 71
     1
 72
     1
  1
see table
  7
SLDTEXTSTYLE0
 73
     1
 44
1.0
  0
MTEXT
  5
B7
330
1F
100
AcDbEntity
  8
TABLE_DRW
100
AcDbMText
 10
1155.0
 20
334.9766099061
 30
0.0
 40
9.0
 41
0.0
 71
     1
 72
     1
  1
modification:
  7
SLDTEXTSTYLE0
 73
     1
 44
1.0
  0
MTEXT
  5
B8
330
1F
100
AcDbEntity
  8
TABLE_DRW
100
AcDbMText
 10
1405.0
 20
249.9675136777
 30
0.0
 40
12.5
 41
0.0
 71
     1
 72
     1
  1
see table
  7
SLDTEXTSTYLE0
 73
     1
 44
1.0
  0
MTEXT
  5
B9
330
1F
100
AcDbEntity
  8
TABLE_DRW
100
AcDbMText
 10
1155.0
 20
159.9675136777
 30
0.0
 40
12.5
 41
0.0
 71
     1
 72
     1
  1
ACO ShowerDrain
  7
SLDTEXTSTYLE0
 73
     1
 44
1.0
  0
MTEXT
  5
BA
330
1F
100
AcDbEntity
  8
TABLE_DRW
100
AcDbMText
 10
1824.7395830229
 20
69.9675136777
 30
0.0
 40
12.5
 41
0.0
 71
     2
 72
     1
  1
001
  7
SLDTEXTSTYLE0
 73
     1
 44
1.0
  0
MTEXT
  5
BB
330
1F
100
AcDbEntity
  8
TABLE_DRW
100
AcDbMText
 10
1749.0407964215
 20
69.9675136777
 30
0.0
 40
12.5
 41
0.0
 71
     2
 72
     1
  1
1088280-O
  7
SLDTEXTSTYLE0
 73
     1
 44
1.0
  0
MTEXT
  5
BC
330
1F
100
AcDbEntity
  8
TABLE_DRW
100
AcDbMText
 10
1155.0
 20
295.0022357116
 30
0.0
 40
12.5
 41
0.0
 71
     1
 72
     1
  1
Bohms, Michael
  7
SLDTEXTSTYLE0
 73
     1
 44
1.0
  0
MTEXT
  5
BD
330
1F
100
AcDbEntity
  8
TABLE_DRW
100
AcDbMText
 10
1155.0
 20
137.4675136777
 30
0.0
 40
12.5
 41
0.0
 71
     1
 72
     1
  1
ASM Shower Channel C with WA and gap, with DN40 side outlet, with FAT GV25 L780, International
  7
SLDTEXTSTYLE0
 73
     1
 44
1.0
  0
MTEXT
  5
BE
330
1F
100
AcDbEntity
  8
TABLE_DRW
100
AcDbMText
 10
1155.0
 20
114.9675136777
 30
0.0
 40
12.5
 41
0.0
 71
     1
 72
     1
  1
ZB Duschrinne C mit Spalt, mit Wandaufkantung, mit DN40 Seite Auslass, mit FAT GV25 L780, International
  7
SLDTEXTSTYLE0
 73
     1
 44
1.0
  0
INSERT
  5
C5
330
1F
100
AcDbEntity
  8
TABLE_DRW
100
AcDbBlockReference
  2
SW_NOTE_0
 10
1155.0
 20
78.4000001475
 30
0.0
  0
MTEXT
  5
C6
330
1F
100
AcDbEntity
  8
TABLE_DRW
100
AcDbMText
 10
1405.0
 20
224.9766099061
 30
0.0
 40
9.0
 41
0.0
 71
     1
 72
     1
  1
created by:
  7
SLDTEXTSTYLE0
 73
     1
 44
1.0
  0
MTEXT
  5
C7
330
1F
100
AcDbEntity
  8
TABLE_DRW
100
AcDbMText
 10
1655.0
 20
314.9766099061
 30
0.0
 40
9.0
 41
0.0
 71
     1
 72
     1
  1
surface:
  7
SLDTEXTSTYLE0
 73
     1
 44
1.0
  0
MTEXT
  5
C8
330
1F
100
AcDbEntity
  8
TABLE_DRW
100
AcDbMText
 10
2024.8750000875
 20
224.9766099061
 30
0.0
 40
9.0
 41
0.0
 71
     2
 72
     1
  1
scale:
  7
SLDTEXTSTYLE0
 73
     1
 44
1.0
  0
MTEXT
  5
C9
330
1F
100
AcDbEntity
  8
TABLE_DRW
100
AcDbMText
 10
1905.0
 20
314.9766099061
 30
0.0
 40
9.0
 41
0.0
 71
     1
 72
     1
  1
weight:
  7
SLDTEXTSTYLE0
 73
     1
 44
1.0
  0
MTEXT
  5
CA
330
1F
100
AcDbEntity
  8
TABLE_DRW
100
AcDbMText
 10
1749.034373872
 20
89.9766099061
 30
0.0
 40
9.0
 41
0.0
 71
     2
 72
     1
  1
drawing-no.:
  7
SLDTEXTSTYLE0
 73
     1
 44
1.0
  0
MTEXT
  5
CB
330
1F
100
AcDbEntity
  8
TABLE_DRW
100
AcDbMText
 10
1905.0
 20
269.9766099061
 30
0.0
 40
9.0
 41
0.0
 71
     1
 72
     1
  1
documenttype:
  7
SLDTEXTSTYLE0
 73
     1
 44
1.0
  0
MTEXT
  5
CC
330
1F
100
AcDbEntity
  8
TABLE_DRW
100
AcDbMText
 10
1824.8125000894
 20
89.9766099061
 30
0.0
 40
9.0
 41
0.0
 71
     2
 72
     1
  1
index:
  7
SLDTEXTSTYLE0
 73
     1
 44
1.0
  0
MTEXT
  5
CD
330
1F
100
AcDbEntity
  8
TABLE_DRW
100
AcDbMText
 10
1655.0
 20
224.9766099061
 30
0.0
 40
9.0
 41
0.0
 71
     1
 72
     1
  1
reviewed by:
  7
SLDTEXTSTYLE0
 73
     1
 44
1.0
  0
MTEXT
  5
CE
330
1F
100
AcDbEntity
  8
TABLE_DRW
100
AcDbMText
 10
1855.0
 20
89.9766099061
 30
0.0
 40
9.0
 41
0.0
 71
     1
 72
     1
  1
release date:
  7
SLDTEXTSTYLE0
 73
     1
 44
1.0
  0
MTEXT
  5
CF
330
1F
100
AcDbEntity
  8
TABLE_DRW
100
AcDbMText
 10
2024.7500000913
 20
89.9766099061
 30
0.0
 40
9.0
 41
0.0
 71
     2
 72
     1
  1
sheet:
  7
SLDTEXTSTYLE0
 73
     1
 44
1.0
  0
MTEXT
  5
D0
330
1F
100
AcDbEntity
  8
TABLE_DRW
100
AcDbMText
 10
1905.0
 20
224.9766099061
 30
0.0
 40
9.0
 41
0.0
 71
     1
 72
     1
  1
projection:ISO-E
  7
SLDTEXTSTYLE0
 73
     1
 44
1.0
  0
MTEXT
  5
D1
330
1F
100
AcDbEntity
  8
TABLE_DRW
100
AcDbMText
 10
1405.0
 20
269.9766099061
 30
0.0
 40
9.0
 41
0.0
 71
     1
 72
     1
  1
material:
  7
SLDTEXTSTYLE0
 73
     1
 44
1.0
  0
MTEXT
  5
D2
330
1F
100
AcDbEntity
  8
TABLE_DRW
100
AcDbMText
 10
1905.0
 20
249.9675136777
 30
0.0
 40
12.5
 41
0.0
 71
     1
 72
     1
  1
production drw.
  7
SLDTEXTSTYLE0
 73
     1
 44
1.0
  0
MTEXT
  5
D3
330
1F
100
AcDbEntity
  8
TABLE_DRW
100
AcDbMText
 10
1405.0
 20
314.9766099061
 30
0.0
 40
9.0
 41
0.0
 71
     1
 72
     1
  1
general tolerance:
  7
SLDTEXTSTYLE0
 73
     1
 44
1.0
  0
MTEXT
  5
D4
330
1F
100
AcDbEntity
  8
TABLE_DRW
100
AcDbMText
 10
2024.7829862405
 20
204.9675136777
 30
0.0
 40
12.5
 41
0.0
 71
     2
 72
     1
  1
1:5
  7
SLDTEXTSTYLE0
 73
     1
 44
1.0
  0
MTEXT
  5
D5
330
1F
100
AcDbEntity
  8
TABLE_DRW
100
AcDbMText
 10
2024.7829862405
 20
69.9675136777
 30
0.0
 40
12.5
 41
0.0
 71
     2
 72
     1
  1
1/1
  7
SLDTEXTSTYLE0
 73
     1
 44
1.0
  0
MTEXT
  5
D6
330
1F
100
AcDbEntity
  8
TABLE_DRW
100
AcDbMText
 10
1155.0
 20
314.9766099061
 30
0.0
 40
9.0
 41
0.0
 71
     1
 72
     1
  1
technical reference:
  7
SLDTEXTSTYLE0
 73
     1
 44
1.0
  0
MTEXT
  5
D7
330
1F
100
AcDbEntity
  8
TABLE_DRW
100
AcDbMText
 10
1155.0
 20
179.9766099061
 30
0.0
 40
9.0
 41
0.0
 71
     1
 72
     1
  1
title:
  7
SLDTEXTSTYLE0
 73
     1
 44
1.0
  0
MTEXT
  5
D8
330
1F
100
AcDbEntity
  8
MARKETING_DRW
100
AcDbMText
 10
1155.0
 20
114.9675136777
 30
0.0
 40
12.5
 41
0.0
 71
     1
 72
     1
  1
ZB Duschrinne C mit Spalt, mit Wandaufkantung, mit DN40 Seite Auslass, mit FAT GV25 L780, International
  7
SLDTEXTSTYLE0
 73
     1
 44
1.0
  0
MTEXT
  5
D9
330
1F
100
AcDbEntity
  8
MARKETING_DRW
100
AcDbMText
 10
1155.0
 20
137.4675136777
 30
0.0
 40
12.5
 41
0.0
 71
     1
 72
     1
  1
ASM Shower Channel C with WA and gap, with DN40 side outlet, with FAT GV25 L780, International
  7
SLDTEXTSTYLE0
 73
     1
 44
1.0
  0
MTEXT
  5
DA
330
1F
100
AcDbEntity
  8
MARKETING_DRW
100
AcDbMText
 10
1736.5407964215
 20
249.9675136777
 30
0.0
 40
12.5
 41
0.0
 71
     2
 72
     1
  1
1088280-O
  7
SLDTEXTSTYLE0
 73
     1
 44
1.0
  0
MTEXT
  5
DB
330
1F
100
AcDbEntity
  8
MARKETING_DRW
100
AcDbMText
 10
1862.2395830229
 20
252.0971433073
 30
0.0
 40
12.5
 41
0.0
 71
     2
 72
     1
  1
001
  7
SLDTEXTSTYLE0
 73
     1
 44
1.0
  0
MTEXT
  5
DC
330
1F
100
AcDbEntity
  8
MARKETING_DRW
100
AcDbMText
 10
1155.0
 20
159.9675136777
 30
0.0
 40
12.5
 41
0.0
 71
     1
 72
     1
  1
ACO ShowerDrain
  7
SLDTEXTSTYLE0
 73
     1
 44
1.0
  0
MTEXT
  5
DD
330
1F
100
AcDbEntity
  8
MARKETING_DRW
100
AcDbMText
 10
1905.0
 20
269.9766099061
 30
0.0
 40
9.0
 41
0.0
 71
     1
 72
     1
  1
documenttype:
  7
SLDTEXTSTYLE0
 73
     1
 44
1.0
  0
MTEXT
  5
DE
330
1F
100
AcDbEntity
  8
MARKETING_DRW
100
AcDbMText
 10
1655.0
 20
224.9766099061
 30
0.0
 40
9.0
 41
0.0
 71
     1
 72
     1
  1
reviewed by:
  7
SLDTEXTSTYLE0
 73
     1
 44
1.0
  0
MTEXT
  5
DF
330
1F
100
AcDbEntity
  8
MARKETING_DRW
100
AcDbMText
 10
1736.534373872
 20
270.0578764559
 30
0.0
 40
9.0
 41
0.0
 71
     2
 72
     1
  1
drawing-no.:
  7
SLDTEXTSTYLE0
 73
     1
 44
1.0
  0
MTEXT
  5
E0
330
1F
100
AcDbEntity
  8
MARKETING_DRW
100
AcDbMText
 10
1905.0
 20
224.9766099061
 30
0.0
 40
9.0
 41
0.0
 71
     1
 72
     1
  1
projection:ISO-E
  7
SLDTEXTSTYLE0
 73
     1
 44
1.0
  0
MTEXT
  5
E1
330
1F
100
AcDbEntity
  8
MARKETING_DRW
100
AcDbMText
 10
2024.7500000913
 20
89.9766099061
 30
0.0
 40
9.0
 41
0.0
 71
     2
 72
     1
  1
sheet:
  7
SLDTEXTSTYLE0
 73
     1
 44
1.0
  0
MTEXT
  5
E2
330
1F
100
AcDbEntity
  8
MARKETING_DRW
100
AcDbMText
 10
2024.7829862405
 20
69.9675136777
 30
0.0
 40
12.5
 41
0.0
 71
     2
 72
     1
  1
1/1
  7
SLDTEXTSTYLE0
 73
     1
 44
1.0
  0
MTEXT
  5
E3
330
1F
100
AcDbEntity
  8
MARKETING_DRW
100
AcDbMText
 10
1855.0
 20
89.9766099061
 30
0.0
 40
9.0
 41
0.0
 71
     1
 72
     1
  1
release date:
  7
SLDTEXTSTYLE0
 73
     1
 44
1.0
  0
MTEXT
  5
E4
330
1F
100
AcDbEntity
  8
MARKETING_DRW
100
AcDbMText
 10
1862.3125000894
 20
269.9766099061
 30
0.0
 40
9.0
 41
0.0
 71
     2
 72
     1
  1
index:
  7
SLDTEXTSTYLE0
 73
     1
 44
1.0
  0
MTEXT
  5
E5
330
1F
100
AcDbEntity
  8
MARKETING_DRW
100
AcDbMText
 10
1155.0
 20
179.9766099061
 30
0.0
 40
9.0
 41
0.0
 71
     1
 72
     1
  1
title:
  7
SLDTEXTSTYLE0
 73
     1
 44
1.0
  0
MTEXT
  5
E6
330
1F
100
AcDbEntity
  8
MARKETING_DRW
100
AcDbMText
 10
2024.8750000875
 20
224.9766099061
 30
0.0
 40
9.0
 41
0.0
 71
     2
 72
     1
  1
scale:
  7
SLDTEXTSTYLE0
 73
     1
 44
1.0
  0
MTEXT
  5
E7
330
1F
100
AcDbEntity
  8
MARKETING_DRW
100
AcDbMText
 10
2024.7829862405
 20
204.9675136777
 30
0.0
 40
12.5
 41
0.0
 71
     2
 72
     1
  1
1:5
  7
SLDTEXTSTYLE0
 73
     1
 44
1.0
  0
INSERT
  5
EE
330
1F
100
AcDbEntity
  8
MARKETING_DRW
100
AcDbBlockReference
  2
SW_NOTE_0_1
 10
1155.0
 20
78.3750002482
 30
0.0
  0
MTEXT
  5
EF
330
1F
100
AcDbEntity
  8
MARKETING_DRW
100
AcDbMText
 10
1905.0
 20
249.9675136777
 30
0.0
 40
12.5
 41
0.0
 71
     1
 72
     1
  1
marketing drw.
  7
SLDTEXTSTYLE0
 73
     1
 44
1.0
  0
MTEXT
  5
F0
330
1F
100
AcDbEntity
  8
MARKETING_DRW
100
AcDbMText
 10
1405.0
 20
224.9766099061
 30
0.0
 40
9.0
 41
0.0
 71
     1
 72
     1
  1
created by:
  7
SLDTEXTSTYLE0
 73
     1
 44
1.0
  0
LINE
  5
F1
330
1F
100
AcDbEntity
  8
0
  6
Continuous
 62
     7
370
    35
100
AcDbLine
 10
1322.0546682673
 20
998.6112793807
 30
0.0
 11
542.0546682673
 21
998.6112793807
 31
0.0
  0
LINE
  5
F2
330
1F
100
AcDbEntity
  8
0
  6
Continuous
 62
     7
370
    35
100
AcDbLine
 10
851.0546682673
 20
978.5197236188
 30
0.0
 11
851.0546682673
 21
975.6116793807
 31
0.0
  0
LINE
  5
F3
330
1F
100
AcDbEntity
  8
0
  6
Continuous
 62
     7
370
    35
100
AcDbLine
 10
1013.0546682673
 20
975.6116793807
 30
0.0
 11
1013.0546682673
 21
978.5197236188
 31
0.0
  0
ARC
  5
F4
330
1F
100
AcDbEntity
  8
0
  6
Continuous
 62
     7
370
    35
100
AcDbCircle
 10
849.0546682673
 20
978.513290301
 30
0.0
 40
2.00000000000007
100
AcDbArc
 50
0.1603835477
 51
88.7916387136
  0
ARC
  5
F5
330
1F
100
AcDbEntity
  8
0
  6
Continuous
 62
     7
370
    35
100
AcDbCircle
 10
1015.0546682673
 20
978.513290301
 30
0.0
 40
2.000000000000099
100
AcDbArc
 50
91.1928878275
 51
179.8251412338
  0
LINE
  5
F6
330
1F
100
AcDbEntity
  8
0
  6
Continuous
 62
     7
370
    35
100
AcDbLine
 10
1015.0138474552
 20
980.512890301
 30
0.0
 11
1322.0546682673
 21
980.512890301
 31
0.0
  0
LINE
  5
F7
330
1F
100
AcDbEntity
  8
0
  6
Continuous
 62
     7
370
    35
100
AcDbLine
 10
542.0546682673
 20
980.512890301
 30
0.0
 11
849.0954890792
 21
980.512890301
 31
0.0
  0
LINE
  5
F8
330
1F
100
AcDbEntity
  8
0
  6
Continuous
 62
     7
370
    35
100
AcDbLine
 10
1003.7462475646
 20
929.1616793807
 30
0.0
 11
1020.5546682673
 21
929.1616793807
 31
0.0
  0
LINE
  5
F9
330
1F
100
AcDbEntity
  8
0
  6
Continuous
 62
     7
370
    35
100
AcDbLine
 10
1020.5546682673
 20
969.1616793807
 30
0.0
 11
1016.9754891918
 21
969.1616793807
 31
0.0
  0
LINE
  5
FA
330
1F
100
AcDbEntity
  8
0
  6
Continuous
 62
     7
370
    35
100
AcDbLine
 10
1020.5546682673
 20
929.1616793807
 30
0.0
 11
1060.2486167251
 21
929.1616793807
 31
0.0
  0
LINE
  5
FB
330
1F
100
AcDbEntity
  8
0
  6
Continuous
 62
     7
370
    35
100
AcDbLine
 10
1060.2486167251
 20
969.1616793807
 30
0.0
 11
1020.5546682673
 21
969.1616793807
 31
0.0
  0
ARC
  5
FC
330
1F
100
AcDbEntity
  8
0
  6
Continuous
 62
     7
370
    35
100
AcDbCircle
 10
1060.248616725
 20
966.1616793807
 30
0.0
 40
3.0
100
AcDbArc
 50
78.3499964744
 51
90.0
  0
ARC
  5
FD
330
1F
100
AcDbEntity
  8
0
  6
Continuous
 62
     7
370
    35
100
AcDbCircle
 10
1060.248616725
 20
932.1616793807
 30
0.0
 40
3.0
100
AcDbArc
 50
270.0
 51
281.6500035256
  0
LINE
  5
FE
330
1F
100
AcDbEntity
  8
0
  6
Continuous
 62
     7
370
    35
100
AcDbLine
 10
1060.8544149613
 20
929.2234812088
 30
0.0
 11
1065.5546682673
 21
930.1925802948
 31
0.0
  0
LINE
  5
FF
330
1F
100
AcDbEntity
  8
0
  6
Continuous
 62
     7
370
    35
100
AcDbLine
 10
1065.5546682673
 20
968.1307784666
 30
0.0
 11
1060.8544149613
 21
969.0998775525
 31
0.0
  0
LINE
  5
100
330
1F
100
AcDbEntity
  8
0
  6
Continuous
 62
     7
370
    35
100
AcDbLine
 10
1322.0546682673
 20
986.6112793807
 30
0.0
 11
542.0546682673
 21
986.6112793807
 31
0.0
  0
LINE
  5
101
330
1F
100
AcDbEntity
  8
0
  6
Continuous
 62
     7
370
    35
100
AcDbLine
 10
1322.0546682673
 20
985.6112793807
 30
0.0
 11
1322.0546682673
 21
986.6112793807
 31
0.0
  0
LINE
  5
102
330
1F
100
AcDbEntity
  8
0
  6
Continuous
 62
     7
370
    35
100
AcDbLine
 10
542.0546682673
 20
985.6112793807
 30
0.0
 11
542.0546682673
 21
986.6112793807
 31
0.0
  0
LINE
  5
103
330
1F
100
AcDbEntity
  8
0
  6
Continuous
 62
     7
370
    35
100
AcDbLine
 10
1322.0546682673
 20
985.6112793807
 30
0.0
 11
542.0546682673
 21
985.6112793807
 31
0.0
  0
LINE
  5
104
330
1F
100
AcDbEntity
  8
0
  6
Continuous
 62
     7
370
    35
100
AcDbLine
 10
542.0546682673
 20
987.6112793807
 30
0.0
 11
542.0546682673
 21
986.6112793807
 31
0.0
  0
LINE
  5
105
330
1F
100
AcDbEntity
  8
0
  6
Continuous
 62
     7
370
    35
100
AcDbLine
 10
1322.0546682673
 20
986.6112793807
 30
0.0
 11
1322.0546682673
 21
987.6112793807
 31
0.0
  0
LINE
  5
106
330
1F
100
AcDbEntity
  8
0
  6
Continuous
 62
     7
370
    35
100
AcDbLine
 10
1322.0546682673
 20
997.1112793807
 30
0.0
 11
1322.0546682673
 21
987.6112793807
 31
0.0
  0
LINE
  5
107
330
1F
100
AcDbEntity
  8
0
  6
Continuous
 62
     7
370
    35
100
AcDbLine
 10
542.0546682673
 20
987.6112793807
 30
0.0
 11
542.0546682673
 21
997.1112793807
 31
0.0
  0
LINE
  5
108
330
1F
100
AcDbEntity
  8
0
  6
Continuous
 62
     7
370
    35
100
AcDbLine
 10
1322.0546682673
 20
998.6112793807
 30
0.0
 11
1322.0546682673
 21
997.6112793807
 31
0.0
  0
LINE
  5
109
330
1F
100
AcDbEntity
  8
0
  6
Continuous
 62
     7
370
    35
100
AcDbLine
 10
542.0546682673
 20
997.6112793807
 30
0.0
 11
542.0546682673
 21
998.6112793807
 31
0.0
  0
LINE
  5
10A
330
1F
100
AcDbEntity
  8
0
  6
Continuous
 62
     7
370
    35
100
AcDbLine
 10
1322.0546682673
 20
984.27319787
 30
0.0
 11
1322.0546682673
 21
985.6112793807
 31
0.0
  0
LINE
  5
10B
330
1F
100
AcDbEntity
  8
0
  6
Continuous
 62
     7
370
    35
100
AcDbLine
 10
542.0546682673
 20
984.27319787
 30
0.0
 11
542.0546682673
 21
985.6112793807
 31
0.0
  0
LINE
  5
10C
330
1F
100
AcDbEntity
  8
0
  6
Continuous
 62
     7
370
    35
100
AcDbLine
 10
542.0546682673
 20
983.5132636623
 30
0.0
 11
542.0546682673
 21
984.27319787
 31
0.0
  0
LINE
  5
10D
330
1F
100
AcDbEntity
  8
0
  6
Continuous
 62
     7
370
    35
100
AcDbLine
 10
1322.0546682673
 20
983.5132636623
 30
0.0
 11
1322.0546682673
 21
984.27319787
 31
0.0
  0
SPLINE
  5
10E
330
1F
100
AcDbEntity
  8
0
  6
Continuous
 62
     7
370
    35
100
AcDbSpline
210
0.0
220
0.0
230
1.0
 70
     8
 71
     3
 72
    14
 73
    10
 74
     0
 42
0.000000001
 43
0.00000001
 40
0.0
 40
0.0
 40
0.0
 40
0.0
 40
0.25
 40
0.25
 40
0.5
 40
0.5
 40
0.75
 40
0.75
 40
1.0
 40
1.0
 40
1.0
 40
1.0
 10
1015.013844375979
 20
980.5161069598971
 30
0.0
 10
1014.988620280429
 20
980.7053542860464
 30
0.0
 10
1014.402443800045
 20
980.8942739000545
 30
0.0
 10
1012.171052462
 20
981.2510109491815
 30
0.0
 10
1010.526794879113
 20
981.418666287379
 30
0.0
 10
1006.358266294452
 20
981.7143231753547
 30
0.0
 10
1003.835765417069
 20
981.8421923576497
 30
0.0
 10
998.1878030477824
 20
982.0440184222234
 30
0.0
 10
995.0648118922106
 20
982.1178843415895
 30
0.0
 10
991.8129021486693
 20
982.1606403899925
 30
0.0
  0
SPLINE
  5
10F
330
1F
100
AcDbEntity
  8
0
  6
Continuous
 62
     7
370
    35
100
AcDbSpline
210
0.0
220
0.0
230
1.0
 70
     8
 71
     3
 72
    16
 73
    12
 74
     0
 42
0.000000001
 43
0.00000001
 40
0.0
 40
0.0
 40
0.0
 40
0.0
 40
0.0625000000000022
 40
0.0625000000000022
 40
0.1250000000000044
 40
0.1250000000000044
 40
0.2500000000000056
 40
0.2500000000000056
 40
0.5000000000000048
 40
0.5000000000000048
 40
1.0
 40
1.0
 40
1.0
 40
1.0
 10
991.8129021486133
 20
982.1606403899779
 30
0.0
 10
991.6744369796525
 20
982.1624609274259
 30
0.0
 10
991.534017144593
 20
982.163135645853
 30
0.0
 10
991.2531799159359
 20
982.1644865138843
 30
0.0
 10
991.1125434563274
 20
982.1650342476928
 30
0.0
 10
990.6905042641778
 20
982.1666013529631
 30
0.0
 10
990.4089546502865
 20
982.1675073122361
 30
0.0
 10
989.564287198063
 20
982.1700232480697
 30
0.0
 10
989.0009692392812
 20
982.1713993183992
 30
0.0
 10
987.3104668433322
 20
982.1747267247002
 30
0.0
 10
986.1825807757706
 20
982.1758517000416
 30
0.0
 10
985.0546682672936
 20
982.1758517000416
 30
0.0
  0
LINE
  5
110
330
1F
100
AcDbEntity
  8
0
  6
Continuous
 62
     7
370
    35
100
AcDbLine
 10
985.0546682673
 20
982.1758517
 30
0.0
 11
879.0546682673
 21
982.1758517
 31
0.0
  0
SPLINE
  5
111
330
1F
100
AcDbEntity
  8
0
  6
Continuous
 62
     7
370
    35
100
AcDbSpline
210
0.0
220
0.0
230
1.0
 70
     8
 71
     3
 72
    16
 73
    12
 74
     0
 42
0.000000001
 43
0.00000001
 40
0.0
 40
0.0
 40
0.0
 40
0.0
 40
0.5000000000000001
 40
0.5000000000000001
 40
0.7499999999999986
 40
0.7499999999999986
 40
0.8749999999999993
 40
0.8749999999999993
 40
0.9374999999999997
 40
0.9374999999999997
 40
1.0
 40
1.0
 40
1.0
 40
1.0
 10
879.0546682672936
 20
982.1758517000416
 30
0.0
 10
877.9267182456288
 20
982.1758517000416
 30
0.0
 10
876.7991765154763
 20
982.1747272221891
 30
0.0
 10
875.1084597405305
 20
982.1713995535605
 30
0.0
 10
874.5449725836226
 20
982.1700230764106
 30
0.0
 10
873.70019148154
 20
982.1675067166099
 30
0.0
 10
873.4186521472769
 20
982.1666007617877
 30
0.0
 10
872.9965785575614
 20
982.1650334122764
 30
0.0
 10
872.8558995707392
 20
982.1644854658484
 30
0.0
 10
872.5750610547694
 20
982.1631342144746
 30
0.0
 10
872.4346437796542
 20
982.1624575644975
 30
0.0
 10
872.2964343859737
 20
982.1606403899779
 30
0.0
  0
SPLINE
  5
112
330
1F
100
AcDbEntity
  8
0
  6
Continuous
 62
     7
370
    35
100
AcDbSpline
210
0.0
220
0.0
230
1.0
 70
     8
 71
     3
 72
    14
 73
    10
 74
     0
 42
0.000000001
 43
0.00000001
 40
0.0
 40
0.0
 40
0.0
 40
0.0
 40
0.2500000000000001
 40
0.2500000000000001
 40
0.5000000000000001
 40
0.5000000000000001
 40
0.7500000000000002
 40
0.7500000000000002
 40
1.0
 40
1.0
 40
1.0
 40
1.0
 10
872.2964343858868
 20
982.1606403899991
 30
0.0
 10
869.0445246513257
 20
982.1178843417141
 30
0.0
 10
865.9215571894065
 20
982.0440193675187
 30
0.0
 10
860.2735251454832
 20
981.8421906165619
 30
0.0
 10
857.7510608762431
 20
981.7143226446151
 30
0.0
 10
853.5825345312055
 20
981.4186656486795
 30
0.0
 10
851.9382643531125
 20
981.2510080434912
 30
0.0
 10
849.7069036984751
 20
980.894275406001
 30
0.0
 10
849.1207162542418
 20
980.7053542856385
 30
0.0
 10
849.0954921587471
 20
980.5161069598965
 30
0.0
  0
LINE
  5
113
330
1F
100
AcDbEntity
  8
0
  6
Continuous
 62
     7
370
    35
100
AcDbLine
 10
851.0546682673
 20
975.6116793807
 30
0.0
 11
879.0546682673
 21
975.6116793807
 31
0.0
  0
LINE
  5
114
330
1F
100
AcDbEntity
  8
0
  6
Continuous
 62
     7
370
    35
100
AcDbLine
 10
985.0546682673
 20
975.6116793807
 30
0.0
 11
1006.2088246166
 21
975.6116793807
 31
0.0
  0
LINE
  5
115
330
1F
100
AcDbEntity
  8
0
  6
Continuous
 62
     7
370
    35
100
AcDbLine
 10
1006.8438745341
 20
975.6116793807
 30
0.0
 11
1013.0546682673
 21
975.6116793807
 31
0.0
  0
LINE
  5
116
330
1F
100
AcDbEntity
  8
0
  6
Continuous
 62
     7
370
    35
100
AcDbLine
 10
879.0546682673
 20
975.6116793807
 30
0.0
 11
985.0546682673
 21
975.6116793807
 31
0.0
  0
LINE
  5
117
330
1F
100
AcDbEntity
  8
0
  6
Continuous
 62
     7
370
    35
100
AcDbLine
 10
1322.0546682673
 20
998.6112793807
 30
0.0
 11
542.0546682673
 21
998.6112793807
 31
0.0
  0
LINE
  5
118
330
1F
100
AcDbEntity
  8
0
  6
Continuous
 62
     7
370
    35
100
AcDbLine
 10
1322.0546682673
 20
998.6112793807
 30
0.0
 11
1322.0546682673
 21
999.6112793807
 31
0.0
  0
LINE
  5
119
330
1F
100
AcDbEntity
  8
0
  6
Continuous
 62
     7
370
    35
100
AcDbLine
 10
542.0546682673
 20
999.6112793807
 30
0.0
 11
542.0546682673
 21
998.6112793807
 31
0.0
  0
LINE
  5
11A
330
1F
100
AcDbEntity
  8
0
  6
Continuous
 62
     7
370
    35
100
AcDbLine
 10
542.0546682673
 20
1029.1112793807
 30
0.0
 11
1322.0546682673
 21
1029.1112793807
 31
0.0
  0
LINE
  5
11B
330
1F
100
AcDbEntity
  8
0
  6
Continuous
 62
     7
370
    35
100
AcDbLine
 10
542.0546682673
 20
999.6112793807
 30
0.0
 11
542.0546682673
 21
1029.1112793807
 31
0.0
  0
LINE
  5
11C
330
1F
100
AcDbEntity
  8
0
  6
Continuous
 62
     7
370
    35
100
AcDbLine
 10
1322.0546682673
 20
1029.1112793807
 30
0.0
 11
1322.0546682673
 21
999.6112793807
 31
0.0
  0
ARC
  5
11D
330
1F
100
AcDbEntity
  8
0
  6
Continuous
 62
     7
370
    35
100
AcDbCircle
 10
932.0546682673
 20
949.1616793807
 30
0.0
 40
20.00000000000004
100
AcDbArc
 50
242.7578274734
 51
297.2421725266
  0
SPLINE
  5
11E
330
1F
100
AcDbEntity
  8
0
  6
Continuous
 62
     7
370
    35
100
AcDbSpline
210
0.0
220
0.0
230
1.0
 70
    24
 71
     3
 72
    19
 73
    15
 74
     0
 42
0.000000001
 43
0.00000001
 40
0.0
 40
0.0
 40
0.0
 40
0.0
 40
0.2409129494906414
 40
0.4882585144584839
 40
0.5391714996611928
 40
0.589940447063703
 40
0.6400693113877649
 40
0.6899887485684959
 40
0.740041949133055
 40
0.7904190815941275
 40
0.8413201881352516
 40
0.8929676782752879
 40
0.9456873804469079
 40
1.0
 40
1.0
 40
1.0
 40
1.0
 10
932.0546682672936
 20
975.6116793806783
 30
0.0
 10
939.9007092687365
 20
975.6116793806783
 30
0.0
 10
955.8022883737385
 20
975.6116793806783
 30
0.0
 10
973.36771289354
 20
975.6116793806783
 30
0.0
 10
984.7296016404689
 20
975.6116793806783
 30
0.0
 10
989.6853668587858
 20
975.6116793806781
 30
0.0
 10
994.4697276181304
 20
975.6116793806781
 30
0.0
 10
998.9533055831347
 20
975.6116793806783
 30
0.0
 10
1003.031555868105
 20
975.6116793806783
 30
0.0
 10
1006.604807811117
 20
975.6116793806783
 30
0.0
 10
1009.571213555524
 20
975.6116793806783
 30
0.0
 10
1011.801239775002
 20
975.6116793806783
 30
0.0
 10
1013.274549871994
 20
975.6116793806783
 30
0.0
 10
1013.460373623078
 20
975.6116793806783
 30
0.0
 10
1013.554668267294
 20
975.6116793806783
 30
0.0
  0
SPLINE
  5
11F
330
1F
100
AcDbEntity
  8
0
  6
Continuous
 62
     7
370
    35
100
AcDbSpline
210
0.0
220
0.0
230
1.0
 70
     8
 71
     3
 72
    12
 73
     8
 74
     0
 42
0.000000001
 43
0.00000001
 40
0.0
 40
0.0
 40
0.0
 40
0.0
 40
0.5113573105439843
 40
0.6391966381109013
 40
0.7611397820034747
 40
0.8740152375255743
 40
1.0
 40
1.0
 40
1.0
 40
1.0
 10
1013.554668267294
 20
975.6116793806783
 30
0.0
 10
1013.569374273322
 20
974.5071488706511
 30
0.0
 10
1013.587756780855
 20
973.1264857332662
 30
0.0
 10
1013.527560815192
 20
971.5302548193566
 30
0.0
 10
1013.651715614167
 20
970.6806497806047
 30
0.0
 10
1014.409018927006
 20
970.3332964202876
 30
0.0
 10
1014.816418367632
 20
970.0341233807018
 30
0.0
 10
1015.031297689898
 20
969.8763271405113
 30
0.0
  0
SPLINE
  5
120
330
1F
100
AcDbEntity
  8
0
  6
Continuous
 62
     7
370
    35
100
AcDbSpline
210
0.0
220
0.0
230
1.0
 70
     8
 71
     3
 72
    12
 73
     8
 74
     0
 42
0.000000001
 43
0.00000001
 40
0.0
 40
0.0
 40
0.0
 40
0.0
 40
0.0187022824907647
 40
0.2635054426144015
 40
0.5085219380108148
 40
0.754159497853197
 40
1.0
 40
1.0
 40
1.0
 40
1.0
 10
1014.991894604164
 20
969.7079403028484
 30
0.0
 10
1014.99195883215
 20
969.7100917584532
 30
0.0
 10
1014.992863771105
 20
969.7404046500292
 30
0.0
 10
1014.994970871283
 20
969.790299840704
 30
0.0
 10
1015.001343632171
 20
969.8406418475608
 30
0.0
 10
1015.012192474071
 20
969.8714306654077
 30
0.0
 10
1015.024927531759
 20
969.874694532902
 30
0.0
 10
1015.031297689898
 20
969.8763271405113
 30
0.0
  0
SPLINE
  5
121
330
1F
100
AcDbEntity
  8
0
  6
Continuous
 62
     7
370
    35
100
AcDbSpline
210
0.0
220
0.0
230
1.0
 70
     8
 71
     3
 72
    23
 73
    19
 74
     0
 42
0.000000001
 43
0.00000001
 40
0.0
 40
0.0
 40
0.0
 40
0.0
 40
0.0758439674746768
 40
0.0948049593331002
 40
0.1128914355571505
 40
0.1336676542610458
 40
0.1567718346598162
 40
0.2022013669991181
 40
0.2424816341995579
 40
0.2818986298408139
 40
0.320602194477951
 40
0.3951163817032078
 40
0.4632081862901979
 40
0.5251873670652979
 40
0.5924928344462254
 40
0.7259812554141636
 40
0.8620429027987477
 40
1.0
 40
1.0
 40
1.0
 40
1.0
 10
850.5546682672934
 20
975.6116793806783
 30
0.0
 10
850.5386637436729
 20
974.5079094406548
 30
0.0
 10
850.5186580891495
 20
973.1281970157743
 30
0.0
 10
850.5841692654994
 20
971.5288528673309
 30
0.0
 10
850.438916786635
 20
970.622422668551
 30
0.0
 10
849.5294470064749
 20
970.2562588864384
 30
0.0
 10
848.5330256975324
 20
969.4626080039308
 30
0.0
 10
847.5365515133255
 20
968.185975466275
 30
0.0
 10
846.9542603568294
 20
966.4662503695492
 30
0.0
 10
846.3316739063349
 20
964.8742317820696
 30
0.0
 10
845.5824877566057
 20
962.7989529342223
 30
0.0
 10
844.7234011963611
 20
960.3249182926353
 30
0.0
 10
843.8146111367915
 20
957.5078838941904
 30
0.0
 10
843.2695473253725
 20
954.7020424342766
 30
0.0
 10
842.9281614209619
 20
950.9130052043772
 30
0.0
 10
843.3163826929298
 20
946.0273126383229
 30
0.0
 10
844.9957782088846
 20
940.306430189961
 30
0.0
 10
847.1428621668024
 20
936.9590783787901
 30
0.0
 10
848.2238300791597
 20
935.2738252772971
 30
0.0
  0
SPLINE
  5
122
330
1F
100
AcDbEntity
  8
0
  6
Continuous
 62
     7
370
    35
100
AcDbSpline
210
0.0
220
0.0
230
1.0
 70
    24
 71
     3
 72
    19
 73
    15
 74
     0
 42
0.000000001
 43
0.00000001
 40
0.0
 40
0.0
 40
0.0
 40
0.0
 40
0.2409129494906413
 40
0.4882585144584838
 40
0.5391714996611927
 40
0.5899404470637029
 40
0.6400693113877648
 40
0.6899887485684959
 40
0.740041949133055
 40
0.7904190815941275
 40
0.8413201881352514
 40
0.8929676782752878
 40
0.9456873804469079
 40
1.0
 40
1.0
 40
1.0
 40
1.0
 10
932.0546682672936
 20
975.6116793806783
 30
0.0
 10
924.2086272658506
 20
975.6116793806783
 30
0.0
 10
908.3070481608485
 20
975.6116793806783
 30
0.0
 10
890.741623641047
 20
975.6116793806783
 30
0.0
 10
879.3797348941182
 20
975.6116793806783
 30
0.0
 10
874.4239696758013
 20
975.6116793806781
 30
0.0
 10
869.6396089164567
 20
975.6116793806781
 30
0.0
 10
865.1560309514524
 20
975.6116793806783
 30
0.0
 10
861.0777806664815
 20
975.6116793806783
 30
0.0
 10
857.5045287234703
 20
975.6116793806783
 30
0.0
 10
854.5381229790626
 20
975.6116793806783
 30
0.0
 10
852.308096759585
 20
975.6116793806783
 30
0.0
 10
850.8347866625933
 20
975.6116793806783
 30
0.0
 10
850.6489629115089
 20
975.6116793806783
 30
0.0
 10
850.5546682672934
 20
975.6116793806783
 30
0.0
  0
SPLINE
  5
123
330
1F
100
AcDbEntity
  8
0
  6
Continuous
 62
     7
370
    35
100
AcDbSpline
210
0.0
220
0.0
230
1.0
 70
     8
 71
     3
 72
    13
 73
     9
 74
     0
 42
0.000000001
 43
0.00000001
 40
0.0
 40
0.0
 40
0.0
 40
0.0
 40
0.1771815196505904
 40
0.3595140594802962
 40
0.536691256885091
 40
0.7189759962167964
 40
0.85828470464849
 40
1.0
 40
1.0
 40
1.0
 40
1.0
 10
848.2238300791597
 20
935.2738252772971
 30
0.0
 10
848.7506338787749
 20
934.6275469937463
 30
0.0
 10
849.8195567152128
 20
933.3162018278877
 30
0.0
 10
851.8034325349811
 20
931.7330152883078
 30
0.0
 10
854.0226925102719
 20
930.4704941998282
 30
0.0
 10
856.2379854317999
 20
929.6780916001532
 30
0.0
 10
858.3767941841793
 20
929.2370952818804
 30
0.0
 10
859.6972214890143
 20
929.1869611246159
 30
0.0
 10
860.3630889699974
 20
929.1616793806783
 30
0.0
  0
SPLINE
  5
124
330
1F
100
AcDbEntity
  8
0
  6
Continuous
 62
     7
370
    35
100
AcDbSpline
210
0.0
220
0.0
230
1.0
 70
    24
 71
     3
 72
    19
 73
    15
 74
     0
 42
0.000000001
 43
0.00000001
 40
0.0
 40
0.0
 40
0.0
 40
0.0
 40
0.0382207566244327
 40
0.0915494292491335
 40
0.1448915828931537
 40
0.1929664281754644
 40
0.2410362644725358
 40
0.2858279790996494
 40
0.330589994761807
 40
0.3739481339232561
 40
0.4173762879190923
 40
0.6722423197123589
 40
0.9271575473554007
 40
1.0
 40
1.0
 40
1.0
 40
1.0
 10
860.3630889699974
 20
929.1616793806783
 30
0.0
 10
860.528765445525
 20
929.1616793806783
 30
0.0
 10
860.9256070602426
 20
929.1616793806783
 30
0.0
 10
862.2982786791475
 20
929.1616793806783
 30
0.0
 10
864.3818021393776
 20
929.1616793806783
 30
0.0
 10
866.96619972066
 20
929.1616793806783
 30
0.0
 10
869.8316168385163
 20
929.1616793806783
 30
0.0
 10
872.9956959993564
 20
929.1616793806783
 30
0.0
 10
876.3349375350747
 20
929.1616793806783
 30
0.0
 10
879.878726078173
 20
929.1616793806783
 30
0.0
 10
889.3630362945693
 20
929.1616793806783
 30
0.0
 10
904.7403762057995
 20
929.1616793806783
 30
0.0
 10
920.9267202799082
 20
929.1616793806783
 30
0.0
 10
930.0312365265961
 20
929.1616793806783
 30
0.0
 10
932.0546682672936
 20
929.1616793806783
 30
0.0
  0
SPLINE
  5
125
330
1F
100
AcDbEntity
  8
0
  6
Continuous
 62
     7
370
    35
100
AcDbSpline
210
0.0
220
0.0
230
1.0
 70
    24
 71
     3
 72
    19
 73
    15
 74
     0
 42
0.000000001
 43
0.00000001
 40
0.0
 40
0.0
 40
0.0
 40
0.0
 40
0.0382184429616673
 40
0.0907526742552615
 40
0.1448883276233774
 40
0.1924047757928812
 40
0.2410289232739626
 40
0.2852702899838308
 40
0.3305791993120217
 40
0.3733296235550279
 40
0.4174095644875306
 40
0.6721476066227444
 40
0.9271619568147014
 40
1.0
 40
1.0
 40
1.0
 40
1.0
 10
1003.74624756459
 20
929.1616793806783
 30
0.0
 10
1003.580378120417
 20
929.1616793806783
 30
0.0
 10
1003.186508185656
 20
929.1616793806783
 30
0.0
 10
1001.824700032501
 20
929.1616793806783
 30
0.0
 10
999.7472976831548
 20
929.1616793806783
 30
0.0
 10
997.1554870035676
 20
929.1616793806783
 30
0.0
 10
994.3006913886774
 20
929.1616793806783
 30
0.0
 10
991.1289508791745
 20
929.1616793806783
 30
0.0
 10
987.801327075919
 20
929.1616793806783
 30
0.0
 10
984.2560026852237
 20
929.1616793806783
 30
0.0
 10
974.7568943800376
 20
929.1616793806783
 30
0.0
 10
959.3767005151127
 20
929.1616793806783
 30
0.0
 10
943.1855364937328
 20
929.1616793806783
 30
0.0
 10
934.0780523727954
 20
929.1616793806783
 30
0.0
 10
932.0546682672936
 20
929.1616793806783
 30
0.0
  0
LINE
  5
126
330
1F
100
AcDbEntity
  8
0
  6
Continuous
 62
     7
370
    35
100
AcDbLine
 10
1020.5546682673
 20
969.1616793807
 30
0.0
 11
1020.5546682673
 21
929.1616793807
 31
0.0
  0
SPLINE
  5
127
330
1F
100
AcDbEntity
  8
0
  6
Continuous
 62
     7
370
    35
100
AcDbSpline
210
0.0
220
0.0
230
1.0
 70
     8
 71
     3
 72
    10
 73
     6
 74
     0
 42
0.000000001
 43
0.00000001
 40
0.0
 40
0.0
 40
0.0
 40
0.0
 40
0.4996662810518022
 40
0.9790557875043399
 40
1.0
 40
1.0
 40
1.0
 40
1.0
 10
1015.031297689896
 20
969.8763271405089
 30
0.0
 10
1015.322702241143
 20
969.675489952792
 30
0.0
 10
1015.893685962125
 20
969.2819656778172
 30
0.0
 10
1016.609916220865
 20
969.1635280236939
 30
0.0
 10
1016.960800985184
 20
969.1617536565487
 30
0.0
 10
1016.97548919185
 20
969.1616793806783
 30
0.0
  0
LINE
  5
128
330
1F
100
AcDbEntity
  8
0
  6
Continuous
 62
     7
370
    35
100
AcDbLine
 10
879.0546682673
 20
978.6616793807
 30
0.0
 11
851.2546682673
 21
978.6616793807
 31
0.0
  0
LINE
  5
129
330
1F
100
AcDbEntity
  8
0
  6
Continuous
 62
     7
370
    35
100
AcDbLine
 10
985.0546682673
 20
978.6616793807
 30
0.0
 11
1012.8546682673
 21
978.6616793807
 31
0.0
  0
LINE
  5
12A
330
1F
100
AcDbEntity
  8
0
  6
Continuous
 62
     7
370
    35
100
AcDbLine
 10
1020.5546682673
 20
949.1616793807
 30
0.0
 11
1020.5546682673
 21
969.1616793807
 31
0.0
  0
LINE
  5
12B
330
1F
100
AcDbEntity
  8
0
  6
Continuous
 62
     7
370
    35
100
AcDbLine
 10
1020.5546682673
 20
929.1616793807
 30
0.0
 11
1020.5546682673
 21
949.1616793807
 31
0.0
  0
LINE
  5
12C
330
1F
100
AcDbEntity
  8
0
  6
Continuous
 62
     7
370
    35
100
AcDbLine
 10
1065.5546682673
 20
949.1616793807
 30
0.0
 11
1065.5546682673
 21
968.1307784666
 31
0.0
  0
LINE
  5
12D
330
1F
100
AcDbEntity
  8
0
  6
Continuous
 62
     7
370
    35
100
AcDbLine
 10
1065.5546682673
 20
930.1925802948
 30
0.0
 11
1065.5546682673
 21
949.1616793807
 31
0.0
  0
LINE
  5
12E
330
1F
100
AcDbEntity
  8
0
  6
Continuous
 62
     7
370
    35
100
AcDbLine
 10
542.0546682673
 20
997.6112793807
 30
0.0
 11
542.0546682673
 21
987.6112793807
 31
0.0
  0
LINE
  5
12F
330
1F
100
AcDbEntity
  8
0
  6
Continuous
 62
     7
370
    35
100
AcDbLine
 10
540.0546682673
 20
997.6112793807
 30
0.0
 11
540.0546682673
 21
986.6112793807
 31
0.0
  0
ARC
  5
130
330
1F
100
AcDbEntity
  8
0
  6
Continuous
 62
     7
370
    35
100
AcDbCircle
 10
541.0546682673
 20
997.6112793807
 30
0.0
 40
1.0
100
AcDbArc
 50
90.0
 51
180.0
  0
ARC
  5
131
330
1F
100
AcDbEntity
  8
0
  6
Continuous
 62
     7
370
    35
100
AcDbCircle
 10
541.0546682673
 20
997.6112793807
 30
0.0
 40
1.0
100
AcDbArc
 50
0.0
 51
90.0
  0
LINE
  5
132
330
1F
100
AcDbEntity
  8
0
  6
Continuous
 62
     7
370
    35
100
AcDbLine
 10
540.0546682673
 20
985.6112793807
 30
0.0
 11
540.0546682673
 21
979.8854199023
 31
0.0
  0
LINE
  5
133
330
1F
100
AcDbEntity
  8
0
  6
Continuous
 62
     7
370
    35
100
AcDbLine
 10
542.0546682673
 20
983.5132636623
 30
0.0
 11
542.0546682673
 21
979.8854199023
 31
0.0
  0
LINE
  5
134
330
1F
100
AcDbEntity
  8
0
  6
Continuous
 62
     7
370
    35
100
AcDbLine
 10
540.0546682673
 20
978.0728043282
 30
0.0
 11
540.0546682673
 21
979.8854199023
 31
0.0
  0
LINE
  5
135
330
1F
100
AcDbEntity
  8
0
  6
Continuous
 62
     7
370
    35
100
AcDbLine
 10
542.0546682673
 20
979.8854199023
 30
0.0
 11
542.0546682673
 21
978.0728043282
 31
0.0
  0
LINE
  5
136
330
1F
100
AcDbEntity
  8
0
  6
Continuous
 62
     7
370
    35
100
AcDbLine
 10
540.0546682673
 20
978.0728043282
 30
0.0
 11
540.0546682673
 21
970.8145050436
 31
0.0
  0
LINE
  5
137
330
1F
100
AcDbEntity
  8
0
  6
Continuous
 62
     7
370
    35
100
AcDbLine
 10
542.0546682673
 20
978.0728043282
 30
0.0
 11
542.0546682673
 21
970.8145050436
 31
0.0
  0
LINE
  5
138
330
1F
100
AcDbEntity
  8
0
  6
Continuous
 62
     7
370
    35
100
AcDbLine
 10
540.0546682673
 20
969.0018894695
 30
0.0
 11
540.0546682673
 21
970.8145050436
 31
0.0
  0
LINE
  5
139
330
1F
100
AcDbEntity
  8
0
  6
Continuous
 62
     7
370
    35
100
AcDbLine
 10
542.0546682673
 20
970.8145050436
 30
0.0
 11
542.0546682673
 21
969.0018894695
 31
0.0
  0
LINE
  5
13A
330
1F
100
AcDbEntity
  8
0
  6
Continuous
 62
     7
370
    35
100
AcDbLine
 10
540.0546682673
 20
969.0018894695
 30
0.0
 11
540.0546682673
 21
934.7112793807
 31
0.0
  0
LINE
  5
13B
330
1F
100
AcDbEntity
  8
0
  6
Continuous
 62
     7
370
    35
100
AcDbLine
 10
542.0546682673
 20
969.0018894695
 30
0.0
 11
542.0546682673
 21
934.7112793807
 31
0.0
  0
LINE
  5
13C
330
1F
100
AcDbEntity
  8
0
  6
Continuous
 62
     7
370
    35
100
AcDbLine
 10
542.0546682673
 20
932.7112793807
 30
0.0
 11
540.0546682673
 21
932.7112793807
 31
0.0
  0
LINE
  5
13D
330
1F
100
AcDbEntity
  8
0
  6
Continuous
 62
     7
370
    35
100
AcDbLine
 10
540.0546682673
 20
932.7112793807
 30
0.0
 11
540.0546682673
 21
934.7112793807
 31
0.0
  0
LINE
  5
13E
330
1F
100
AcDbEntity
  8
0
  6
Continuous
 62
     7
370
    35
100
AcDbLine
 10
542.0546682673
 20
934.7112793807
 30
0.0
 11
542.0546682673
 21
932.7112793807
 31
0.0
  0
ARC
  5
13F
330
1F
100
AcDbEntity
  8
0
  6
Continuous
 62
     7
370
    35
100
AcDbCircle
 10
1323.0546682673
 20
997.6112793807
 30
0.0
 40
1.000000000000227
100
AcDbArc
 50
90.0
 51
180.0
  0
ARC
  5
140
330
1F
100
AcDbEntity
  8
0
  6
Continuous
 62
     7
370
    35
100
AcDbCircle
 10
1323.0546682673
 20
997.6112793807
 30
0.0
 40
0.9999999999998863
100
AcDbArc
 50
0.0
 51
90.0
  0
LINE
  5
141
330
1F
100
AcDbEntity
  8
0
  6
Continuous
 62
     7
370
    35
100
AcDbLine
 10
1322.0546682673
 20
997.6112793807
 30
0.0
 11
1322.0546682673
 21
987.6112793807
 31
0.0
  0
LINE
  5
142
330
1F
100
AcDbEntity
  8
0
  6
Continuous
 62
     7
370
    35
100
AcDbLine
 10
1324.0546682673
 20
997.6112793807
 30
0.0
 11
1324.0546682673
 21
986.6112793807
 31
0.0
  0
LINE
  5
143
330
1F
100
AcDbEntity
  8
0
  6
Continuous
 62
     7
370
    35
100
AcDbLine
 10
1322.0546682673
 20
983.5132636623
 30
0.0
 11
1322.0546682673
 21
979.8854199023
 31
0.0
  0
LINE
  5
144
330
1F
100
AcDbEntity
  8
0
  6
Continuous
 62
     7
370
    35
100
AcDbLine
 10
1324.0546682673
 20
985.6112793807
 30
0.0
 11
1324.0546682673
 21
979.8854199023
 31
0.0
  0
LINE
  5
145
330
1F
100
AcDbEntity
  8
0
  6
Continuous
 62
     7
370
    35
100
AcDbLine
 10
1322.0546682673
 20
978.0728043282
 30
0.0
 11
1322.0546682673
 21
979.8854199023
 31
0.0
  0
LINE
  5
146
330
1F
100
AcDbEntity
  8
0
  6
Continuous
 62
     7
370
    35
100
AcDbLine
 10
1324.0546682673
 20
979.8854199023
 30
0.0
 11
1324.0546682673
 21
978.0728043282
 31
0.0
  0
LINE
  5
147
330
1F
100
AcDbEntity
  8
0
  6
Continuous
 62
     7
370
    35
100
AcDbLine
 10
1322.0546682673
 20
978.0728043282
 30
0.0
 11
1322.0546682673
 21
970.8145050436
 31
0.0
  0
LINE
  5
148
330
1F
100
AcDbEntity
  8
0
  6
Continuous
 62
     7
370
    35
100
AcDbLine
 10
1324.0546682673
 20
978.0728043282
 30
0.0
 11
1324.0546682673
 21
970.8145050436
 31
0.0
  0
LINE
  5
149
330
1F
100
AcDbEntity
  8
0
  6
Continuous
 62
     7
370
    35
100
AcDbLine
 10
1322.0546682673
 20
969.0018894695
 30
0.0
 11
1322.0546682673
 21
970.8145050436
 31
0.0
  0
LINE
  5
14A
330
1F
100
AcDbEntity
  8
0
  6
Continuous
 62
     7
370
    35
100
AcDbLine
 10
1324.0546682673
 20
970.8145050436
 30
0.0
 11
1324.0546682673
 21
969.0018894695
 31
0.0
  0
LINE
  5
14B
330
1F
100
AcDbEntity
  8
0
  6
Continuous
 62
     7
370
    35
100
AcDbLine
 10
1322.0546682673
 20
969.0018894695
 30
0.0
 11
1322.0546682673
 21
934.7112793807
 31
0.0
  0
LINE
  5
14C
330
1F
100
AcDbEntity
  8
0
  6
Continuous
 62
     7
370
    35
100
AcDbLine
 10
1324.0546682673
 20
969.0018894695
 30
0.0
 11
1324.0546682673
 21
934.7112793807
 31
0.0
  0
LINE
  5
14D
330
1F
100
AcDbEntity
  8
0
  6
Continuous
 62
     7
370
    35
100
AcDbLine
 10
1324.0546682673
 20
932.7112793807
 30
0.0
 11
1322.0546682673
 21
932.7112793807
 31
0.0
  0
LINE
  5
14E
330
1F
100
AcDbEntity
  8
0
  6
Continuous
 62
     7
370
    35
100
AcDbLine
 10
1322.0546682673
 20
932.7112793807
 30
0.0
 11
1322.0546682673
 21
934.7112793807
 31
0.0
  0
LINE
  5
14F
330
1F
100
AcDbEntity
  8
0
  6
Continuous
 62
     7
370
    35
100
AcDbLine
 10
1324.0546682673
 20
934.7112793807
 30
0.0
 11
1324.0546682673
 21
932.7112793807
 31
0.0
  0
LINE
  5
150
330
1F
100
AcDbEntity
  8
0
  6
Continuous
 62
     7
370
    35
100
AcDbLine
 10
509.5546682673
 20
985.6112793807
 30
0.0
 11
509.5546682673
 21
986.6112793807
 31
0.0
  0
LINE
  5
151
330
1F
100
AcDbEntity
  8
0
  6
Continuous
 62
     7
370
    35
100
AcDbLine
 10
509.5546682673
 20
986.6112793807
 30
0.0
 11
519.5546682673
 21
986.6112793807
 31
0.0
  0
LINE
  5
152
330
1F
100
AcDbEntity
  8
0
  6
Continuous
 62
     7
370
    35
100
AcDbLine
 10
519.5546682673
 20
985.6112793807
 30
0.0
 11
509.5546682673
 21
985.6112793807
 31
0.0
  0
LINE
  5
153
330
1F
100
AcDbEntity
  8
0
  6
Continuous
 62
     7
370
    35
100
AcDbLine
 10
542.0546682673
 20
986.6112793807
 30
0.0
 11
519.5546682673
 21
986.6112793807
 31
0.0
  0
LINE
  5
154
330
1F
100
AcDbEntity
  8
0
  6
Continuous
 62
     7
370
    35
100
AcDbLine
 10
542.0546682673
 20
985.6112793807
 30
0.0
 11
519.5546682673
 21
985.6112793807
 31
0.0
  0
LINE
  5
155
330
1F
100
AcDbEntity
  8
0
  6
Continuous
 62
     7
370
    35
100
AcDbLine
 10
509.5546682673
 20
987.6112793807
 30
0.0
 11
509.5546682673
 21
986.6112793807
 31
0.0
  0
ARC
  5
156
330
1F
100
AcDbEntity
  8
0
  6
Continuous
 62
     7
370
    35
100
AcDbCircle
 10
519.5546682673
 20
1019.1112793807
 30
0.0
 40
10.0
100
AcDbArc
 50
90.0
 51
180.0
  0
LINE
  5
157
330
1F
100
AcDbEntity
  8
0
  6
Continuous
 62
     7
370
    35
100
AcDbLine
 10
542.0546682673
 20
1029.1112793807
 30
0.0
 11
519.5546682673
 21
1029.1112793807
 31
0.0
  0
LINE
  5
158
330
1F
100
AcDbEntity
  8
0
  6
Continuous
 62
     7
370
    35
100
AcDbLine
 10
509.5546682673
 20
1019.1112793807
 30
0.0
 11
509.5546682673
 21
987.6112793807
 31
0.0
  0
LINE
  5
159
330
1F
100
AcDbEntity
  8
0
  6
Continuous
 62
     7
370
    35
100
AcDbLine
 10
1354.5546682673
 20
986.6112793807
 30
0.0
 11
1354.5546682673
 21
985.6112793807
 31
0.0
  0
LINE
  5
15A
330
1F
100
AcDbEntity
  8
0
  6
Continuous
 62
     7
370
    35
100
AcDbLine
 10
1344.5546682673
 20
986.6112793807
 30
0.0
 11
1354.5546682673
 21
986.6112793807
 31
0.0
  0
LINE
  5
15B
330
1F
100
AcDbEntity
  8
0
  6
Continuous
 62
     7
370
    35
100
AcDbLine
 10
1354.5546682673
 20
985.6112793807
 30
0.0
 11
1344.5546682673
 21
985.6112793807
 31
0.0
  0
LINE
  5
15C
330
1F
100
AcDbEntity
  8
0
  6
Continuous
 62
     7
370
    35
100
AcDbLine
 10
1322.0546682673
 20
986.6112793807
 30
0.0
 11
1344.5546682673
 21
986.6112793807
 31
0.0
  0
LINE
  5
15D
330
1F
100
AcDbEntity
  8
0
  6
Continuous
 62
     7
370
    35
100
AcDbLine
 10
1322.0546682673
 20
985.6112793807
 30
0.0
 11
1344.5546682673
 21
985.6112793807
 31
0.0
  0
LINE
  5
15E
330
1F
100
AcDbEntity
  8
0
  6
Continuous
 62
     7
370
    35
100
AcDbLine
 10
1354.5546682673
 20
986.6112793807
 30
0.0
 11
1354.5546682673
 21
987.6112793807
 31
0.0
  0
LINE
  5
15F
330
1F
100
AcDbEntity
  8
0
  6
Continuous
 62
     7
370
    35
100
AcDbLine
 10
1322.0546682673
 20
1029.1112793807
 30
0.0
 11
1344.5546682673
 21
1029.1112793807
 31
0.0
  0
ARC
  5
160
330
1F
100
AcDbEntity
  8
0
  6
Continuous
 62
     7
370
    35
100
AcDbCircle
 10
1344.5546682673
 20
1019.1112793807
 30
0.0
 40
10.0
100
AcDbArc
 50
0.0
 51
90.0
  0
LINE
  5
161
330
1F
100
AcDbEntity
  8
0
  6
Continuous
 62
     7
370
    35
100
AcDbLine
 10
1354.5546682673
 20
1019.1112793807
 30
0.0
 11
1354.5546682673
 21
987.6112793807
 31
0.0
  0
LINE
  5
162
330
1F
100
AcDbEntity
  8
0
  6
Continuous
 62
     8
370
    18
100
AcDbLine
 10
1322.0546682673
 20
987.6112793807
 30
0.0
 11
542.0546682673
 21
987.6112793807
 31
0.0
  0
LINE
  5
163
330
1F
100
AcDbEntity
  8
0
  6
Continuous
 62
     8
370
    18
100
AcDbLine
 10
542.0546682673
 20
997.1112793807
 30
0.0
 11
1322.0546682673
 21
997.1112793807
 31
0.0
  0
LINE
  5
164
330
1F
100
AcDbEntity
  8
0
  6
Continuous
 62
     8
370
    18
100
AcDbLine
 10
542.0546682673
 20
984.27319787
 30
0.0
 11
1322.0546682673
 21
984.27319787
 31
0.0
  0
LINE
  5
165
330
1F
100
AcDbEntity
  8
0
  6
Continuous
 62
     8
370
    18
100
AcDbLine
 10
542.0546682673
 20
982.2764145289
 30
0.0
 11
1322.0546682673
 21
982.2764145289
 31
0.0
  0
LINE
  5
166
330
1F
100
AcDbEntity
  8
0
  6
Continuous
 62
     8
370
    18
100
AcDbLine
 10
542.0546682673
 20
980.5161069599
 30
0.0
 11
849.0954921586
 21
980.5161069599
 31
0.0
  0
LINE
  5
167
330
1F
100
AcDbEntity
  8
0
  6
Continuous
 62
     8
370
    18
100
AcDbLine
 10
1015.013844376
 20
980.5161069599
 30
0.0
 11
1322.0546682673
 21
980.5161069599
 31
0.0
  0
SPLINE
  5
168
330
1F
100
AcDbEntity
  8
0
  6
Continuous
 62
     8
370
    18
100
AcDbSpline
210
0.0
220
0.0
230
1.0
 70
     8
 71
     3
 72
    10
 73
     6
 74
     0
 42
0.000000001
 43
0.00000001
 40
0.0
 40
0.0
 40
0.0
 40
0.0
 40
0.5
 40
0.5
 40
1.0
 40
1.0
 40
1.0
 40
1.0
 10
991.3707803743889
 20
980.1664629574508
 30
0.0
 10
990.3317366916306
 20
980.1811000933943
 30
0.0
 10
989.2861243709262
 20
980.2155700705468
 30
0.0
 10
987.1809979360997
 20
980.2685936769432
 30
0.0
 10
986.1214805246384
 20
980.2870462935047
 30
0.0
 10
985.0546682672941
 20
980.2870462935047
 30
0.0
  0
LINE
  5
169
330
1F
100
AcDbEntity
  8
0
  6
Continuous
 62
     8
370
    18
100
AcDbLine
 10
985.0546682673
 20
980.2870462935
 30
0.0
 11
985.0546682673
 21
982.1758517
 31
0.0
  0
ARC
  5
16A
330
1F
100
AcDbEntity
  8
0
  6
Continuous
 62
     8
370
    18
100
AcDbCircle
 10
994.3348952764
 20
980.5553992153
 30
0.0
 40
2.989523133341693
100
AcDbArc
 50
147.5233674626
 51
187.4753574051
  0
SPLINE
  5
16B
330
1F
100
AcDbEntity
  8
0
  6
Continuous
 62
     8
370
    18
100
AcDbSpline
210
0.0
220
0.0
230
1.0
 70
     8
 71
     3
 72
    10
 73
     6
 74
     0
 42
0.000000001
 43
0.00000001
 40
0.0
 40
0.0
 40
0.0
 40
0.0
 40
0.5
 40
0.5
 40
1.0
 40
1.0
 40
1.0
 40
1.0
 10
879.0546682672936
 20
980.2870462934641
 30
0.0
 10
877.9878560099495
 20
980.2870462934641
 30
0.0
 10
876.9283385984876
 20
980.2685936769432
 30
0.0
 10
874.823212163661
 20
980.2155700705468
 30
0.0
 10
873.7775998429564
 20
980.1811000934263
 30
0.0
 10
872.7385561601982
 20
980.1664629574828
 30
0.0
  0
ARC
  5
16C
330
1F
100
AcDbEntity
  8
0
  6
Continuous
 62
     8
370
    18
100
AcDbCircle
 10
869.7744412572
 20
980.5553992152
 30
0.0
 40
2.989523134308619
100
AcDbArc
 50
352.5246425999
 51
32.476632528
  0
LINE
  5
16D
330
1F
100
AcDbEntity
  8
0
  6
Continuous
 62
     8
370
    18
100
AcDbLine
 10
879.0546682673
 20
980.2870462935
 30
0.0
 11
879.0546682673
 21
982.1758517
 31
0.0
  0
LINE
  5
16E
330
1F
100
AcDbEntity
  8
0
  6
Continuous
 62
     8
370
    18
100
AcDbLine
 10
985.0546682673
 20
980.2870462935
 30
0.0
 11
879.0546682673
 21
980.2870462935
 31
0.0
  0
ELLIPSE
  5
16F
330
1F
100
AcDbEntity
  8
0
  6
Continuous
 62
     8
370
    18
100
AcDbEllipse
 10
985.0546682673
 20
978.5068466197
 30
0.0
 11
27.99999999999989
 21
0.0
 31
0.0
210
0.0
220
0.0
230
1.0
 40
0.0608401234
 41
0.0075591103181333
 42
1.343262674821319
  0
ARC
  5
170
330
1F
100
AcDbEntity
  8
0
  6
Continuous
 62
     8
370
    18
100
AcDbCircle
 10
1015.0531671134
 20
978.5171774216
 30
0.0
 40
1.999300425703757
100
AcDbArc
 50
91.1268920303
 51
179.9270312827
  0
ELLIPSE
  5
171
330
1F
100
AcDbEntity
  8
0
  6
Continuous
 62
     8
370
    18
100
AcDbEllipse
 10
879.0546682673
 20
978.5068466197
 30
0.0
 11
28.0
 21
0.0
 31
0.0
210
0.0
220
0.0
230
1.0
 40
0.0608401234
 41
1.798329978768473
 42
3.134033543271658
  0
ARC
  5
172
330
1F
100
AcDbEntity
  8
0
  6
Continuous
 62
     8
370
    18
100
AcDbCircle
 10
849.0561694212
 20
978.5171774216
 30
0.0
 40
1.999300425704085
100
AcDbArc
 50
0.0729687173
 51
88.8731079808
  0
LINE
  5
173
330
1F
100
AcDbEntity
  8
0
  6
Continuous
 62
     8
370
    18
100
AcDbLine
 10
879.0546682673
 20
980.2870462935
 30
0.0
 11
879.0546682673
 21
975.6116793807
 31
0.0
  0
LINE
  5
174
330
1F
100
AcDbEntity
  8
0
  6
Continuous
 62
     8
370
    18
100
AcDbLine
 10
985.0546682673
 20
980.2870462935
 30
0.0
 11
985.0546682673
 21
975.6116793807
 31
0.0
  0
LINE
  5
175
330
1F
100
AcDbEntity
  8
0
  6
Continuous
 62
     8
370
    18
100
AcDbLine
 10
1322.0546682673
 20
999.6112793807
 30
0.0
 11
542.0546682673
 21
999.6112793807
 31
0.0
  0
SPLINE
  5
176
330
1F
100
AcDbEntity
  8
0
  6
Continuous
 62
     8
370
    18
100
AcDbSpline
210
0.0
220
0.0
230
1.0
 70
     8
 71
     3
 72
    20
 73
    16
 74
     0
 42
0.000000001
 43
0.00000001
 40
0.0
 40
0.0
 40
0.0
 40
0.0
 40
0.0991423914481114
 40
0.1909579967922171
 40
0.2834490201131823
 40
0.3743163084071862
 40
0.4461862568119869
 40
0.5184421762495502
 40
0.5908322179839122
 40
0.6638400079808534
 40
0.7368167649629366
 40
0.8091054166526842
 40
0.8751601672161241
 40
0.941126359318708
 40
1.0
 40
1.0
 40
1.0
 40
1.0
 10
915.9446231546921
 20
936.6666884660306
 30
0.0
 10
915.0498474726767
 20
937.8030169556856
 30
0.0
 10
913.3264215060409
 20
939.991697387063
 30
0.0
 10
911.6773969039309
 20
944.0445102225077
 30
0.0
 10
910.9780792308801
 20
948.3447986356941
 30
0.0
 10
911.304536622764
 20
952.3785479971858
 30
0.0
 10
912.3305077564057
 20
955.8784991550945
 30
0.0
 10
913.7846186649954
 20
958.8139801628884
 30
0.0
 10
915.679538598561
 20
961.4289157283891
 30
0.0
 10
917.9547947753023
 20
963.7585054257858
 30
0.0
 10
920.5500776263729
 20
965.7587599217658
 30
0.0
 10
923.3693696218744
 20
967.3233650919049
 30
0.0
 10
926.2948211944914
 20
968.4049934026859
 30
0.0
 10
929.1691934542622
 20
969.0459212279405
 30
0.0
 10
931.129976113765
 20
969.1255100373777
 30
0.0
 10
932.0546682667057
 20
969.1630435942928
 30
0.0
  0
LWPOLYLINE
  5
177
330
1F
100
AcDbEntity
  8
0
  6
Continuous
 62
     8
370
    18
100
AcDbPolyline
 90
        9
 70
   128
 43
0.0
 10
932.0546682667
 20
969.1630435943
 10
932.056047593
 20
968.8963064882
 10
932.0572337488
 20
968.2329180844
 10
932.0581828788
 20
967.1974055525
 10
932.0588598912
 20
965.8280544453
 10
932.0592397552
 20
964.1754931833
 10
932.0593084262
 20
962.3008211924
 10
932.0590633653
 20
960.2733499015
 10
932.0585136349
 20
958.1680401213
  0
SPLINE
  5
178
330
1F
100
AcDbEntity
  8
0
  6
Continuous
 62
     8
370
    18
100
AcDbSpline
210
0.0
220
0.0
230
1.0
 70
     8
 71
     3
 72
    19
 73
    15
 74
     0
 42
0.000000001
 43
0.00000001
 40
0.0
 40
0.0
 40
0.0
 40
0.0
 40
0.0003400432997567
 40
0.101863577827705
 40
0.2035434036526508
 40
0.3480218784455775
 40
0.4928620408160624
 40
0.5714933381061476
 40
0.6496296261320141
 40
0.7087399627822195
 40
0.7683238584295659
 40
0.8224306267254519
 40
0.892610163227093
 40
1.0
 40
1.0
 40
1.0
 40
1.0
 10
932.0585136349305
 20
958.1680401213009
 30
0.0
 10
932.0559500617167
 20
958.1680423311528
 30
0.0
 10
931.2880045095535
 20
958.1687043157414
 30
0.0
 10
929.7494652715674
 20
957.9992673629274
 30
0.0
 10
927.235934494992
 20
957.2138084907144
 30
0.0
 10
924.6206952746122
 20
955.8136517087511
 30
0.0
 10
922.3952543836008
 20
954.1479098707582
 30
0.0
 10
920.6766848541993
 20
952.6580595346047
 30
0.0
 10
919.6083786254833
 20
951.4099698152974
 30
0.0
 10
918.9414147554912
 20
950.0742189763804
 30
0.0
 10
918.6774354455686
 20
948.7614481169343
 30
0.0
 10
919.0600562093492
 20
947.3855077449186
 30
0.0
 10
920.1336420250036
 20
945.9714232697517
 30
0.0
 10
921.1888804971384
 20
945.1422886444127
 30
0.0
 10
921.8270642401413
 20
944.6408472616116
 30
0.0
  0
LINE
  5
179
330
1F
100
AcDbEntity
  8
0
  6
Continuous
 62
     8
370
    18
100
AcDbLine
 10
915.9446231547
 20
936.666688466
 30
0.0
 11
921.8270642401
 21
944.6408472616
 31
0.0
  0
SPLINE
  5
17A
330
1F
100
AcDbEntity
  8
0
  6
Continuous
 62
     8
370
    18
100
AcDbSpline
210
0.0
220
0.0
230
1.0
 70
     8
 71
     3
 72
    11
 73
     7
 74
     0
 42
0.000000001
 43
0.00000001
 40
0.0
 40
0.0
 40
0.0
 40
0.0
 40
0.2086522750571034
 40
0.4180461498251472
 40
0.7071398446856856
 40
1.0
 40
1.0
 40
1.0
 40
1.0
 10
922.8996191151871
 20
931.3800856663197
 30
0.0
 10
922.3759940127949
 20
931.6610622584611
 30
0.0
 10
921.3268827201098
 20
932.224014100245
 30
0.0
 10
919.6165067628536
 20
933.339072084696
 30
0.0
 10
917.7703283894788
 20
934.747525363161
 30
0.0
 10
916.5558117219337
 20
936.0242131503026
 30
0.0
 10
915.9446231546921
 20
936.6666884660306
 30
0.0
  0
SPLINE
  5
17B
330
1F
100
AcDbEntity
  8
0
  6
Continuous
 62
     8
370
    18
100
AcDbSpline
210
0.0
220
0.0
230
1.0
 70
     8
 71
     3
 72
     9
 73
     5
 74
     0
 42
0.000000001
 43
0.00000001
 40
0.0
 40
0.0
 40
0.0
 40
0.0
 40
0.4979466281839556
 40
0.9999999999999999
 40
0.9999999999999999
 40
0.9999999999999999
 40
0.9999999999999999
 10
921.8270642401413
 20
944.6408472616116
 30
0.0
 10
922.8106392347095
 20
944.0100797660543
 30
0.0
 10
924.7859011180066
 20
942.7433426101913
 30
0.0
 10
926.8823612637814
 20
941.6891987091261
 30
0.0
 10
927.9348961488457
 20
941.1599622092169
 30
0.0
  0
LINE
  5
17C
330
1F
100
AcDbEntity
  8
0
  6
Continuous
 62
     8
370
    18
100
AcDbLine
 10
927.9348961488
 20
941.1599622092
 30
0.0
 11
922.8996191152
 21
931.3800856663
 31
0.0
  0
SPLINE
  5
17D
330
1F
100
AcDbEntity
  8
0
  6
Continuous
 62
     8
370
    18
100
AcDbSpline
210
0.0
220
0.0
230
1.0
 70
     8
 71
     3
 72
     9
 73
     5
 74
     0
 42
0.000000001
 43
0.00000001
 40
0.0
 40
0.0
 40
0.0
 40
0.0
 40
0.4992621918959269
 40
1.0
 40
1.0
 40
1.0
 40
1.0
 10
936.1744403857414
 20
941.1599622092169
 30
0.0
 10
937.2210881449383
 20
941.6862948256769
 30
0.0
 10
939.3174771288955
 20
942.740515683982
 30
0.0
 10
941.2930355172698
 20
944.006780562076
 30
0.0
 10
942.282272294446
 20
944.640847261612
 30
0.0
  0
LINE
  5
17E
330
1F
100
AcDbEntity
  8
0
  6
Continuous
 62
     8
370
    18
100
AcDbLine
 10
948.1647133799
 20
936.666688466
 30
0.0
 11
942.2822722944
 21
944.6408472616
 31
0.0
  0
SPLINE
  5
17F
330
1F
100
AcDbEntity
  8
0
  6
Continuous
 62
     8
370
    18
100
AcDbSpline
210
0.0
220
0.0
230
1.0
 70
     8
 71
     3
 72
    10
 73
     6
 74
     0
 42
0.000000001
 43
0.00000001
 40
0.0
 40
0.0
 40
0.0
 40
0.0
 40
0.0076204656895135
 40
0.4952213558631354
 40
1.0
 40
1.0
 40
1.0
 40
1.0
 10
948.1647133798941
 20
936.6666884660324
 30
0.0
 10
948.1493680269771
 20
936.6492614371638
 30
0.0
 10
947.1521394077021
 20
935.5167536329695
 30
0.0
 10
944.9315120723951
 20
933.493671197844
 30
0.0
 10
942.4645497315362
 20
932.0926976362698
 30
0.0
 10
941.2097174193999
 20
931.3800856663197
 30
0.0
  0
LINE
  5
180
330
1F
100
AcDbEntity
  8
0
  6
Continuous
 62
     8
370
    18
100
AcDbLine
 10
936.1744403857
 20
941.1599622092
 30
0.0
 11
941.2097174194
 21
931.3800856663
 31
0.0
  0
SPLINE
  5
181
330
1F
100
AcDbEntity
  8
0
  6
Continuous
 62
     8
370
    18
100
AcDbSpline
210
0.0
220
0.0
230
1.0
 70
     8
 71
     3
 72
    17
 73
    13
 74
     0
 42
0.000000001
 43
0.00000001
 40
0.0
 40
0.0
 40
0.0
 40
0.0
 40
0.0789144527054625
 40
0.1571593044481629
 40
0.2135614770373521
 40
0.2600875689337678
 40
0.3261379151498183
 40
0.4287697285227801
 40
0.5974697941885977
 40
0.7661237400516273
 40
0.9416481750856451
 40
1.0
 40
1.0
 40
1.0
 40
1.0
 10
942.282272294446
 20
944.640847261612
 30
0.0
 10
942.754794844899
 20
945.0027928416008
 30
0.0
 10
943.6958305211194
 20
945.723612839066
 30
0.0
 10
944.772246249675
 20
946.9419131656437
 30
0.0
 10
945.3465349846958
 20
948.2178273121507
 30
0.0
 10
945.3403770238695
 20
949.5196159914134
 30
0.0
 10
944.7616648249303
 20
951.0678635133779
 30
0.0
 10
943.1304297751191
 20
953.0581628499162
 30
0.0
 10
940.5435245003704
 20
955.1567064060109
 30
0.0
 10
937.207390017131
 20
957.124968807994
 30
0.0
 10
934.2610276620719
 20
958.0764977712873
 30
0.0
 10
932.4983095325204
 20
958.149761032271
 30
0.0
 10
932.0585136349305
 20
958.1680401213009
 30
0.0
  0
ARC
  5
182
330
1F
100
AcDbEntity
  8
0
  6
Continuous
 62
     8
370
    18
100
AcDbCircle
 10
932.0546682673
 20
949.1616793807
 30
0.0
 40
8.999999999999963
100
AcDbArc
 50
242.7578274734
 51
297.2421725266
  0
SPLINE
  5
183
330
1F
100
AcDbEntity
  8
0
  6
Continuous
 62
     8
370
    18
100
AcDbSpline
210
0.0
220
0.0
230
1.0
 70
     8
 71
     3
 72
    21
 73
    17
 74
     0
 42
0.000000001
 43
0.00000001
 40
0.0
 40
0.0
 40
0.0
 40
0.0
 40
0.0576002388844429
 40
0.1369497178327892
 40
0.2164254191351556
 40
0.2512387799067723
 40
0.33023799803787
 40
0.4092811694446128
 40
0.4704859267255843
 40
0.5267631221523624
 40
0.5830126331096096
 40
0.6699453461182454
 40
0.7487340976142718
 40
0.8395175841149018
 40
0.9196605608136237
 40
1.0
 40
1.0
 40
1.0
 40
1.0
 10
932.0546682667057
 20
969.1630435942928
 30
0.0
 10
932.9591235552158
 20
969.1268601339609
 30
0.0
 10
935.1095468686041
 20
969.0408307219542
 30
0.0
 10
938.3676190953878
 20
968.2646722037606
 30
0.0
 10
941.0936898323047
 20
967.128830741764
 30
0.0
 10
943.637836454277
 20
965.6717977845191
 30
0.0
 10
945.9685240960783
 20
963.9414762731875
 30
0.0
 10
948.2663281560419
 20
961.6072852718191
 30
0.0
 10
950.0049850687975
 20
959.2822358742106
 30
0.0
 10
951.259243344523
 20
956.988020884592
 30
0.0
 10
952.365167496365
 20
954.1389313045577
 30
0.0
 10
953.0383242675124
 20
950.7173391248168
 30
0.0
 10
952.9579306604788
 20
946.6500968019451
 30
0.0
 10
952.0185099409658
 20
942.8393165164022
 30
0.0
 10
950.3567392387907
 20
939.399458366151
 30
0.0
 10
948.895984751147
 20
937.5783548973692
 30
0.0
 10
948.1647133798941
 20
936.6666884660324
 30
0.0
  0
SPLINE
  5
184
330
1F
100
AcDbEntity
  8
0
  6
Continuous
 62
     8
370
    18
100
AcDbSpline
210
0.0
220
0.0
230
1.0
 70
     8
 71
     3
 72
    12
 73
     8
 74
     0
 42
0.000000001
 43
0.00000001
 40
0.0
 40
0.0
 40
0.0
 40
0.0
 40
0.0000060747676147
 40
0.3367382319790154
 40
0.6739281751819063
 40
0.999993925232386
 40
1.0
 40
1.0
 40
1.0
 40
1.0
 10
932.0546682672936
 20
969.8322437921233
 30
0.0
 10
932.0546882651115
 20
969.8322437234648
 30
0.0
 10
933.1632129508781
 20
969.8284378234654
 30
0.0
 10
935.3813842951089
 20
969.7156638587916
 30
0.0
 10
938.6018095856591
 20
969.2520370646482
 30
0.0
 10
940.6922607077729
 20
968.7640733272922
 30
0.0
 10
941.7070985577482
 20
968.4727113888317
 30
0.0
 10
941.7071174643314
 20
968.4727059607144
 30
0.0
  0
SPLINE
  5
185
330
1F
100
AcDbEntity
  8
0
  6
Continuous
 62
     8
370
    18
100
AcDbSpline
210
0.0
220
0.0
230
1.0
 70
     8
 71
     3
 72
    12
 73
     8
 74
     0
 42
0.000000001
 43
0.00000001
 40
0.0
 40
0.0
 40
0.0
 40
0.0
 40
0.0000045934994813
 40
0.4143973137483384
 40
0.7071737974593577
 40
0.9999953489587674
 40
1.0
 40
1.0
 40
1.0
 40
1.0
 10
941.7071174643314
 20
968.4727059607144
 30
0.0
 10
941.7071348964598
 20
968.4726981715381
 30
0.0
 10
943.2797544708869
 20
967.770006515155
 30
0.0
 10
945.8073861836825
 20
966.2899755022485
 30
0.0
 10
948.8386449341143
 20
963.6216196842915
 30
0.0
 10
950.3322481883873
 20
961.8166766773812
 30
0.0
 10
950.9975646219365
 20
960.8652595543603
 30
0.0
 10
950.9975751893453
 20
960.8652444427335
 30
0.0
  0
SPLINE
  5
186
330
1F
100
AcDbEntity
  8
0
  6
Continuous
 62
     8
370
    18
100
AcDbSpline
210
0.0
220
0.0
230
1.0
 70
     8
 71
     3
 72
    17
 73
    13
 74
     0
 42
0.000000001
 43
0.00000001
 40
0.0
 40
0.0
 40
0.0
 40
0.0
 40
0.000002143486621
 40
0.1054365485713196
 40
0.210819183990657
 40
0.3104189083164539
 40
0.409979338623471
 40
0.5136815324828885
 40
0.6173574802953451
 40
0.7205640036179434
 40
0.8238693169887326
 40
0.9999999999999999
 40
0.9999999999999999
 40
0.9999999999999999
 40
0.9999999999999999
 10
950.9975751893453
 20
960.8652444427335
 30
0.0
 10
950.997586603808
 20
960.8652298585625
 30
0.0
 10
951.5590557310805
 20
960.147845090482
 30
0.0
 10
952.5902764503765
 20
958.6109810713122
 30
0.0
 10
953.7949516351612
 20
956.0969453876432
 30
0.0
 10
954.6144675777269
 20
953.4319596912886
 30
0.0
 10
955.0629316781198
 20
950.6562316084677
 30
0.0
 10
955.0857655061816
 20
947.7807981373385
 30
0.0
 10
954.6670063127389
 20
944.9069629993029
 30
0.0
 10
953.8012453178555
 20
942.1937337798171
 30
0.0
 10
952.3106968263288
 20
939.0901467872102
 30
0.0
 10
950.7754127703771
 20
937.2582215400829
 30
0.0
 10
949.8077112827656
 20
936.1035448012959
 30
0.0
  0
ARC
  5
187
330
1F
100
AcDbEntity
  8
0
  6
Continuous
 62
     8
370
    18
100
AcDbCircle
 10
947.8728359615
 20
933.1367891548
 30
0.0
 40
3.54194601525649
100
AcDbArc
 50
56.8881881133
 51
85.2731268278
  0
SPLINE
  5
188
330
1F
100
AcDbEntity
  8
0
  6
Continuous
 62
     8
370
    18
100
AcDbSpline
210
0.0
220
0.0
230
1.0
 70
     8
 71
     3
 72
     9
 73
     5
 74
     0
 42
0.000000001
 43
0.00000001
 40
0.0
 40
0.0
 40
0.0
 40
0.0
 40
0.4770884652791005
 40
1.0
 40
1.0
 40
1.0
 40
1.0
 10
932.0546682667057
 20
969.1630435942928
 30
0.0
 10
932.054668266951
 20
969.1976225648873
 30
0.0
 10
932.0546682674653
 20
969.2701017235986
 30
0.0
 10
932.0546682673523
 20
969.6392249823774
 30
0.0
 10
932.0546682672932
 20
969.8322437921264
 30
0.0
  0
SPLINE
  5
189
330
1F
100
AcDbEntity
  8
0
  6
Continuous
 62
     8
370
    18
100
AcDbSpline
210
0.0
220
0.0
230
1.0
 70
     8
 71
     3
 72
    13
 73
     9
 74
     0
 42
0.000000001
 43
0.00000001
 40
0.0
 40
0.0
 40
0.0
 40
0.0
 40
0.2149368602724794
 40
0.4364871802266582
 40
0.5720189549561248
 40
0.7091058686892356
 40
0.8535021383530081
 40
1.0
 40
1.0
 40
1.0
 40
1.0
 10
967.6110875479269
 20
961.1364423073468
 30
0.0
 10
967.6094340901037
 20
959.7776509003943
 30
0.0
 10
967.6060762986949
 20
957.0182590074215
 30
0.0
 10
967.6038582182559
 20
953.1122080844422
 30
0.0
 10
967.5965848636002
 20
949.7018226737338
 30
0.0
 10
967.5933848508739
 20
946.8118678349323
 30
0.0
 10
967.5928997718112
 20
943.8653977894339
 30
0.0
 10
967.593607403629
 20
941.9313469386082
 30
0.0
 10
967.5939637757142
 20
940.9573351471505
 30
0.0
  0
ARC
  5
18A
330
1F
100
AcDbEntity
  8
0
  6
Continuous
 62
     8
370
    18
100
AcDbCircle
 10
965.8806377521
 20
933.068714618
 30
0.0
 40
8.072534912695483
100
AcDbArc
 50
77.7462642009
 51
91.600444156
  0
SPLINE
  5
18B
330
1F
100
AcDbEntity
  8
0
  6
Continuous
 62
     8
370
    18
100
AcDbSpline
210
0.0
220
0.0
230
1.0
 70
     8
 71
     3
 72
    13
 73
     9
 74
     0
 42
0.000000001
 43
0.00000001
 40
0.0
 40
0.0
 40
0.0
 40
0.0
 40
0.1436817584227076
 40
0.2896128899910153
 40
0.4254711377184157
 40
0.562781445550298
 40
0.7787239735870475
 40
1.0
 40
1.0
 40
1.0
 40
1.0
 10
965.6551767949201
 20
941.138100423184
 30
0.0
 10
965.6361355959552
 20
942.0708260584345
 30
0.0
 10
965.5977551033889
 20
943.9508793773731
 30
0.0
 10
965.5323426363399
 20
946.8056365277099
 30
0.0
 10
965.4831213894709
 20
949.6296211671165
 30
0.0
 10
965.446282007299
 20
952.9067082504972
 30
0.0
 10
965.472113645117
 20
956.7229422605939
 30
0.0
 10
965.5266122894898
 20
959.4315416552522
 30
0.0
 10
965.5541940180076
 20
960.8023620495259
 30
0.0
  0
ARC
  5
18C
330
1F
100
AcDbEntity
  8
0
  6
Continuous
 62
     8
370
    18
100
AcDbCircle
 10
965.7282482344
 20
966.2297983375
 30
0.0
 40
5.43022647140672
100
AcDbArc
 50
268.1631925552
 51
290.28762721
  0
SPLINE
  5
18D
330
1F
100
AcDbEntity
  8
0
  6
Continuous
 62
     8
370
    18
100
AcDbSpline
210
0.0
220
0.0
230
1.0
 70
     8
 71
     3
 72
    13
 73
     9
 74
     0
 42
0.000000001
 43
0.00000001
 40
0.0
 40
0.0
 40
0.0
 40
0.0
 40
0.2027299767790305
 40
0.4113282396852196
 40
0.6140610633746083
 40
0.8226668372537687
 40
0.9110997276786641
 40
1.0
 40
1.0
 40
1.0
 40
1.0
 10
968.9781595197915
 20
961.4014328204435
 30
0.0
 10
968.9933856475963
 20
960.0992951529082
 30
0.0
 10
969.0242786435248
 20
957.4573277284313
 30
0.0
 10
969.0470415433792
 20
953.1891024953313
 30
0.0
 10
968.9942726171915
 20
948.794902571836
 30
0.0
 10
968.9398544787451
 20
945.2562064063578
 30
0.0
 10
968.8993095388129
 20
942.5865017192492
 30
0.0
 10
968.8839268482831
 20
941.3904681047468
 30
0.0
 10
968.8762152315952
 20
940.7908751555876
 30
0.0
  0
ARC
  5
18E
330
1F
100
AcDbEntity
  8
0
  6
Continuous
 62
     8
370
    18
100
AcDbCircle
 10
968.8808669038
 20
945.8485678063
 30
0.0
 40
5.057694789839543
100
AcDbArc
 50
255.2593224014
 51
269.947303814
  0
ARC
  5
18F
330
1F
100
AcDbEntity
  8
0
  6
Continuous
 62
     8
370
    18
100
AcDbCircle
 10
968.9501802042
 20
957.8869555469
 30
0.0
 40
3.514588645695397
100
AcDbArc
 50
89.543868773
 51
112.3962449547
  0
SPLINE
  5
190
330
1F
100
AcDbEntity
  8
0
  6
Continuous
 62
     8
370
    18
100
AcDbSpline
210
0.0
220
0.0
230
1.0
 70
     8
 71
     3
 72
    13
 73
     9
 74
     0
 42
0.000000001
 43
0.00000001
 40
0.0
 40
0.0
 40
0.0
 40
0.0
 40
0.2149368602724797
 40
0.4364871802266586
 40
0.5720189549561251
 40
0.709105868689236
 40
0.8535021383530085
 40
1.0
 40
1.0
 40
1.0
 40
1.0
 10
896.4982489866602
 20
961.1364423073468
 30
0.0
 10
896.4999024444834
 20
959.7776509003943
 30
0.0
 10
896.5032602358922
 20
957.0182590074215
 30
0.0
 10
896.505478316331
 20
953.1122080844422
 30
0.0
 10
896.512751670987
 20
949.7018226737338
 30
0.0
 10
896.5159516837132
 20
946.8118678349323
 30
0.0
 10
896.5164367627759
 20
943.8653977894339
 30
0.0
 10
896.5157291309581
 20
941.9313469386082
 30
0.0
 10
896.5153727588729
 20
940.9573351471505
 30
0.0
  0
ARC
  5
191
330
1F
100
AcDbEntity
  8
0
  6
Continuous
 62
     8
370
    18
100
AcDbCircle
 10
895.2284696307
 20
945.8485678063
 30
0.0
 40
5.057694789842698
100
AcDbArc
 50
270.052696186
 51
284.7406775986
  0
SPLINE
  5
192
330
1F
100
AcDbEntity
  8
0
  6
Continuous
 62
     8
370
    18
100
AcDbSpline
210
0.0
220
0.0
230
1.0
 70
     8
 71
     3
 72
    13
 73
     9
 74
     0
 42
0.000000001
 43
0.00000001
 40
0.0
 40
0.0
 40
0.0
 40
0.0
 40
0.2027299767790309
 40
0.4113282396852199
 40
0.614061063374609
 40
0.8226668372537687
 40
0.9110997276786644
 40
1.0
 40
1.0
 40
1.0
 40
1.0
 10
895.1311770147955
 20
961.4014328204435
 30
0.0
 10
895.1159508869907
 20
960.0992951529082
 30
0.0
 10
895.0850578910623
 20
957.4573277284313
 30
0.0
 10
895.0622949912078
 20
953.1891024953313
 30
0.0
 10
895.1150639173954
 20
948.794902571836
 30
0.0
 10
895.1694820558419
 20
945.2562064063578
 30
0.0
 10
895.2100269957741
 20
942.5865017192492
 30
0.0
 10
895.2254096863039
 20
941.3904681047468
 30
0.0
 10
895.2331213029918
 20
940.7908751555876
 30
0.0
  0
ARC
  5
193
330
1F
100
AcDbEntity
  8
0
  6
Continuous
 62
     8
370
    18
100
AcDbCircle
 10
895.1591563304
 20
957.8869555469
 30
0.0
 40
3.51458864569608
100
AcDbArc
 50
67.6037550453
 51
90.456131227
  0
SPLINE
  5
194
330
1F
100
AcDbEntity
  8
0
  6
Continuous
 62
     8
370
    18
100
AcDbSpline
210
0.0
220
0.0
230
1.0
 70
     8
 71
     3
 72
    13
 73
     9
 74
     0
 42
0.000000001
 43
0.00000001
 40
0.0
 40
0.0
 40
0.0
 40
0.0
 40
0.1436817584227074
 40
0.2896128899910151
 40
0.4254711377184154
 40
0.5627814455502977
 40
0.7787239735870471
 40
1.0
 40
1.0
 40
1.0
 40
1.0
 10
898.4541597396668
 20
941.1381004231841
 30
0.0
 10
898.4732009386317
 20
942.0708260584345
 30
0.0
 10
898.5115814311984
 20
943.9508793773731
 30
0.0
 10
898.5769938982472
 20
946.8056365277099
 30
0.0
 10
898.6262151451161
 20
949.6296211671165
 30
0.0
 10
898.6630545272881
 20
952.9067082504972
 30
0.0
 10
898.63722288947
 20
956.7229422605939
 30
0.0
 10
898.5827242450972
 20
959.4315416552522
 30
0.0
 10
898.5551425165795
 20
960.8023620495259
 30
0.0
  0
ARC
  5
195
330
1F
100
AcDbEntity
  8
0
  6
Continuous
 62
     8
370
    18
100
AcDbCircle
 10
898.2286987825
 20
933.068714618
 30
0.0
 40
8.07253491269899
100
AcDbArc
 50
88.399555844
 51
102.2537357991
  0
ARC
  5
196
330
1F
100
AcDbEntity
  8
0
  6
Continuous
 62
     8
370
    18
100
AcDbCircle
 10
898.3810883001
 20
966.2297983375
 30
0.0
 40
5.430226471405962
100
AcDbArc
 50
249.71237279
 51
271.8368074448
  0
SPLINE
  5
197
330
1F
100
AcDbEntity
  8
0
  6
Continuous
 62
     8
370
    18
100
AcDbSpline
210
0.0
220
0.0
230
1.0
 70
     8
 71
     3
 72
    12
 73
     8
 74
     0
 42
0.000000001
 43
0.00000001
 40
0.0
 40
0.0
 40
0.0
 40
0.0
 40
0.1720195714145814
 40
0.4559851198820075
 40
0.6711971521946007
 40
0.8863140752002521
 40
1.0
 40
1.0
 40
1.0
 40
1.0
 10
978.5649974528014
 20
960.7476444267351
 30
0.0
 10
978.5832972081774
 20
959.6999350180769
 30
0.0
 10
978.6318057359013
 20
956.9226934729438
 30
0.0
 10
978.6634630597603
 20
952.4800556371546
 30
0.0
 10
978.603695389294
 20
947.6904838462044
 30
0.0
 10
978.5441318997082
 20
944.049484273423
 30
0.0
 10
978.5134919187365
 20
941.9387909164617
 30
0.0
 10
978.5028979272431
 20
941.2090036659666
 30
0.0
  0
ARC
  5
198
330
1F
100
AcDbEntity
  8
0
  6
Continuous
 62
     8
370
    18
100
AcDbCircle
 10
978.3990577935
 20
933.7153800358
 30
0.0
 40
7.494343058829303
100
AcDbArc
 50
89.206095618
 51
104.4630966536
  0
SPLINE
  5
199
330
1F
100
AcDbEntity
  8
0
  6
Continuous
 62
     8
370
    18
100
AcDbSpline
210
0.0
220
0.0
230
1.0
 70
     8
 71
     3
 72
    12
 73
     8
 74
     0
 42
0.000000001
 43
0.00000001
 40
0.0
 40
0.0
 40
0.0
 40
0.0
 40
0.1139185701341835
 40
0.3290869588708602
 40
0.5442936150078435
 40
0.8274287365843253
 40
0.9999999999999999
 40
0.9999999999999999
 40
0.9999999999999999
 40
0.9999999999999999
 10
976.5272977790037
 20
940.9722176619348
 30
0.0
 10
976.5269293319765
 20
941.7256715293925
 30
0.0
 10
976.5258649654596
 20
943.902242404528
 30
0.0
 10
976.5193418837765
 20
947.659191497815
 30
0.0
 10
976.5060225939671
 20
952.6038041773509
 30
0.0
 10
976.5042522516878
 20
957.1899343612553
 30
0.0
 10
976.4998388687063
 20
960.0458762735934
 30
0.0
 10
976.498167566521
 20
961.1273917411954
 30
0.0
  0
ARC
  5
19A
330
1F
100
AcDbEntity
  8
0
  6
Continuous
 62
     8
370
    18
100
AcDbCircle
 10
978.4613344206
 20
965.9978278298
 30
0.0
 40
5.251206698431363
100
AcDbArc
 50
248.0467083646
 51
271.13113812
  0
SPLINE
  5
19B
330
1F
100
AcDbEntity
  8
0
  6
Continuous
 62
     8
370
    18
100
AcDbSpline
210
0.0
220
0.0
230
1.0
 70
     8
 71
     3
 72
    13
 73
     9
 74
     0
 42
0.000000001
 43
0.00000001
 40
0.0
 40
0.0
 40
0.0
 40
0.0
 40
0.2029467742027862
 40
0.4117773519856941
 40
0.614725859430715
 40
0.8235672334127762
 40
0.9115535143092928
 40
1.0
 40
1.0
 40
1.0
 40
1.0
 10
975.1679017015081
 20
940.7908751555876
 30
0.0
 10
975.1579421106408
 20
942.1735299042564
 30
0.0
 10
975.1377341818855
 20
944.978925128466
 30
0.0
 10
975.097854200982
 20
949.3523251443138
 30
0.0
 10
975.0696723168799
 20
953.7458668778675
 30
0.0
 10
975.0802245131338
 20
957.1848200350587
 30
0.0
 10
975.0933387757806
 20
959.7253747918847
 30
0.0
 10
975.0975085921433
 20
960.8417761422972
 30
0.0
 10
975.0995989385704
 20
961.4014328204435
 30
0.0
  0
ARC
  5
19C
330
1F
100
AcDbEntity
  8
0
  6
Continuous
 62
     8
370
    18
100
AcDbCircle
 10
975.1465550399
 20
957.935255295
 30
0.0
 40
3.466495566626127
100
AcDbArc
 50
67.0512577733
 51
90.7761350494
  0
ARC
  5
19D
330
1F
100
AcDbEntity
  8
0
  6
Continuous
 62
     8
370
    18
100
AcDbCircle
 10
975.2069361827
 20
945.6841464424
 30
0.0
 40
4.893426976804432
100
AcDbArc
 50
269.5429512365
 51
285.6537643756
  0
SPLINE
  5
19E
330
1F
100
AcDbEntity
  8
0
  6
Continuous
 62
     8
370
    18
100
AcDbSpline
210
0.0
220
0.0
230
1.0
 70
     8
 71
     3
 72
    12
 73
     8
 74
     0
 42
0.000000001
 43
0.00000001
 40
0.0
 40
0.0
 40
0.0
 40
0.0
 40
0.1139185701341838
 40
0.3290869588708604
 40
0.5442936150078433
 40
0.827428736584325
 40
1.0
 40
1.0
 40
1.0
 40
1.0
 10
887.5820387555834
 20
940.9722176619348
 30
0.0
 10
887.5824072026106
 20
941.7256715293925
 30
0.0
 10
887.5834715691275
 20
943.902242404528
 30
0.0
 10
887.5899946508105
 20
947.659191497815
 30
0.0
 10
887.6033139406198
 20
952.6038041773509
 30
0.0
 10
887.6050842828992
 20
957.1899343612553
 30
0.0
 10
887.6094976658808
 20
960.0458762735934
 30
0.0
 10
887.6111689680661
 20
961.1273917411954
 30
0.0
  0
ARC
  5
19F
330
1F
100
AcDbEntity
  8
0
  6
Continuous
 62
     8
370
    18
100
AcDbCircle
 10
888.9627814947
 20
957.935255295
 30
0.0
 40
3.466495566625443
100
AcDbArc
 50
89.2238649506
 51
112.9487422267
  0
SPLINE
  5
1A0
330
1F
100
AcDbEntity
  8
0
  6
Continuous
 62
     8
370
    18
100
AcDbSpline
210
0.0
220
0.0
230
1.0
 70
     8
 71
     3
 72
    13
 73
     9
 74
     0
 42
0.000000001
 43
0.00000001
 40
0.0
 40
0.0
 40
0.0
 40
0.0
 40
0.2029467742027862
 40
0.4117773519856942
 40
0.6147258594307148
 40
0.823567233412776
 40
0.9115535143092925
 40
0.9999999999999999
 40
0.9999999999999999
 40
0.9999999999999999
 40
0.9999999999999999
 10
888.941434833079
 20
940.7908751555876
 30
0.0
 10
888.9513944239463
 20
942.1735299042564
 30
0.0
 10
888.9716023527016
 20
944.978925128466
 30
0.0
 10
889.0114823336049
 20
949.3523251443138
 30
0.0
 10
889.0396642177071
 20
953.7458668778675
 30
0.0
 10
889.0291120214533
 20
957.1848200350587
 30
0.0
 10
889.0159977588065
 20
959.7253747918847
 30
0.0
 10
889.0118279424437
 20
960.8417761422972
 30
0.0
 10
889.0097375960166
 20
961.4014328204435
 30
0.0
  0
ARC
  5
1A1
330
1F
100
AcDbEntity
  8
0
  6
Continuous
 62
     8
370
    18
100
AcDbCircle
 10
888.9024003519
 20
945.6841464424
 30
0.0
 40
4.893426976804446
100
AcDbArc
 50
254.3462356244
 51
270.4570487635
  0
ARC
  5
1A2
330
1F
100
AcDbEntity
  8
0
  6
Continuous
 62
     8
370
    18
100
AcDbCircle
 10
885.7102787411
 20
933.7153800368
 30
0.0
 40
7.494343057918604
100
AcDbArc
 50
75.536903345
 51
90.7939043825
  0
SPLINE
  5
1A3
330
1F
100
AcDbEntity
  8
0
  6
Continuous
 62
     8
370
    18
100
AcDbSpline
210
0.0
220
0.0
230
1.0
 70
     8
 71
     3
 72
    12
 73
     8
 74
     0
 42
0.000000001
 43
0.00000001
 40
0.0
 40
0.0
 40
0.0
 40
0.0
 40
0.1720195714147643
 40
0.455985119882404
 40
0.6711971521951589
 40
0.886314075200972
 40
1.0
 40
1.0
 40
1.0
 40
1.0
 10
885.5443390817857
 20
960.747644426736
 30
0.0
 10
885.5260393264095
 20
959.6999350180773
 30
0.0
 10
885.4775307986857
 20
956.9226934729442
 30
0.0
 10
885.4458734748267
 20
952.4800556371546
 30
0.0
 10
885.505641145293
 20
947.6904838462044
 30
0.0
 10
885.5652046348787
 20
944.0494842734284
 30
0.0
 10
885.5958446158504
 20
941.9387909164719
 30
0.0
 10
885.6064386073438
 20
941.209003665982
 30
0.0
  0
ARC
  5
1A4
330
1F
100
AcDbEntity
  8
0
  6
Continuous
 62
     8
370
    18
100
AcDbCircle
 10
885.648002114
 20
965.9978278298
 30
0.0
 40
5.251206698457331
100
AcDbArc
 50
268.86886188
 51
291.9532916353
  0
SPLINE
  5
1A5
330
1F
100
AcDbEntity
  8
0
  6
Continuous
 62
     8
370
    18
100
AcDbSpline
210
0.0
220
0.0
230
1.0
 70
     8
 71
     3
 72
    18
 73
    14
 74
     0
 42
0.000000001
 43
0.00000001
 40
0.0
 40
0.0
 40
0.0
 40
0.0
 40
0.1187379263355179
 40
0.2372884429469907
 40
0.331404675419057
 40
0.4254648559184064
 40
0.4734453088865542
 40
0.5747497371190676
 40
0.6761505261757317
 40
0.7786173354757667
 40
0.8811254610126253
 40
0.9999978570550635
 40
1.0
 40
1.0
 40
1.0
 40
1.0
 10
914.3016252518212
 20
936.1035448012958
 30
0.0
 10
913.6408993671782
 20
936.8663817591208
 30
0.0
 10
912.3204904530232
 20
938.3908516528696
 30
0.0
 10
910.8539634683161
 20
940.9407260434475
 30
0.0
 10
909.8354850647404
 20
943.5338804266041
 30
0.0
 10
909.3270120237926
 20
945.6644818312011
 30
0.0
 10
909.0445195543704
 20
947.9121156449021
 30
0.0
 10
909.0238489116252
 20
950.2630613859325
 30
0.0
 10
909.4084415830346
 20
953.0754383858829
 30
0.0
 10
910.1958397090947
 20
955.7752588735846
 30
0.0
 10
911.4049793778279
 20
958.4290664026922
 30
0.0
 10
912.4785610129999
 20
960.0562092520493
 30
0.0
 10
913.1117499307792
 20
960.8652298585624
 30
0.0
 10
913.1117613452418
 20
960.8652444427335
 30
0.0
  0
SPLINE
  5
1A6
330
1F
100
AcDbEntity
  8
0
  6
Continuous
 62
     8
370
    18
100
AcDbSpline
210
0.0
220
0.0
230
1.0
 70
     8
 71
     3
 72
    12
 73
     8
 74
     0
 42
0.000000001
 43
0.00000001
 40
0.0
 40
0.0
 40
0.0
 40
0.0
 40
0.0000046504629869
 40
0.3714055081554353
 40
0.6857565680976185
 40
0.9999954070716139
 40
0.9999999999999999
 40
0.9999999999999999
 40
0.9999999999999999
 40
0.9999999999999999
 10
913.1117613452418
 20
960.8652444427335
 30
0.0
 10
913.1117719126506
 20
960.86525955436
 30
0.0
 10
913.9557295688091
 20
962.0721375262341
 30
0.0
 10
915.753898910359
 20
964.1613387159473
 30
0.0
 10
918.9331015873386
 20
966.6819498573866
 30
0.0
 10
921.2095133464022
 20
967.9397707489123
 30
0.0
 10
922.4022016381272
 20
968.4726981715381
 30
0.0
 10
922.4022190702557
 20
968.4727059607144
 30
0.0
  0
SPLINE
  5
1A7
330
1F
100
AcDbEntity
  8
0
  6
Continuous
 62
     8
370
    18
100
AcDbSpline
210
0.0
220
0.0
230
1.0
 70
     8
 71
     3
 72
    13
 73
     9
 74
     0
 42
0.000000001
 43
0.00000001
 40
0.0
 40
0.0
 40
0.0
 40
0.0
 40
0.0000060747469312
 40
0.0389953121045219
 40
0.4458666753479011
 40
0.8520807833242775
 40
0.9999939252530686
 40
1.0
 40
1.0
 40
1.0
 40
1.0
 10
922.4022190702557
 20
968.4727059607144
 30
0.0
 10
922.4022379768386
 20
968.4727113888326
 30
0.0
 10
922.5236040369887
 20
968.5075558297666
 30
0.0
 10
923.913864374957
 20
968.896229936438
 30
0.0
 10
926.6112982861953
 20
969.471866534589
 30
0.0
 10
929.7437874868874
 20
969.7867325553044
 30
0.0
 10
931.5677042694554
 20
969.8305718958426
 30
0.0
 10
932.0546482694756
 20
969.8322437234646
 30
0.0
 10
932.0546682672936
 20
969.8322437921232
 30
0.0
  0
ARC
  5
1A8
330
1F
100
AcDbEntity
  8
0
  6
Continuous
 62
     8
370
    18
100
AcDbCircle
 10
916.2365005731
 20
933.1367891548
 30
0.0
 40
3.541946015255831
100
AcDbArc
 50
94.7268731721
 51
123.1118118867
  0
LINE
  5
1A9
330
1F
100
AcDbEntity
  8
0
  6
Continuous
 62
     8
370
    18
100
AcDbLine
 10
968.9781595198
 20
961.4014328204
 30
0.0
 11
975.0995989386
 21
961.4014328204
 31
0.0
  0
LINE
  5
1AA
330
1F
100
AcDbEntity
  8
0
  6
Continuous
 62
     8
370
    18
100
AcDbLine
 10
968.8762152316
 20
940.7908751556
 30
0.0
 11
975.1679017015
 21
940.7908751556
 31
0.0
  0
LINE
  5
1AB
330
1F
100
AcDbEntity
  8
0
  6
Continuous
 62
     8
370
    18
100
AcDbLine
 10
895.1311770148
 20
961.4014328204
 30
0.0
 11
889.009737596
 21
961.4014328204
 31
0.0
  0
LINE
  5
1AC
330
1F
100
AcDbEntity
  8
0
  6
Continuous
 62
     8
370
    18
100
AcDbLine
 10
895.233121303
 20
940.7908751556
 30
0.0
 11
888.9414348331
 21
940.7908751556
 31
0.0
  0
SPLINE
  5
1AD
330
1F
100
AcDbEntity
  8
0
  6
Continuous
 62
     8
370
    18
100
AcDbSpline
210
0.0
220
0.0
230
1.0
 70
     8
 71
     3
 72
    13
 73
     9
 74
     0
 42
0.000000001
 43
0.00000001
 40
0.0
 40
0.0
 40
0.0
 40
0.0
 40
0.0000053737334978
 40
0.0906707942514912
 40
0.4284179505337225
 40
0.7661993120302169
 40
0.9999947023277418
 40
1.0
 40
1.0
 40
1.0
 40
1.0
 10
1014.250866543963
 20
959.7725317374504
 30
0.0
 10
1014.250864267579
 20
959.772548872569
 30
0.0
 10
1014.212454930922
 20
960.0616690573879
 30
0.0
 10
1014.045395936913
 20
961.41253863263
 30
0.0
 10
1013.903931034529
 20
963.6932786523265
 30
0.0
 10
1014.007752615784
 20
966.0606345197411
 30
0.0
 10
1014.195758286984
 20
967.3215006844807
 30
0.0
 10
1014.282478204011
 20
967.7937268200939
 30
0.0
 10
1014.282480168991
 20
967.7937375202305
 30
0.0
  0
SPLINE
  5
1AE
330
1F
100
AcDbEntity
  8
0
  6
Continuous
 62
     8
370
    18
100
AcDbSpline
210
0.0
220
0.0
230
1.0
 70
     8
 71
     3
 72
    16
 73
    12
 74
     0
 42
0.000000001
 43
0.00000001
 40
0.0
 40
0.0
 40
0.0
 40
0.0
 40
0.1413878465932815
 40
0.2827745014148071
 40
0.419742216109451
 40
0.5565426439818638
 40
0.6823117952647068
 40
0.80811275117892
 40
0.9040276071128169
 40
0.999997754109581
 40
1.0
 40
1.0
 40
1.0
 40
1.0
 10
1011.057394240625
 20
935.4107932772209
 30
0.0
 10
1011.343875775071
 20
936.3569151409009
 30
0.0
 10
1011.916836429184
 20
938.2491508933091
 30
0.0
 10
1012.848515191796
 20
941.4864702488622
 30
0.0
 10
1013.705349616902
 20
944.9164809359954
 30
0.0
 10
1014.369340278864
 20
948.4015559242683
 30
0.0
 10
1014.703756612277
 20
951.8620767221165
 30
0.0
 10
1014.710930885443
 20
954.9031934467273
 30
0.0
 10
1014.508859609066
 20
957.5408365270076
 30
0.0
 10
1014.338534545499
 20
959.0459730283472
 30
0.0
 10
1014.250868595471
 20
959.7725147353417
 30
0.0
 10
1014.250866543963
 20
959.7725317374504
 30
0.0
  0
SPLINE
  5
1AF
330
1F
100
AcDbEntity
  8
0
  6
Continuous
 62
     8
370
    18
100
AcDbSpline
210
0.0
220
0.0
230
1.0
 70
     8
 71
     3
 72
    15
 73
    11
 74
     0
 42
0.000000001
 43
0.00000001
 40
0.0
 40
0.0
 40
0.0
 40
0.0
 40
0.0741043092108416
 40
0.2157454416471951
 40
0.3576180114207962
 40
0.4992302469455342
 40
0.6408865918967266
 40
0.7875090630818135
 40
0.9341450836288824
 40
1.0
 40
1.0
 40
1.0
 40
1.0
 10
978.1013571581677
 20
936.1482320175162
 30
0.0
 10
979.0899865729253
 20
936.1536544294702
 30
0.0
 10
981.9682576476268
 20
936.1694411046889
 30
0.0
 10
986.7316013826946
 20
936.0458424375248
 30
0.0
 10
992.1669962700404
 20
935.780048376541
 30
0.0
 10
997.2737352410909
 20
935.6947974193748
 30
0.0
 10
1001.990133212303
 20
935.5937455942567
 30
0.0
 10
1006.189745579231
 20
935.5088241252506
 30
0.0
 10
1009.158097289408
 20
935.4479674776364
 30
0.0
 10
1010.608032267352
 20
935.4195884643257
 30
0.0
 10
1011.057394240625
 20
935.4107932772209
 30
0.0
  0
SPLINE
  5
1B0
330
1F
100
AcDbEntity
  8
0
  6
Continuous
 62
     8
370
    18
100
AcDbSpline
210
0.0
220
0.0
230
1.0
 70
     8
 71
     3
 72
    11
 73
     7
 74
     0
 42
0.000000001
 43
0.00000001
 40
0.0
 40
0.0
 40
0.0
 40
0.0
 40
0.2471593440107359
 40
0.4953474341893453
 40
0.7469783905682664
 40
1.0
 40
1.0
 40
1.0
 40
1.0
 10
978.5028979272431
 20
941.2090036659666
 30
0.0
 10
978.4938829960558
 20
940.7715896999415
 30
0.0
 10
978.4758156110216
 20
939.8949411288894
 30
0.0
 10
978.4032676061073
 20
938.612878921082
 30
0.0
 10
978.2964653226237
 20
937.3534031680575
 30
0.0
 10
978.1665125816954
 20
936.5506930675488
 30
0.0
 10
978.1013571581677
 20
936.1482320175162
 30
0.0
  0
SPLINE
  5
1B1
330
1F
100
AcDbEntity
  8
0
  6
Continuous
 62
     8
370
    18
100
AcDbSpline
210
0.0
220
0.0
230
1.0
 70
     8
 71
     3
 72
    10
 73
     6
 74
     0
 42
0.000000001
 43
0.00000001
 40
0.0
 40
0.0
 40
0.0
 40
0.0
 40
0.499971244294921
 40
0.749982626431599
 40
1.0
 40
1.0
 40
1.0
 40
1.0
 10
978.5379138511789
 20
963.4552240461145
 30
0.0
 10
978.5424168896604
 20
963.0057820893684
 30
0.0
 10
978.5491716793924
 20
962.3315959976777
 30
0.0
 10
978.5583461690221
 20
961.4276199348301
 30
0.0
 10
978.562780340498
 20
960.9743047400005
 30
0.0
 10
978.5649974528014
 20
960.7476444267351
 30
0.0
  0
SPLINE
  5
1B2
330
1F
100
AcDbEntity
  8
0
  6
Continuous
 62
     8
370
    18
100
AcDbSpline
210
0.0
220
0.0
230
1.0
 70
     8
 71
     3
 72
    14
 73
    10
 74
     0
 42
0.000000001
 43
0.00000001
 40
0.0
 40
0.0
 40
0.0
 40
0.0
 40
0.0000086772971397
 40
0.0546554576672009
 40
0.1545956188497088
 40
0.2815115513694852
 40
0.4757791841528443
 40
0.7372214479202259
 40
1.0
 40
1.0
 40
1.0
 40
1.0
 10
975.8870309913611
 20
968.4912689212862
 30
0.0
 10
975.8870508342484
 20
968.4912668004529
 30
0.0
 10
976.0120346928159
 20
968.4779083649998
 30
0.0
 10
976.3624915970479
 20
968.4135071608482
 30
0.0
 10
976.9527057479481
 20
968.1575209755258
 30
0.0
 10
977.6347093790932
 20
967.5415843719085
 30
0.0
 10
978.185436294848
 20
966.4659103256157
 30
0.0
 10
978.4928729524426
 20
965.045094301185
 30
0.0
 10
978.5228747258165
 20
963.9860806397134
 30
0.0
 10
978.5379138511789
 20
963.4552240461145
 30
0.0
  0
SPLINE
  5
1B3
330
1F
100
AcDbEntity
  8
0
  6
Continuous
 62
     8
370
    18
100
AcDbSpline
210
0.0
220
0.0
230
1.0
 70
     8
 71
     3
 72
    10
 73
     6
 74
     0
 42
0.000000001
 43
0.00000001
 40
0.0
 40
0.0
 40
0.0
 40
0.0
 40
0.4993573099096776
 40
0.9998128115861747
 40
1.0
 40
1.0
 40
1.0
 40
1.0
 10
975.5667337936129
 20
968.5008800841913
 30
0.0
 10
975.6200907978117
 20
968.5008034640914
 30
0.0
 10
975.7269221494853
 20
968.5006500553882
 30
0.0
 10
975.8336751747645
 20
968.4950353138656
 30
0.0
 10
975.8870110492788
 20
968.4912703289998
 30
0.0
 10
975.8870309913611
 20
968.4912689212862
 30
0.0
  0
SPLINE
  5
1B4
330
1F
100
AcDbEntity
  8
0
  6
Continuous
 62
     8
370
    18
100
AcDbSpline
210
0.0
220
0.0
230
1.0
 70
     8
 71
     3
 72
    11
 73
     7
 74
     0
 42
0.000000001
 43
0.00000001
 40
0.0
 40
0.0
 40
0.0
 40
0.0
 40
0.2499912677933776
 40
0.499986756231606
 40
0.749992678491824
 40
0.9999999999999999
 40
0.9999999999999999
 40
0.9999999999999999
 40
0.9999999999999999
 10
968.4575497278842
 20
968.4107315974488
 30
0.0
 10
969.0500397853069
 20
968.4162294523762
 30
0.0
 10
970.2350299032624
 20
968.4272252550525
 30
0.0
 10
972.0123879155665
 20
968.4485822447847
 30
0.0
 10
973.789579474749
 20
968.4754551643653
 30
0.0
 10
974.9743479154977
 20
968.4924050951048
 30
0.0
 10
975.5667337936129
 20
968.5008800841913
 30
0.0
  0
SPLINE
  5
1B5
330
1F
100
AcDbEntity
  8
0
  6
Continuous
 62
     8
370
    18
100
AcDbSpline
210
0.0
220
0.0
230
1.0
 70
     8
 71
     3
 72
    13
 73
     9
 74
     0
 42
0.000000001
 43
0.00000001
 40
0.0
 40
0.0
 40
0.0
 40
0.0
 40
0.2367907207557284
 40
0.4727251677986167
 40
0.6779786081237342
 40
0.8068813697292122
 40
0.9029811039670018
 40
1.0
 40
1.0
 40
1.0
 40
1.0
 10
965.5892990908484
 20
963.5197102278958
 30
0.0
 10
965.6057802269997
 20
964.0041345277846
 30
0.0
 10
965.6386829008369
 20
964.9712313705992
 30
0.0
 10
965.9247195574959
 20
966.3223997197102
 30
0.0
 10
966.4355775522966
 20
967.3928880034624
 30
0.0
 10
967.1160843951437
 20
968.0318775238366
 30
0.0
 10
967.7817076007061
 20
968.3517339387631
 30
0.0
 10
968.2315553247928
 20
968.3910034092785
 30
0.0
 10
968.4575497278842
 20
968.4107315974488
 30
0.0
  0
SPLINE
  5
1B6
330
1F
100
AcDbEntity
  8
0
  6
Continuous
 62
     8
370
    18
100
AcDbSpline
210
0.0
220
0.0
230
1.0
 70
     8
 71
     3
 72
    12
 73
     8
 74
     0
 42
0.000000001
 43
0.00000001
 40
0.0
 40
0.0
 40
0.0
 40
0.0
 40
0.1229311840443848
 40
0.3421870394857944
 40
0.56144665702983
 40
0.7807202463634139
 40
0.9999999999999999
 40
0.9999999999999999
 40
0.9999999999999999
 40
0.9999999999999999
 10
965.5541940180076
 20
960.8023620495259
 30
0.0
 10
965.5556647637892
 20
960.9142581961228
 30
0.0
 10
965.5597586814455
 20
961.2257284827836
 30
0.0
 10
965.5659980697011
 20
961.7357035323072
 30
0.0
 10
965.5738573587195
 20
962.3319976611523
 30
0.0
 10
965.5817068802214
 20
962.9269328453518
 30
0.0
 10
965.5867683302581
 20
963.3221159154842
 30
0.0
 10
965.5892990908484
 20
963.5197102278958
 30
0.0
  0
SPLINE
  5
1B7
330
1F
100
AcDbEntity
  8
0
  6
Continuous
 62
     8
370
    18
100
AcDbSpline
210
0.0
220
0.0
230
1.0
 70
     8
 71
     3
 72
    11
 73
     7
 74
     0
 42
0.000000001
 43
0.00000001
 40
0.0
 40
0.0
 40
0.0
 40
0.0
 40
0.2462626445433908
 40
0.4941955352617329
 40
0.7464627646446462
 40
1.0
 40
1.0
 40
1.0
 40
1.0
 10
966.1086944284377
 20
936.1612940917809
 30
0.0
 10
966.0386252329803
 20
936.5445436066261
 30
0.0
 10
965.8980116063433
 20
937.3136419791336
 30
0.0
 10
965.7758021149382
 20
938.5400789460308
 30
0.0
 10
965.6900998268538
 20
939.8131200045327
 30
0.0
 10
965.666837275262
 20
940.695701602991
 30
0.0
 10
965.6551767949201
 20
941.138100423184
 30
0.0
  0
SPLINE
  5
1B8
330
1F
100
AcDbEntity
  8
0
  6
Continuous
 62
     8
370
    18
100
AcDbSpline
210
0.0
220
0.0
230
1.0
 70
     8
 71
     3
 72
    10
 73
     6
 74
     0
 42
0.000000001
 43
0.00000001
 40
0.0
 40
0.0
 40
0.0
 40
0.0
 40
0.1324174185454166
 40
0.5661890535506258
 40
1.0
 40
1.0
 40
1.0
 40
1.0
 10
949.8077112827656
 20
936.1035448012959
 30
0.0
 10
950.5271632123405
 20
936.1051549894564
 30
0.0
 10
953.6033884669613
 20
936.1120398156418
 30
0.0
 10
959.0369925428985
 20
936.1360281036656
 30
0.0
 10
963.7513892611726
 20
936.1528718413375
 30
0.0
 10
966.1086944284377
 20
936.1612940917809
 30
0.0
  0
SPLINE
  5
1B9
330
1F
100
AcDbEntity
  8
0
  6
Continuous
 62
     8
370
    18
100
AcDbSpline
210
0.0
220
0.0
230
1.0
 70
    24
 71
     3
 72
    13
 73
     9
 74
     0
 42
0.000000001
 43
0.00000001
 40
0.0
 40
0.0
 40
0.0
 40
0.0
 40
0.011033813517655
 40
0.1238791831256935
 40
0.2424431658814009
 40
0.3676203809258458
 40
0.4940963046860048
 40
1.0
 40
1.0
 40
1.0
 40
1.0
 10
932.0546682672936
 20
969.8322437921329
 30
0.0
 10
932.0546682672936
 20
969.8472199303701
 30
0.0
 10
932.0546682672936
 20
970.0153605073538
 30
0.0
 10
932.0546682672936
 20
970.3177647457907
 30
0.0
 10
932.0546682672936
 20
970.644371809905
 30
0.0
 10
932.0546682672936
 20
971.5200908978014
 30
0.0
 10
932.0546682672936
 20
973.1271502117338
 30
0.0
 10
932.0546682672936
 20
974.5074441944145
 30
0.0
 10
932.0546682672936
 20
975.6116793806783
 30
0.0
  0
SPLINE
  5
1BA
330
1F
100
AcDbEntity
  8
0
  6
Continuous
 62
     8
370
    18
100
AcDbSpline
210
0.0
220
0.0
230
1.0
 70
     8
 71
     3
 72
    11
 73
     7
 74
     0
 42
0.000000001
 43
0.00000001
 40
0.0
 40
0.0
 40
0.0
 40
0.0
 40
0.0000075172908922
 40
0.4486753649769361
 40
0.9105406426921417
 40
1.0
 40
1.0
 40
1.0
 40
1.0
 10
1014.282480168991
 20
967.7937375202305
 30
0.0
 10
1014.282483823112
 20
967.7937457044392
 30
0.0
 10
1014.500582854215
 20
968.282226579893
 30
0.0
 10
1014.814367136522
 20
969.0684460305827
 30
0.0
 10
1014.94055602054
 20
969.5403857099745
 30
0.0
 10
1014.984727264232
 20
969.684548135797
 30
0.0
 10
1014.991894604164
 20
969.7079403028484
 30
0.0
  0
SPLINE
  5
1BB
330
1F
100
AcDbEntity
  8
0
  6
Continuous
 62
     8
370
    18
100
AcDbSpline
210
0.0
220
0.0
230
1.0
 70
     8
 71
     3
 72
    11
 73
     7
 74
     0
 42
0.000000001
 43
0.00000001
 40
0.0
 40
0.0
 40
0.0
 40
0.0
 40
0.2462626445433194
 40
0.4941955352616854
 40
0.7464627646446215
 40
1.0
 40
1.0
 40
1.0
 40
1.0
 10
898.0006421061493
 20
936.1612940917814
 30
0.0
 10
898.0707113016067
 20
936.5445436066263
 30
0.0
 10
898.2113249282439
 20
937.3136419791339
 30
0.0
 10
898.3335344196489
 20
938.5400789460308
 30
0.0
 10
898.4192367077331
 20
939.8131200045327
 30
0.0
 10
898.442499259325
 20
940.695701602991
 30
0.0
 10
898.4541597396668
 20
941.1381004231841
 30
0.0
  0
SPLINE
  5
1BC
330
1F
100
AcDbEntity
  8
0
  6
Continuous
 62
     8
370
    18
100
AcDbSpline
210
0.0
220
0.0
230
1.0
 70
     8
 71
     3
 72
    12
 73
     8
 74
     0
 42
0.000000001
 43
0.00000001
 40
0.0
 40
0.0
 40
0.0
 40
0.0
 40
0.1229311840443856
 40
0.3421870394857944
 40
0.561446657029829
 40
0.780720246363412
 40
1.0
 40
1.0
 40
1.0
 40
1.0
 10
898.5551425165795
 20
960.8023620495259
 30
0.0
 10
898.5536717707979
 20
960.9142581961228
 30
0.0
 10
898.5495778531416
 20
961.2257284827836
 30
0.0
 10
898.543338464886
 20
961.7357035323072
 30
0.0
 10
898.5354791758676
 20
962.3319976611523
 30
0.0
 10
898.5276296543657
 20
962.9269328453518
 30
0.0
 10
898.5225682043288
 20
963.3221159154842
 30
0.0
 10
898.5200374437385
 20
963.5197102278958
 30
0.0
  0
SPLINE
  5
1BD
330
1F
100
AcDbEntity
  8
0
  6
Continuous
 62
     8
370
    18
100
AcDbSpline
210
0.0
220
0.0
230
1.0
 70
     8
 71
     3
 72
    13
 73
     9
 74
     0
 42
0.000000001
 43
0.00000001
 40
0.0
 40
0.0
 40
0.0
 40
0.0
 40
0.2367907207557265
 40
0.4727251677986153
 40
0.6779786081237333
 40
0.8068813697292117
 40
0.9029811039670014
 40
0.9999999999999999
 40
0.9999999999999999
 40
0.9999999999999999
 40
0.9999999999999999
 10
898.5200374437385
 20
963.5197102278958
 30
0.0
 10
898.5035563075871
 20
964.0041345277846
 30
0.0
 10
898.4706536337501
 20
964.9712313705992
 30
0.0
 10
898.1846169770912
 20
966.3223997197102
 30
0.0
 10
897.6737589822905
 20
967.3928880034624
 30
0.0
 10
896.9932521394433
 20
968.0318775238366
 30
0.0
 10
896.3276289338809
 20
968.3517339387631
 30
0.0
 10
895.8777812097943
 20
968.3910034092785
 30
0.0
 10
895.651786806703
 20
968.4107315974488
 30
0.0
  0
SPLINE
  5
1BE
330
1F
100
AcDbEntity
  8
0
  6
Continuous
 62
     8
370
    18
100
AcDbSpline
210
0.0
220
0.0
230
1.0
 70
     8
 71
     3
 72
    11
 73
     7
 74
     0
 42
0.000000001
 43
0.00000001
 40
0.0
 40
0.0
 40
0.0
 40
0.0
 40
0.2499912677933776
 40
0.499986756231606
 40
0.749992678491824
 40
0.9999999999999999
 40
0.9999999999999999
 40
0.9999999999999999
 40
0.9999999999999999
 10
895.651786806703
 20
968.4107315974488
 30
0.0
 10
895.0592967492802
 20
968.4162294523762
 30
0.0
 10
893.8743066313245
 20
968.4272252550525
 30
0.0
 10
892.0969486190205
 20
968.4485822447847
 30
0.0
 10
890.3197570598383
 20
968.4754551643653
 30
0.0
 10
889.1349886190894
 20
968.4924050951048
 30
0.0
 10
888.5426027409742
 20
968.5008800841913
 30
0.0
  0
SPLINE
  5
1BF
330
1F
100
AcDbEntity
  8
0
  6
Continuous
 62
     8
370
    18
100
AcDbSpline
210
0.0
220
0.0
230
1.0
 70
     8
 71
     3
 72
    10
 73
     6
 74
     0
 42
0.000000001
 43
0.00000001
 40
0.0
 40
0.0
 40
0.0
 40
0.0
 40
0.4993573099105828
 40
0.9998128115878191
 40
0.9999999999999999
 40
0.9999999999999999
 40
0.9999999999999999
 40
0.9999999999999999
 10
888.5426027409742
 20
968.5008800841913
 30
0.0
 10
888.4892457367777
 20
968.5008034640905
 30
0.0
 10
888.3824143851086
 20
968.500650055385
 30
0.0
 10
888.2756613598063
 20
968.495035313873
 30
0.0
 10
888.2223254853086
 20
968.4912703289998
 30
0.0
 10
888.2223055432264
 20
968.4912689212862
 30
0.0
  0
SPLINE
  5
1C0
330
1F
100
AcDbEntity
  8
0
  6
Continuous
 62
     8
370
    18
100
AcDbSpline
210
0.0
220
0.0
230
1.0
 70
     8
 71
     3
 72
    14
 73
    10
 74
     0
 42
0.000000001
 43
0.00000001
 40
0.0
 40
0.0
 40
0.0
 40
0.0
 40
0.0000086772972158
 40
0.0546554576672727
 40
0.1545956188497728
 40
0.2815115513695395
 40
0.4757791841528836
 40
0.7372214479202452
 40
1.0
 40
1.0
 40
1.0
 40
1.0
 10
888.2223055432264
 20
968.4912689212862
 30
0.0
 10
888.2222857003392
 20
968.4912668004529
 30
0.0
 10
888.0973018417832
 20
968.4779083650739
 30
0.0
 10
887.7468449375291
 20
968.4135071607845
 30
0.0
 10
887.1566307866433
 20
968.1575209755529
 30
0.0
 10
886.4746271554918
 20
967.5415843718959
 30
0.0
 10
885.92390023974
 20
966.4659103256213
 30
0.0
 10
885.6164635821442
 20
965.0450943011834
 30
0.0
 10
885.5864618087704
 20
963.9860806397128
 30
0.0
 10
885.5714226834083
 20
963.4552240461145
 30
0.0
  0
SPLINE
  5
1C1
330
1F
100
AcDbEntity
  8
0
  6
Continuous
 62
     8
370
    18
100
AcDbSpline
210
0.0
220
0.0
230
1.0
 70
     8
 71
     3
 72
    10
 73
     6
 74
     0
 42
0.000000001
 43
0.00000001
 40
0.0
 40
0.0
 40
0.0
 40
0.0
 40
0.4999712442950947
 40
0.7499826264318606
 40
1.0
 40
1.0
 40
1.0
 40
1.0
 10
885.5714226834083
 20
963.4552240461145
 30
0.0
 10
885.5669196449268
 20
963.0057820893684
 30
0.0
 10
885.5601648551946
 20
962.3315959976777
 30
0.0
 10
885.5509903655649
 20
961.4276199348304
 30
0.0
 10
885.5465561940891
 20
960.9743047400012
 30
0.0
 10
885.5443390817857
 20
960.747644426736
 30
0.0
  0
SPLINE
  5
1C2
330
1F
100
AcDbEntity
  8
0
  6
Continuous
 62
     8
370
    18
100
AcDbSpline
210
0.0
220
0.0
230
1.0
 70
     8
 71
     3
 72
    11
 73
     7
 74
     0
 42
0.000000001
 43
0.00000001
 40
0.0
 40
0.0
 40
0.0
 40
0.0
 40
0.2471593440128868
 40
0.495347434190764
 40
0.7469783905689429
 40
1.0
 40
1.0
 40
1.0
 40
1.0
 10
885.6064386073438
 20
941.209003665982
 30
0.0
 10
885.615453538531
 20
940.7715896999516
 30
0.0
 10
885.6335209235651
 20
939.8949411288943
 30
0.0
 10
885.7060689284797
 20
938.612878921082
 30
0.0
 10
885.8128712119633
 20
937.3534031680573
 30
0.0
 10
885.942823952892
 20
936.5506930675485
 30
0.0
 10
886.0079793764202
 20
936.1482320175159
 30
0.0
  0
SPLINE
  5
1C3
330
1F
100
AcDbEntity
  8
0
  6
Continuous
 62
     8
370
    18
100
AcDbSpline
210
0.0
220
0.0
230
1.0
 70
     8
 71
     3
 72
    18
 73
    14
 74
     0
 42
0.000000001
 43
0.00000001
 40
0.0
 40
0.0
 40
0.0
 40
0.0
 40
0.0523730000254507
 40
0.1524774488988088
 40
0.2527454654215876
 40
0.3528294914886488
 40
0.4529446917616021
 40
0.5565696869728507
 40
0.6602042581553618
 40
0.7756279704749326
 40
0.8910143299899644
 40
0.9999989407468236
 40
1.0
 40
1.0
 40
1.0
 40
1.0
 10
886.0079793764202
 20
936.1482320175159
 30
0.0
 10
885.0193508460063
 20
936.153654419629
 30
0.0
 10
882.1410823459623
 20
936.1694410661975
 30
0.0
 10
877.3777056037127
 20
936.0458427663359
 30
0.0
 10
871.9424488685481
 20
935.780047167999
 30
0.0
 10
866.8351972508531
 20
935.694801915549
 30
0.0
 10
862.1207340620954
 20
935.5937285602308
 30
0.0
 10
857.9136545888348
 20
935.508890184956
 30
0.0
 10
854.1688363846777
 20
935.4311931003434
 30
0.0
 10
851.1320986233951
 20
935.3771311655856
 30
0.0
 10
849.0361994252212
 20
935.3318515810307
 30
0.0
 10
848.372159279263
 20
935.2911172017596
 30
0.0
 10
848.2238315207865
 20
935.2738254453592
 30
0.0
 10
848.2238300791597
 20
935.2738252772971
 30
0.0
  0
SPLINE
  5
1C4
330
1F
100
AcDbEntity
  8
0
  6
Continuous
 62
     8
370
    18
100
AcDbSpline
210
0.0
220
0.0
230
1.0
 70
     8
 71
     3
 72
    10
 73
     6
 74
     0
 42
0.000000001
 43
0.00000001
 40
0.0
 40
0.0
 40
0.0
 40
0.0
 40
0.1324174185454049
 40
0.5661890535506182
 40
1.0
 40
1.0
 40
1.0
 40
1.0
 10
914.3016252518212
 20
936.1035448012958
 30
0.0
 10
913.5821733222466
 20
936.1051549894564
 30
0.0
 10
910.5059480676257
 20
936.112039815642
 30
0.0
 10
905.0723439916885
 20
936.1360281036652
 30
0.0
 10
900.3579472734147
 20
936.1528718413379
 30
0.0
 10
898.0006421061493
 20
936.1612940917814
 30
0.0
  0
SPLINE
  5
1C5
330
1F
100
AcDbEntity
  8
0
  6
Continuous
 62
     8
370
    18
100
AcDbSpline
210
0.0
220
0.0
230
1.0
 70
     8
 71
     3
 72
    13
 73
     9
 74
     0
 42
0.000000001
 43
0.00000001
 40
0.0
 40
0.0
 40
0.0
 40
0.0
 40
0.2478822118510322
 40
0.502696035499669
 40
0.5906876656854326
 40
0.6789803873276651
 40
0.8384693780655392
 40
1.0
 40
1.0
 40
1.0
 40
1.0
 10
968.8762152315952
 20
940.7908751555876
 30
0.0
 10
968.8611419477774
 20
940.0431666778466
 30
0.0
 10
968.8305738809498
 20
938.5268413043424
 30
0.0
 10
968.7210051295239
 20
936.9220234975148
 30
0.0
 10
968.6078214740996
 20
935.8437311444371
 30
0.0
 10
968.5053503264253
 20
935.0468084261636
 30
0.0
 10
968.3414003959913
 20
934.1430400383465
 30
0.0
 10
968.1490309984883
 20
933.5458304452372
 30
0.0
 10
968.0522345810945
 20
933.2453265719781
 30
0.0
  0
SPLINE
  5
1C6
330
1F
100
AcDbEntity
  8
0
  6
Continuous
 62
     8
370
    18
100
AcDbSpline
210
0.0
220
0.0
230
1.0
 70
     8
 71
     3
 72
    17
 73
    13
 74
     0
 42
0.000000001
 43
0.00000001
 40
0.0
 40
0.0
 40
0.0
 40
0.0
 40
0.3465956100132824
 40
0.5797997290136738
 40
0.7338947238710104
 40
0.8810219207410025
 40
0.9331891565949331
 40
0.9524593563030792
 40
0.9753918570412518
 40
0.9867243403144461
 40
0.9980977605384078
 40
1.0
 40
1.0
 40
1.0
 40
1.0
 10
967.6175264938076
 20
936.1426952614869
 30
0.0
 10
967.6275435168542
 20
935.7620343049741
 30
0.0
 10
967.6443004147495
 20
935.1252486300958
 30
0.0
 10
967.6620947848306
 20
934.3909844097774
 30
0.0
 10
967.6971878051157
 20
933.8826752982246
 30
0.0
 10
967.7458875708019
 20
933.562332260645
 30
0.0
 10
967.8282449814243
 20
933.375033796007
 30
0.0
 10
967.8882812574705
 20
933.3014826838698
 30
0.0
 10
967.9376531427995
 20
933.2644324223954
 30
0.0
 10
967.9959604828953
 20
933.246292792094
 30
0.0
 10
968.0311351465253
 20
933.2440153273583
 30
0.0
 10
968.0495901981885
 20
933.2451622342634
 30
0.0
 10
968.0522345810945
 20
933.2453265719781
 30
0.0
  0
SPLINE
  5
1C7
330
1F
100
AcDbEntity
  8
0
  6
Continuous
 62
     8
370
    18
100
AcDbSpline
210
0.0
220
0.0
230
1.0
 70
     8
 71
     3
 72
    11
 73
     7
 74
     0
 42
0.000000001
 43
0.00000001
 40
0.0
 40
0.0
 40
0.0
 40
0.0
 40
0.367415589971851
 40
0.7400731437703101
 40
0.8699218969645782
 40
1.0
 40
1.0
 40
1.0
 40
1.0
 10
967.5939637757142
 20
940.9573351471505
 30
0.0
 10
967.5943348437526
 20
940.33029801808
 30
0.0
 10
967.5950822739032
 20
939.0672777433892
 30
0.0
 10
967.5974834243978
 20
937.6796065059486
 30
0.0
 10
967.6059568762169
 20
936.7156018594607
 30
0.0
 10
967.6136676866994
 20
936.3337764303556
 30
0.0
 10
967.6175264938076
 20
936.1426952614869
 30
0.0
  0
SPLINE
  5
1C8
330
1F
100
AcDbEntity
  8
0
  6
Continuous
 62
     8
370
    18
100
AcDbSpline
210
0.0
220
0.0
230
1.0
 70
     8
 71
     3
 72
    11
 73
     7
 74
     0
 42
0.000000001
 43
0.00000001
 40
0.0
 40
0.0
 40
0.0
 40
0.0
 40
0.3674155899718522
 40
0.7400731437703103
 40
0.8699218969645782
 40
1.0
 40
1.0
 40
1.0
 40
1.0
 10
896.515372758873
 20
940.9573351471505
 30
0.0
 10
896.5150016908345
 20
940.33029801808
 30
0.0
 10
896.5142542606839
 20
939.0672777433892
 30
0.0
 10
896.5118531101892
 20
937.6796065059486
 30
0.0
 10
896.5033796583704
 20
936.7156018594607
 30
0.0
 10
896.4956688478877
 20
936.3337764303556
 30
0.0
 10
896.4918100407795
 20
936.1426952614869
 30
0.0
  0
SPLINE
  5
1C9
330
1F
100
AcDbEntity
  8
0
  6
Continuous
 62
     8
370
    18
100
AcDbSpline
210
0.0
220
0.0
230
1.0
 70
     8
 71
     3
 72
    17
 73
    13
 74
     0
 42
0.000000001
 43
0.00000001
 40
0.0
 40
0.0
 40
0.0
 40
0.0
 40
0.346595610013282
 40
0.5797997290136733
 40
0.7338947238710107
 40
0.8810219207410018
 40
0.9331891565949324
 40
0.9524593563030793
 40
0.9753918570412519
 40
0.9867243403144462
 40
0.9980977605384079
 40
1.0
 40
1.0
 40
1.0
 40
1.0
 10
896.4918100407795
 20
936.1426952614869
 30
0.0
 10
896.4817930177328
 20
935.7620343049741
 30
0.0
 10
896.4650361198377
 20
935.1252486300958
 30
0.0
 10
896.4472417497566
 20
934.3909844097774
 30
0.0
 10
896.4121487294713
 20
933.8826752982246
 30
0.0
 10
896.3634489637852
 20
933.5623322606448
 30
0.0
 10
896.2810915531628
 20
933.375033796007
 30
0.0
 10
896.2210552771166
 20
933.3014826838698
 30
0.0
 10
896.1716833917875
 20
933.2644324223954
 30
0.0
 10
896.1133760516918
 20
933.246292792094
 30
0.0
 10
896.0782013880618
 20
933.2440153273584
 30
0.0
 10
896.0597463363986
 20
933.2451622342634
 30
0.0
 10
896.0571019534925
 20
933.2453265719781
 30
0.0
  0
SPLINE
  5
1CA
330
1F
100
AcDbEntity
  8
0
  6
Continuous
 62
     8
370
    18
100
AcDbSpline
210
0.0
220
0.0
230
1.0
 70
     8
 71
     3
 72
    13
 73
     9
 74
     0
 42
0.000000001
 43
0.00000001
 40
0.0
 40
0.0
 40
0.0
 40
0.0
 40
0.2478822118510322
 40
0.502696035499669
 40
0.5906876656854331
 40
0.6789803873276656
 40
0.8384693780655392
 40
1.0
 40
1.0
 40
1.0
 40
1.0
 10
895.2331213029918
 20
940.7908751555876
 30
0.0
 10
895.2481945868097
 20
940.0431666778463
 30
0.0
 10
895.2787626536373
 20
938.5268413043423
 30
0.0
 10
895.3883314050632
 20
936.9220234975148
 30
0.0
 10
895.5015150604873
 20
935.8437311444371
 30
0.0
 10
895.6039862081617
 20
935.0468084261636
 30
0.0
 10
895.7679361385958
 20
934.1430400383465
 30
0.0
 10
895.9603055360988
 20
933.5458304452372
 30
0.0
 10
896.0571019534925
 20
933.2453265719781
 30
0.0
  0
SPLINE
  5
1CB
330
1F
100
AcDbEntity
  8
0
  6
Continuous
 62
     8
370
    18
100
AcDbSpline
210
0.0
220
0.0
230
1.0
 70
     8
 71
     3
 72
    11
 73
     7
 74
     0
 42
0.000000001
 43
0.00000001
 40
0.0
 40
0.0
 40
0.0
 40
0.0
 40
0.3598580230790374
 40
0.7246062069006073
 40
0.8621677510649506
 40
1.0
 40
1.0
 40
1.0
 40
1.0
 10
976.5248159278689
 20
936.0713410797257
 30
0.0
 10
976.5280680241207
 20
936.6176374283566
 30
0.0
 10
976.5346164098127
 20
937.717653822706
 30
0.0
 10
976.528557906814
 20
939.1525851309298
 30
0.0
 10
976.5274423508412
 20
940.2488346679035
 30
0.0
 10
976.5273460011858
 20
940.7309320342965
 30
0.0
 10
976.5272977790037
 20
940.9722176619348
 30
0.0
  0
SPLINE
  5
1CC
330
1F
100
AcDbEntity
  8
0
  6
Continuous
 62
     8
370
    18
100
AcDbSpline
210
0.0
220
0.0
230
1.0
 70
     8
 71
     3
 72
    16
 73
    12
 74
     0
 42
0.000000001
 43
0.00000001
 40
0.0
 40
0.0
 40
0.0
 40
0.0
 40
0.0117733620155406
 40
0.0227113902881391
 40
0.0341085178796156
 40
0.044872447014466
 40
0.0843977891274212
 40
0.1801725761900122
 40
0.6004756555876863
 40
0.7301077904365099
 40
1.0
 40
1.0
 40
1.0
 40
1.0
 10
976.0869604806077
 20
932.938057975323
 30
0.0
 10
976.1042215608477
 20
932.9347046079
 30
0.0
 10
976.1375190275874
 20
932.9282357983773
 30
0.0
 10
976.1920474862258
 20
932.9302993365633
 30
0.0
 10
976.2404584850985
 20
932.9439395214354
 30
0.0
 10
976.3124075856605
 20
932.9845174643349
 30
0.0
 10
976.4064162353983
 20
933.1151839543656
 30
0.0
 10
976.5315250601809
 20
933.642572832694
 30
0.0
 10
976.5110936247701
 20
934.3236424290494
 30
0.0
 10
976.5141976753652
 20
935.2542136339797
 30
0.0
 10
976.5205349108953
 20
935.7418954893568
 30
0.0
 10
976.5248159278689
 20
936.0713410797257
 30
0.0
  0
SPLINE
  5
1CD
330
1F
100
AcDbEntity
  8
0
  6
Continuous
 62
     8
370
    18
100
AcDbSpline
210
0.0
220
0.0
230
1.0
 70
     8
 71
     3
 72
    12
 73
     8
 74
     0
 42
0.000000001
 43
0.00000001
 40
0.0
 40
0.0
 40
0.0
 40
0.0
 40
0.0542100646910311
 40
0.3612059465304473
 40
0.5267652948496011
 40
0.7633787062243828
 40
1.0
 40
1.0
 40
1.0
 40
1.0
 10
976.0869604806077
 20
932.938057975323
 30
0.0
 10
976.0482286693648
 20
933.035821273686
 30
0.0
 10
975.7901555491678
 20
933.6872258592069
 30
0.0
 10
975.5226790115631
 20
934.850329732099
 30
0.0
 10
975.3214929747605
 20
936.6861776697543
 30
0.0
 10
975.2004620342645
 20
938.525253283158
 30
0.0
 10
975.1787552662794
 20
940.0356594787859
 30
0.0
 10
975.1679017015081
 20
940.7908751555876
 30
0.0
  0
SPLINE
  5
1CE
330
1F
100
AcDbEntity
  8
0
  6
Continuous
 62
     8
370
    18
100
AcDbSpline
210
0.0
220
0.0
230
1.0
 70
     8
 71
     3
 72
    16
 73
    12
 74
     0
 42
0.000000001
 43
0.00000001
 40
0.0
 40
0.0
 40
0.0
 40
0.0
 40
0.0117733620155408
 40
0.0227113902881394
 40
0.0341085178796155
 40
0.0448724470144665
 40
0.0843977891274209
 40
0.1801725761900129
 40
0.6004756555876873
 40
0.7301077904365098
 40
1.0
 40
1.0
 40
1.0
 40
1.0
 10
888.0223760539793
 20
932.938057975323
 30
0.0
 10
888.0051149737393
 20
932.9347046079
 30
0.0
 10
887.9718175069997
 20
932.9282357983773
 30
0.0
 10
887.9172890483612
 20
932.9302993365633
 30
0.0
 10
887.8688780494886
 20
932.9439395214354
 30
0.0
 10
887.7969289489266
 20
932.9845174643349
 30
0.0
 10
887.7029202991887
 20
933.1151839543656
 30
0.0
 10
887.5778114744061
 20
933.642572832694
 30
0.0
 10
887.598242909817
 20
934.3236424290494
 30
0.0
 10
887.595138859222
 20
935.2542136339796
 30
0.0
 10
887.5888016236917
 20
935.7418954893568
 30
0.0
 10
887.5845206067181
 20
936.0713410797257
 30
0.0
  0
SPLINE
  5
1CF
330
1F
100
AcDbEntity
  8
0
  6
Continuous
 62
     8
370
    18
100
AcDbSpline
210
0.0
220
0.0
230
1.0
 70
     8
 71
     3
 72
    11
 73
     7
 74
     0
 42
0.000000001
 43
0.00000001
 40
0.0
 40
0.0
 40
0.0
 40
0.0
 40
0.3598580230790385
 40
0.7246062069006074
 40
0.8621677510649518
 40
1.0
 40
1.0
 40
1.0
 40
1.0
 10
887.5845206067181
 20
936.0713410797257
 30
0.0
 10
887.5812685104664
 20
936.6176374283566
 30
0.0
 10
887.5747201247744
 20
937.7176538227059
 30
0.0
 10
887.5807786277733
 20
939.1525851309298
 30
0.0
 10
887.5818941837458
 20
940.2488346679033
 30
0.0
 10
887.5819905334012
 20
940.7309320342965
 30
0.0
 10
887.5820387555834
 20
940.9722176619348
 30
0.0
  0
SPLINE
  5
1D0
330
1F
100
AcDbEntity
  8
0
  6
Continuous
 62
     8
370
    18
100
AcDbSpline
210
0.0
220
0.0
230
1.0
 70
     8
 71
     3
 72
    12
 73
     8
 74
     0
 42
0.000000001
 43
0.00000001
 40
0.0
 40
0.0
 40
0.0
 40
0.0
 40
0.054210064691031
 40
0.3612059465304469
 40
0.5267652948496012
 40
0.7633787062243828
 40
1.0
 40
1.0
 40
1.0
 40
1.0
 10
888.0223760539793
 20
932.938057975323
 30
0.0
 10
888.0611078652223
 20
933.035821273686
 30
0.0
 10
888.3191809854192
 20
933.6872258592069
 30
0.0
 10
888.5866575230239
 20
934.850329732099
 30
0.0
 10
888.7878435598265
 20
936.6861776697542
 30
0.0
 10
888.9088745003224
 20
938.525253283158
 30
0.0
 10
888.9305812683078
 20
940.0356594787859
 30
0.0
 10
888.941434833079
 20
940.7908751555876
 30
0.0
  0
LINE
  5
1D1
330
1F
100
AcDbEntity
  8
0
  6
Continuous
 62
     8
370
    18
100
AcDbLine
 10
968.0522345811
 20
933.245326572
 30
0.0
 11
976.0869604806
 21
932.9380579753
 31
0.0
  0
LINE
  5
1D2
330
1F
100
AcDbEntity
  8
0
  6
Continuous
 62
     8
370
    18
100
AcDbLine
 10
896.0571019535
 20
933.245326572
 30
0.0
 11
888.022376054
 21
932.9380579753
 31
0.0
  0
ARC
  5
1D3
330
1F
100
AcDbEntity
  8
0
  6
Continuous
 62
     8
370
    18
100
AcDbCircle
 10
966.8037291154
 20
931.3346767512
 30
0.0
 40
4.876403199916318
100
AcDbArc
 50
80.3932584449
 51
98.1942841504
  0
ARC
  5
1D4
330
1F
100
AcDbEntity
  8
0
  6
Continuous
 62
     8
370
    18
100
AcDbCircle
 10
897.3056074192
 20
931.3346767512
 30
0.0
 40
4.87640319989997
100
AcDbArc
 50
81.8057158496
 51
99.6067415552
  0
ARC
  5
1D5
330
1F
100
AcDbEntity
  8
0
  6
Continuous
 62
     8
370
    18
100
AcDbCircle
 10
977.5405299461
 20
931.4463774025
 30
0.0
 40
4.735183627154472
100
AcDbArc
 50
83.1980176217
 51
102.3864072814
  0
ARC
  5
1D6
330
1F
100
AcDbEntity
  8
0
  6
Continuous
 62
     8
370
    18
100
AcDbCircle
 10
886.5688065885
 20
931.4463774024
 30
0.0
 40
4.735183627173296
100
AcDbArc
 50
77.6135927186
 51
96.8019823782
  0
SPLINE
  5
1D7
330
1F
100
AcDbEntity
  8
0
  6
Continuous
 62
     8
370
    18
100
AcDbSpline
210
0.0
220
0.0
230
1.0
 70
     8
 71
     3
 72
    13
 73
     9
 74
     0
 42
0.000000001
 43
0.00000001
 40
0.0
 40
0.0
 40
0.0
 40
0.0
 40
0.3455606136556849
 40
0.7377948233629062
 40
0.8482878985160515
 40
0.9091433588593542
 40
0.9540191324658097
 40
1.0
 40
1.0
 40
1.0
 40
1.0
 10
886.0079793764202
 20
936.1482320175159
 30
0.0
 10
886.117967285816
 20
935.6470606714229
 30
0.0
 10
886.3527987653831
 20
934.5770266161715
 30
0.0
 10
886.7026175096105
 20
933.4899264697609
 30
0.0
 10
887.2565766558587
 20
932.9097447219949
 30
0.0
 10
887.5659314167203
 20
932.7504288462704
 30
0.0
 10
887.8247337918476
 20
932.6856272338923
 30
0.0
 10
887.9877466439578
 20
932.6855700712522
 30
0.0
 10
888.0702444368011
 20
932.685541142296
 30
0.0
  0
SPLINE
  5
1D8
330
1F
100
AcDbEntity
  8
0
  6
Continuous
 62
     8
370
    18
100
AcDbSpline
210
0.0
220
0.0
230
1.0
 70
     8
 71
     3
 72
    11
 73
     7
 74
     0
 42
0.000000001
 43
0.00000001
 40
0.0
 40
0.0
 40
0.0
 40
0.0
 40
0.2499068565621723
 40
0.499844562614247
 40
0.7498974475611093
 40
1.0
 40
1.0
 40
1.0
 40
1.0
 10
888.0702444368011
 20
932.685541142296
 30
0.0
 10
888.7362796133119
 20
932.7176489744329
 30
0.0
 10
890.0684321843477
 20
932.7818686022244
 30
0.0
 10
892.0695084745821
 20
932.8657422620653
 30
0.0
 10
894.0728136146262
 20
932.9388100842255
 30
0.0
 10
895.4100362857305
 20
932.9748086624404
 30
0.0
 10
896.0787140171382
 20
932.9928097389513
 30
0.0
  0
SPLINE
  5
1D9
330
1F
100
AcDbEntity
  8
0
  6
Continuous
 62
     8
370
    18
100
AcDbSpline
210
0.0
220
0.0
230
1.0
 70
     8
 71
     3
 72
    14
 73
    10
 74
     0
 42
0.000000001
 43
0.00000001
 40
0.0
 40
0.0
 40
0.0
 40
0.0
 40
0.0519065920714217
 40
0.122235850128214
 40
0.1884605327707528
 40
0.3425806135662293
 40
0.4883356727123485
 40
0.6976961013112934
 40
1.0
 40
1.0
 40
1.0
 40
1.0
 10
896.0787140171382
 20
932.9928097389513
 30
0.0
 10
896.162163347587
 20
932.9999941256601
 30
0.0
 10
896.3586798100051
 20
933.0169127786093
 30
0.0
 10
896.6212047081555
 20
933.1305520367584
 30
0.0
 10
896.9359589166011
 20
933.3664898463308
 30
0.0
 10
897.2075256041387
 20
933.7393272236402
 30
0.0
 10
897.4784429120565
 20
934.3065587609381
 30
0.0
 10
897.7453525186044
 20
935.0936045060461
 30
0.0
 10
897.9058287766524
 20
935.7647592958808
 30
0.0
 10
898.0006421061493
 20
936.1612940917814
 30
0.0
  0
SPLINE
  5
1DA
330
1F
100
AcDbEntity
  8
0
  6
Continuous
 62
     8
370
    18
100
AcDbSpline
210
0.0
220
0.0
230
1.0
 70
     8
 71
     3
 72
     9
 73
     5
 74
     0
 42
0.000000001
 43
0.00000001
 40
0.0
 40
0.0
 40
0.0
 40
0.0
 40
0.0293344768638074
 40
1.0
 40
1.0
 40
1.0
 40
1.0
 10
932.0546682672936
 20
929.1616793806783
 30
0.0
 10
932.0466072499556
 20
929.1616756382145
 30
0.0
 10
931.771810553378
 20
929.1615480592006
 30
0.0
 10
931.497390053289
 20
929.186691069365
 30
0.0
 10
931.2310195350109
 20
929.2110965224794
 30
0.0
  0
SPLINE
  5
1DB
330
1F
100
AcDbEntity
  8
0
  6
Continuous
 62
     8
370
    18
100
AcDbSpline
210
0.0
220
0.0
230
1.0
 70
     8
 71
     3
 72
    12
 73
     8
 74
     0
 42
0.000000001
 43
0.00000001
 40
0.0
 40
0.0
 40
0.0
 40
0.0
 40
0.1168311330920455
 40
0.3726334449299067
 40
0.6338270238932888
 40
0.8149152954169114
 40
1.0
 40
1.0
 40
1.0
 40
1.0
 10
930.689292591024
 20
929.2445749931829
 30
0.0
 10
930.0128995043981
 20
929.2737987940922
 30
0.0
 10
927.8555405939306
 20
929.3670082436497
 30
0.0
 10
924.2156634353323
 20
930.1765981011354
 30
0.0
 10
920.3192850827654
 20
931.7098787520065
 30
0.0
 10
916.9642173507551
 20
933.6905334235964
 30
0.0
 10
915.1955902509842
 20
935.2933765013489
 30
0.0
 10
914.3016252518212
 20
936.1035448012958
 30
0.0
  0
SPLINE
  5
1DC
330
1F
100
AcDbEntity
  8
0
  6
Continuous
 62
     8
370
    18
100
AcDbSpline
210
0.0
220
0.0
230
1.0
 70
     8
 71
     3
 72
    14
 73
    10
 74
     0
 42
0.000000001
 43
0.00000001
 40
0.0
 40
0.0
 40
0.0
 40
0.0
 40
0.0519065920714864
 40
0.1222358501282813
 40
0.1884605327708231
 40
0.3425806135663074
 40
0.4883356727124331
 40
0.6976961013113864
 40
1.0
 40
1.0
 40
1.0
 40
1.0
 10
968.0306225174487
 20
932.9928097389501
 30
0.0
 10
967.9471731869999
 20
932.9999941256594
 30
0.0
 10
967.7506567245822
 20
933.0169127786095
 30
0.0
 10
967.4881318264314
 20
933.1305520367583
 30
0.0
 10
967.1733776179861
 20
933.3664898463308
 30
0.0
 10
966.9018109304484
 20
933.7393272236402
 30
0.0
 10
966.6308936225305
 20
934.3065587609381
 30
0.0
 10
966.3639840159829
 20
935.093604506046
 30
0.0
 10
966.2035077579346
 20
935.7647592958804
 30
0.0
 10
966.1086944284377
 20
936.1612940917809
 30
0.0
  0
SPLINE
  5
1DD
330
1F
100
AcDbEntity
  8
0
  6
Continuous
 62
     8
370
    18
100
AcDbSpline
210
0.0
220
0.0
230
1.0
 70
     8
 71
     3
 72
    11
 73
     7
 74
     0
 42
0.000000001
 43
0.00000001
 40
0.0
 40
0.0
 40
0.0
 40
0.0
 40
0.2499068565623327
 40
0.4998445626143548
 40
0.7498974475611633
 40
1.0
 40
1.0
 40
1.0
 40
1.0
 10
976.0390920977878
 20
932.6855411422963
 30
0.0
 10
975.3730569212764
 20
932.717648974433
 30
0.0
 10
974.0409043502399
 20
932.7818686022244
 30
0.0
 10
972.039828060005
 20
932.8657422620649
 30
0.0
 10
970.036522919961
 20
932.9388100842258
 30
0.0
 10
968.6993002488566
 20
932.9748086624397
 30
0.0
 10
968.0306225174487
 20
932.9928097389501
 30
0.0
  0
SPLINE
  5
1DE
330
1F
100
AcDbEntity
  8
0
  6
Continuous
 62
     8
370
    18
100
AcDbSpline
210
0.0
220
0.0
230
1.0
 70
     8
 71
     3
 72
    13
 73
     9
 74
     0
 42
0.000000001
 43
0.00000001
 40
0.0
 40
0.0
 40
0.0
 40
0.0
 40
0.3455606136558529
 40
0.7377948233631723
 40
0.8482878985163453
 40
0.9091433588596641
 40
0.9540191324661307
 40
1.0
 40
1.0
 40
1.0
 40
1.0
 10
978.1013571581677
 20
936.1482320175162
 30
0.0
 10
977.9913692487714
 20
935.6470606714232
 30
0.0
 10
977.7565377692038
 20
934.5770266161716
 30
0.0
 10
977.4067190249766
 20
933.4899264697609
 30
0.0
 10
976.8527598787284
 20
932.9097447219949
 30
0.0
 10
976.5434051178669
 20
932.7504288462704
 30
0.0
 10
976.28460274274
 20
932.6856272338925
 30
0.0
 10
976.1215898906304
 20
932.6855700712524
 30
0.0
 10
976.0390920977878
 20
932.6855411422963
 30
0.0
  0
SPLINE
  5
1DF
330
1F
100
AcDbEntity
  8
0
  6
Continuous
 62
     8
370
    18
100
AcDbSpline
210
0.0
220
0.0
230
1.0
 70
     8
 71
     3
 72
    13
 73
     9
 74
     0
 42
0.000000001
 43
0.00000001
 40
0.0
 40
0.0
 40
0.0
 40
0.0
 40
0.0016043355124024
 40
0.2727926059062322
 40
0.4428579083924353
 40
0.6159723835324814
 40
0.8046605251224437
 40
1.0
 40
1.0
 40
1.0
 40
1.0
 10
1003.74624756459
 20
929.1616793806783
 30
0.0
 10
1003.751702414765
 20
929.1616821106966
 30
0.0
 10
1004.679215882285
 20
929.1621463083619
 30
0.0
 10
1006.092052208121
 20
929.3599766368052
 30
0.0
 10
1007.812741840894
 20
930.1889688127
 30
0.0
 10
1009.115387715032
 20
931.3323197268082
 30
0.0
 10
1010.271587459282
 20
932.9885037425433
 30
0.0
 10
1010.792451536223
 20
934.5940938602646
 30
0.0
 10
1011.057394240625
 20
935.4107932772209
 30
0.0
  0
SPLINE
  5
1E0
330
1F
100
AcDbEntity
  8
0
  6
Continuous
 62
     8
370
    18
100
AcDbSpline
210
0.0
220
0.0
230
1.0
 70
     8
 71
     3
 72
    13
 73
     9
 74
     0
 42
0.000000001
 43
0.00000001
 40
0.0
 40
0.0
 40
0.0
 40
0.0
 40
0.1765903405244141
 40
0.3535107282095493
 40
0.5953143040081186
 40
0.8373696963545593
 40
0.9987093023973763
 40
1.0
 40
1.0
 40
1.0
 40
1.0
 10
949.8077112827656
 20
936.1035448012959
 30
0.0
 10
948.8866289408795
 20
935.2709874953921
 30
0.0
 10
947.0427427551792
 20
933.6043168348556
 30
0.0
 10
943.5960887289037
 20
931.6168305313973
 30
0.0
 10
939.6100802970255
 20
930.0719935677656
 30
0.0
 10
935.6063992179813
 20
929.3027730142043
 30
0.0
 10
933.0784181847597
 20
929.1619745656898
 30
0.0
 10
932.0627291719616
 20
929.1616817049355
 30
0.0
 10
932.0546682672936
 20
929.1616793806783
 30
0.0
  0
LINE
  5
1E1
330
1F
100
AcDbEntity
  8
0
  6
Continuous
 62
     8
370
    18
100
AcDbLine
 10
968.9467824409
 20
964.1229608868
 30
0.0
 11
968.9781595198
 21
961.4014328204
 31
0.0
  0
SPLINE
  5
1E2
330
1F
100
AcDbEntity
  8
0
  6
Continuous
 62
     8
370
    18
100
AcDbSpline
210
0.0
220
0.0
230
1.0
 70
     8
 71
     3
 72
     9
 73
     5
 74
     0
 42
0.000000001
 43
0.00000001
 40
0.0
 40
0.0
 40
0.0
 40
0.0
 40
0.8741204396862006
 40
1.0
 40
1.0
 40
1.0
 40
1.0
 10
967.6073711040475
 20
963.8615764228431
 30
0.0
 10
967.6084828633477
 20
963.0699740118048
 30
0.0
 10
967.6097547238943
 20
962.1643752234703
 30
0.0
 10
967.6109385308303
 20
961.2513708912511
 30
0.0
 10
967.6110875479269
 20
961.1364423073468
 30
0.0
  0
ARC
  5
1E3
330
1F
100
AcDbEntity
  8
0
  6
Continuous
 62
     8
370
    18
100
AcDbCircle
 10
968.9215615646
 20
960.6897378774
 30
0.0
 40
3.433315645972107
100
AcDbArc
 50
89.5791057647
 51
112.5057341721
  0
SPLINE
  5
1E4
330
1F
100
AcDbEntity
  8
0
  6
Continuous
 62
     8
370
    18
100
AcDbSpline
210
0.0
220
0.0
230
1.0
 70
     8
 71
     3
 72
     9
 73
     5
 74
     0
 42
0.000000001
 43
0.00000001
 40
0.0
 40
0.0
 40
0.0
 40
0.0
 40
0.8741204396862006
 40
1.0
 40
1.0
 40
1.0
 40
1.0
 10
896.5019654305395
 20
963.8615764228431
 30
0.0
 10
896.5008536712394
 20
963.0699740118048
 30
0.0
 10
896.4995818106927
 20
962.1643752234703
 30
0.0
 10
896.4983980037567
 20
961.2513708912511
 30
0.0
 10
896.4982489866602
 20
961.1364423073468
 30
0.0
  0
LINE
  5
1E5
330
1F
100
AcDbEntity
  8
0
  6
Continuous
 62
     8
370
    18
100
AcDbLine
 10
895.1625540937
 20
964.1229608868
 30
0.0
 11
895.1311770148
 21
961.4014328204
 31
0.0
  0
ARC
  5
1E6
330
1F
100
AcDbEntity
  8
0
  6
Continuous
 62
     8
370
    18
100
AcDbCircle
 10
895.18777497
 20
960.6897378774
 30
0.0
 40
3.433315645971076
100
AcDbArc
 50
67.4942658279
 51
90.4208942353
  0
LINE
  5
1E7
330
1F
100
AcDbEntity
  8
0
  6
Continuous
 62
     8
370
    18
100
AcDbLine
 10
975.0995989386
 20
961.4014328204
 30
0.0
 11
975.1173286768
 21
964.1229608868
 31
0.0
  0
ARC
  5
1E8
330
1F
100
AcDbEntity
  8
0
  6
Continuous
 62
     8
370
    18
100
AcDbCircle
 10
975.1625793477
 20
960.7514825699
 30
0.0
 40
3.371781971734911
100
AcDbArc
 50
66.5834471453
 51
90.7689555
  0
LINE
  5
1E9
330
1F
100
AcDbEntity
  8
0
  6
Continuous
 62
     8
370
    18
100
AcDbLine
 10
976.4981675665
 20
961.1273917412
 30
0.0
 11
976.5025693871
 21
963.8455640748
 31
0.0
  0
LINE
  5
1EA
330
1F
100
AcDbEntity
  8
0
  6
Continuous
 62
     8
370
    18
100
AcDbLine
 10
887.6111689681
 20
961.1273917412
 30
0.0
 11
887.6067671475
 21
963.8455640748
 31
0.0
  0
ARC
  5
1EB
330
1F
100
AcDbEntity
  8
0
  6
Continuous
 62
     8
370
    18
100
AcDbCircle
 10
888.9467571869
 20
960.7514825699
 30
0.0
 40
3.371781971732748
100
AcDbArc
 50
89.2310445
 51
113.4165528547
  0
LINE
  5
1EC
330
1F
100
AcDbEntity
  8
0
  6
Continuous
 62
     8
370
    18
100
AcDbLine
 10
889.009737596
 20
961.4014328204
 30
0.0
 11
888.9920078578
 21
964.1229608868
 31
0.0
  0
LINE
  5
1ED
330
1F
100
AcDbEntity
  8
0
  6
Continuous
 62
     8
370
    18
100
AcDbLine
 10
968.9467824409
 20
964.1229608868
 30
0.0
 11
975.1173286768
 21
964.1229608868
 31
0.0
  0
LINE
  5
1EE
330
1F
100
AcDbEntity
  8
0
  6
Continuous
 62
     8
370
    18
100
AcDbLine
 10
895.1625540937
 20
964.1229608868
 30
0.0
 11
888.9920078578
 21
964.1229608868
 31
0.0
  0
ARC
  5
1EF
330
1F
100
AcDbEntity
  8
0
  6
Continuous
 62
     8
370
    18
100
AcDbCircle
 10
965.73590516
 20
968.7816577215
 30
0.0
 40
5.263989434307287
100
AcDbArc
 50
268.4040630365
 51
290.8254619764
  0
ARC
  5
1F0
330
1F
100
AcDbEntity
  8
0
  6
Continuous
 62
     8
370
    18
100
AcDbCircle
 10
898.3734313745
 20
968.7816577215
 30
0.0
 40
5.263989434307581
100
AcDbArc
 50
249.1745380236
 51
271.5959369635
  0
ARC
  5
1F1
330
1F
100
AcDbEntity
  8
0
  6
Continuous
 62
     8
370
    18
100
AcDbCircle
 10
978.4576626671
 20
968.5383753083
 30
0.0
 40
5.083784712840989
100
AcDbArc
 50
247.3826811061
 51
270.9044924983
  0
ARC
  5
1F2
330
1F
100
AcDbEntity
  8
0
  6
Continuous
 62
     8
370
    18
100
AcDbCircle
 10
885.6516738675
 20
968.5383753083
 30
0.0
 40
5.08378471284238
100
AcDbArc
 50
269.0955075017
 51
292.6173188939
  0
ARC
  5
1F3
330
1F
100
AcDbEntity
  8
0
  6
Continuous
 62
     8
370
    18
100
AcDbCircle
 10
984.0327633587
 20
931.7504237703
 30
0.0
 40
16.05029701904495
100
AcDbArc
 50
174.65580342
 51
175.560533909
  0
ARC
  5
1F4
330
1F
100
AcDbEntity
  8
0
  6
Continuous
 62
     8
370
    18
100
AcDbCircle
 10
880.0765731763
 20
931.7504237703
 30
0.0
 40
16.05029701856644
100
AcDbArc
 50
4.439466091
 51
5.3441965801
  0
ARC
  5
1F5
330
1F
100
AcDbEntity
  8
0
  6
Continuous
 62
     8
370
    18
100
AcDbCircle
 10
982.6182698137
 20
931.5691540577
 30
0.0
 40
6.673222575320155
100
AcDbArc
 50
168.1626646982
 51
170.3695026336
  0
ARC
  5
1F6
330
1F
100
AcDbEntity
  8
0
  6
Continuous
 62
     8
370
    18
100
AcDbCircle
 10
881.4910667258
 20
931.5691540586
 30
0.0
 40
6.673222570366883
100
AcDbArc
 50
9.630497366
 51
11.8373353031
  0
SPLINE
  5
1F7
330
1F
100
AcDbEntity
  8
0
  6
Continuous
 62
     8
370
    18
100
AcDbSpline
210
0.0
220
0.0
230
1.0
 70
     8
 71
     3
 72
    15
 73
    11
 74
     0
 42
0.000000001
 43
0.00000001
 40
0.0
 40
0.0
 40
0.0
 40
0.0
 40
0.0357295768982801
 40
0.0559023856318686
 40
0.0935770997983523
 40
0.1154709098174169
 40
0.2166995392891664
 40
0.4238827620184563
 40
0.9068299214990602
 40
1.0
 40
1.0
 40
1.0
 40
1.0
 10
968.474665379844
 20
967.5257043324277
 30
0.0
 10
968.4152948523868
 20
967.5275980326874
 30
0.0
 10
968.3224039085471
 20
967.5305609102634
 30
0.0
 10
968.1743099707913
 20
967.4896440258373
 30
0.0
 10
968.0662967161953
 20
967.4278940314878
 30
0.0
 10
967.8970633965487
 20
967.2719634512388
 30
0.0
 10
967.7042112164972
 20
966.8779263190362
 30
0.0
 10
967.5830987105386
 20
965.8839426353387
 30
0.0
 10
967.6074092818145
 20
964.8239226852542
 30
0.0
 10
967.607376418694
 20
963.9955426203278
 30
0.0
 10
967.6073711040475
 20
963.8615764228431
 30
0.0
  0
SPLINE
  5
1F8
330
1F
100
AcDbEntity
  8
0
  6
Continuous
 62
     8
370
    18
100
AcDbSpline
210
0.0
220
0.0
230
1.0
 70
     8
 71
     3
 72
    11
 73
     7
 74
     0
 42
0.000000001
 43
0.00000001
 40
0.0
 40
0.0
 40
0.0
 40
0.0
 40
0.1688447665100257
 40
0.3388483789551353
 40
0.6648683581705609
 40
1.0
 40
1.0
 40
1.0
 40
1.0
 10
968.474665379844
 20
967.5257043324277
 30
0.0
 10
968.5227130814976
 20
967.3751627060101
 30
0.0
 10
968.6191382544797
 20
967.0730462286612
 30
0.0
 10
968.768992730559
 20
966.3958463235656
 30
0.0
 10
968.9067105689163
 20
965.4478516725816
 30
0.0
 10
968.9333029890604
 20
964.5686301465777
 30
0.0
 10
968.9467824408827
 20
964.1229608868157
 30
0.0
  0
SPLINE
  5
1F9
330
1F
100
AcDbEntity
  8
0
  6
Continuous
 62
     8
370
    18
100
AcDbSpline
210
0.0
220
0.0
230
1.0
 70
     8
 71
     3
 72
    15
 73
    11
 74
     0
 42
0.000000001
 43
0.00000001
 40
0.0
 40
0.0
 40
0.0
 40
0.0
 40
0.0357295768982801
 40
0.0559023856318686
 40
0.0935770997983523
 40
0.1154709098174169
 40
0.2166995392891664
 40
0.4238827620184563
 40
0.9068299214990602
 40
1.0
 40
1.0
 40
1.0
 40
1.0
 10
895.6346711547432
 20
967.5257043324277
 30
0.0
 10
895.6940416822002
 20
967.5275980326874
 30
0.0
 10
895.78693262604
 20
967.5305609102634
 30
0.0
 10
895.9350265637956
 20
967.4896440258373
 30
0.0
 10
896.0430398183918
 20
967.4278940314878
 30
0.0
 10
896.2122731380385
 20
967.2719634512388
 30
0.0
 10
896.4051253180897
 20
966.8779263190362
 30
0.0
 10
896.5262378240485
 20
965.8839426353387
 30
0.0
 10
896.5019272527726
 20
964.8239226852542
 30
0.0
 10
896.501960115893
 20
963.9955426203278
 30
0.0
 10
896.5019654305395
 20
963.8615764228431
 30
0.0
  0
SPLINE
  5
1FA
330
1F
100
AcDbEntity
  8
0
  6
Continuous
 62
     8
370
    18
100
AcDbSpline
210
0.0
220
0.0
230
1.0
 70
     8
 71
     3
 72
    11
 73
     7
 74
     0
 42
0.000000001
 43
0.00000001
 40
0.0
 40
0.0
 40
0.0
 40
0.0
 40
0.1688447665100257
 40
0.3388483789551353
 40
0.6648683581705609
 40
1.0
 40
1.0
 40
1.0
 40
1.0
 10
895.634671154743
 20
967.5257043324277
 30
0.0
 10
895.5866234530895
 20
967.3751627060101
 30
0.0
 10
895.4901982801074
 20
967.0730462286612
 30
0.0
 10
895.3403438040281
 20
966.3958463235656
 30
0.0
 10
895.2026259656708
 20
965.4478516725816
 30
0.0
 10
895.1760335455268
 20
964.5686301465777
 30
0.0
 10
895.1625540937044
 20
964.1229608868157
 30
0.0
  0
SPLINE
  5
1FB
330
1F
100
AcDbEntity
  8
0
  6
Continuous
 62
     8
370
    18
100
AcDbSpline
210
0.0
220
0.0
230
1.0
 70
     8
 71
     3
 72
    11
 73
     7
 74
     0
 42
0.000000001
 43
0.00000001
 40
0.0
 40
0.0
 40
0.0
 40
0.0
 40
0.3166351430858655
 40
0.6421699667518173
 40
0.8203579608774897
 40
1.0
 40
1.0
 40
1.0
 40
1.0
 10
975.1173286768212
 20
964.1229608868157
 30
0.0
 10
975.1285648261128
 20
964.5554031829192
 30
0.0
 10
975.1513529397337
 20
965.4324424534321
 30
0.0
 10
975.2870085102178
 20
966.395726668169
 30
0.0
 10
975.4445320985316
 20
967.1089056405154
 30
0.0
 10
975.5508248483206
 20
967.4315171412175
 30
0.0
 10
975.6041871839043
 20
967.5934783586825
 30
0.0
  0
SPLINE
  5
1FC
330
1F
100
AcDbEntity
  8
0
  6
Continuous
 62
     8
370
    18
100
AcDbSpline
210
0.0
220
0.0
230
1.0
 70
     8
 71
     3
 72
    14
 73
    10
 74
     0
 42
0.000000001
 43
0.00000001
 40
0.0
 40
0.0
 40
0.0
 40
0.0
 40
0.6113158653943731
 40
0.7934072053583396
 40
0.8854170307688747
 40
0.9194198313361064
 40
0.943450187052995
 40
0.9749897870426377
 40
0.9999999999999999
 40
0.9999999999999999
 40
0.9999999999999999
 40
0.9999999999999999
 10
976.5025693870886
 20
963.8455640747898
 30
0.0
 10
976.529378530725
 20
964.7278873953845
 30
0.0
 10
976.5641732562258
 20
965.8730264628351
 30
0.0
 10
976.407567227849
 20
967.0086825756157
 30
0.0
 10
976.2024801859963
 20
967.3864296374906
 30
0.0
 10
976.0165011542865
 20
967.5274705314994
 30
0.0
 10
975.8795422708831
 20
967.5846757674273
 30
0.0
 10
975.7406615382604
 20
967.6070135728936
 30
0.0
 10
975.646036761903
 20
967.5976289040765
 30
0.0
 10
975.6041871839043
 20
967.5934783586825
 30
0.0
  0
SPLINE
  5
1FD
330
1F
100
AcDbEntity
  8
0
  6
Continuous
 62
     8
370
    18
100
AcDbSpline
210
0.0
220
0.0
230
1.0
 70
     8
 71
     3
 72
    14
 73
    10
 74
     0
 42
0.000000001
 43
0.00000001
 40
0.0
 40
0.0
 40
0.0
 40
0.0
 40
0.6113158653943737
 40
0.7934072053583404
 40
0.8854170307688746
 40
0.9194198313361064
 40
0.943450187052995
 40
0.9749897870426377
 40
1.0
 40
1.0
 40
1.0
 40
1.0
 10
887.6067671474987
 20
963.8455640747898
 30
0.0
 10
887.5799580038621
 20
964.7278873953845
 30
0.0
 10
887.5451632783614
 20
965.8730264628351
 30
0.0
 10
887.7017693067381
 20
967.0086825756157
 30
0.0
 10
887.9068563485908
 20
967.3864296374906
 30
0.0
 10
888.0928353803007
 20
967.5274705314994
 30
0.0
 10
888.229794263704
 20
967.5846757674273
 30
0.0
 10
888.3686749963267
 20
967.6070135728936
 30
0.0
 10
888.4632997726841
 20
967.5976289040765
 30
0.0
 10
888.5051493506828
 20
967.5934783586825
 30
0.0
  0
SPLINE
  5
1FE
330
1F
100
AcDbEntity
  8
0
  6
Continuous
 62
     8
370
    18
100
AcDbSpline
210
0.0
220
0.0
230
1.0
 70
     8
 71
     3
 72
    11
 73
     7
 74
     0
 42
0.000000001
 43
0.00000001
 40
0.0
 40
0.0
 40
0.0
 40
0.0
 40
0.3166351430858649
 40
0.642169966751817
 40
0.8203579608774896
 40
1.0
 40
1.0
 40
1.0
 40
1.0
 10
888.9920078577658
 20
964.1229608868157
 30
0.0
 10
888.9807717084742
 20
964.5554031829192
 30
0.0
 10
888.9579835948534
 20
965.4324424534321
 30
0.0
 10
888.8223280243693
 20
966.395726668169
 30
0.0
 10
888.6648044360556
 20
967.1089056405154
 30
0.0
 10
888.5585116862665
 20
967.4315171412175
 30
0.0
 10
888.5051493506828
 20
967.5934783586825
 30
0.0
  0
LINE
  5
1FF
330
1F
100
AcDbEntity
  8
0
  6
Continuous
 62
     8
370
    18
100
AcDbLine
 10
975.6041871839
 20
967.5934783587
 30
0.0
 11
968.4746653798
 21
967.5257043324
 31
0.0
  0
LINE
  5
200
330
1F
100
AcDbEntity
  8
0
  6
Continuous
 62
     8
370
    18
100
AcDbLine
 10
888.5051493507
 20
967.5934783587
 30
0.0
 11
895.6346711547
 21
967.5257043324
 31
0.0
  0
ARC
  5
201
330
1F
100
AcDbEntity
  8
0
  6
Continuous
 62
     8
370
    18
100
AcDbCircle
 10
1018.4253317007
 20
969.8154130383
 30
0.0
 40
42.87875244744681
100
AcDbArc
 50
181.7567906902
 51
182.9703411536
  0
ARC
  5
202
330
1F
100
AcDbEntity
  8
0
  6
Continuous
 62
     8
370
    18
100
AcDbCircle
 10
845.6840048332
 20
969.8154130383
 30
0.0
 40
42.87875244812948
100
AcDbArc
 50
357.0296588464
 51
358.2432093098
  0
ARC
  5
203
330
1F
100
AcDbEntity
  8
0
  6
Continuous
 62
     8
370
    18
100
AcDbCircle
 10
1061.8575290824
 20
969.7743262399
 30
0.0
 40
93.4099327361254
100
AcDbArc
 50
180.8364313175
 51
181.3793928307
  0
ARC
  5
204
330
1F
100
AcDbEntity
  8
0
  6
Continuous
 62
     8
370
    18
100
AcDbCircle
 10
802.2518074332
 20
969.7743262403
 30
0.0
 40
93.40993275516702
100
AcDbArc
 50
358.6206071693
 51
359.1635686825
  0
SPLINE
  5
205
330
1F
100
AcDbEntity
  8
0
  6
Continuous
 62
     8
370
    18
100
AcDbSpline
210
0.0
220
0.0
230
1.0
 70
     8
 71
     3
 72
    20
 73
    16
 74
     0
 42
0.000000001
 43
0.00000001
 40
0.0
 40
0.0
 40
0.0
 40
0.0
 40
0.0262964893541072
 40
0.1156644945178816
 40
0.2050075092044188
 40
0.30183345390144
 40
0.4001273500081753
 40
0.4957350863719555
 40
0.5699648411426506
 40
0.6442426960664245
 40
0.7081833843876608
 40
0.7721296613135545
 40
0.8331603083653203
 40
0.8940958863820435
 40
1.0
 40
1.0
 40
1.0
 40
1.0
 10
1011.998008888285
 20
935.7075436478829
 30
0.0
 10
1012.07380222188
 20
935.9927536235523
 30
0.0
 10
1012.407177430257
 20
937.2472430431491
 30
0.0
 10
1013.067449665802
 20
939.7248396715345
 30
0.0
 10
1013.960563743364
 20
943.395133114757
 30
0.0
 10
1014.763195202416
 20
947.4914664736659
 30
0.0
 10
1015.218667509727
 20
951.8515386198477
 30
0.0
 10
1015.097605989567
 20
955.7783162257126
 30
0.0
 10
1014.745608497628
 20
959.068231999939
 30
0.0
 10
1014.487945407982
 20
961.691688656318
 30
0.0
 10
1014.489635184628
 20
963.9494425170261
 30
0.0
 10
1014.637191468382
 20
965.8170417322306
 30
0.0
 10
1014.930623066741
 20
967.3619904205392
 30
0.0
 10
1015.156669079716
 20
968.8895305807501
 30
0.0
 10
1015.055875139905
 20
969.3901587271502
 30
0.0
 10
1014.991894604164
 20
969.7079403028484
 30
0.0
  0
ARC
  5
206
330
1F
100
AcDbEntity
  8
0
  6
Continuous
 62
     8
370
    18
100
AcDbCircle
 10
1012.3243642087
 20
933.033973462
 30
0.0
 40
2.693415180360769
100
AcDbArc
 50
96.9595071703
 51
118.0599624147
  0
ARC
  5
207
330
1F
100
AcDbEntity
  8
0
  6
Continuous
 62
     8
370
    18
100
AcDbCircle
 10
1016.9813319866
 20
971.9579571889
 30
0.0
 40
3.003404249504358
100
AcDbArc
 50
228.5172796838
 51
270.3109595548
  0
SPLINE
  5
208
330
1F
100
AcDbEntity
  8
0
  6
Continuous
 62
     8
370
    18
100
AcDbSpline
210
0.0
220
0.0
230
1.0
 70
     8
 71
     3
 72
    22
 73
    18
 74
     0
 42
0.000000001
 43
0.00000001
 40
0.0
 40
0.0
 40
0.0
 40
0.0
 40
0.0604782955210947
 40
0.1209107522713745
 40
0.1884749139443859
 40
0.2560958620764554
 40
0.3308528003812595
 40
0.4056041325902898
 40
0.4728286997367325
 40
0.5400039932488326
 40
0.6145903506605175
 40
0.6892095991779482
 40
0.6973759092103053
 40
0.7789456219531083
 40
0.8605868885159244
 40
0.9302996545740234
 40
1.0
 40
1.0
 40
1.0
 40
1.0
 10
1016.997632186547
 20
968.9545971722529
 30
0.0
 10
1017.032886295983
 20
968.7938301519536
 30
0.0
 10
1017.103367794443
 20
968.4724179627158
 30
0.0
 10
1017.140548833473
 20
967.5238568285889
 30
0.0
 10
1016.816065430602
 20
966.2006098163895
 30
0.0
 10
1016.40917563619
 20
964.4025230806318
 30
0.0
 10
1016.316472172815
 20
962.1379394868994
 30
0.0
 10
1016.573670290327
 20
959.5579263300008
 30
0.0
 10
1016.985814197572
 20
956.8401303503857
 30
0.0
 10
1017.227805050135
 20
953.9371423805462
 30
0.0
 10
1017.1590099804
 20
950.7961683028489
 30
0.0
 10
1016.857801802188
 20
948.4997672939919
 30
0.0
 10
1016.415780376597
 20
946.148371469882
 30
0.0
 10
1015.832180899097
 20
943.7375816200969
 30
0.0
 10
1014.887288276488
 20
940.666031873651
 30
0.0
 10
1013.963814105894
 20
937.9507157786919
 30
0.0
 10
1013.433417937356
 20
936.4385229389396
 30
0.0
 10
1013.16824348019
 20
935.6824938814184
 30
0.0
  0
ARC
  5
209
330
1F
100
AcDbEntity
  8
0
  6
Continuous
 62
     8
370
    18
100
AcDbCircle
 10
1012.4994401897
 20
931.7855114313
 30
0.0
 40
3.95395625394978
100
AcDbArc
 50
80.261721698
 51
97.2857328838
  0
SPLINE
  5
20A
330
1F
100
AcDbEntity
  8
0
  6
Continuous
 62
     8
370
    18
100
AcDbSpline
210
0.0
220
0.0
230
1.0
 70
     8
 71
     3
 72
    11
 73
     7
 74
     0
 42
0.000000001
 43
0.00000001
 40
0.0
 40
0.0
 40
0.0
 40
0.0
 40
0.2101620489852546
 40
0.6011741985698237
 40
0.9956880907203883
 40
1.0
 40
1.0
 40
1.0
 40
1.0
 10
1007.804668267294
 20
929.8331518286756
 30
0.0
 10
1007.541553120491
 20
929.7419016722204
 30
0.0
 10
1006.788905160146
 20
929.4808781432758
 30
0.0
 10
1005.455599968761
 20
929.2290033168013
 30
0.0
 10
1004.334880554399
 20
929.1619092461003
 30
0.0
 10
1003.752543507598
 20
929.1616818392894
 30
0.0
 10
1003.74624756459
 20
929.1616793806783
 30
0.0
  0
SPLINE
  5
20B
330
1F
100
AcDbEntity
  8
0
  6
Continuous
 62
     8
370
    18
100
AcDbSpline
210
0.0
220
0.0
230
1.0
 70
     8
 71
     3
 72
    12
 73
     8
 74
     0
 42
0.000000001
 43
0.00000001
 40
0.0
 40
0.0
 40
0.0
 40
0.0
 40
0.2467373750775632
 40
0.5009759128091622
 40
0.7464462631527691
 40
0.9969045478149675
 40
1.0
 40
1.0
 40
1.0
 40
1.0
 10
1013.16824348019
 20
935.6824938814184
 30
0.0
 10
1012.876295871548
 20
934.971984457788
 30
0.0
 10
1012.283525037028
 20
933.5293651264005
 30
0.0
 10
1011.023986953838
 20
931.8938914627847
 30
0.0
 10
1009.540889660711
 20
930.636101961603
 30
0.0
 10
1008.413739821384
 20
930.0640843747651
 30
0.0
 10
1007.812014294297
 20
929.8359371117972
 30
0.0
 10
1007.804668267294
 20
929.8331518286756
 30
0.0
  0
SPLINE
  5
20C
330
1F
100
AcDbEntity
  8
0
  6
Continuous
 62
     8
370
    18
100
AcDbSpline
210
0.0
220
0.0
230
1.0
 70
     8
 71
     3
 72
    10
 73
     6
 74
     0
 42
0.000000001
 43
0.00000001
 40
0.0
 40
0.0
 40
0.0
 40
0.0
 40
0.0157305655563993
 40
0.5063466828769155
 40
1.0
 40
1.0
 40
1.0
 40
1.0
 10
1016.975489191848
 20
969.1616793806783
 30
0.0
 10
1016.975043122276
 20
969.1616673164742
 30
0.0
 10
1016.960684716222
 20
969.1612789852538
 30
0.0
 10
1016.954924987406
 20
969.1296334250043
 30
0.0
 10
1016.983367198408
 20
969.0130624923759
 30
0.0
 10
1016.997632186547
 20
968.9545971722526
 30
0.0
  0
SPLINE
  5
20D
330
1F
100
AcDbEntity
  8
0
  6
Continuous
 62
     8
370
    18
100
AcDbSpline
210
0.0
220
0.0
230
1.0
 70
     8
 71
     3
 72
    12
 73
     8
 74
     0
 42
0.000000001
 43
0.00000001
 40
0.0
 40
0.0
 40
0.0
 40
0.0
 40
0.3107222013442913
 40
0.6300915284038188
 40
0.7856616918457195
 40
0.8925423191164943
 40
1.0
 40
1.0
 40
1.0
 40
1.0
 10
1007.804668267294
 20
929.8331518286756
 30
0.0
 10
1008.355599393329
 20
930.1816234802109
 30
0.0
 10
1009.472793574325
 20
930.888264443011
 30
0.0
 10
1010.619371807592
 20
932.3933904716297
 30
0.0
 10
1011.323856010922
 20
933.7818538386791
 30
0.0
 10
1011.715531568337
 20
934.7641472895992
 30
0.0
 10
1011.903680932879
 20
935.3925142868327
 30
0.0
 10
1011.998008888285
 20
935.7075436478829
 30
0.0
  0
LINE
  5
20E
330
1F
100
AcDbEntity
  8
0
  6
Continuous
 62
     8
370
    18
100
AcDbLine
 10
879.0546682673
 20
978.4616793807
 30
0.0
 11
879.0546682673
 21
978.3188778524
 31
0.0
  0
LINE
  5
20F
330
1F
100
AcDbEntity
  8
0
  6
Continuous
 62
     8
370
    18
100
AcDbLine
 10
879.0546682673
 20
978.3188778524
 30
0.0
 11
851.114640686
 21
978.3188778524
 31
0.0
  0
LINE
  5
210
330
1F
100
AcDbEntity
  8
0
  6
Continuous
 62
     8
370
    18
100
AcDbLine
 10
985.0546682673
 20
978.4616793807
 30
0.0
 11
985.0546682673
 21
978.3188778524
 31
0.0
  0
LINE
  5
211
330
1F
100
AcDbEntity
  8
0
  6
Continuous
 62
     8
370
    18
100
AcDbLine
 10
879.0546682673
 20
978.3188778524
 30
0.0
 11
985.0546682673
 21
978.3188778524
 31
0.0
  0
LINE
  5
212
330
1F
100
AcDbEntity
  8
0
  6
Continuous
 62
     8
370
    18
100
AcDbLine
 10
985.0546682673
 20
978.3188778524
 30
0.0
 11
1012.9946958486
 21
978.3188778524
 31
0.0
  0
LINE
  5
213
330
1F
100
AcDbEntity
  8
0
  6
Continuous
 62
     8
370
    18
100
AcDbLine
 10
879.0546682673
 20
978.3188778524
 30
0.0
 11
879.0546682673
 21
977.3971104869
 31
0.0
  0
LINE
  5
214
330
1F
100
AcDbEntity
  8
0
  6
Continuous
 62
     8
370
    18
100
AcDbLine
 10
985.0546682673
 20
978.3188778524
 30
0.0
 11
985.0546682673
 21
977.3971104869
 31
0.0
  0
LINE
  5
215
330
1F
100
AcDbEntity
  8
0
  6
Continuous
 62
     8
370
    18
100
AcDbLine
 10
1060.248616725
 20
929.1616793807
 30
0.0
 11
1060.248616725
 21
969.1616793807
 31
0.0
  0
LINE
  5
216
330
1F
100
AcDbEntity
  8
0
  6
Continuous
 62
     8
370
    18
100
AcDbLine
 10
1060.8544149613
 20
969.0998775525
 30
0.0
 11
1060.8544149613
 21
929.2234812088
 31
0.0
  0
LINE
  5
217
330
1F
100
AcDbEntity
  8
0
  6
Continuous
 62
     8
370
    18
100
AcDbLine
 10
540.0546682673
 20
979.8854199023
 30
0.0
 11
542.0546682673
 21
979.8854199023
 31
0.0
  0
LINE
  5
218
330
1F
100
AcDbEntity
  8
0
  6
Continuous
 62
     8
370
    18
100
AcDbLine
 10
542.0546682673
 20
978.0728043282
 30
0.0
 11
540.0546682673
 21
978.0728043282
 31
0.0
  0
LINE
  5
219
330
1F
100
AcDbEntity
  8
0
  6
Continuous
 62
     8
370
    18
100
AcDbLine
 10
540.0546682673
 20
970.8145050436
 30
0.0
 11
542.0546682673
 21
970.8145050436
 31
0.0
  0
LINE
  5
21A
330
1F
100
AcDbEntity
  8
0
  6
Continuous
 62
     8
370
    18
100
AcDbLine
 10
542.0546682673
 20
969.0018894695
 30
0.0
 11
540.0546682673
 21
969.0018894695
 31
0.0
  0
LINE
  5
21B
330
1F
100
AcDbEntity
  8
0
  6
Continuous
 62
     8
370
    18
100
AcDbLine
 10
540.0546682673
 20
934.7112793807
 30
0.0
 11
542.0546682673
 21
934.7112793807
 31
0.0
  0
LINE
  5
21C
330
1F
100
AcDbEntity
  8
0
  6
Continuous
 62
     8
370
    18
100
AcDbLine
 10
1322.0546682673
 20
979.8854199023
 30
0.0
 11
1324.0546682673
 21
979.8854199023
 31
0.0
  0
LINE
  5
21D
330
1F
100
AcDbEntity
  8
0
  6
Continuous
 62
     8
370
    18
100
AcDbLine
 10
1324.0546682673
 20
978.0728043282
 30
0.0
 11
1322.0546682673
 21
978.0728043282
 31
0.0
  0
LINE
  5
21E
330
1F
100
AcDbEntity
  8
0
  6
Continuous
 62
     8
370
    18
100
AcDbLine
 10
1322.0546682673
 20
970.8145050436
 30
0.0
 11
1324.0546682673
 21
970.8145050436
 31
0.0
  0
LINE
  5
21F
330
1F
100
AcDbEntity
  8
0
  6
Continuous
 62
     8
370
    18
100
AcDbLine
 10
1324.0546682673
 20
969.0018894695
 30
0.0
 11
1322.0546682673
 21
969.0018894695
 31
0.0
  0
LINE
  5
220
330
1F
100
AcDbEntity
  8
0
  6
Continuous
 62
     8
370
    18
100
AcDbLine
 10
1322.0546682673
 20
934.7112793807
 30
0.0
 11
1324.0546682673
 21
934.7112793807
 31
0.0
  0
LINE
  5
221
330
1F
100
AcDbEntity
  8
0
  6
Continuous
 62
     8
370
    18
100
AcDbLine
 10
519.5546682673
 20
986.6112793807
 30
0.0
 11
519.5546682673
 21
985.6112793807
 31
0.0
  0
LINE
  5
222
330
1F
100
AcDbEntity
  8
0
  6
Continuous
 62
     8
370
    18
100
AcDbLine
 10
540.0546682673
 20
987.6112793807
 30
0.0
 11
509.5546682673
 21
987.6112793807
 31
0.0
  0
LINE
  5
223
330
1F
100
AcDbEntity
  8
0
  6
Continuous
 62
     8
370
    18
100
AcDbLine
 10
1344.5546682673
 20
985.6112793807
 30
0.0
 11
1344.5546682673
 21
986.6112793807
 31
0.0
  0
LINE
  5
224
330
1F
100
AcDbEntity
  8
0
  6
Continuous
 62
     8
370
    18
100
AcDbLine
 10
1354.5546682673
 20
987.6112793807
 30
0.0
 11
1324.0546682673
 21
987.6112793807
 31
0.0
  0
SPLINE
  5
225
330
1F
100
AcDbEntity
  8
0
  6
Continuous
 62
     7
370
    35
100
AcDbSpline
210
0.0
220
0.0
230
1.0
 70
     8
 71
     3
 72
    17
 73
    13
 74
     0
 42
0.000000001
 43
0.00000001
 40
0.0
 40
0.0
 40
0.0
 40
0.0
 40
0.094472408931277
 40
0.2037690526168904
 40
0.265821429018182
 40
0.2993037426747774
 40
0.3336657805511187
 40
0.4040243448780195
 40
0.4775461189651615
 40
0.637289393551992
 40
0.8168942664845055
 40
1.0
 40
1.0
 40
1.0
 40
1.0
 10
1633.17877875583
 20
968.1220326133165
 30
0.0
 10
1632.916171441336
 20
968.5309515693374
 30
0.0
 10
1632.349749516777
 20
969.412955417954
 30
0.0
 10
1631.285868553552
 20
970.1692053890612
 30
0.0
 10
1630.441100560367
 20
970.4759566627614
 30
0.0
 10
1630.070697900497
 20
970.8532606879905
 30
0.0
 10
1629.905968816503
 20
971.3326710728584
 30
0.0
 10
1629.968089696379
 20
971.859667682146
 30
0.0
 10
1629.941675451563
 20
972.5728891440491
 30
0.0
 10
1629.956038885275
 20
973.1905870821867
 30
0.0
 10
1629.950904139033
 20
973.5707033351725
 30
0.0
 10
1629.951622862628
 20
973.5982500734834
 30
0.0
 10
1629.951985692964
 20
973.6121563823552
 30
0.0
  0
SPLINE
  5
226
330
1F
100
AcDbEntity
  8
0
  6
Continuous
 62
     7
370
    35
100
AcDbSpline
210
0.0
220
0.0
230
1.0
 70
     8
 71
     3
 72
    17
 73
    13
 74
     0
 42
0.000000001
 43
0.00000001
 40
0.0
 40
0.0
 40
0.0
 40
0.0
 40
0.189080120819706
 40
0.3745451547224346
 40
0.5395005445910007
 40
0.615421192516293
 40
0.6880754212411622
 40
0.723558626209947
 40
0.7581334032526984
 40
0.8222104291433027
 40
0.935073211737327
 40
1.0
 40
1.0
 40
1.0
 40
1.0
 10
1572.951973034452
 20
973.612156382376
 30
0.0
 10
1572.952335661253
 20
973.5982503204903
 30
0.0
 10
1572.95305398167
 20
973.5707040714292
 30
0.0
 10
1572.947922105839
 20
973.1905843352666
 30
0.0
 10
1572.962277501967
 20
972.5728961505574
 30
0.0
 10
1572.935878030441
 20
971.8596567615971
 30
0.0
 10
1572.99796415608
 20
971.3327023257941
 30
0.0
 10
1572.833303941048
 20
970.8532083700032
 30
0.0
 10
1572.46264094831
 20
970.4762202528523
 30
0.0
 10
1571.620254586712
 20
970.1665789227602
 30
0.0
 10
1570.668722007586
 20
969.5173445336991
 30
0.0
 10
1570.183705447724
 20
968.7799049254171
 30
0.0
 10
1570.006582755238
 20
968.5106001227072
 30
0.0
  0
ARC
  5
227
330
1F
100
AcDbEntity
  8
0
  6
Continuous
 62
     7
370
    35
100
AcDbCircle
 10
1578.9619661952
 20
944.1615550529
 30
0.0
 40
14.99987568081449
100
AcDbArc
 50
226.8610757221
 51
269.924195537
  0
ARC
  5
228
330
1F
100
AcDbEntity
  8
0
  6
Continuous
 62
     7
370
    35
100
AcDbCircle
 10
1623.9419927463
 20
944.1615539805
 30
0.0
 40
14.99987460814302
100
AcDbArc
 50
270.0758036504
 51
312.1690218565
  0
SPLINE
  5
229
330
1F
100
AcDbEntity
  8
0
  6
Continuous
 62
     7
370
    35
100
AcDbSpline
210
0.0
220
0.0
230
1.0
 70
     8
 71
     3
 72
    14
 73
    10
 74
     0
 42
0.000000001
 43
0.00000001
 40
0.0
 40
0.0
 40
0.0
 40
0.0
 40
0.3118518497825849
 40
0.583524738298515
 40
0.747236834759014
 40
0.8165073455875697
 40
0.869191421002153
 40
0.9293786199956219
 40
1.0
 40
1.0
 40
1.0
 40
1.0
 10
1633.831871999736
 20
967.5386587276893
 30
0.0
 10
1633.721932911235
 20
967.6191063398976
 30
0.0
 10
1633.516219275446
 20
967.7696367019696
 30
0.0
 10
1633.292266709464
 20
968.0042982129098
 30
0.0
 10
1633.154126085711
 20
968.1761589428335
 30
0.0
 10
1633.094604196835
 20
968.2583525756738
 30
0.0
 10
1633.071353432696
 20
968.2917397448056
 30
0.0
 10
1633.059143755398
 20
968.3097899808922
 30
0.0
 10
1633.058873739292
 20
968.3102161670574
 30
0.0
 10
1633.05872796208
 20
968.3104462578923
 30
0.0
  0
SPLINE
  5
22A
330
1F
100
AcDbEntity
  8
0
  6
Continuous
 62
     7
370
    35
100
AcDbSpline
210
0.0
220
0.0
230
1.0
 70
     8
 71
     3
 72
    12
 73
     8
 74
     0
 42
0.000000001
 43
0.00000001
 40
0.0
 40
0.0
 40
0.0
 40
0.0
 40
0.1249100435462298
 40
0.2370776954395867
 40
0.3308192653758028
 40
0.4814606094131315
 40
1.0
 40
1.0
 40
1.0
 40
1.0
 10
1569.84405857598
 20
968.3086950829368
 30
0.0
 10
1569.844179887297
 20
968.308860934257
 30
0.0
 10
1569.844410134655
 20
968.309175717982
 30
0.0
 10
1569.825234174044
 20
968.2808937606602
 30
0.0
 10
1569.784177346904
 20
968.2231880861103
 30
0.0
 10
1569.657790713421
 20
968.0547381762646
 30
0.0
 10
1569.519443825378
 20
967.9159628500811
 30
0.0
 10
1569.412240633022
 20
967.8084276666181
 30
0.0
  0
SPLINE
  5
22B
330
1F
100
AcDbEntity
  8
0
  6
Continuous
 62
     7
370
    35
100
AcDbSpline
210
0.0
220
0.0
230
1.0
 70
     8
 71
     3
 72
    12
 73
     8
 74
     0
 42
0.000000001
 43
0.00000001
 40
0.0
 40
0.0
 40
0.0
 40
0.0
 40
0.09103742251445
 40
0.2353541285996628
 40
0.3547454600740118
 40
0.5766251016360311
 40
1.0
 40
1.0
 40
1.0
 40
1.0
 10
1633.997892995228
 20
933.0560696124288
 30
0.0
 10
1633.996927814334
 20
933.0552310233224
 30
0.0
 10
1633.99443258433
 20
933.0530630642245
 30
0.0
 10
1634.008847493727
 20
933.0654333946034
 30
0.0
 10
1634.044335863417
 20
933.0946944288887
 30
0.0
 10
1634.122803398402
 20
933.1582349025621
 30
0.0
 10
1634.197129597494
 20
933.2062193430345
 30
0.0
 10
1634.245897711532
 20
933.2377036741799
 30
0.0
  0
SPLINE
  5
22C
330
1F
100
AcDbEntity
  8
0
  6
Continuous
 62
     7
370
    35
100
AcDbSpline
210
0.0
220
0.0
230
1.0
 70
     8
 71
     3
 72
    13
 73
     9
 74
     0
 42
0.000000001
 43
0.00000001
 40
0.0
 40
0.0
 40
0.0
 40
0.0
 40
0.3192547610509495
 40
0.6030634358207061
 40
0.7318310646783186
 40
0.8311168407962896
 40
0.9400008210945402
 40
1.0
 40
1.0
 40
1.0
 40
1.0
 10
1568.65874286182
 20
933.2392219687958
 30
0.0
 10
1568.695406183347
 20
933.2154542022228
 30
0.0
 10
1568.764662186221
 20
933.1705575468868
 30
0.0
 10
1568.84257153647
 20
933.1085414050162
 30
0.0
 10
1568.885750772427
 20
933.0732220498783
 30
0.0
 10
1568.902546514029
 20
933.0590593809104
 30
0.0
 10
1568.909497554823
 20
933.0530955296614
 30
0.0
 10
1568.908518491269
 20
933.0539433897858
 30
0.0
 10
1568.908170659018
 20
933.0542446093482
 30
0.0
  0
SPLINE
  5
22D
330
1F
100
AcDbEntity
  8
0
  6
Continuous
 62
     7
370
    35
100
AcDbSpline
210
0.0
220
0.0
230
1.0
 70
     8
 71
     3
 72
    10
 73
     6
 74
     0
 42
0.000000001
 43
0.00000001
 40
0.0
 40
0.0
 40
0.0
 40
0.0
 40
0.2926068144125984
 40
0.7936688105144527
 40
1.0
 40
1.0
 40
1.0
 40
1.0
 10
1633.168071350455
 20
969.1812435430573
 30
0.0
 10
1633.066272387133
 20
969.1865379864083
 30
0.0
 10
1632.790152152906
 20
969.2008986723173
 30
0.0
 10
1632.44933534644
 20
969.2983983186217
 30
0.0
 10
1632.230627229316
 20
969.4022409999403
 30
0.0
 10
1632.166834833692
 20
969.4325296490147
 30
0.0
  0
ARC
  5
22E
330
1F
100
AcDbEntity
  8
0
  6
Continuous
 62
     7
370
    35
100
AcDbCircle
 10
1632.9519793637
 20
940.1616793807
 30
0.0
 40
11.0
100
AcDbArc
 50
270.0
 51
0.0
  0
LINE
  5
22F
330
1F
100
AcDbEntity
  8
0
  6
Continuous
 62
     7
370
    35
100
AcDbLine
 10
1623.4651245734
 20
929.1616793807
 30
0.0
 11
1632.9519793637
 21
929.1616793807
 31
0.0
  0
SPLINE
  5
230
330
1F
100
AcDbEntity
  8
0
  6
Continuous
 62
     7
370
    35
100
AcDbSpline
210
0.0
220
0.0
230
1.0
 70
     8
 71
     3
 72
    13
 73
     9
 74
     0
 42
0.000000001
 43
0.00000001
 40
0.0
 40
0.0
 40
0.0
 40
0.0
 40
0.0125063869390532
 40
0.1462174492309762
 40
0.2953845417826262
 40
0.4584621316842905
 40
0.7227547060787504
 40
1.0
 40
1.0
 40
1.0
 40
1.0
 10
1629.951996922709
 20
972.5674885913943
 30
0.0
 10
1629.951996585387
 20
972.6197432064824
 30
0.0
 10
1629.951992641612
 20
973.2306739705753
 30
0.0
 10
1629.951990129161
 20
974.0101467521638
 30
0.0
 10
1629.951985014352
 20
974.8046824055257
 30
0.0
 10
1629.95198141189
 20
975.3465100184206
 30
0.0
 10
1629.95197938266
 20
975.589295369841
 30
0.0
 10
1629.951979370125
 20
975.6041000093014
 30
0.0
 10
1629.951979363708
 20
975.6116793806783
 30
0.0
  0
LINE
  5
231
330
1F
100
AcDbEntity
  8
0
  6
Continuous
 62
     7
370
    35
100
AcDbLine
 10
1666.9519793637
 20
986.6112793807
 30
0.0
 11
1666.9269793637
 21
986.6112793807
 31
0.0
  0
LINE
  5
232
330
1F
100
AcDbEntity
  8
0
  6
Continuous
 62
     7
370
    35
100
AcDbLine
 10
1666.9519793637
 20
985.6112793807
 30
0.0
 11
1666.9519793637
 21
986.6112793807
 31
0.0
  0
LINE
  5
233
330
1F
100
AcDbEntity
  8
0
  6
Continuous
 62
     7
370
    35
100
AcDbLine
 10
1666.9519793637
 20
985.6112793807
 30
0.0
 11
1666.9269793637
 21
985.6112793807
 31
0.0
  0
ARC
  5
234
330
1F
100
AcDbEntity
  8
0
  6
Continuous
 62
     7
370
    35
100
AcDbCircle
 10
1637.4519793637
 20
987.6112793807
 30
0.0
 40
1.000000000000227
100
AcDbArc
 50
180.0
 51
270.0
  0
ARC
  5
235
330
1F
100
AcDbEntity
  8
0
  6
Continuous
 62
     7
370
    35
100
AcDbCircle
 10
1552.9519793637
 20
999.6112793807
 30
0.0
 40
0.9999999999998863
100
AcDbArc
 50
180.0
 51
270.0
  0
LINE
  5
236
330
1F
100
AcDbEntity
  8
0
  6
Continuous
 62
     7
370
    35
100
AcDbLine
 10
1568.4519793637
 20
985.6112793807
 30
0.0
 11
1568.4519793637
 21
984.27319787
 31
0.0
  0
LWPOLYLINE
  5
237
330
1F
100
AcDbEntity
  8
0
  6
Continuous
 62
     7
370
    35
100
AcDbPolyline
 90
        3
 70
   128
 43
0.0
 10
1568.4519793637
 20
984.27319787
 10
1568.4876915968
 20
983.8969352374
 10
1568.5519793637
 20
983.6486980701
  0
LINE
  5
238
330
1F
100
AcDbEntity
  8
0
  6
Continuous
 62
     7
370
    35
100
AcDbLine
 10
1634.4519793637
 20
984.27319787
 30
0.0
 11
1634.4519793637
 21
985.6112793807
 31
0.0
  0
LINE
  5
239
330
1F
100
AcDbEntity
  8
0
  6
Continuous
 62
     7
370
    35
100
AcDbLine
 10
1551.9519793637
 20
999.6112793807
 30
0.0
 11
1551.9519793637
 21
1029.1112793807
 31
0.0
  0
LINE
  5
23A
330
1F
100
AcDbEntity
  8
0
  6
Continuous
 62
     7
370
    35
100
AcDbLine
 10
1551.9269793637
 20
1029.1112793807
 30
0.0
 11
1551.9519793637
 21
1029.1112793807
 31
0.0
  0
ARC
  5
23B
330
1F
100
AcDbEntity
  8
0
  6
Continuous
 62
     7
370
    35
100
AcDbCircle
 10
1632.4519793637
 20
984.27319787
 30
0.0
 40
1.999999999999816
100
AcDbArc
 50
337.6683549908
 51
0.0
  0
LINE
  5
23C
330
1F
100
AcDbEntity
  8
0
  6
Continuous
 62
     7
370
    35
100
AcDbLine
 10
1629.4519793637
 20
976.3496872386
 30
0.0
 11
1629.4519793637
 21
975.6116793807
 31
0.0
  0
LINE
  5
23D
330
1F
100
AcDbEntity
  8
0
  6
Continuous
 62
     7
370
    35
100
AcDbLine
 10
1573.4519793637
 20
976.3263718557
 30
0.0
 11
1573.4519793637
 21
975.6116793807
 31
0.0
  0
LINE
  5
23E
330
1F
100
AcDbEntity
  8
0
  6
Continuous
 62
     7
370
    35
100
AcDbLine
 10
1573.4519793637
 20
975.6116793807
 30
0.0
 11
1574.9846423225
 21
975.6116793807
 31
0.0
  0
LINE
  5
23F
330
1F
100
AcDbEntity
  8
0
  6
Continuous
 62
     7
370
    35
100
AcDbLine
 10
1627.8693164049
 20
975.6116793807
 30
0.0
 11
1629.4519793637
 21
975.6116793807
 31
0.0
  0
SPLINE
  5
240
330
1F
100
AcDbEntity
  8
0
  6
Continuous
 62
     7
370
    35
100
AcDbSpline
210
0.0
220
0.0
230
1.0
 70
     8
 71
     3
 72
     9
 73
     5
 74
     0
 42
0.000000001
 43
0.00000001
 40
0.0
 40
0.0
 40
0.0
 40
0.0
 40
0.0494865767861938
 40
1.0
 40
1.0
 40
1.0
 40
1.0
 10
1633.066547334193
 20
968.2989184244018
 30
0.0
 10
1633.063513713871
 20
968.3037019953831
 30
0.0
 10
1633.002211831243
 20
968.4003660059489
 30
0.0
 10
1632.997051479758
 20
968.4056802946775
 30
0.0
 10
1632.992146496402
 20
968.4107315974488
 30
0.0
  0
SPLINE
  5
241
330
1F
100
AcDbEntity
  8
0
  6
Continuous
 62
     7
370
    35
100
AcDbSpline
210
0.0
220
0.0
230
1.0
 70
     8
 71
     3
 72
    14
 73
    10
 74
     0
 42
0.000000001
 43
0.00000001
 40
0.0
 40
0.0
 40
0.0
 40
0.0
 40
0.0000086772972158
 40
0.0546554576672727
 40
0.1545956188497728
 40
0.2815115513695395
 40
0.4757791841528836
 40
0.7372214479202459
 40
1.0
 40
1.0
 40
1.0
 40
1.0
 10
1632.861275460782
 20
968.4912689212862
 30
0.0
 10
1632.861276482619
 20
968.4912668004529
 30
0.0
 10
1632.867712701147
 20
968.4779083650701
 30
0.0
 10
1632.902445865535
 20
968.4135071607877
 30
0.0
 10
1633.051597525794
 20
968.1575209755515
 30
0.0
 10
1633.416200598153
 20
967.5415843718964
 30
0.0
 10
1634.046563265998
 20
966.4659103256209
 30
0.0
 10
1634.857761694214
 20
965.0450943011836
 30
0.0
 10
1635.438847628168
 20
963.9860806397128
 30
0.0
 10
1635.730131216576
 20
963.4552240461145
 30
0.0
  0
SPLINE
  5
242
330
1F
100
AcDbEntity
  8
0
  6
Continuous
 62
     7
370
    35
100
AcDbSpline
210
0.0
220
0.0
230
1.0
 70
     8
 71
     3
 72
    12
 73
     8
 74
     0
 42
0.000000001
 43
0.00000001
 40
0.0
 40
0.0
 40
0.0
 40
0.0
 40
0.1720195714147646
 40
0.4559851198824043
 40
0.6711971521951594
 40
0.886314075200972
 40
1.0
 40
1.0
 40
1.0
 40
1.0
 10
1637.163915808857
 20
960.747644426736
 30
0.0
 10
1637.645691946675
 20
959.6999350180773
 30
0.0
 10
1638.922771921663
 20
956.9226934729442
 30
0.0
 10
1639.88906463887
 20
952.4800556371546
 30
0.0
 10
1640.078342393086
 20
947.6904838462044
 30
0.0
 10
1639.619393044872
 20
944.0494842734284
 30
0.0
 10
1638.989538053522
 20
941.9387909164719
 30
0.0
 10
1638.77176120743
 20
941.209003665982
 30
0.0
  0
SPLINE
  5
243
330
1F
100
AcDbEntity
  8
0
  6
Continuous
 62
     7
370
    35
100
AcDbSpline
210
0.0
220
0.0
230
1.0
 70
    24
 71
     3
 72
     9
 73
     5
 74
     0
 42
0.000000001
 43
0.00000001
 40
0.0
 40
0.0
 40
0.0
 40
0.0
 40
0.5083839877526525
 40
1.0
 40
1.0
 40
1.0
 40
1.0
 10
1601.451979363708
 20
944.9403313073194
 30
0.0
 10
1601.451979363708
 20
943.4100454798084
 30
0.0
 10
1601.451979363708
 20
940.3999470810058
 30
0.0
 10
1601.451979363708
 20
937.8027848682524
 30
0.0
 10
1601.451979363708
 20
936.5259783380592
 30
0.0
  0
SPLINE
  5
244
330
1F
100
AcDbEntity
  8
0
  6
Continuous
 62
     7
370
    35
100
AcDbSpline
210
0.0
220
0.0
230
1.0
 70
    24
 71
     3
 72
    13
 73
     9
 74
     0
 42
0.000000001
 43
0.00000001
 40
0.0
 40
0.0
 40
0.0
 40
0.0
 40
0.3691962178006871
 40
0.7482503419935799
 40
0.8262738837480784
 40
0.9040766892940578
 40
0.9808985751670147
 40
1.0
 40
1.0
 40
1.0
 40
1.0
 10
1629.951979363708
 20
975.6116793806783
 30
0.0
 10
1629.963761285842
 20
975.6116793806783
 30
0.0
 10
1629.987639719155
 20
975.6116793806783
 30
0.0
 10
1629.853743249281
 20
975.6116793806783
 30
0.0
 10
1630.017496587327
 20
975.6116793806783
 30
0.0
 10
1629.70253456124
 20
975.6116793806781
 30
0.0
 10
1628.902485947836
 20
975.6116793806781
 30
0.0
 10
1628.040888287037
 20
975.6116793806782
 30
0.0
 10
1627.869316404948
 20
975.6116793806782
 30
0.0
  0
SPLINE
  5
245
330
1F
100
AcDbEntity
  8
0
  6
Continuous
 62
     7
370
    35
100
AcDbSpline
210
0.0
220
0.0
230
1.0
 70
     8
 71
     3
 72
    14
 73
    10
 74
     0
 42
0.000000001
 43
0.00000001
 40
0.0
 40
0.0
 40
0.0
 40
0.0
 40
0.0000086772972158
 40
0.0546554576672727
 40
0.1545956188497728
 40
0.2815115513695395
 40
0.4757791841528836
 40
0.7372214479202452
 40
1.0
 40
1.0
 40
1.0
 40
1.0
 10
1570.042683266634
 20
968.4912689212862
 30
0.0
 10
1570.042682244797
 20
968.4912668004529
 30
0.0
 10
1570.036246026269
 20
968.4779083650739
 30
0.0
 10
1570.001512861881
 20
968.4135071607845
 30
0.0
 10
1569.852361201622
 20
968.1575209755529
 30
0.0
 10
1569.487758129264
 20
967.5415843718959
 30
0.0
 10
1568.857395461418
 20
966.465910325621
 30
0.0
 10
1568.046197033202
 20
965.0450943011834
 30
0.0
 10
1567.465111099249
 20
963.9860806397128
 30
0.0
 10
1567.173827510841
 20
963.4552240461145
 30
0.0
  0
SPLINE
  5
246
330
1F
100
AcDbEntity
  8
0
  6
Continuous
 62
     7
370
    35
100
AcDbSpline
210
0.0
220
0.0
230
1.0
 70
     8
 71
     3
 72
     9
 73
     5
 74
     0
 42
0.000000001
 43
0.00000001
 40
0.0
 40
0.0
 40
0.0
 40
0.0
 40
0.0487880016056799
 40
1.0
 40
1.0
 40
1.0
 40
1.0
 10
1569.837544414152
 20
968.2991280761594
 30
0.0
 10
1569.840532376704
 20
968.30383961954
 30
0.0
 10
1569.901776175477
 20
968.4004113836119
 30
0.0
 10
1569.906919673746
 20
968.4057005135708
 30
0.0
 10
1569.911812231014
 20
968.4107315974488
 30
0.0
  0
LINE
  5
247
330
1F
100
AcDbEntity
  8
0
  6
Continuous
 62
     7
370
    35
100
AcDbLine
 10
1572.9519793637
 20
972.1955555764
 30
0.0
 11
1572.9519793637
 21
975.6116793807
 31
0.0
  0
SPLINE
  5
248
330
1F
100
AcDbEntity
  8
0
  6
Continuous
 62
     7
370
    35
100
AcDbSpline
210
0.0
220
0.0
230
1.0
 70
     8
 71
     3
 72
    12
 73
     8
 74
     0
 42
0.000000001
 43
0.00000001
 40
0.0
 40
0.0
 40
0.0
 40
0.0
 40
0.1720195714147643
 40
0.455985119882404
 40
0.6711971521951589
 40
0.8863140752009718
 40
1.0
 40
1.0
 40
1.0
 40
1.0
 10
1565.74004291856
 20
960.747644426736
 30
0.0
 10
1565.258266780741
 20
959.6999350180773
 30
0.0
 10
1563.981186805753
 20
956.9226934729442
 30
0.0
 10
1563.014894088547
 20
952.4800556371546
 30
0.0
 10
1562.82561633433
 20
947.6904838462044
 30
0.0
 10
1563.284565682545
 20
944.0494842734284
 30
0.0
 10
1563.914420673894
 20
941.9387909164719
 30
0.0
 10
1564.132197519986
 20
941.209003665982
 30
0.0
  0
SPLINE
  5
249
330
1F
100
AcDbEntity
  8
0
  6
Continuous
 62
     7
370
    35
100
AcDbSpline
210
0.0
220
0.0
230
1.0
 70
    24
 71
     3
 72
    13
 73
     9
 74
     0
 42
0.000000001
 43
0.00000001
 40
0.0
 40
0.0
 40
0.0
 40
0.0
 40
0.369905532129978
 40
0.7496879100505726
 40
0.8278613537095875
 40
0.9058136370729767
 40
0.9827831161817947
 40
1.0
 40
1.0
 40
1.0
 40
1.0
 10
1572.951979363708
 20
975.6116793806783
 30
0.0
 10
1572.94011963775
 20
975.6116793806783
 30
0.0
 10
1572.916083519349
 20
975.6116793806783
 30
0.0
 10
1573.050864575593
 20
975.6116793806783
 30
0.0
 10
1572.886031028581
 20
975.6116793806783
 30
0.0
 10
1573.203093182219
 20
975.6116793806781
 30
0.0
 10
1573.988498313186
 20
975.6116793806781
 30
0.0
 10
1574.830692629124
 20
975.6116793806781
 30
0.0
 10
1574.984642322469
 20
975.6116793806781
 30
0.0
  0
SPLINE
  5
24A
330
1F
100
AcDbEntity
  8
0
  6
Continuous
 62
     7
370
    35
100
AcDbSpline
210
0.0
220
0.0
230
1.0
 70
    24
 71
     3
 72
    12
 73
     8
 74
     0
 42
0.000000001
 43
0.00000001
 40
0.0
 40
0.0
 40
0.0
 40
0.0
 40
0.1412104094081674
 40
0.378776799543145
 40
0.6231915895614722
 40
0.8099823699849353
 40
1.0
 40
1.0
 40
1.0
 40
1.0
 10
1601.451979363708
 20
932.7112793806783
 30
0.0
 10
1601.451979363708
 20
932.3884276584579
 30
0.0
 10
1601.451979363708
 20
931.5224239227401
 30
0.0
 10
1601.451979363708
 20
930.4809661240516
 30
0.0
 10
1601.451979363708
 20
929.6759994408643
 30
0.0
 10
1601.451979363708
 20
929.2375681925438
 30
0.0
 10
1601.451979363708
 20
929.1871196589051
 30
0.0
 10
1601.451979363708
 20
929.1616793806783
 30
0.0
  0
SPLINE
  5
24B
330
1F
100
AcDbEntity
  8
0
  6
Continuous
 62
     7
370
    35
100
AcDbSpline
210
0.0
220
0.0
230
1.0
 70
    24
 71
     3
 72
    17
 73
    13
 74
     0
 42
0.000000001
 43
0.00000001
 40
0.0
 40
0.0
 40
0.0
 40
0.0
 40
0.056979578491867
 40
0.1353024541387365
 40
0.2160128774647552
 40
0.2868547793927039
 40
0.3593481415837701
 40
0.4253072501105392
 40
0.4928579495996909
 40
0.5565942236325836
 40
0.6223126637270663
 40
1.0
 40
1.0
 40
1.0
 40
1.0
 10
1601.451979363708
 20
929.1616793806783
 30
0.0
 10
1600.401598931339
 20
929.1616793806783
 30
0.0
 10
1597.907388653896
 20
929.1616793806783
 30
0.0
 10
1594.08852364562
 20
929.1616793806783
 30
0.0
 10
1590.321157473212
 20
929.1616793806783
 30
0.0
 10
1587.02611630115
 20
929.1616793806783
 30
0.0
 10
1584.345597150674
 20
929.1616793806783
 30
0.0
 10
1582.155329887551
 20
929.1616793806783
 30
0.0
 10
1580.561428201668
 20
929.1616793806783
 30
0.0
 10
1579.509334967061
 20
929.1616793806783
 30
0.0
 10
1578.854025559929
 20
929.1616793806783
 30
0.0
 10
1578.913448663417
 20
929.1616793806783
 30
0.0
 10
1578.96406449854
 20
929.1616793806783
 30
0.0
  0
SPLINE
  5
24C
330
1F
100
AcDbEntity
  8
0
  6
Continuous
 62
     7
370
    35
100
AcDbSpline
210
0.0
220
0.0
230
1.0
 70
    24
 71
     3
 72
    17
 73
    13
 74
     0
 42
0.000000001
 43
0.00000001
 40
0.0
 40
0.0
 40
0.0
 40
0.0
 40
0.0569845589005282
 40
0.1364939970869669
 40
0.2160235345599528
 40
0.2876998720941074
 40
0.359368741570599
 40
0.4261501537102204
 40
0.4928872867050189
 40
0.5575313349414547
 40
0.6222797705528772
 40
1.0
 40
1.0
 40
1.0
 40
1.0
 10
1601.451979363708
 20
929.1616793806783
 30
0.0
 10
1602.502434310611
 20
929.1616793806783
 30
0.0
 10
1605.01856845693
 20
929.1616793806783
 30
0.0
 10
1608.834118048439
 20
929.1616793806783
 30
0.0
 10
1612.614673163744
 20
929.1616793806783
 30
0.0
 10
1615.887870484601
 20
929.1616793806783
 30
0.0
 10
1618.579253876601
 20
929.1616793806783
 30
0.0
 10
1620.751800911217
 20
929.1616793806783
 30
0.0
 10
1622.365396525764
 20
929.1616793806783
 30
0.0
 10
1623.358828146842
 20
929.1616793806783
 30
0.0
 10
1624.117344315202
 20
929.1616793806783
 30
0.0
 10
1624.018549325488
 20
929.1616793806783
 30
0.0
 10
1623.934211452256
 20
929.1616793806783
 30
0.0
  0
SPLINE
  5
24D
330
1F
100
AcDbEntity
  8
0
  6
Continuous
 62
     7
370
    35
100
AcDbSpline
210
0.0
220
0.0
230
1.0
 70
     8
 71
     3
 72
    13
 73
     9
 74
     0
 42
0.000000001
 43
0.00000001
 40
0.0
 40
0.0
 40
0.0
 40
0.0
 40
0.2029467742027863
 40
0.4117773519856942
 40
0.6147258594307146
 40
0.8235672334127756
 40
0.9115535143092922
 40
0.9999999999999999
 40
0.9999999999999999
 40
0.9999999999999999
 40
0.9999999999999999
 10
1640.036221185908
 20
940.7908751555876
 30
0.0
 10
1640.439284477749
 20
942.1735299042564
 30
0.0
 10
1641.257096614203
 20
944.978925128466
 30
0.0
 10
1641.566510770353
 20
949.3523251443138
 30
0.0
 10
1641.188050268782
 20
953.7458668778675
 30
0.0
 10
1640.274927360673
 20
957.1848200350587
 30
0.0
 10
1639.274260643871
 20
959.7253747918847
 30
0.0
 10
1638.712380409539
 20
960.8417761422972
 30
0.0
 10
1638.430707492048
 20
961.4014328204435
 30
0.0
  0
SPLINE
  5
24E
330
1F
100
AcDbEntity
  8
0
  6
Continuous
 62
     7
370
    35
100
AcDbSpline
210
0.0
220
0.0
230
1.0
 70
     8
 71
     3
 72
    13
 73
     9
 74
     0
 42
0.000000001
 43
0.00000001
 40
0.0
 40
0.0
 40
0.0
 40
0.0
 40
0.2029467742027862
 40
0.4117773519856942
 40
0.6147258594307148
 40
0.823567233412776
 40
0.9115535143092925
 40
0.9999999999999999
 40
0.9999999999999999
 40
0.9999999999999999
 40
0.9999999999999999
 10
1562.867737541508
 20
940.7908751555876
 30
0.0
 10
1562.464674249667
 20
942.1735299042564
 30
0.0
 10
1561.646862113213
 20
944.978925128466
 30
0.0
 10
1561.337447957064
 20
949.3523251443138
 30
0.0
 10
1561.715908458634
 20
953.7458668778675
 30
0.0
 10
1562.629031366743
 20
957.1848200350587
 30
0.0
 10
1563.629698083546
 20
959.7253747918847
 30
0.0
 10
1564.191578317877
 20
960.8417761422972
 30
0.0
 10
1564.473251235368
 20
961.4014328204435
 30
0.0
  0
SPLINE
  5
24F
330
1F
100
AcDbEntity
  8
0
  6
Continuous
 62
     7
370
    35
100
AcDbSpline
210
0.0
220
0.0
230
1.0
 70
     8
 71
     3
 72
    12
 73
     8
 74
     0
 42
0.000000001
 43
0.00000001
 40
0.0
 40
0.0
 40
0.0
 40
0.0
 40
0.054210064691031
 40
0.3612059465304466
 40
0.5267652948496009
 40
0.763378706224383
 40
1.0
 40
1.0
 40
1.0
 40
1.0
 10
1633.774171831731
 20
932.938057975323
 30
0.0
 10
1633.927453582361
 20
933.035821273686
 30
0.0
 10
1634.948782004268
 20
933.6872258592069
 30
0.0
 10
1636.333377154802
 20
934.850329732099
 30
0.0
 10
1637.918173282008
 20
936.6861776697543
 30
0.0
 10
1639.132292519385
 20
938.525253283158
 30
0.0
 10
1639.734908284591
 20
940.0356594787859
 30
0.0
 10
1640.036221185908
 20
940.7908751555876
 30
0.0
  0
SPLINE
  5
250
330
1F
100
AcDbEntity
  8
0
  6
Continuous
 62
     7
370
    35
100
AcDbSpline
210
0.0
220
0.0
230
1.0
 70
     8
 71
     3
 72
    12
 73
     8
 74
     0
 42
0.000000001
 43
0.00000001
 40
0.0
 40
0.0
 40
0.0
 40
0.0
 40
0.0542100646910311
 40
0.3612059465304473
 40
0.5267652948496011
 40
0.7633787062243828
 40
1.0
 40
1.0
 40
1.0
 40
1.0
 10
1569.129786895686
 20
932.938057975323
 30
0.0
 10
1568.976505145055
 20
933.035821273686
 30
0.0
 10
1567.955176723148
 20
933.6872258592069
 30
0.0
 10
1566.570581572615
 20
934.850329732099
 30
0.0
 10
1564.985785445408
 20
936.6861776697542
 30
0.0
 10
1563.771666208031
 20
938.525253283158
 30
0.0
 10
1563.169050442825
 20
940.0356594787859
 30
0.0
 10
1562.867737541508
 20
940.7908751555876
 30
0.0
  0
SPLINE
  5
251
330
1F
100
AcDbEntity
  8
0
  6
Continuous
 62
     7
370
    35
100
AcDbSpline
210
0.0
220
0.0
230
1.0
 70
     8
 71
     3
 72
    11
 73
     7
 74
     0
 42
0.000000001
 43
0.00000001
 40
0.0
 40
0.0
 40
0.0
 40
0.0
 40
0.3166351430858648
 40
0.642169966751817
 40
0.8203579608774896
 40
1.0
 40
1.0
 40
1.0
 40
1.0
 10
1636.952812605233
 20
964.1229608868158
 30
0.0
 10
1636.686847251141
 20
964.5554031829192
 30
0.0
 10
1636.147441040793
 20
965.4324424534321
 30
0.0
 10
1635.252151611502
 20
966.395726668169
 30
0.0
 10
1634.436774253932
 20
967.1089056405154
 30
0.0
 10
1633.975243446017
 20
967.4315171412175
 30
0.0
 10
1633.743540325128
 20
967.5934783586825
 30
0.0
  0
SPLINE
  5
252
330
1F
100
AcDbEntity
  8
0
  6
Continuous
 62
     7
370
    35
100
AcDbSpline
210
0.0
220
0.0
230
1.0
 70
     8
 71
     3
 72
    11
 73
     7
 74
     0
 42
0.000000001
 43
0.00000001
 40
0.0
 40
0.0
 40
0.0
 40
0.0
 40
0.3166502316689759
 40
0.6422005680136363
 40
0.8852711377571085
 40
1.0
 40
1.0
 40
1.0
 40
1.0
 10
1565.951146122183
 20
964.1229608868157
 30
0.0
 10
1566.217169879469
 20
964.5553732558803
 30
0.0
 10
1566.756694537745
 20
965.432351831155
 30
0.0
 10
1567.721950106363
 20
966.4722345352599
 30
0.0
 10
1568.54827053631
 20
967.17282705294
 30
0.0
 10
1569.011790205743
 20
967.4913451186244
 30
0.0
 10
1569.160418402288
 20
967.5934783586825
 30
0.0
  0
LINE
  5
253
330
1F
100
AcDbEntity
  8
0
  6
Continuous
 62
     7
370
    35
100
AcDbLine
 10
1638.430707492
 20
961.4014328204
 30
0.0
 11
1636.9528126052
 21
964.1229608868
 31
0.0
  0
LINE
  5
254
330
1F
100
AcDbEntity
  8
0
  6
Continuous
 62
     7
370
    35
100
AcDbLine
 10
1564.4732512354
 20
961.4014328204
 30
0.0
 11
1565.9511461222
 21
964.1229608868
 31
0.0
  0
LINE
  5
255
330
1F
100
AcDbEntity
  8
0
  6
Continuous
 62
     7
370
    35
100
AcDbLine
 10
1568.6557121149
 20
933.245326572
 30
0.0
 11
1568.6693664458
 21
933.2364766031
 31
0.0
  0
LINE
  5
256
330
1F
100
AcDbEntity
  8
0
  6
Continuous
 62
     7
370
    35
100
AcDbLine
 10
1633.7435403251
 20
967.5934783587
 30
0.0
 11
1633.8443355259
 21
967.5257043324
 31
0.0
  0
ARC
  5
257
330
1F
100
AcDbEntity
  8
0
  6
Continuous
 62
     7
370
    35
100
AcDbCircle
 10
1567.3709154186
 20
970.004546434
 30
0.0
 40
2.999398629818091
100
AcDbArc
 50
304.2645941136
 51
312.8939997999
  0
LINE
  5
258
330
1F
100
AcDbEntity
  8
0
  6
Continuous
 62
     7
370
    35
100
AcDbLine
 10
1569.1604184023
 20
967.5934783587
 30
0.0
 11
1569.0596232015
 21
967.5257043324
 31
0.0
  0
SPLINE
  5
259
330
1F
100
AcDbEntity
  8
0
  6
Continuous
 62
     7
370
    35
100
AcDbSpline
210
0.0
220
0.0
230
1.0
 70
     8
 71
     3
 72
     9
 73
     5
 74
     0
 42
0.000000001
 43
0.00000001
 40
0.0
 40
0.0
 40
0.0
 40
0.0
 40
0.6590643911398723
 40
0.9999999999999999
 40
0.9999999999999999
 40
0.9999999999999999
 40
0.9999999999999999
 10
1633.283654935109
 20
969.1630435942928
 30
0.0
 10
1632.968179215098
 20
969.1890378215634
 30
0.0
 10
1632.489507139572
 20
969.2284789256803
 30
0.0
 10
1632.088831307581
 20
969.4826569816607
 30
0.0
 10
1631.952226648845
 20
969.5693153319353
 30
0.0
  0
ARC
  5
25A
330
1F
100
AcDbEntity
  8
0
  6
Continuous
 62
     7
370
    35
100
AcDbCircle
 10
1632.9519723825
 20
958.1680383523
 30
0.0
 40
11.00000698123873
100
AcDbArc
 50
0.0000092142
 51
88.2721018854
  0
SPLINE
  5
25B
330
1F
100
AcDbEntity
  8
0
  6
Continuous
 62
     7
370
    35
100
AcDbSpline
210
0.0
220
0.0
230
1.0
 70
    24
 71
     3
 72
    19
 73
    15
 74
     0
 42
0.000000001
 43
0.00000001
 40
0.0
 40
0.0
 40
0.0
 40
0.0
 40
0.0003400432997567
 40
0.101863577827705
 40
0.2035434036526508
 40
0.3480218784455774
 40
0.4928620408160624
 40
0.5714933381061476
 40
0.649629626132014
 40
0.7087399627822194
 40
0.7683238584295657
 40
0.8224306267254518
 40
0.8926101632270929
 40
0.9999999999999999
 40
0.9999999999999999
 40
0.9999999999999999
 40
0.9999999999999999
 10
1643.951979363708
 20
958.1680401213009
 30
0.0
 10
1643.951979363708
 20
958.1680423311528
 30
0.0
 10
1643.951979363709
 20
958.1687043157409
 30
0.0
 10
1643.951979363708
 20
957.9992673629278
 30
0.0
 10
1643.951979363708
 20
957.2138084907143
 30
0.0
 10
1643.951979363708
 20
955.8136517087511
 30
0.0
 10
1643.951979363708
 20
954.1479098707582
 30
0.0
 10
1643.951979363708
 20
952.6580595346047
 30
0.0
 10
1643.951979363708
 20
951.4099698152975
 30
0.0
 10
1643.951979363708
 20
950.0742189763804
 30
0.0
 10
1643.951979363708
 20
948.7614481169343
 30
0.0
 10
1643.951979363708
 20
947.3855077449186
 30
0.0
 10
1643.951979363708
 20
945.9714232697517
 30
0.0
 10
1643.951979363708
 20
945.1422886444127
 30
0.0
 10
1643.951979363708
 20
944.6408472616116
 30
0.0
  0
SPLINE
  5
25C
330
1F
100
AcDbEntity
  8
0
  6
Continuous
 62
     7
370
    35
100
AcDbSpline
210
0.0
220
0.0
230
1.0
 70
    24
 71
     3
 72
     9
 73
     5
 74
     0
 42
0.000000001
 43
0.00000001
 40
0.0
 40
0.0
 40
0.0
 40
0.0
 40
0.4979466281839554
 40
1.0
 40
1.0
 40
1.0
 40
1.0
 10
1643.951979363708
 20
944.6408472616116
 30
0.0
 10
1643.951979363708
 20
944.0100797660543
 30
0.0
 10
1643.951979363708
 20
942.7433426101913
 30
0.0
 10
1643.951979363708
 20
941.6891987091261
 30
0.0
 10
1643.951979363708
 20
941.1599622092169
 30
0.0
  0
LINE
  5
25D
330
1F
100
AcDbEntity
  8
0
  6
Continuous
 62
     7
370
    35
100
AcDbLine
 10
1643.9519793637
 20
941.1599622092
 30
0.0
 11
1643.9519793637
 21
940.1616793807
 31
0.0
  0
ARC
  5
25E
330
1F
100
AcDbEntity
  8
0
  6
Continuous
 62
     7
370
    35
100
AcDbCircle
 10
1552.9519793637
 20
987.6112793807
 30
0.0
 40
1.0
100
AcDbArc
 50
180.0
 51
270.0
  0
LINE
  5
25F
330
1F
100
AcDbEntity
  8
0
  6
Continuous
 62
     7
370
    35
100
AcDbLine
 10
1551.9519793637
 20
987.6112793807
 30
0.0
 11
1551.9519793637
 21
997.6112793807
 31
0.0
  0
LINE
  5
260
330
1F
100
AcDbEntity
  8
0
  6
Continuous
 62
     7
370
    35
100
AcDbLine
 10
1636.4519793637
 20
997.6112793807
 30
0.0
 11
1636.4519793637
 21
986.6112793807
 31
0.0
  0
LINE
  5
261
330
1F
100
AcDbEntity
  8
0
  6
Continuous
 62
     7
370
    35
100
AcDbLine
 10
1634.3019793637
 20
985.6112793807
 30
0.0
 11
1634.3019793637
 21
979.8854199023
 31
0.0
  0
LINE
  5
262
330
1F
100
AcDbEntity
  8
0
  6
Continuous
 62
     7
370
    35
100
AcDbLine
 10
1633.1472158872
 20
978.0728043282
 30
0.0
 11
1617.5817428402
 21
970.8145050436
 31
0.0
  0
ARC
  5
263
330
1F
100
AcDbEntity
  8
0
  6
Continuous
 62
     7
370
    35
100
AcDbCircle
 10
1618.4269793637
 20
969.0018894695
 30
0.0
 40
2.000000000000027
100
AcDbArc
 50
115.0
 51
180.0
  0
LINE
  5
264
330
1F
100
AcDbEntity
  8
0
  6
Continuous
 62
     7
370
    35
100
AcDbLine
 10
1616.4269793637
 20
969.0018894695
 30
0.0
 11
1616.4269793637
 21
934.7112793807
 31
0.0
  0
ARC
  5
265
330
1F
100
AcDbEntity
  8
0
  6
Continuous
 62
     7
370
    35
100
AcDbCircle
 10
1614.4269793637
 20
934.7112793807
 30
0.0
 40
2.0
100
AcDbArc
 50
270.0
 51
0.0
  0
LINE
  5
266
330
1F
100
AcDbEntity
  8
0
  6
Continuous
 62
     7
370
    35
100
AcDbLine
 10
1614.4269793637
 20
932.7112793807
 30
0.0
 11
1588.4269793637
 21
932.7112793807
 31
0.0
  0
ARC
  5
267
330
1F
100
AcDbEntity
  8
0
  6
Continuous
 62
     7
370
    35
100
AcDbCircle
 10
1588.4269793637
 20
934.7112793807
 30
0.0
 40
2.0
100
AcDbArc
 50
180.0
 51
270.0
  0
LINE
  5
268
330
1F
100
AcDbEntity
  8
0
  6
Continuous
 62
     7
370
    35
100
AcDbLine
 10
1586.4269793637
 20
934.7112793807
 30
0.0
 11
1586.4269793637
 21
969.0018894695
 31
0.0
  0
ARC
  5
269
330
1F
100
AcDbEntity
  8
0
  6
Continuous
 62
     7
370
    35
100
AcDbCircle
 10
1584.4269793637
 20
969.0018894695
 30
0.0
 40
2.000000000000027
100
AcDbArc
 50
0.0
 51
65.0
  0
LINE
  5
26A
330
1F
100
AcDbEntity
  8
0
  6
Continuous
 62
     7
370
    35
100
AcDbLine
 10
1585.2722158872
 20
970.8145050436
 30
0.0
 11
1569.7067428402
 21
978.0728043282
 31
0.0
  0
ARC
  5
26B
330
1F
100
AcDbEntity
  8
0
  6
Continuous
 62
     7
370
    35
100
AcDbCircle
 10
1570.5519793637
 20
979.8854199023
 30
0.0
 40
1.999999999999773
100
AcDbArc
 50
180.0
 51
245.0
  0
LINE
  5
26C
330
1F
100
AcDbEntity
  8
0
  6
Continuous
 62
     7
370
    35
100
AcDbLine
 10
1568.5519793637
 20
979.8854199023
 30
0.0
 11
1568.5519793637
 21
985.6112793807
 31
0.0
  0
LINE
  5
26D
330
1F
100
AcDbEntity
  8
0
  6
Continuous
 62
     7
370
    35
100
AcDbLine
 10
1587.4269793637
 20
952.7112793807
 30
0.0
 11
1587.4269793637
 21
962.7112793807
 31
0.0
  0
ARC
  5
26E
330
1F
100
AcDbEntity
  8
0
  6
Continuous
 62
     7
370
    35
100
AcDbCircle
 10
1593.9269793637
 20
952.7112793807
 30
0.0
 40
6.500000000000227
100
AcDbArc
 50
180.0
 51
0.0
  0
LINE
  5
26F
330
1F
100
AcDbEntity
  8
0
  6
Continuous
 62
     7
370
    35
100
AcDbLine
 10
1600.4269793637
 20
962.7112793807
 30
0.0
 11
1600.4269793637
 21
952.7112793807
 31
0.0
  0
LINE
  5
270
330
1F
100
AcDbEntity
  8
0
  6
Continuous
 62
     7
370
    35
100
AcDbLine
 10
1602.4269793637
 20
952.7112793807
 30
0.0
 11
1602.4269793637
 21
962.7112793807
 31
0.0
  0
ARC
  5
271
330
1F
100
AcDbEntity
  8
0
  6
Continuous
 62
     7
370
    35
100
AcDbCircle
 10
1608.9269793637
 20
952.7112793807
 30
0.0
 40
6.5
100
AcDbArc
 50
180.0
 51
0.0
  0
LINE
  5
272
330
1F
100
AcDbEntity
  8
0
  6
Continuous
 62
     7
370
    35
100
AcDbLine
 10
1615.4269793637
 20
962.7112793807
 30
0.0
 11
1615.4269793637
 21
952.7112793807
 31
0.0
  0
ARC
  5
273
330
1F
100
AcDbEntity
  8
0
  6
Continuous
 62
     7
370
    35
100
AcDbCircle
 10
1608.9269793637
 20
962.7112793807
 30
0.0
 40
6.5
100
AcDbArc
 50
0.0
 51
180.0
  0
CIRCLE
  5
274
330
1F
100
AcDbEntity
  8
0
  6
Continuous
 62
     7
370
    35
100
AcDbCircle
 10
1601.4269793637
 20
940.7112793807
 30
0.0
 40
4.25
  0
ARC
  5
275
330
1F
100
AcDbEntity
  8
0
  6
Continuous
 62
     7
370
    35
100
AcDbCircle
 10
1632.3019793637
 20
979.8854199023
 30
0.0
 40
2.000000000000027
100
AcDbArc
 50
295.0
 51
0.0
  0
ARC
  5
276
330
1F
100
AcDbEntity
  8
0
  6
Continuous
 62
     7
370
    35
100
AcDbCircle
 10
1593.9269793637
 20
962.7112793807
 30
0.0
 40
6.500000000000227
100
AcDbArc
 50
0.0
 51
180.0
  0
LINE
  5
277
330
1F
100
AcDbEntity
  8
0
  6
Continuous
 62
     7
370
    35
100
AcDbLine
 10
1636.4519793637
 20
998.6112793807
 30
0.0
 11
1551.9519793637
 21
998.6112793807
 31
0.0
  0
LINE
  5
278
330
1F
100
AcDbEntity
  8
0
  6
Continuous
 62
     7
370
    35
100
AcDbLine
 10
1636.4519793637
 20
998.6112793807
 30
0.0
 11
1636.4519793637
 21
997.6112793807
 31
0.0
  0
LINE
  5
279
330
1F
100
AcDbEntity
  8
0
  6
Continuous
 62
     7
370
    35
100
AcDbLine
 10
1551.9519793637
 20
997.6112793807
 30
0.0
 11
1551.9519793637
 21
998.6112793807
 31
0.0
  0
LINE
  5
27A
330
1F
100
AcDbEntity
  8
0
  6
Continuous
 62
     7
370
    35
100
AcDbLine
 10
1550.9269793637
 20
1029.1112793807
 30
0.0
 11
1551.9269793637
 21
1029.1112793807
 31
0.0
  0
LINE
  5
27B
330
1F
100
AcDbEntity
  8
0
  6
Continuous
 62
     7
370
    35
100
AcDbLine
 10
1551.9269793637
 20
1029.1112793807
 30
0.0
 11
1551.9269793637
 21
1019.1112793807
 31
0.0
  0
LINE
  5
27C
330
1F
100
AcDbEntity
  8
0
  6
Continuous
 62
     7
370
    35
100
AcDbLine
 10
1550.9269793637
 20
1019.1112793807
 30
0.0
 11
1550.9269793637
 21
1029.1112793807
 31
0.0
  0
LINE
  5
27D
330
1F
100
AcDbEntity
  8
0
  6
Continuous
 62
     7
370
    35
100
AcDbLine
 10
1551.9269793637
 20
1019.1112793807
 30
0.0
 11
1551.9269793637
 21
987.6112793807
 31
0.0
  0
LINE
  5
27E
330
1F
100
AcDbEntity
  8
0
  6
Continuous
 62
     7
370
    35
100
AcDbLine
 10
1550.9269793637
 20
1019.1112793807
 30
0.0
 11
1550.9269793637
 21
987.6112793807
 31
0.0
  0
LINE
  5
27F
330
1F
100
AcDbEntity
  8
0
  6
Continuous
 62
     7
370
    35
100
AcDbLine
 10
1656.9269793637
 20
985.6112793807
 30
0.0
 11
1552.9269793637
 21
985.6112793807
 31
0.0
  0
LINE
  5
280
330
1F
100
AcDbEntity
  8
0
  6
Continuous
 62
     7
370
    35
100
AcDbLine
 10
1656.9269793637
 20
986.6112793807
 30
0.0
 11
1552.9269793637
 21
986.6112793807
 31
0.0
  0
ARC
  5
281
330
1F
100
AcDbEntity
  8
0
  6
Continuous
 62
     7
370
    35
100
AcDbCircle
 10
1552.9269793637
 20
987.6112793807
 30
0.0
 40
2.0
100
AcDbArc
 50
180.0
 51
270.0
  0
ARC
  5
282
330
1F
100
AcDbEntity
  8
0
  6
Continuous
 62
     7
370
    35
100
AcDbCircle
 10
1552.9269793637
 20
987.6112793807
 30
0.0
 40
1.0
100
AcDbArc
 50
180.0
 51
270.0
  0
LINE
  5
283
330
1F
100
AcDbEntity
  8
0
  6
Continuous
 62
     7
370
    35
100
AcDbLine
 10
1666.9269793637
 20
986.6112793807
 30
0.0
 11
1666.9269793637
 21
985.6112793807
 31
0.0
  0
LINE
  5
284
330
1F
100
AcDbEntity
  8
0
  6
Continuous
 62
     7
370
    35
100
AcDbLine
 10
1666.9269793637
 20
985.6112793807
 30
0.0
 11
1656.9269793637
 21
985.6112793807
 31
0.0
  0
LINE
  5
285
330
1F
100
AcDbEntity
  8
0
  6
Continuous
 62
     7
370
    35
100
AcDbLine
 10
1656.9269793637
 20
986.6112793807
 30
0.0
 11
1666.9269793637
 21
986.6112793807
 31
0.0
  0
LINE
  5
286
330
1F
100
AcDbEntity
  8
0
  6
Continuous
 62
     8
370
    18
100
AcDbLine
 10
1551.9269793637
 20
999.6112793807
 30
0.0
 11
1551.9519793637
 21
999.6112793807
 31
0.0
  0
LINE
  5
287
330
1F
100
AcDbEntity
  8
0
  6
Continuous
 62
     8
370
    18
100
AcDbLine
 10
1568.4519793637
 20
984.27319787
 30
0.0
 11
1568.5519793637
 21
984.27319787
 31
0.0
  0
LINE
  5
288
330
1F
100
AcDbEntity
  8
0
  6
Continuous
 62
     8
370
    18
100
AcDbLine
 10
1634.4519793637
 20
984.27319787
 30
0.0
 11
1634.3019793637
 21
984.27319787
 31
0.0
  0
SPLINE
  5
289
330
1F
100
AcDbEntity
  8
0
  6
Continuous
 62
     8
370
    18
100
AcDbSpline
210
0.0
220
0.0
230
1.0
 70
     8
 71
     3
 72
    11
 73
     7
 74
     0
 42
0.000000001
 43
0.00000001
 40
0.0
 40
0.0
 40
0.0
 40
0.0
 40
0.2499912677933776
 40
0.499986756231606
 40
0.749992678491824
 40
0.9999999999999999
 40
0.9999999999999999
 40
0.9999999999999999
 40
0.9999999999999999
 10
1632.992146496402
 20
968.4107315974488
 30
0.0
 10
1632.984388867374
 20
968.4162294523765
 30
0.0
 10
1632.968873478344
 20
968.4272252550525
 30
0.0
 10
1632.938180295131
 20
968.4485822447847
 30
0.0
 10
1632.901015013498
 20
968.4754551643653
 30
0.0
 10
1632.873705614303
 20
968.4924050951048
 30
0.0
 10
1632.860050876494
 20
968.5008800841913
 30
0.0
  0
SPLINE
  5
28A
330
1F
100
AcDbEntity
  8
0
  6
Continuous
 62
     8
370
    18
100
AcDbSpline
210
0.0
220
0.0
230
1.0
 70
     8
 71
     3
 72
    10
 73
     6
 74
     0
 42
0.000000001
 43
0.00000001
 40
0.0
 40
0.0
 40
0.0
 40
0.0
 40
0.4993573099105828
 40
0.9998128115878191
 40
0.9999999999999999
 40
0.9999999999999999
 40
0.9999999999999999
 40
0.9999999999999999
 10
1632.860050876494
 20
968.5008800841913
 30
0.0
 10
1632.859310040676
 20
968.5008034640907
 30
0.0
 10
1632.857826739787
 20
968.500650055386
 30
0.0
 10
1632.859734644407
 20
968.4950353138706
 30
0.0
 10
1632.861274884892
 20
968.4912703289998
 30
0.0
 10
1632.861275460782
 20
968.4912689212862
 30
0.0
  0
SPLINE
  5
28B
330
1F
100
AcDbEntity
  8
0
  6
Continuous
 62
     8
370
    18
100
AcDbSpline
210
0.0
220
0.0
230
1.0
 70
     8
 71
     3
 72
    10
 73
     6
 74
     0
 42
0.000000001
 43
0.00000001
 40
0.0
 40
0.0
 40
0.0
 40
0.0
 40
0.4999712442950947
 40
0.7499826264318606
 40
1.0
 40
1.0
 40
1.0
 40
1.0
 10
1635.730131216576
 20
963.4552240461145
 30
0.0
 10
1635.972467739919
 20
963.0057820893684
 30
0.0
 10
1636.335985010825
 20
962.3315959976777
 30
0.0
 10
1636.811218485481
 20
961.4276199348304
 30
0.0
 10
1637.046349095273
 20
960.9743047400012
 30
0.0
 10
1637.163915808857
 20
960.747644426736
 30
0.0
  0
SPLINE
  5
28C
330
1F
100
AcDbEntity
  8
0
  6
Continuous
 62
     8
370
    18
100
AcDbSpline
210
0.0
220
0.0
230
1.0
 70
     8
 71
     3
 72
    11
 73
     7
 74
     0
 42
0.000000001
 43
0.00000001
 40
0.0
 40
0.0
 40
0.0
 40
0.0
 40
0.2471593440128877
 40
0.4953474341907645
 40
0.746978390568942
 40
1.0
 40
1.0
 40
1.0
 40
1.0
 10
1638.77176120743
 20
941.209003665982
 30
0.0
 10
1638.619025734137
 20
940.7715896999516
 30
0.0
 10
1638.312919059888
 20
939.8949411288943
 30
0.0
 10
1637.752374192532
 20
938.612878921082
 30
0.0
 10
1637.121463681214
 20
937.3534031680573
 30
0.0
 10
1636.637384507249
 20
936.5506930675485
 30
0.0
 10
1636.39467794042
 20
936.1482320175159
 30
0.0
  0
SPLINE
  5
28D
330
1F
100
AcDbEntity
  8
0
  6
Continuous
 62
     8
370
    18
100
AcDbSpline
210
0.0
220
0.0
230
1.0
 70
     8
 71
     3
 72
    15
 73
    11
 74
     0
 42
0.000000001
 43
0.00000001
 40
0.0
 40
0.0
 40
0.0
 40
0.0
 40
0.0725909092871137
 40
0.2113393667722909
 40
0.3503145350511139
 40
0.4890346857736735
 40
0.6277980450951467
 40
0.7714261096246157
 40
0.9150674468033676
 40
1.0
 40
1.0
 40
1.0
 40
1.0
 10
1636.39467794042
 20
936.1482320175159
 30
0.0
 10
1636.377136010567
 20
936.1536543438642
 30
0.0
 10
1636.326064872547
 20
936.1694407698525
 30
0.0
 10
1635.770494828093
 20
936.0458452978346
 30
0.0
 10
1634.065470577852
 20
935.7800378635047
 30
0.0
 10
1631.547442018799
 20
935.6948365313308
 30
0.0
 10
1628.245829360607
 20
935.5935974162628
 30
0.0
 10
1624.199363278746
 20
935.5093987747605
 30
0.0
 10
1620.234351119514
 20
935.4426622403681
 30
0.0
 10
1617.458440792395
 20
935.416304615908
 30
0.0
 10
1616.426979363708
 20
935.4065107573971
 30
0.0
  0
LINE
  5
28E
330
1F
100
AcDbEntity
  8
0
  6
Continuous
 62
     8
370
    18
100
AcDbLine
 10
1567.1738275108
 20
963.4552240461
 30
0.0
 11
1565.7400429186
 21
960.7476444267
 31
0.0
  0
SPLINE
  5
28F
330
1F
100
AcDbEntity
  8
0
  6
Continuous
 62
     8
370
    18
100
AcDbSpline
210
0.0
220
0.0
230
1.0
 70
     8
 71
     3
 72
     9
 73
     5
 74
     0
 42
0.000000001
 43
0.00000001
 40
0.0
 40
0.0
 40
0.0
 40
0.0
 40
0.9998127596651308
 40
0.9999999999999999
 40
0.9999999999999999
 40
0.9999999999999999
 40
0.9999999999999999
 10
1570.043907850923
 20
968.5008800841913
 30
0.0
 10
1570.044833648783
 20
968.4998344967215
 30
0.0
 10
1570.045759620022
 20
968.4987887134389
 30
0.0
 10
1570.042683842544
 20
968.491270329031
 30
0.0
 10
1570.042683266634
 20
968.4912689212862
 30
0.0
  0
SPLINE
  5
290
330
1F
100
AcDbEntity
  8
0
  6
Continuous
 62
     8
370
    18
100
AcDbSpline
210
0.0
220
0.0
230
1.0
 70
     8
 71
     3
 72
     9
 73
     5
 74
     0
 42
0.000000001
 43
0.00000001
 40
0.0
 40
0.0
 40
0.0
 40
0.0
 40
0.4999863548673911
 40
1.0
 40
1.0
 40
1.0
 40
1.0
 10
1569.911812231014
 20
968.4107315974488
 30
0.0
 10
1569.928326809833
 20
968.4226042605059
 30
0.0
 10
1569.961356868869
 20
968.4463502346539
 30
0.0
 10
1570.016390356279
 20
968.4827031369853
 30
0.0
 10
1570.043907850923
 20
968.5008800841913
 30
0.0
  0
SPLINE
  5
291
330
1F
100
AcDbEntity
  8
0
  6
Continuous
 62
     8
370
    18
100
AcDbSpline
210
0.0
220
0.0
230
1.0
 70
     8
 71
     3
 72
    15
 73
    11
 74
     0
 42
0.000000001
 43
0.00000001
 40
0.0
 40
0.0
 40
0.0
 40
0.0
 40
0.0726922106735342
 40
0.2116342931077045
 40
0.3508034027128457
 40
0.4897171388820099
 40
0.628674143948147
 40
0.7725026429701686
 40
0.9163444331635965
 40
0.9999999999999999
 40
0.9999999999999999
 40
0.9999999999999999
 40
0.9999999999999999
 10
1566.509280786996
 20
936.1482320175159
 30
0.0
 10
1566.526822680788
 20
936.1536543423173
 30
0.0
 10
1566.577893713819
 20
936.1694407638015
 30
0.0
 10
1567.133465104232
 20
936.0458453495232
 30
0.0
 10
1568.838483720936
 20
935.780037673523
 30
0.0
 10
1571.356533184574
 20
935.6948372381256
 30
0.0
 10
1574.658066946661
 20
935.5935947385284
 30
0.0
 10
1578.704837520427
 20
935.5094091592902
 30
0.0
 10
1582.65401931628
 20
935.4428802426386
 30
0.0
 10
1585.41259355143
 20
935.4166656423313
 30
0.0
 10
1586.426979363708
 20
935.4070259819996
 30
0.0
  0
SPLINE
  5
292
330
1F
100
AcDbEntity
  8
0
  6
Continuous
 62
     8
370
    18
100
AcDbSpline
210
0.0
220
0.0
230
1.0
 70
     8
 71
     3
 72
     9
 73
     5
 74
     0
 42
0.000000001
 43
0.00000001
 40
0.0
 40
0.0
 40
0.0
 40
0.0
 40
0.4953960175050964
 40
1.0
 40
1.0
 40
1.0
 40
1.0
 10
1564.132197519986
 20
941.209003665982
 30
0.0
 10
1564.450188480797
 20
940.3346523242853
 30
0.0
 10
1565.092080925579
 20
938.5696980032958
 30
0.0
 10
1566.033989811841
 20
936.9603270233222
 30
0.0
 10
1566.509280786996
 20
936.1482320175159
 30
0.0
  0
SPLINE
  5
293
330
1F
100
AcDbEntity
  8
0
  6
Continuous
 62
     8
370
    18
100
AcDbSpline
210
0.0
220
0.0
230
1.0
 70
     8
 71
     3
 72
    13
 73
     9
 74
     0
 42
0.000000001
 43
0.00000001
 40
0.0
 40
0.0
 40
0.0
 40
0.0
 40
0.3455606136556955
 40
0.7377948233629087
 40
0.8482878985160521
 40
0.9091433588593544
 40
0.9540191324658088
 40
1.0
 40
1.0
 40
1.0
 40
1.0
 10
1566.509280786996
 20
936.1482320175159
 30
0.0
 10
1566.847723396201
 20
935.6470606714229
 30
0.0
 10
1567.570320808085
 20
934.5770266161715
 30
0.0
 10
1568.605475891617
 20
933.4899264697609
 30
0.0
 10
1569.23538062258
 20
932.9097447219949
 30
0.0
 10
1569.412814434637
 20
932.7504288462704
 30
0.0
 10
1569.483013393725
 20
932.6856272338923
 30
0.0
 10
1569.479042183509
 20
932.6855700712522
 30
0.0
 10
1569.477032427386
 20
932.6855411422962
 30
0.0
  0
SPLINE
  5
294
330
1F
100
AcDbEntity
  8
0
  6
Continuous
 62
     8
370
    18
100
AcDbSpline
210
0.0
220
0.0
230
1.0
 70
     8
 71
     3
 72
     9
 73
     5
 74
     0
 42
0.000000001
 43
0.00000001
 40
0.0
 40
0.0
 40
0.0
 40
0.0
 40
0.4998468996431861
 40
1.0
 40
1.0
 40
1.0
 40
1.0
 10
1569.477032427386
 20
932.6855411422962
 30
0.0
 10
1569.37145897901
 20
932.7491330890206
 30
0.0
 10
1569.160247409125
 20
932.8763559381969
 30
0.0
 10
1569.039668571373
 20
932.9539838821217
 30
0.0
 10
1568.979360691834
 20
932.9928097389501
 30
0.0
  0
SPLINE
  5
295
330
1F
100
AcDbEntity
  8
0
  6
Continuous
 62
     8
370
    18
100
AcDbSpline
210
0.0
220
0.0
230
1.0
 70
     8
 71
     3
 72
    13
 73
     9
 74
     0
 42
0.000000001
 43
0.00000001
 40
0.0
 40
0.0
 40
0.0
 40
0.0
 40
0.3455606136556849
 40
0.7377948233629062
 40
0.8482878985160515
 40
0.9091433588593542
 40
0.9540191324658097
 40
1.0
 40
1.0
 40
1.0
 40
1.0
 10
1636.39467794042
 20
936.1482320175159
 30
0.0
 10
1636.056235331215
 20
935.6470606714229
 30
0.0
 10
1635.333637919332
 20
934.5770266161715
 30
0.0
 10
1634.2984828358
 20
933.4899264697609
 30
0.0
 10
1633.668578104837
 20
932.9097447219949
 30
0.0
 10
1633.49114429278
 20
932.7504288462704
 30
0.0
 10
1633.420945333691
 20
932.6856272338923
 30
0.0
 10
1633.424916543907
 20
932.6855700712522
 30
0.0
 10
1633.426926300031
 20
932.685541142296
 30
0.0
  0
SPLINE
  5
296
330
1F
100
AcDbEntity
  8
0
  6
Continuous
 62
     8
370
    18
100
AcDbSpline
210
0.0
220
0.0
230
1.0
 70
     8
 71
     3
 72
    11
 73
     7
 74
     0
 42
0.000000001
 43
0.00000001
 40
0.0
 40
0.0
 40
0.0
 40
0.0
 40
0.2499068565621723
 40
0.499844562614247
 40
0.7498974475611093
 40
1.0
 40
1.0
 40
1.0
 40
1.0
 10
1633.426926300031
 20
932.685541142296
 30
0.0
 10
1633.480758033428
 20
932.7176489744329
 30
0.0
 10
1633.588428145425
 20
932.7818686022244
 30
0.0
 10
1633.724309474672
 20
932.8657422620653
 30
0.0
 10
1633.840496745122
 20
932.9388100842255
 30
0.0
 10
1633.896562416246
 20
932.9748086624404
 30
0.0
 10
1633.924598035584
 20
932.9928097389513
 30
0.0
  0
SPLINE
  5
297
330
1F
100
AcDbEntity
  8
0
  6
Continuous
 62
     8
370
    18
100
AcDbSpline
210
0.0
220
0.0
230
1.0
 70
     8
 71
     3
 72
     9
 73
     5
 74
     0
 42
0.000000001
 43
0.00000001
 40
0.0
 40
0.0
 40
0.0
 40
0.0
 40
0.7340356503360181
 40
1.0
 40
1.0
 40
1.0
 40
1.0
 10
1633.924598035584
 20
932.9928097389513
 30
0.0
 10
1633.930150331285
 20
932.9968245842011
 30
0.0
 10
1633.937714399458
 20
933.0022941349622
 30
0.0
 10
1633.984797166087
 20
933.0444162846222
 30
0.0
 10
1633.997319503494
 20
933.0556192747631
 30
0.0
  0
SPLINE
  5
298
330
1F
100
AcDbEntity
  8
0
  6
Continuous
 62
     8
370
    18
100
AcDbSpline
210
0.0
220
0.0
230
1.0
 70
     8
 71
     3
 72
    12
 73
     8
 74
     0
 42
0.000000001
 43
0.00000001
 40
0.0
 40
0.0
 40
0.0
 40
0.0
 40
0.1139159269059947
 40
0.3258009088085494
 40
0.5443041886655137
 40
0.827432740718397
 40
1.0
 40
1.0
 40
1.0
 40
1.0
 10
1639.534911203447
 20
940.9722176619348
 30
0.0
 10
1639.766155192894
 20
941.7256891456849
 30
0.0
 10
1640.427515759099
 20
943.8806265704551
 30
0.0
 10
1640.950547965779
 20
947.635533548651
 30
0.0
 10
1640.799411849178
 20
952.5814110628035
 30
0.0
 10
1639.780095211086
 20
957.1899069622909
 30
0.0
 10
1638.438507034817
 20
960.045868747822
 30
0.0
 10
1637.930461560391
 20
961.1273917411954
 30
0.0
  0
ARC
  5
299
330
1F
100
AcDbEntity
  8
0
  6
Continuous
 62
     8
370
    18
100
AcDbCircle
 10
1634.1525445263
 20
924.973297627
 30
0.0
 40
16.88002705360993
100
AcDbArc
 50
71.4059989949
 51
74.1184304799
  0
ARC
  5
29A
330
1F
100
AcDbEntity
  8
0
  6
Continuous
 62
     8
370
    18
100
AcDbCircle
 10
1628.4483668707
 20
979.3041080237
 30
0.0
 40
20.50129592292359
100
AcDbArc
 50
295.1583766345
 51
297.5493192595
  0
ARC
  5
29B
330
1F
100
AcDbEntity
  8
0
  6
Continuous
 62
     8
370
    18
100
AcDbCircle
 10
1568.751414201
 20
924.9732976274
 30
0.0
 40
16.88002705316866
100
AcDbArc
 50
105.88156952
 51
108.5940010051
  0
SPLINE
  5
29C
330
1F
100
AcDbEntity
  8
0
  6
Continuous
 62
     8
370
    18
100
AcDbSpline
210
0.0
220
0.0
230
1.0
 70
     8
 71
     3
 72
    12
 73
     8
 74
     0
 42
0.000000001
 43
0.00000001
 40
0.0
 40
0.0
 40
0.0
 40
0.0
 40
0.1139185701341835
 40
0.3290869588708601
 40
0.5442936150078431
 40
0.8274287365843249
 40
0.9999999999999999
 40
0.9999999999999999
 40
0.9999999999999999
 40
0.9999999999999999
 10
1563.369047523969
 20
940.9722176619348
 30
0.0
 10
1563.13767391603
 20
941.7256715293925
 30
0.0
 10
1562.469283881729
 20
943.9022424045279
 30
0.0
 10
1561.956876798253
 20
947.659191497815
 30
0.0
 10
1562.107859768103
 20
952.6038041773509
 30
0.0
 10
1563.124126165809
 20
957.1899343612553
 30
0.0
 10
1564.465523835469
 20
960.0458762735934
 30
0.0
 10
1564.973497167025
 20
961.1273917411954
 30
0.0
  0
ARC
  5
29D
330
1F
100
AcDbEntity
  8
0
  6
Continuous
 62
     8
370
    18
100
AcDbCircle
 10
1574.4555918564
 20
979.3041080232
 30
0.0
 40
20.50129592233934
100
AcDbArc
 50
242.4506807405
 51
244.8416233655
  0
ARC
  5
29E
330
1F
100
AcDbEntity
  8
0
  6
Continuous
 62
     8
370
    18
100
AcDbCircle
 10
1566.3259570166
 20
935.4763424723
 30
0.0
 40
0.696450404424232
100
AcDbArc
 50
74.7384391007
 51
121.3141841641
  0
SPLINE
  5
29F
330
1F
100
AcDbEntity
  8
0
  6
Continuous
 62
     8
370
    18
100
AcDbSpline
210
0.0
220
0.0
230
1.0
 70
     8
 71
     3
 72
    11
 73
     7
 74
     0
 42
0.000000001
 43
0.00000001
 40
0.0
 40
0.0
 40
0.0
 40
0.0
 40
0.3598580230790378
 40
0.7246062069006073
 40
0.8621677510649521
 40
1.0
 40
1.0
 40
1.0
 40
1.0
 10
1565.963990411821
 20
936.0713410797257
 30
0.0
 10
1565.5786879727
 20
936.6176374283566
 30
0.0
 10
1564.802847166005
 20
937.7176538227059
 30
0.0
 10
1564.081951932552
 20
939.1525851309298
 30
0.0
 10
1563.623990860612
 20
940.2488346679035
 30
0.0
 10
1563.454084307391
 20
940.7309320342965
 30
0.0
 10
1563.369047523969
 20
940.9722176619348
 30
0.0
  0
SPLINE
  5
2A0
330
1F
100
AcDbEntity
  8
0
  6
Continuous
 62
     8
370
    18
100
AcDbSpline
210
0.0
220
0.0
230
1.0
 70
     8
 71
     3
 72
    11
 73
     7
 74
     0
 42
0.000000001
 43
0.00000001
 40
0.0
 40
0.0
 40
0.0
 40
0.0
 40
0.3598580230790385
 40
0.7246062069006086
 40
0.862167751064953
 40
1.0
 40
1.0
 40
1.0
 40
1.0
 10
1636.939968315595
 20
936.0713410797257
 30
0.0
 10
1637.325270754716
 20
936.6176374283566
 30
0.0
 10
1638.101111561411
 20
937.717653822706
 30
0.0
 10
1638.822006794864
 20
939.1525851309298
 30
0.0
 10
1639.279967866804
 20
940.2488346679035
 30
0.0
 10
1639.449874420026
 20
940.7309320342965
 30
0.0
 10
1639.534911203447
 20
940.9722176619348
 30
0.0
  0
ARC
  5
2A1
330
1F
100
AcDbEntity
  8
0
  6
Continuous
 62
     8
370
    18
100
AcDbCircle
 10
1636.5780017109
 20
935.4763424723
 30
0.0
 40
0.6964504044264452
100
AcDbArc
 50
58.6858158361
 51
105.2615608993
  0
ARC
  5
2A2
330
1F
100
AcDbEntity
  8
0
  6
Continuous
 62
     8
370
    18
100
AcDbCircle
 10
1635.4009673476
 20
970.0910326075
 30
0.0
 40
2.997472528742194
100
AcDbArc
 50
212.0390940145
 51
236.4309513429
  0
SPLINE
  5
2A3
330
1F
100
AcDbEntity
  8
0
  6
Continuous
 62
     8
370
    18
100
AcDbSpline
210
0.0
220
0.0
230
1.0
 70
     8
 71
     3
 72
    14
 73
    10
 74
     0
 42
0.000000001
 43
0.00000001
 40
0.0
 40
0.0
 40
0.0
 40
0.0
 40
0.6113158653943737
 40
0.7934072053583404
 40
0.8854170307688746
 40
0.9194198313361064
 40
0.943450187052995
 40
0.9749897870426377
 40
1.0
 40
1.0
 40
1.0
 40
1.0
 10
1636.46926850578
 20
963.8455640747898
 30
0.0
 10
1635.912811555494
 20
964.7278873953845
 30
0.0
 10
1635.190603972113
 20
965.8730264628352
 30
0.0
 10
1634.205926722255
 20
967.0086825756157
 30
0.0
 10
1633.880886482283
 20
967.3864296374906
 30
0.0
 10
1633.767832658649
 20
967.5274705314996
 30
0.0
 10
1633.727462716354
 20
967.5846757674273
 30
0.0
 10
1633.719350628559
 20
967.6070135728936
 30
0.0
 10
1633.736122604794
 20
967.5976289040765
 30
0.0
 10
1633.743540325128
 20
967.5934783586825
 30
0.0
  0
ARC
  5
2A4
330
1F
100
AcDbEntity
  8
0
  6
Continuous
 62
     8
370
    18
100
AcDbCircle
 10
1623.8411591458
 20
986.862834211
 30
0.0
 40
26.25383534900483
100
AcDbArc
 50
296.9264954205
 51
298.7507702117
  0
ARC
  5
2A5
330
1F
100
AcDbEntity
  8
0
  6
Continuous
 62
     8
370
    18
100
AcDbCircle
 10
1579.0627995813
 20
986.8628342104
 30
0.0
 40
26.25383534831541
100
AcDbArc
 50
241.2492297883
 51
243.0735045796
  0
SPLINE
  5
2A6
330
1F
100
AcDbEntity
  8
0
  6
Continuous
 62
     8
370
    18
100
AcDbSpline
210
0.0
220
0.0
230
1.0
 70
     8
 71
     3
 72
    14
 73
    10
 74
     0
 42
0.000000001
 43
0.00000001
 40
0.0
 40
0.0
 40
0.0
 40
0.0
 40
0.6113158653943737
 40
0.7934072053583404
 40
0.8854170307688746
 40
0.9194198313361064
 40
0.943450187052995
 40
0.9749897870426377
 40
1.0
 40
1.0
 40
1.0
 40
1.0
 10
1566.434690221636
 20
963.8455640747898
 30
0.0
 10
1566.991147171922
 20
964.7278873953845
 30
0.0
 10
1567.713354755304
 20
965.8730264628351
 30
0.0
 10
1568.698032005161
 20
967.0086825756157
 30
0.0
 10
1569.023072245133
 20
967.3864296374906
 30
0.0
 10
1569.136126068767
 20
967.5274705314994
 30
0.0
 10
1569.176496011062
 20
967.5846757674273
 30
0.0
 10
1569.184608098857
 20
967.6070135728936
 30
0.0
 10
1569.167836122622
 20
967.5976289040765
 30
0.0
 10
1569.160418402288
 20
967.5934783586825
 30
0.0
  0
ARC
  5
2A7
330
1F
100
AcDbEntity
  8
0
  6
Continuous
 62
     8
370
    18
100
AcDbCircle
 10
1567.5029913798
 20
970.0910326075
 30
0.0
 40
2.997472528735476
100
AcDbArc
 50
303.5690486571
 51
327.9609059855
  0
LINE
  5
2A8
330
1F
100
AcDbEntity
  8
0
  6
Continuous
 62
     8
370
    18
100
AcDbLine
 10
1637.9304615604
 20
961.1273917412
 30
0.0
 11
1636.4692685058
 21
963.8455640748
 31
0.0
  0
LINE
  5
2A9
330
1F
100
AcDbEntity
  8
0
  6
Continuous
 62
     8
370
    18
100
AcDbLine
 10
1564.973497167
 20
961.1273917412
 30
0.0
 11
1566.4346902216
 21
963.8455640748
 31
0.0
  0
ARC
  5
2AA
330
1F
100
AcDbEntity
  8
0
  6
Continuous
 62
     8
370
    18
100
AcDbCircle
 10
1567.5651629161
 20
930.4214701375
 30
0.0
 40
2.963319514180978
100
AcDbArc
 50
49.8209532533
 51
58.1297763967
  0
SPLINE
  5
2AB
330
1F
100
AcDbEntity
  8
0
  6
Continuous
 62
     8
370
    18
100
AcDbSpline
210
0.0
220
0.0
230
1.0
 70
     8
 71
     3
 72
    16
 73
    12
 74
     0
 42
0.000000001
 43
0.00000001
 40
0.0
 40
0.0
 40
0.0
 40
0.0
 40
0.0117733620155406
 40
0.0227113902881391
 40
0.0341085178796156
 40
0.044872447014466
 40
0.0843977891274212
 40
0.1801725761900122
 40
0.6004756555876863
 40
0.7301077904365099
 40
1.0
 40
1.0
 40
1.0
 40
1.0
 10
1569.129786895686
 20
932.938057975323
 30
0.0
 10
1569.135360258548
 20
932.9347046079
 30
0.0
 10
1569.146111547687
 20
932.9282357983773
 30
0.0
 10
1569.146437952943
 20
932.9302993365632
 30
0.0
 10
1569.130582328568
 20
932.9439395214354
 30
0.0
 10
1569.079464634794
 20
932.9845174643349
 30
0.0
 10
1568.908956692333
 20
933.1151839543656
 30
0.0
 10
1568.234707756353
 20
933.642572832694
 30
0.0
 10
1567.484551631925
 20
934.3236424290494
 30
0.0
 10
1566.611711722787
 20
935.2542136339797
 30
0.0
 10
1566.225135635613
 20
935.7418954893568
 30
0.0
 10
1565.963990411821
 20
936.0713410797257
 30
0.0
  0
SPLINE
  5
2AC
330
1F
100
AcDbEntity
  8
0
  6
Continuous
 62
     8
370
    18
100
AcDbSpline
210
0.0
220
0.0
230
1.0
 70
     8
 71
     3
 72
    16
 73
    12
 74
     0
 42
0.000000001
 43
0.00000001
 40
0.0
 40
0.0
 40
0.0
 40
0.0
 40
0.0117733620155408
 40
0.0227113902881394
 40
0.0341085178796155
 40
0.0448724470144665
 40
0.0843977891274209
 40
0.1801725761900129
 40
0.6004756555876873
 40
0.7301077904365098
 40
1.0
 40
1.0
 40
1.0
 40
1.0
 10
1633.774171831731
 20
932.938057975323
 30
0.0
 10
1633.768598468869
 20
932.9347046079
 30
0.0
 10
1633.757847179729
 20
932.9282357983773
 30
0.0
 10
1633.757520774473
 20
932.9302993365633
 30
0.0
 10
1633.773376398849
 20
932.9439395214354
 30
0.0
 10
1633.824494092623
 20
932.9845174643349
 30
0.0
 10
1633.995002035083
 20
933.1151839543656
 30
0.0
 10
1634.669250971063
 20
933.642572832694
 30
0.0
 10
1635.419407095491
 20
934.3236424290494
 30
0.0
 10
1636.292247004629
 20
935.2542136339796
 30
0.0
 10
1636.678823091804
 20
935.7418954893568
 30
0.0
 10
1636.939968315595
 20
936.0713410797257
 30
0.0
  0
ARC
  5
2AD
330
1F
100
AcDbEntity
  8
0
  6
Continuous
 62
     8
370
    18
100
AcDbCircle
 10
1635.3387958114
 20
930.4214701375
 30
0.0
 40
2.963319514169303
100
AcDbArc
 50
121.8702236033
 51
130.1790467468
  0
ARC
  5
2AE
330
1F
100
AcDbEntity
  8
0
  6
Continuous
 62
     8
370
    18
100
AcDbCircle
 10
1631.1364841683
 20
974.1230047075
 30
0.0
 40
14.66438151349602
100
AcDbArc
 50
297.6001215934
 51
299.8288543736
  0
ARC
  5
2AF
330
1F
100
AcDbEntity
  8
0
  6
Continuous
 62
     8
370
    18
100
AcDbCircle
 10
1635.5232176472
 20
929.0985512434
 30
0.0
 40
12.53306185281894
100
AcDbArc
 50
68.8944075234
 51
71.3317007915
  0
ARC
  5
2B0
330
1F
100
AcDbEntity
  8
0
  6
Continuous
 62
     8
370
    18
100
AcDbCircle
 10
1571.7674745589
 20
974.1230047072
 30
0.0
 40
14.66438151311564
100
AcDbArc
 50
240.1711456264
 51
242.3998784067
  0
ARC
  5
2B1
330
1F
100
AcDbEntity
  8
0
  6
Continuous
 62
     8
370
    18
100
AcDbCircle
 10
1567.3807410798
 20
929.0985512446
 30
0.0
 40
12.53306185158745
100
AcDbArc
 50
108.6682992084
 51
111.1055924767
  0
ARC
  5
2B2
330
1F
100
AcDbEntity
  8
0
  6
Continuous
 62
     8
370
    18
100
AcDbCircle
 10
1629.1454831538
 20
977.1721596811
 30
0.0
 40
15.20644542082546
100
AcDbArc
 50
298.7915058483
 51
300.8920630848
  0
ARC
  5
2B3
330
1F
100
AcDbEntity
  8
0
  6
Continuous
 62
     8
370
    18
100
AcDbCircle
 10
1573.758475574
 20
977.1721596817
 30
0.0
 40
15.20644542153219
100
AcDbArc
 50
239.1079369152
 51
241.2084941517
  0
ARC
  5
2B4
330
1F
100
AcDbEntity
  8
0
  6
Continuous
 62
     8
370
    18
100
AcDbCircle
 10
1635.9224219174
 20
930.7658838213
 30
0.0
 40
2.991738508889584
100
AcDbArc
 50
124.0281034348
 51
131.8959735504
  0
ARC
  5
2B5
330
1F
100
AcDbEntity
  8
0
  6
Continuous
 62
     8
370
    18
100
AcDbCircle
 10
1566.98153681
 20
930.7658838214
 30
0.0
 40
2.991738508809921
100
AcDbArc
 50
48.1040264495
 51
55.9718965653
  0
ARC
  5
2B6
330
1F
100
AcDbEntity
  8
0
  6
Continuous
 62
     8
370
    18
100
AcDbCircle
 10
1635.5330684181
 20
970.0045763764
 30
0.0
 40
2.999437512494594
100
AcDbArc
 50
212.0988262038
 51
235.7353315129
  0
ARC
  5
2B7
330
1F
100
AcDbEntity
  8
0
  6
Continuous
 62
     8
370
    18
100
AcDbCircle
 10
1567.3708708652
 20
970.0045917478
 30
0.0
 40
2.999462152331698
100
AcDbArc
 50
312.8940341446
 51
327.9011224249
  0
ARC
  5
2B8
330
1F
100
AcDbEntity
  8
0
  6
Continuous
 62
     8
370
    18
100
AcDbCircle
 10
1635.0359446991
 20
945.1839575581
 30
0.0
 40
8.932560827388373
100
AcDbArc
 50
287.5397504291
 51
356.514198663
  0
SPLINE
  5
2B9
330
1F
100
AcDbEntity
  8
0
  6
Continuous
 62
     8
370
    18
100
AcDbSpline
210
0.0
220
0.0
230
1.0
 70
     8
 71
     3
 72
    11
 73
     7
 74
     0
 42
0.000000001
 43
0.00000001
 40
0.0
 40
0.0
 40
0.0
 40
0.0
 40
0.2352104509735682
 40
0.4712568957190926
 40
0.7971477029156732
 40
1.0
 40
1.0
 40
1.0
 40
1.0
 10
1632.951979363708
 20
931.3800856663197
 30
0.0
 10
1633.314678509369
 20
931.6608519273681
 30
0.0
 10
1634.041365919546
 20
932.2233823593991
 30
0.0
 10
1635.221885715107
 20
933.3420120920362
 30
0.0
 10
1636.320209668719
 20
934.5333570164453
 30
0.0
 10
1636.984524986696
 20
935.5550997007423
 30
0.0
 10
1637.239389564879
 20
935.94709129148
 30
0.0
  0
SPLINE
  5
2BA
330
1F
100
AcDbEntity
  8
0
  6
Continuous
 62
     8
370
    18
100
AcDbSpline
210
0.0
220
0.0
230
1.0
 70
     8
 71
     3
 72
    10
 73
     6
 74
     0
 42
0.000000001
 43
0.00000001
 40
0.0
 40
0.0
 40
0.0
 40
0.0
 40
0.4338511233655986
 40
0.8744573306291616
 40
1.0
 40
1.0
 40
1.0
 40
1.0
 10
1632.951979363708
 20
931.3800856663198
 30
0.0
 10
1631.917356940887
 20
930.9267250827701
 30
0.0
 10
1629.832002971878
 20
930.0129450684927
 30
0.0
 10
1627.332952287889
 20
929.4122432274213
 30
0.0
 10
1625.903991449643
 20
929.329619937939
 30
0.0
 10
1625.587121514077
 20
929.3112983466724
 30
0.0
  0
LWPOLYLINE
  5
2BB
330
1F
100
AcDbEntity
  8
0
  6
Continuous
 62
     8
370
    18
100
AcDbPolyline
 90
        9
 70
   128
 43
0.0
 10
1643.9519793637
 20
941.1599622092
 10
1643.7406174481
 20
939.2520029452
 10
1643.1146542213
 20
937.4173654857
 10
1642.098145099
 20
935.7265539194
 10
1640.7301539568
 20
934.2445451866
 10
1639.0632519269
 20
933.0282920517
 10
1637.1614971197
 20
932.1245344407
 10
1635.0979729059
 20
931.5680032518
 10
1632.9519793637
 20
931.3800856663
  0
LINE
  5
2BC
330
1F
100
AcDbEntity
  8
0
  6
Continuous
 62
     8
370
    18
100
AcDbLine
 10
1632.9519793637
 20
929.1616793807
 30
0.0
 11
1632.9519793637
 21
931.3800856663
 31
0.0
  0
LINE
  5
2BD
330
1F
100
AcDbEntity
  8
0
  6
Continuous
 62
     8
370
    18
100
AcDbLine
 10
1636.4519793637
 20
997.6112793807
 30
0.0
 11
1551.9519793637
 21
997.6112793807
 31
0.0
  0
LINE
  5
2BE
330
1F
100
AcDbEntity
  8
0
  6
Continuous
 62
     8
370
    18
100
AcDbLine
 10
1551.9269793637
 20
1019.1112793807
 30
0.0
 11
1550.9269793637
 21
1019.1112793807
 31
0.0
  0
LINE
  5
2BF
330
1F
100
AcDbEntity
  8
0
  6
Continuous
 62
     8
370
    18
100
AcDbLine
 10
1551.9269793637
 20
987.6112793807
 30
0.0
 11
1550.9269793637
 21
987.6112793807
 31
0.0
  0
LINE
  5
2C0
330
1F
100
AcDbEntity
  8
0
  6
Continuous
 62
     8
370
    18
100
AcDbLine
 10
1656.9269793637
 20
985.6112793807
 30
0.0
 11
1656.9269793637
 21
986.6112793807
 31
0.0
  0
LINE
  5
2C1
330
1F
100
AcDbEntity
  8
0
  6
Continuous
 62
     8
370
    18
100
AcDbLine
 10
1552.9269793637
 20
986.6112793807
 30
0.0
 11
1552.9269793637
 21
985.6112793807
 31
0.0
  0
LINE
  5
2C2
330
1F
100
AcDbEntity
  8
0
  6
Continuous
 62
     7
370
    35
100
AcDbLine
 10
542.0546682673
 20
675.1611838457
 30
0.0
 11
1322.0546682673
 21
675.1611838457
 31
0.0
  0
LINE
  5
2C3
330
1F
100
AcDbEntity
  8
0
  6
Continuous
 62
     7
370
    35
100
AcDbLine
 10
542.0546682673
 20
676.1611838457
 30
0.0
 11
542.0546682673
 21
675.1611838457
 31
0.0
  0
LINE
  5
2C4
330
1F
100
AcDbEntity
  8
0
  6
Continuous
 62
     7
370
    35
100
AcDbLine
 10
1322.0546682673
 20
676.1611838457
 30
0.0
 11
1322.0546682673
 21
675.1611838457
 31
0.0
  0
LINE
  5
2C5
330
1F
100
AcDbEntity
  8
0
  6
Continuous
 62
     7
370
    35
100
AcDbLine
 10
542.0546682673
 20
676.1611838457
 30
0.0
 11
1322.0546682673
 21
676.1611838457
 31
0.0
  0
LINE
  5
2C6
330
1F
100
AcDbEntity
  8
0
  6
Continuous
 62
     7
370
    35
100
AcDbLine
 10
1322.0546682673
 20
674.1611838457
 30
0.0
 11
1322.0546682673
 21
675.1611838457
 31
0.0
  0
LINE
  5
2C7
330
1F
100
AcDbEntity
  8
0
  6
Continuous
 62
     7
370
    35
100
AcDbLine
 10
542.0546682673
 20
675.1611838457
 30
0.0
 11
542.0546682673
 21
674.1611838457
 31
0.0
  0
LINE
  5
2C8
330
1F
100
AcDbEntity
  8
0
  6
Continuous
 62
     7
370
    35
100
AcDbLine
 10
1322.0546682673
 20
659.6611838457
 30
0.0
 11
1322.0546682673
 21
674.1611838457
 31
0.0
  0
LINE
  5
2C9
330
1F
100
AcDbEntity
  8
0
  6
Continuous
 62
     7
370
    35
100
AcDbLine
 10
542.0546682673
 20
674.1611838457
 30
0.0
 11
542.0546682673
 21
659.6611838457
 31
0.0
  0
LINE
  5
2CA
330
1F
100
AcDbEntity
  8
0
  6
Continuous
 62
     7
370
    35
100
AcDbLine
 10
1322.0546682673
 20
659.6611838457
 30
0.0
 11
1322.0546682673
 21
657.9291330381
 31
0.0
  0
LINE
  5
2CB
330
1F
100
AcDbEntity
  8
0
  6
Continuous
 62
     7
370
    35
100
AcDbLine
 10
1322.0546682673
 20
657.6611838457
 30
0.0
 11
542.0546682673
 21
657.6611838457
 31
0.0
  0
LINE
  5
2CC
330
1F
100
AcDbEntity
  8
0
  6
Continuous
 62
     7
370
    35
100
AcDbLine
 10
542.0546682673
 20
657.9291330381
 30
0.0
 11
542.0546682673
 21
659.6611838457
 31
0.0
  0
LINE
  5
2CD
330
1F
100
AcDbEntity
  8
0
  6
Continuous
 62
     7
370
    35
100
AcDbLine
 10
1322.0546682673
 20
593.575397408
 30
0.0
 11
1322.0546682673
 21
590.7469702833
 31
0.0
  0
LINE
  5
2CE
330
1F
100
AcDbEntity
  8
0
  6
Continuous
 62
     7
370
    35
100
AcDbLine
 10
542.0546682673
 20
590.6611838457
 30
0.0
 11
1322.0546682673
 21
590.6611838457
 31
0.0
  0
LINE
  5
2CF
330
1F
100
AcDbEntity
  8
0
  6
Continuous
 62
     7
370
    35
100
AcDbLine
 10
542.0546682673
 20
593.6611838457
 30
0.0
 11
1322.0546682673
 21
593.6611838457
 31
0.0
  0
LINE
  5
2D0
330
1F
100
AcDbEntity
  8
0
  6
Continuous
 62
     7
370
    35
100
AcDbLine
 10
542.0546682673
 20
590.7469702833
 30
0.0
 11
542.0546682673
 21
593.575397408
 31
0.0
  0
LINE
  5
2D1
330
1F
100
AcDbEntity
  8
0
  6
Continuous
 62
     7
370
    35
100
AcDbLine
 10
542.0546682673
 20
590.6611838457
 30
0.0
 11
542.0546682673
 21
589.6611838457
 31
0.0
  0
LINE
  5
2D2
330
1F
100
AcDbEntity
  8
0
  6
Continuous
 62
     7
370
    35
100
AcDbLine
 10
1322.0546682673
 20
589.6611838457
 30
0.0
 11
1322.0546682673
 21
590.6611838457
 31
0.0
  0
LINE
  5
2D3
330
1F
100
AcDbEntity
  8
0
  6
Continuous
 62
     7
370
    35
100
AcDbLine
 10
1322.0546682673
 20
560.1611838457
 30
0.0
 11
542.0546682673
 21
560.1611838457
 31
0.0
  0
LINE
  5
2D4
330
1F
100
AcDbEntity
  8
0
  6
Continuous
 62
     7
370
    35
100
AcDbLine
 10
542.0546682673
 20
560.1611838457
 30
0.0
 11
542.0546682673
 21
589.6611838457
 31
0.0
  0
LINE
  5
2D5
330
1F
100
AcDbEntity
  8
0
  6
Continuous
 62
     7
370
    35
100
AcDbLine
 10
1322.0546682673
 20
589.6611838457
 30
0.0
 11
1322.0546682673
 21
560.1611838457
 31
0.0
  0
LINE
  5
2D6
330
1F
100
AcDbEntity
  8
0
  6
Continuous
 62
     7
370
    35
100
AcDbLine
 10
879.0546682673
 20
654.9161635436
 30
0.0
 11
985.0546682673
 21
654.9161635436
 31
0.0
  0
SPLINE
  5
2D7
330
1F
100
AcDbEntity
  8
0
  6
Continuous
 62
     7
370
    35
100
AcDbSpline
210
0.0
220
0.0
230
1.0
 70
     8
 71
     3
 72
     8
 73
     4
 74
     0
 42
0.000000001
 43
0.00000001
 40
0.0
 40
0.0
 40
0.0
 40
0.0
 40
1.0
 40
1.0
 40
1.0
 40
1.0
 10
872.2874052954057
 20
654.7178992738711
 30
0.0
 10
874.5407322865151
 20
654.8483870546721
 30
0.0
 10
876.797549735013
 20
654.9161635436224
 30
0.0
 10
879.0546682672936
 20
654.9161635436224
 30
0.0
  0
SPLINE
  5
2D8
330
1F
100
AcDbEntity
  8
0
  6
Continuous
 62
     7
370
    35
100
AcDbSpline
210
0.0
220
0.0
230
1.0
 70
     8
 71
     3
 72
     8
 73
     4
 74
     0
 42
0.000000001
 43
0.00000001
 40
0.0
 40
0.0
 40
0.0
 40
0.0
 40
1.0
 40
1.0
 40
1.0
 40
1.0
 10
985.0546682672936
 20
654.9161635436224
 30
0.0
 10
987.311781937039
 20
654.9161635436224
 30
0.0
 10
989.5686039418111
 20
654.8483870724316
 30
0.0
 10
991.8219312391813
 20
654.7178992738712
 30
0.0
  0
SPLINE
  5
2D9
330
1F
100
AcDbEntity
  8
0
  6
Continuous
 62
     7
370
    35
100
AcDbSpline
210
0.0
220
0.0
230
1.0
 70
     8
 71
     3
 72
     8
 73
     4
 74
     0
 42
0.000000001
 43
0.00000001
 40
0.0
 40
0.0
 40
0.0
 40
0.0
 40
1.0
 40
1.0
 40
1.0
 40
1.0
 10
879.0546682672936
 20
596.406204147708
 30
0.0
 10
876.797554597548
 20
596.406204147708
 30
0.0
 10
874.5407325927758
 20
596.4739806188988
 30
0.0
 10
872.2874052954056
 20
596.604468417459
 30
0.0
  0
LINE
  5
2DA
330
1F
100
AcDbEntity
  8
0
  6
Continuous
 62
     7
370
    35
100
AcDbLine
 10
985.0546682673
 20
596.4062041477
 30
0.0
 11
879.0546682673
 21
596.4062041477
 31
0.0
  0
SPLINE
  5
2DB
330
1F
100
AcDbEntity
  8
0
  6
Continuous
 62
     7
370
    35
100
AcDbSpline
210
0.0
220
0.0
230
1.0
 70
     8
 71
     3
 72
     8
 73
     4
 74
     0
 42
0.000000001
 43
0.00000001
 40
0.0
 40
0.0
 40
0.0
 40
0.0
 40
1.0
 40
1.0
 40
1.0
 40
1.0
 10
991.8219312391814
 20
596.6044684174592
 30
0.0
 10
989.568604248072
 20
596.4739806366583
 30
0.0
 10
987.311786799574
 20
596.406204147708
 30
0.0
 10
985.0546682672936
 20
596.406204147708
 30
0.0
  0
SPLINE
  5
2DC
330
1F
100
AcDbEntity
  8
0
  6
Continuous
 62
     7
370
    35
100
AcDbSpline
210
0.0
220
0.0
230
1.0
 70
     8
 71
     3
 72
    10
 73
     6
 74
     0
 42
0.000000001
 43
0.00000001
 40
0.0
 40
0.0
 40
0.0
 40
0.0
 40
0.5
 40
0.5
 40
1.0
 40
1.0
 40
1.0
 40
1.0
 10
985.0546682672936
 20
654.9111838456652
 30
0.0
 10
986.1976284152508
 20
654.9111838456652
 30
0.0
 10
987.3328218929943
 20
654.8949098268369
 30
0.0
 10
989.5883482253652
 20
654.8304754348276
 30
0.0
 10
990.708684171421
 20
654.7823178575217
 30
0.0
 10
991.8219312391814
 20
654.7178766332287
 30
0.0
  0
SPLINE
  5
2DD
330
1F
100
AcDbEntity
  8
0
  6
Continuous
 62
     7
370
    35
100
AcDbSpline
210
0.0
220
0.0
230
1.0
 70
     8
 71
     3
 72
    10
 73
     6
 74
     0
 42
0.000000001
 43
0.00000001
 40
0.0
 40
0.0
 40
0.0
 40
0.0
 40
0.5
 40
0.5
 40
1.0
 40
1.0
 40
1.0
 40
1.0
 10
872.2874052954056
 20
654.7178766332287
 30
0.0
 10
873.400652363166
 20
654.7823178575217
 30
0.0
 10
874.5209883092218
 20
654.8304754348278
 30
0.0
 10
876.7765146415927
 20
654.8949098268369
 30
0.0
 10
877.9117081193361
 20
654.9111838456652
 30
0.0
 10
879.0546682672936
 20
654.9111838456652
 30
0.0
  0
SPLINE
  5
2DE
330
1F
100
AcDbEntity
  8
0
  6
Continuous
 62
     7
370
    35
100
AcDbSpline
210
0.0
220
0.0
230
1.0
 70
     8
 71
     3
 72
    10
 73
     6
 74
     0
 42
0.000000001
 43
0.00000001
 40
0.0
 40
0.0
 40
0.0
 40
0.0
 40
0.5
 40
0.5
 40
1.0
 40
1.0
 40
1.0
 40
1.0
 10
985.0546682672936
 20
652.6611838456652
 30
0.0
 10
986.0834080003823
 20
652.6611838456652
 30
0.0
 10
987.1050874766781
 20
652.6025903086562
 30
0.0
 10
989.1350130593249
 20
652.3706276346409
 30
0.0
 10
990.1432625760908
 20
652.1972709203532
 30
0.0
 10
991.1452049419925
 20
651.9652778808937
 30
0.0
  0
SPLINE
  5
2DF
330
1F
100
AcDbEntity
  8
0
  6
Continuous
 62
     7
370
    35
100
AcDbSpline
210
0.0
220
0.0
230
1.0
 70
     8
 71
     3
 72
    10
 73
     6
 74
     0
 42
0.000000001
 43
0.00000001
 40
0.0
 40
0.0
 40
0.0
 40
0.0
 40
0.5
 40
0.5
 40
1.0
 40
1.0
 40
1.0
 40
1.0
 10
872.9641315925945
 20
651.9652778808937
 30
0.0
 10
873.9660739584962
 20
652.1972709203532
 30
0.0
 10
874.9743234752622
 20
652.3706276346409
 30
0.0
 10
877.0042490579089
 20
652.6025903086562
 30
0.0
 10
878.0259285342047
 20
652.6611838456652
 30
0.0
 10
879.0546682672936
 20
652.6611838456652
 30
0.0
  0
SPLINE
  5
2E0
330
1F
100
AcDbEntity
  8
0
  6
Continuous
 62
     7
370
    35
100
AcDbSpline
210
0.0
220
0.0
230
1.0
 70
     8
 71
     3
 72
    10
 73
     6
 74
     0
 42
0.000000001
 43
0.00000001
 40
0.0
 40
0.0
 40
0.0
 40
0.0
 40
0.5
 40
0.5
 40
1.0
 40
1.0
 40
1.0
 40
1.0
 10
879.0546682672936
 20
596.4111838456652
 30
0.0
 10
877.9117081193361
 20
596.4111838456652
 30
0.0
 10
876.7765146415927
 20
596.4274578644936
 30
0.0
 10
874.5209883092217
 20
596.4918922565026
 30
0.0
 10
873.4006523631658
 20
596.5400498338087
 30
0.0
 10
872.2874052954055
 20
596.6044910581018
 30
0.0
  0
SPLINE
  5
2E1
330
1F
100
AcDbEntity
  8
0
  6
Continuous
 62
     7
370
    35
100
AcDbSpline
210
0.0
220
0.0
230
1.0
 70
     8
 71
     3
 72
    10
 73
     6
 74
     0
 42
0.000000001
 43
0.00000001
 40
0.0
 40
0.0
 40
0.0
 40
0.0
 40
0.5
 40
0.5
 40
1.0
 40
1.0
 40
1.0
 40
1.0
 10
879.0546682672936
 20
598.6611838456652
 30
0.0
 10
878.0259285342047
 20
598.6611838456652
 30
0.0
 10
877.0042490579089
 20
598.7197773826742
 30
0.0
 10
874.974323475262
 20
598.9517400566896
 30
0.0
 10
873.966073958496
 20
599.1250967709772
 30
0.0
 10
872.9641315925944
 20
599.3570898104366
 30
0.0
  0
SPLINE
  5
2E2
330
1F
100
AcDbEntity
  8
0
  6
Continuous
 62
     7
370
    35
100
AcDbSpline
210
0.0
220
0.0
230
1.0
 70
     8
 71
     3
 72
    10
 73
     6
 74
     0
 42
0.000000001
 43
0.00000001
 40
0.0
 40
0.0
 40
0.0
 40
0.0
 40
0.5
 40
0.5
 40
1.0
 40
1.0
 40
1.0
 40
1.0
 10
991.8219312391816
 20
596.6044910581018
 30
0.0
 10
990.7086841714212
 20
596.5400498338087
 30
0.0
 10
989.5883482253654
 20
596.4918922565026
 30
0.0
 10
987.3328218929943
 20
596.4274578644936
 30
0.0
 10
986.1976284152508
 20
596.4111838456652
 30
0.0
 10
985.0546682672936
 20
596.4111838456652
 30
0.0
  0
SPLINE
  5
2E3
330
1F
100
AcDbEntity
  8
0
  6
Continuous
 62
     7
370
    35
100
AcDbSpline
210
0.0
220
0.0
230
1.0
 70
     8
 71
     3
 72
    10
 73
     6
 74
     0
 42
0.000000001
 43
0.00000001
 40
0.0
 40
0.0
 40
0.0
 40
0.0
 40
0.5
 40
0.5
 40
1.0
 40
1.0
 40
1.0
 40
1.0
 10
991.1452049419926
 20
599.3570898104366
 30
0.0
 10
990.1432625760908
 20
599.1250967709772
 30
0.0
 10
989.135013059325
 20
598.9517400566896
 30
0.0
 10
987.1050874766781
 20
598.7197773826742
 30
0.0
 10
986.0834080003823
 20
598.6611838456652
 30
0.0
 10
985.0546682672936
 20
598.6611838456652
 30
0.0
  0
LINE
  5
2E4
330
1F
100
AcDbEntity
  8
0
  6
Continuous
 62
     7
370
    35
100
AcDbLine
 10
985.0546682673
 20
654.9111838457
 30
0.0
 11
879.0546682673
 21
654.9111838457
 31
0.0
  0
LINE
  5
2E5
330
1F
100
AcDbEntity
  8
0
  6
Continuous
 62
     7
370
    35
100
AcDbLine
 10
879.0546682673
 20
652.6611838457
 30
0.0
 11
985.0546682673
 21
652.6611838457
 31
0.0
  0
LINE
  5
2E6
330
1F
100
AcDbEntity
  8
0
  6
Continuous
 62
     7
370
    35
100
AcDbLine
 10
879.0546682673
 20
596.4111838457
 30
0.0
 11
985.0546682673
 21
596.4111838457
 31
0.0
  0
LINE
  5
2E7
330
1F
100
AcDbEntity
  8
0
  6
Continuous
 62
     7
370
    35
100
AcDbLine
 10
985.0546682673
 20
598.6611838457
 30
0.0
 11
879.0546682673
 21
598.6611838457
 31
0.0
  0
ARC
  5
2E8
330
1F
100
AcDbEntity
  8
0
  6
Continuous
 62
     7
370
    35
100
AcDbCircle
 10
985.0546682673
 20
625.6611838457
 30
0.0
 40
27.0000000000001
100
AcDbArc
 50
0.4331051188
 51
76.9632820449
  0
ARC
  5
2E9
330
1F
100
AcDbEntity
  8
0
  6
Continuous
 62
     7
370
    35
100
AcDbCircle
 10
879.0546682673
 20
625.6611838457
 30
0.0
 40
27.0000000000001
100
AcDbArc
 50
103.0367179551
 51
179.5668948812
  0
ARC
  5
2EA
330
1F
100
AcDbEntity
  8
0
  6
Continuous
 62
     7
370
    35
100
AcDbCircle
 10
879.0546682673
 20
625.6611838457
 30
0.0
 40
27.0000000000001
100
AcDbArc
 50
180.4331051188
 51
256.9632820449
  0
ARC
  5
2EB
330
1F
100
AcDbEntity
  8
0
  6
Continuous
 62
     7
370
    35
100
AcDbCircle
 10
985.0546682673
 20
625.6611838457
 30
0.0
 40
27.0000000000001
100
AcDbArc
 50
283.0367179551
 51
359.5668948812
  0
LINE
  5
2EC
330
1F
100
AcDbEntity
  8
0
  6
Continuous
 62
     7
370
    35
100
AcDbLine
 10
975.0546682673
 20
630.5943583483
 30
0.0
 11
975.4742693518
 21
633.4607073535
 31
0.0
  0
SPLINE
  5
2ED
330
1F
100
AcDbEntity
  8
0
  6
Continuous
 62
     7
370
    35
100
AcDbSpline
210
0.0
220
0.0
230
1.0
 70
     8
 71
     3
 72
    11
 73
     7
 74
     0
 42
0.000000001
 43
0.00000001
 40
0.0
 40
0.0
 40
0.0
 40
0.0
 40
0.2606216717114501
 40
0.4632004480831422
 40
0.6713667795621366
 40
1.0
 40
1.0
 40
1.0
 40
1.0
 10
975.4742693517957
 20
633.4607073535467
 30
0.0
 10
975.8411507224571
 20
634.4624255333571
 30
0.0
 10
976.4932055349665
 20
636.2427698412354
 30
0.0
 10
978.0305703967892
 20
638.4977694632981
 30
0.0
 10
980.0453361812799
 20
640.7124036436443
 30
0.0
 10
981.8906642671094
 20
641.8328657416143
 30
0.0
 10
983.0203897101449
 20
642.5188221033877
 30
0.0
  0
SPLINE
  5
2EE
330
1F
100
AcDbEntity
  8
0
  6
Continuous
 62
     7
370
    35
100
AcDbSpline
210
0.0
220
0.0
230
1.0
 70
     8
 71
     3
 72
    16
 73
    12
 74
     0
 42
0.000000001
 43
0.00000001
 40
0.0
 40
0.0
 40
0.0
 40
0.0
 40
0.6093642604474568
 40
0.7233750503865246
 40
0.8172213162014312
 40
0.8496365726793007
 40
0.882361234165307
 40
0.9067814804498371
 40
0.9311421346350484
 40
0.9706402276062257
 40
1.0
 40
1.0
 40
1.0
 40
1.0
 10
983.0203897101449
 20
642.5188221033877
 30
0.0
 10
983.5972239797338
 20
642.8164771793372
 30
0.0
 10
984.2819827454059
 20
643.1698229029683
 30
0.0
 10
984.9492257165974
 20
643.6955612266258
 30
0.0
 10
985.1194791145813
 20
643.8807142366833
 30
0.0
 10
985.1877525752611
 20
644.0293705368566
 30
0.0
 10
985.1993917162569
 20
644.1229712022388
 30
0.0
 10
985.1748662680454
 20
644.2069338872477
 30
0.0
 10
985.1186035604036
 20
644.2850728744208
 30
0.0
 10
985.0355313977393
 20
644.3472700702582
 30
0.0
 10
984.9671105292925
 20
644.3791599994881
 30
0.0
 10
984.9379370846334
 20
644.3927572996497
 30
0.0
  0
SPLINE
  5
2EF
330
1F
100
AcDbEntity
  8
0
  6
Continuous
 62
     7
370
    35
100
AcDbSpline
210
0.0
220
0.0
230
1.0
 70
     8
 71
     3
 72
    13
 73
     9
 74
     0
 42
0.000000001
 43
0.00000001
 40
0.0
 40
0.0
 40
0.0
 40
0.0
 40
0.1585077763891386
 40
0.3168380823631806
 40
0.479171669521623
 40
0.6493085002786927
 40
0.8235953482371682
 40
1.0
 40
1.0
 40
1.0
 40
1.0
 10
997.5822805044522
 20
629.9823365061446
 30
0.0
 10
997.2897053506932
 20
630.9926619579495
 30
0.0
 10
996.704882619747
 20
633.012181668621
 30
0.0
 10
995.2088560680608
 20
635.832784420181
 30
0.0
 10
993.2821773983555
 20
638.4628352281657
 30
0.0
 10
990.8831030005766
 20
640.825767824414
 30
0.0
 10
988.0907767278424
 20
642.8816601694907
 30
0.0
 10
985.9931061989558
 20
643.8870344589974
 30
0.0
 10
984.9379370846334
 20
644.3927572996497
 30
0.0
  0
SPLINE
  5
2F0
330
1F
100
AcDbEntity
  8
0
  6
Continuous
 62
     7
370
    35
100
AcDbSpline
210
0.0
220
0.0
230
1.0
 70
     8
 71
     3
 72
     9
 73
     5
 74
     0
 42
0.000000001
 43
0.00000001
 40
0.0
 40
0.0
 40
0.0
 40
0.0
 40
0.4781757401206178
 40
0.9999999999999999
 40
0.9999999999999999
 40
0.9999999999999999
 40
0.9999999999999999
 10
997.5822805044522
 20
629.9823365061446
 30
0.0
 10
997.8290068961177
 20
628.6060904362747
 30
0.0
 10
998.3449811937752
 20
625.7279727184607
 30
0.0
 10
997.8438059204993
 20
622.8446295828855
 30
0.0
 10
997.5822805044522
 20
621.3400311851857
 30
0.0
  0
SPLINE
  5
2F1
330
1F
100
AcDbEntity
  8
0
  6
Continuous
 62
     7
370
    35
100
AcDbSpline
210
0.0
220
0.0
230
1.0
 70
     8
 71
     3
 72
    13
 73
     9
 74
     0
 42
0.000000001
 43
0.00000001
 40
0.0
 40
0.0
 40
0.0
 40
0.0
 40
0.1585077763891387
 40
0.316838082363181
 40
0.4791716695216228
 40
0.6493085002786925
 40
0.8235953482371681
 40
1.0
 40
1.0
 40
1.0
 40
1.0
 10
997.5822805044522
 20
621.3400311851857
 30
0.0
 10
997.2897053506932
 20
620.3297057333808
 30
0.0
 10
996.704882619747
 20
618.3101860227093
 30
0.0
 10
995.2088560680608
 20
615.4895832711493
 30
0.0
 10
993.2821773983555
 20
612.8595324631647
 30
0.0
 10
990.8831030005766
 20
610.4965998669163
 30
0.0
 10
988.0907767278424
 20
608.4407075218395
 30
0.0
 10
985.9931061989558
 20
607.4353332323329
 30
0.0
 10
984.9379370846334
 20
606.9296103916806
 30
0.0
  0
SPLINE
  5
2F2
330
1F
100
AcDbEntity
  8
0
  6
Continuous
 62
     7
370
    35
100
AcDbSpline
210
0.0
220
0.0
230
1.0
 70
     8
 71
     3
 72
    16
 73
    12
 74
     0
 42
0.000000001
 43
0.00000001
 40
0.0
 40
0.0
 40
0.0
 40
0.0
 40
0.6093642604474552
 40
0.7233750503865208
 40
0.8172213162014315
 40
0.8496365726793009
 40
0.8823612341653071
 40
0.9067814804498372
 40
0.9311421346350484
 40
0.9706402276062257
 40
0.9999999999999999
 40
0.9999999999999999
 40
0.9999999999999999
 40
0.9999999999999999
 10
983.0203897101449
 20
608.8035455879426
 30
0.0
 10
983.5972239797338
 20
608.5058905119931
 30
0.0
 10
984.2819827454058
 20
608.1525447883619
 30
0.0
 10
984.9492257165974
 20
607.6268064647045
 30
0.0
 10
985.1194791145812
 20
607.441653454647
 30
0.0
 10
985.1877525752611
 20
607.2929971544737
 30
0.0
 10
985.199391716257
 20
607.1993964890917
 30
0.0
 10
985.1748662680454
 20
607.1154338040826
 30
0.0
 10
985.1186035604036
 20
607.0372948169096
 30
0.0
 10
985.0355313977392
 20
606.9750976210722
 30
0.0
 10
984.9671105292925
 20
606.9432076918421
 30
0.0
 10
984.9379370846334
 20
606.9296103916806
 30
0.0
  0
SPLINE
  5
2F3
330
1F
100
AcDbEntity
  8
0
  6
Continuous
 62
     7
370
    35
100
AcDbSpline
210
0.0
220
0.0
230
1.0
 70
     8
 71
     3
 72
    11
 73
     7
 74
     0
 42
0.000000001
 43
0.00000001
 40
0.0
 40
0.0
 40
0.0
 40
0.0
 40
0.2606216717114542
 40
0.4632004480831449
 40
0.671366779562138
 40
0.9999999999999999
 40
0.9999999999999999
 40
0.9999999999999999
 40
0.9999999999999999
 10
975.4742693517957
 20
617.8616603377836
 30
0.0
 10
975.8411507224571
 20
616.8599421579733
 30
0.0
 10
976.4932055349665
 20
615.079597850095
 30
0.0
 10
978.0305703967892
 20
612.8245982280322
 30
0.0
 10
980.0453361812799
 20
610.609964047686
 30
0.0
 10
981.8906642671094
 20
609.489501949716
 30
0.0
 10
983.0203897101449
 20
608.8035455879426
 30
0.0
  0
LINE
  5
2F4
330
1F
100
AcDbEntity
  8
0
  6
Continuous
 62
     7
370
    35
100
AcDbLine
 10
975.0546682673
 20
620.728009343
 30
0.0
 11
975.4742693518
 21
617.8616603378
 31
0.0
  0
LINE
  5
2F5
330
1F
100
AcDbEntity
  8
0
  6
Continuous
 62
     7
370
    35
100
AcDbLine
 10
975.0546682673
 20
630.5943583483
 30
0.0
 11
975.0546682673
 21
620.728009343
 31
0.0
  0
LINE
  5
2F6
330
1F
100
AcDbEntity
  8
0
  6
Continuous
 62
     7
370
    35
100
AcDbLine
 10
889.0546682673
 20
620.728009343
 30
0.0
 11
888.6350671828
 21
617.8616603378
 31
0.0
  0
SPLINE
  5
2F7
330
1F
100
AcDbEntity
  8
0
  6
Continuous
 62
     7
370
    35
100
AcDbSpline
210
0.0
220
0.0
230
1.0
 70
     8
 71
     3
 72
    11
 73
     7
 74
     0
 42
0.000000001
 43
0.00000001
 40
0.0
 40
0.0
 40
0.0
 40
0.0
 40
0.2606216717114519
 40
0.4632004480831438
 40
0.6713667795621374
 40
1.0
 40
1.0
 40
1.0
 40
1.0
 10
888.635067182792
 20
617.8616603377836
 30
0.0
 10
888.2681858121305
 20
616.8599421579733
 30
0.0
 10
887.6161309996211
 20
615.079597850095
 30
0.0
 10
886.0787661377983
 20
612.8245982280322
 30
0.0
 10
884.0640003533076
 20
610.609964047686
 30
0.0
 10
882.2186722674784
 20
609.489501949716
 30
0.0
 10
881.0889468244429
 20
608.8035455879426
 30
0.0
  0
SPLINE
  5
2F8
330
1F
100
AcDbEntity
  8
0
  6
Continuous
 62
     7
370
    35
100
AcDbSpline
210
0.0
220
0.0
230
1.0
 70
     8
 71
     3
 72
    16
 73
    12
 74
     0
 42
0.000000001
 43
0.00000001
 40
0.0
 40
0.0
 40
0.0
 40
0.0
 40
0.6093642604474537
 40
0.7233750503865213
 40
0.8172213162014318
 40
0.8496365726793011
 40
0.8823612341653073
 40
0.9067814804498374
 40
0.9311421346350486
 40
0.9706402276062258
 40
1.0
 40
1.0
 40
1.0
 40
1.0
 10
881.0889468244429
 20
608.8035455879426
 30
0.0
 10
880.5121125548537
 20
608.5058905119931
 30
0.0
 10
879.8273537891818
 20
608.152544788362
 30
0.0
 10
879.1601108179901
 20
607.6268064647045
 30
0.0
 10
878.9898574200064
 20
607.441653454647
 30
0.0
 10
878.9215839593264
 20
607.2929971544738
 30
0.0
 10
878.9099448183307
 20
607.1993964890917
 30
0.0
 10
878.9344702665422
 20
607.1154338040827
 30
0.0
 10
878.9907329741841
 20
607.0372948169096
 30
0.0
 10
879.0738051368484
 20
606.9750976210722
 30
0.0
 10
879.142226005295
 20
606.9432076918421
 30
0.0
 10
879.1713994499544
 20
606.9296103916806
 30
0.0
  0
SPLINE
  5
2F9
330
1F
100
AcDbEntity
  8
0
  6
Continuous
 62
     7
370
    35
100
AcDbSpline
210
0.0
220
0.0
230
1.0
 70
     8
 71
     3
 72
    13
 73
     9
 74
     0
 42
0.000000001
 43
0.00000001
 40
0.0
 40
0.0
 40
0.0
 40
0.0
 40
0.1585077763891357
 40
0.3168380823631747
 40
0.4791716695216328
 40
0.6493085002786992
 40
0.8235953482371714
 40
1.0
 40
1.0
 40
1.0
 40
1.0
 10
866.5270560301349
 20
621.3400311851857
 30
0.0
 10
866.8196311838939
 20
620.3297057333808
 30
0.0
 10
867.4044539148401
 20
618.3101860227093
 30
0.0
 10
868.9004804665261
 20
615.489583271149
 30
0.0
 10
870.8271591362322
 20
612.8595324631649
 30
0.0
 10
873.226233534011
 20
610.4965998669162
 30
0.0
 10
876.0185598067452
 20
608.4407075218395
 30
0.0
 10
878.1162303356317
 20
607.435333232333
 30
0.0
 10
879.1713994499544
 20
606.9296103916806
 30
0.0
  0
SPLINE
  5
2FA
330
1F
100
AcDbEntity
  8
0
  6
Continuous
 62
     7
370
    35
100
AcDbSpline
210
0.0
220
0.0
230
1.0
 70
     8
 71
     3
 72
     9
 73
     5
 74
     0
 42
0.000000001
 43
0.00000001
 40
0.0
 40
0.0
 40
0.0
 40
0.0
 40
0.4781757401206179
 40
0.9999999999999999
 40
0.9999999999999999
 40
0.9999999999999999
 40
0.9999999999999999
 10
866.5270560301349
 20
629.9823365061446
 30
0.0
 10
866.2803296384693
 20
628.6060904362747
 30
0.0
 10
865.7643553408119
 20
625.7279727184607
 30
0.0
 10
866.2655306140878
 20
622.8446295828855
 30
0.0
 10
866.5270560301349
 20
621.3400311851857
 30
0.0
  0
SPLINE
  5
2FB
330
1F
100
AcDbEntity
  8
0
  6
Continuous
 62
     7
370
    35
100
AcDbSpline
210
0.0
220
0.0
230
1.0
 70
     8
 71
     3
 72
    13
 73
     9
 74
     0
 42
0.000000001
 43
0.00000001
 40
0.0
 40
0.0
 40
0.0
 40
0.0
 40
0.1585077763891356
 40
0.316838082363175
 40
0.4791716695216324
 40
0.6493085002786988
 40
0.8235953482371714
 40
1.0
 40
1.0
 40
1.0
 40
1.0
 10
866.5270560301349
 20
629.9823365061446
 30
0.0
 10
866.8196311838939
 20
630.9926619579495
 30
0.0
 10
867.4044539148401
 20
633.012181668621
 30
0.0
 10
868.9004804665262
 20
635.8327844201814
 30
0.0
 10
870.8271591362321
 20
638.4628352281654
 30
0.0
 10
873.226233534011
 20
640.825767824414
 30
0.0
 10
876.0185598067452
 20
642.8816601694909
 30
0.0
 10
878.1162303356317
 20
643.8870344589974
 30
0.0
 10
879.1713994499544
 20
644.3927572996497
 30
0.0
  0
SPLINE
  5
2FC
330
1F
100
AcDbEntity
  8
0
  6
Continuous
 62
     7
370
    35
100
AcDbSpline
210
0.0
220
0.0
230
1.0
 70
     8
 71
     3
 72
    16
 73
    12
 74
     0
 42
0.000000001
 43
0.00000001
 40
0.0
 40
0.0
 40
0.0
 40
0.0
 40
0.6093642604474555
 40
0.7233750503865249
 40
0.8172213162014316
 40
0.8496365726793009
 40
0.8823612341653071
 40
0.9067814804498373
 40
0.9311421346350485
 40
0.9706402276062258
 40
1.0
 40
1.0
 40
1.0
 40
1.0
 10
881.0889468244429
 20
642.5188221033877
 30
0.0
 10
880.5121125548538
 20
642.8164771793372
 30
0.0
 10
879.8273537891818
 20
643.1698229029683
 30
0.0
 10
879.1601108179901
 20
643.6955612266258
 30
0.0
 10
878.9898574200064
 20
643.8807142366833
 30
0.0
 10
878.9215839593264
 20
644.0293705368566
 30
0.0
 10
878.9099448183307
 20
644.1229712022388
 30
0.0
 10
878.9344702665423
 20
644.2069338872477
 30
0.0
 10
878.9907329741841
 20
644.2850728744208
 30
0.0
 10
879.0738051368484
 20
644.3472700702582
 30
0.0
 10
879.142226005295
 20
644.3791599994881
 30
0.0
 10
879.1713994499544
 20
644.3927572996497
 30
0.0
  0
SPLINE
  5
2FD
330
1F
100
AcDbEntity
  8
0
  6
Continuous
 62
     7
370
    35
100
AcDbSpline
210
0.0
220
0.0
230
1.0
 70
     8
 71
     3
 72
    11
 73
     7
 74
     0
 42
0.000000001
 43
0.00000001
 40
0.0
 40
0.0
 40
0.0
 40
0.0
 40
0.2606216717114517
 40
0.4632004480831434
 40
0.6713667795621371
 40
0.9999999999999999
 40
0.9999999999999999
 40
0.9999999999999999
 40
0.9999999999999999
 10
888.635067182792
 20
633.4607073535467
 30
0.0
 10
888.2681858121305
 20
634.4624255333571
 30
0.0
 10
887.6161309996211
 20
636.2427698412354
 30
0.0
 10
886.0787661377983
 20
638.4977694632981
 30
0.0
 10
884.0640003533076
 20
640.7124036436443
 30
0.0
 10
882.2186722674784
 20
641.8328657416143
 30
0.0
 10
881.0889468244429
 20
642.5188221033877
 30
0.0
  0
LINE
  5
2FE
330
1F
100
AcDbEntity
  8
0
  6
Continuous
 62
     7
370
    35
100
AcDbLine
 10
889.0546682673
 20
630.5943583483
 30
0.0
 11
888.6350671828
 21
633.4607073535
 31
0.0
  0
LINE
  5
2FF
330
1F
100
AcDbEntity
  8
0
  6
Continuous
 62
     7
370
    35
100
AcDbLine
 10
889.0546682673
 20
630.5943583483
 30
0.0
 11
889.0546682673
 21
620.728009343
 31
0.0
  0
SPLINE
  5
300
330
1F
100
AcDbEntity
  8
0
  6
Continuous
 62
     7
370
    35
100
AcDbSpline
210
0.0
220
0.0
230
1.0
 70
     8
 71
     3
 72
    17
 73
    13
 74
     0
 42
0.000000001
 43
0.00000001
 40
0.0
 40
0.0
 40
0.0
 40
0.0
 40
0.0352140993686976
 40
0.1768685086523012
 40
0.2823152604671507
 40
0.3877837521866235
 40
0.4930422793344963
 40
0.596541213625795
 40
0.7000040808468561
 40
0.8049238598612711
 40
0.9098460499592932
 40
1.0
 40
1.0
 40
1.0
 40
1.0
 10
985.0605727382629
 20
647.3984562413431
 30
0.0
 10
985.4607427029915
 20
647.3910223620013
 30
0.0
 10
987.4706610634745
 20
647.3536845008539
 30
0.0
 10
990.665742133105
 20
646.7982455007764
 30
0.0
 10
994.4294087717396
 20
645.3797506405106
 30
0.0
 10
997.5483879848645
 20
643.5614368988679
 30
0.0
 10
1000.31829201182
 20
641.2813196208622
 30
0.0
 10
1002.649573605116
 20
638.5849814076563
 30
0.0
 10
1004.519378735338
 20
635.5542975402268
 30
0.0
 10
1005.867874520307
 20
632.2448629714459
 30
0.0
 10
1006.663373966231
 20
628.9058616718848
 30
0.0
 10
1006.752111400671
 20
626.686743675132
 30
0.0
 10
1006.793121183956
 20
625.6611838456652
 30
0.0
  0
SPLINE
  5
301
330
1F
100
AcDbEntity
  8
0
  6
Continuous
 62
     7
370
    35
100
AcDbSpline
210
0.0
220
0.0
230
1.0
 70
     8
 71
     3
 72
    17
 73
    13
 74
     0
 42
0.000000001
 43
0.00000001
 40
0.0
 40
0.0
 40
0.0
 40
0.0
 40
0.035214099368697
 40
0.1768685086522983
 40
0.2823152604671543
 40
0.3877837521866339
 40
0.4930422793345048
 40
0.5965412136258017
 40
0.700004080846861
 40
0.8049238598612743
 40
0.9098460499592946
 40
1.0
 40
1.0
 40
1.0
 40
1.0
 10
879.0487637963247
 20
647.3984562413431
 30
0.0
 10
878.648593831596
 20
647.3910223620013
 30
0.0
 10
876.6386754711131
 20
647.3536845008539
 30
0.0
 10
873.4435944014826
 20
646.7982455007761
 30
0.0
 10
869.6799277628477
 20
645.3797506405106
 30
0.0
 10
866.5609485497226
 20
643.561436898868
 30
0.0
 10
863.7910445227668
 20
641.2813196208622
 30
0.0
 10
861.4597629294711
 20
638.5849814076563
 30
0.0
 10
859.589957799249
 20
635.5542975402268
 30
0.0
 10
858.2414620142799
 20
632.2448629714459
 30
0.0
 10
857.4459625683563
 20
628.9058616718848
 30
0.0
 10
857.3572251339162
 20
626.686743675132
 30
0.0
 10
857.3162153506308
 20
625.6611838456652
 30
0.0
  0
SPLINE
  5
302
330
1F
100
AcDbEntity
  8
0
  6
Continuous
 62
     7
370
    35
100
AcDbSpline
210
0.0
220
0.0
230
1.0
 70
     8
 71
     3
 72
    17
 73
    13
 74
     0
 42
0.000000001
 43
0.00000001
 40
0.0
 40
0.0
 40
0.0
 40
0.0
 40
0.0352127301800309
 40
0.1768616316808073
 40
0.2808325704307751
 40
0.3877934996385861
 40
0.4930479341421763
 40
0.596542844205385
 40
0.7000016886007097
 40
0.8034759650084177
 40
0.9098495553099585
 40
1.0
 40
1.0
 40
1.0
 40
1.0
 10
985.0605727382629
 20
603.9239114499874
 30
0.0
 10
985.4607540803446
 20
603.9313154571863
 30
0.0
 10
987.4707295854232
 20
603.9685032806664
 30
0.0
 10
990.6478775082238
 20
604.5243982101669
 30
0.0
 10
994.4175087749426
 20
605.9272531890231
 30
0.0
 10
997.5341808496898
 20
607.7521244961014
 30
0.0
 10
1000.318472353999
 20
610.0405469592038
 30
0.0
 10
1002.649835553583
 20
612.7373906672365
 30
0.0
 10
1004.509508623673
 20
615.7545430484352
 30
0.0
 10
1005.867664629784
 20
619.0598644220044
 30
0.0
 10
1006.661584775351
 20
622.4002559546259
 30
0.0
 10
1006.75175696576
 20
624.6357207496623
 30
0.0
 10
1006.793121183956
 20
625.6611838456652
 30
0.0
  0
SPLINE
  5
303
330
1F
100
AcDbEntity
  8
0
  6
Continuous
 62
     7
370
    35
100
AcDbSpline
210
0.0
220
0.0
230
1.0
 70
     8
 71
     3
 72
    17
 73
    13
 74
     0
 42
0.000000001
 43
0.00000001
 40
0.0
 40
0.0
 40
0.0
 40
0.0
 40
0.0352127301800304
 40
0.1768616316808046
 40
0.2808325704307706
 40
0.3877934996385957
 40
0.4930479341421843
 40
0.5965428442053914
 40
0.7000016886007144
 40
0.8034759650084204
 40
0.9098495553099598
 40
1.0
 40
1.0
 40
1.0
 40
1.0
 10
879.0487637963247
 20
603.9239114499874
 30
0.0
 10
878.648582454243
 20
603.9313154571863
 30
0.0
 10
876.6386069491646
 20
603.9685032806664
 30
0.0
 10
873.461459026364
 20
604.5243982101669
 30
0.0
 10
869.6918277596451
 20
605.9272531890233
 30
0.0
 10
866.5751556848974
 20
607.7521244961013
 30
0.0
 10
863.7908641805877
 20
610.0405469592038
 30
0.0
 10
861.4595009810038
 20
612.7373906672365
 30
0.0
 10
859.5998279109144
 20
615.7545430484352
 30
0.0
 10
858.2416719048032
 20
619.0598644220044
 30
0.0
 10
857.4477517592362
 20
622.4002559546259
 30
0.0
 10
857.3575795688265
 20
624.6357207496623
 30
0.0
 10
857.3162153506308
 20
625.6611838456652
 30
0.0
  0
LINE
  5
304
330
1F
100
AcDbEntity
  8
0
  6
Continuous
 62
     7
370
    35
100
AcDbLine
 10
932.0546682673
 20
647.4024563132
 30
0.0
 11
985.0605727383
 21
647.3984562413
 31
0.0
  0
LINE
  5
305
330
1F
100
AcDbEntity
  8
0
  6
Continuous
 62
     7
370
    35
100
AcDbLine
 10
932.0546682673
 20
647.4024563132
 30
0.0
 11
879.0487637963
 21
647.3984562413
 31
0.0
  0
LINE
  5
306
330
1F
100
AcDbEntity
  8
0
  6
Continuous
 62
     7
370
    35
100
AcDbLine
 10
932.0546682673
 20
603.9199113782
 30
0.0
 11
985.0605727383
 21
603.92391145
 31
0.0
  0
LINE
  5
307
330
1F
100
AcDbEntity
  8
0
  6
Continuous
 62
     7
370
    35
100
AcDbLine
 10
932.0546682673
 20
603.9199113782
 30
0.0
 11
879.0487637963
 21
603.92391145
 31
0.0
  0
LINE
  5
308
330
1F
100
AcDbEntity
  8
0
  6
Continuous
 62
     7
370
    35
100
AcDbLine
 10
975.2108394575
 20
619.6611838457
 30
0.0
 11
888.8984970771
 21
619.6611838457
 31
0.0
  0
LINE
  5
309
330
1F
100
AcDbEntity
  8
0
  6
Continuous
 62
     7
370
    35
100
AcDbLine
 10
975.2108394575
 20
631.6611838457
 30
0.0
 11
888.8984970771
 21
631.6611838457
 31
0.0
  0
ARC
  5
30A
330
1F
100
AcDbEntity
  8
0
  6
Continuous
 62
     7
370
    35
100
AcDbCircle
 10
985.0546682673
 20
625.6611838457
 30
0.0
 40
21.75
100
AcDbArc
 50
270.0
 51
90.0
  0
LINE
  5
30B
330
1F
100
AcDbEntity
  8
0
  6
Continuous
 62
     7
370
    35
100
AcDbLine
 10
879.0546682673
 20
647.4111838457
 30
0.0
 11
985.0546682673
 21
647.4111838457
 31
0.0
  0
ARC
  5
30C
330
1F
100
AcDbEntity
  8
0
  6
Continuous
 62
     7
370
    35
100
AcDbCircle
 10
879.0546682673
 20
625.6611838457
 30
0.0
 40
21.75
100
AcDbArc
 50
90.0
 51
270.0
  0
LINE
  5
30D
330
1F
100
AcDbEntity
  8
0
  6
Continuous
 62
     7
370
    35
100
AcDbLine
 10
879.0546682673
 20
603.9111838457
 30
0.0
 11
985.0546682673
 21
603.9111838457
 31
0.0
  0
LINE
  5
30E
330
1F
100
AcDbEntity
  8
0
  6
Continuous
 62
     7
370
    35
100
AcDbLine
 10
542.0546682673
 20
590.6611838457
 30
0.0
 11
541.0546682673
 21
590.6611838457
 31
0.0
  0
LINE
  5
30F
330
1F
100
AcDbEntity
  8
0
  6
Continuous
 62
     7
370
    35
100
AcDbLine
 10
541.0546682673
 20
675.1611838457
 30
0.0
 11
542.0546682673
 21
675.1611838457
 31
0.0
  0
LINE
  5
310
330
1F
100
AcDbEntity
  8
0
  6
Continuous
 62
     7
370
    35
100
AcDbLine
 10
542.0546682673
 20
657.9291330381
 30
0.0
 11
542.0546682673
 21
593.575397408
 31
0.0
  0
LINE
  5
311
330
1F
100
AcDbEntity
  8
0
  6
Continuous
 62
     7
370
    35
100
AcDbLine
 10
542.0546682673
 20
590.7469702833
 30
0.0
 11
542.0546682673
 21
590.6611838457
 31
0.0
  0
LINE
  5
312
330
1F
100
AcDbEntity
  8
0
  6
Continuous
 62
     7
370
    35
100
AcDbLine
 10
541.0546682673
 20
590.6611838457
 30
0.0
 11
540.0546682673
 21
590.6611838457
 31
0.0
  0
LINE
  5
313
330
1F
100
AcDbEntity
  8
0
  6
Continuous
 62
     7
370
    35
100
AcDbLine
 10
540.0546682673
 20
590.6611838457
 30
0.0
 11
540.0546682673
 21
675.1611838457
 31
0.0
  0
LINE
  5
314
330
1F
100
AcDbEntity
  8
0
  6
Continuous
 62
     7
370
    35
100
AcDbLine
 10
540.0546682673
 20
675.1611838457
 30
0.0
 11
541.0546682673
 21
675.1611838457
 31
0.0
  0
LINE
  5
315
330
1F
100
AcDbEntity
  8
0
  6
Continuous
 62
     7
370
    35
100
AcDbLine
 10
1324.0546682673
 20
590.6611838457
 30
0.0
 11
1323.0546682673
 21
590.6611838457
 31
0.0
  0
LINE
  5
316
330
1F
100
AcDbEntity
  8
0
  6
Continuous
 62
     7
370
    35
100
AcDbLine
 10
1323.0546682673
 20
675.1611838457
 30
0.0
 11
1324.0546682673
 21
675.1611838457
 31
0.0
  0
LINE
  5
317
330
1F
100
AcDbEntity
  8
0
  6
Continuous
 62
     7
370
    35
100
AcDbLine
 10
1324.0546682673
 20
675.1611838457
 30
0.0
 11
1324.0546682673
 21
590.6611838457
 31
0.0
  0
LINE
  5
318
330
1F
100
AcDbEntity
  8
0
  6
Continuous
 62
     7
370
    35
100
AcDbLine
 10
1323.0546682673
 20
590.6611838457
 30
0.0
 11
1322.0546682673
 21
590.6611838457
 31
0.0
  0
LINE
  5
319
330
1F
100
AcDbEntity
  8
0
  6
Continuous
 62
     7
370
    35
100
AcDbLine
 10
1322.0546682673
 20
590.6611838457
 30
0.0
 11
1322.0546682673
 21
590.7469702833
 31
0.0
  0
LINE
  5
31A
330
1F
100
AcDbEntity
  8
0
  6
Continuous
 62
     7
370
    35
100
AcDbLine
 10
1322.0546682673
 20
593.575397408
 30
0.0
 11
1322.0546682673
 21
657.9291330381
 31
0.0
  0
LINE
  5
31B
330
1F
100
AcDbEntity
  8
0
  6
Continuous
 62
     7
370
    35
100
AcDbLine
 10
1322.0546682673
 20
675.1611838457
 30
0.0
 11
1323.0546682673
 21
675.1611838457
 31
0.0
  0
LINE
  5
31C
330
1F
100
AcDbEntity
  8
0
  6
Continuous
 62
     7
370
    35
100
AcDbLine
 10
542.0546682673
 20
676.1861838457
 30
0.0
 11
542.0546682673
 21
675.1861838457
 31
0.0
  0
LINE
  5
31D
330
1F
100
AcDbEntity
  8
0
  6
Continuous
 62
     7
370
    35
100
AcDbLine
 10
542.0546682673
 20
676.1861838457
 30
0.0
 11
519.5546682673
 21
676.1861838457
 31
0.0
  0
LINE
  5
31E
330
1F
100
AcDbEntity
  8
0
  6
Continuous
 62
     7
370
    35
100
AcDbLine
 10
542.0546682673
 20
675.1861838457
 30
0.0
 11
519.5546682673
 21
675.1861838457
 31
0.0
  0
LINE
  5
31F
330
1F
100
AcDbEntity
  8
0
  6
Continuous
 62
     7
370
    35
100
AcDbLine
 10
509.5546682673
 20
675.1861838457
 30
0.0
 11
509.5546682673
 21
676.1861838457
 31
0.0
  0
LINE
  5
320
330
1F
100
AcDbEntity
  8
0
  6
Continuous
 62
     7
370
    35
100
AcDbLine
 10
509.5546682673
 20
676.1861838457
 30
0.0
 11
519.5546682673
 21
676.1861838457
 31
0.0
  0
LINE
  5
321
330
1F
100
AcDbEntity
  8
0
  6
Continuous
 62
     7
370
    35
100
AcDbLine
 10
519.5546682673
 20
675.1861838457
 30
0.0
 11
509.5546682673
 21
675.1861838457
 31
0.0
  0
LINE
  5
322
330
1F
100
AcDbEntity
  8
0
  6
Continuous
 62
     7
370
    35
100
AcDbLine
 10
509.5546682673
 20
675.1861838457
 30
0.0
 11
509.5546682673
 21
674.1861838457
 31
0.0
  0
LINE
  5
323
330
1F
100
AcDbEntity
  8
0
  6
Continuous
 62
     7
370
    35
100
AcDbLine
 10
542.0546682673
 20
589.6611838457
 30
0.0
 11
542.0546682673
 21
560.1861838457
 31
0.0
  0
LINE
  5
324
330
1F
100
AcDbEntity
  8
0
  6
Continuous
 62
     7
370
    35
100
AcDbLine
 10
542.0546682673
 20
560.1861838457
 30
0.0
 11
519.5546682673
 21
560.1861838457
 31
0.0
  0
ARC
  5
325
330
1F
100
AcDbEntity
  8
0
  6
Continuous
 62
     7
370
    35
100
AcDbCircle
 10
519.5546682673
 20
570.1861838457
 30
0.0
 40
10.00000000000006
100
AcDbArc
 50
180.0
 51
270.0
  0
LINE
  5
326
330
1F
100
AcDbEntity
  8
0
  6
Continuous
 62
     7
370
    35
100
AcDbLine
 10
509.5546682673
 20
570.1861838457
 30
0.0
 11
509.5546682673
 21
674.1861838457
 31
0.0
  0
LINE
  5
327
330
1F
100
AcDbEntity
  8
0
  6
Continuous
 62
     7
370
    35
100
AcDbLine
 10
1322.0546682673
 20
676.1861838457
 30
0.0
 11
1322.0546682673
 21
675.1861838457
 31
0.0
  0
LINE
  5
328
330
1F
100
AcDbEntity
  8
0
  6
Continuous
 62
     7
370
    35
100
AcDbLine
 10
1322.0546682673
 20
676.1861838457
 30
0.0
 11
1344.5546682673
 21
676.1861838457
 31
0.0
  0
LINE
  5
329
330
1F
100
AcDbEntity
  8
0
  6
Continuous
 62
     7
370
    35
100
AcDbLine
 10
1322.0546682673
 20
675.1861838457
 30
0.0
 11
1344.5546682673
 21
675.1861838457
 31
0.0
  0
LINE
  5
32A
330
1F
100
AcDbEntity
  8
0
  6
Continuous
 62
     7
370
    35
100
AcDbLine
 10
1354.5546682673
 20
676.1861838457
 30
0.0
 11
1354.5546682673
 21
675.1861838457
 31
0.0
  0
LINE
  5
32B
330
1F
100
AcDbEntity
  8
0
  6
Continuous
 62
     7
370
    35
100
AcDbLine
 10
1344.5546682673
 20
676.1861838457
 30
0.0
 11
1354.5546682673
 21
676.1861838457
 31
0.0
  0
LINE
  5
32C
330
1F
100
AcDbEntity
  8
0
  6
Continuous
 62
     7
370
    35
100
AcDbLine
 10
1354.5546682673
 20
675.1861838457
 30
0.0
 11
1344.5546682673
 21
675.1861838457
 31
0.0
  0
LINE
  5
32D
330
1F
100
AcDbEntity
  8
0
  6
Continuous
 62
     7
370
    35
100
AcDbLine
 10
1354.5546682673
 20
674.1861838457
 30
0.0
 11
1354.5546682673
 21
675.1861838457
 31
0.0
  0
ARC
  5
32E
330
1F
100
AcDbEntity
  8
0
  6
Continuous
 62
     7
370
    35
100
AcDbCircle
 10
1344.5546682673
 20
570.1861838457
 30
0.0
 40
10.00000000000011
100
AcDbArc
 50
270.0
 51
0.0
  0
LINE
  5
32F
330
1F
100
AcDbEntity
  8
0
  6
Continuous
 62
     7
370
    35
100
AcDbLine
 10
1322.0546682673
 20
560.1861838457
 30
0.0
 11
1344.5546682673
 21
560.1861838457
 31
0.0
  0
LINE
  5
330
330
1F
100
AcDbEntity
  8
0
  6
Continuous
 62
     7
370
    35
100
AcDbLine
 10
1322.0546682673
 20
589.6611838457
 30
0.0
 11
1322.0546682673
 21
560.1861838457
 31
0.0
  0
LINE
  5
331
330
1F
100
AcDbEntity
  8
0
  6
Continuous
 62
     7
370
    35
100
AcDbLine
 10
1354.5546682673
 20
570.1861838457
 30
0.0
 11
1354.5546682673
 21
674.1861838457
 31
0.0
  0
LINE
  5
332
330
1F
100
AcDbEntity
  8
0
  6
Continuous
 62
     8
370
    18
100
AcDbLine
 10
542.0546682673
 20
674.1611838457
 30
0.0
 11
1322.0546682673
 21
674.1611838457
 31
0.0
  0
LINE
  5
333
330
1F
100
AcDbEntity
  8
0
  6
Continuous
 62
     8
370
    18
100
AcDbLine
 10
1322.0546682673
 20
659.6611838457
 30
0.0
 11
542.0546682673
 21
659.6611838457
 31
0.0
  0
LINE
  5
334
330
1F
100
AcDbEntity
  8
0
  6
Continuous
 62
     8
370
    18
100
AcDbLine
 10
542.0546682673
 20
589.6611838457
 30
0.0
 11
1322.0546682673
 21
589.6611838457
 31
0.0
  0
LINE
  5
335
330
1F
100
AcDbEntity
  8
0
  6
Continuous
 62
     8
370
    18
100
AcDbLine
 10
542.0546682673
 20
656.7178766332
 30
0.0
 11
1322.0546682673
 21
656.7178766332
 31
0.0
  0
LINE
  5
336
330
1F
100
AcDbEntity
  8
0
  6
Continuous
 62
     8
370
    18
100
AcDbLine
 10
542.0546682673
 20
594.6044910581
 30
0.0
 11
1322.0546682673
 21
594.6044910581
 31
0.0
  0
SPLINE
  5
337
330
1F
100
AcDbEntity
  8
0
  6
Continuous
 62
     8
370
    18
100
AcDbSpline
210
0.0
220
0.0
230
1.0
 70
     8
 71
     3
 72
    14
 73
    10
 74
     0
 42
0.000000001
 43
0.00000001
 40
0.0
 40
0.0
 40
0.0
 40
0.0
 40
0.2500000000000001
 40
0.2500000000000001
 40
0.5000000000000001
 40
0.5000000000000001
 40
0.7500000000000001
 40
0.7500000000000001
 40
1.0
 40
1.0
 40
1.0
 40
1.0
 10
849.0555253654469
 20
625.7178766332286
 30
0.0
 10
849.0807669515901
 20
629.0570401420438
 30
0.0
 10
849.6686428947779
 20
632.3912622117847
 30
0.0
 10
851.9051897958736
 20
638.6841517121887
 30
0.0
 10
853.553399733176
 20
641.6415219861829
 30
0.0
 10
857.728929627429
 20
646.8537720192584
 30
0.0
 10
860.2553888801754
 20
649.1075773744607
 30
0.0
 10
865.908613431757
 20
652.6633687736419
 30
0.0
 10
869.0342134284003
 20
653.9646218604432
 30
0.0
 10
872.2874052954057
 20
654.7178766332286
 30
0.0
  0
LINE
  5
338
330
1F
100
AcDbEntity
  8
0
  6
Continuous
 62
     8
370
    18
100
AcDbLine
 10
542.0546682673
 20
625.7178766332
 30
0.0
 11
849.0555253654
 21
625.7178766332
 31
0.0
  0
LINE
  5
339
330
1F
100
AcDbEntity
  8
0
  6
Continuous
 62
     8
370
    18
100
AcDbLine
 10
1015.0538111691
 20
625.7178766332
 30
0.0
 11
1322.0546682673
 21
625.7178766332
 31
0.0
  0
SPLINE
  5
33A
330
1F
100
AcDbEntity
  8
0
  6
Continuous
 62
     8
370
    18
100
AcDbSpline
210
0.0
220
0.0
230
1.0
 70
     8
 71
     3
 72
    14
 73
    10
 74
     0
 42
0.000000001
 43
0.00000001
 40
0.0
 40
0.0
 40
0.0
 40
0.0
 40
0.25
 40
0.25
 40
0.5
 40
0.5
 40
0.75
 40
0.75
 40
1.0
 40
1.0
 40
1.0
 40
1.0
 10
991.8219312391813
 20
654.7178766332286
 30
0.0
 10
995.0751231061868
 20
653.9646218604432
 30
0.0
 10
998.20072310283
 20
652.6633687736419
 30
0.0
 10
1003.853947654412
 20
649.1075773744607
 30
0.0
 10
1006.380406907158
 20
646.8537720192584
 30
0.0
 10
1010.555936801411
 20
641.6415219861829
 30
0.0
 10
1012.204146738713
 20
638.6841517121887
 30
0.0
 10
1014.440693639809
 20
632.3912622117847
 30
0.0
 10
1015.028569582997
 20
629.0570401420438
 30
0.0
 10
1015.05381116914
 20
625.7178766332286
 30
0.0
  0
LINE
  5
33B
330
1F
100
AcDbEntity
  8
0
  6
Continuous
 62
     8
370
    18
100
AcDbLine
 10
542.0546682673
 20
625.6044910581
 30
0.0
 11
849.0555253654
 21
625.6044910581
 31
0.0
  0
SPLINE
  5
33C
330
1F
100
AcDbEntity
  8
0
  6
Continuous
 62
     8
370
    18
100
AcDbSpline
210
0.0
220
0.0
230
1.0
 70
     8
 71
     3
 72
    14
 73
    10
 74
     0
 42
0.000000001
 43
0.00000001
 40
0.0
 40
0.0
 40
0.0
 40
0.0
 40
0.2500000000000002
 40
0.2500000000000002
 40
0.5000000000000003
 40
0.5000000000000003
 40
0.7500000000000002
 40
0.7500000000000002
 40
1.0
 40
1.0
 40
1.0
 40
1.0
 10
872.2874052954056
 20
596.6044910581018
 30
0.0
 10
869.0342134284001
 20
597.3577458308871
 30
0.0
 10
865.908613431757
 20
598.6589989176886
 30
0.0
 10
860.2553888801754
 20
602.2147903168698
 30
0.0
 10
857.7289296274289
 20
604.4685956720718
 30
0.0
 10
853.553399733176
 20
609.6808457051475
 30
0.0
 10
851.9051897958736
 20
612.6382159791416
 30
0.0
 10
849.6686428947778
 20
618.9311054795456
 30
0.0
 10
849.0807669515901
 20
622.2653275492866
 30
0.0
 10
849.0555253654469
 20
625.6044910581019
 30
0.0
  0
SPLINE
  5
33D
330
1F
100
AcDbEntity
  8
0
  6
Continuous
 62
     8
370
    18
100
AcDbSpline
210
0.0
220
0.0
230
1.0
 70
     8
 71
     3
 72
    14
 73
    10
 74
     0
 42
0.000000001
 43
0.00000001
 40
0.0
 40
0.0
 40
0.0
 40
0.0
 40
0.25
 40
0.25
 40
0.5
 40
0.5
 40
0.75
 40
0.75
 40
1.0
 40
1.0
 40
1.0
 40
1.0
 10
1015.05381116914
 20
625.6044910581019
 30
0.0
 10
1015.028569582997
 20
622.2653275492866
 30
0.0
 10
1014.440693639809
 20
618.9311054795457
 30
0.0
 10
1012.204146738713
 20
612.6382159791416
 30
0.0
 10
1010.555936801411
 20
609.6808457051475
 30
0.0
 10
1006.380406907158
 20
604.4685956720718
 30
0.0
 10
1003.853947654412
 20
602.2147903168698
 30
0.0
 10
998.20072310283
 20
598.6589989176885
 30
0.0
 10
995.0751231061868
 20
597.3577458308871
 30
0.0
 10
991.8219312391814
 20
596.6044910581018
 30
0.0
  0
LINE
  5
33E
330
1F
100
AcDbEntity
  8
0
  6
Continuous
 62
     8
370
    18
100
AcDbLine
 10
1015.0538111691
 20
625.6044910581
 30
0.0
 11
1322.0546682673
 21
625.6044910581
 31
0.0
  0
LINE
  5
33F
330
1F
100
AcDbEntity
  8
0
  6
Continuous
 62
     8
370
    18
100
AcDbLine
 10
985.0546682673
 20
654.9161635436
 30
0.0
 11
985.0546682673
 21
654.9111838457
 31
0.0
  0
LINE
  5
340
330
1F
100
AcDbEntity
  8
0
  6
Continuous
 62
     8
370
    18
100
AcDbLine
 10
879.0546682673
 20
654.9161635436
 30
0.0
 11
879.0546682673
 21
654.9111838457
 31
0.0
  0
ARC
  5
341
330
1F
100
AcDbEntity
  8
0
  6
Continuous
 62
     8
370
    18
100
AcDbCircle
 10
938.8049576674
 20
666.2926115996
 30
0.0
 40
54.2657716820597
100
AcDbArc
 50
344.6911781266
 51
347.6843554441
  0
LINE
  5
342
330
1F
100
AcDbEntity
  8
0
  6
Continuous
 62
     8
370
    18
100
AcDbLine
 10
985.0546682673
 20
654.9111838457
 30
0.0
 11
985.0546682673
 21
652.6611838457
 31
0.0
  0
LINE
  5
343
330
1F
100
AcDbEntity
  8
0
  6
Continuous
 62
     8
370
    18
100
AcDbLine
 10
879.0546682673
 20
654.9111838457
 30
0.0
 11
879.0546682673
 21
652.6611838457
 31
0.0
  0
ARC
  5
344
330
1F
100
AcDbEntity
  8
0
  6
Continuous
 62
     8
370
    18
100
AcDbCircle
 10
925.3043788675
 20
666.2926115997
 30
0.0
 40
54.26577168246381
100
AcDbArc
 50
192.3156445559
 51
195.3088218734
  0
ARC
  5
345
330
1F
100
AcDbEntity
  8
0
  6
Continuous
 62
     8
370
    18
100
AcDbCircle
 10
925.3043788675
 20
585.0297560916
 30
0.0
 40
54.26577168241679
100
AcDbArc
 50
164.6911781266
 51
167.6843554441
  0
LINE
  5
346
330
1F
100
AcDbEntity
  8
0
  6
Continuous
 62
     8
370
    18
100
AcDbLine
 10
879.0546682673
 20
598.6611838457
 30
0.0
 11
879.0546682673
 21
596.4111838457
 31
0.0
  0
LINE
  5
347
330
1F
100
AcDbEntity
  8
0
  6
Continuous
 62
     8
370
    18
100
AcDbLine
 10
985.0546682673
 20
598.6611838457
 30
0.0
 11
985.0546682673
 21
596.4111838457
 31
0.0
  0
ARC
  5
348
330
1F
100
AcDbEntity
  8
0
  6
Continuous
 62
     8
370
    18
100
AcDbCircle
 10
938.804957667
 20
585.0297560916
 30
0.0
 40
54.26577168254598
100
AcDbArc
 50
12.3156445559
 51
15.3088218734
  0
LINE
  5
349
330
1F
100
AcDbEntity
  8
0
  6
Continuous
 62
     8
370
    18
100
AcDbLine
 10
879.0546682673
 20
596.4062041477
 30
0.0
 11
879.0546682673
 21
596.4111838457
 31
0.0
  0
LINE
  5
34A
330
1F
100
AcDbEntity
  8
0
  6
Continuous
 62
     8
370
    18
100
AcDbLine
 10
985.0546682673
 20
596.4062041477
 30
0.0
 11
985.0546682673
 21
596.4111838457
 31
0.0
  0
ARC
  5
34B
330
1F
100
AcDbEntity
  8
0
  6
Continuous
 62
     8
370
    18
100
AcDbCircle
 10
1014.2219740347
 20
640.1157487577
 30
0.0
 40
14.42188180273561
100
AcDbArc
 50
261.3675974434
 51
273.306588142
  0
ARC
  5
34C
330
1F
100
AcDbEntity
  8
0
  6
Continuous
 62
     8
370
    18
100
AcDbCircle
 10
849.8873624999
 20
640.1157487577
 30
0.0
 40
14.42188180273923
100
AcDbArc
 50
266.693411858
 51
278.6324025566
  0
ARC
  5
34D
330
1F
100
AcDbEntity
  8
0
  6
Continuous
 62
     8
370
    18
100
AcDbCircle
 10
849.8873624999
 20
611.2066189335
 30
0.0
 40
14.42188180278281
100
AcDbArc
 50
81.3675974434
 51
93.306588142
  0
ARC
  5
34E
330
1F
100
AcDbEntity
  8
0
  6
Continuous
 62
     8
370
    18
100
AcDbCircle
 10
1014.2219740347
 20
611.2066189335
 30
0.0
 40
14.42188180278008
100
AcDbArc
 50
86.693411858
 51
98.6324025566
  0
SPLINE
  5
34F
330
1F
100
AcDbEntity
  8
0
  6
Continuous
 62
     8
370
    18
100
AcDbSpline
210
0.0
220
0.0
230
1.0
 70
     8
 71
     3
 72
     8
 73
     4
 74
     0
 42
0.000000001
 43
0.00000001
 40
0.0
 40
0.0
 40
0.0
 40
0.0
 40
1.0
 40
1.0
 40
1.0
 40
1.0
 10
849.0555253654469
 20
625.6044910581019
 30
0.0
 10
849.0543825515838
 20
625.6422862498107
 30
0.0
 10
849.0543825515838
 20
625.6800814415196
 30
0.0
 10
849.0555253654469
 20
625.7178766332286
 30
0.0
  0
SPLINE
  5
350
330
1F
100
AcDbEntity
  8
0
  6
Continuous
 62
     8
370
    18
100
AcDbSpline
210
0.0
220
0.0
230
1.0
 70
     8
 71
     3
 72
     8
 73
     4
 74
     0
 42
0.000000001
 43
0.00000001
 40
0.0
 40
0.0
 40
0.0
 40
0.0
 40
1.0
 40
1.0
 40
1.0
 40
1.0
 10
1015.05381116914
 20
625.7178766332286
 30
0.0
 10
1015.054953983003
 20
625.6800814415196
 30
0.0
 10
1015.054953983003
 20
625.6422862498107
 30
0.0
 10
1015.05381116914
 20
625.6044910581019
 30
0.0
  0
SPLINE
  5
351
330
1F
100
AcDbEntity
  8
0
  6
Continuous
 62
     8
370
    18
100
AcDbSpline
210
0.0
220
0.0
230
1.0
 70
     8
 71
     3
 72
    17
 73
    13
 74
     0
 42
0.000000001
 43
0.00000001
 40
0.0
 40
0.0
 40
0.0
 40
0.0
 40
0.0000017599180569
 40
0.1227053397329218
 40
0.2502071717394971
 40
0.352612809421427
 40
0.4578053944919665
 40
0.4930427252802748
 40
0.6348536903675632
 40
0.741552213111669
 40
0.8461670224033186
 40
1.0
 40
1.0
 40
1.0
 40
1.0
 10
985.0605730991963
 20
647.4028961657823
 30
0.0
 10
985.0605930991961
 20
647.4028961641369
 30
0.0
 10
986.4550368657242
 20
647.4027814428161
 30
0.0
 10
989.3038311754223
 20
647.1165230580793
 30
0.0
 10
993.1704671418006
 20
645.96610890165
 30
0.0
 10
996.5677544546669
 20
644.2103172905421
 30
0.0
 10
998.7991440308294
 20
642.563672038546
 30
0.0
 10
1001.159632234069
 20
640.391703743894
 30
0.0
 10
1003.214418839431
 20
637.8620577403085
 30
0.0
 10
1005.105153175161
 20
634.3103239544328
 30
0.0
 10
1006.47880401943
 20
630.3595956878991
 30
0.0
 10
1006.67862419243
 20
627.4142869393037
 30
0.0
 10
1006.797560912944
 20
625.6611838456652
 30
0.0
  0
LWPOLYLINE
  5
352
330
1F
100
AcDbEntity
  8
0
  6
Continuous
 62
     8
370
    18
100
AcDbPolyline
 90
        3
 70
   128
 43
0.0
 10
985.0605730992
 20
647.4028961658
 10
985.0605737983
 20
647.4084351694
 10
985.0605740728
 20
647.4111830439
  0
LINE
  5
353
330
1F
100
AcDbEntity
  8
0
  6
Continuous
 62
     8
370
    18
100
AcDbLine
 10
1006.793121184
 20
625.6611838457
 30
0.0
 11
1006.7975609129
 21
625.6611838457
 31
0.0
  0
LINE
  5
354
330
1F
100
AcDbEntity
  8
0
  6
Continuous
 62
     8
370
    18
100
AcDbLine
 10
985.0605727383
 20
647.3984562413
 30
0.0
 11
985.0605730992
 21
647.4028961658
 31
0.0
  0
SPLINE
  5
355
330
1F
100
AcDbEntity
  8
0
  6
Continuous
 62
     8
370
    18
100
AcDbSpline
210
0.0
220
0.0
230
1.0
 70
     8
 71
     3
 72
    17
 73
    13
 74
     0
 42
0.000000001
 43
0.00000001
 40
0.0
 40
0.0
 40
0.0
 40
0.0
 40
0.0000017599180569
 40
0.1227053397329196
 40
0.2502071717394929
 40
0.3526128094214377
 40
0.4578053944919754
 40
0.4930427252802831
 40
0.6348536903675693
 40
0.7415522131116733
 40
0.8461670224033211
 40
1.0
 40
1.0
 40
1.0
 40
1.0
 10
879.0487634353914
 20
647.4028961657823
 30
0.0
 10
879.0487434353917
 20
647.4028961641369
 30
0.0
 10
877.6542996688629
 20
647.4027814428161
 30
0.0
 10
874.8055053591656
 20
647.1165230580793
 30
0.0
 10
870.938869392787
 20
645.9661089016499
 30
0.0
 10
867.5415820799202
 20
644.2103172905422
 30
0.0
 10
865.3101925037577
 20
642.563672038546
 30
0.0
 10
862.9497043005184
 20
640.391703743894
 30
0.0
 10
860.8949176951558
 20
637.8620577403085
 30
0.0
 10
859.0041833594262
 20
634.3103239544329
 30
0.0
 10
857.6305325151575
 20
630.3595956878992
 30
0.0
 10
857.4307123421571
 20
627.4142869393037
 30
0.0
 10
857.3117756216434
 20
625.6611838456652
 30
0.0
  0
LWPOLYLINE
  5
356
330
1F
100
AcDbEntity
  8
0
  6
Continuous
 62
     8
370
    18
100
AcDbPolyline
 90
        3
 70
   128
 43
0.0
 10
879.0487634354
 20
647.4028961658
 10
879.0487627363
 20
647.4084351694
 10
879.0487624618
 20
647.4111830439
  0
LINE
  5
357
330
1F
100
AcDbEntity
  8
0
  6
Continuous
 62
     8
370
    18
100
AcDbLine
 10
857.3162153506
 20
625.6611838457
 30
0.0
 11
857.3117756216
 21
625.6611838457
 31
0.0
  0
LINE
  5
358
330
1F
100
AcDbEntity
  8
0
  6
Continuous
 62
     8
370
    18
100
AcDbLine
 10
879.0487637963
 20
647.3984562413
 30
0.0
 11
879.0487634354
 21
647.4028961658
 31
0.0
  0
SPLINE
  5
359
330
1F
100
AcDbEntity
  8
0
  6
Continuous
 62
     8
370
    18
100
AcDbSpline
210
0.0
220
0.0
230
1.0
 70
     8
 71
     3
 72
    17
 73
    13
 74
     0
 42
0.000000001
 43
0.00000001
 40
0.0
 40
0.0
 40
0.0
 40
0.0
 40
0.0000017599180569
 40
0.1227053397329218
 40
0.2502071717394971
 40
0.3526128094214271
 40
0.4578053944919666
 40
0.4930427252802748
 40
0.6348536903675632
 40
0.741552213111669
 40
0.8461670224033185
 40
1.0
 40
1.0
 40
1.0
 40
1.0
 10
985.0605730991963
 20
603.919471525548
 30
0.0
 10
985.0605930991961
 20
603.9194715271934
 30
0.0
 10
986.4550368657242
 20
603.9195862485142
 30
0.0
 10
989.3038311754223
 20
604.2058446332511
 30
0.0
 10
993.1704671418006
 20
605.3562587896802
 30
0.0
 10
996.5677544546669
 20
607.1120504007882
 30
0.0
 10
998.7991440308294
 20
608.7586956527845
 30
0.0
 10
1001.159632234069
 20
610.9306639474363
 30
0.0
 10
1003.214418839431
 20
613.4603099510219
 30
0.0
 10
1005.105153175161
 20
617.0120437368976
 30
0.0
 10
1006.47880401943
 20
620.9627720034313
 30
0.0
 10
1006.67862419243
 20
623.9080807520265
 30
0.0
 10
1006.797560912944
 20
625.6611838456652
 30
0.0
  0
LWPOLYLINE
  5
35A
330
1F
100
AcDbEntity
  8
0
  6
Continuous
 62
     8
370
    18
100
AcDbPolyline
 90
        3
 70
   128
 43
0.0
 10
985.0605730992
 20
603.9194715255
 10
985.0605737983
 20
603.9139325219
 10
985.0605740728
 20
603.9111846475
  0
LINE
  5
35B
330
1F
100
AcDbEntity
  8
0
  6
Continuous
 62
     8
370
    18
100
AcDbLine
 10
985.0605727383
 20
603.92391145
 30
0.0
 11
985.0605730992
 21
603.9194715255
 31
0.0
  0
SPLINE
  5
35C
330
1F
100
AcDbEntity
  8
0
  6
Continuous
 62
     8
370
    18
100
AcDbSpline
210
0.0
220
0.0
230
1.0
 70
     8
 71
     3
 72
    17
 73
    13
 74
     0
 42
0.000000001
 43
0.00000001
 40
0.0
 40
0.0
 40
0.0
 40
0.0
 40
0.0000017599180569
 40
0.1227053397329192
 40
0.2502071717394931
 40
0.3526128094214376
 40
0.4578053944919754
 40
0.4930427252802831
 40
0.6348536903675693
 40
0.7415522131116733
 40
0.8461670224033212
 40
1.0
 40
1.0
 40
1.0
 40
1.0
 10
879.0487634353914
 20
603.9194715255481
 30
0.0
 10
879.0487434353917
 20
603.9194715271935
 30
0.0
 10
877.6542996690243
 20
603.9195862485949
 30
0.0
 10
874.805505359087
 20
604.2058446332118
 30
0.0
 10
870.9388693928037
 20
605.3562587896888
 30
0.0
 10
867.5415820799158
 20
607.112050400786
 30
0.0
 10
865.3101925037579
 20
608.7586956527846
 30
0.0
 10
862.9497043005181
 20
610.9306639474363
 30
0.0
 10
860.8949176951558
 20
613.4603099510219
 30
0.0
 10
859.0041833594262
 20
617.0120437368976
 30
0.0
 10
857.6305325151575
 20
620.9627720034313
 30
0.0
 10
857.4307123421571
 20
623.9080807520265
 30
0.0
 10
857.3117756216434
 20
625.6611838456652
 30
0.0
  0
LINE
  5
35D
330
1F
100
AcDbEntity
  8
0
  6
Continuous
 62
     8
370
    18
100
AcDbLine
 10
879.0487637963
 20
603.92391145
 30
0.0
 11
879.0487634354
 21
603.9194715255
 31
0.0
  0
LWPOLYLINE
  5
35E
330
1F
100
AcDbEntity
  8
0
  6
Continuous
 62
     8
370
    18
100
AcDbPolyline
 90
        3
 70
   128
 43
0.0
 10
879.0487634354
 20
603.9194715255
 10
879.0487627363
 20
603.9139325219
 10
879.0487624618
 20
603.9111846475
  0
ARC
  5
35F
330
1F
100
AcDbEntity
  8
0
  6
Continuous
 62
     8
370
    18
100
AcDbCircle
 10
979.0393010148
 20
640.8976574874
 30
0.0
 40
2.052564240823363
100
AcDbArc
 50
11.6472091992
 51
44.8009049346
  0
SPLINE
  5
360
330
1F
100
AcDbEntity
  8
0
  6
Continuous
 62
     8
370
    18
100
AcDbSpline
210
0.0
220
0.0
230
1.0
 70
     8
 71
     3
 72
     9
 73
     5
 74
     0
 42
0.000000001
 43
0.00000001
 40
0.0
 40
0.0
 40
0.0
 40
0.0
 40
0.1546895589893173
 40
1.0
 40
1.0
 40
1.0
 40
1.0
 10
984.9379370846334
 20
644.3927572996497
 30
0.0
 10
984.6948846280637
 20
644.32008276465
 30
0.0
 10
983.1236573380145
 20
643.8502738423513
 30
0.0
 10
981.6995394291936
 20
643.0339958133075
 30
0.0
 10
980.4957176916371
 20
642.3439874725891
 30
0.0
  0
SPLINE
  5
361
330
1F
100
AcDbEntity
  8
0
  6
Continuous
 62
     8
370
    18
100
AcDbSpline
210
0.0
220
0.0
230
1.0
 70
     8
 71
     3
 72
     9
 73
     5
 74
     0
 42
0.000000001
 43
0.00000001
 40
0.0
 40
0.0
 40
0.0
 40
0.0
 40
0.1546895589893171
 40
1.0
 40
1.0
 40
1.0
 40
1.0
 10
879.1713994499544
 20
644.3927572996497
 30
0.0
 10
879.414451906524
 20
644.32008276465
 30
0.0
 10
880.9856791965733
 20
643.8502738423513
 30
0.0
 10
882.409797105394
 20
643.0339958133075
 30
0.0
 10
883.6136188429507
 20
642.3439874725891
 30
0.0
  0
ARC
  5
362
330
1F
100
AcDbEntity
  8
0
  6
Continuous
 62
     8
370
    18
100
AcDbCircle
 10
885.0700355198
 20
640.8976574874
 30
0.0
 40
2.052564240822316
100
AcDbArc
 50
135.1990950654
 51
168.3527908008
  0
SPLINE
  5
363
330
1F
100
AcDbEntity
  8
0
  6
Continuous
 62
     8
370
    18
100
AcDbSpline
210
0.0
220
0.0
230
1.0
 70
     8
 71
     3
 72
     9
 73
     5
 74
     0
 42
0.000000001
 43
0.00000001
 40
0.0
 40
0.0
 40
0.0
 40
0.0
 40
0.1546895589893174
 40
0.9999999999999999
 40
0.9999999999999999
 40
0.9999999999999999
 40
0.9999999999999999
 10
984.9379370846334
 20
606.9296103916806
 30
0.0
 10
984.6948846280637
 20
607.0022849266803
 30
0.0
 10
983.1236573380144
 20
607.4720938489792
 30
0.0
 10
981.6995394291936
 20
608.288371878023
 30
0.0
 10
980.4957176916371
 20
608.9783802187413
 30
0.0
  0
ARC
  5
364
330
1F
100
AcDbEntity
  8
0
  6
Continuous
 62
     8
370
    18
100
AcDbCircle
 10
979.0393010148
 20
610.4247102039
 30
0.0
 40
2.052564240823363
100
AcDbArc
 50
315.1990950654
 51
348.3527908008
  0
ARC
  5
365
330
1F
100
AcDbEntity
  8
0
  6
Continuous
 62
     8
370
    18
100
AcDbCircle
 10
885.0700355198
 20
610.4247102039
 30
0.0
 40
2.052564240824248
100
AcDbArc
 50
191.6472091992
 51
224.8009049346
  0
SPLINE
  5
366
330
1F
100
AcDbEntity
  8
0
  6
Continuous
 62
     8
370
    18
100
AcDbSpline
210
0.0
220
0.0
230
1.0
 70
     8
 71
     3
 72
     9
 73
     5
 74
     0
 42
0.000000001
 43
0.00000001
 40
0.0
 40
0.0
 40
0.0
 40
0.0
 40
0.1546895589893173
 40
1.0
 40
1.0
 40
1.0
 40
1.0
 10
879.1713994499544
 20
606.9296103916806
 30
0.0
 10
879.414451906524
 20
607.0022849266803
 30
0.0
 10
880.9856791965733
 20
607.4720938489792
 30
0.0
 10
882.409797105394
 20
608.288371878023
 30
0.0
 10
883.6136188429506
 20
608.9783802187413
 30
0.0
  0
ARC
  5
367
330
1F
100
AcDbEntity
  8
0
  6
Continuous
 62
     8
370
    18
100
AcDbCircle
 10
978.0546682673
 20
625.6611838457
 30
0.0
 40
20.0
100
AcDbArc
 50
270.0
 51
347.5224163015
  0
LINE
  5
368
330
1F
100
AcDbEntity
  8
0
  6
Continuous
 62
     8
370
    18
100
AcDbLine
 10
978.0546682673
 20
612.9485330588
 30
0.0
 11
978.0546682673
 21
605.6611838457
 31
0.0
  0
LINE
  5
369
330
1F
100
AcDbEntity
  8
0
  6
Continuous
 62
     8
370
    18
100
AcDbLine
 10
978.0546682673
 20
638.3738346326
 30
0.0
 11
978.0546682673
 21
645.6611838457
 31
0.0
  0
ARC
  5
36A
330
1F
100
AcDbEntity
  8
0
  6
Continuous
 62
     8
370
    18
100
AcDbCircle
 10
978.0546682673
 20
625.6611838457
 30
0.0
 40
20.00000000000011
100
AcDbArc
 50
12.4775836985
 51
90.0
  0
SPLINE
  5
36B
330
1F
100
AcDbEntity
  8
0
  6
Continuous
 62
     8
370
    18
100
AcDbSpline
210
0.0
220
0.0
230
1.0
 70
     8
 71
     3
 72
    14
 73
    10
 74
     0
 42
0.000000001
 43
0.00000001
 40
0.0
 40
0.0
 40
0.0
 40
0.0
 40
0.1114289230463675
 40
0.4958785649708676
 40
0.7046555305635106
 40
0.8301760374267202
 40
0.9121018798664099
 40
0.9942797082137652
 40
1.0
 40
1.0
 40
1.0
 40
1.0
 10
980.4957176916371
 20
642.3439874725891
 30
0.0
 10
980.376326645995
 20
642.261655107336
 30
0.0
 10
979.845015216567
 20
641.8952614097554
 30
0.0
 10
979.170723693207
 20
641.2624902590313
 30
0.0
 10
978.7128599054453
 20
640.4715057443311
 30
0.0
 10
978.6284021551115
 20
639.9613110104683
 30
0.0
 10
978.7108664479639
 20
639.6169824048043
 30
0.0
 10
978.8305733915861
 20
639.4392826840714
 30
0.0
 10
978.9112846647923
 20
639.3639001146486
 30
0.0
 10
978.9165372462181
 20
639.3589943181191
 30
0.0
  0
SPLINE
  5
36C
330
1F
100
AcDbEntity
  8
0
  6
Continuous
 62
     8
370
    18
100
AcDbSpline
210
0.0
220
0.0
230
1.0
 70
     8
 71
     3
 72
    14
 73
    10
 74
     0
 42
0.000000001
 43
0.00000001
 40
0.0
 40
0.0
 40
0.0
 40
0.0
 40
0.1114289230463679
 40
0.4958785649708705
 40
0.7046555305635143
 40
0.8301760374267243
 40
0.9121018798664143
 40
0.99427970821377
 40
1.0
 40
1.0
 40
1.0
 40
1.0
 10
980.4957176916371
 20
608.9783802187413
 30
0.0
 10
980.376326645995
 20
609.0607125839944
 30
0.0
 10
979.845015216567
 20
609.4271062815749
 30
0.0
 10
979.1707236932072
 20
610.0598774322989
 30
0.0
 10
978.7128599054453
 20
610.8508619469992
 30
0.0
 10
978.6284021551115
 20
611.361056680862
 30
0.0
 10
978.7108664479639
 20
611.7053852865262
 30
0.0
 10
978.8305733915861
 20
611.883085007259
 30
0.0
 10
978.9112846647923
 20
611.9584675766819
 30
0.0
 10
978.9165372462181
 20
611.9633733732113
 30
0.0
  0
SPLINE
  5
36D
330
1F
100
AcDbEntity
  8
0
  6
Continuous
 62
     8
370
    18
100
AcDbSpline
210
0.0
220
0.0
230
1.0
 70
     8
 71
     3
 72
    14
 73
    10
 74
     0
 42
0.000000001
 43
0.00000001
 40
0.0
 40
0.0
 40
0.0
 40
0.0
 40
0.1114289230463678
 40
0.4958785649708698
 40
0.7046555305635135
 40
0.8301760374267233
 40
0.9121018798664129
 40
0.9942797082137684
 40
1.0
 40
1.0
 40
1.0
 40
1.0
 10
883.6136188429506
 20
608.9783802187413
 30
0.0
 10
883.7330098885927
 20
609.0607125839944
 30
0.0
 10
884.2643213180205
 20
609.4271062815749
 30
0.0
 10
884.9386128413805
 20
610.0598774322989
 30
0.0
 10
885.3964766291425
 20
610.8508619469992
 30
0.0
 10
885.480934379476
 20
611.361056680862
 30
0.0
 10
885.3984700866237
 20
611.7053852865262
 30
0.0
 10
885.2787631430015
 20
611.8830850072591
 30
0.0
 10
885.1980518697952
 20
611.9584675766819
 30
0.0
 10
885.1927992883694
 20
611.9633733732113
 30
0.0
  0
SPLINE
  5
36E
330
1F
100
AcDbEntity
  8
0
  6
Continuous
 62
     8
370
    18
100
AcDbSpline
210
0.0
220
0.0
230
1.0
 70
     8
 71
     3
 72
    14
 73
    10
 74
     0
 42
0.000000001
 43
0.00000001
 40
0.0
 40
0.0
 40
0.0
 40
0.0
 40
0.1114289230463676
 40
0.4958785649708684
 40
0.7046555305635115
 40
0.8301760374267211
 40
0.9121018798664113
 40
0.9942797082137667
 40
1.0
 40
1.0
 40
1.0
 40
1.0
 10
883.6136188429507
 20
642.3439874725891
 30
0.0
 10
883.7330098885927
 20
642.261655107336
 30
0.0
 10
884.2643213180205
 20
641.8952614097554
 30
0.0
 10
884.9386128413805
 20
641.2624902590313
 30
0.0
 10
885.3964766291425
 20
640.4715057443311
 30
0.0
 10
885.480934379476
 20
639.9613110104683
 30
0.0
 10
885.3984700866237
 20
639.6169824048043
 30
0.0
 10
885.2787631430015
 20
639.4392826840714
 30
0.0
 10
885.1980518697952
 20
639.3639001146486
 30
0.0
 10
885.1927992883694
 20
639.3589943181191
 30
0.0
  0
ARC
  5
36F
330
1F
100
AcDbEntity
  8
0
  6
Continuous
 62
     8
370
    18
100
AcDbCircle
 10
886.0546682673
 20
625.6611838457
 30
0.0
 40
20.00000000000029
100
AcDbArc
 50
90.0
 51
167.5224163015
  0
LINE
  5
370
330
1F
100
AcDbEntity
  8
0
  6
Continuous
 62
     8
370
    18
100
AcDbLine
 10
886.0546682673
 20
638.3738346326
 30
0.0
 11
886.0546682673
 21
645.6611838457
 31
0.0
  0
LINE
  5
371
330
1F
100
AcDbEntity
  8
0
  6
Continuous
 62
     8
370
    18
100
AcDbLine
 10
886.0546682673
 20
612.9485330588
 30
0.0
 11
886.0546682673
 21
605.6611838457
 31
0.0
  0
ARC
  5
372
330
1F
100
AcDbEntity
  8
0
  6
Continuous
 62
     8
370
    18
100
AcDbCircle
 10
886.0546682673
 20
625.6611838457
 30
0.0
 40
20.00000000000029
100
AcDbArc
 50
192.4775836985
 51
270.0
  0
LINE
  5
373
330
1F
100
AcDbEntity
  8
0
  6
Continuous
 62
     8
370
    18
100
AcDbLine
 10
932.0546682673
 20
647.4068962376
 30
0.0
 11
985.0605545845
 21
647.4028961672
 31
0.0
  0
LINE
  5
374
330
1F
100
AcDbEntity
  8
0
  6
Continuous
 62
     8
370
    18
100
AcDbLine
 10
932.0546682673
 20
647.4068962376
 30
0.0
 11
932.0546682673
 21
647.4024563132
 31
0.0
  0
LINE
  5
375
330
1F
100
AcDbEntity
  8
0
  6
Continuous
 62
     8
370
    18
100
AcDbLine
 10
932.0546682673
 20
647.4068962376
 30
0.0
 11
879.0487819501
 21
647.4028961672
 31
0.0
  0
LINE
  5
376
330
1F
100
AcDbEntity
  8
0
  6
Continuous
 62
     8
370
    18
100
AcDbLine
 10
932.0546682673
 20
603.9154714537
 30
0.0
 11
985.0605545845
 21
603.9194715242
 31
0.0
  0
LINE
  5
377
330
1F
100
AcDbEntity
  8
0
  6
Continuous
 62
     8
370
    18
100
AcDbLine
 10
932.0546682673
 20
603.9154714537
 30
0.0
 11
932.0546682673
 21
603.9199113782
 31
0.0
  0
LINE
  5
378
330
1F
100
AcDbEntity
  8
0
  6
Continuous
 62
     8
370
    18
100
AcDbLine
 10
932.0546682673
 20
603.9154714537
 30
0.0
 11
879.0487819501
 21
603.9194715242
 31
0.0
  0
LINE
  5
379
330
1F
100
AcDbEntity
  8
0
  6
Continuous
 62
     8
370
    18
100
AcDbLine
 10
886.0546682673
 20
605.6611838457
 30
0.0
 11
978.0546682673
 21
605.6611838457
 31
0.0
  0
LINE
  5
37A
330
1F
100
AcDbEntity
  8
0
  6
Continuous
 62
     8
370
    18
100
AcDbLine
 10
886.0546682673
 20
645.6611838457
 30
0.0
 11
978.0546682673
 21
645.6611838457
 31
0.0
  0
LINE
  5
37B
330
1F
100
AcDbEntity
  8
0
  6
Continuous
 62
     8
370
    18
100
AcDbLine
 10
985.0605545845
 20
647.4028961672
 30
0.0
 11
985.0605552098
 21
647.411183049
 31
0.0
  0
LINE
  5
37C
330
1F
100
AcDbEntity
  8
0
  6
Continuous
 62
     8
370
    18
100
AcDbLine
 10
879.0487819501
 20
647.4028961672
 30
0.0
 11
879.0487813248
 21
647.411183049
 31
0.0
  0
LINE
  5
37D
330
1F
100
AcDbEntity
  8
0
  6
Continuous
 62
     8
370
    18
100
AcDbLine
 10
985.0605545845
 20
603.9194715242
 30
0.0
 11
985.0605552098
 21
603.9111846424
 31
0.0
  0
LINE
  5
37E
330
1F
100
AcDbEntity
  8
0
  6
Continuous
 62
     8
370
    18
100
AcDbLine
 10
879.0487819501
 20
603.9194715242
 30
0.0
 11
879.0487813248
 21
603.9111846424
 31
0.0
  0
LINE
  5
37F
330
1F
100
AcDbEntity
  8
0
  6
Continuous
 62
     8
370
    18
100
AcDbLine
 10
985.0546682673
 20
599.4111838457
 30
0.0
 11
985.0546682673
 21
598.6611838457
 31
0.0
  0
ARC
  5
380
330
1F
100
AcDbEntity
  8
0
  6
Continuous
 62
     8
370
    18
100
AcDbCircle
 10
985.0546682673
 20
625.6611838457
 30
0.0
 40
26.25
100
AcDbArc
 50
270.0
 51
90.0
  0
LINE
  5
381
330
1F
100
AcDbEntity
  8
0
  6
Continuous
 62
     8
370
    18
100
AcDbLine
 10
985.0546682673
 20
651.9111838457
 30
0.0
 11
985.0546682673
 21
652.6611838457
 31
0.0
  0
LINE
  5
382
330
1F
100
AcDbEntity
  8
0
  6
Continuous
 62
     8
370
    18
100
AcDbLine
 10
985.0546682673
 20
603.9111838457
 30
0.0
 11
985.0546682673
 21
599.4111838457
 31
0.0
  0
LINE
  5
383
330
1F
100
AcDbEntity
  8
0
  6
Continuous
 62
     8
370
    18
100
AcDbLine
 10
985.0546682673
 20
647.4111838457
 30
0.0
 11
985.0546682673
 21
651.9111838457
 31
0.0
  0
LINE
  5
384
330
1F
100
AcDbEntity
  8
0
  6
Continuous
 62
     8
370
    18
100
AcDbLine
 10
879.0546682673
 20
651.9111838457
 30
0.0
 11
985.0546682673
 21
651.9111838457
 31
0.0
  0
LINE
  5
385
330
1F
100
AcDbEntity
  8
0
  6
Continuous
 62
     8
370
    18
100
AcDbLine
 10
879.0546682673
 20
651.9111838457
 30
0.0
 11
879.0546682673
 21
652.6611838457
 31
0.0
  0
LINE
  5
386
330
1F
100
AcDbEntity
  8
0
  6
Continuous
 62
     8
370
    18
100
AcDbLine
 10
879.0546682673
 20
647.4111838457
 30
0.0
 11
879.0546682673
 21
651.9111838457
 31
0.0
  0
ARC
  5
387
330
1F
100
AcDbEntity
  8
0
  6
Continuous
 62
     8
370
    18
100
AcDbCircle
 10
879.0546682673
 20
625.6611838457
 30
0.0
 40
26.25
100
AcDbArc
 50
90.0
 51
270.0
  0
LINE
  5
388
330
1F
100
AcDbEntity
  8
0
  6
Continuous
 62
     8
370
    18
100
AcDbLine
 10
879.0546682673
 20
599.4111838457
 30
0.0
 11
879.0546682673
 21
598.6611838457
 31
0.0
  0
LINE
  5
389
330
1F
100
AcDbEntity
  8
0
  6
Continuous
 62
     8
370
    18
100
AcDbLine
 10
879.0546682673
 20
603.9111838457
 30
0.0
 11
879.0546682673
 21
599.4111838457
 31
0.0
  0
LINE
  5
38A
330
1F
100
AcDbEntity
  8
0
  6
Continuous
 62
     8
370
    18
100
AcDbLine
 10
879.0546682673
 20
599.4111838457
 30
0.0
 11
985.0546682673
 21
599.4111838457
 31
0.0
  0
CIRCLE
  5
38B
330
1F
100
AcDbEntity
  8
0
  6
Continuous
 62
     8
370
    18
100
AcDbCircle
 10
932.0546682673
 20
625.6611838457
 30
0.0
 40
3.548336454629634
  0
CIRCLE
  5
38C
330
1F
100
AcDbEntity
  8
0
  6
Continuous
 62
     8
370
    18
100
AcDbCircle
 10
932.0546682673
 20
625.6611838457
 30
0.0
 40
5.614709433546636
  0
ARC
  5
38D
330
1F
100
AcDbEntity
  8
0
  6
Continuous
 62
     8
370
    18
100
AcDbCircle
 10
932.0546682673
 20
625.6611838457
 30
0.0
 40
7.463480267439865
100
AcDbArc
 50
126.4944476701
 51
233.5055523299
  0
ARC
  5
38E
330
1F
100
AcDbEntity
  8
0
  6
Continuous
 62
     8
370
    18
100
AcDbCircle
 10
932.0546682673
 20
625.6611838457
 30
0.0
 40
7.463480267439797
100
AcDbArc
 50
306.4944476701
 51
53.5055523299
  0
ARC
  5
38F
330
1F
100
AcDbEntity
  8
0
  6
Continuous
 62
     8
370
    18
100
AcDbCircle
 10
932.0546682673
 20
625.6611838457
 30
0.0
 40
8.284968901367037
100
AcDbArc
 50
133.5974061618
 51
226.4025938382
  0
ARC
  5
390
330
1F
100
AcDbEntity
  8
0
  6
Continuous
 62
     8
370
    18
100
AcDbCircle
 10
932.0546682673
 20
625.6611838457
 30
0.0
 40
8.284968901367037
100
AcDbArc
 50
313.5974061618
 51
46.4025938382
  0
LINE
  5
391
330
1F
100
AcDbEntity
  8
0
  6
Continuous
 62
     8
370
    18
100
AcDbLine
 10
541.0546682673
 20
590.6611838457
 30
0.0
 11
541.0546682673
 21
675.1611838457
 31
0.0
  0
LINE
  5
392
330
1F
100
AcDbEntity
  8
0
  6
Continuous
 62
     8
370
    18
100
AcDbLine
 10
1323.0546682673
 20
590.6611838457
 30
0.0
 11
1323.0546682673
 21
675.1611838457
 31
0.0
  0
LINE
  5
393
330
1F
100
AcDbEntity
  8
0
  6
Continuous
 62
     8
370
    18
100
AcDbLine
 10
519.5546682673
 20
676.1861838457
 30
0.0
 11
519.5546682673
 21
675.1861838457
 31
0.0
  0
LINE
  5
394
330
1F
100
AcDbEntity
  8
0
  6
Continuous
 62
     8
370
    18
100
AcDbLine
 10
509.5546682673
 20
674.1861838457
 30
0.0
 11
540.0546682673
 21
674.1861838457
 31
0.0
  0
LINE
  5
395
330
1F
100
AcDbEntity
  8
0
  6
Continuous
 62
     8
370
    18
100
AcDbLine
 10
1344.5546682673
 20
675.1861838457
 30
0.0
 11
1344.5546682673
 21
676.1861838457
 31
0.0
  0
LINE
  5
396
330
1F
100
AcDbEntity
  8
0
  6
Continuous
 62
     8
370
    18
100
AcDbLine
 10
1324.0546682673
 20
674.1861838457
 30
0.0
 11
1354.5546682673
 21
674.1861838457
 31
0.0
  0
ENDSEC
  0
SECTION
  2
OBJECTS
  0
DICTIONARY
  5
C
330
0
100
AcDbDictionary
281
     1
  3
ACAD_GROUP
350
D
  3
ACAD_LAYOUT
350
1A
  3
ACAD_MLINESTYLE
350
17
  3
ACAD_PLOTSETTINGS
350
19
  3
ACAD_PLOTSTYLENAME
350
E
  3
ACAD_SCALELIST
350
47
  0
DICTIONARY
  5
D
102
{ACAD_REACTORS
330
C
102
}
330
C
100
AcDbDictionary
281
     1
  0
DICTIONARY
  5
1A
102
{ACAD_REACTORS
330
C
102
}
330
C
100
AcDbDictionary
281
     1
  3
Layout1
350
1E
  3
Layout2
350
26
  3
Model
350
22
  0
DICTIONARY
  5
17
102
{ACAD_REACTORS
330
C
102
}
330
C
100
AcDbDictionary
281
     1
  3
Standard
350
18
  0
DICTIONARY
  5
19
102
{ACAD_REACTORS
330
C
102
}
330
C
100
AcDbDictionary
281
     1
  0
ACDBDICTIONARYWDFLT
  5
E
102
{ACAD_REACTORS
330
C
102
}
330
C
100
AcDbDictionary
281
     1
  3
Normal
350
F
100
AcDbDictionaryWithDefault
340
F
  0
DICTIONARY
  5
47
102
{ACAD_REACTORS
330
C
102
}
330
C
100
AcDbDictionary
281
     1
  3
A0
350
48
  3
A1
350
49
  3
A2
350
4A
  3
A3
350
4B
  3
A4
350
4C
  3
A5
350
4D
  3
A6
350
4E
  3
A7
350
4F
  3
A8
350
50
  3
A9
350
51
  3
B0
350
52
  3
B1
350
53
  3
B2
350
54
  3
B3
350
55
  3
B4
350
56
  3
B5
350
57
  3
B6
350
58
  3
B7
350
59
  3
B8
350
5A
  3
B9
350
5B
  3
C0
350
5C
  3
C1
350
5D
  3
C2
350
5E
  3
C3
350
5F
  3
C4
350
60
  3
C5
350
61
  3
C6
350
62
  3
C7
350
63
  3
C8
350
64
  3
C9
350
65
  3
D0
350
66
  3
D1
350
67
  3
D2
350
68
  0
LAYOUT
  5
1E
102
{ACAD_REACTORS
330
1A
102
}
330
1A
100
AcDbPlotSettings
  1

  2
none_device
  4

  6

 40
0.0
 41
0.0
 42
0.0
 43
0.0
 44
0.0
 45
0.0
 46
0.0
 47
0.0
 48
0.0
 49
0.0
140
0.0
141
0.0
142
1.0
143
1.0
 70
   688
 72
     1
 73
     0
 74
     5
  7

 75
    16
147
1.0
148
0.0
149
0.0
100
AcDbLayout
  1
Layout1
 70
     1
 71
     1
 10
0.0
 20
0.0
 11
420.0
 21
297.0
 12
0.0
 22
0.0
 32
0.0
 14
1.0000000000E+20
 24
1.0000000000E+20
 34
1.0000000000E+20
 15
-1.0000000000E+20
 25
-1.0000000000E+20
 35
-1.0000000000E+20
146
0.0
 13
0.0
 23
0.0
 33
0.0
 16
1.0
 26
0.0
 36
0.0
 17
0.0
 27
1.0
 37
0.0
 76
     0
330
1B
  0
LAYOUT
  5
26
102
{ACAD_REACTORS
330
1A
102
}
330
1A
100
AcDbPlotSettings
  1

  2
none_device
  4

  6

 40
0.0
 41
0.0
 42
0.0
 43
0.0
 44
0.0
 45
0.0
 46
0.0
 47
0.0
 48
0.0
 49
0.0
140
0.0
141
0.0
142
1.0
143
1.0
 70
   688
 72
     1
 73
     0
 74
     5
  7

 75
    16
147
1.0
148
0.0
149
0.0
100
AcDbLayout
  1
Layout2
 70
     1
 71
     2
 10
0.0
 20
0.0
 11
0.0
 21
0.0
 12
0.0
 22
0.0
 32
0.0
 14
0.0
 24
0.0
 34
0.0
 15
0.0
 25
0.0
 35
0.0
146
0.0
 13
0.0
 23
0.0
 33
0.0
 16
1.0
 26
0.0
 36
0.0
 17
0.0
 27
1.0
 37
0.0
 76
     0
330
23
  0
LAYOUT
  5
22
102
{ACAD_REACTORS
330
1A
102
}
330
1A
100
AcDbPlotSettings
  1

  2
none_device
  4
Letter_(8.50_x_11.00_Inches)
  6

 40
6.35
 41
6.35
 42
6.35000508
 43
6.35000508
 44
215.9
 45
279.4
 46
0.0
 47
0.0
 48
0.0
 49
0.0
140
0.0
141
0.0
142
1.0
143
1.0
 70
  1712
 72
     1
 73
     0
 74
     0
  7

 75
     0
147
1.0
148
0.0
149
0.0
100
AcDbLayout
  1
Model
 70
     1
 71
     0
 10
0.0
 20
0.0
 11
2100.0
 21
1485.0
 12
0.0
 22
0.0
 32
0.0
 14
0.0
 24
0.0
 34
0.0
 15
2100.0
 25
1485.0
 35
0.0
146
0.0
 13
0.0
 23
0.0
 33
0.0
 16
1.0
 26
0.0
 36
0.0
 17
0.0
 27
1.0
 37
0.0
 76
     0
330
1F
331
29
  0
MLINESTYLE
  5
18
102
{ACAD_REACTORS
330
17
102
}
330
17
100
AcDbMlineStyle
  2
Standard
 70
     0
  3

 62
   256
 51
90.0
 52
90.0
 71
     2
 49
0.5
 62
   256
  6
BYLAYER
 49
-0.5
 62
   256
  6
BYLAYER
  0
ACDBPLACEHOLDER
  5
F
102
{ACAD_REACTORS
330
E
102
}
330
E
  0
SCALE
  5
48
102
{ACAD_REACTORS
330
47
102
}
330
47
100
AcDbScale
 70
     0
300
1:1
140
1.0
141
1.0
290
     1
  0
SCALE
  5
49
102
{ACAD_REACTORS
330
47
102
}
330
47
100
AcDbScale
 70
     0
300
1:2
140
1.0
141
2.0
290
     0
  0
SCALE
  5
4A
102
{ACAD_REACTORS
330
47
102
}
330
47
100
AcDbScale
 70
     0
300
1:4
140
1.0
141
4.0
290
     0
  0
SCALE
  5
4B
102
{ACAD_REACTORS
330
47
102
}
330
47
100
AcDbScale
 70
     0
300
1:5
140
1.0
141
5.0
290
     0
  0
SCALE
  5
4C
102
{ACAD_REACTORS
330
47
102
}
330
47
100
AcDbScale
 70
     0
300
1:8
140
1.0
141
8.0
290
     0
  0
SCALE
  5
4D
102
{ACAD_REACTORS
330
47
102
}
330
47
100
AcDbScale
 70
     0
300
1:10
140
1.0
141
10.0
290
     0
  0
SCALE
  5
4E
102
{ACAD_REACTORS
330
47
102
}
330
47
100
AcDbScale
 70
     0
300
1:16
140
1.0
141
16.0
290
     0
  0
SCALE
  5
4F
102
{ACAD_REACTORS
330
47
102
}
330
47
100
AcDbScale
 70
     0
300
1:20
140
1.0
141
20.0
290
     0
  0
SCALE
  5
50
102
{ACAD_REACTORS
330
47
102
}
330
47
100
AcDbScale
 70
     0
300
1:30
140
1.0
141
30.0
290
     0
  0
SCALE
  5
51
102
{ACAD_REACTORS
330
47
102
}
330
47
100
AcDbScale
 70
     0
300
1:40
140
1.0
141
40.0
290
     0
  0
SCALE
  5
52
102
{ACAD_REACTORS
330
47
102
}
330
47
100
AcDbScale
 70
     0
300
1:50
140
1.0
141
50.0
290
     0
  0
SCALE
  5
53
102
{ACAD_REACTORS
330
47
102
}
330
47
100
AcDbScale
 70
     0
300
1:100
140
1.0
141
100.0
290
     0
  0
SCALE
  5
54
102
{ACAD_REACTORS
330
47
102
}
330
47
100
AcDbScale
 70
     0
300
2:1
140
2.0
141
1.0
290
     0
  0
SCALE
  5
55
102
{ACAD_REACTORS
330
47
102
}
330
47
100
AcDbScale
 70
     0
300
4:1
140
4.0
141
1.0
290
     0
  0
SCALE
  5
56
102
{ACAD_REACTORS
330
47
102
}
330
47
100
AcDbScale
 70
     0
300
8:1
140
8.0
141
1.0
290
     0
  0
SCALE
  5
57
102
{ACAD_REACTORS
330
47
102
}
330
47
100
AcDbScale
 70
     0
300
10:1
140
10.0
141
1.0
290
     0
  0
SCALE
  5
58
102
{ACAD_REACTORS
330
47
102
}
330
47
100
AcDbScale
 70
     0
300
100:1
140
100.0
141
1.0
290
     0
  0
SCALE
  5
59
102
{ACAD_REACTORS
330
47
102
}
330
47
100
AcDbScale
 70
     0
300
1/128" = 1'-0"
140
0.0078125
141
12.0
290
     0
  0
SCALE
  5
5A
102
{ACAD_REACTORS
330
47
102
}
330
47
100
AcDbScale
 70
     0
300
1/64" = 1'-0"
140
0.015625
141
12.0
290
     0
  0
SCALE
  5
5B
102
{ACAD_REACTORS
330
47
102
}
330
47
100
AcDbScale
 70
     0
300
1/32" = 1'-0"
140
0.03125
141
12.0
290
     0
  0
SCALE
  5
5C
102
{ACAD_REACTORS
330
47
102
}
330
47
100
AcDbScale
 70
     0
300
1/16" = 1'-0"
140
0.0625
141
12.0
290
     0
  0
SCALE
  5
5D
102
{ACAD_REACTORS
330
47
102
}
330
47
100
AcDbScale
 70
     0
300
3/32" = 1'-0"
140
0.09375
141
12.0
290
     0
  0
SCALE
  5
5E
102
{ACAD_REACTORS
330
47
102
}
330
47
100
AcDbScale
 70
     0
300
1/8" = 1'-0"
140
0.125
141
12.0
290
     0
  0
SCALE
  5
5F
102
{ACAD_REACTORS
330
47
102
}
330
47
100
AcDbScale
 70
     0
300
3/16" = 1'-0"
140
0.1875
141
12.0
290
     0
  0
SCALE
  5
60
102
{ACAD_REACTORS
330
47
102
}
330
47
100
AcDbScale
 70
     0
300
1/4" = 1'-0"
140
0.25
141
12.0
290
     0
  0
SCALE
  5
61
102
{ACAD_REACTORS
330
47
102
}
330
47
100
AcDbScale
 70
     0
300
3/8" = 1'-0"
140
0.375
141
12.0
290
     0
  0
SCALE
  5
62
102
{ACAD_REACTORS
330
47
102
}
330
47
100
AcDbScale
 70
     0
300
1/2" = 1'-0"
140
0.5
141
12.0
290
     0
  0
SCALE
  5
63
102
{ACAD_REACTORS
330
47
102
}
330
47
100
AcDbScale
 70
     0
300
3/4" = 1'-0"
140
0.75
141
12.0
290
     0
  0
SCALE
  5
64
102
{ACAD_REACTORS
330
47
102
}
330
47
100
AcDbScale
 70
     0
300
1" = 1'-0"
140
1.0
141
12.0
290
     0
  0
SCALE
  5
65
102
{ACAD_REACTORS
330
47
102
}
330
47
100
AcDbScale
 70
     0
300
1-1/2" = 1'-0"
140
1.5
141
12.0
290
     0
  0
SCALE
  5
66
102
{ACAD_REACTORS
330
47
102
}
330
47
100
AcDbScale
 70
     0
300
3" = 1'-0"
140
3.0
141
12.0
290
     0
  0
SCALE
  5
67
102
{ACAD_REACTORS
330
47
102
}
330
47
100
AcDbScale
 70
     0
300
6" = 1'-0"
140
6.0
141
12.0
290
     0
  0
SCALE
  5
68
102
{ACAD_REACTORS
330
47
102
}
330
47
100
AcDbScale
 70
     0
300
1'-0" = 1'-0"
140
12.0
141
12.0
290
     0
  0
ENDSEC
  0
EOF
