  0
SECTION
  2
HEADER
  9
$ACADVER
  1
AC1015
  9
$ACADMAINTVER
 70
     6
  9
$DWGCODEPAGE
  3
ANSI_1252
  9
$INSBASE
 10
0.0
 20
0.0
 30
0.0
  9
$EXTMIN
 10
0.0
 20
0.0
 30
0.0
  9
$EXTMAX
 10
2100.0
 20
1485.0
 30
0.0
  9
$LIMMIN
 10
0.0
 20
0.0
  9
$LIMMAX
 10
2100.0
 20
1485.0
  9
$ORTHOMODE
 70
     0
  9
$REGENMODE
 70
     1
  9
$FILLMODE
 70
     1
  9
$QTEXTMODE
 70
     0
  9
$MIRRTEXT
 70
     1
  9
$LTSCALE
 40
5.0
  9
$ATTMODE
 70
     1
  9
$TEXTSIZE
 40
12.5
  9
$TRACEWID
 40
1.0
  9
$TEXTSTYLE
  7
Standard
  9
$CLAYER
  8
0
  9
$CELTYPE
  6
ByLayer
  9
$CECOLOR
 62
   256
  9
$CELTSCALE
 40
1.0
  9
$DISPSILH
 70
     0
  9
$DIMSCALE
 40
1.0
  9
$DIMASZ
 40
12.5
  9
$DIMEXO
 40
0.0
  9
$DIMDLI
 40
3.75
  9
$DIMRND
 40
0.0
  9
$DIMDLE
 40
0.0
  9
$DIMEXE
 40
5.0
  9
$DIMTP
 40
0.0
  9
$DIMTM
 40
0.0
  9
$DIMTXT
 40
12.5
  9
$DIMCEN
 40
2.5
  9
$DIMTSZ
 40
0.0
  9
$DIMTOL
 70
     0
  9
$DIMLIM
 70
     0
  9
$DIMTIH
 70
     1
  9
$DIMTOH
 70
     1
  9
$DIMSE1
 70
     0
  9
$DIMSE2
 70
     0
  9
$DIMTAD
 70
     1
  9
$DIMZIN
 70
     0
  9
$DIMBLK
  1

  9
$DIMASO
 70
     1
  9
$DIMSHO
 70
     1
  9
$DIMPOST
  1

  9
$DIMAPOST
  1

  9
$DIMALT
 70
     0
  9
$DIMALTD
 70
     3
  9
$DIMALTF
 40
0.0393700787
  9
$DIMLFAC
 40
1.0
  9
$DIMTOFL
 70
     1
  9
$DIMTVP
 40
0.0
  9
$DIMTIX
 70
     0
  9
$DIMSOXD
 70
     0
  9
$DIMSAH
 70
     0
  9
$DIMBLK1
  1

  9
$DIMBLK2
  1

  9
$DIMSTYLE
  2
ISO-25
  9
$DIMCLRD
 70
     0
  9
$DIMCLRE
 70
     0
  9
$DIMCLRT
 70
     0
  9
$DIMTFAC
 40
1.0
  9
$DIMGAP
 40
7.62
  9
$DIMJUST
 70
     0
  9
$DIMSD1
 70
     0
  9
$DIMSD2
 70
     0
  9
$DIMTOLJ
 70
     0
  9
$DIMTZIN
 70
     0
  9
$DIMALTZ
 70
     0
  9
$DIMALTTZ
 70
     0
  9
$DIMUPT
 70
     0
  9
$DIMDEC
 70
     2
  9
$DIMTDEC
 70
     2
  9
$DIMALTU
 70
     2
  9
$DIMALTTD
 70
     3
  9
$DIMTXSTY
  7
Standard
  9
$DIMAUNIT
 70
     0
  9
$DIMADEC
 70
     2
  9
$DIMALTRND
 40
0.0
  9
$DIMAZIN
 70
     0
  9
$DIMDSEP
 70
    44
  9
$DIMATFIT
 70
     3
  9
$DIMFRAC
 70
     0
  9
$DIMLDRBLK
  1

  9
$DIMLUNIT
 70
     2
  9
$DIMLWD
 70
    -2
  9
$DIMLWE
 70
    -2
  9
$DIMTMOVE
 70
     0
  9
$LUNITS
 70
     2
  9
$LUPREC
 70
     1
  9
$SKETCHINC
 40
1.0
  9
$FILLETRAD
 40
10.0
  9
$AUNITS
 70
     0
  9
$AUPREC
 70
     2
  9
$MENU
  1
.
  9
$ELEVATION
 40
0.0
  9
$PELEVATION
 40
0.0
  9
$THICKNESS
 40
0.0
  9
$LIMCHECK
 70
     0
  9
$CHAMFERA
 40
0.0
  9
$CHAMFERB
 40
0.0
  9
$CHAMFERC
 40
0.0
  9
$CHAMFERD
 40
0.0
  9
$SKPOLY
 70
     0
  9
$TDCREATE
 40
2458907.508157431
  9
$TDUCREATE
 40
2458907.278990764
  9
$TDUPDATE
 40
2458907.508162859
  9
$TDUUPDATE
 40
2458907.278996192
  9
$TDINDWG
 40
0.0000000116
  9
$TDUSRTIMER
 40
0.0000000116
  9
$USRTIMER
 70
     1
  9
$ANGBASE
 50
0.0
  9
$ANGDIR
 70
     0
  9
$PDMODE
 70
     0
  9
$PDSIZE
 40
-1.0
  9
$PLINEWID
 40
0.0
  9
$SPLFRAME
 70
     0
  9
$SPLINETYPE
 70
     6
  9
$SPLINESEGS
 70
     8
  9
$HANDSEED
  5
397
  9
$SURFTAB1
 70
     6
  9
$SURFTAB2
 70
     6
  9
$SURFTYPE
 70
     6
  9
$SURFU
 70
     6
  9
$SURFV
 70
     6
  9
$UCSBASE
  2

  9
$UCSNAME
  2

  9
$UCSORG
 10
0.0
 20
0.0
 30
0.0
  9
$UCSXDIR
 10
1.0
 20
0.0
 30
0.0
  9
$UCSYDIR
 10
0.0
 20
1.0
 30
0.0
  9
$UCSORTHOREF
  2

  9
$UCSORTHOVIEW
 70
     0
  9
$UCSORGTOP
 10
0.0
 20
0.0
 30
0.0
  9
$UCSORGBOTTOM
 10
0.0
 20
0.0
 30
0.0
  9
$UCSORGLEFT
 10
0.0
 20
0.0
 30
0.0
  9
$UCSORGRIGHT
 10
0.0
 20
0.0
 30
0.0
  9
$UCSORGFRONT
 10
0.0
 20
0.0
 30
0.0
  9
$UCSORGBACK
 10
0.0
 20
0.0
 30
0.0
  9
$PUCSBASE
  2

  9
$PUCSNAME
  2

  9
$PUCSORG
 10
0.0
 20
0.0
 30
0.0
  9
$PUCSXDIR
 10
1.0
 20
0.0
 30
0.0
  9
$PUCSYDIR
 10
0.0
 20
1.0
 30
0.0
  9
$PUCSORTHOREF
  2

  9
$PUCSORTHOVIEW
 70
     0
  9
$PUCSORGTOP
 10
0.0
 20
0.0
 30
0.0
  9
$PUCSORGBOTTOM
 10
0.0
 20
0.0
 30
0.0
  9
$PUCSORGLEFT
 10
0.0
 20
0.0
 30
0.0
  9
$PUCSORGRIGHT
 10
0.0
 20
0.0
 30
0.0
  9
$PUCSORGFRONT
 10
0.0
 20
0.0
 30
0.0
  9
$PUCSORGBACK
 10
0.0
 20
0.0
 30
0.0
  9
$USERI1
 70
     0
  9
$USERI2
 70
     0
  9
$USERI3
 70
     0
  9
$USERI4
 70
     0
  9
$USERI5
 70
     0
  9
$USERR1
 40
0.0
  9
$USERR2
 40
0.0
  9
$USERR3
 40
0.0
  9
$USERR4
 40
0.0
  9
$USERR5
 40
0.0
  9
$WORLDVIEW
 70
     1
  9
$SHADEDGE
 70
     3
  9
$SHADEDIF
 70
    70
  9
$TILEMODE
 70
     1
  9
$MAXACTVP
 70
    64
  9
$PINSBASE
 10
0.0
 20
0.0
 30
0.0
  9
$PLIMCHECK
 70
     0
  9
$PEXTMIN
 10
1.0000000000E+20
 20
1.0000000000E+20
 30
1.0000000000E+20
  9
$PEXTMAX
 10
-1.0000000000E+20
 20
-1.0000000000E+20
 30
-1.0000000000E+20
  9
$PLIMMIN
 10
0.0
 20
0.0
  9
$PLIMMAX
 10
420.0
 20
297.0
  9
$UNITMODE
 70
     0
  9
$VISRETAIN
 70
     1
  9
$PLINEGEN
 70
     0
  9
$PSLTSCALE
 70
     1
  9
$TREEDEPTH
 70
  3020
  9
$CMLSTYLE
  2
Standard
  9
$CMLJUST
 70
     0
  9
$CMLSCALE
 40
20.0
  9
$PROXYGRAPHICS
 70
     1
  9
$MEASUREMENT
 70
     1
  9
$CELWEIGHT
370
    -1
  9
$ENDCAPS
280
     0
  9
$JOINSTYLE
280
     0
  9
$LWDISPLAY
290
     1
  9
$INSUNITS
 70
     4
  9
$HYPERLINKBASE
  1

  9
$STYLESHEET
  1

  9
$XEDIT
290
     1
  9
$CEPSNTYPE
380
     0
  9
$PSTYLEMODE
290
     1
  9
$FINGERPRINTGUID
  2
{7033065a-a2fb-43bb-9fd0-b13cedab68cf}
  9
$VERSIONGUID
  2
{FAEB1C32-E019-11D5-929B-00C0DF256EC4}
  9
$EXTNAMES
290
     1
  9
$PSVPSCALE
 40
0.0
  9
$OLESTARTUP
290
     0
  0
ENDSEC
  0
SECTION
  2
CLASSES
  0
CLASS
  1
ACDBDICTIONARYWDFLT
  2
AcDbDictionaryWithDefault
  3
ObjectDBX Classes
 90
        0
280
     0
281
     0
  0
CLASS
  1
VISUALSTYLE
  2
AcDbVisualStyle
  3
ObjectDBX Classes
 90
     4095
280
     0
281
     0
  0
CLASS
  1
MATERIAL
  2
AcDbMaterial
  3
ObjectDBX Classes
 90
     1153
280
     0
281
     0
  0
CLASS
  1
SCALE
  2
AcDbScale
  3
ObjectDBX Classes
 90
     1153
280
     0
281
     0
  0
CLASS
  1
TABLESTYLE
  2
AcDbTableStyle
  3
ObjectDBX Classes
 90
     4095
280
     0
281
     0
  0
CLASS
  1
MLEADERSTYLE
  2
AcDbMLeaderStyle
  3
ACDB_MLEADERSTYLE_CLASS
 90
     4095
280
     0
281
     0
  0
CLASS
  1
SUN
  2
AcDbSun
  3
SCENEOE
 90
     1153
280
     0
281
     0
  0
CLASS
  1
ACDBPLACEHOLDER
  2
AcDbPlaceHolder
  3
ObjectDBX Classes
 90
        0
280
     0
281
     0
  0
CLASS
  1
LAYOUT
  2
AcDbLayout
  3
ObjectDBX Classes
 90
        0
280
     0
281
     0
  0
ENDSEC
  0
SECTION
  2
TABLES
  0
TABLE
  2
VPORT
  5
8
330
0
100
AcDbSymbolTable
 70
     1
  0
VPORT
  5
29
330
8
100
AcDbSymbolTableRecord
100
AcDbViewportTableRecord
  2
*Active
 70
     0
 10
0.0
 20
0.0
 11
1.0
 21
1.0
 12
1050.0
 22
742.5
 13
0.0
 23
0.0
 14
10.0
 24
10.0
 15
10.0
 25
10.0
 16
0.0
 26
0.0
 36
1.0
 17
0.0
 27
0.0
 37
0.0
 40
1485.0
 41
1.4141414141
 42
50.0
 43
0.0
 44
0.0
 50
0.0
 51
0.0
 71
     0
 72
  2000
 73
     1
 74
     3
 75
     0
 76
     0
 77
     0
 78
     0
281
     0
 65
     1
110
0.0
120
0.0
130
0.0
111
1.0
121
0.0
131
0.0
112
0.0
122
1.0
132
0.0
 79
     0
146
0.0
  0
ENDTAB
  0
TABLE
  2
LTYPE
  5
5
330
0
100
AcDbSymbolTable
 70
     6
  0
LTYPE
  5
14
330
5
100
AcDbSymbolTableRecord
100
AcDbLinetypeTableRecord
  2
ByBlock
 70
     0
  3

 72
    65
 73
     0
 40
0.0
  0
LTYPE
  5
15
330
5
100
AcDbSymbolTableRecord
100
AcDbLinetypeTableRecord
  2
ByLayer
 70
     0
  3

 72
    65
 73
     0
 40
0.0
  0
LTYPE
  5
16
330
5
100
AcDbSymbolTableRecord
100
AcDbLinetypeTableRecord
  2
Continuous
 70
     0
  3
Solid line
 72
    65
 73
     0
 40
0.0
  0
LTYPE
  5
6E
330
5
100
AcDbSymbolTableRecord
100
AcDbLinetypeTableRecord
  2
HIDDEN
 70
     0
  3
Hidden __ __ __ __ __ __ __ __ __ __ __ __ __ __
 72
    65
 73
     2
 40
1.905
 49
1.27
 74
     0
 49
-0.635
 74
     0
  0
LTYPE
  5
6F
330
5
100
AcDbSymbolTableRecord
100
AcDbLinetypeTableRecord
  2
PHANTOM
 70
     0
  3
Phantom ______  __  __  ______  __  __  ______
 72
    65
 73
     6
 40
12.7
 49
6.35
 74
     0
 49
-1.27
 74
     0
 49
1.27
 74
     0
 49
-1.27
 74
     0
 49
1.27
 74
     0
 49
-1.27
 74
     0
  0
LTYPE
  5
70
330
5
100
AcDbSymbolTableRecord
100
AcDbLinetypeTableRecord
  2
CENTER
 70
     0
  3
Center ____ _ ____ _ ____ _ ____ _ ____ _ ____
 72
    65
 73
     4
 40
10.16
 49
6.35
 74
     0
 49
-1.27
 74
     0
 49
1.27
 74
     0
 49
-1.27
 74
     0
  0
LTYPE
  5
71
330
5
100
AcDbSymbolTableRecord
100
AcDbLinetypeTableRecord
  2
CENTERX2
 70
     0
  3
Center (2x) ________  __  ________  __  _____
 72
    65
 73
     4
 40
20.32
 49
12.7
 74
     0
 49
-2.54
 74
     0
 49
2.54
 74
     0
 49
-2.54
 74
     0
  0
LTYPE
  5
72
330
5
100
AcDbSymbolTableRecord
100
AcDbLinetypeTableRecord
  2
DOT2
 70
     0
  3
Dot (.5x) ........................................
 72
    65
 73
     2
 40
0.635
 49
0.0
 74
     0
 49
-0.635
 74
     0
  0
ENDTAB
  0
TABLE
  2
LAYER
  5
2
330
0
100
AcDbSymbolTable
 70
    10
  0
LAYER
  5
10
330
2
100
AcDbSymbolTableRecord
100
AcDbLayerTableRecord
  2
0
 70
     0
 62
     7
  6
Continuous
370
    -3
390
F
  0
LAYER
  5
73
330
2
100
AcDbSymbolTableRecord
100
AcDbLayerTableRecord
  2
DIMENSION
 70
     0
 62
     7
  6
Continuous
370
    -3
390
F
  0
LAYER
  5
74
330
2
100
AcDbSymbolTableRecord
100
AcDbLayerTableRecord
  2
NOTES
 70
     0
 62
     7
  6
Continuous
370
    -3
390
F
  0
LAYER
  5
75
330
2
100
AcDbSymbolTableRecord
100
AcDbLayerTableRecord
  2
TABLES
 70
     0
 62
     7
  6
Continuous
370
    -3
390
F
  0
LAYER
  5
76
330
2
100
AcDbSymbolTableRecord
100
AcDbLayerTableRecord
  2
INVISIBLE
 70
     0
 62
    -7
  6
Continuous
290
     0
370
    -3
390
F
  0
LAYER
  5
77
330
2
100
AcDbSymbolTableRecord
100
AcDbLayerTableRecord
  2
WEP
 70
     0
 62
  -150
  6
Continuous
290
     0
370
    -3
390
F
  0
LAYER
  5
78
330
2
100
AcDbSymbolTableRecord
100
AcDbLayerTableRecord
  2
EMP
 70
     0
 62
     1
  6
Continuous
370
    -3
390
F
  0
LAYER
  5
79
330
2
100
AcDbSymbolTableRecord
100
AcDbLayerTableRecord
  2
MARKETING_DRW
 70
     0
 62
    -7
  6
Continuous
290
     0
370
    -3
390
F
  0
LAYER
  5
7A
330
2
100
AcDbSymbolTableRecord
100
AcDbLayerTableRecord
  2
SINGLE_ARTICLE_DRW
 70
     0
 62
     7
  6
Continuous
370
    -3
390
F
  0
LAYER
  5
7B
330
2
100
AcDbSymbolTableRecord
100
AcDbLayerTableRecord
  2
TABLE_DRW
 70
     0
 62
    -7
  6
Continuous
290
     0
370
    -3
390
F
  0
ENDTAB
  0
TABLE
  2
STYLE
  5
3
330
0
100
AcDbSymbolTable
 70
     2
  0
STYLE
  5
11
330
3
100
AcDbSymbolTableRecord
100
AcDbTextStyleTableRecord
  2
Standard
 70
     0
 40
0.0
 41
1.0
 50
0.0
 71
     0
 42
12.5
  3
txt
  4

  0
STYLE
  5
B5
330
3
100
AcDbSymbolTableRecord
100
AcDbTextStyleTableRecord
  2
SLDTEXTSTYLE0
 70
     0
 40
0.0
 41
0.605
 50
0.0
 71
     0
 42
12.5
  3
TXT
  4

  0
ENDTAB
  0
TABLE
  2
VIEW
  5
6
330
0
100
AcDbSymbolTable
 70
     0
  0
ENDTAB
  0
TABLE
  2
UCS
  5
7
330
0
100
AcDbSymbolTable
 70
     0
  0
ENDTAB
  0
TABLE
  2
APPID
  5
9
330
0
100
AcDbSymbolTable
 70
     1
  0
APPID
  5
12
330
9
100
AcDbSymbolTableRecord
100
AcDbRegAppTableRecord
  2
ACAD
 70
     0
  0
ENDTAB
  0
TABLE
  2
DIMSTYLE
  5
A
330
0
100
AcDbSymbolTable
 70
     1
100
AcDbDimStyleTable
  0
DIMSTYLE
105
27
330
A
100
AcDbSymbolTableRecord
100
AcDbDimStyleTableRecord
  2
ISO-25
 70
     0
 41
2.5
 42
0.625
 43
3.75
 44
1.25
 73
     0
 74
     0
 77
     1
 78
     8
140
2.5
141
2.5
143
0.0393700787
147
0.625
171
     3
172
     1
178
     0
271
     2
272
     2
274
     3
278
    44
283
     0
284
     8
340
11
  0
ENDTAB
  0
TABLE
  2
BLOCK_RECORD
  5
1
330
0
100
AcDbSymbolTable
 70
     3
  0
BLOCK_RECORD
  5
1F
330
1
100
AcDbSymbolTableRecord
100
AcDbBlockTableRecord
  2
*Model_Space
340
22
  0
BLOCK_RECORD
  5
1B
330
1
100
AcDbSymbolTableRecord
100
AcDbBlockTableRecord
  2
*Paper_Space
340
1E
  0
BLOCK_RECORD
  5
23
330
1
100
AcDbSymbolTableRecord
100
AcDbBlockTableRecord
  2
*Paper_Space0
340
26
  0
BLOCK_RECORD
  5
BF
330
1
100
AcDbSymbolTableRecord
100
AcDbBlockTableRecord
  2
SW_NOTE_0
340
0
102
{BLKREFS
331
C5
102
}
  0
BLOCK_RECORD
  5
E8
330
1
100
AcDbSymbolTableRecord
100
AcDbBlockTableRecord
  2
SW_NOTE_0_1
340
0
102
{BLKREFS
331
EE
102
}
  0
ENDTAB
  0
ENDSEC
  0
SECTION
  2
BLOCKS
  0
BLOCK
  5
20
330
1F
100
AcDbEntity
  8
0
100
AcDbBlockBegin
  2
*Model_Space
 70
     0
 10
0.0
 20
0.0
 30
0.0
  3
*Model_Space
  1

  0
ENDBLK
  5
21
330
1F
100
AcDbEntity
  8
0
100
AcDbBlockEnd
  0
BLOCK
  5
1C
330
1B
100
AcDbEntity
 67
     1
  8
0
100
AcDbBlockBegin
  2
*Paper_Space
 70
     0
 10
0.0
 20
0.0
 30
0.0
  3
*Paper_Space
  1

  0
ENDBLK
  5
1D
330
1B
100
AcDbEntity
 67
     1
  8
0
100
AcDbBlockEnd
  0
BLOCK
  5
24
330
23
100
AcDbEntity
  8
0
100
AcDbBlockBegin
  2
*Paper_Space0
 70
     0
 10
0.0
 20
0.0
 30
0.0
  3
*Paper_Space0
  1

  0
ENDBLK
  5
25
330
23
100
AcDbEntity
  8
0
100
AcDbBlockEnd
  0
BLOCK
  5
C0
330
BF
100
AcDbEntity
  8
0
100
AcDbBlockBegin
  2
SW_NOTE_0
 70
     0
 10
0.0
 20
0.0
 30
0.0
  3
SW_NOTE_0
  1

  0
MTEXT
  5
C2
330
BF
100
AcDbEntity
  8
TABLE_DRW
 62
     0
100
AcDbMText
 10
0.0
 20
11.6016096579
 30
0.0
 40
9.0
 41
0.0
 71
     1
 72
     1
  1
The reproduction, distribution and utilization of this document as well as the communication of its contents to
  7
SLDTEXTSTYLE0
 73
     1
 44
1.0
  0
MTEXT
  5
C3
330
BF
100
AcDbEntity
  8
TABLE_DRW
 62
     0
100
AcDbMText
 10
0.0
 20
0.0016098055
 30
0.0
 40
9.0
 41
0.0
 71
     1
 72
     1
  1
others without express authorization is prohibited. Offenders will be held liable for the payment of damages.
  7
SLDTEXTSTYLE0
 73
     1
 44
1.0
  0
MTEXT
  5
C4
330
BF
100
AcDbEntity
  8
TABLE_DRW
 62
     0
100
AcDbMText
 10
0.0
 20
-11.598390047
 30
0.0
 40
9.0
 41
0.0
 71
     1
 72
     1
  1
All rights reserved in the event of the grant of a patent, utility model or design. Observe copyright by ISO 16016
  7
SLDTEXTSTYLE0
 73
     1
 44
1.0
  0
ENDBLK
  5
C1
330
BF
100
AcDbEntity
  8
0
100
AcDbBlockEnd
  0
BLOCK
  5
E9
330
E8
100
AcDbEntity
  8
0
100
AcDbBlockBegin
  2
SW_NOTE_0_1
 70
     0
 10
0.0
 20
0.0
 30
0.0
  3
SW_NOTE_0_1
  1

  0
MTEXT
  5
EB
330
E8
100
AcDbEntity
  8
MARKETING_DRW
 62
     0
100
AcDbMText
 10
0.0
 20
11.6016096579
 30
0.0
 40
9.0
 41
0.0
 71
     1
 72
     1
  1
The reproduction, distribution and utilization of this document as well as the communication of its contents to
  7
SLDTEXTSTYLE0
 73
     1
 44
1.0
  0
MTEXT
  5
EC
330
E8
100
AcDbEntity
  8
MARKETING_DRW
 62
     0
100
AcDbMText
 10
0.0
 20
-0.0233903849
 30
0.0
 40
9.0
 41
0.0
 71
     1
 72
     1
  1
others without express authorization is prohibited. Offenders will be held liable for the payment of damages.
  7
SLDTEXTSTYLE0
 73
     1
 44
1.0
  0
MTEXT
  5
ED
330
E8
100
AcDbEntity
  8
MARKETING_DRW
 62
     0
100
AcDbMText
 10
0.0
 20
-11.6483904277
 30
0.0
 40
9.0
 41
0.0
 71
     1
 72
     1
  1
All rights reserved in the event of the grant of a patent, utility model or design. Observe copyright by ISO 16016
  7
SLDTEXTSTYLE0
 73
     1
 44
1.0
  0
ENDBLK
  5
EA
330
E8
100
AcDbEntity
  8
0
100
AcDbBlockEnd
  0
ENDSEC
  0
SECTION
  2
ENTITIES
  0
LINE
  5
7C
330
1F
100
AcDbEntity
  8
TABLE_DRW
  6
CENTERX2
 62
     7
100
AcDbLine
 10
1955.0
 20
200.0
 30
0.0
 11
1980.0
 21
200.0
 31
0.0
  0
LINE
  5
7D
330
1F
100
AcDbEntity
  8
TABLE_DRW
  6
CENTERX2
 62
     7
100
AcDbLine
 10
1967.5
 20
212.5
 30
0.0
 11
1967.5
 21
187.5
 31
0.0
  0
LINE
  5
7E
330
1F
100
AcDbEntity
  8
TABLE_DRW
  6
CENTERX2
 62
     7
100
AcDbLine
 10
1915.0
 20
200.0
 30
0.0
 11
1950.0
 21
200.0
 31
0.0
  0
LINE
  5
7F
330
1F
100
AcDbEntity
  8
TABLE_DRW
 62
     7
100
AcDbLine
 10
1920.0
 20
194.95
 30
0.0
 11
1945.0
 21
190.0
 31
0.0
  0
LINE
  5
80
330
1F
100
AcDbEntity
  8
TABLE_DRW
 62
     7
100
AcDbLine
 10
1920.0
 20
205.05
 30
0.0
 11
1920.0
 21
194.95
 31
0.0
  0
LINE
  5
81
330
1F
100
AcDbEntity
  8
TABLE_DRW
 62
     7
100
AcDbLine
 10
1945.0
 20
210.0
 30
0.0
 11
1920.0
 21
205.05
 31
0.0
  0
LINE
  5
82
330
1F
100
AcDbEntity
  8
TABLE_DRW
 62
     7
100
AcDbLine
 10
1945.0
 20
190.0
 30
0.0
 11
1945.0
 21
210.0
 31
0.0
  0
LINE
  5
83
330
1F
100
AcDbEntity
  8
TABLE_DRW
 62
     7
100
AcDbLine
 10
2050.0
 20
50.0
 30
0.0
 11
2050.0
 21
340.0
 31
0.0
  0
LINE
  5
84
330
1F
100
AcDbEntity
  8
TABLE_DRW
 62
     7
100
AcDbLine
 10
1150.0
 20
340.0
 30
0.0
 11
1150.0
 21
50.0
 31
0.0
  0
LINE
  5
85
330
1F
100
AcDbEntity
  8
TABLE_DRW
 62
     7
100
AcDbLine
 10
1700.0
 20
95.0
 30
0.0
 11
1700.0
 21
50.0
 31
0.0
  0
LINE
  5
86
330
1F
100
AcDbEntity
  8
TABLE_DRW
 62
     7
100
AcDbLine
 10
1850.0
 20
50.0
 30
0.0
 11
1850.0
 21
95.0
 31
0.0
  0
LINE
  5
87
330
1F
100
AcDbEntity
  8
TABLE_DRW
 62
     7
100
AcDbLine
 10
2000.0
 20
95.0
 30
0.0
 11
2000.0
 21
50.0
 31
0.0
  0
LINE
  5
88
330
1F
100
AcDbEntity
  8
TABLE_DRW
 62
     7
100
AcDbLine
 10
1900.0
 20
320.0
 30
0.0
 11
1900.0
 21
185.0
 31
0.0
  0
LINE
  5
89
330
1F
100
AcDbEntity
  8
TABLE_DRW
 62
     7
100
AcDbLine
 10
2050.0
 20
320.0
 30
0.0
 11
1150.0
 21
320.0
 31
0.0
  0
LINE
  5
8A
330
1F
100
AcDbEntity
  8
TABLE_DRW
 62
     7
100
AcDbLine
 10
1800.0
 20
95.0
 30
0.0
 11
1800.0
 21
50.0
 31
0.0
  0
LINE
  5
8B
330
1F
100
AcDbEntity
  8
TABLE_DRW
 62
     7
100
AcDbLine
 10
2050.0
 20
275.0
 30
0.0
 11
1400.0
 21
275.0
 31
0.0
  0
LINE
  5
8C
330
1F
100
AcDbEntity
  8
TABLE_DRW
 62
     7
100
AcDbLine
 10
1650.0
 20
230.0
 30
0.0
 11
1650.0
 21
185.0
 31
0.0
  0
LINE
  5
8D
330
1F
100
AcDbEntity
  8
TABLE_DRW
 62
     7
100
AcDbLine
 10
2050.0
 20
230.0
 30
0.0
 11
1400.0
 21
230.0
 31
0.0
  0
LINE
  5
8E
330
1F
100
AcDbEntity
  8
TABLE_DRW
 62
     7
100
AcDbLine
 10
1400.0
 20
320.0
 30
0.0
 11
1400.0
 21
185.0
 31
0.0
  0
LINE
  5
8F
330
1F
100
AcDbEntity
  8
TABLE_DRW
 62
     7
100
AcDbLine
 10
2000.0
 20
230.0
 30
0.0
 11
2000.0
 21
185.0
 31
0.0
  0
LINE
  5
90
330
1F
100
AcDbEntity
  8
TABLE_DRW
 62
     7
100
AcDbLine
 10
2050.0
 20
95.0
 30
0.0
 11
1150.0
 21
95.0
 31
0.0
  0
LINE
  5
91
330
1F
100
AcDbEntity
  8
TABLE_DRW
 62
     7
100
AcDbLine
 10
1650.0
 20
275.0
 30
0.0
 11
1650.0
 21
320.0
 31
0.0
  0
LINE
  5
92
330
1F
100
AcDbEntity
  8
TABLE_DRW
 62
     7
100
AcDbLine
 10
1150.0
 20
340.0
 30
0.0
 11
2050.0
 21
340.0
 31
0.0
  0
LINE
  5
93
330
1F
100
AcDbEntity
  8
TABLE_DRW
 62
     7
100
AcDbLine
 10
1150.0
 20
185.0
 30
0.0
 11
2050.0
 21
185.0
 31
0.0
  0
LINE
  5
94
330
1F
100
AcDbEntity
  8
TABLE_DRW
 62
     7
100
AcDbLine
 10
1150.0
 20
50.0
 30
0.0
 11
2050.0
 21
50.0
 31
0.0
  0
LINE
  5
95
330
1F
100
AcDbEntity
  8
TABLE_DRW
 62
     7
100
AcDbLine
 10
1400.0
 20
275.0
 30
0.0
 11
1150.0
 21
275.0
 31
0.0
  0
LINE
  5
96
330
1F
100
AcDbEntity
  8
MARKETING_DRW
  6
CENTERX2
100
AcDbLine
 10
1955.0
 20
200.0
 30
0.0
 11
1980.0
 21
200.0
 31
0.0
  0
LINE
  5
97
330
1F
100
AcDbEntity
  8
MARKETING_DRW
  6
CENTERX2
100
AcDbLine
 10
1967.5
 20
212.5
 30
0.0
 11
1967.5
 21
187.5
 31
0.0
  0
LINE
  5
98
330
1F
100
AcDbEntity
  8
MARKETING_DRW
  6
CENTERX2
100
AcDbLine
 10
1915.0
 20
200.0
 30
0.0
 11
1950.0
 21
200.0
 31
0.0
  0
LINE
  5
99
330
1F
100
AcDbEntity
  8
MARKETING_DRW
100
AcDbLine
 10
1920.0
 20
194.95
 30
0.0
 11
1945.0
 21
190.0
 31
0.0
  0
LINE
  5
9A
330
1F
100
AcDbEntity
  8
MARKETING_DRW
100
AcDbLine
 10
1920.0
 20
205.05
 30
0.0
 11
1920.0
 21
194.95
 31
0.0
  0
LINE
  5
9B
330
1F
100
AcDbEntity
  8
MARKETING_DRW
100
AcDbLine
 10
1945.0
 20
210.0
 30
0.0
 11
1920.0
 21
205.05
 31
0.0
  0
LINE
  5
9C
330
1F
100
AcDbEntity
  8
MARKETING_DRW
100
AcDbLine
 10
1945.0
 20
190.0
 30
0.0
 11
1945.0
 21
210.0
 31
0.0
  0
LINE
  5
9D
330
1F
100
AcDbEntity
  8
MARKETING_DRW
100
AcDbLine
 10
2050.0
 20
50.0
 30
0.0
 11
2050.0
 21
230.0
 31
0.0
  0
LINE
  5
9E
330
1F
100
AcDbEntity
  8
MARKETING_DRW
100
AcDbLine
 10
1150.0
 20
50.0
 30
0.0
 11
2050.0
 21
50.0
 31
0.0
  0
LINE
  5
9F
330
1F
100
AcDbEntity
  8
MARKETING_DRW
100
AcDbLine
 10
1150.0
 20
275.0
 30
0.0
 11
1150.0
 21
50.0
 31
0.0
  0
LINE
  5
A0
330
1F
100
AcDbEntity
  8
MARKETING_DRW
100
AcDbLine
 10
1150.0
 20
275.0
 30
0.0
 11
1650.0
 21
275.0
 31
0.0
  0
LINE
  5
A1
330
1F
100
AcDbEntity
  8
MARKETING_DRW
 62
     7
100
AcDbLine
 10
1850.0
 20
50.0
 30
0.0
 11
1850.0
 21
95.0
 31
0.0
  0
LINE
  5
A2
330
1F
100
AcDbEntity
  8
MARKETING_DRW
100
AcDbLine
 10
2000.0
 20
95.0
 30
0.0
 11
2000.0
 21
50.0
 31
0.0
  0
LINE
  5
A3
330
1F
100
AcDbEntity
  8
MARKETING_DRW
100
AcDbLine
 10
1650.0
 20
275.0
 30
0.0
 11
1650.0
 21
230.0
 31
0.0
  0
LINE
  5
A4
330
1F
100
AcDbEntity
  8
MARKETING_DRW
100
AcDbLine
 10
2050.0
 20
230.0
 30
0.0
 11
1400.0
 21
230.0
 31
0.0
  0
LINE
  5
A5
330
1F
100
AcDbEntity
  8
MARKETING_DRW
100
AcDbLine
 10
1400.0
 20
275.0
 30
0.0
 11
1400.0
 21
185.0
 31
0.0
  0
LINE
  5
A6
330
1F
100
AcDbEntity
  8
MARKETING_DRW
100
AcDbLine
 10
2000.0
 20
230.0
 30
0.0
 11
2000.0
 21
185.0
 31
0.0
  0
LINE
  5
A7
330
1F
100
AcDbEntity
  8
MARKETING_DRW
100
AcDbLine
 10
2050.0
 20
95.0
 30
0.0
 11
1150.0
 21
95.0
 31
0.0
  0
LINE
  5
A8
330
1F
100
AcDbEntity
  8
MARKETING_DRW
100
AcDbLine
 10
1150.0
 20
185.0
 30
0.0
 11
2050.0
 21
185.0
 31
0.0
  0
LINE
  5
A9
330
1F
100
AcDbEntity
  8
MARKETING_DRW
100
AcDbLine
 10
1150.0
 20
50.0
 30
0.0
 11
2050.0
 21
50.0
 31
0.0
  0
LINE
  5
AA
330
1F
100
AcDbEntity
  8
MARKETING_DRW
100
AcDbLine
 10
1900.0
 20
230.0
 30
0.0
 11
1900.0
 21
185.0
 31
0.0
  0
LINE
  5
AB
330
1F
100
AcDbEntity
  8
MARKETING_DRW
100
AcDbLine
 10
1650.0
 20
275.0
 30
0.0
 11
1900.0
 21
275.0
 31
0.0
  0
LINE
  5
AC
330
1F
100
AcDbEntity
  8
MARKETING_DRW
100
AcDbLine
 10
1900.0
 20
275.0
 30
0.0
 11
1900.0
 21
230.0
 31
0.0
  0
LINE
  5
AD
330
1F
100
AcDbEntity
  8
MARKETING_DRW
100
AcDbLine
 10
1900.0
 20
275.0
 30
0.0
 11
2050.0
 21
275.0
 31
0.0
  0
LINE
  5
AE
330
1F
100
AcDbEntity
  8
MARKETING_DRW
100
AcDbLine
 10
2050.0
 20
275.0
 30
0.0
 11
2050.0
 21
230.0
 31
0.0
  0
LINE
  5
AF
330
1F
100
AcDbEntity
  8
MARKETING_DRW
100
AcDbLine
 10
1825.0
 20
275.0
 30
0.0
 11
1825.0
 21
230.0
 31
0.0
  0
LINE
  5
B0
330
1F
100
AcDbEntity
  8
MARKETING_DRW
100
AcDbLine
 10
1650.0
 20
230.0
 30
0.0
 11
1650.0
 21
185.0
 31
0.0
  0
CIRCLE
  5
B1
330
1F
100
AcDbEntity
  8
TABLE_DRW
 62
     7
100
AcDbCircle
 10
1967.5
 20
200.0
 30
0.0
 40
5.000000000000224
  0
CIRCLE
  5
B2
330
1F
100
AcDbEntity
  8
TABLE_DRW
 62
     7
100
AcDbCircle
 10
1967.5
 20
200.0
 30
0.0
 40
10.00000000000024
  0
CIRCLE
  5
B3
330
1F
100
AcDbEntity
  8
MARKETING_DRW
100
AcDbCircle
 10
1967.5
 20
200.0
 30
0.0
 40
5.000000000000224
  0
CIRCLE
  5
B4
330
1F
100
AcDbEntity
  8
MARKETING_DRW
100
AcDbCircle
 10
1967.5
 20
200.0
 30
0.0
 40
10.00000000000024
  0
MTEXT
  5
B6
330
1F
100
AcDbEntity
  8
TABLE_DRW
100
AcDbMText
 10
1905.0
 20
294.9675136777
 30
0.0
 40
12.5
 41
0.0
 71
     1
 72
     1
  1
see table
  7
SLDTEXTSTYLE0
 73
     1
 44
1.0
  0
MTEXT
  5
B7
330
1F
100
AcDbEntity
  8
TABLE_DRW
100
AcDbMText
 10
1155.0
 20
334.9766099061
 30
0.0
 40
9.0
 41
0.0
 71
     1
 72
     1
  1
modification:
  7
SLDTEXTSTYLE0
 73
     1
 44
1.0
  0
MTEXT
  5
B8
330
1F
100
AcDbEntity
  8
TABLE_DRW
100
AcDbMText
 10
1405.0
 20
249.9675136777
 30
0.0
 40
12.5
 41
0.0
 71
     1
 72
     1
  1
see table
  7
SLDTEXTSTYLE0
 73
     1
 44
1.0
  0
MTEXT
  5
B9
330
1F
100
AcDbEntity
  8
TABLE_DRW
100
AcDbMText
 10
1155.0
 20
159.9675136777
 30
0.0
 40
12.5
 41
0.0
 71
     1
 72
     1
  1
ACO ShowerDrain
  7
SLDTEXTSTYLE0
 73
     1
 44
1.0
  0
MTEXT
  5
BA
330
1F
100
AcDbEntity
  8
TABLE_DRW
100
AcDbMText
 10
1824.7395830229
 20
69.9675136777
 30
0.0
 40
12.5
 41
0.0
 71
     2
 72
     1
  1
001
  7
SLDTEXTSTYLE0
 73
     1
 44
1.0
  0
MTEXT
  5
BB
330
1F
100
AcDbEntity
  8
TABLE_DRW
100
AcDbMText
 10
1749.0407964215
 20
69.9675136777
 30
0.0
 40
12.5
 41
0.0
 71
     2
 72
     1
  1
1088279-O
  7
SLDTEXTSTYLE0
 73
     1
 44
1.0
  0
MTEXT
  5
BC
330
1F
100
AcDbEntity
  8
TABLE_DRW
100
AcDbMText
 10
1155.0
 20
295.0022357116
 30
0.0
 40
12.5
 41
0.0
 71
     1
 72
     1
  1
Bohms, Michael
  7
SLDTEXTSTYLE0
 73
     1
 44
1.0
  0
MTEXT
  5
BD
330
1F
100
AcDbEntity
  8
TABLE_DRW
100
AcDbMText
 10
1155.0
 20
137.4675136777
 30
0.0
 40
12.5
 41
0.0
 71
     1
 72
     1
  1
ASM Shower Channel C with WA and gap, with DN40 side outlet, with FAT GV25 L680, International
  7
SLDTEXTSTYLE0
 73
     1
 44
1.0
  0
MTEXT
  5
BE
330
1F
100
AcDbEntity
  8
TABLE_DRW
100
AcDbMText
 10
1155.0
 20
114.9675136777
 30
0.0
 40
12.5
 41
0.0
 71
     1
 72
     1
  1
ZB Duschrinne C mit Spalt, mit Wandaufkantung, mit DN40 Seite Auslass, mit FAT GV25 L680, International
  7
SLDTEXTSTYLE0
 73
     1
 44
1.0
  0
INSERT
  5
C5
330
1F
100
AcDbEntity
  8
TABLE_DRW
100
AcDbBlockReference
  2
SW_NOTE_0
 10
1155.0
 20
78.4000001475
 30
0.0
  0
MTEXT
  5
C6
330
1F
100
AcDbEntity
  8
TABLE_DRW
100
AcDbMText
 10
1405.0
 20
224.9766099061
 30
0.0
 40
9.0
 41
0.0
 71
     1
 72
     1
  1
created by:
  7
SLDTEXTSTYLE0
 73
     1
 44
1.0
  0
MTEXT
  5
C7
330
1F
100
AcDbEntity
  8
TABLE_DRW
100
AcDbMText
 10
1655.0
 20
314.9766099061
 30
0.0
 40
9.0
 41
0.0
 71
     1
 72
     1
  1
surface:
  7
SLDTEXTSTYLE0
 73
     1
 44
1.0
  0
MTEXT
  5
C8
330
1F
100
AcDbEntity
  8
TABLE_DRW
100
AcDbMText
 10
2024.8750000875
 20
224.9766099061
 30
0.0
 40
9.0
 41
0.0
 71
     2
 72
     1
  1
scale:
  7
SLDTEXTSTYLE0
 73
     1
 44
1.0
  0
MTEXT
  5
C9
330
1F
100
AcDbEntity
  8
TABLE_DRW
100
AcDbMText
 10
1905.0
 20
314.9766099061
 30
0.0
 40
9.0
 41
0.0
 71
     1
 72
     1
  1
weight:
  7
SLDTEXTSTYLE0
 73
     1
 44
1.0
  0
MTEXT
  5
CA
330
1F
100
AcDbEntity
  8
TABLE_DRW
100
AcDbMText
 10
1749.034373872
 20
89.9766099061
 30
0.0
 40
9.0
 41
0.0
 71
     2
 72
     1
  1
drawing-no.:
  7
SLDTEXTSTYLE0
 73
     1
 44
1.0
  0
MTEXT
  5
CB
330
1F
100
AcDbEntity
  8
TABLE_DRW
100
AcDbMText
 10
1905.0
 20
269.9766099061
 30
0.0
 40
9.0
 41
0.0
 71
     1
 72
     1
  1
documenttype:
  7
SLDTEXTSTYLE0
 73
     1
 44
1.0
  0
MTEXT
  5
CC
330
1F
100
AcDbEntity
  8
TABLE_DRW
100
AcDbMText
 10
1824.8125000894
 20
89.9766099061
 30
0.0
 40
9.0
 41
0.0
 71
     2
 72
     1
  1
index:
  7
SLDTEXTSTYLE0
 73
     1
 44
1.0
  0
MTEXT
  5
CD
330
1F
100
AcDbEntity
  8
TABLE_DRW
100
AcDbMText
 10
1655.0
 20
224.9766099061
 30
0.0
 40
9.0
 41
0.0
 71
     1
 72
     1
  1
reviewed by:
  7
SLDTEXTSTYLE0
 73
     1
 44
1.0
  0
MTEXT
  5
CE
330
1F
100
AcDbEntity
  8
TABLE_DRW
100
AcDbMText
 10
1855.0
 20
89.9766099061
 30
0.0
 40
9.0
 41
0.0
 71
     1
 72
     1
  1
release date:
  7
SLDTEXTSTYLE0
 73
     1
 44
1.0
  0
MTEXT
  5
CF
330
1F
100
AcDbEntity
  8
TABLE_DRW
100
AcDbMText
 10
2024.7500000913
 20
89.9766099061
 30
0.0
 40
9.0
 41
0.0
 71
     2
 72
     1
  1
sheet:
  7
SLDTEXTSTYLE0
 73
     1
 44
1.0
  0
MTEXT
  5
D0
330
1F
100
AcDbEntity
  8
TABLE_DRW
100
AcDbMText
 10
1905.0
 20
224.9766099061
 30
0.0
 40
9.0
 41
0.0
 71
     1
 72
     1
  1
projection:ISO-E
  7
SLDTEXTSTYLE0
 73
     1
 44
1.0
  0
MTEXT
  5
D1
330
1F
100
AcDbEntity
  8
TABLE_DRW
100
AcDbMText
 10
1405.0
 20
269.9766099061
 30
0.0
 40
9.0
 41
0.0
 71
     1
 72
     1
  1
material:
  7
SLDTEXTSTYLE0
 73
     1
 44
1.0
  0
MTEXT
  5
D2
330
1F
100
AcDbEntity
  8
TABLE_DRW
100
AcDbMText
 10
1905.0
 20
249.9675136777
 30
0.0
 40
12.5
 41
0.0
 71
     1
 72
     1
  1
production drw.
  7
SLDTEXTSTYLE0
 73
     1
 44
1.0
  0
MTEXT
  5
D3
330
1F
100
AcDbEntity
  8
TABLE_DRW
100
AcDbMText
 10
1405.0
 20
314.9766099061
 30
0.0
 40
9.0
 41
0.0
 71
     1
 72
     1
  1
general tolerance:
  7
SLDTEXTSTYLE0
 73
     1
 44
1.0
  0
MTEXT
  5
D4
330
1F
100
AcDbEntity
  8
TABLE_DRW
100
AcDbMText
 10
2024.7829862405
 20
204.9675136777
 30
0.0
 40
12.5
 41
0.0
 71
     2
 72
     1
  1
1:5
  7
SLDTEXTSTYLE0
 73
     1
 44
1.0
  0
MTEXT
  5
D5
330
1F
100
AcDbEntity
  8
TABLE_DRW
100
AcDbMText
 10
2024.7829862405
 20
69.9675136777
 30
0.0
 40
12.5
 41
0.0
 71
     2
 72
     1
  1
1/1
  7
SLDTEXTSTYLE0
 73
     1
 44
1.0
  0
MTEXT
  5
D6
330
1F
100
AcDbEntity
  8
TABLE_DRW
100
AcDbMText
 10
1155.0
 20
314.9766099061
 30
0.0
 40
9.0
 41
0.0
 71
     1
 72
     1
  1
technical reference:
  7
SLDTEXTSTYLE0
 73
     1
 44
1.0
  0
MTEXT
  5
D7
330
1F
100
AcDbEntity
  8
TABLE_DRW
100
AcDbMText
 10
1155.0
 20
179.9766099061
 30
0.0
 40
9.0
 41
0.0
 71
     1
 72
     1
  1
title:
  7
SLDTEXTSTYLE0
 73
     1
 44
1.0
  0
MTEXT
  5
D8
330
1F
100
AcDbEntity
  8
MARKETING_DRW
100
AcDbMText
 10
1155.0
 20
114.9675136777
 30
0.0
 40
12.5
 41
0.0
 71
     1
 72
     1
  1
ZB Duschrinne C mit Spalt, mit Wandaufkantung, mit DN40 Seite Auslass, mit FAT GV25 L680, International
  7
SLDTEXTSTYLE0
 73
     1
 44
1.0
  0
MTEXT
  5
D9
330
1F
100
AcDbEntity
  8
MARKETING_DRW
100
AcDbMText
 10
1155.0
 20
137.4675136777
 30
0.0
 40
12.5
 41
0.0
 71
     1
 72
     1
  1
ASM Shower Channel C with WA and gap, with DN40 side outlet, with FAT GV25 L680, International
  7
SLDTEXTSTYLE0
 73
     1
 44
1.0
  0
MTEXT
  5
DA
330
1F
100
AcDbEntity
  8
MARKETING_DRW
100
AcDbMText
 10
1736.5407964215
 20
249.9675136777
 30
0.0
 40
12.5
 41
0.0
 71
     2
 72
     1
  1
1088279-O
  7
SLDTEXTSTYLE0
 73
     1
 44
1.0
  0
MTEXT
  5
DB
330
1F
100
AcDbEntity
  8
MARKETING_DRW
100
AcDbMText
 10
1862.2395830229
 20
252.0971433073
 30
0.0
 40
12.5
 41
0.0
 71
     2
 72
     1
  1
001
  7
SLDTEXTSTYLE0
 73
     1
 44
1.0
  0
MTEXT
  5
DC
330
1F
100
AcDbEntity
  8
MARKETING_DRW
100
AcDbMText
 10
1155.0
 20
159.9675136777
 30
0.0
 40
12.5
 41
0.0
 71
     1
 72
     1
  1
ACO ShowerDrain
  7
SLDTEXTSTYLE0
 73
     1
 44
1.0
  0
MTEXT
  5
DD
330
1F
100
AcDbEntity
  8
MARKETING_DRW
100
AcDbMText
 10
1905.0
 20
269.9766099061
 30
0.0
 40
9.0
 41
0.0
 71
     1
 72
     1
  1
documenttype:
  7
SLDTEXTSTYLE0
 73
     1
 44
1.0
  0
MTEXT
  5
DE
330
1F
100
AcDbEntity
  8
MARKETING_DRW
100
AcDbMText
 10
1655.0
 20
224.9766099061
 30
0.0
 40
9.0
 41
0.0
 71
     1
 72
     1
  1
reviewed by:
  7
SLDTEXTSTYLE0
 73
     1
 44
1.0
  0
MTEXT
  5
DF
330
1F
100
AcDbEntity
  8
MARKETING_DRW
100
AcDbMText
 10
1736.534373872
 20
270.0578764559
 30
0.0
 40
9.0
 41
0.0
 71
     2
 72
     1
  1
drawing-no.:
  7
SLDTEXTSTYLE0
 73
     1
 44
1.0
  0
MTEXT
  5
E0
330
1F
100
AcDbEntity
  8
MARKETING_DRW
100
AcDbMText
 10
1905.0
 20
224.9766099061
 30
0.0
 40
9.0
 41
0.0
 71
     1
 72
     1
  1
projection:ISO-E
  7
SLDTEXTSTYLE0
 73
     1
 44
1.0
  0
MTEXT
  5
E1
330
1F
100
AcDbEntity
  8
MARKETING_DRW
100
AcDbMText
 10
2024.7500000913
 20
89.9766099061
 30
0.0
 40
9.0
 41
0.0
 71
     2
 72
     1
  1
sheet:
  7
SLDTEXTSTYLE0
 73
     1
 44
1.0
  0
MTEXT
  5
E2
330
1F
100
AcDbEntity
  8
MARKETING_DRW
100
AcDbMText
 10
2024.7829862405
 20
69.9675136777
 30
0.0
 40
12.5
 41
0.0
 71
     2
 72
     1
  1
1/1
  7
SLDTEXTSTYLE0
 73
     1
 44
1.0
  0
MTEXT
  5
E3
330
1F
100
AcDbEntity
  8
MARKETING_DRW
100
AcDbMText
 10
1855.0
 20
89.9766099061
 30
0.0
 40
9.0
 41
0.0
 71
     1
 72
     1
  1
release date:
  7
SLDTEXTSTYLE0
 73
     1
 44
1.0
  0
MTEXT
  5
E4
330
1F
100
AcDbEntity
  8
MARKETING_DRW
100
AcDbMText
 10
1862.3125000894
 20
269.9766099061
 30
0.0
 40
9.0
 41
0.0
 71
     2
 72
     1
  1
index:
  7
SLDTEXTSTYLE0
 73
     1
 44
1.0
  0
MTEXT
  5
E5
330
1F
100
AcDbEntity
  8
MARKETING_DRW
100
AcDbMText
 10
1155.0
 20
179.9766099061
 30
0.0
 40
9.0
 41
0.0
 71
     1
 72
     1
  1
title:
  7
SLDTEXTSTYLE0
 73
     1
 44
1.0
  0
MTEXT
  5
E6
330
1F
100
AcDbEntity
  8
MARKETING_DRW
100
AcDbMText
 10
2024.8750000875
 20
224.9766099061
 30
0.0
 40
9.0
 41
0.0
 71
     2
 72
     1
  1
scale:
  7
SLDTEXTSTYLE0
 73
     1
 44
1.0
  0
MTEXT
  5
E7
330
1F
100
AcDbEntity
  8
MARKETING_DRW
100
AcDbMText
 10
2024.7829862405
 20
204.9675136777
 30
0.0
 40
12.5
 41
0.0
 71
     2
 72
     1
  1
1:5
  7
SLDTEXTSTYLE0
 73
     1
 44
1.0
  0
INSERT
  5
EE
330
1F
100
AcDbEntity
  8
MARKETING_DRW
100
AcDbBlockReference
  2
SW_NOTE_0_1
 10
1155.0
 20
78.3750002482
 30
0.0
  0
MTEXT
  5
EF
330
1F
100
AcDbEntity
  8
MARKETING_DRW
100
AcDbMText
 10
1905.0
 20
249.9675136777
 30
0.0
 40
12.5
 41
0.0
 71
     1
 72
     1
  1
marketing drw.
  7
SLDTEXTSTYLE0
 73
     1
 44
1.0
  0
MTEXT
  5
F0
330
1F
100
AcDbEntity
  8
MARKETING_DRW
100
AcDbMText
 10
1405.0
 20
224.9766099061
 30
0.0
 40
9.0
 41
0.0
 71
     1
 72
     1
  1
created by:
  7
SLDTEXTSTYLE0
 73
     1
 44
1.0
  0
LINE
  5
F1
330
1F
100
AcDbEntity
  8
0
  6
Continuous
 62
     7
370
    35
100
AcDbLine
 10
1272.0546682673
 20
998.6112793807
 30
0.0
 11
592.0546682673
 21
998.6112793807
 31
0.0
  0
LINE
  5
F2
330
1F
100
AcDbEntity
  8
0
  6
Continuous
 62
     7
370
    35
100
AcDbLine
 10
851.0546682673
 20
978.5197236188
 30
0.0
 11
851.0546682673
 21
975.6116793807
 31
0.0
  0
LINE
  5
F3
330
1F
100
AcDbEntity
  8
0
  6
Continuous
 62
     7
370
    35
100
AcDbLine
 10
1013.0546682673
 20
975.6116793807
 30
0.0
 11
1013.0546682673
 21
978.5197236188
 31
0.0
  0
ARC
  5
F4
330
1F
100
AcDbEntity
  8
0
  6
Continuous
 62
     7
370
    35
100
AcDbCircle
 10
849.0546682673
 20
978.513290301
 30
0.0
 40
2.00000000000007
100
AcDbArc
 50
0.1603835477
 51
88.7916387136
  0
ARC
  5
F5
330
1F
100
AcDbEntity
  8
0
  6
Continuous
 62
     7
370
    35
100
AcDbCircle
 10
1015.0546682673
 20
978.513290301
 30
0.0
 40
2.000000000000099
100
AcDbArc
 50
91.1928878275
 51
179.8251412338
  0
LINE
  5
F6
330
1F
100
AcDbEntity
  8
0
  6
Continuous
 62
     7
370
    35
100
AcDbLine
 10
1015.0138474552
 20
980.512890301
 30
0.0
 11
1272.0546682673
 21
980.512890301
 31
0.0
  0
LINE
  5
F7
330
1F
100
AcDbEntity
  8
0
  6
Continuous
 62
     7
370
    35
100
AcDbLine
 10
592.0546682673
 20
980.512890301
 30
0.0
 11
849.0954890792
 21
980.512890301
 31
0.0
  0
LINE
  5
F8
330
1F
100
AcDbEntity
  8
0
  6
Continuous
 62
     7
370
    35
100
AcDbLine
 10
1003.7462475646
 20
929.1616793807
 30
0.0
 11
1020.5546682673
 21
929.1616793807
 31
0.0
  0
LINE
  5
F9
330
1F
100
AcDbEntity
  8
0
  6
Continuous
 62
     7
370
    35
100
AcDbLine
 10
1020.5546682673
 20
969.1616793807
 30
0.0
 11
1016.9754891918
 21
969.1616793807
 31
0.0
  0
LINE
  5
FA
330
1F
100
AcDbEntity
  8
0
  6
Continuous
 62
     7
370
    35
100
AcDbLine
 10
1020.5546682673
 20
929.1616793807
 30
0.0
 11
1060.2486167251
 21
929.1616793807
 31
0.0
  0
LINE
  5
FB
330
1F
100
AcDbEntity
  8
0
  6
Continuous
 62
     7
370
    35
100
AcDbLine
 10
1060.2486167251
 20
969.1616793807
 30
0.0
 11
1020.5546682673
 21
969.1616793807
 31
0.0
  0
ARC
  5
FC
330
1F
100
AcDbEntity
  8
0
  6
Continuous
 62
     7
370
    35
100
AcDbCircle
 10
1060.248616725
 20
966.1616793807
 30
0.0
 40
3.0
100
AcDbArc
 50
78.3499964745
 51
90.0
  0
ARC
  5
FD
330
1F
100
AcDbEntity
  8
0
  6
Continuous
 62
     7
370
    35
100
AcDbCircle
 10
1060.248616725
 20
932.1616793807
 30
0.0
 40
3.000000000000138
100
AcDbArc
 50
270.0
 51
281.6500035256
  0
LINE
  5
FE
330
1F
100
AcDbEntity
  8
0
  6
Continuous
 62
     7
370
    35
100
AcDbLine
 10
1060.8544149613
 20
929.2234812088
 30
0.0
 11
1065.5546682673
 21
930.1925802948
 31
0.0
  0
LINE
  5
FF
330
1F
100
AcDbEntity
  8
0
  6
Continuous
 62
     7
370
    35
100
AcDbLine
 10
1065.5546682673
 20
968.1307784666
 30
0.0
 11
1060.8544149613
 21
969.0998775525
 31
0.0
  0
LINE
  5
100
330
1F
100
AcDbEntity
  8
0
  6
Continuous
 62
     7
370
    35
100
AcDbLine
 10
1272.0546682673
 20
986.6112793807
 30
0.0
 11
592.0546682673
 21
986.6112793807
 31
0.0
  0
LINE
  5
101
330
1F
100
AcDbEntity
  8
0
  6
Continuous
 62
     7
370
    35
100
AcDbLine
 10
1272.0546682673
 20
985.6112793807
 30
0.0
 11
1272.0546682673
 21
986.6112793807
 31
0.0
  0
LINE
  5
102
330
1F
100
AcDbEntity
  8
0
  6
Continuous
 62
     7
370
    35
100
AcDbLine
 10
592.0546682673
 20
985.6112793807
 30
0.0
 11
592.0546682673
 21
986.6112793807
 31
0.0
  0
LINE
  5
103
330
1F
100
AcDbEntity
  8
0
  6
Continuous
 62
     7
370
    35
100
AcDbLine
 10
1272.0546682673
 20
985.6112793807
 30
0.0
 11
592.0546682673
 21
985.6112793807
 31
0.0
  0
LINE
  5
104
330
1F
100
AcDbEntity
  8
0
  6
Continuous
 62
     7
370
    35
100
AcDbLine
 10
592.0546682673
 20
987.6112793807
 30
0.0
 11
592.0546682673
 21
986.6112793807
 31
0.0
  0
LINE
  5
105
330
1F
100
AcDbEntity
  8
0
  6
Continuous
 62
     7
370
    35
100
AcDbLine
 10
1272.0546682673
 20
986.6112793807
 30
0.0
 11
1272.0546682673
 21
987.6112793807
 31
0.0
  0
LINE
  5
106
330
1F
100
AcDbEntity
  8
0
  6
Continuous
 62
     7
370
    35
100
AcDbLine
 10
1272.0546682673
 20
997.1112793807
 30
0.0
 11
1272.0546682673
 21
987.6112793807
 31
0.0
  0
LINE
  5
107
330
1F
100
AcDbEntity
  8
0
  6
Continuous
 62
     7
370
    35
100
AcDbLine
 10
592.0546682673
 20
987.6112793807
 30
0.0
 11
592.0546682673
 21
997.1112793807
 31
0.0
  0
LINE
  5
108
330
1F
100
AcDbEntity
  8
0
  6
Continuous
 62
     7
370
    35
100
AcDbLine
 10
592.0546682673
 20
997.6112793807
 30
0.0
 11
592.0546682673
 21
998.6112793807
 31
0.0
  0
LINE
  5
109
330
1F
100
AcDbEntity
  8
0
  6
Continuous
 62
     7
370
    35
100
AcDbLine
 10
1272.0546682673
 20
998.6112793807
 30
0.0
 11
1272.0546682673
 21
997.6112793807
 31
0.0
  0
LINE
  5
10A
330
1F
100
AcDbEntity
  8
0
  6
Continuous
 62
     7
370
    35
100
AcDbLine
 10
1272.0546682673
 20
984.27319787
 30
0.0
 11
1272.0546682673
 21
985.6112793807
 31
0.0
  0
LINE
  5
10B
330
1F
100
AcDbEntity
  8
0
  6
Continuous
 62
     7
370
    35
100
AcDbLine
 10
592.0546682673
 20
984.27319787
 30
0.0
 11
592.0546682673
 21
985.6112793807
 31
0.0
  0
LINE
  5
10C
330
1F
100
AcDbEntity
  8
0
  6
Continuous
 62
     7
370
    35
100
AcDbLine
 10
592.0546682673
 20
983.5132636623
 30
0.0
 11
592.0546682673
 21
984.27319787
 31
0.0
  0
LINE
  5
10D
330
1F
100
AcDbEntity
  8
0
  6
Continuous
 62
     7
370
    35
100
AcDbLine
 10
1272.0546682673
 20
983.5132636623
 30
0.0
 11
1272.0546682673
 21
984.27319787
 31
0.0
  0
SPLINE
  5
10E
330
1F
100
AcDbEntity
  8
0
  6
Continuous
 62
     7
370
    35
100
AcDbSpline
210
0.0
220
0.0
230
1.0
 70
     8
 71
     3
 72
    14
 73
    10
 74
     0
 42
0.000000001
 43
0.00000001
 40
0.0
 40
0.0
 40
0.0
 40
0.0
 40
0.2499999999999999
 40
0.2499999999999999
 40
0.4999999999999999
 40
0.4999999999999999
 40
0.7499999999999999
 40
0.7499999999999999
 40
1.0
 40
1.0
 40
1.0
 40
1.0
 10
1015.013844375979
 20
980.5161069598971
 30
0.0
 10
1014.988620280429
 20
980.7053542860464
 30
0.0
 10
1014.402443800045
 20
980.8942739000545
 30
0.0
 10
1012.171052462001
 20
981.2510109491815
 30
0.0
 10
1010.526794879113
 20
981.418666287379
 30
0.0
 10
1006.358266294452
 20
981.7143231753548
 30
0.0
 10
1003.835765417069
 20
981.8421923576497
 30
0.0
 10
998.1878030477818
 20
982.0440184222234
 30
0.0
 10
995.0648118922105
 20
982.1178843415895
 30
0.0
 10
991.8129021486693
 20
982.1606403899925
 30
0.0
  0
SPLINE
  5
10F
330
1F
100
AcDbEntity
  8
0
  6
Continuous
 62
     7
370
    35
100
AcDbSpline
210
0.0
220
0.0
230
1.0
 70
     8
 71
     3
 72
    16
 73
    12
 74
     0
 42
0.000000001
 43
0.00000001
 40
0.0
 40
0.0
 40
0.0
 40
0.0
 40
0.0624999999999983
 40
0.0624999999999983
 40
0.1249999999999966
 40
0.1249999999999966
 40
0.2499999999999962
 40
0.2499999999999962
 40
0.4999999999999986
 40
0.4999999999999986
 40
1.0
 40
1.0
 40
1.0
 40
1.0
 10
991.8129021486133
 20
982.1606403899779
 30
0.0
 10
991.6744369796525
 20
982.1624609274259
 30
0.0
 10
991.534017144593
 20
982.163135645853
 30
0.0
 10
991.253179915936
 20
982.1644865138843
 30
0.0
 10
991.1125434563274
 20
982.1650342476928
 30
0.0
 10
990.6905042641778
 20
982.1666013529631
 30
0.0
 10
990.4089546502865
 20
982.1675073122361
 30
0.0
 10
989.564287198063
 20
982.1700232480697
 30
0.0
 10
989.0009692392812
 20
982.1713993183992
 30
0.0
 10
987.3104668433323
 20
982.1747267247002
 30
0.0
 10
986.1825807757706
 20
982.1758517000416
 30
0.0
 10
985.0546682672936
 20
982.1758517000416
 30
0.0
  0
LINE
  5
110
330
1F
100
AcDbEntity
  8
0
  6
Continuous
 62
     7
370
    35
100
AcDbLine
 10
985.0546682673
 20
982.1758517
 30
0.0
 11
879.0546682673
 21
982.1758517
 31
0.0
  0
SPLINE
  5
111
330
1F
100
AcDbEntity
  8
0
  6
Continuous
 62
     7
370
    35
100
AcDbSpline
210
0.0
220
0.0
230
1.0
 70
     8
 71
     3
 72
    16
 73
    12
 74
     0
 42
0.000000001
 43
0.00000001
 40
0.0
 40
0.0
 40
0.0
 40
0.0
 40
0.500000000000003
 40
0.500000000000003
 40
0.7500000000000029
 40
0.7500000000000029
 40
0.8750000000000014
 40
0.8750000000000014
 40
0.9375000000000008
 40
0.9375000000000008
 40
1.0
 40
1.0
 40
1.0
 40
1.0
 10
879.0546682672936
 20
982.1758517000416
 30
0.0
 10
877.9267182456288
 20
982.1758517000416
 30
0.0
 10
876.7991765154763
 20
982.1747272221891
 30
0.0
 10
875.1084597405305
 20
982.1713995535605
 30
0.0
 10
874.5449725836226
 20
982.1700230764106
 30
0.0
 10
873.70019148154
 20
982.1675067166099
 30
0.0
 10
873.4186521472768
 20
982.1666007617877
 30
0.0
 10
872.9965785575612
 20
982.1650334122764
 30
0.0
 10
872.855899570739
 20
982.1644854658484
 30
0.0
 10
872.5750610547694
 20
982.1631342144746
 30
0.0
 10
872.4346437796542
 20
982.1624575644975
 30
0.0
 10
872.2964343859737
 20
982.1606403899779
 30
0.0
  0
SPLINE
  5
112
330
1F
100
AcDbEntity
  8
0
  6
Continuous
 62
     7
370
    35
100
AcDbSpline
210
0.0
220
0.0
230
1.0
 70
     8
 71
     3
 72
    14
 73
    10
 74
     0
 42
0.000000001
 43
0.00000001
 40
0.0
 40
0.0
 40
0.0
 40
0.0
 40
0.25
 40
0.25
 40
0.5
 40
0.5
 40
0.75
 40
0.75
 40
1.0
 40
1.0
 40
1.0
 40
1.0
 10
872.2964343858868
 20
982.1606403899991
 30
0.0
 10
869.0445246513258
 20
982.1178843417141
 30
0.0
 10
865.9215571894067
 20
982.0440193675187
 30
0.0
 10
860.2735251454831
 20
981.842190616562
 30
0.0
 10
857.7510608762432
 20
981.7143226446151
 30
0.0
 10
853.5825345312055
 20
981.4186656486795
 30
0.0
 10
851.9382643531122
 20
981.2510080434912
 30
0.0
 10
849.7069036984755
 20
980.894275406001
 30
0.0
 10
849.1207162542416
 20
980.7053542856385
 30
0.0
 10
849.0954921587471
 20
980.5161069598965
 30
0.0
  0
LINE
  5
113
330
1F
100
AcDbEntity
  8
0
  6
Continuous
 62
     7
370
    35
100
AcDbLine
 10
851.0546682673
 20
975.6116793807
 30
0.0
 11
879.0546682673
 21
975.6116793807
 31
0.0
  0
LINE
  5
114
330
1F
100
AcDbEntity
  8
0
  6
Continuous
 62
     7
370
    35
100
AcDbLine
 10
985.0546682673
 20
975.6116793807
 30
0.0
 11
1006.2088246166
 21
975.6116793807
 31
0.0
  0
LINE
  5
115
330
1F
100
AcDbEntity
  8
0
  6
Continuous
 62
     7
370
    35
100
AcDbLine
 10
1006.8438745341
 20
975.6116793807
 30
0.0
 11
1013.0546682673
 21
975.6116793807
 31
0.0
  0
LINE
  5
116
330
1F
100
AcDbEntity
  8
0
  6
Continuous
 62
     7
370
    35
100
AcDbLine
 10
879.0546682673
 20
975.6116793807
 30
0.0
 11
985.0546682673
 21
975.6116793807
 31
0.0
  0
LINE
  5
117
330
1F
100
AcDbEntity
  8
0
  6
Continuous
 62
     7
370
    35
100
AcDbLine
 10
1272.0546682673
 20
998.6112793807
 30
0.0
 11
592.0546682673
 21
998.6112793807
 31
0.0
  0
LINE
  5
118
330
1F
100
AcDbEntity
  8
0
  6
Continuous
 62
     7
370
    35
100
AcDbLine
 10
592.0546682673
 20
999.6112793807
 30
0.0
 11
592.0546682673
 21
998.6112793807
 31
0.0
  0
LINE
  5
119
330
1F
100
AcDbEntity
  8
0
  6
Continuous
 62
     7
370
    35
100
AcDbLine
 10
1272.0546682673
 20
998.6112793807
 30
0.0
 11
1272.0546682673
 21
999.6112793807
 31
0.0
  0
LINE
  5
11A
330
1F
100
AcDbEntity
  8
0
  6
Continuous
 62
     7
370
    35
100
AcDbLine
 10
592.0546682673
 20
1029.1112793807
 30
0.0
 11
1272.0546682673
 21
1029.1112793807
 31
0.0
  0
LINE
  5
11B
330
1F
100
AcDbEntity
  8
0
  6
Continuous
 62
     7
370
    35
100
AcDbLine
 10
592.0546682673
 20
999.6112793807
 30
0.0
 11
592.0546682673
 21
1029.1112793807
 31
0.0
  0
LINE
  5
11C
330
1F
100
AcDbEntity
  8
0
  6
Continuous
 62
     7
370
    35
100
AcDbLine
 10
1272.0546682673
 20
1029.1112793807
 30
0.0
 11
1272.0546682673
 21
999.6112793807
 31
0.0
  0
ARC
  5
11D
330
1F
100
AcDbEntity
  8
0
  6
Continuous
 62
     7
370
    35
100
AcDbCircle
 10
932.0546682673
 20
949.1616793807
 30
0.0
 40
19.99999999999999
100
AcDbArc
 50
242.7578274734
 51
297.2421725266
  0
SPLINE
  5
11E
330
1F
100
AcDbEntity
  8
0
  6
Continuous
 62
     7
370
    35
100
AcDbSpline
210
0.0
220
0.0
230
1.0
 70
     8
 71
     3
 72
    23
 73
    19
 74
     0
 42
0.000000001
 43
0.00000001
 40
0.0
 40
0.0
 40
0.0
 40
0.0
 40
0.0758439674746769
 40
0.0948049593331006
 40
0.1128914355571503
 40
0.1336676542610437
 40
0.1567718346598142
 40
0.2022013669991163
 40
0.2424816341995562
 40
0.281898629840812
 40
0.3206021944779492
 40
0.3951163817032056
 40
0.4632081862901956
 40
0.5251873670652957
 40
0.5924928344462228
 40
0.7259812554141611
 40
0.8620429027987468
 40
1.0
 40
1.0
 40
1.0
 40
1.0
 10
850.5546682672929
 20
975.6116793806783
 30
0.0
 10
850.5386637436724
 20
974.5079094406549
 30
0.0
 10
850.518658089149
 20
973.1281970157744
 30
0.0
 10
850.5841692654988
 20
971.5288528673309
 30
0.0
 10
850.4389167866345
 20
970.622422668551
 30
0.0
 10
849.5294470064744
 20
970.2562588864386
 30
0.0
 10
848.5330256975321
 20
969.4626080039309
 30
0.0
 10
847.5365515133251
 20
968.1859754662752
 30
0.0
 10
846.9542603568291
 20
966.4662503695494
 30
0.0
 10
846.3316739063345
 20
964.8742317820698
 30
0.0
 10
845.5824877566052
 20
962.7989529342224
 30
0.0
 10
844.7234011963606
 20
960.3249182926353
 30
0.0
 10
843.8146111367911
 20
957.5078838941907
 30
0.0
 10
843.2695473253721
 20
954.7020424342767
 30
0.0
 10
842.9281614209615
 20
950.9130052043773
 30
0.0
 10
843.3163826929293
 20
946.0273126383231
 30
0.0
 10
844.9957782088842
 20
940.3064301899614
 30
0.0
 10
847.142862166802
 20
936.9590783787902
 30
0.0
 10
848.2238300791594
 20
935.2738252772973
 30
0.0
  0
SPLINE
  5
11F
330
1F
100
AcDbEntity
  8
0
  6
Continuous
 62
     7
370
    35
100
AcDbSpline
210
0.0
220
0.0
230
1.0
 70
    24
 71
     3
 72
    19
 73
    15
 74
     0
 42
0.000000001
 43
0.00000001
 40
0.0
 40
0.0
 40
0.0
 40
0.0
 40
0.2409129494906415
 40
0.4882585144584849
 40
0.5391714996611946
 40
0.5899404470637045
 40
0.640069311387767
 40
0.6899887485684982
 40
0.7400419491330572
 40
0.7904190815941291
 40
0.8413201881352523
 40
0.8929676782752882
 40
0.9456873804469081
 40
1.0
 40
1.0
 40
1.0
 40
1.0
 10
932.0546682672932
 20
975.6116793806783
 30
0.0
 10
924.2086272658505
 20
975.6116793806783
 30
0.0
 10
908.3070481608481
 20
975.6116793806785
 30
0.0
 10
890.7416236410464
 20
975.6116793806785
 30
0.0
 10
879.3797348941175
 20
975.6116793806785
 30
0.0
 10
874.4239696758007
 20
975.6116793806782
 30
0.0
 10
869.6396089164559
 20
975.6116793806782
 30
0.0
 10
865.1560309514515
 20
975.6116793806783
 30
0.0
 10
861.0777806664807
 20
975.6116793806783
 30
0.0
 10
857.5045287234695
 20
975.6116793806783
 30
0.0
 10
854.5381229790619
 20
975.6116793806783
 30
0.0
 10
852.3080967595844
 20
975.6116793806783
 30
0.0
 10
850.8347866625926
 20
975.6116793806783
 30
0.0
 10
850.6489629115083
 20
975.6116793806783
 30
0.0
 10
850.5546682672929
 20
975.6116793806783
 30
0.0
  0
SPLINE
  5
120
330
1F
100
AcDbEntity
  8
0
  6
Continuous
 62
     7
370
    35
100
AcDbSpline
210
0.0
220
0.0
230
1.0
 70
    24
 71
     3
 72
    19
 73
    15
 74
     0
 42
0.000000001
 43
0.00000001
 40
0.0
 40
0.0
 40
0.0
 40
0.0
 40
0.2409129494906417
 40
0.4882585144584849
 40
0.5391714996611947
 40
0.5899404470637043
 40
0.6400693113877657
 40
0.6899887485684958
 40
0.7400419491330545
 40
0.7904190815941272
 40
0.8413201881352518
 40
0.8929676782752883
 40
0.945687380446908
 40
1.0
 40
1.0
 40
1.0
 40
1.0
 10
932.0546682672932
 20
975.6116793806783
 30
0.0
 10
939.9007092687361
 20
975.6116793806783
 30
0.0
 10
955.8022883737385
 20
975.6116793806783
 30
0.0
 10
973.3677128935401
 20
975.6116793806783
 30
0.0
 10
984.729601640469
 20
975.6116793806783
 30
0.0
 10
989.6853668587859
 20
975.611679380678
 30
0.0
 10
994.4697276181305
 20
975.611679380678
 30
0.0
 10
998.9533055831347
 20
975.6116793806783
 30
0.0
 10
1003.031555868105
 20
975.6116793806783
 30
0.0
 10
1006.604807811117
 20
975.6116793806783
 30
0.0
 10
1009.571213555524
 20
975.6116793806782
 30
0.0
 10
1011.801239775002
 20
975.6116793806782
 30
0.0
 10
1013.274549871994
 20
975.6116793806782
 30
0.0
 10
1013.460373623078
 20
975.6116793806782
 30
0.0
 10
1013.554668267294
 20
975.6116793806782
 30
0.0
  0
SPLINE
  5
121
330
1F
100
AcDbEntity
  8
0
  6
Continuous
 62
     7
370
    35
100
AcDbSpline
210
0.0
220
0.0
230
1.0
 70
     8
 71
     3
 72
    12
 73
     8
 74
     0
 42
0.000000001
 43
0.00000001
 40
0.0
 40
0.0
 40
0.0
 40
0.0
 40
0.5113573105439738
 40
0.6391966381108882
 40
0.7611397820034657
 40
0.8740152375255764
 40
1.0
 40
1.0
 40
1.0
 40
1.0
 10
1013.554668267294
 20
975.6116793806782
 30
0.0
 10
1013.569374273322
 20
974.507148870651
 30
0.0
 10
1013.587756780855
 20
973.1264857332661
 30
0.0
 10
1013.527560815192
 20
971.5302548193565
 30
0.0
 10
1013.651715614167
 20
970.6806497806044
 30
0.0
 10
1014.409018927007
 20
970.3332964202875
 30
0.0
 10
1014.816418367632
 20
970.0341233807018
 30
0.0
 10
1015.031297689898
 20
969.8763271405112
 30
0.0
  0
SPLINE
  5
122
330
1F
100
AcDbEntity
  8
0
  6
Continuous
 62
     7
370
    35
100
AcDbSpline
210
0.0
220
0.0
230
1.0
 70
     8
 71
     3
 72
    12
 73
     8
 74
     0
 42
0.000000001
 43
0.00000001
 40
0.0
 40
0.0
 40
0.0
 40
0.0
 40
0.0187022824907647
 40
0.2635054426144017
 40
0.508521938010815
 40
0.7541594978531966
 40
1.0
 40
1.0
 40
1.0
 40
1.0
 10
1014.991894604165
 20
969.7079403028484
 30
0.0
 10
1014.991958832151
 20
969.710091758453
 30
0.0
 10
1014.992863771105
 20
969.7404046500291
 30
0.0
 10
1014.994970871283
 20
969.7902998407039
 30
0.0
 10
1015.001343632172
 20
969.8406418475606
 30
0.0
 10
1015.012192474072
 20
969.8714306654076
 30
0.0
 10
1015.024927531759
 20
969.8746945329019
 30
0.0
 10
1015.031297689898
 20
969.8763271405112
 30
0.0
  0
SPLINE
  5
123
330
1F
100
AcDbEntity
  8
0
  6
Continuous
 62
     7
370
    35
100
AcDbSpline
210
0.0
220
0.0
230
1.0
 70
     8
 71
     3
 72
    13
 73
     9
 74
     0
 42
0.000000001
 43
0.00000001
 40
0.0
 40
0.0
 40
0.0
 40
0.0
 40
0.1771815196505904
 40
0.3595140594802962
 40
0.536691256885091
 40
0.7189759962167964
 40
0.85828470464849
 40
1.0
 40
1.0
 40
1.0
 40
1.0
 10
848.2238300791594
 20
935.2738252772973
 30
0.0
 10
848.7506338787746
 20
934.6275469937464
 30
0.0
 10
849.8195567152126
 20
933.3162018278877
 30
0.0
 10
851.8034325349806
 20
931.733015288308
 30
0.0
 10
854.0226925102714
 20
930.4704941998283
 30
0.0
 10
856.2379854317994
 20
929.6780916001534
 30
0.0
 10
858.3767941841788
 20
929.2370952818806
 30
0.0
 10
859.6972214890139
 20
929.1869611246159
 30
0.0
 10
860.3630889699971
 20
929.1616793806784
 30
0.0
  0
SPLINE
  5
124
330
1F
100
AcDbEntity
  8
0
  6
Continuous
 62
     7
370
    35
100
AcDbSpline
210
0.0
220
0.0
230
1.0
 70
    24
 71
     3
 72
    19
 73
    15
 74
     0
 42
0.000000001
 43
0.00000001
 40
0.0
 40
0.0
 40
0.0
 40
0.0
 40
0.0382207566244326
 40
0.0915494292491329
 40
0.1448915828931528
 40
0.1929664281754634
 40
0.2410362644725345
 40
0.2858279790996478
 40
0.3305899947618052
 40
0.3739481339232541
 40
0.41737628791909
 40
0.6722423197123577
 40
0.9271575473554003
 40
1.0
 40
1.0
 40
1.0
 40
1.0
 10
860.3630889699971
 20
929.1616793806784
 30
0.0
 10
860.5287654455246
 20
929.1616793806784
 30
0.0
 10
860.925607060242
 20
929.1616793806784
 30
0.0
 10
862.2982786791472
 20
929.1616793806784
 30
0.0
 10
864.381802139377
 20
929.1616793806785
 30
0.0
 10
866.9661997206596
 20
929.1616793806784
 30
0.0
 10
869.8316168385157
 20
929.1616793806784
 30
0.0
 10
872.9956959993558
 20
929.1616793806784
 30
0.0
 10
876.3349375350743
 20
929.1616793806784
 30
0.0
 10
879.8787260781727
 20
929.1616793806784
 30
0.0
 10
889.3630362945688
 20
929.1616793806784
 30
0.0
 10
904.7403762057993
 20
929.1616793806783
 30
0.0
 10
920.926720279908
 20
929.1616793806783
 30
0.0
 10
930.031236526596
 20
929.1616793806783
 30
0.0
 10
932.0546682672934
 20
929.1616793806783
 30
0.0
  0
SPLINE
  5
125
330
1F
100
AcDbEntity
  8
0
  6
Continuous
 62
     7
370
    35
100
AcDbSpline
210
0.0
220
0.0
230
1.0
 70
    24
 71
     3
 72
    19
 73
    15
 74
     0
 42
0.000000001
 43
0.00000001
 40
0.0
 40
0.0
 40
0.0
 40
0.0
 40
0.0382184429616671
 40
0.0907526742552609
 40
0.1448883276233767
 40
0.1924047757928802
 40
0.2410289232739615
 40
0.2852702899838294
 40
0.3305791993120203
 40
0.3733296235550262
 40
0.4174095644875287
 40
0.6721476066227442
 40
0.9271619568147013
 40
1.0
 40
1.0
 40
1.0
 40
1.0
 10
1003.74624756459
 20
929.1616793806782
 30
0.0
 10
1003.580378120417
 20
929.1616793806782
 30
0.0
 10
1003.186508185657
 20
929.1616793806782
 30
0.0
 10
1001.824700032502
 20
929.1616793806782
 30
0.0
 10
999.747297683155
 20
929.1616793806782
 30
0.0
 10
997.155487003568
 20
929.1616793806782
 30
0.0
 10
994.3006913886777
 20
929.1616793806783
 30
0.0
 10
991.1289508791747
 20
929.1616793806783
 30
0.0
 10
987.8013270759194
 20
929.1616793806783
 30
0.0
 10
984.2560026852242
 20
929.1616793806783
 30
0.0
 10
974.756894380038
 20
929.1616793806783
 30
0.0
 10
959.3767005151128
 20
929.1616793806783
 30
0.0
 10
943.1855364937328
 20
929.1616793806783
 30
0.0
 10
934.0780523727952
 20
929.1616793806783
 30
0.0
 10
932.0546682672934
 20
929.1616793806783
 30
0.0
  0
LINE
  5
126
330
1F
100
AcDbEntity
  8
0
  6
Continuous
 62
     7
370
    35
100
AcDbLine
 10
1020.5546682673
 20
969.1616793807
 30
0.0
 11
1020.5546682673
 21
929.1616793807
 31
0.0
  0
SPLINE
  5
127
330
1F
100
AcDbEntity
  8
0
  6
Continuous
 62
     7
370
    35
100
AcDbSpline
210
0.0
220
0.0
230
1.0
 70
     8
 71
     3
 72
    10
 73
     6
 74
     0
 42
0.000000001
 43
0.00000001
 40
0.0
 40
0.0
 40
0.0
 40
0.0
 40
0.4996662810518022
 40
0.9790557875043399
 40
1.0
 40
1.0
 40
1.0
 40
1.0
 10
1015.031297689896
 20
969.8763271405088
 30
0.0
 10
1015.322702241144
 20
969.675489952792
 30
0.0
 10
1015.893685962126
 20
969.2819656778171
 30
0.0
 10
1016.609916220866
 20
969.1635280236937
 30
0.0
 10
1016.960800985185
 20
969.1617536565487
 30
0.0
 10
1016.97548919185
 20
969.1616793806783
 30
0.0
  0
LINE
  5
128
330
1F
100
AcDbEntity
  8
0
  6
Continuous
 62
     7
370
    35
100
AcDbLine
 10
879.0546682673
 20
978.6616793807
 30
0.0
 11
851.2546682673
 21
978.6616793807
 31
0.0
  0
LINE
  5
129
330
1F
100
AcDbEntity
  8
0
  6
Continuous
 62
     7
370
    35
100
AcDbLine
 10
985.0546682673
 20
978.6616793807
 30
0.0
 11
1012.8546682673
 21
978.6616793807
 31
0.0
  0
LINE
  5
12A
330
1F
100
AcDbEntity
  8
0
  6
Continuous
 62
     7
370
    35
100
AcDbLine
 10
1020.5546682673
 20
949.1616793807
 30
0.0
 11
1020.5546682673
 21
969.1616793807
 31
0.0
  0
LINE
  5
12B
330
1F
100
AcDbEntity
  8
0
  6
Continuous
 62
     7
370
    35
100
AcDbLine
 10
1020.5546682673
 20
929.1616793807
 30
0.0
 11
1020.5546682673
 21
949.1616793807
 31
0.0
  0
LINE
  5
12C
330
1F
100
AcDbEntity
  8
0
  6
Continuous
 62
     7
370
    35
100
AcDbLine
 10
1065.5546682673
 20
949.1616793807
 30
0.0
 11
1065.5546682673
 21
968.1307784666
 31
0.0
  0
LINE
  5
12D
330
1F
100
AcDbEntity
  8
0
  6
Continuous
 62
     7
370
    35
100
AcDbLine
 10
1065.5546682673
 20
930.1925802948
 30
0.0
 11
1065.5546682673
 21
949.1616793807
 31
0.0
  0
ARC
  5
12E
330
1F
100
AcDbEntity
  8
0
  6
Continuous
 62
     7
370
    35
100
AcDbCircle
 10
1273.0546682673
 20
997.6112793807
 30
0.0
 40
1.000000000000227
100
AcDbArc
 50
90.0
 51
180.0
  0
ARC
  5
12F
330
1F
100
AcDbEntity
  8
0
  6
Continuous
 62
     7
370
    35
100
AcDbCircle
 10
1273.0546682673
 20
997.6112793807
 30
0.0
 40
0.9999999999998863
100
AcDbArc
 50
0.0
 51
90.0
  0
LINE
  5
130
330
1F
100
AcDbEntity
  8
0
  6
Continuous
 62
     7
370
    35
100
AcDbLine
 10
1272.0546682673
 20
997.6112793807
 30
0.0
 11
1272.0546682673
 21
987.6112793807
 31
0.0
  0
LINE
  5
131
330
1F
100
AcDbEntity
  8
0
  6
Continuous
 62
     7
370
    35
100
AcDbLine
 10
1274.0546682673
 20
997.6112793807
 30
0.0
 11
1274.0546682673
 21
986.6112793807
 31
0.0
  0
LINE
  5
132
330
1F
100
AcDbEntity
  8
0
  6
Continuous
 62
     7
370
    35
100
AcDbLine
 10
1272.0546682673
 20
983.5132636623
 30
0.0
 11
1272.0546682673
 21
979.8854199023
 31
0.0
  0
LINE
  5
133
330
1F
100
AcDbEntity
  8
0
  6
Continuous
 62
     7
370
    35
100
AcDbLine
 10
1274.0546682673
 20
985.6112793807
 30
0.0
 11
1274.0546682673
 21
979.8854199023
 31
0.0
  0
LINE
  5
134
330
1F
100
AcDbEntity
  8
0
  6
Continuous
 62
     7
370
    35
100
AcDbLine
 10
1272.0546682673
 20
978.0728043282
 30
0.0
 11
1272.0546682673
 21
979.8854199023
 31
0.0
  0
LINE
  5
135
330
1F
100
AcDbEntity
  8
0
  6
Continuous
 62
     7
370
    35
100
AcDbLine
 10
1274.0546682673
 20
979.8854199023
 30
0.0
 11
1274.0546682673
 21
978.0728043282
 31
0.0
  0
LINE
  5
136
330
1F
100
AcDbEntity
  8
0
  6
Continuous
 62
     7
370
    35
100
AcDbLine
 10
1272.0546682673
 20
978.0728043282
 30
0.0
 11
1272.0546682673
 21
970.8145050436
 31
0.0
  0
LINE
  5
137
330
1F
100
AcDbEntity
  8
0
  6
Continuous
 62
     7
370
    35
100
AcDbLine
 10
1274.0546682673
 20
978.0728043282
 30
0.0
 11
1274.0546682673
 21
970.8145050436
 31
0.0
  0
LINE
  5
138
330
1F
100
AcDbEntity
  8
0
  6
Continuous
 62
     7
370
    35
100
AcDbLine
 10
1272.0546682673
 20
969.0018894695
 30
0.0
 11
1272.0546682673
 21
970.8145050436
 31
0.0
  0
LINE
  5
139
330
1F
100
AcDbEntity
  8
0
  6
Continuous
 62
     7
370
    35
100
AcDbLine
 10
1274.0546682673
 20
970.8145050436
 30
0.0
 11
1274.0546682673
 21
969.0018894695
 31
0.0
  0
LINE
  5
13A
330
1F
100
AcDbEntity
  8
0
  6
Continuous
 62
     7
370
    35
100
AcDbLine
 10
1272.0546682673
 20
969.0018894695
 30
0.0
 11
1272.0546682673
 21
934.7112793807
 31
0.0
  0
LINE
  5
13B
330
1F
100
AcDbEntity
  8
0
  6
Continuous
 62
     7
370
    35
100
AcDbLine
 10
1274.0546682673
 20
969.0018894695
 30
0.0
 11
1274.0546682673
 21
934.7112793807
 31
0.0
  0
LINE
  5
13C
330
1F
100
AcDbEntity
  8
0
  6
Continuous
 62
     7
370
    35
100
AcDbLine
 10
1274.0546682673
 20
932.7112793807
 30
0.0
 11
1272.0546682673
 21
932.7112793807
 31
0.0
  0
LINE
  5
13D
330
1F
100
AcDbEntity
  8
0
  6
Continuous
 62
     7
370
    35
100
AcDbLine
 10
1272.0546682673
 20
932.7112793807
 30
0.0
 11
1272.0546682673
 21
934.7112793807
 31
0.0
  0
LINE
  5
13E
330
1F
100
AcDbEntity
  8
0
  6
Continuous
 62
     7
370
    35
100
AcDbLine
 10
1274.0546682673
 20
934.7112793807
 30
0.0
 11
1274.0546682673
 21
932.7112793807
 31
0.0
  0
LINE
  5
13F
330
1F
100
AcDbEntity
  8
0
  6
Continuous
 62
     7
370
    35
100
AcDbLine
 10
590.0546682673
 20
997.6112793807
 30
0.0
 11
590.0546682673
 21
986.6112793807
 31
0.0
  0
ARC
  5
140
330
1F
100
AcDbEntity
  8
0
  6
Continuous
 62
     7
370
    35
100
AcDbCircle
 10
591.0546682673
 20
997.6112793807
 30
0.0
 40
1.0
100
AcDbArc
 50
90.0
 51
180.0
  0
ARC
  5
141
330
1F
100
AcDbEntity
  8
0
  6
Continuous
 62
     7
370
    35
100
AcDbCircle
 10
591.0546682673
 20
997.6112793807
 30
0.0
 40
1.0
100
AcDbArc
 50
0.0
 51
90.0
  0
LINE
  5
142
330
1F
100
AcDbEntity
  8
0
  6
Continuous
 62
     7
370
    35
100
AcDbLine
 10
592.0546682673
 20
997.6112793807
 30
0.0
 11
592.0546682673
 21
987.6112793807
 31
0.0
  0
LINE
  5
143
330
1F
100
AcDbEntity
  8
0
  6
Continuous
 62
     7
370
    35
100
AcDbLine
 10
590.0546682673
 20
985.6112793807
 30
0.0
 11
590.0546682673
 21
979.8854199023
 31
0.0
  0
LINE
  5
144
330
1F
100
AcDbEntity
  8
0
  6
Continuous
 62
     7
370
    35
100
AcDbLine
 10
592.0546682673
 20
983.5132636623
 30
0.0
 11
592.0546682673
 21
979.8854199023
 31
0.0
  0
LINE
  5
145
330
1F
100
AcDbEntity
  8
0
  6
Continuous
 62
     7
370
    35
100
AcDbLine
 10
590.0546682673
 20
978.0728043282
 30
0.0
 11
590.0546682673
 21
979.8854199023
 31
0.0
  0
LINE
  5
146
330
1F
100
AcDbEntity
  8
0
  6
Continuous
 62
     7
370
    35
100
AcDbLine
 10
592.0546682673
 20
979.8854199023
 30
0.0
 11
592.0546682673
 21
978.0728043282
 31
0.0
  0
LINE
  5
147
330
1F
100
AcDbEntity
  8
0
  6
Continuous
 62
     7
370
    35
100
AcDbLine
 10
590.0546682673
 20
978.0728043282
 30
0.0
 11
590.0546682673
 21
970.8145050436
 31
0.0
  0
LINE
  5
148
330
1F
100
AcDbEntity
  8
0
  6
Continuous
 62
     7
370
    35
100
AcDbLine
 10
592.0546682673
 20
978.0728043282
 30
0.0
 11
592.0546682673
 21
970.8145050436
 31
0.0
  0
LINE
  5
149
330
1F
100
AcDbEntity
  8
0
  6
Continuous
 62
     7
370
    35
100
AcDbLine
 10
590.0546682673
 20
969.0018894695
 30
0.0
 11
590.0546682673
 21
970.8145050436
 31
0.0
  0
LINE
  5
14A
330
1F
100
AcDbEntity
  8
0
  6
Continuous
 62
     7
370
    35
100
AcDbLine
 10
592.0546682673
 20
970.8145050436
 30
0.0
 11
592.0546682673
 21
969.0018894695
 31
0.0
  0
LINE
  5
14B
330
1F
100
AcDbEntity
  8
0
  6
Continuous
 62
     7
370
    35
100
AcDbLine
 10
590.0546682673
 20
969.0018894695
 30
0.0
 11
590.0546682673
 21
934.7112793807
 31
0.0
  0
LINE
  5
14C
330
1F
100
AcDbEntity
  8
0
  6
Continuous
 62
     7
370
    35
100
AcDbLine
 10
592.0546682673
 20
969.0018894695
 30
0.0
 11
592.0546682673
 21
934.7112793807
 31
0.0
  0
LINE
  5
14D
330
1F
100
AcDbEntity
  8
0
  6
Continuous
 62
     7
370
    35
100
AcDbLine
 10
592.0546682673
 20
932.7112793807
 30
0.0
 11
590.0546682673
 21
932.7112793807
 31
0.0
  0
LINE
  5
14E
330
1F
100
AcDbEntity
  8
0
  6
Continuous
 62
     7
370
    35
100
AcDbLine
 10
590.0546682673
 20
932.7112793807
 30
0.0
 11
590.0546682673
 21
934.7112793807
 31
0.0
  0
LINE
  5
14F
330
1F
100
AcDbEntity
  8
0
  6
Continuous
 62
     7
370
    35
100
AcDbLine
 10
592.0546682673
 20
934.7112793807
 30
0.0
 11
592.0546682673
 21
932.7112793807
 31
0.0
  0
LINE
  5
150
330
1F
100
AcDbEntity
  8
0
  6
Continuous
 62
     7
370
    35
100
AcDbLine
 10
559.5546682673
 20
985.6112793807
 30
0.0
 11
559.5546682673
 21
986.6112793807
 31
0.0
  0
LINE
  5
151
330
1F
100
AcDbEntity
  8
0
  6
Continuous
 62
     7
370
    35
100
AcDbLine
 10
559.5546682673
 20
986.6112793807
 30
0.0
 11
569.5546682673
 21
986.6112793807
 31
0.0
  0
LINE
  5
152
330
1F
100
AcDbEntity
  8
0
  6
Continuous
 62
     7
370
    35
100
AcDbLine
 10
569.5546682673
 20
985.6112793807
 30
0.0
 11
559.5546682673
 21
985.6112793807
 31
0.0
  0
LINE
  5
153
330
1F
100
AcDbEntity
  8
0
  6
Continuous
 62
     7
370
    35
100
AcDbLine
 10
592.0546682673
 20
986.6112793807
 30
0.0
 11
569.5546682673
 21
986.6112793807
 31
0.0
  0
LINE
  5
154
330
1F
100
AcDbEntity
  8
0
  6
Continuous
 62
     7
370
    35
100
AcDbLine
 10
592.0546682673
 20
985.6112793807
 30
0.0
 11
569.5546682673
 21
985.6112793807
 31
0.0
  0
LINE
  5
155
330
1F
100
AcDbEntity
  8
0
  6
Continuous
 62
     7
370
    35
100
AcDbLine
 10
559.5546682673
 20
987.6112793807
 30
0.0
 11
559.5546682673
 21
986.6112793807
 31
0.0
  0
ARC
  5
156
330
1F
100
AcDbEntity
  8
0
  6
Continuous
 62
     7
370
    35
100
AcDbCircle
 10
569.5546682673
 20
1019.1112793807
 30
0.0
 40
10.0
100
AcDbArc
 50
90.0
 51
180.0
  0
LINE
  5
157
330
1F
100
AcDbEntity
  8
0
  6
Continuous
 62
     7
370
    35
100
AcDbLine
 10
592.0546682673
 20
1029.1112793807
 30
0.0
 11
569.5546682673
 21
1029.1112793807
 31
0.0
  0
LINE
  5
158
330
1F
100
AcDbEntity
  8
0
  6
Continuous
 62
     7
370
    35
100
AcDbLine
 10
559.5546682673
 20
1019.1112793807
 30
0.0
 11
559.5546682673
 21
987.6112793807
 31
0.0
  0
LINE
  5
159
330
1F
100
AcDbEntity
  8
0
  6
Continuous
 62
     7
370
    35
100
AcDbLine
 10
1272.0546682673
 20
986.6112793807
 30
0.0
 11
1294.5546682673
 21
986.6112793807
 31
0.0
  0
LINE
  5
15A
330
1F
100
AcDbEntity
  8
0
  6
Continuous
 62
     7
370
    35
100
AcDbLine
 10
1272.0546682673
 20
985.6112793807
 30
0.0
 11
1294.5546682673
 21
985.6112793807
 31
0.0
  0
LINE
  5
15B
330
1F
100
AcDbEntity
  8
0
  6
Continuous
 62
     7
370
    35
100
AcDbLine
 10
1304.5546682673
 20
986.6112793807
 30
0.0
 11
1304.5546682673
 21
985.6112793807
 31
0.0
  0
LINE
  5
15C
330
1F
100
AcDbEntity
  8
0
  6
Continuous
 62
     7
370
    35
100
AcDbLine
 10
1294.5546682673
 20
986.6112793807
 30
0.0
 11
1304.5546682673
 21
986.6112793807
 31
0.0
  0
LINE
  5
15D
330
1F
100
AcDbEntity
  8
0
  6
Continuous
 62
     7
370
    35
100
AcDbLine
 10
1304.5546682673
 20
985.6112793807
 30
0.0
 11
1294.5546682673
 21
985.6112793807
 31
0.0
  0
LINE
  5
15E
330
1F
100
AcDbEntity
  8
0
  6
Continuous
 62
     7
370
    35
100
AcDbLine
 10
1304.5546682673
 20
986.6112793807
 30
0.0
 11
1304.5546682673
 21
987.6112793807
 31
0.0
  0
LINE
  5
15F
330
1F
100
AcDbEntity
  8
0
  6
Continuous
 62
     7
370
    35
100
AcDbLine
 10
1272.0546682673
 20
1029.1112793807
 30
0.0
 11
1294.5546682673
 21
1029.1112793807
 31
0.0
  0
ARC
  5
160
330
1F
100
AcDbEntity
  8
0
  6
Continuous
 62
     7
370
    35
100
AcDbCircle
 10
1294.5546682673
 20
1019.1112793807
 30
0.0
 40
10.0
100
AcDbArc
 50
0.0
 51
90.0
  0
LINE
  5
161
330
1F
100
AcDbEntity
  8
0
  6
Continuous
 62
     7
370
    35
100
AcDbLine
 10
1304.5546682673
 20
1019.1112793807
 30
0.0
 11
1304.5546682673
 21
987.6112793807
 31
0.0
  0
LINE
  5
162
330
1F
100
AcDbEntity
  8
0
  6
Continuous
 62
     8
370
    18
100
AcDbLine
 10
1272.0546682673
 20
987.6112793807
 30
0.0
 11
592.0546682673
 21
987.6112793807
 31
0.0
  0
LINE
  5
163
330
1F
100
AcDbEntity
  8
0
  6
Continuous
 62
     8
370
    18
100
AcDbLine
 10
592.0546682673
 20
997.1112793807
 30
0.0
 11
1272.0546682673
 21
997.1112793807
 31
0.0
  0
LINE
  5
164
330
1F
100
AcDbEntity
  8
0
  6
Continuous
 62
     8
370
    18
100
AcDbLine
 10
592.0546682673
 20
984.27319787
 30
0.0
 11
1272.0546682673
 21
984.27319787
 31
0.0
  0
LINE
  5
165
330
1F
100
AcDbEntity
  8
0
  6
Continuous
 62
     8
370
    18
100
AcDbLine
 10
592.0546682673
 20
982.2764145289
 30
0.0
 11
1272.0546682673
 21
982.2764145289
 31
0.0
  0
LINE
  5
166
330
1F
100
AcDbEntity
  8
0
  6
Continuous
 62
     8
370
    18
100
AcDbLine
 10
592.0546682673
 20
980.5161069599
 30
0.0
 11
849.0954921586
 21
980.5161069599
 31
0.0
  0
LINE
  5
167
330
1F
100
AcDbEntity
  8
0
  6
Continuous
 62
     8
370
    18
100
AcDbLine
 10
1015.013844376
 20
980.5161069599
 30
0.0
 11
1272.0546682673
 21
980.5161069599
 31
0.0
  0
SPLINE
  5
168
330
1F
100
AcDbEntity
  8
0
  6
Continuous
 62
     8
370
    18
100
AcDbSpline
210
0.0
220
0.0
230
1.0
 70
     8
 71
     3
 72
    10
 73
     6
 74
     0
 42
0.000000001
 43
0.00000001
 40
0.0
 40
0.0
 40
0.0
 40
0.0
 40
0.5
 40
0.5
 40
1.0
 40
1.0
 40
1.0
 40
1.0
 10
991.3707803743889
 20
980.1664629574508
 30
0.0
 10
990.3317366916306
 20
980.1811000933943
 30
0.0
 10
989.2861243709262
 20
980.2155700705468
 30
0.0
 10
987.1809979360997
 20
980.2685936769432
 30
0.0
 10
986.1214805246384
 20
980.2870462935047
 30
0.0
 10
985.0546682672941
 20
980.2870462935047
 30
0.0
  0
LINE
  5
169
330
1F
100
AcDbEntity
  8
0
  6
Continuous
 62
     8
370
    18
100
AcDbLine
 10
985.0546682673
 20
980.2870462935
 30
0.0
 11
985.0546682673
 21
982.1758517
 31
0.0
  0
ARC
  5
16A
330
1F
100
AcDbEntity
  8
0
  6
Continuous
 62
     8
370
    18
100
AcDbCircle
 10
994.3348952764
 20
980.5553992153
 30
0.0
 40
2.989523133341693
100
AcDbArc
 50
147.5233674626
 51
187.4753574051
  0
SPLINE
  5
16B
330
1F
100
AcDbEntity
  8
0
  6
Continuous
 62
     8
370
    18
100
AcDbSpline
210
0.0
220
0.0
230
1.0
 70
     8
 71
     3
 72
    10
 73
     6
 74
     0
 42
0.000000001
 43
0.00000001
 40
0.0
 40
0.0
 40
0.0
 40
0.0
 40
0.5
 40
0.5
 40
1.0
 40
1.0
 40
1.0
 40
1.0
 10
879.0546682672936
 20
980.2870462934641
 30
0.0
 10
877.9878560099495
 20
980.2870462934641
 30
0.0
 10
876.9283385984876
 20
980.2685936769432
 30
0.0
 10
874.823212163661
 20
980.2155700705468
 30
0.0
 10
873.7775998429564
 20
980.1811000934263
 30
0.0
 10
872.7385561601982
 20
980.1664629574828
 30
0.0
  0
ARC
  5
16C
330
1F
100
AcDbEntity
  8
0
  6
Continuous
 62
     8
370
    18
100
AcDbCircle
 10
869.7744412572
 20
980.5553992152
 30
0.0
 40
2.989523134308619
100
AcDbArc
 50
352.5246425999
 51
32.476632528
  0
LINE
  5
16D
330
1F
100
AcDbEntity
  8
0
  6
Continuous
 62
     8
370
    18
100
AcDbLine
 10
879.0546682673
 20
980.2870462935
 30
0.0
 11
879.0546682673
 21
982.1758517
 31
0.0
  0
LINE
  5
16E
330
1F
100
AcDbEntity
  8
0
  6
Continuous
 62
     8
370
    18
100
AcDbLine
 10
985.0546682673
 20
980.2870462935
 30
0.0
 11
879.0546682673
 21
980.2870462935
 31
0.0
  0
ELLIPSE
  5
16F
330
1F
100
AcDbEntity
  8
0
  6
Continuous
 62
     8
370
    18
100
AcDbEllipse
 10
985.0546682673
 20
978.5068466197
 30
0.0
 11
27.99999999999989
 21
0.0
 31
0.0
210
0.0
220
0.0
230
1.0
 40
0.0608401234
 41
0.0075591103181333
 42
1.343262674821319
  0
ARC
  5
170
330
1F
100
AcDbEntity
  8
0
  6
Continuous
 62
     8
370
    18
100
AcDbCircle
 10
1015.0531671134
 20
978.5171774216
 30
0.0
 40
1.999300425703757
100
AcDbArc
 50
91.1268920303
 51
179.9270312827
  0
ELLIPSE
  5
171
330
1F
100
AcDbEntity
  8
0
  6
Continuous
 62
     8
370
    18
100
AcDbEllipse
 10
879.0546682673
 20
978.5068466197
 30
0.0
 11
28.0
 21
0.0
 31
0.0
210
0.0
220
0.0
230
1.0
 40
0.0608401234
 41
1.798329978768473
 42
3.134033543271658
  0
ARC
  5
172
330
1F
100
AcDbEntity
  8
0
  6
Continuous
 62
     8
370
    18
100
AcDbCircle
 10
849.0561694212
 20
978.5171774216
 30
0.0
 40
1.999300425704085
100
AcDbArc
 50
0.0729687173
 51
88.8731079808
  0
LINE
  5
173
330
1F
100
AcDbEntity
  8
0
  6
Continuous
 62
     8
370
    18
100
AcDbLine
 10
879.0546682673
 20
980.2870462935
 30
0.0
 11
879.0546682673
 21
975.6116793807
 31
0.0
  0
LINE
  5
174
330
1F
100
AcDbEntity
  8
0
  6
Continuous
 62
     8
370
    18
100
AcDbLine
 10
985.0546682673
 20
980.2870462935
 30
0.0
 11
985.0546682673
 21
975.6116793807
 31
0.0
  0
LINE
  5
175
330
1F
100
AcDbEntity
  8
0
  6
Continuous
 62
     8
370
    18
100
AcDbLine
 10
1272.0546682673
 20
999.6112793807
 30
0.0
 11
592.0546682673
 21
999.6112793807
 31
0.0
  0
SPLINE
  5
176
330
1F
100
AcDbEntity
  8
0
  6
Continuous
 62
     8
370
    18
100
AcDbSpline
210
0.0
220
0.0
230
1.0
 70
     8
 71
     3
 72
    20
 73
    16
 74
     0
 42
0.000000001
 43
0.00000001
 40
0.0
 40
0.0
 40
0.0
 40
0.0
 40
0.0991423914481103
 40
0.1909579967922157
 40
0.2834490201131848
 40
0.3743163084071863
 40
0.4461862568119868
 40
0.5184421762495496
 40
0.5908322179839106
 40
0.6638400079808522
 40
0.736816764962936
 40
0.8091054166526829
 40
0.8751601672161233
 40
0.9411263593187079
 40
1.0
 40
1.0
 40
1.0
 40
1.0
 10
915.9446231546918
 20
936.6666884660308
 30
0.0
 10
915.0498474726763
 20
937.8030169556857
 30
0.0
 10
913.3264215060404
 20
939.991697387063
 30
0.0
 10
911.6773969039305
 20
944.0445102225078
 30
0.0
 10
910.9780792308799
 20
948.3447986356942
 30
0.0
 10
911.3045366227636
 20
952.3785479971859
 30
0.0
 10
912.3305077564055
 20
955.8784991550945
 30
0.0
 10
913.784618664995
 20
958.8139801628884
 30
0.0
 10
915.6795385985605
 20
961.4289157283894
 30
0.0
 10
917.9547947753018
 20
963.7585054257859
 30
0.0
 10
920.5500776263725
 20
965.758759921766
 30
0.0
 10
923.3693696218741
 20
967.3233650919049
 30
0.0
 10
926.2948211944912
 20
968.404993402686
 30
0.0
 10
929.1691934542619
 20
969.0459212279405
 30
0.0
 10
931.1299761137647
 20
969.1255100373779
 30
0.0
 10
932.0546682667053
 20
969.163043594293
 30
0.0
  0
LWPOLYLINE
  5
177
330
1F
100
AcDbEntity
  8
0
  6
Continuous
 62
     8
370
    18
100
AcDbPolyline
 90
        9
 70
   128
 43
0.0
 10
932.0546682667
 20
969.1630435943
 10
932.056047593
 20
968.8963064882
 10
932.0572337488
 20
968.2329180844
 10
932.0581828788
 20
967.1974055525
 10
932.0588598912
 20
965.8280544453
 10
932.0592397552
 20
964.1754931833
 10
932.0593084262
 20
962.3008211924
 10
932.0590633653
 20
960.2733499015
 10
932.0585136349
 20
958.1680401213
  0
SPLINE
  5
178
330
1F
100
AcDbEntity
  8
0
  6
Continuous
 62
     8
370
    18
100
AcDbSpline
210
0.0
220
0.0
230
1.0
 70
     8
 71
     3
 72
    19
 73
    15
 74
     0
 42
0.000000001
 43
0.00000001
 40
0.0
 40
0.0
 40
0.0
 40
0.0
 40
0.0003400432997567
 40
0.1018635778277051
 40
0.2035434036526508
 40
0.3480218784455771
 40
0.4928620408160618
 40
0.5714933381061468
 40
0.6496296261320129
 40
0.708739962782218
 40
0.7683238584295642
 40
0.8224306267254499
 40
0.8926101632270907
 40
0.9999999999999999
 40
0.9999999999999999
 40
0.9999999999999999
 40
0.9999999999999999
 10
932.0585136349303
 20
958.1680401213009
 30
0.0
 10
932.0559500617163
 20
958.1680423311528
 30
0.0
 10
931.2880045095533
 20
958.1687043157414
 30
0.0
 10
929.7494652715671
 20
957.9992673629275
 30
0.0
 10
927.2359344949916
 20
957.2138084907144
 30
0.0
 10
924.620695274612
 20
955.8136517087512
 30
0.0
 10
922.3952543836004
 20
954.1479098707582
 30
0.0
 10
920.676684854199
 20
952.6580595346048
 30
0.0
 10
919.6083786254828
 20
951.4099698152975
 30
0.0
 10
918.9414147554909
 20
950.0742189763805
 30
0.0
 10
918.6774354455683
 20
948.7614481169344
 30
0.0
 10
919.0600562093489
 20
947.3855077449186
 30
0.0
 10
920.1336420250033
 20
945.9714232697517
 30
0.0
 10
921.1888804971381
 20
945.1422886444127
 30
0.0
 10
921.827064240141
 20
944.6408472616116
 30
0.0
  0
LINE
  5
179
330
1F
100
AcDbEntity
  8
0
  6
Continuous
 62
     8
370
    18
100
AcDbLine
 10
915.9446231547
 20
936.666688466
 30
0.0
 11
921.8270642401
 21
944.6408472616
 31
0.0
  0
SPLINE
  5
17A
330
1F
100
AcDbEntity
  8
0
  6
Continuous
 62
     8
370
    18
100
AcDbSpline
210
0.0
220
0.0
230
1.0
 70
     8
 71
     3
 72
    11
 73
     7
 74
     0
 42
0.000000001
 43
0.00000001
 40
0.0
 40
0.0
 40
0.0
 40
0.0
 40
0.208652275057102
 40
0.4180461498251455
 40
0.707139844685689
 40
1.0
 40
1.0
 40
1.0
 40
1.0
 10
922.8996191151869
 20
931.3800856663198
 30
0.0
 10
922.3759940127948
 20
931.6610622584614
 30
0.0
 10
921.3268827201096
 20
932.2240141002451
 30
0.0
 10
919.6165067628533
 20
933.339072084696
 30
0.0
 10
917.7703283894787
 20
934.7475253631611
 30
0.0
 10
916.5558117219334
 20
936.0242131503027
 30
0.0
 10
915.9446231546918
 20
936.6666884660308
 30
0.0
  0
SPLINE
  5
17B
330
1F
100
AcDbEntity
  8
0
  6
Continuous
 62
     8
370
    18
100
AcDbSpline
210
0.0
220
0.0
230
1.0
 70
     8
 71
     3
 72
     9
 73
     5
 74
     0
 42
0.000000001
 43
0.00000001
 40
0.0
 40
0.0
 40
0.0
 40
0.0
 40
0.4979466281839517
 40
1.0
 40
1.0
 40
1.0
 40
1.0
 10
921.827064240141
 20
944.6408472616116
 30
0.0
 10
922.8106392347092
 20
944.0100797660544
 30
0.0
 10
924.7859011180062
 20
942.7433426101916
 30
0.0
 10
926.8823612637811
 20
941.6891987091262
 30
0.0
 10
927.9348961488454
 20
941.159962209217
 30
0.0
  0
LINE
  5
17C
330
1F
100
AcDbEntity
  8
0
  6
Continuous
 62
     8
370
    18
100
AcDbLine
 10
927.9348961488
 20
941.1599622092
 30
0.0
 11
922.8996191152
 21
931.3800856663
 31
0.0
  0
SPLINE
  5
17D
330
1F
100
AcDbEntity
  8
0
  6
Continuous
 62
     8
370
    18
100
AcDbSpline
210
0.0
220
0.0
230
1.0
 70
     8
 71
     3
 72
    21
 73
    17
 74
     0
 42
0.000000001
 43
0.00000001
 40
0.0
 40
0.0
 40
0.0
 40
0.0
 40
0.0575996839374355
 40
0.1356930566382803
 40
0.2164055400301534
 40
0.2512185653939531
 40
0.3293048865225224
 40
0.4092636364585429
 40
0.470467804064931
 40
0.5261582095357713
 40
0.5829972309833111
 40
0.6699291064424872
 40
0.7487170988516962
 40
0.8394997107027561
 40
0.9180548896099051
 40
1.0
 40
1.0
 40
1.0
 40
1.0
 10
932.0546682667053
 20
969.163043594293
 30
0.0
 10
932.9595683703689
 20
969.1265500484468
 30
0.0
 10
935.0913276548775
 20
969.0405787297707
 30
0.0
 10
938.3402781759075
 20
968.2774205585653
 30
0.0
 10
941.0784102914058
 20
967.1375523054336
 30
0.0
 10
943.625306434793
 20
965.6787307456657
 30
0.0
 10
945.9594370632398
 20
963.9528920158511
 30
0.0
 10
948.2581011190207
 20
961.6178019667828
 30
0.0
 10
949.9993986732153
 20
959.2889154733839
 30
0.0
 10
951.257058571927
 20
956.9972811474928
 30
0.0
 10
952.362660861201
 20
954.1475637742121
 30
0.0
 10
953.0384259848487
 20
950.7175398738752
 30
0.0
 10
952.9582355036707
 20
946.6497967748124
 30
0.0
 10
952.022979824788
 20
942.8646259778347
 30
0.0
 10
950.3741123453137
 20
939.41626240097
 30
0.0
 10
948.9114771557817
 20
937.5960281850568
 30
0.0
 10
948.164713379894
 20
936.6666884660325
 30
0.0
  0
LINE
  5
17E
330
1F
100
AcDbEntity
  8
0
  6
Continuous
 62
     8
370
    18
100
AcDbLine
 10
948.1647133799
 20
936.666688466
 30
0.0
 11
942.2822722944
 21
944.6408472616
 31
0.0
  0
SPLINE
  5
17F
330
1F
100
AcDbEntity
  8
0
  6
Continuous
 62
     8
370
    18
100
AcDbSpline
210
0.0
220
0.0
230
1.0
 70
     8
 71
     3
 72
    17
 73
    13
 74
     0
 42
0.000000001
 43
0.00000001
 40
0.0
 40
0.0
 40
0.0
 40
0.0
 40
0.0789144527054629
 40
0.1571593044481634
 40
0.2135614770373524
 40
0.2600875689337681
 40
0.3261379151498141
 40
0.4287697285227771
 40
0.5974697941885957
 40
0.7661237400516264
 40
0.941648175085645
 40
1.0
 40
1.0
 40
1.0
 40
1.0
 10
942.2822722944459
 20
944.6408472616121
 30
0.0
 10
942.7547948448989
 20
945.0027928416008
 30
0.0
 10
943.6958305211193
 20
945.7236128390662
 30
0.0
 10
944.7722462496749
 20
946.9419131656439
 30
0.0
 10
945.3465349846957
 20
948.2178273121507
 30
0.0
 10
945.3403770238692
 20
949.5196159914135
 30
0.0
 10
944.7616648249302
 20
951.067863513378
 30
0.0
 10
943.130429775119
 20
953.0581628499162
 30
0.0
 10
940.5435245003702
 20
955.1567064060109
 30
0.0
 10
937.2073900171307
 20
957.124968807994
 30
0.0
 10
934.2610276620717
 20
958.0764977712873
 30
0.0
 10
932.4983095325201
 20
958.149761032271
 30
0.0
 10
932.0585136349303
 20
958.1680401213009
 30
0.0
  0
ARC
  5
180
330
1F
100
AcDbEntity
  8
0
  6
Continuous
 62
     8
370
    18
100
AcDbCircle
 10
932.0546682673
 20
949.1616793807
 30
0.0
 40
9.000000000000066
100
AcDbArc
 50
242.7578274734
 51
297.2421725266
  0
LINE
  5
181
330
1F
100
AcDbEntity
  8
0
  6
Continuous
 62
     8
370
    18
100
AcDbLine
 10
936.1744403857
 20
941.1599622092
 30
0.0
 11
941.2097174194
 21
931.3800856663
 31
0.0
  0
SPLINE
  5
182
330
1F
100
AcDbEntity
  8
0
  6
Continuous
 62
     8
370
    18
100
AcDbSpline
210
0.0
220
0.0
230
1.0
 70
     8
 71
     3
 72
     9
 73
     5
 74
     0
 42
0.000000001
 43
0.00000001
 40
0.0
 40
0.0
 40
0.0
 40
0.0
 40
0.4992621918959262
 40
1.0
 40
1.0
 40
1.0
 40
1.0
 10
936.1744403857413
 20
941.159962209217
 30
0.0
 10
937.2210881449382
 20
941.6862948256769
 30
0.0
 10
939.3174771288952
 20
942.7405156839822
 30
0.0
 10
941.2930355172697
 20
944.0067805620761
 30
0.0
 10
942.2822722944459
 20
944.6408472616121
 30
0.0
  0
SPLINE
  5
183
330
1F
100
AcDbEntity
  8
0
  6
Continuous
 62
     8
370
    18
100
AcDbSpline
210
0.0
220
0.0
230
1.0
 70
     8
 71
     3
 72
    10
 73
     6
 74
     0
 42
0.000000001
 43
0.00000001
 40
0.0
 40
0.0
 40
0.0
 40
0.0
 40
0.0076204656895135
 40
0.4952213558631344
 40
1.0
 40
1.0
 40
1.0
 40
1.0
 10
948.164713379894
 20
936.6666884660325
 30
0.0
 10
948.1493680269771
 20
936.649261437164
 30
0.0
 10
947.152139407702
 20
935.5167536329695
 30
0.0
 10
944.9315120723951
 20
933.4936711978443
 30
0.0
 10
942.4645497315361
 20
932.0926976362699
 30
0.0
 10
941.2097174193998
 20
931.3800856663198
 30
0.0
  0
SPLINE
  5
184
330
1F
100
AcDbEntity
  8
0
  6
Continuous
 62
     8
370
    18
100
AcDbSpline
210
0.0
220
0.0
230
1.0
 70
     8
 71
     3
 72
    12
 73
     8
 74
     0
 42
0.000000001
 43
0.00000001
 40
0.0
 40
0.0
 40
0.0
 40
0.0
 40
0.000006074466645
 40
0.3341227654086641
 40
0.6739443301613988
 40
0.9999939255333555
 40
1.0
 40
1.0
 40
1.0
 40
1.0
 10
932.0546682672932
 20
969.8322437921234
 30
0.0
 10
932.0546882651113
 20
969.8322437234648
 30
0.0
 10
933.1546574659249
 20
969.8284671939383
 30
0.0
 10
935.373871703855
 20
969.717558336978
 30
0.0
 10
938.5931129739108
 20
969.2537076187867
 30
0.0
 10
940.6922607089468
 20
968.7640733282097
 30
0.0
 10
941.707098557748
 20
968.4727113888317
 30
0.0
 10
941.7071174643312
 20
968.4727059607144
 30
0.0
  0
SPLINE
  5
185
330
1F
100
AcDbEntity
  8
0
  6
Continuous
 62
     8
370
    18
100
AcDbSpline
210
0.0
220
0.0
230
1.0
 70
     8
 71
     3
 72
    12
 73
     8
 74
     0
 42
0.000000001
 43
0.00000001
 40
0.0
 40
0.0
 40
0.0
 40
0.0
 40
0.0000045934025293
 40
0.4143885673284389
 40
0.7037780019579091
 40
0.999995349056934
 40
1.0
 40
1.0
 40
1.0
 40
1.0
 10
941.7071174643312
 20
968.4727059607144
 30
0.0
 10
941.7071348964597
 20
968.4726981715381
 30
0.0
 10
943.2797544726683
 20
967.7700065180741
 30
0.0
 10
945.7944830341496
 20
966.2956858115568
 30
0.0
 10
948.8311900228493
 20
963.6346756888081
 30
0.0
 10
950.3245185520435
 20
961.8277302107557
 30
0.0
 10
950.9975646219362
 20
960.8652595543601
 30
0.0
 10
950.997575189345
 20
960.8652444427335
 30
0.0
  0
SPLINE
  5
186
330
1F
100
AcDbEntity
  8
0
  6
Continuous
 62
     8
370
    18
100
AcDbSpline
210
0.0
220
0.0
230
1.0
 70
     8
 71
     3
 72
    17
 73
    13
 74
     0
 42
0.000000001
 43
0.00000001
 40
0.0
 40
0.0
 40
0.0
 40
0.0
 40
0.0000021433935779
 40
0.1041532548279367
 40
0.2108142976269834
 40
0.309107518636427
 40
0.4099627238957811
 40
0.5117652441981475
 40
0.6173565118270797
 40
0.7189536236524962
 40
0.8238769623572231
 40
1.0
 40
1.0
 40
1.0
 40
1.0
 10
950.997575189345
 20
960.8652444427335
 30
0.0
 10
950.9975866038078
 20
960.8652298585624
 30
0.0
 10
951.5522460279091
 20
960.1565457885334
 30
0.0
 10
952.5854661682454
 20
958.6219045575821
 30
0.0
 10
953.7856339911409
 20
956.1185571959629
 30
0.0
 10
954.6138329433272
 20
953.4435914443571
 30
0.0
 10
955.0581066634851
 20
950.6857852249362
 30
0.0
 10
955.092517494978
 20
947.7985775749377
 30
0.0
 10
954.6722494736907
 20
944.9392004884336
 30
0.0
 10
953.8103980393698
 20
942.2056061091994
 30
0.0
 10
952.3178963383798
 20
939.1018731134859
 30
0.0
 10
950.7747519541472
 20
937.2586410829656
 30
0.0
 10
949.8077112827656
 20
936.103544801296
 30
0.0
  0
ARC
  5
187
330
1F
100
AcDbEntity
  8
0
  6
Continuous
 62
     8
370
    18
100
AcDbCircle
 10
947.8728359615
 20
933.1367891548
 30
0.0
 40
3.541946015256254
100
AcDbArc
 50
56.8881881133
 51
85.2731268278
  0
SPLINE
  5
188
330
1F
100
AcDbEntity
  8
0
  6
Continuous
 62
     8
370
    18
100
AcDbSpline
210
0.0
220
0.0
230
1.0
 70
     8
 71
     3
 72
     9
 73
     5
 74
     0
 42
0.000000001
 43
0.00000001
 40
0.0
 40
0.0
 40
0.0
 40
0.0
 40
0.4770884652791124
 40
1.0
 40
1.0
 40
1.0
 40
1.0
 10
932.0546682667053
 20
969.163043594293
 30
0.0
 10
932.0546682669508
 20
969.1976225648873
 30
0.0
 10
932.0546682674651
 20
969.2701017235987
 30
0.0
 10
932.0546682673521
 20
969.6392249823774
 30
0.0
 10
932.0546682672931
 20
969.8322437921265
 30
0.0
  0
SPLINE
  5
189
330
1F
100
AcDbEntity
  8
0
  6
Continuous
 62
     8
370
    18
100
AcDbSpline
210
0.0
220
0.0
230
1.0
 70
     8
 71
     3
 72
    13
 73
     9
 74
     0
 42
0.000000001
 43
0.00000001
 40
0.0
 40
0.0
 40
0.0
 40
0.0
 40
0.2149368602724844
 40
0.4364871802266625
 40
0.5720189549561242
 40
0.7091058686892358
 40
0.8535021383530081
 40
1.0
 40
1.0
 40
1.0
 40
1.0
 10
896.4982489866597
 20
961.1364423073469
 30
0.0
 10
896.499902444483
 20
959.7776509003945
 30
0.0
 10
896.5032602358918
 20
957.0182590074215
 30
0.0
 10
896.5054783163304
 20
953.1122080844422
 30
0.0
 10
896.5127516709865
 20
949.7018226737339
 30
0.0
 10
896.5159516837127
 20
946.8118678349325
 30
0.0
 10
896.5164367627755
 20
943.8653977894342
 30
0.0
 10
896.5157291309578
 20
941.9313469386084
 30
0.0
 10
896.5153727588726
 20
940.9573351471507
 30
0.0
  0
ARC
  5
18A
330
1F
100
AcDbEntity
  8
0
  6
Continuous
 62
     8
370
    18
100
AcDbCircle
 10
895.2284696307
 20
945.8485678063
 30
0.0
 40
5.057694789836673
100
AcDbArc
 50
270.052696186
 51
284.7406775986
  0
SPLINE
  5
18B
330
1F
100
AcDbEntity
  8
0
  6
Continuous
 62
     8
370
    18
100
AcDbSpline
210
0.0
220
0.0
230
1.0
 70
     8
 71
     3
 72
    13
 73
     9
 74
     0
 42
0.000000001
 43
0.00000001
 40
0.0
 40
0.0
 40
0.0
 40
0.0
 40
0.2027299767790357
 40
0.411328239685224
 40
0.6140610633746085
 40
0.8226668372537684
 40
0.9110997276786644
 40
1.0
 40
1.0
 40
1.0
 40
1.0
 10
895.1311770147953
 20
961.4014328204437
 30
0.0
 10
895.1159508869904
 20
960.0992951529083
 30
0.0
 10
895.0850578910619
 20
957.4573277284316
 30
0.0
 10
895.0622949912074
 20
953.1891024953313
 30
0.0
 10
895.1150639173949
 20
948.7949025718364
 30
0.0
 10
895.1694820558415
 20
945.2562064063582
 30
0.0
 10
895.2100269957737
 20
942.5865017192494
 30
0.0
 10
895.2254096863037
 20
941.390468104747
 30
0.0
 10
895.2331213029915
 20
940.790875155588
 30
0.0
  0
ARC
  5
18C
330
1F
100
AcDbEntity
  8
0
  6
Continuous
 62
     8
370
    18
100
AcDbCircle
 10
895.1591563304
 20
957.8869555469
 30
0.0
 40
3.514588645691876
100
AcDbArc
 50
67.6037550453
 51
90.456131227
  0
SPLINE
  5
18D
330
1F
100
AcDbEntity
  8
0
  6
Continuous
 62
     8
370
    18
100
AcDbSpline
210
0.0
220
0.0
230
1.0
 70
     8
 71
     3
 72
    13
 73
     9
 74
     0
 42
0.000000001
 43
0.00000001
 40
0.0
 40
0.0
 40
0.0
 40
0.0
 40
0.1436817584227077
 40
0.2896128899910157
 40
0.425471137718416
 40
0.5627814455502939
 40
0.7787239735870437
 40
0.9999999999999999
 40
0.9999999999999999
 40
0.9999999999999999
 40
0.9999999999999999
 10
898.4541597396666
 20
941.1381004231841
 30
0.0
 10
898.4732009386313
 20
942.0708260584346
 30
0.0
 10
898.5115814311979
 20
943.9508793773733
 30
0.0
 10
898.5769938982469
 20
946.8056365277101
 30
0.0
 10
898.6262151451159
 20
949.6296211671165
 30
0.0
 10
898.6630545272875
 20
952.9067082504973
 30
0.0
 10
898.6372228894695
 20
956.722942260594
 30
0.0
 10
898.5827242450968
 20
959.4315416552523
 30
0.0
 10
898.5551425165792
 20
960.8023620495261
 30
0.0
  0
ARC
  5
18E
330
1F
100
AcDbEntity
  8
0
  6
Continuous
 62
     8
370
    18
100
AcDbCircle
 10
898.2286987825
 20
933.068714618
 30
0.0
 40
8.07253491269232
100
AcDbArc
 50
88.399555844
 51
102.2537357991
  0
ARC
  5
18F
330
1F
100
AcDbEntity
  8
0
  6
Continuous
 62
     8
370
    18
100
AcDbCircle
 10
898.3810883001
 20
966.2297983376
 30
0.0
 40
5.430226471415072
100
AcDbArc
 50
249.71237279
 51
271.8368074448
  0
SPLINE
  5
190
330
1F
100
AcDbEntity
  8
0
  6
Continuous
 62
     8
370
    18
100
AcDbSpline
210
0.0
220
0.0
230
1.0
 70
     8
 71
     3
 72
    13
 73
     9
 74
     0
 42
0.000000001
 43
0.00000001
 40
0.0
 40
0.0
 40
0.0
 40
0.0
 40
0.2027299767790307
 40
0.4113282396852189
 40
0.6140610633746081
 40
0.8226668372537685
 40
0.911099727678664
 40
1.0
 40
1.0
 40
1.0
 40
1.0
 10
968.9781595197915
 20
961.4014328204435
 30
0.0
 10
968.9933856475963
 20
960.0992951529082
 30
0.0
 10
969.0242786435248
 20
957.4573277284313
 30
0.0
 10
969.0470415433792
 20
953.1891024953313
 30
0.0
 10
968.9942726171915
 20
948.794902571836
 30
0.0
 10
968.9398544787451
 20
945.2562064063578
 30
0.0
 10
968.8993095388129
 20
942.5865017192492
 30
0.0
 10
968.8839268482831
 20
941.3904681047468
 30
0.0
 10
968.8762152315952
 20
940.7908751555876
 30
0.0
  0
ARC
  5
191
330
1F
100
AcDbEntity
  8
0
  6
Continuous
 62
     8
370
    18
100
AcDbCircle
 10
968.8808669038
 20
945.8485678063
 30
0.0
 40
5.057694789841562
100
AcDbArc
 50
255.2593224014
 51
269.947303814
  0
SPLINE
  5
192
330
1F
100
AcDbEntity
  8
0
  6
Continuous
 62
     8
370
    18
100
AcDbSpline
210
0.0
220
0.0
230
1.0
 70
     8
 71
     3
 72
    13
 73
     9
 74
     0
 42
0.000000001
 43
0.00000001
 40
0.0
 40
0.0
 40
0.0
 40
0.0
 40
0.2149368602724794
 40
0.4364871802266574
 40
0.5720189549561239
 40
0.7091058686892351
 40
0.8535021383530079
 40
1.0
 40
1.0
 40
1.0
 40
1.0
 10
967.611087547927
 20
961.1364423073468
 30
0.0
 10
967.6094340901038
 20
959.7776509003943
 30
0.0
 10
967.6060762986951
 20
957.0182590074215
 30
0.0
 10
967.6038582182557
 20
953.1122080844422
 30
0.0
 10
967.5965848636002
 20
949.7018226737338
 30
0.0
 10
967.5933848508739
 20
946.8118678349323
 30
0.0
 10
967.5928997718112
 20
943.8653977894339
 30
0.0
 10
967.593607403629
 20
941.9313469386082
 30
0.0
 10
967.5939637757142
 20
940.9573351471505
 30
0.0
  0
ARC
  5
193
330
1F
100
AcDbEntity
  8
0
  6
Continuous
 62
     8
370
    18
100
AcDbCircle
 10
968.9501802042
 20
957.8869555469
 30
0.0
 40
3.514588645691424
100
AcDbArc
 50
89.543868773
 51
112.3962449547
  0
ARC
  5
194
330
1F
100
AcDbEntity
  8
0
  6
Continuous
 62
     8
370
    18
100
AcDbCircle
 10
965.8806377521
 20
933.068714618
 30
0.0
 40
8.072534912694914
100
AcDbArc
 50
77.7462642009
 51
91.600444156
  0
SPLINE
  5
195
330
1F
100
AcDbEntity
  8
0
  6
Continuous
 62
     8
370
    18
100
AcDbSpline
210
0.0
220
0.0
230
1.0
 70
     8
 71
     3
 72
    13
 73
     9
 74
     0
 42
0.000000001
 43
0.00000001
 40
0.0
 40
0.0
 40
0.0
 40
0.0
 40
0.1436817584227068
 40
0.2896128899910153
 40
0.4254711377184157
 40
0.5627814455502985
 40
0.7787239735870487
 40
0.9999999999999999
 40
0.9999999999999999
 40
0.9999999999999999
 40
0.9999999999999999
 10
965.6551767949201
 20
941.138100423184
 30
0.0
 10
965.6361355959552
 20
942.0708260584345
 30
0.0
 10
965.5977551033889
 20
943.9508793773731
 30
0.0
 10
965.5323426363399
 20
946.8056365277099
 30
0.0
 10
965.483121389471
 20
949.6296211671165
 30
0.0
 10
965.4462820072988
 20
952.9067082504972
 30
0.0
 10
965.472113645117
 20
956.7229422605939
 30
0.0
 10
965.5266122894898
 20
959.4315416552522
 30
0.0
 10
965.5541940180075
 20
960.8023620495259
 30
0.0
  0
ARC
  5
196
330
1F
100
AcDbEntity
  8
0
  6
Continuous
 62
     8
370
    18
100
AcDbCircle
 10
965.7282482344
 20
966.2297983375
 30
0.0
 40
5.430226471407292
100
AcDbArc
 50
268.1631925552
 51
290.28762721
  0
SPLINE
  5
197
330
1F
100
AcDbEntity
  8
0
  6
Continuous
 62
     8
370
    18
100
AcDbSpline
210
0.0
220
0.0
230
1.0
 70
     8
 71
     3
 72
    12
 73
     8
 74
     0
 42
0.000000001
 43
0.00000001
 40
0.0
 40
0.0
 40
0.0
 40
0.0
 40
0.1139159269059949
 40
0.3258009088085499
 40
0.5443041886655099
 40
0.8274327407183926
 40
1.0
 40
1.0
 40
1.0
 40
1.0
 10
887.582038755583
 20
940.9722176619349
 30
0.0
 10
887.5824106352037
 20
941.7256891456851
 30
0.0
 10
887.5834742153519
 20
943.8806265704554
 30
0.0
 10
887.5898258027064
 20
947.6355335486511
 30
0.0
 10
887.60333589726
 20
952.5814110628037
 30
0.0
 10
887.6050795118912
 20
957.1899069622912
 30
0.0
 10
887.6094963554107
 20
960.0458687478224
 30
0.0
 10
887.6111689680657
 20
961.1273917411955
 30
0.0
  0
ARC
  5
198
330
1F
100
AcDbEntity
  8
0
  6
Continuous
 62
     8
370
    18
100
AcDbCircle
 10
888.9627814947
 20
957.935255295
 30
0.0
 40
3.466495566625697
100
AcDbArc
 50
89.2238649506
 51
112.9487422267
  0
SPLINE
  5
199
330
1F
100
AcDbEntity
  8
0
  6
Continuous
 62
     8
370
    18
100
AcDbSpline
210
0.0
220
0.0
230
1.0
 70
     8
 71
     3
 72
    13
 73
     9
 74
     0
 42
0.000000001
 43
0.00000001
 40
0.0
 40
0.0
 40
0.0
 40
0.0
 40
0.2029467742027866
 40
0.4117773519856949
 40
0.614725859430711
 40
0.8235672334127713
 40
0.911553514309288
 40
1.0
 40
1.0
 40
1.0
 40
1.0
 10
888.9414348330786
 20
940.790875155588
 30
0.0
 10
888.9513944239459
 20
942.1735299042566
 30
0.0
 10
888.971602352701
 20
944.9789251284661
 30
0.0
 10
889.0114823336046
 20
949.3523251443139
 30
0.0
 10
889.0396642177068
 20
953.7458668778675
 30
0.0
 10
889.0291120214529
 20
957.1848200350588
 30
0.0
 10
889.0159977588061
 20
959.7253747918849
 30
0.0
 10
889.0118279424435
 20
960.8417761422976
 30
0.0
 10
889.0097375960163
 20
961.4014328204437
 30
0.0
  0
ARC
  5
19A
330
1F
100
AcDbEntity
  8
0
  6
Continuous
 62
     8
370
    18
100
AcDbCircle
 10
888.9024003518
 20
945.6841464424
 30
0.0
 40
4.893426976796949
100
AcDbArc
 50
254.3462356244
 51
270.4570487636
  0
ARC
  5
19B
330
1F
100
AcDbEntity
  8
0
  6
Continuous
 62
     8
370
    18
100
AcDbCircle
 10
885.7102787411
 20
933.7153800368
 30
0.0
 40
7.494343057923487
100
AcDbArc
 50
75.536903345
 51
90.7939043825
  0
SPLINE
  5
19C
330
1F
100
AcDbEntity
  8
0
  6
Continuous
 62
     8
370
    18
100
AcDbSpline
210
0.0
220
0.0
230
1.0
 70
     8
 71
     3
 72
    12
 73
     8
 74
     0
 42
0.000000001
 43
0.00000001
 40
0.0
 40
0.0
 40
0.0
 40
0.0
 40
0.1720163517394635
 40
0.4559765852487137
 40
0.667992488147798
 40
0.886316203050505
 40
1.0
 40
1.0
 40
1.0
 40
1.0
 10
885.5443390817852
 20
960.7476444267363
 30
0.0
 10
885.5260249777488
 20
959.699941509919
 30
0.0
 10
885.4774784149595
 20
956.9227171731947
 30
0.0
 10
885.4463590362133
 20
952.5010329079581
 30
0.0
 10
885.5042896539285
 20
947.7122914675533
 30
0.0
 10
885.5650191435215
 20
944.0701410785214
 30
0.0
 10
885.5958736225167
 20
941.9388024263085
 30
0.0
 10
885.6064386073434
 20
941.2090036659823
 30
0.0
  0
ARC
  5
19D
330
1F
100
AcDbEntity
  8
0
  6
Continuous
 62
     8
370
    18
100
AcDbCircle
 10
885.648002114
 20
965.9978278298
 30
0.0
 40
5.251206698454481
100
AcDbArc
 50
268.86886188
 51
291.9532916353
  0
SPLINE
  5
19E
330
1F
100
AcDbEntity
  8
0
  6
Continuous
 62
     8
370
    18
100
AcDbSpline
210
0.0
220
0.0
230
1.0
 70
     8
 71
     3
 72
    12
 73
     8
 74
     0
 42
0.000000001
 43
0.00000001
 40
0.0
 40
0.0
 40
0.0
 40
0.0
 40
0.1720163517392758
 40
0.4559765852483122
 40
0.6679924881472418
 40
0.886316203049785
 40
1.0
 40
1.0
 40
1.0
 40
1.0
 10
978.5649974528013
 20
960.7476444267351
 30
0.0
 10
978.5833115568379
 20
959.6999415099182
 30
0.0
 10
978.631858119627
 20
956.9227171731941
 30
0.0
 10
978.6629774983733
 20
952.5010329079579
 30
0.0
 10
978.6050468806584
 20
947.7122914675532
 30
0.0
 10
978.5443173910652
 20
944.0701410785157
 30
0.0
 10
978.5134629120699
 20
941.938802426298
 30
0.0
 10
978.5028979272432
 20
941.2090036659666
 30
0.0
  0
ARC
  5
19F
330
1F
100
AcDbEntity
  8
0
  6
Continuous
 62
     8
370
    18
100
AcDbCircle
 10
978.3990577935
 20
933.7153800358
 30
0.0
 40
7.494343058828168
100
AcDbArc
 50
89.206095618
 51
104.4630966537
  0
SPLINE
  5
1A0
330
1F
100
AcDbEntity
  8
0
  6
Continuous
 62
     8
370
    18
100
AcDbSpline
210
0.0
220
0.0
230
1.0
 70
     8
 71
     3
 72
    12
 73
     8
 74
     0
 42
0.000000001
 43
0.00000001
 40
0.0
 40
0.0
 40
0.0
 40
0.0
 40
0.1139185701341836
 40
0.3290869588708606
 40
0.5442936150078441
 40
0.827428736584325
 40
0.9999999999999999
 40
0.9999999999999999
 40
0.9999999999999999
 40
0.9999999999999999
 10
976.5272977790038
 20
940.9722176619348
 30
0.0
 10
976.5269293319765
 20
941.7256715293925
 30
0.0
 10
976.5258649654596
 20
943.902242404528
 30
0.0
 10
976.5193418837765
 20
947.659191497815
 30
0.0
 10
976.506022593967
 20
952.6038041773509
 30
0.0
 10
976.5042522516878
 20
957.1899343612553
 30
0.0
 10
976.4998388687063
 20
960.0458762735934
 30
0.0
 10
976.498167566521
 20
961.1273917411954
 30
0.0
  0
ARC
  5
1A1
330
1F
100
AcDbEntity
  8
0
  6
Continuous
 62
     8
370
    18
100
AcDbCircle
 10
978.4613344206
 20
965.9978278298
 30
0.0
 40
5.2512066984336
100
AcDbArc
 50
248.0467083646
 51
271.13113812
  0
SPLINE
  5
1A2
330
1F
100
AcDbEntity
  8
0
  6
Continuous
 62
     8
370
    18
100
AcDbSpline
210
0.0
220
0.0
230
1.0
 70
     8
 71
     3
 72
    13
 73
     9
 74
     0
 42
0.000000001
 43
0.00000001
 40
0.0
 40
0.0
 40
0.0
 40
0.0
 40
0.2029467742027865
 40
0.4117773519856947
 40
0.6147258594307159
 40
0.823567233412776
 40
0.9115535143092927
 40
1.0
 40
1.0
 40
1.0
 40
1.0
 10
975.1679017015082
 20
940.7908751555876
 30
0.0
 10
975.1579421106409
 20
942.1735299042564
 30
0.0
 10
975.1377341818855
 20
944.978925128466
 30
0.0
 10
975.097854200982
 20
949.3523251443138
 30
0.0
 10
975.0696723168797
 20
953.7458668778672
 30
0.0
 10
975.0802245131339
 20
957.1848200350587
 30
0.0
 10
975.0933387757807
 20
959.7253747918847
 30
0.0
 10
975.0975085921433
 20
960.8417761422972
 30
0.0
 10
975.0995989385705
 20
961.4014328204435
 30
0.0
  0
ARC
  5
1A3
330
1F
100
AcDbEntity
  8
0
  6
Continuous
 62
     8
370
    18
100
AcDbCircle
 10
975.1465550399
 20
957.935255295
 30
0.0
 40
3.466495566624876
100
AcDbArc
 50
67.0512577733
 51
90.7761350494
  0
ARC
  5
1A4
330
1F
100
AcDbEntity
  8
0
  6
Continuous
 62
     8
370
    18
100
AcDbCircle
 10
975.2069361827
 20
945.6841464424
 30
0.0
 40
4.893426976805794
100
AcDbArc
 50
269.5429512365
 51
285.6537643756
  0
SPLINE
  5
1A5
330
1F
100
AcDbEntity
  8
0
  6
Continuous
 62
     8
370
    18
100
AcDbSpline
210
0.0
220
0.0
230
1.0
 70
     8
 71
     3
 72
    18
 73
    14
 74
     0
 42
0.000000001
 43
0.00000001
 40
0.0
 40
0.0
 40
0.0
 40
0.0
 40
0.1170843799009914
 40
0.237281924902867
 40
0.3300747022077633
 40
0.4254586925014835
 40
0.4734360164953322
 40
0.5731168771933369
 40
0.6761579172513458
 40
0.7772864519268969
 40
0.8811332132399237
 40
0.9999978571948126
 40
1.0
 40
1.0
 40
1.0
 40
1.0
 10
914.3016252518208
 20
936.1035448012958
 30
0.0
 10
913.6494011640503
 20
936.8546755433662
 30
0.0
 10
912.3276109547576
 20
938.3769088974894
 30
0.0
 10
910.8664023807831
 20
940.9175526236252
 30
0.0
 10
909.8365800599324
 20
943.5206056520025
 30
0.0
 10
909.328635202611
 20
945.6523735482245
 30
0.0
 10
909.0468886496166
 20
947.8970780911905
 30
0.0
 10
909.017213942827
 20
950.2483163810571
 30
0.0
 10
909.4047288489253
 20
953.0480186169945
 30
0.0
 10
910.1884172720529
 20
955.7653860671733
 30
0.0
 10
911.3994709167523
 20
958.4185797654434
 30
0.0
 10
912.4785610098936
 20
960.0562092541016
 30
0.0
 10
913.1117499307786
 20
960.8652298585627
 30
0.0
 10
913.1117613452413
 20
960.8652444427336
 30
0.0
  0
SPLINE
  5
1A6
330
1F
100
AcDbEntity
  8
0
  6
Continuous
 62
     8
370
    18
100
AcDbSpline
210
0.0
220
0.0
230
1.0
 70
     8
 71
     3
 72
    12
 73
     8
 74
     0
 42
0.000000001
 43
0.00000001
 40
0.0
 40
0.0
 40
0.0
 40
0.0
 40
0.0000046503675272
 40
0.3713978843430385
 40
0.6812676171491645
 40
0.9999954071658926
 40
1.0
 40
1.0
 40
1.0
 40
1.0
 10
913.1117613452413
 20
960.8652444427336
 30
0.0
 10
913.1117719126503
 20
960.8652595543603
 30
0.0
 10
913.9557295672128
 20
962.0721375284046
 30
0.0
 10
915.7428663217323
 20
964.1467515165644
 30
0.0
 10
918.9157509785149
 20
966.6745832236285
 30
0.0
 10
921.1924510285119
 20
967.9321468053345
 30
0.0
 10
922.4022016381269
 20
968.4726981715381
 30
0.0
 10
922.4022190702555
 20
968.4727059607145
 30
0.0
  0
SPLINE
  5
1A7
330
1F
100
AcDbEntity
  8
0
  6
Continuous
 62
     8
370
    18
100
AcDbSpline
210
0.0
220
0.0
230
1.0
 70
     8
 71
     3
 72
    13
 73
     9
 74
     0
 42
0.000000001
 43
0.00000001
 40
0.0
 40
0.0
 40
0.0
 40
0.0
 40
0.0000060748835873
 40
0.0389961893340874
 40
0.4427059282785948
 40
0.8520774557676255
 40
0.9999939251164126
 40
1.0
 40
1.0
 40
1.0
 40
1.0
 10
922.4022190702555
 20
968.4727059607145
 30
0.0
 10
922.4022379768384
 20
968.4727113888326
 30
0.0
 10
922.5236040370445
 20
968.5075558292784
 30
0.0
 10
923.9039672257562
 20
968.8935751214336
 30
0.0
 10
926.6014820810308
 20
969.465823279854
 30
0.0
 10
929.7333961301631
 20
969.7869162931166
 30
0.0
 10
931.5677042695537
 20
969.8305718943088
 30
0.0
 10
932.0546482694754
 20
969.8322437234647
 30
0.0
 10
932.0546682672932
 20
969.8322437921233
 30
0.0
  0
ARC
  5
1A8
330
1F
100
AcDbEntity
  8
0
  6
Continuous
 62
     8
370
    18
100
AcDbCircle
 10
916.2365005731
 20
933.1367891548
 30
0.0
 40
3.541946015255378
100
AcDbArc
 50
94.7268731721
 51
123.1118118867
  0
LINE
  5
1A9
330
1F
100
AcDbEntity
  8
0
  6
Continuous
 62
     8
370
    18
100
AcDbLine
 10
895.1311770148
 20
961.4014328204
 30
0.0
 11
889.009737596
 21
961.4014328204
 31
0.0
  0
LINE
  5
1AA
330
1F
100
AcDbEntity
  8
0
  6
Continuous
 62
     8
370
    18
100
AcDbLine
 10
895.233121303
 20
940.7908751556
 30
0.0
 11
888.9414348331
 21
940.7908751556
 31
0.0
  0
LINE
  5
1AB
330
1F
100
AcDbEntity
  8
0
  6
Continuous
 62
     8
370
    18
100
AcDbLine
 10
968.9781595198
 20
961.4014328204
 30
0.0
 11
975.0995989386
 21
961.4014328204
 31
0.0
  0
LINE
  5
1AC
330
1F
100
AcDbEntity
  8
0
  6
Continuous
 62
     8
370
    18
100
AcDbLine
 10
968.8762152316
 20
940.7908751556
 30
0.0
 11
975.1679017015
 21
940.7908751556
 31
0.0
  0
SPLINE
  5
1AD
330
1F
100
AcDbEntity
  8
0
  6
Continuous
 62
     8
370
    18
100
AcDbSpline
210
0.0
220
0.0
230
1.0
 70
     8
 71
     3
 72
    11
 73
     7
 74
     0
 42
0.000000001
 43
0.00000001
 40
0.0
 40
0.0
 40
0.0
 40
0.0
 40
0.2462626445433184
 40
0.4941955352616855
 40
0.7464627646446215
 40
1.0
 40
1.0
 40
1.0
 40
1.0
 10
898.000642106149
 20
936.1612940917815
 30
0.0
 10
898.0707113016065
 20
936.5445436066267
 30
0.0
 10
898.2113249282435
 20
937.3136419791341
 30
0.0
 10
898.3335344196486
 20
938.540078946031
 30
0.0
 10
898.4192367077329
 20
939.8131200045331
 30
0.0
 10
898.4424992593247
 20
940.6957016029912
 30
0.0
 10
898.4541597396666
 20
941.1381004231841
 30
0.0
  0
SPLINE
  5
1AE
330
1F
100
AcDbEntity
  8
0
  6
Continuous
 62
     8
370
    18
100
AcDbSpline
210
0.0
220
0.0
230
1.0
 70
     8
 71
     3
 72
    12
 73
     8
 74
     0
 42
0.000000001
 43
0.00000001
 40
0.0
 40
0.0
 40
0.0
 40
0.0
 40
0.1229311840443836
 40
0.3421870394857943
 40
0.5614466570298289
 40
0.7807202463634099
 40
1.0
 40
1.0
 40
1.0
 40
1.0
 10
898.5551425165792
 20
960.8023620495261
 30
0.0
 10
898.5536717707975
 20
960.914258196123
 30
0.0
 10
898.549577853141
 20
961.2257284827838
 30
0.0
 10
898.5433384648856
 20
961.7357035323075
 30
0.0
 10
898.5354791758672
 20
962.3319976611526
 30
0.0
 10
898.5276296543652
 20
962.926932845352
 30
0.0
 10
898.5225682043284
 20
963.3221159154843
 30
0.0
 10
898.5200374437381
 20
963.519710227896
 30
0.0
  0
SPLINE
  5
1AF
330
1F
100
AcDbEntity
  8
0
  6
Continuous
 62
     8
370
    18
100
AcDbSpline
210
0.0
220
0.0
230
1.0
 70
     8
 71
     3
 72
    13
 73
     9
 74
     0
 42
0.000000001
 43
0.00000001
 40
0.0
 40
0.0
 40
0.0
 40
0.0
 40
0.2367907207557265
 40
0.4727251677986153
 40
0.6779786081237327
 40
0.8068813697292117
 40
0.9029811039670014
 40
1.0
 40
1.0
 40
1.0
 40
1.0
 10
898.5200374437381
 20
963.519710227896
 30
0.0
 10
898.5035563075868
 20
964.0041345277848
 30
0.0
 10
898.4706536337497
 20
964.9712313705994
 30
0.0
 10
898.1846169770907
 20
966.3223997197106
 30
0.0
 10
897.67375898229
 20
967.3928880034625
 30
0.0
 10
896.9932521394429
 20
968.0318775238368
 30
0.0
 10
896.3276289338805
 20
968.3517339387635
 30
0.0
 10
895.8777812097937
 20
968.3910034092787
 30
0.0
 10
895.6517868067025
 20
968.4107315974492
 30
0.0
  0
SPLINE
  5
1B0
330
1F
100
AcDbEntity
  8
0
  6
Continuous
 62
     8
370
    18
100
AcDbSpline
210
0.0
220
0.0
230
1.0
 70
     8
 71
     3
 72
    11
 73
     7
 74
     0
 42
0.000000001
 43
0.00000001
 40
0.0
 40
0.0
 40
0.0
 40
0.0
 40
0.2499912677933777
 40
0.4999867562316059
 40
0.749992678491824
 40
1.0
 40
1.0
 40
1.0
 40
1.0
 10
895.6517868067025
 20
968.4107315974492
 30
0.0
 10
895.0592967492796
 20
968.4162294523766
 30
0.0
 10
893.8743066313241
 20
968.4272252550527
 30
0.0
 10
892.09694861902
 20
968.4485822447849
 30
0.0
 10
890.3197570598377
 20
968.4754551643654
 30
0.0
 10
889.134988619089
 20
968.492405095105
 30
0.0
 10
888.5426027409737
 20
968.5008800841914
 30
0.0
  0
SPLINE
  5
1B1
330
1F
100
AcDbEntity
  8
0
  6
Continuous
 62
     8
370
    18
100
AcDbSpline
210
0.0
220
0.0
230
1.0
 70
     8
 71
     3
 72
    10
 73
     6
 74
     0
 42
0.000000001
 43
0.00000001
 40
0.0
 40
0.0
 40
0.0
 40
0.0
 40
0.4993573099105828
 40
0.9998128115878191
 40
0.9999999999999999
 40
0.9999999999999999
 40
0.9999999999999999
 40
0.9999999999999999
 10
888.5426027409737
 20
968.5008800841914
 30
0.0
 10
888.4892457367771
 20
968.5008034640906
 30
0.0
 10
888.382414385108
 20
968.5006500553852
 30
0.0
 10
888.2756613598063
 20
968.495035313873
 30
0.0
 10
888.222325485308
 20
968.4912703289999
 30
0.0
 10
888.2223055432258
 20
968.4912689212864
 30
0.0
  0
SPLINE
  5
1B2
330
1F
100
AcDbEntity
  8
0
  6
Continuous
 62
     8
370
    18
100
AcDbSpline
210
0.0
220
0.0
230
1.0
 70
     8
 71
     3
 72
    14
 73
    10
 74
     0
 42
0.000000001
 43
0.00000001
 40
0.0
 40
0.0
 40
0.0
 40
0.0
 40
0.0000086772972158
 40
0.0546554576672727
 40
0.1545956188497728
 40
0.2815115513695395
 40
0.4757791841528836
 40
0.7372214479202452
 40
1.0
 40
1.0
 40
1.0
 40
1.0
 10
888.2223055432258
 20
968.4912689212864
 30
0.0
 10
888.2222857003386
 20
968.4912668004531
 30
0.0
 10
888.0973018417832
 20
968.4779083650701
 30
0.0
 10
887.7468449375282
 20
968.413507160788
 30
0.0
 10
887.156630786643
 20
968.1575209755516
 30
0.0
 10
886.4746271554912
 20
967.5415843718966
 30
0.0
 10
885.9239002397395
 20
966.465910325621
 30
0.0
 10
885.6164635821436
 20
965.0450943011839
 30
0.0
 10
885.58646180877
 20
963.9860806397131
 30
0.0
 10
885.5714226834077
 20
963.4552240461146
 30
0.0
  0
SPLINE
  5
1B3
330
1F
100
AcDbEntity
  8
0
  6
Continuous
 62
     8
370
    18
100
AcDbSpline
210
0.0
220
0.0
230
1.0
 70
     8
 71
     3
 72
    10
 73
     6
 74
     0
 42
0.000000001
 43
0.00000001
 40
0.0
 40
0.0
 40
0.0
 40
0.0
 40
0.4999712442950947
 40
0.7499826264318606
 40
1.0
 40
1.0
 40
1.0
 40
1.0
 10
885.5714226834077
 20
963.4552240461146
 30
0.0
 10
885.5669196449262
 20
963.0057820893686
 30
0.0
 10
885.5601648551942
 20
962.3315959976779
 30
0.0
 10
885.5509903655645
 20
961.4276199348307
 30
0.0
 10
885.5465561940887
 20
960.9743047400015
 30
0.0
 10
885.5443390817852
 20
960.7476444267363
 30
0.0
  0
SPLINE
  5
1B4
330
1F
100
AcDbEntity
  8
0
  6
Continuous
 62
     8
370
    18
100
AcDbSpline
210
0.0
220
0.0
230
1.0
 70
     8
 71
     3
 72
    11
 73
     7
 74
     0
 42
0.000000001
 43
0.00000001
 40
0.0
 40
0.0
 40
0.0
 40
0.0
 40
0.247159344012884
 40
0.4953474341907572
 40
0.7469783905689309
 40
0.9999999999999999
 40
0.9999999999999999
 40
0.9999999999999999
 40
0.9999999999999999
 10
885.6064386073434
 20
941.2090036659823
 30
0.0
 10
885.6154535385308
 20
940.7715896999518
 30
0.0
 10
885.6335209235647
 20
939.8949411288945
 30
0.0
 10
885.7060689284795
 20
938.6128789210823
 30
0.0
 10
885.8128712119628
 20
937.3534031680575
 30
0.0
 10
885.9428239528917
 20
936.5506930675488
 30
0.0
 10
886.0079793764197
 20
936.148232017516
 30
0.0
  0
SPLINE
  5
1B5
330
1F
100
AcDbEntity
  8
0
  6
Continuous
 62
     8
370
    18
100
AcDbSpline
210
0.0
220
0.0
230
1.0
 70
     8
 71
     3
 72
    18
 73
    14
 74
     0
 42
0.000000001
 43
0.00000001
 40
0.0
 40
0.0
 40
0.0
 40
0.0
 40
0.0523730000254543
 40
0.1524774488988123
 40
0.2527454654215904
 40
0.3528294914886521
 40
0.4529446917616057
 40
0.556569686972854
 40
0.6602042581553643
 40
0.7756279704749339
 40
0.8910143299899648
 40
0.9999989407468236
 40
1.0
 40
1.0
 40
1.0
 40
1.0
 10
886.0079793764197
 20
936.148232017516
 30
0.0
 10
885.019350846006
 20
936.1536544196292
 30
0.0
 10
882.1410823459618
 20
936.1694410661976
 30
0.0
 10
877.3777056037121
 20
936.0458427663361
 30
0.0
 10
871.9424488685476
 20
935.7800471679992
 30
0.0
 10
866.8351972508524
 20
935.6948019155493
 30
0.0
 10
862.1207340620947
 20
935.5937285602304
 30
0.0
 10
857.9136545888341
 20
935.5088901849592
 30
0.0
 10
854.168836384677
 20
935.431193100332
 30
0.0
 10
851.1320986233948
 20
935.3771311656342
 30
0.0
 10
849.0361994252203
 20
935.3318515808552
 30
0.0
 10
848.3721592792633
 20
935.2911172021167
 30
0.0
 10
848.223831520786
 20
935.2738254453592
 30
0.0
 10
848.2238300791594
 20
935.2738252772973
 30
0.0
  0
SPLINE
  5
1B6
330
1F
100
AcDbEntity
  8
0
  6
Continuous
 62
     8
370
    18
100
AcDbSpline
210
0.0
220
0.0
230
1.0
 70
    24
 71
     3
 72
    13
 73
     9
 74
     0
 42
0.000000001
 43
0.00000001
 40
0.0
 40
0.0
 40
0.0
 40
0.0
 40
0.011033813517655
 40
0.1238791831256929
 40
0.2424431658813991
 40
0.3676203809258462
 40
0.4940963046860029
 40
0.9999999999999999
 40
0.9999999999999999
 40
0.9999999999999999
 40
0.9999999999999999
 10
932.0546682672932
 20
969.8322437921331
 30
0.0
 10
932.0546682672932
 20
969.8472199303702
 30
0.0
 10
932.0546682672932
 20
970.0153605073539
 30
0.0
 10
932.0546682672932
 20
970.3177647457909
 30
0.0
 10
932.0546682672934
 20
970.6443718099051
 30
0.0
 10
932.0546682672932
 20
971.5200908978015
 30
0.0
 10
932.0546682672932
 20
973.1271502117338
 30
0.0
 10
932.0546682672932
 20
974.5074441944145
 30
0.0
 10
932.0546682672932
 20
975.6116793806783
 30
0.0
  0
SPLINE
  5
1B7
330
1F
100
AcDbEntity
  8
0
  6
Continuous
 62
     8
370
    18
100
AcDbSpline
210
0.0
220
0.0
230
1.0
 70
     8
 71
     3
 72
    10
 73
     6
 74
     0
 42
0.000000001
 43
0.00000001
 40
0.0
 40
0.0
 40
0.0
 40
0.0
 40
0.1324174185454043
 40
0.5661890535506221
 40
1.0
 40
1.0
 40
1.0
 40
1.0
 10
914.3016252518208
 20
936.1035448012958
 30
0.0
 10
913.5821733222463
 20
936.1051549894564
 30
0.0
 10
910.5059480676255
 20
936.1120398156421
 30
0.0
 10
905.0723439916883
 20
936.1360281036655
 30
0.0
 10
900.3579472734143
 20
936.152871841338
 30
0.0
 10
898.000642106149
 20
936.1612940917815
 30
0.0
  0
SPLINE
  5
1B8
330
1F
100
AcDbEntity
  8
0
  6
Continuous
 62
     8
370
    18
100
AcDbSpline
210
0.0
220
0.0
230
1.0
 70
     8
 71
     3
 72
    13
 73
     9
 74
     0
 42
0.000000001
 43
0.00000001
 40
0.0
 40
0.0
 40
0.0
 40
0.0
 40
0.0000053737334978
 40
0.0906707942514938
 40
0.4284179505337235
 40
0.7661993120302164
 40
0.9999947023277419
 40
1.0
 40
1.0
 40
1.0
 40
1.0
 10
1014.250866543964
 20
959.7725317374503
 30
0.0
 10
1014.25086426758
 20
959.7725488725689
 30
0.0
 10
1014.212454930846
 20
960.0616690574069
 30
0.0
 10
1014.045395937043
 20
961.4125386325966
 30
0.0
 10
1013.903931034584
 20
963.6932786523253
 30
0.0
 10
1014.007752615456
 20
966.0606345197846
 30
0.0
 10
1014.195758287481
 20
967.321500684413
 30
0.0
 10
1014.282478204011
 20
967.7937268200936
 30
0.0
 10
1014.282480168992
 20
967.7937375202303
 30
0.0
  0
SPLINE
  5
1B9
330
1F
100
AcDbEntity
  8
0
  6
Continuous
 62
     8
370
    18
100
AcDbSpline
210
0.0
220
0.0
230
1.0
 70
     8
 71
     3
 72
    16
 73
    12
 74
     0
 42
0.000000001
 43
0.00000001
 40
0.0
 40
0.0
 40
0.0
 40
0.0
 40
0.1394094534900457
 40
0.2827549548329896
 40
0.4174662298324172
 40
0.5565082610192973
 40
0.6798003195682376
 40
0.8081263295826784
 40
0.9032923535072406
 40
0.9999977543174701
 40
1.0
 40
1.0
 40
1.0
 40
1.0
 10
1011.057394240625
 20
935.4107932772208
 30
0.0
 10
1011.33914706639
 20
936.3430400172635
 30
0.0
 10
1011.910607649076
 20
938.233854293304
 30
0.0
 10
1012.839293081458
 20
941.4534202714439
 30
0.0
 10
1013.703028930736
 20
944.8959005460836
 30
0.0
 10
1014.357885385666
 20
948.3604528217348
 30
0.0
 10
1014.719840351661
 20
951.8396037915052
 30
0.0
 10
1014.709087438682
 20
954.8752521147505
 30
0.0
 10
1014.510614669765
 20
957.5354916488233
 30
0.0
 10
1014.339214336266
 20
959.0403391471923
 30
0.0
 10
1014.250868595471
 20
959.7725147353415
 30
0.0
 10
1014.250866543964
 20
959.7725317374503
 30
0.0
  0
SPLINE
  5
1BA
330
1F
100
AcDbEntity
  8
0
  6
Continuous
 62
     8
370
    18
100
AcDbSpline
210
0.0
220
0.0
230
1.0
 70
     8
 71
     3
 72
    15
 73
    11
 74
     0
 42
0.000000001
 43
0.00000001
 40
0.0
 40
0.0
 40
0.0
 40
0.0
 40
0.0741043092108464
 40
0.2157454416471995
 40
0.3576180114208004
 40
0.4992302469455367
 40
0.6408865918967281
 40
0.7875090630818142
 40
0.9341450836288826
 40
1.0
 40
1.0
 40
1.0
 40
1.0
 10
978.1013571581677
 20
936.1482320175162
 30
0.0
 10
979.0899865729255
 20
936.1536544294702
 30
0.0
 10
981.968257647627
 20
936.1694411046889
 30
0.0
 10
986.7316013826949
 20
936.0458424375248
 30
0.0
 10
992.1669962700406
 20
935.780048376541
 30
0.0
 10
997.273735241091
 20
935.6947974193748
 30
0.0
 10
1001.990133212303
 20
935.5937455942566
 30
0.0
 10
1006.189745579231
 20
935.5088241252504
 30
0.0
 10
1009.158097289408
 20
935.4479674776364
 30
0.0
 10
1010.608032267353
 20
935.4195884643256
 30
0.0
 10
1011.057394240625
 20
935.4107932772208
 30
0.0
  0
SPLINE
  5
1BB
330
1F
100
AcDbEntity
  8
0
  6
Continuous
 62
     8
370
    18
100
AcDbSpline
210
0.0
220
0.0
230
1.0
 70
     8
 71
     3
 72
    11
 73
     7
 74
     0
 42
0.000000001
 43
0.00000001
 40
0.0
 40
0.0
 40
0.0
 40
0.0
 40
0.2471593440107359
 40
0.4953474341893453
 40
0.7469783905682664
 40
1.0
 40
1.0
 40
1.0
 40
1.0
 10
978.5028979272432
 20
941.2090036659666
 30
0.0
 10
978.4938829960558
 20
940.7715896999415
 30
0.0
 10
978.4758156110219
 20
939.8949411288894
 30
0.0
 10
978.4032676061074
 20
938.612878921082
 30
0.0
 10
978.2964653226238
 20
937.3534031680575
 30
0.0
 10
978.1665125816954
 20
936.5506930675488
 30
0.0
 10
978.1013571581677
 20
936.1482320175162
 30
0.0
  0
SPLINE
  5
1BC
330
1F
100
AcDbEntity
  8
0
  6
Continuous
 62
     8
370
    18
100
AcDbSpline
210
0.0
220
0.0
230
1.0
 70
     8
 71
     3
 72
    10
 73
     6
 74
     0
 42
0.000000001
 43
0.00000001
 40
0.0
 40
0.0
 40
0.0
 40
0.0
 40
0.499971244294921
 40
0.749982626431599
 40
1.0
 40
1.0
 40
1.0
 40
1.0
 10
978.5379138511788
 20
963.4552240461145
 30
0.0
 10
978.5424168896603
 20
963.0057820893684
 30
0.0
 10
978.5491716793924
 20
962.3315959976777
 30
0.0
 10
978.5583461690221
 20
961.4276199348301
 30
0.0
 10
978.562780340498
 20
960.9743047400005
 30
0.0
 10
978.5649974528013
 20
960.7476444267351
 30
0.0
  0
SPLINE
  5
1BD
330
1F
100
AcDbEntity
  8
0
  6
Continuous
 62
     8
370
    18
100
AcDbSpline
210
0.0
220
0.0
230
1.0
 70
     8
 71
     3
 72
    14
 73
    10
 74
     0
 42
0.000000001
 43
0.00000001
 40
0.0
 40
0.0
 40
0.0
 40
0.0
 40
0.0000086772971397
 40
0.0546554576672007
 40
0.1545956188497117
 40
0.2815115513694876
 40
0.475779184152846
 40
0.7372214479202277
 40
1.0
 40
1.0
 40
1.0
 40
1.0
 10
975.8870309913611
 20
968.4912689212862
 30
0.0
 10
975.8870508342484
 20
968.4912668004529
 30
0.0
 10
976.0120346928304
 20
968.4779083650035
 30
0.0
 10
976.3624915970353
 20
968.413507160845
 30
0.0
 10
976.9527057479534
 20
968.1575209755271
 30
0.0
 10
977.6347093790906
 20
967.5415843719078
 30
0.0
 10
978.1854362948491
 20
966.465910325616
 30
0.0
 10
978.4928729524422
 20
965.045094301185
 30
0.0
 10
978.5228747258165
 20
963.9860806397132
 30
0.0
 10
978.5379138511788
 20
963.4552240461145
 30
0.0
  0
SPLINE
  5
1BE
330
1F
100
AcDbEntity
  8
0
  6
Continuous
 62
     8
370
    18
100
AcDbSpline
210
0.0
220
0.0
230
1.0
 70
     8
 71
     3
 72
    10
 73
     6
 74
     0
 42
0.000000001
 43
0.00000001
 40
0.0
 40
0.0
 40
0.0
 40
0.0
 40
0.4993573099096776
 40
0.9998128115861747
 40
1.0
 40
1.0
 40
1.0
 40
1.0
 10
975.5667337936129
 20
968.5008800841913
 30
0.0
 10
975.6200907978116
 20
968.5008034640914
 30
0.0
 10
975.7269221494853
 20
968.5006500553882
 30
0.0
 10
975.8336751747645
 20
968.4950353138656
 30
0.0
 10
975.8870110492788
 20
968.4912703289998
 30
0.0
 10
975.8870309913611
 20
968.4912689212862
 30
0.0
  0
SPLINE
  5
1BF
330
1F
100
AcDbEntity
  8
0
  6
Continuous
 62
     8
370
    18
100
AcDbSpline
210
0.0
220
0.0
230
1.0
 70
     8
 71
     3
 72
    11
 73
     7
 74
     0
 42
0.000000001
 43
0.00000001
 40
0.0
 40
0.0
 40
0.0
 40
0.0
 40
0.2499912677933775
 40
0.4999867562316062
 40
0.7499926784918242
 40
1.0
 40
1.0
 40
1.0
 40
1.0
 10
968.4575497278842
 20
968.4107315974488
 30
0.0
 10
969.0500397853069
 20
968.4162294523762
 30
0.0
 10
970.2350299032624
 20
968.4272252550525
 30
0.0
 10
972.0123879155665
 20
968.4485822447847
 30
0.0
 10
973.7895794747487
 20
968.4754551643653
 30
0.0
 10
974.9743479154974
 20
968.4924050951048
 30
0.0
 10
975.5667337936129
 20
968.5008800841913
 30
0.0
  0
SPLINE
  5
1C0
330
1F
100
AcDbEntity
  8
0
  6
Continuous
 62
     8
370
    18
100
AcDbSpline
210
0.0
220
0.0
230
1.0
 70
     8
 71
     3
 72
    13
 73
     9
 74
     0
 42
0.000000001
 43
0.00000001
 40
0.0
 40
0.0
 40
0.0
 40
0.0
 40
0.236790720755729
 40
0.472725167798617
 40
0.6779786081237344
 40
0.8068813697292123
 40
0.9029811039670017
 40
0.9999999999999999
 40
0.9999999999999999
 40
0.9999999999999999
 40
0.9999999999999999
 10
965.5892990908484
 20
963.5197102278958
 30
0.0
 10
965.6057802269997
 20
964.0041345277846
 30
0.0
 10
965.6386829008369
 20
964.9712313705992
 30
0.0
 10
965.9247195574959
 20
966.3223997197102
 30
0.0
 10
966.4355775522966
 20
967.3928880034624
 30
0.0
 10
967.1160843951437
 20
968.0318775238366
 30
0.0
 10
967.7817076007061
 20
968.3517339387631
 30
0.0
 10
968.2315553247928
 20
968.3910034092785
 30
0.0
 10
968.4575497278842
 20
968.4107315974488
 30
0.0
  0
SPLINE
  5
1C1
330
1F
100
AcDbEntity
  8
0
  6
Continuous
 62
     8
370
    18
100
AcDbSpline
210
0.0
220
0.0
230
1.0
 70
     8
 71
     3
 72
    12
 73
     8
 74
     0
 42
0.000000001
 43
0.00000001
 40
0.0
 40
0.0
 40
0.0
 40
0.0
 40
0.1229311840443831
 40
0.3421870394857952
 40
0.5614466570298312
 40
0.7807202463634135
 40
1.0
 40
1.0
 40
1.0
 40
1.0
 10
965.5541940180075
 20
960.8023620495259
 30
0.0
 10
965.5556647637892
 20
960.9142581961228
 30
0.0
 10
965.5597586814455
 20
961.2257284827836
 30
0.0
 10
965.5659980697011
 20
961.7357035323072
 30
0.0
 10
965.5738573587195
 20
962.3319976611523
 30
0.0
 10
965.5817068802214
 20
962.9269328453518
 30
0.0
 10
965.5867683302581
 20
963.3221159154842
 30
0.0
 10
965.5892990908484
 20
963.5197102278958
 30
0.0
  0
SPLINE
  5
1C2
330
1F
100
AcDbEntity
  8
0
  6
Continuous
 62
     8
370
    18
100
AcDbSpline
210
0.0
220
0.0
230
1.0
 70
     8
 71
     3
 72
    11
 73
     7
 74
     0
 42
0.000000001
 43
0.00000001
 40
0.0
 40
0.0
 40
0.0
 40
0.0
 40
0.2462626445433908
 40
0.4941955352617329
 40
0.7464627646446462
 40
1.0
 40
1.0
 40
1.0
 40
1.0
 10
966.108694428438
 20
936.1612940917809
 30
0.0
 10
966.0386252329803
 20
936.5445436066261
 30
0.0
 10
965.8980116063433
 20
937.3136419791336
 30
0.0
 10
965.7758021149383
 20
938.5400789460308
 30
0.0
 10
965.6900998268541
 20
939.8131200045327
 30
0.0
 10
965.6668372752621
 20
940.695701602991
 30
0.0
 10
965.6551767949201
 20
941.138100423184
 30
0.0
  0
SPLINE
  5
1C3
330
1F
100
AcDbEntity
  8
0
  6
Continuous
 62
     8
370
    18
100
AcDbSpline
210
0.0
220
0.0
230
1.0
 70
     8
 71
     3
 72
    10
 73
     6
 74
     0
 42
0.000000001
 43
0.00000001
 40
0.0
 40
0.0
 40
0.0
 40
0.0
 40
0.1324174185454155
 40
0.5661890535506273
 40
1.0
 40
1.0
 40
1.0
 40
1.0
 10
949.8077112827656
 20
936.103544801296
 30
0.0
 10
950.5271632123404
 20
936.1051549894565
 30
0.0
 10
953.6033884669612
 20
936.112039815642
 30
0.0
 10
959.0369925428985
 20
936.1360281036655
 30
0.0
 10
963.7513892611726
 20
936.1528718413375
 30
0.0
 10
966.108694428438
 20
936.1612940917809
 30
0.0
  0
SPLINE
  5
1C4
330
1F
100
AcDbEntity
  8
0
  6
Continuous
 62
     8
370
    18
100
AcDbSpline
210
0.0
220
0.0
230
1.0
 70
     8
 71
     3
 72
    11
 73
     7
 74
     0
 42
0.000000001
 43
0.00000001
 40
0.0
 40
0.0
 40
0.0
 40
0.0
 40
0.0000075172908922
 40
0.4486753649769359
 40
0.9105406426921419
 40
1.0
 40
1.0
 40
1.0
 40
1.0
 10
1014.282480168992
 20
967.7937375202303
 30
0.0
 10
1014.282483823112
 20
967.7937457044391
 30
0.0
 10
1014.500582853939
 20
968.2822265799275
 30
0.0
 10
1014.814367136661
 20
969.0684460305653
 30
0.0
 10
1014.940556020536
 20
969.5403857099751
 30
0.0
 10
1014.984727264232
 20
969.684548135797
 30
0.0
 10
1014.991894604165
 20
969.7079403028484
 30
0.0
  0
SPLINE
  5
1C5
330
1F
100
AcDbEntity
  8
0
  6
Continuous
 62
     8
370
    18
100
AcDbSpline
210
0.0
220
0.0
230
1.0
 70
     8
 71
     3
 72
    11
 73
     7
 74
     0
 42
0.000000001
 43
0.00000001
 40
0.0
 40
0.0
 40
0.0
 40
0.0
 40
0.3674155899718534
 40
0.7400731437703103
 40
0.8699218969645782
 40
1.0
 40
1.0
 40
1.0
 40
1.0
 10
896.5153727588726
 20
940.9573351471507
 30
0.0
 10
896.5150016908341
 20
940.3302980180803
 30
0.0
 10
896.5142542606834
 20
939.0672777433895
 30
0.0
 10
896.511853110189
 20
937.679606505949
 30
0.0
 10
896.5033796583699
 20
936.7156018594609
 30
0.0
 10
896.4956688478873
 20
936.3337764303558
 30
0.0
 10
896.4918100407791
 20
936.1426952614872
 30
0.0
  0
SPLINE
  5
1C6
330
1F
100
AcDbEntity
  8
0
  6
Continuous
 62
     8
370
    18
100
AcDbSpline
210
0.0
220
0.0
230
1.0
 70
     8
 71
     3
 72
    17
 73
    13
 74
     0
 42
0.000000001
 43
0.00000001
 40
0.0
 40
0.0
 40
0.0
 40
0.0
 40
0.3465956100132762
 40
0.5797997290136636
 40
0.7338947238710153
 40
0.8810219207410038
 40
0.9331891565949334
 40
0.95245935630308
 40
0.9753918570412522
 40
0.9867243403144463
 40
0.9980977605384078
 40
1.0
 40
1.0
 40
1.0
 40
1.0
 10
896.4918100407791
 20
936.1426952614872
 30
0.0
 10
896.4817930177326
 20
935.7620343049743
 30
0.0
 10
896.4650361198374
 20
935.1252486300959
 30
0.0
 10
896.4472417497561
 20
934.3909844097776
 30
0.0
 10
896.4121487294709
 20
933.8826752982246
 30
0.0
 10
896.3634489637848
 20
933.5623322606451
 30
0.0
 10
896.2810915531625
 20
933.375033796007
 30
0.0
 10
896.2210552771163
 20
933.30148268387
 30
0.0
 10
896.1716833917872
 20
933.2644324223955
 30
0.0
 10
896.1133760516915
 20
933.246292792094
 30
0.0
 10
896.0782013880614
 20
933.2440153273585
 30
0.0
 10
896.0597463363982
 20
933.2451622342636
 30
0.0
 10
896.0571019534922
 20
933.2453265719782
 30
0.0
  0
SPLINE
  5
1C7
330
1F
100
AcDbEntity
  8
0
  6
Continuous
 62
     8
370
    18
100
AcDbSpline
210
0.0
220
0.0
230
1.0
 70
     8
 71
     3
 72
    13
 73
     9
 74
     0
 42
0.000000001
 43
0.00000001
 40
0.0
 40
0.0
 40
0.0
 40
0.0
 40
0.2478822118510306
 40
0.5026960354996659
 40
0.5906876656854299
 40
0.6789803873276613
 40
0.8384693780655339
 40
0.9999999999999999
 40
0.9999999999999999
 40
0.9999999999999999
 40
0.9999999999999999
 10
895.2331213029915
 20
940.790875155588
 30
0.0
 10
895.2481945868093
 20
940.0431666778467
 30
0.0
 10
895.2787626536369
 20
938.5268413043425
 30
0.0
 10
895.3883314050629
 20
936.922023497515
 30
0.0
 10
895.501515060487
 20
935.8437311444375
 30
0.0
 10
895.6039862081614
 20
935.0468084261638
 30
0.0
 10
895.7679361385955
 20
934.1430400383467
 30
0.0
 10
895.9603055360984
 20
933.5458304452374
 30
0.0
 10
896.0571019534922
 20
933.2453265719782
 30
0.0
  0
SPLINE
  5
1C8
330
1F
100
AcDbEntity
  8
0
  6
Continuous
 62
     8
370
    18
100
AcDbSpline
210
0.0
220
0.0
230
1.0
 70
     8
 71
     3
 72
    13
 73
     9
 74
     0
 42
0.000000001
 43
0.00000001
 40
0.0
 40
0.0
 40
0.0
 40
0.0
 40
0.2478822118510322
 40
0.502696035499669
 40
0.5906876656854326
 40
0.6789803873276651
 40
0.8384693780655392
 40
1.0
 40
1.0
 40
1.0
 40
1.0
 10
968.8762152315952
 20
940.7908751555876
 30
0.0
 10
968.8611419477775
 20
940.0431666778466
 30
0.0
 10
968.8305738809499
 20
938.5268413043424
 30
0.0
 10
968.7210051295239
 20
936.9220234975148
 30
0.0
 10
968.6078214740998
 20
935.8437311444371
 30
0.0
 10
968.5053503264254
 20
935.0468084261636
 30
0.0
 10
968.3414003959914
 20
934.1430400383465
 30
0.0
 10
968.1490309984883
 20
933.5458304452372
 30
0.0
 10
968.0522345810946
 20
933.2453265719781
 30
0.0
  0
SPLINE
  5
1C9
330
1F
100
AcDbEntity
  8
0
  6
Continuous
 62
     8
370
    18
100
AcDbSpline
210
0.0
220
0.0
230
1.0
 70
     8
 71
     3
 72
    17
 73
    13
 74
     0
 42
0.000000001
 43
0.00000001
 40
0.0
 40
0.0
 40
0.0
 40
0.0
 40
0.3465956100132824
 40
0.5797997290136738
 40
0.7338947238710104
 40
0.8810219207410025
 40
0.9331891565949331
 40
0.9524593563030792
 40
0.9753918570412518
 40
0.9867243403144461
 40
0.9980977605384078
 40
1.0
 40
1.0
 40
1.0
 40
1.0
 10
967.6175264938076
 20
936.1426952614869
 30
0.0
 10
967.6275435168542
 20
935.7620343049741
 30
0.0
 10
967.6443004147495
 20
935.1252486300958
 30
0.0
 10
967.6620947848306
 20
934.3909844097774
 30
0.0
 10
967.697187805116
 20
933.8826752982246
 30
0.0
 10
967.745887570802
 20
933.562332260645
 30
0.0
 10
967.8282449814243
 20
933.375033796007
 30
0.0
 10
967.8882812574705
 20
933.3014826838698
 30
0.0
 10
967.9376531427997
 20
933.2644324223954
 30
0.0
 10
967.9959604828954
 20
933.246292792094
 30
0.0
 10
968.0311351465253
 20
933.2440153273583
 30
0.0
 10
968.0495901981885
 20
933.2451622342634
 30
0.0
 10
968.0522345810946
 20
933.2453265719781
 30
0.0
  0
SPLINE
  5
1CA
330
1F
100
AcDbEntity
  8
0
  6
Continuous
 62
     8
370
    18
100
AcDbSpline
210
0.0
220
0.0
230
1.0
 70
     8
 71
     3
 72
    11
 73
     7
 74
     0
 42
0.000000001
 43
0.00000001
 40
0.0
 40
0.0
 40
0.0
 40
0.0
 40
0.367415589971851
 40
0.7400731437703101
 40
0.8699218969645782
 40
1.0
 40
1.0
 40
1.0
 40
1.0
 10
967.5939637757142
 20
940.9573351471505
 30
0.0
 10
967.5943348437527
 20
940.33029801808
 30
0.0
 10
967.5950822739034
 20
939.0672777433892
 30
0.0
 10
967.5974834243979
 20
937.6796065059486
 30
0.0
 10
967.6059568762169
 20
936.7156018594607
 30
0.0
 10
967.6136676866995
 20
936.3337764303556
 30
0.0
 10
967.6175264938076
 20
936.1426952614869
 30
0.0
  0
SPLINE
  5
1CB
330
1F
100
AcDbEntity
  8
0
  6
Continuous
 62
     8
370
    18
100
AcDbSpline
210
0.0
220
0.0
230
1.0
 70
     8
 71
     3
 72
    16
 73
    12
 74
     0
 42
0.000000001
 43
0.00000001
 40
0.0
 40
0.0
 40
0.0
 40
0.0
 40
0.0117733620155408
 40
0.0227113902881394
 40
0.0341085178796155
 40
0.0448724470144665
 40
0.0843977891274209
 40
0.1801725761900129
 40
0.6004756555876873
 40
0.7301077904365098
 40
1.0
 40
1.0
 40
1.0
 40
1.0
 10
888.0223760539789
 20
932.9380579753231
 30
0.0
 10
888.005114973739
 20
932.9347046079002
 30
0.0
 10
887.9718175069994
 20
932.9282357983773
 30
0.0
 10
887.917289048361
 20
932.9302993365633
 30
0.0
 10
887.8688780494882
 20
932.9439395214354
 30
0.0
 10
887.7969289489263
 20
932.984517464335
 30
0.0
 10
887.7029202991883
 20
933.1151839543659
 30
0.0
 10
887.5778114744058
 20
933.6425728326941
 30
0.0
 10
887.5982429098167
 20
934.3236424290495
 30
0.0
 10
887.5951388592215
 20
935.2542136339797
 30
0.0
 10
887.5888016236913
 20
935.7418954893568
 30
0.0
 10
887.5845206067179
 20
936.0713410797258
 30
0.0
  0
SPLINE
  5
1CC
330
1F
100
AcDbEntity
  8
0
  6
Continuous
 62
     8
370
    18
100
AcDbSpline
210
0.0
220
0.0
230
1.0
 70
     8
 71
     3
 72
    11
 73
     7
 74
     0
 42
0.000000001
 43
0.00000001
 40
0.0
 40
0.0
 40
0.0
 40
0.0
 40
0.3598580230790479
 40
0.7246062069006125
 40
0.8621677510649549
 40
1.0
 40
1.0
 40
1.0
 40
1.0
 10
887.5845206067179
 20
936.0713410797258
 30
0.0
 10
887.581268510466
 20
936.6176374283567
 30
0.0
 10
887.5747201247741
 20
937.7176538227061
 30
0.0
 10
887.5807786277728
 20
939.1525851309299
 30
0.0
 10
887.5818941837455
 20
940.2488346679036
 30
0.0
 10
887.5819905334008
 20
940.7309320342969
 30
0.0
 10
887.582038755583
 20
940.9722176619349
 30
0.0
  0
SPLINE
  5
1CD
330
1F
100
AcDbEntity
  8
0
  6
Continuous
 62
     8
370
    18
100
AcDbSpline
210
0.0
220
0.0
230
1.0
 70
     8
 71
     3
 72
    12
 73
     8
 74
     0
 42
0.000000001
 43
0.00000001
 40
0.0
 40
0.0
 40
0.0
 40
0.0
 40
0.0542100646910306
 40
0.3612059465304436
 40
0.5267652948495964
 40
0.7633787062243803
 40
1.0
 40
1.0
 40
1.0
 40
1.0
 10
888.0223760539789
 20
932.9380579753231
 30
0.0
 10
888.061107865222
 20
933.0358212736861
 30
0.0
 10
888.3191809854189
 20
933.687225859207
 30
0.0
 10
888.5866575230235
 20
934.850329732099
 30
0.0
 10
888.7878435598262
 20
936.6861776697543
 30
0.0
 10
888.9088745003222
 20
938.5252532831581
 30
0.0
 10
888.9305812683074
 20
940.0356594787862
 30
0.0
 10
888.9414348330786
 20
940.790875155588
 30
0.0
  0
SPLINE
  5
1CE
330
1F
100
AcDbEntity
  8
0
  6
Continuous
 62
     8
370
    18
100
AcDbSpline
210
0.0
220
0.0
230
1.0
 70
     8
 71
     3
 72
    11
 73
     7
 74
     0
 42
0.000000001
 43
0.00000001
 40
0.0
 40
0.0
 40
0.0
 40
0.0
 40
0.3598580230790374
 40
0.7246062069006073
 40
0.8621677510649506
 40
1.0
 40
1.0
 40
1.0
 40
1.0
 10
976.524815927869
 20
936.0713410797257
 30
0.0
 10
976.5280680241208
 20
936.6176374283566
 30
0.0
 10
976.5346164098127
 20
937.717653822706
 30
0.0
 10
976.528557906814
 20
939.1525851309298
 30
0.0
 10
976.5274423508413
 20
940.2488346679035
 30
0.0
 10
976.527346001186
 20
940.7309320342965
 30
0.0
 10
976.5272977790038
 20
940.9722176619348
 30
0.0
  0
SPLINE
  5
1CF
330
1F
100
AcDbEntity
  8
0
  6
Continuous
 62
     8
370
    18
100
AcDbSpline
210
0.0
220
0.0
230
1.0
 70
     8
 71
     3
 72
    16
 73
    12
 74
     0
 42
0.000000001
 43
0.00000001
 40
0.0
 40
0.0
 40
0.0
 40
0.0
 40
0.0117733620155406
 40
0.0227113902881391
 40
0.0341085178796156
 40
0.044872447014466
 40
0.0843977891274212
 40
0.1801725761900122
 40
0.6004756555876863
 40
0.7301077904365099
 40
1.0
 40
1.0
 40
1.0
 40
1.0
 10
976.0869604806079
 20
932.938057975323
 30
0.0
 10
976.1042215608479
 20
932.9347046079
 30
0.0
 10
976.1375190275874
 20
932.9282357983773
 30
0.0
 10
976.1920474862258
 20
932.9302993365633
 30
0.0
 10
976.2404584850987
 20
932.9439395214354
 30
0.0
 10
976.3124075856605
 20
932.9845174643349
 30
0.0
 10
976.4064162353984
 20
933.1151839543656
 30
0.0
 10
976.5315250601811
 20
933.642572832694
 30
0.0
 10
976.5110936247701
 20
934.3236424290494
 30
0.0
 10
976.5141976753653
 20
935.2542136339797
 30
0.0
 10
976.5205349108954
 20
935.7418954893568
 30
0.0
 10
976.524815927869
 20
936.0713410797257
 30
0.0
  0
SPLINE
  5
1D0
330
1F
100
AcDbEntity
  8
0
  6
Continuous
 62
     8
370
    18
100
AcDbSpline
210
0.0
220
0.0
230
1.0
 70
     8
 71
     3
 72
    12
 73
     8
 74
     0
 42
0.000000001
 43
0.00000001
 40
0.0
 40
0.0
 40
0.0
 40
0.0
 40
0.0542100646910311
 40
0.3612059465304473
 40
0.5267652948496011
 40
0.7633787062243828
 40
1.0
 40
1.0
 40
1.0
 40
1.0
 10
976.0869604806079
 20
932.938057975323
 30
0.0
 10
976.0482286693648
 20
933.035821273686
 30
0.0
 10
975.7901555491679
 20
933.6872258592069
 30
0.0
 10
975.5226790115632
 20
934.850329732099
 30
0.0
 10
975.3214929747605
 20
936.6861776697543
 30
0.0
 10
975.2004620342647
 20
938.525253283158
 30
0.0
 10
975.1787552662794
 20
940.0356594787859
 30
0.0
 10
975.1679017015082
 20
940.7908751555876
 30
0.0
  0
LINE
  5
1D1
330
1F
100
AcDbEntity
  8
0
  6
Continuous
 62
     8
370
    18
100
AcDbLine
 10
896.0571019535
 20
933.245326572
 30
0.0
 11
888.022376054
 21
932.9380579753
 31
0.0
  0
LINE
  5
1D2
330
1F
100
AcDbEntity
  8
0
  6
Continuous
 62
     8
370
    18
100
AcDbLine
 10
968.0522345811
 20
933.245326572
 30
0.0
 11
976.0869604806
 21
932.9380579753
 31
0.0
  0
ARC
  5
1D3
330
1F
100
AcDbEntity
  8
0
  6
Continuous
 62
     8
370
    18
100
AcDbCircle
 10
897.3056074192
 20
931.3346767513
 30
0.0
 40
4.876403199890324
100
AcDbArc
 50
81.8057158496
 51
99.6067415552
  0
ARC
  5
1D4
330
1F
100
AcDbEntity
  8
0
  6
Continuous
 62
     8
370
    18
100
AcDbCircle
 10
966.8037291154
 20
931.3346767512
 30
0.0
 40
4.876403199914146
100
AcDbArc
 50
80.3932584448
 51
98.1942841504
  0
ARC
  5
1D5
330
1F
100
AcDbEntity
  8
0
  6
Continuous
 62
     8
370
    18
100
AcDbCircle
 10
886.5688065885
 20
931.4463774024
 30
0.0
 40
4.735183627178341
100
AcDbArc
 50
77.6135927186
 51
96.8019823782
  0
ARC
  5
1D6
330
1F
100
AcDbEntity
  8
0
  6
Continuous
 62
     8
370
    18
100
AcDbCircle
 10
977.5405299461
 20
931.4463774025
 30
0.0
 40
4.73518362715299
100
AcDbArc
 50
83.1980176217
 51
102.3864072814
  0
SPLINE
  5
1D7
330
1F
100
AcDbEntity
  8
0
  6
Continuous
 62
     8
370
    18
100
AcDbSpline
210
0.0
220
0.0
230
1.0
 70
     8
 71
     3
 72
    13
 73
     9
 74
     0
 42
0.000000001
 43
0.00000001
 40
0.0
 40
0.0
 40
0.0
 40
0.0
 40
0.3455606136556849
 40
0.7377948233629062
 40
0.8482878985160515
 40
0.9091433588593542
 40
0.9540191324658097
 40
1.0
 40
1.0
 40
1.0
 40
1.0
 10
886.0079793764197
 20
936.148232017516
 30
0.0
 10
886.1179672858158
 20
935.647060671423
 30
0.0
 10
886.3527987653827
 20
934.5770266161716
 30
0.0
 10
886.7026175096101
 20
933.489926469761
 30
0.0
 10
887.2565766558583
 20
932.909744721995
 30
0.0
 10
887.5659314167199
 20
932.7504288462706
 30
0.0
 10
887.8247337918473
 20
932.6856272338925
 30
0.0
 10
887.9877466439574
 20
932.6855700712523
 30
0.0
 10
888.0702444368006
 20
932.685541142296
 30
0.0
  0
SPLINE
  5
1D8
330
1F
100
AcDbEntity
  8
0
  6
Continuous
 62
     8
370
    18
100
AcDbSpline
210
0.0
220
0.0
230
1.0
 70
     8
 71
     3
 72
    11
 73
     7
 74
     0
 42
0.000000001
 43
0.00000001
 40
0.0
 40
0.0
 40
0.0
 40
0.0
 40
0.2499068565621725
 40
0.4998445626142473
 40
0.7498974475611091
 40
1.0
 40
1.0
 40
1.0
 40
1.0
 10
888.0702444368006
 20
932.6855411422962
 30
0.0
 10
888.7362796133115
 20
932.717648974433
 30
0.0
 10
890.0684321843473
 20
932.7818686022246
 30
0.0
 10
892.0695084745818
 20
932.8657422620654
 30
0.0
 10
894.0728136146257
 20
932.9388100842257
 30
0.0
 10
895.41003628573
 20
932.9748086624404
 30
0.0
 10
896.0787140171378
 20
932.9928097389513
 30
0.0
  0
SPLINE
  5
1D9
330
1F
100
AcDbEntity
  8
0
  6
Continuous
 62
     8
370
    18
100
AcDbSpline
210
0.0
220
0.0
230
1.0
 70
     8
 71
     3
 72
    14
 73
    10
 74
     0
 42
0.000000001
 43
0.00000001
 40
0.0
 40
0.0
 40
0.0
 40
0.0
 40
0.0519065920714209
 40
0.1222358501282121
 40
0.1884605327707498
 40
0.3425806135662238
 40
0.4883356727123406
 40
0.6976961013112971
 40
1.0
 40
1.0
 40
1.0
 40
1.0
 10
896.0787140171378
 20
932.9928097389513
 30
0.0
 10
896.1621633475868
 20
932.9999941256604
 30
0.0
 10
896.3586798100048
 20
933.0169127786094
 30
0.0
 10
896.6212047081552
 20
933.1305520367586
 30
0.0
 10
896.9359589166006
 20
933.3664898463308
 30
0.0
 10
897.2075256041384
 20
933.7393272236402
 30
0.0
 10
897.4784429120563
 20
934.3065587609383
 30
0.0
 10
897.7453525186039
 20
935.0936045060462
 30
0.0
 10
897.9058287766521
 20
935.7647592958809
 30
0.0
 10
898.000642106149
 20
936.1612940917815
 30
0.0
  0
SPLINE
  5
1DA
330
1F
100
AcDbEntity
  8
0
  6
Continuous
 62
     8
370
    18
100
AcDbSpline
210
0.0
220
0.0
230
1.0
 70
     8
 71
     3
 72
     9
 73
     5
 74
     0
 42
0.000000001
 43
0.00000001
 40
0.0
 40
0.0
 40
0.0
 40
0.0
 40
0.0293344768638436
 40
1.0
 40
1.0
 40
1.0
 40
1.0
 10
932.0546682672934
 20
929.1616793806783
 30
0.0
 10
932.0466072499554
 20
929.1616756382145
 30
0.0
 10
931.7718105533783
 20
929.161548059201
 30
0.0
 10
931.4973900532896
 20
929.1866910693651
 30
0.0
 10
931.2310195350117
 20
929.2110965224794
 30
0.0
  0
SPLINE
  5
1DB
330
1F
100
AcDbEntity
  8
0
  6
Continuous
 62
     8
370
    18
100
AcDbSpline
210
0.0
220
0.0
230
1.0
 70
     8
 71
     3
 72
    12
 73
     8
 74
     0
 42
0.000000001
 43
0.00000001
 40
0.0
 40
0.0
 40
0.0
 40
0.0
 40
0.1168311330919939
 40
0.3726334449298702
 40
0.633827023893268
 40
0.8149152954169
 40
1.0
 40
1.0
 40
1.0
 40
1.0
 10
930.6892925910228
 20
929.2445749931829
 30
0.0
 10
930.0128995043974
 20
929.2737987940922
 30
0.0
 10
927.8555405939301
 20
929.3670082436497
 30
0.0
 10
924.2156634353321
 20
930.1765981011354
 30
0.0
 10
920.3192850827652
 20
931.7098787520065
 30
0.0
 10
916.9642173507549
 20
933.6905334235964
 30
0.0
 10
915.195590250984
 20
935.293376501349
 30
0.0
 10
914.3016252518208
 20
936.1035448012958
 30
0.0
  0
SPLINE
  5
1DC
330
1F
100
AcDbEntity
  8
0
  6
Continuous
 62
     8
370
    18
100
AcDbSpline
210
0.0
220
0.0
230
1.0
 70
     8
 71
     3
 72
    14
 73
    10
 74
     0
 42
0.000000001
 43
0.00000001
 40
0.0
 40
0.0
 40
0.0
 40
0.0
 40
0.0519065920714864
 40
0.1222358501282813
 40
0.1884605327708231
 40
0.3425806135663074
 40
0.4883356727124331
 40
0.6976961013113864
 40
1.0
 40
1.0
 40
1.0
 40
1.0
 10
968.0306225174488
 20
932.9928097389501
 30
0.0
 10
967.947173187
 20
932.9999941256594
 30
0.0
 10
967.7506567245822
 20
933.0169127786095
 30
0.0
 10
967.4881318264315
 20
933.1305520367583
 30
0.0
 10
967.1733776179861
 20
933.3664898463308
 30
0.0
 10
966.9018109304484
 20
933.7393272236402
 30
0.0
 10
966.6308936225307
 20
934.3065587609381
 30
0.0
 10
966.3639840159829
 20
935.093604506046
 30
0.0
 10
966.2035077579346
 20
935.7647592958804
 30
0.0
 10
966.108694428438
 20
936.1612940917809
 30
0.0
  0
SPLINE
  5
1DD
330
1F
100
AcDbEntity
  8
0
  6
Continuous
 62
     8
370
    18
100
AcDbSpline
210
0.0
220
0.0
230
1.0
 70
     8
 71
     3
 72
    11
 73
     7
 74
     0
 42
0.000000001
 43
0.00000001
 40
0.0
 40
0.0
 40
0.0
 40
0.0
 40
0.2499068565623325
 40
0.4998445626143543
 40
0.7498974475611633
 40
1.0
 40
1.0
 40
1.0
 40
1.0
 10
976.0390920977878
 20
932.6855411422963
 30
0.0
 10
975.3730569212764
 20
932.717648974433
 30
0.0
 10
974.04090435024
 20
932.7818686022244
 30
0.0
 10
972.039828060005
 20
932.8657422620649
 30
0.0
 10
970.036522919961
 20
932.9388100842258
 30
0.0
 10
968.6993002488566
 20
932.9748086624397
 30
0.0
 10
968.0306225174488
 20
932.9928097389501
 30
0.0
  0
SPLINE
  5
1DE
330
1F
100
AcDbEntity
  8
0
  6
Continuous
 62
     8
370
    18
100
AcDbSpline
210
0.0
220
0.0
230
1.0
 70
     8
 71
     3
 72
    13
 73
     9
 74
     0
 42
0.000000001
 43
0.00000001
 40
0.0
 40
0.0
 40
0.0
 40
0.0
 40
0.3455606136558529
 40
0.7377948233631723
 40
0.8482878985163453
 40
0.9091433588596641
 40
0.9540191324661307
 40
1.0
 40
1.0
 40
1.0
 40
1.0
 10
978.1013571581677
 20
936.1482320175162
 30
0.0
 10
977.9913692487715
 20
935.6470606714232
 30
0.0
 10
977.756537769204
 20
934.5770266161716
 30
0.0
 10
977.4067190249767
 20
933.4899264697609
 30
0.0
 10
976.8527598787284
 20
932.9097447219949
 30
0.0
 10
976.5434051178669
 20
932.7504288462704
 30
0.0
 10
976.28460274274
 20
932.6856272338925
 30
0.0
 10
976.1215898906304
 20
932.6855700712524
 30
0.0
 10
976.0390920977878
 20
932.6855411422963
 30
0.0
  0
SPLINE
  5
1DF
330
1F
100
AcDbEntity
  8
0
  6
Continuous
 62
     8
370
    18
100
AcDbSpline
210
0.0
220
0.0
230
1.0
 70
     8
 71
     3
 72
    13
 73
     9
 74
     0
 42
0.000000001
 43
0.00000001
 40
0.0
 40
0.0
 40
0.0
 40
0.0
 40
0.0016043355124024
 40
0.2727926059062332
 40
0.4428579083924363
 40
0.6159723835324825
 40
0.8046605251224455
 40
1.0
 40
1.0
 40
1.0
 40
1.0
 10
1003.74624756459
 20
929.1616793806782
 30
0.0
 10
1003.751702414766
 20
929.1616821106965
 30
0.0
 10
1004.679215882286
 20
929.162146308361
 30
0.0
 10
1006.092052208121
 20
929.3599766368053
 30
0.0
 10
1007.812741840894
 20
930.1889688126996
 30
0.0
 10
1009.115387715033
 20
931.3323197268081
 30
0.0
 10
1010.271587459283
 20
932.9885037425432
 30
0.0
 10
1010.792451536223
 20
934.5940938602644
 30
0.0
 10
1011.057394240625
 20
935.4107932772208
 30
0.0
  0
SPLINE
  5
1E0
330
1F
100
AcDbEntity
  8
0
  6
Continuous
 62
     8
370
    18
100
AcDbSpline
210
0.0
220
0.0
230
1.0
 70
     8
 71
     3
 72
    13
 73
     9
 74
     0
 42
0.000000001
 43
0.00000001
 40
0.0
 40
0.0
 40
0.0
 40
0.0
 40
0.1765903405244139
 40
0.3535107282095485
 40
0.5953143040081178
 40
0.8373696963545585
 40
0.9987093023973762
 40
1.0
 40
1.0
 40
1.0
 40
1.0
 10
949.8077112827656
 20
936.103544801296
 30
0.0
 10
948.8866289408795
 20
935.2709874953922
 30
0.0
 10
947.042742755179
 20
933.6043168348557
 30
0.0
 10
943.5960887289037
 20
931.6168305313976
 30
0.0
 10
939.6100802970255
 20
930.0719935677658
 30
0.0
 10
935.6063992179812
 20
929.3027730142039
 30
0.0
 10
933.0784181847596
 20
929.1619745656906
 30
0.0
 10
932.0627291719615
 20
929.1616817049355
 30
0.0
 10
932.0546682672934
 20
929.1616793806783
 30
0.0
  0
SPLINE
  5
1E1
330
1F
100
AcDbEntity
  8
0
  6
Continuous
 62
     8
370
    18
100
AcDbSpline
210
0.0
220
0.0
230
1.0
 70
     8
 71
     3
 72
     9
 73
     5
 74
     0
 42
0.000000001
 43
0.00000001
 40
0.0
 40
0.0
 40
0.0
 40
0.0
 40
0.8741204396861987
 40
1.0
 40
1.0
 40
1.0
 40
1.0
 10
896.5019654305393
 20
963.8615764228433
 30
0.0
 10
896.5008536712389
 20
963.0699740118051
 30
0.0
 10
896.4995818106923
 20
962.1643752234705
 30
0.0
 10
896.4983980037564
 20
961.2513708912513
 30
0.0
 10
896.4982489866597
 20
961.1364423073469
 30
0.0
  0
LINE
  5
1E2
330
1F
100
AcDbEntity
  8
0
  6
Continuous
 62
     8
370
    18
100
AcDbLine
 10
895.1625540937
 20
964.1229608868
 30
0.0
 11
895.1311770148
 21
961.4014328204
 31
0.0
  0
ARC
  5
1E3
330
1F
100
AcDbEntity
  8
0
  6
Continuous
 62
     8
370
    18
100
AcDbCircle
 10
895.18777497
 20
960.6897378774
 30
0.0
 40
3.433315645983334
100
AcDbArc
 50
67.4942658279
 51
90.4208942352
  0
LINE
  5
1E4
330
1F
100
AcDbEntity
  8
0
  6
Continuous
 62
     8
370
    18
100
AcDbLine
 10
968.9467824409
 20
964.1229608868
 30
0.0
 11
968.9781595198
 21
961.4014328204
 31
0.0
  0
SPLINE
  5
1E5
330
1F
100
AcDbEntity
  8
0
  6
Continuous
 62
     8
370
    18
100
AcDbSpline
210
0.0
220
0.0
230
1.0
 70
     8
 71
     3
 72
     9
 73
     5
 74
     0
 42
0.000000001
 43
0.00000001
 40
0.0
 40
0.0
 40
0.0
 40
0.0
 40
0.8741204396861987
 40
1.0
 40
1.0
 40
1.0
 40
1.0
 10
967.6073711040475
 20
963.8615764228431
 30
0.0
 10
967.6084828633478
 20
963.0699740118048
 30
0.0
 10
967.6097547238944
 20
962.1643752234703
 30
0.0
 10
967.6109385308304
 20
961.2513708912511
 30
0.0
 10
967.611087547927
 20
961.1364423073468
 30
0.0
  0
ARC
  5
1E6
330
1F
100
AcDbEntity
  8
0
  6
Continuous
 62
     8
370
    18
100
AcDbCircle
 10
968.9215615646
 20
960.6897378774
 30
0.0
 40
3.433315645972824
100
AcDbArc
 50
89.5791057647
 51
112.5057341721
  0
LINE
  5
1E7
330
1F
100
AcDbEntity
  8
0
  6
Continuous
 62
     8
370
    18
100
AcDbLine
 10
887.6111689681
 20
961.1273917412
 30
0.0
 11
887.6067671475
 21
963.8455640748
 31
0.0
  0
ARC
  5
1E8
330
1F
100
AcDbEntity
  8
0
  6
Continuous
 62
     8
370
    18
100
AcDbCircle
 10
888.9467571869
 20
960.7514825699
 30
0.0
 40
3.371781971740898
100
AcDbArc
 50
89.2310445
 51
113.4165528547
  0
LINE
  5
1E9
330
1F
100
AcDbEntity
  8
0
  6
Continuous
 62
     8
370
    18
100
AcDbLine
 10
889.009737596
 20
961.4014328204
 30
0.0
 11
888.9920078578
 21
964.1229608868
 31
0.0
  0
LINE
  5
1EA
330
1F
100
AcDbEntity
  8
0
  6
Continuous
 62
     8
370
    18
100
AcDbLine
 10
975.0995989386
 20
961.4014328204
 30
0.0
 11
975.1173286768
 21
964.1229608868
 31
0.0
  0
ARC
  5
1EB
330
1F
100
AcDbEntity
  8
0
  6
Continuous
 62
     8
370
    18
100
AcDbCircle
 10
975.1625793477
 20
960.7514825699
 30
0.0
 40
3.371781971732227
100
AcDbArc
 50
66.5834471453
 51
90.7689555
  0
LINE
  5
1EC
330
1F
100
AcDbEntity
  8
0
  6
Continuous
 62
     8
370
    18
100
AcDbLine
 10
976.4981675665
 20
961.1273917412
 30
0.0
 11
976.5025693871
 21
963.8455640748
 31
0.0
  0
LINE
  5
1ED
330
1F
100
AcDbEntity
  8
0
  6
Continuous
 62
     8
370
    18
100
AcDbLine
 10
895.1625540937
 20
964.1229608868
 30
0.0
 11
888.9920078578
 21
964.1229608868
 31
0.0
  0
LINE
  5
1EE
330
1F
100
AcDbEntity
  8
0
  6
Continuous
 62
     8
370
    18
100
AcDbLine
 10
968.9467824409
 20
964.1229608868
 30
0.0
 11
975.1173286768
 21
964.1229608868
 31
0.0
  0
ARC
  5
1EF
330
1F
100
AcDbEntity
  8
0
  6
Continuous
 62
     8
370
    18
100
AcDbCircle
 10
898.3734313745
 20
968.7816577215
 30
0.0
 40
5.263989434305719
100
AcDbArc
 50
249.1745380236
 51
271.5959369635
  0
ARC
  5
1F0
330
1F
100
AcDbEntity
  8
0
  6
Continuous
 62
     8
370
    18
100
AcDbCircle
 10
965.73590516
 20
968.7816577215
 30
0.0
 40
5.263989434303538
100
AcDbArc
 50
268.4040630365
 51
290.8254619764
  0
ARC
  5
1F1
330
1F
100
AcDbEntity
  8
0
  6
Continuous
 62
     8
370
    18
100
AcDbCircle
 10
885.6516738675
 20
968.5383753083
 30
0.0
 40
5.083784712847242
100
AcDbArc
 50
269.0955075017
 51
292.6173188939
  0
ARC
  5
1F2
330
1F
100
AcDbEntity
  8
0
  6
Continuous
 62
     8
370
    18
100
AcDbCircle
 10
978.4576626671
 20
968.5383753083
 30
0.0
 40
5.083784712841724
100
AcDbArc
 50
247.3826811061
 51
270.9044924983
  0
ARC
  5
1F3
330
1F
100
AcDbEntity
  8
0
  6
Continuous
 62
     8
370
    18
100
AcDbCircle
 10
880.0765731777
 20
931.7504237705
 30
0.0
 40
16.05029701717313
100
AcDbArc
 50
4.439466091
 51
5.3441965801
  0
ARC
  5
1F4
330
1F
100
AcDbEntity
  8
0
  6
Continuous
 62
     8
370
    18
100
AcDbCircle
 10
984.0327633599
 20
931.7504237702
 30
0.0
 40
16.05029702025725
100
AcDbArc
 50
174.65580342
 51
175.5605339089
  0
ARC
  5
1F5
330
1F
100
AcDbEntity
  8
0
  6
Continuous
 62
     8
370
    18
100
AcDbCircle
 10
881.4910667269
 20
931.5691540588
 30
0.0
 40
6.67322256921353
100
AcDbArc
 50
9.6304973658
 51
11.8373353033
  0
ARC
  5
1F6
330
1F
100
AcDbEntity
  8
0
  6
Continuous
 62
     8
370
    18
100
AcDbCircle
 10
982.6182698139
 20
931.5691540577
 30
0.0
 40
6.67322257556182
100
AcDbArc
 50
168.1626646981
 51
170.3695026335
  0
SPLINE
  5
1F7
330
1F
100
AcDbEntity
  8
0
  6
Continuous
 62
     8
370
    18
100
AcDbSpline
210
0.0
220
0.0
230
1.0
 70
     8
 71
     3
 72
    15
 73
    11
 74
     0
 42
0.000000001
 43
0.00000001
 40
0.0
 40
0.0
 40
0.0
 40
0.0
 40
0.0357295768982801
 40
0.0559023856318683
 40
0.0935770997983526
 40
0.1154709098174164
 40
0.2166995392891669
 40
0.4238827620184569
 40
0.9068299214990614
 40
1.0
 40
1.0
 40
1.0
 40
1.0
 10
895.6346711547426
 20
967.525704332428
 30
0.0
 10
895.6940416821999
 20
967.5275980326876
 30
0.0
 10
895.7869326260395
 20
967.5305609102637
 30
0.0
 10
895.9350265637953
 20
967.4896440258374
 30
0.0
 10
896.0430398183913
 20
967.4278940314878
 30
0.0
 10
896.2122731380381
 20
967.2719634512389
 30
0.0
 10
896.4051253180892
 20
966.8779263190365
 30
0.0
 10
896.526237824048
 20
965.8839426353388
 30
0.0
 10
896.5019272527724
 20
964.8239226852543
 30
0.0
 10
896.5019601158926
 20
963.9955426203281
 30
0.0
 10
896.5019654305393
 20
963.8615764228433
 30
0.0
  0
SPLINE
  5
1F8
330
1F
100
AcDbEntity
  8
0
  6
Continuous
 62
     8
370
    18
100
AcDbSpline
210
0.0
220
0.0
230
1.0
 70
     8
 71
     3
 72
    11
 73
     7
 74
     0
 42
0.000000001
 43
0.00000001
 40
0.0
 40
0.0
 40
0.0
 40
0.0
 40
0.1688447665100254
 40
0.3388483789551355
 40
0.6648683581705611
 40
1.0
 40
1.0
 40
1.0
 40
1.0
 10
895.6346711547426
 20
967.525704332428
 30
0.0
 10
895.586623453089
 20
967.3751627060104
 30
0.0
 10
895.4901982801069
 20
967.0730462286613
 30
0.0
 10
895.3403438040276
 20
966.3958463235658
 30
0.0
 10
895.2026259656704
 20
965.4478516725819
 30
0.0
 10
895.1760335455264
 20
964.5686301465779
 30
0.0
 10
895.1625540937041
 20
964.122960886816
 30
0.0
  0
SPLINE
  5
1F9
330
1F
100
AcDbEntity
  8
0
  6
Continuous
 62
     8
370
    18
100
AcDbSpline
210
0.0
220
0.0
230
1.0
 70
     8
 71
     3
 72
    15
 73
    11
 74
     0
 42
0.000000001
 43
0.00000001
 40
0.0
 40
0.0
 40
0.0
 40
0.0
 40
0.0357295768982801
 40
0.0559023856318686
 40
0.0935770997983523
 40
0.1154709098174169
 40
0.2166995392891664
 40
0.4238827620184563
 40
0.9068299214990614
 40
1.0
 40
1.0
 40
1.0
 40
1.0
 10
968.4746653798438
 20
967.5257043324277
 30
0.0
 10
968.4152948523868
 20
967.5275980326874
 30
0.0
 10
968.3224039085471
 20
967.5305609102634
 30
0.0
 10
968.1743099707913
 20
967.4896440258373
 30
0.0
 10
968.0662967161953
 20
967.4278940314878
 30
0.0
 10
967.8970633965484
 20
967.2719634512388
 30
0.0
 10
967.7042112164972
 20
966.8779263190362
 30
0.0
 10
967.5830987105386
 20
965.8839426353387
 30
0.0
 10
967.6074092818145
 20
964.8239226852542
 30
0.0
 10
967.6073764186942
 20
963.9955426203278
 30
0.0
 10
967.6073711040475
 20
963.8615764228431
 30
0.0
  0
SPLINE
  5
1FA
330
1F
100
AcDbEntity
  8
0
  6
Continuous
 62
     8
370
    18
100
AcDbSpline
210
0.0
220
0.0
230
1.0
 70
     8
 71
     3
 72
    11
 73
     7
 74
     0
 42
0.000000001
 43
0.00000001
 40
0.0
 40
0.0
 40
0.0
 40
0.0
 40
0.1688447665100254
 40
0.3388483789551345
 40
0.6648683581705629
 40
1.0
 40
1.0
 40
1.0
 40
1.0
 10
968.4746653798438
 20
967.5257043324277
 30
0.0
 10
968.5227130814976
 20
967.3751627060101
 30
0.0
 10
968.6191382544797
 20
967.0730462286612
 30
0.0
 10
968.768992730559
 20
966.3958463235656
 30
0.0
 10
968.9067105689164
 20
965.4478516725816
 30
0.0
 10
968.9333029890604
 20
964.5686301465777
 30
0.0
 10
968.9467824408827
 20
964.1229608868157
 30
0.0
  0
SPLINE
  5
1FB
330
1F
100
AcDbEntity
  8
0
  6
Continuous
 62
     8
370
    18
100
AcDbSpline
210
0.0
220
0.0
230
1.0
 70
     8
 71
     3
 72
    14
 73
    10
 74
     0
 42
0.000000001
 43
0.00000001
 40
0.0
 40
0.0
 40
0.0
 40
0.0
 40
0.6113158653943737
 40
0.7934072053583404
 40
0.8854170307688747
 40
0.9194198313361065
 40
0.9434501870529951
 40
0.9749897870426378
 40
1.0
 40
1.0
 40
1.0
 40
1.0
 10
887.6067671474982
 20
963.8455640747899
 30
0.0
 10
887.5799580038617
 20
964.7278873953846
 30
0.0
 10
887.5451632783609
 20
965.8730264628354
 30
0.0
 10
887.7017693067376
 20
967.0086825756158
 30
0.0
 10
887.9068563485904
 20
967.3864296374908
 30
0.0
 10
888.0928353803001
 20
967.5274705314997
 30
0.0
 10
888.2297942637035
 20
967.5846757674275
 30
0.0
 10
888.3686749963261
 20
967.6070135728938
 30
0.0
 10
888.4632997726835
 20
967.5976289040766
 30
0.0
 10
888.5051493506824
 20
967.5934783586829
 30
0.0
  0
SPLINE
  5
1FC
330
1F
100
AcDbEntity
  8
0
  6
Continuous
 62
     8
370
    18
100
AcDbSpline
210
0.0
220
0.0
230
1.0
 70
     8
 71
     3
 72
    11
 73
     7
 74
     0
 42
0.000000001
 43
0.00000001
 40
0.0
 40
0.0
 40
0.0
 40
0.0
 40
0.3166351430858643
 40
0.6421699667518178
 40
0.82035796087749
 40
1.0
 40
1.0
 40
1.0
 40
1.0
 10
888.9920078577654
 20
964.122960886816
 30
0.0
 10
888.9807717084739
 20
964.5554031829195
 30
0.0
 10
888.9579835948531
 20
965.4324424534325
 30
0.0
 10
888.8223280243689
 20
966.3957266681691
 30
0.0
 10
888.6648044360551
 20
967.1089056405157
 30
0.0
 10
888.5585116862659
 20
967.4315171412178
 30
0.0
 10
888.5051493506824
 20
967.5934783586829
 30
0.0
  0
SPLINE
  5
1FD
330
1F
100
AcDbEntity
  8
0
  6
Continuous
 62
     8
370
    18
100
AcDbSpline
210
0.0
220
0.0
230
1.0
 70
     8
 71
     3
 72
    11
 73
     7
 74
     0
 42
0.000000001
 43
0.00000001
 40
0.0
 40
0.0
 40
0.0
 40
0.0
 40
0.3166351430858743
 40
0.6421699667518207
 40
0.8203579608774915
 40
1.0
 40
1.0
 40
1.0
 40
1.0
 10
975.1173286768213
 20
964.1229608868157
 30
0.0
 10
975.1285648261129
 20
964.5554031829192
 30
0.0
 10
975.1513529397338
 20
965.4324424534321
 30
0.0
 10
975.2870085102178
 20
966.395726668169
 30
0.0
 10
975.4445320985313
 20
967.1089056405154
 30
0.0
 10
975.5508248483206
 20
967.4315171412175
 30
0.0
 10
975.6041871839043
 20
967.5934783586825
 30
0.0
  0
SPLINE
  5
1FE
330
1F
100
AcDbEntity
  8
0
  6
Continuous
 62
     8
370
    18
100
AcDbSpline
210
0.0
220
0.0
230
1.0
 70
     8
 71
     3
 72
    14
 73
    10
 74
     0
 42
0.000000001
 43
0.00000001
 40
0.0
 40
0.0
 40
0.0
 40
0.0
 40
0.611315865394366
 40
0.7934072053583304
 40
0.8854170307688761
 40
0.9194198313361074
 40
0.9434501870529957
 40
0.9749897870426381
 40
0.9999999999999999
 40
0.9999999999999999
 40
0.9999999999999999
 40
0.9999999999999999
 10
976.5025693870886
 20
963.8455640747898
 30
0.0
 10
976.529378530725
 20
964.7278873953845
 30
0.0
 10
976.5641732562258
 20
965.8730264628351
 30
0.0
 10
976.407567227849
 20
967.0086825756157
 30
0.0
 10
976.2024801859961
 20
967.3864296374906
 30
0.0
 10
976.0165011542864
 20
967.5274705314994
 30
0.0
 10
975.8795422708831
 20
967.5846757674273
 30
0.0
 10
975.7406615382604
 20
967.6070135728936
 30
0.0
 10
975.646036761903
 20
967.5976289040765
 30
0.0
 10
975.6041871839043
 20
967.5934783586825
 30
0.0
  0
LINE
  5
1FF
330
1F
100
AcDbEntity
  8
0
  6
Continuous
 62
     8
370
    18
100
AcDbLine
 10
888.5051493507
 20
967.5934783587
 30
0.0
 11
895.6346711547
 21
967.5257043324
 31
0.0
  0
LINE
  5
200
330
1F
100
AcDbEntity
  8
0
  6
Continuous
 62
     8
370
    18
100
AcDbLine
 10
975.6041871839
 20
967.5934783587
 30
0.0
 11
968.4746653798
 21
967.5257043324
 31
0.0
  0
ARC
  5
201
330
1F
100
AcDbEntity
  8
0
  6
Continuous
 62
     8
370
    18
100
AcDbCircle
 10
845.6840048316
 20
969.8154130384
 30
0.0
 40
42.87875244974548
100
AcDbArc
 50
357.0296588464
 51
358.2432093097
  0
ARC
  5
202
330
1F
100
AcDbEntity
  8
0
  6
Continuous
 62
     8
370
    18
100
AcDbCircle
 10
1018.4253317007
 20
969.8154130383
 30
0.0
 40
42.87875244744681
100
AcDbArc
 50
181.7567906902
 51
182.9703411536
  0
ARC
  5
203
330
1F
100
AcDbEntity
  8
0
  6
Continuous
 62
     8
370
    18
100
AcDbCircle
 10
802.2518074397
 20
969.7743262401
 30
0.0
 40
93.40993274859471
100
AcDbArc
 50
358.6206071693
 51
359.1635686825
  0
ARC
  5
204
330
1F
100
AcDbEntity
  8
0
  6
Continuous
 62
     8
370
    18
100
AcDbCircle
 10
1061.8575290954
 20
969.7743262401
 30
0.0
 40
93.40993274918985
100
AcDbArc
 50
180.8364313175
 51
181.3793928307
  0
SPLINE
  5
205
330
1F
100
AcDbEntity
  8
0
  6
Continuous
 62
     8
370
    18
100
AcDbSpline
210
0.0
220
0.0
230
1.0
 70
     8
 71
     3
 72
    20
 73
    16
 74
     0
 42
0.000000001
 43
0.00000001
 40
0.0
 40
0.0
 40
0.0
 40
0.0
 40
0.0262949951381526
 40
0.1141805994167148
 40
0.2050009162995105
 40
0.3018213591643523
 40
0.4001096700271495
 40
0.4957119737796374
 40
0.5689984974216381
 40
0.6442268808353195
 40
0.7075782994275363
 40
0.7721105905636333
 40
0.832506230749162
 40
0.8941019040528451
 40
1.0
 40
1.0
 40
1.0
 40
1.0
 10
1011.998008888286
 20
935.7075436478827
 30
0.0
 10
1012.073823884791
 20
935.992763260224
 30
0.0
 10
1012.403034888646
 20
937.2312706693873
 30
0.0
 10
1013.0604058908
 20
939.7047790956807
 30
0.0
 10
1013.956958832888
 20
943.3741060222565
 30
0.0
 10
1014.7629639317
 20
947.4912757306522
 30
0.0
 10
1015.218987682153
 20
951.8519660857545
 30
0.0
 10
1015.097112766861
 20
955.7632364111593
 30
0.0
 10
1014.749902584993
 20
959.0599857772412
 30
0.0
 10
1014.488580420266
 20
961.672359288318
 30
0.0
 10
1014.48784411406
 20
963.9450205066173
 30
0.0
 10
1014.631468584056
 20
965.8027049478295
 30
0.0
 10
1014.946825711774
 20
967.3677100752303
 30
0.0
 10
1015.148925227133
 20
968.8822217698212
 30
0.0
 10
1015.052720276376
 20
969.3880989631197
 30
0.0
 10
1014.991894604165
 20
969.7079403028484
 30
0.0
  0
ARC
  5
206
330
1F
100
AcDbEntity
  8
0
  6
Continuous
 62
     8
370
    18
100
AcDbCircle
 10
1012.3243642087
 20
933.033973462
 30
0.0
 40
2.693415180361023
100
AcDbArc
 50
96.9595071703
 51
118.0599624147
  0
ARC
  5
207
330
1F
100
AcDbEntity
  8
0
  6
Continuous
 62
     8
370
    18
100
AcDbCircle
 10
1016.9813319866
 20
971.9579571889
 30
0.0
 40
3.003404249506068
100
AcDbArc
 50
228.5172796838
 51
270.3109595547
  0
SPLINE
  5
208
330
1F
100
AcDbEntity
  8
0
  6
Continuous
 62
     8
370
    18
100
AcDbSpline
210
0.0
220
0.0
230
1.0
 70
     8
 71
     3
 72
    22
 73
    18
 74
     0
 42
0.000000001
 43
0.00000001
 40
0.0
 40
0.0
 40
0.0
 40
0.0
 40
0.0604782955210948
 40
0.1209107522713745
 40
0.188474913944386
 40
0.2560958620764556
 40
0.3308528003812598
 40
0.4056041325902902
 40
0.472828699736733
 40
0.5400039932488332
 40
0.6145903506605183
 40
0.6892095991779491
 40
0.6973759092103063
 40
0.7789456219531096
 40
0.8605868885159257
 40
0.9302996545740243
 40
1.0
 40
1.0
 40
1.0
 40
1.0
 10
1016.997632186547
 20
968.9545971722526
 30
0.0
 10
1017.032886295984
 20
968.7938301519534
 30
0.0
 10
1017.103367794444
 20
968.4724179627157
 30
0.0
 10
1017.140548833474
 20
967.5238568285888
 30
0.0
 10
1016.816065430603
 20
966.2006098163893
 30
0.0
 10
1016.40917563619
 20
964.4025230806316
 30
0.0
 10
1016.316472172816
 20
962.1379394868994
 30
0.0
 10
1016.573670290327
 20
959.5579263300007
 30
0.0
 10
1016.985814197573
 20
956.8401303503855
 30
0.0
 10
1017.227805050136
 20
953.9371423805461
 30
0.0
 10
1017.1590099804
 20
950.7961683028487
 30
0.0
 10
1016.857801802188
 20
948.4997672939918
 30
0.0
 10
1016.415780376597
 20
946.148371469882
 30
0.0
 10
1015.832180899098
 20
943.7375816200965
 30
0.0
 10
1014.887288276488
 20
940.6660318736509
 30
0.0
 10
1013.963814105894
 20
937.9507157786918
 30
0.0
 10
1013.433417937357
 20
936.4385229389396
 30
0.0
 10
1013.16824348019
 20
935.6824938814183
 30
0.0
  0
ARC
  5
209
330
1F
100
AcDbEntity
  8
0
  6
Continuous
 62
     8
370
    18
100
AcDbCircle
 10
1012.4994401897
 20
931.7855114313
 30
0.0
 40
3.953956253949913
100
AcDbArc
 50
80.261721698
 51
97.2857328838
  0
SPLINE
  5
20A
330
1F
100
AcDbEntity
  8
0
  6
Continuous
 62
     8
370
    18
100
AcDbSpline
210
0.0
220
0.0
230
1.0
 70
     8
 71
     3
 72
    11
 73
     7
 74
     0
 42
0.000000001
 43
0.00000001
 40
0.0
 40
0.0
 40
0.0
 40
0.0
 40
0.2101620489852548
 40
0.6011741985698238
 40
0.9956880907203882
 40
0.9999999999999999
 40
0.9999999999999999
 40
0.9999999999999999
 40
0.9999999999999999
 10
1007.804668267294
 20
929.8331518286753
 30
0.0
 10
1007.541553120492
 20
929.7419016722203
 30
0.0
 10
1006.788905160147
 20
929.4808781432758
 30
0.0
 10
1005.455599968761
 20
929.2290033168013
 30
0.0
 10
1004.3348805544
 20
929.1619092461001
 30
0.0
 10
1003.752543507598
 20
929.1616818392893
 30
0.0
 10
1003.74624756459
 20
929.1616793806782
 30
0.0
  0
SPLINE
  5
20B
330
1F
100
AcDbEntity
  8
0
  6
Continuous
 62
     8
370
    18
100
AcDbSpline
210
0.0
220
0.0
230
1.0
 70
     8
 71
     3
 72
    12
 73
     8
 74
     0
 42
0.000000001
 43
0.00000001
 40
0.0
 40
0.0
 40
0.0
 40
0.0
 40
0.2467373750775637
 40
0.5009759128091618
 40
0.7464462631527693
 40
0.9969045478149674
 40
1.0
 40
1.0
 40
1.0
 40
1.0
 10
1013.16824348019
 20
935.6824938814183
 30
0.0
 10
1012.876295871548
 20
934.9719844577879
 30
0.0
 10
1012.283525037029
 20
933.5293651264004
 30
0.0
 10
1011.023986953838
 20
931.8938914627846
 30
0.0
 10
1009.540889660712
 20
930.6361019616029
 30
0.0
 10
1008.413739821384
 20
930.064084374765
 30
0.0
 10
1007.812014294298
 20
929.835937111797
 30
0.0
 10
1007.804668267294
 20
929.8331518286753
 30
0.0
  0
SPLINE
  5
20C
330
1F
100
AcDbEntity
  8
0
  6
Continuous
 62
     8
370
    18
100
AcDbSpline
210
0.0
220
0.0
230
1.0
 70
     8
 71
     3
 72
    10
 73
     6
 74
     0
 42
0.000000001
 43
0.00000001
 40
0.0
 40
0.0
 40
0.0
 40
0.0
 40
0.0157305655563993
 40
0.5063466828769149
 40
1.0
 40
1.0
 40
1.0
 40
1.0
 10
1016.975489191848
 20
969.1616793806783
 30
0.0
 10
1016.975043122277
 20
969.1616673164742
 30
0.0
 10
1016.960684716221
 20
969.1612789852538
 30
0.0
 10
1016.954924987407
 20
969.1296334250043
 30
0.0
 10
1016.983367198409
 20
969.0130624923759
 30
0.0
 10
1016.997632186547
 20
968.9545971722525
 30
0.0
  0
SPLINE
  5
20D
330
1F
100
AcDbEntity
  8
0
  6
Continuous
 62
     8
370
    18
100
AcDbSpline
210
0.0
220
0.0
230
1.0
 70
     8
 71
     3
 72
    12
 73
     8
 74
     0
 42
0.000000001
 43
0.00000001
 40
0.0
 40
0.0
 40
0.0
 40
0.0
 40
0.3107222013442914
 40
0.6300915284038195
 40
0.785661691845719
 40
0.892542319116494
 40
1.0
 40
1.0
 40
1.0
 40
1.0
 10
1007.804668267294
 20
929.8331518286753
 30
0.0
 10
1008.355599393329
 20
930.1816234802108
 30
0.0
 10
1009.472793574326
 20
930.8882644430109
 30
0.0
 10
1010.619371807592
 20
932.3933904716296
 30
0.0
 10
1011.323856010922
 20
933.7818538386791
 30
0.0
 10
1011.715531568337
 20
934.7641472895992
 30
0.0
 10
1011.903680932879
 20
935.3925142868326
 30
0.0
 10
1011.998008888286
 20
935.7075436478827
 30
0.0
  0
LINE
  5
20E
330
1F
100
AcDbEntity
  8
0
  6
Continuous
 62
     8
370
    18
100
AcDbLine
 10
879.0546682673
 20
978.4616793807
 30
0.0
 11
879.0546682673
 21
978.3188778524
 31
0.0
  0
LINE
  5
20F
330
1F
100
AcDbEntity
  8
0
  6
Continuous
 62
     8
370
    18
100
AcDbLine
 10
879.0546682673
 20
978.3188778524
 30
0.0
 11
851.114640686
 21
978.3188778524
 31
0.0
  0
LINE
  5
210
330
1F
100
AcDbEntity
  8
0
  6
Continuous
 62
     8
370
    18
100
AcDbLine
 10
985.0546682673
 20
978.4616793807
 30
0.0
 11
985.0546682673
 21
978.3188778524
 31
0.0
  0
LINE
  5
211
330
1F
100
AcDbEntity
  8
0
  6
Continuous
 62
     8
370
    18
100
AcDbLine
 10
879.0546682673
 20
978.3188778524
 30
0.0
 11
985.0546682673
 21
978.3188778524
 31
0.0
  0
LINE
  5
212
330
1F
100
AcDbEntity
  8
0
  6
Continuous
 62
     8
370
    18
100
AcDbLine
 10
985.0546682673
 20
978.3188778524
 30
0.0
 11
1012.9946958486
 21
978.3188778524
 31
0.0
  0
LINE
  5
213
330
1F
100
AcDbEntity
  8
0
  6
Continuous
 62
     8
370
    18
100
AcDbLine
 10
879.0546682673
 20
978.3188778524
 30
0.0
 11
879.0546682673
 21
977.3971104869
 31
0.0
  0
LINE
  5
214
330
1F
100
AcDbEntity
  8
0
  6
Continuous
 62
     8
370
    18
100
AcDbLine
 10
985.0546682673
 20
978.3188778524
 30
0.0
 11
985.0546682673
 21
977.3971104869
 31
0.0
  0
LINE
  5
215
330
1F
100
AcDbEntity
  8
0
  6
Continuous
 62
     8
370
    18
100
AcDbLine
 10
1060.248616725
 20
929.1616793807
 30
0.0
 11
1060.248616725
 21
969.1616793807
 31
0.0
  0
LINE
  5
216
330
1F
100
AcDbEntity
  8
0
  6
Continuous
 62
     8
370
    18
100
AcDbLine
 10
1060.8544149613
 20
969.0998775525
 30
0.0
 11
1060.8544149613
 21
929.2234812088
 31
0.0
  0
LINE
  5
217
330
1F
100
AcDbEntity
  8
0
  6
Continuous
 62
     8
370
    18
100
AcDbLine
 10
1272.0546682673
 20
979.8854199023
 30
0.0
 11
1274.0546682673
 21
979.8854199023
 31
0.0
  0
LINE
  5
218
330
1F
100
AcDbEntity
  8
0
  6
Continuous
 62
     8
370
    18
100
AcDbLine
 10
1274.0546682673
 20
978.0728043282
 30
0.0
 11
1272.0546682673
 21
978.0728043282
 31
0.0
  0
LINE
  5
219
330
1F
100
AcDbEntity
  8
0
  6
Continuous
 62
     8
370
    18
100
AcDbLine
 10
1272.0546682673
 20
970.8145050436
 30
0.0
 11
1274.0546682673
 21
970.8145050436
 31
0.0
  0
LINE
  5
21A
330
1F
100
AcDbEntity
  8
0
  6
Continuous
 62
     8
370
    18
100
AcDbLine
 10
1274.0546682673
 20
969.0018894695
 30
0.0
 11
1272.0546682673
 21
969.0018894695
 31
0.0
  0
LINE
  5
21B
330
1F
100
AcDbEntity
  8
0
  6
Continuous
 62
     8
370
    18
100
AcDbLine
 10
1272.0546682673
 20
934.7112793807
 30
0.0
 11
1274.0546682673
 21
934.7112793807
 31
0.0
  0
LINE
  5
21C
330
1F
100
AcDbEntity
  8
0
  6
Continuous
 62
     8
370
    18
100
AcDbLine
 10
590.0546682673
 20
979.8854199023
 30
0.0
 11
592.0546682673
 21
979.8854199023
 31
0.0
  0
LINE
  5
21D
330
1F
100
AcDbEntity
  8
0
  6
Continuous
 62
     8
370
    18
100
AcDbLine
 10
592.0546682673
 20
978.0728043282
 30
0.0
 11
590.0546682673
 21
978.0728043282
 31
0.0
  0
LINE
  5
21E
330
1F
100
AcDbEntity
  8
0
  6
Continuous
 62
     8
370
    18
100
AcDbLine
 10
590.0546682673
 20
970.8145050436
 30
0.0
 11
592.0546682673
 21
970.8145050436
 31
0.0
  0
LINE
  5
21F
330
1F
100
AcDbEntity
  8
0
  6
Continuous
 62
     8
370
    18
100
AcDbLine
 10
592.0546682673
 20
969.0018894695
 30
0.0
 11
590.0546682673
 21
969.0018894695
 31
0.0
  0
LINE
  5
220
330
1F
100
AcDbEntity
  8
0
  6
Continuous
 62
     8
370
    18
100
AcDbLine
 10
590.0546682673
 20
934.7112793807
 30
0.0
 11
592.0546682673
 21
934.7112793807
 31
0.0
  0
LINE
  5
221
330
1F
100
AcDbEntity
  8
0
  6
Continuous
 62
     8
370
    18
100
AcDbLine
 10
569.5546682673
 20
986.6112793807
 30
0.0
 11
569.5546682673
 21
985.6112793807
 31
0.0
  0
LINE
  5
222
330
1F
100
AcDbEntity
  8
0
  6
Continuous
 62
     8
370
    18
100
AcDbLine
 10
590.0546682673
 20
987.6112793807
 30
0.0
 11
559.5546682673
 21
987.6112793807
 31
0.0
  0
LINE
  5
223
330
1F
100
AcDbEntity
  8
0
  6
Continuous
 62
     8
370
    18
100
AcDbLine
 10
1294.5546682673
 20
985.6112793807
 30
0.0
 11
1294.5546682673
 21
986.6112793807
 31
0.0
  0
LINE
  5
224
330
1F
100
AcDbEntity
  8
0
  6
Continuous
 62
     8
370
    18
100
AcDbLine
 10
1304.5546682673
 20
987.6112793807
 30
0.0
 11
1274.0546682673
 21
987.6112793807
 31
0.0
  0
SPLINE
  5
225
330
1F
100
AcDbEntity
  8
0
  6
Continuous
 62
     7
370
    35
100
AcDbSpline
210
0.0
220
0.0
230
1.0
 70
     8
 71
     3
 72
    17
 73
    13
 74
     0
 42
0.000000001
 43
0.00000001
 40
0.0
 40
0.0
 40
0.0
 40
0.0
 40
0.0944724089359271
 40
0.2037690526239996
 40
0.2658214290254076
 40
0.2993037426817075
 40
0.3336657805571942
 40
0.4040243448822438
 40
0.4775461189680245
 40
0.637289393554727
 40
0.8168942664911203
 40
0.9999999999999999
 40
0.9999999999999999
 40
0.9999999999999999
 40
0.9999999999999999
 10
1633.178778755805
 20
968.1220326133567
 30
0.0
 10
1632.916171441305
 20
968.5309515693816
 30
0.0
 10
1632.349749516739
 20
969.4129554179941
 30
0.0
 10
1631.285868553475
 20
970.1692053891124
 30
0.0
 10
1630.441100560227
 20
970.4759566628213
 30
0.0
 10
1630.070697900407
 20
970.8532606881323
 30
0.0
 10
1629.905968816508
 20
971.3326710730267
 30
0.0
 10
1629.968089696378
 20
971.8596676823108
 30
0.0
 10
1629.941675451564
 20
972.572889144229
 30
0.0
 10
1629.956038885276
 20
973.1905870823626
 30
0.0
 10
1629.950904139033
 20
973.5707033353302
 30
0.0
 10
1629.951622862629
 20
973.5982500736308
 30
0.0
 10
1629.951985692964
 20
973.6121563824972
 30
0.0
  0
SPLINE
  5
226
330
1F
100
AcDbEntity
  8
0
  6
Continuous
 62
     7
370
    35
100
AcDbSpline
210
0.0
220
0.0
230
1.0
 70
     8
 71
     3
 72
    17
 73
    13
 74
     0
 42
0.000000001
 43
0.00000001
 40
0.0
 40
0.0
 40
0.0
 40
0.0
 40
0.1880128869632595
 40
0.3724310918067862
 40
0.5364554161725843
 40
0.6119475415978867
 40
0.684191684627435
 40
0.7194746100661769
 40
0.7538542350610941
 40
0.8175695879660699
 40
0.9297953338203442
 40
1.0
 40
1.0
 40
1.0
 40
1.0
 10
1572.951973034452
 20
973.6121563822617
 30
0.0
 10
1572.952335702472
 20
973.5982502703537
 30
0.0
 10
1572.953054104538
 20
973.5707039222052
 30
0.0
 10
1572.94792164741
 20
973.1905848914174
 30
0.0
 10
1572.962278671255
 20
972.5728947315082
 30
0.0
 10
1572.935876207943
 20
971.8596589730236
 30
0.0
 10
1572.997969371775
 20
971.3326959965349
 30
0.0
 10
1572.833295209803
 20
970.8532189649709
 30
0.0
 10
1572.462684937842
 20
970.4761668723607
 30
0.0
 10
1571.619816264704
 20
970.1671108165435
 30
0.0
 10
1570.648876788602
 20
969.4990904375069
 30
0.0
 10
1570.149717720014
 20
968.7364766224389
 30
0.0
 10
1569.957626415773
 20
968.4430000703996
 30
0.0
  0
ARC
  5
227
330
1F
100
AcDbEntity
  8
0
  6
Continuous
 62
     7
370
    35
100
AcDbCircle
 10
1578.9619689679
 20
944.1615621592
 30
0.0
 40
14.99988279075925
100
AcDbArc
 50
226.5821055239
 51
269.924184982
  0
ARC
  5
228
330
1F
100
AcDbEntity
  8
0
  6
Continuous
 62
     7
370
    35
100
AcDbCircle
 10
1623.9419927463
 20
944.1615539805
 30
0.0
 40
14.99987460814244
100
AcDbArc
 50
270.0758036504
 51
312.1690218566
  0
SPLINE
  5
229
330
1F
100
AcDbEntity
  8
0
  6
Continuous
 62
     7
370
    35
100
AcDbSpline
210
0.0
220
0.0
230
1.0
 70
     8
 71
     3
 72
    14
 73
    10
 74
     0
 42
0.000000001
 43
0.00000001
 40
0.0
 40
0.0
 40
0.0
 40
0.0
 40
0.3118518498666899
 40
0.5835247383479647
 40
0.747236834775344
 40
0.8165073455990735
 40
0.8691914210132051
 40
0.9293786200049393
 40
0.9999999999999999
 40
0.9999999999999999
 40
0.9999999999999999
 40
0.9999999999999999
 10
1633.831871999761
 20
967.5386587276633
 30
0.0
 10
1633.72193291123
 20
967.6191063398983
 30
0.0
 10
1633.516219275422
 20
967.7696367019921
 30
0.0
 10
1633.292266709433
 20
968.0042982129464
 30
0.0
 10
1633.154126085699
 20
968.1761589428507
 30
0.0
 10
1633.094604196832
 20
968.2583525756781
 30
0.0
 10
1633.071353432695
 20
968.2917397448086
 30
0.0
 10
1633.059143755398
 20
968.3097899808928
 30
0.0
 10
1633.058873739292
 20
968.3102161670574
 30
0.0
 10
1633.058727962081
 20
968.3104462578917
 30
0.0
  0
SPLINE
  5
22A
330
1F
100
AcDbEntity
  8
0
  6
Continuous
 62
     7
370
    35
100
AcDbSpline
210
0.0
220
0.0
230
1.0
 70
     8
 71
     3
 72
    12
 73
     8
 74
     0
 42
0.000000001
 43
0.00000001
 40
0.0
 40
0.0
 40
0.0
 40
0.0
 40
0.124910043531764
 40
0.2370776954164877
 40
0.3308192653460202
 40
0.4814606093695619
 40
1.0
 40
1.0
 40
1.0
 40
1.0
 10
1569.84405857598
 20
968.3086950829363
 30
0.0
 10
1569.844179887297
 20
968.3088609342564
 30
0.0
 10
1569.844410134654
 20
968.3091757179808
 30
0.0
 10
1569.825234174045
 20
968.2808937606616
 30
0.0
 10
1569.784177346901
 20
968.2231880861054
 30
0.0
 10
1569.657790713404
 20
968.0547381762419
 30
0.0
 10
1569.519443825338
 20
967.9159628500394
 30
0.0
 10
1569.412240632959
 20
967.8084276665571
 30
0.0
  0
SPLINE
  5
22B
330
1F
100
AcDbEntity
  8
0
  6
Continuous
 62
     7
370
    35
100
AcDbSpline
210
0.0
220
0.0
230
1.0
 70
     8
 71
     3
 72
    12
 73
     8
 74
     0
 42
0.000000001
 43
0.00000001
 40
0.0
 40
0.0
 40
0.0
 40
0.0
 40
0.0910374224993203
 40
0.2353541285798242
 40
0.3547454600454121
 40
0.5766251016282903
 40
0.9999999999999999
 40
0.9999999999999999
 40
0.9999999999999999
 40
0.9999999999999999
 10
1633.997892995228
 20
933.0560696124288
 30
0.0
 10
1633.996927814334
 20
933.0552310233224
 30
0.0
 10
1633.99443258433
 20
933.0530630642245
 30
0.0
 10
1634.008847493727
 20
933.0654333946037
 30
0.0
 10
1634.044335863417
 20
933.0946944288887
 30
0.0
 10
1634.122803398412
 20
933.1582349025705
 30
0.0
 10
1634.197129597512
 20
933.2062193430465
 30
0.0
 10
1634.245897711553
 20
933.2377036741934
 30
0.0
  0
SPLINE
  5
22C
330
1F
100
AcDbEntity
  8
0
  6
Continuous
 62
     7
370
    35
100
AcDbSpline
210
0.0
220
0.0
230
1.0
 70
     8
 71
     3
 72
    13
 73
     9
 74
     0
 42
0.000000001
 43
0.00000001
 40
0.0
 40
0.0
 40
0.0
 40
0.0
 40
0.3192547611064543
 40
0.6030634358412891
 40
0.7318310646868382
 40
0.8311168407995556
 40
0.9400008211124884
 40
0.9999999999999999
 40
0.9999999999999999
 40
0.9999999999999999
 40
0.9999999999999999
 10
1568.658742861812
 20
933.2392219688013
 30
0.0
 10
1568.695406183346
 20
933.2154542022237
 30
0.0
 10
1568.764662186224
 20
933.1705575468849
 30
0.0
 10
1568.842571536474
 20
933.108541405013
 30
0.0
 10
1568.885750772426
 20
933.073222049879
 30
0.0
 10
1568.90254651403
 20
933.0590593809102
 30
0.0
 10
1568.909497554823
 20
933.0530955296614
 30
0.0
 10
1568.908518491269
 20
933.0539433897857
 30
0.0
 10
1568.908170659019
 20
933.0542446093477
 30
0.0
  0
SPLINE
  5
22D
330
1F
100
AcDbEntity
  8
0
  6
Continuous
 62
     7
370
    35
100
AcDbSpline
210
0.0
220
0.0
230
1.0
 70
     8
 71
     3
 72
    10
 73
     6
 74
     0
 42
0.000000001
 43
0.00000001
 40
0.0
 40
0.0
 40
0.0
 40
0.0
 40
0.2926068144121697
 40
0.7936688105188876
 40
1.0
 40
1.0
 40
1.0
 40
1.0
 10
1633.168071350457
 20
969.181243543057
 30
0.0
 10
1633.066272387135
 20
969.1865379864079
 30
0.0
 10
1632.790152152909
 20
969.200898672317
 30
0.0
 10
1632.449335346444
 20
969.29839831862
 30
0.0
 10
1632.230627229321
 20
969.4022409999379
 30
0.0
 10
1632.166834833699
 20
969.4325296490115
 30
0.0
  0
ARC
  5
22E
330
1F
100
AcDbEntity
  8
0
  6
Continuous
 62
     7
370
    35
100
AcDbCircle
 10
1632.9519793637
 20
940.1616793807
 30
0.0
 40
11.0
100
AcDbArc
 50
270.0
 51
0.0
  0
LINE
  5
22F
330
1F
100
AcDbEntity
  8
0
  6
Continuous
 62
     7
370
    35
100
AcDbLine
 10
1623.4651245734
 20
929.1616793807
 30
0.0
 11
1632.9519793637
 21
929.1616793807
 31
0.0
  0
SPLINE
  5
230
330
1F
100
AcDbEntity
  8
0
  6
Continuous
 62
     7
370
    35
100
AcDbSpline
210
0.0
220
0.0
230
1.0
 70
     8
 71
     3
 72
    13
 73
     9
 74
     0
 42
0.000000001
 43
0.00000001
 40
0.0
 40
0.0
 40
0.0
 40
0.0
 40
0.0125063681726221
 40
0.1462174330109377
 40
0.2953845283999726
 40
0.4584621214009671
 40
0.7227547008150598
 40
1.0
 40
1.0
 40
1.0
 40
1.0
 10
1629.951996922708
 20
972.5674888269281
 30
0.0
 10
1629.951996585386
 20
972.6197433618553
 30
0.0
 10
1629.951992641612
 20
973.2306740377115
 30
0.0
 10
1629.951990129161
 20
974.0101467436173
 30
0.0
 10
1629.951985014352
 20
974.8046824078775
 30
0.0
 10
1629.95198141189
 20
975.3465100170731
 30
0.0
 10
1629.95197938266
 20
975.5892953701347
 30
0.0
 10
1629.951979370125
 20
975.604100009401
 30
0.0
 10
1629.951979363708
 20
975.6116793806783
 30
0.0
  0
LINE
  5
231
330
1F
100
AcDbEntity
  8
0
  6
Continuous
 62
     7
370
    35
100
AcDbLine
 10
1666.9519793637
 20
986.6112793807
 30
0.0
 11
1666.9269793637
 21
986.6112793807
 31
0.0
  0
LINE
  5
232
330
1F
100
AcDbEntity
  8
0
  6
Continuous
 62
     7
370
    35
100
AcDbLine
 10
1666.9519793637
 20
985.6112793807
 30
0.0
 11
1666.9519793637
 21
986.6112793807
 31
0.0
  0
LINE
  5
233
330
1F
100
AcDbEntity
  8
0
  6
Continuous
 62
     7
370
    35
100
AcDbLine
 10
1666.9519793637
 20
985.6112793807
 30
0.0
 11
1666.9269793637
 21
985.6112793807
 31
0.0
  0
ARC
  5
234
330
1F
100
AcDbEntity
  8
0
  6
Continuous
 62
     7
370
    35
100
AcDbCircle
 10
1637.4519793637
 20
987.6112793807
 30
0.0
 40
1.000000000000227
100
AcDbArc
 50
180.0
 51
270.0
  0
ARC
  5
235
330
1F
100
AcDbEntity
  8
0
  6
Continuous
 62
     7
370
    35
100
AcDbCircle
 10
1552.9519793637
 20
999.6112793807
 30
0.0
 40
0.9999999999998863
100
AcDbArc
 50
180.0
 51
270.0
  0
LINE
  5
236
330
1F
100
AcDbEntity
  8
0
  6
Continuous
 62
     7
370
    35
100
AcDbLine
 10
1568.4519793637
 20
985.6112793807
 30
0.0
 11
1568.4519793637
 21
984.27319787
 31
0.0
  0
LWPOLYLINE
  5
237
330
1F
100
AcDbEntity
  8
0
  6
Continuous
 62
     7
370
    35
100
AcDbPolyline
 90
        3
 70
   128
 43
0.0
 10
1568.4519793637
 20
984.27319787
 10
1568.4876915968
 20
983.8969352374
 10
1568.5519793637
 20
983.6486980701
  0
LINE
  5
238
330
1F
100
AcDbEntity
  8
0
  6
Continuous
 62
     7
370
    35
100
AcDbLine
 10
1634.4519793637
 20
984.27319787
 30
0.0
 11
1634.4519793637
 21
985.6112793807
 31
0.0
  0
LINE
  5
239
330
1F
100
AcDbEntity
  8
0
  6
Continuous
 62
     7
370
    35
100
AcDbLine
 10
1551.9519793637
 20
999.6112793807
 30
0.0
 11
1551.9519793637
 21
1029.1112793807
 31
0.0
  0
LINE
  5
23A
330
1F
100
AcDbEntity
  8
0
  6
Continuous
 62
     7
370
    35
100
AcDbLine
 10
1551.9269793637
 20
1029.1112793807
 30
0.0
 11
1551.9519793637
 21
1029.1112793807
 31
0.0
  0
ARC
  5
23B
330
1F
100
AcDbEntity
  8
0
  6
Continuous
 62
     7
370
    35
100
AcDbCircle
 10
1632.4519793637
 20
984.27319787
 30
0.0
 40
1.999999999999816
100
AcDbArc
 50
337.6683549908
 51
0.0
  0
LINE
  5
23C
330
1F
100
AcDbEntity
  8
0
  6
Continuous
 62
     7
370
    35
100
AcDbLine
 10
1629.4519793637
 20
976.3496872386
 30
0.0
 11
1629.4519793637
 21
975.6116793807
 31
0.0
  0
LINE
  5
23D
330
1F
100
AcDbEntity
  8
0
  6
Continuous
 62
     7
370
    35
100
AcDbLine
 10
1573.4519793637
 20
976.3263718557
 30
0.0
 11
1573.4519793637
 21
975.6116793807
 31
0.0
  0
LINE
  5
23E
330
1F
100
AcDbEntity
  8
0
  6
Continuous
 62
     7
370
    35
100
AcDbLine
 10
1573.4519793637
 20
975.6116793807
 30
0.0
 11
1574.9846423225
 21
975.6116793807
 31
0.0
  0
LINE
  5
23F
330
1F
100
AcDbEntity
  8
0
  6
Continuous
 62
     7
370
    35
100
AcDbLine
 10
1627.8693164049
 20
975.6116793807
 30
0.0
 11
1629.4519793637
 21
975.6116793807
 31
0.0
  0
SPLINE
  5
240
330
1F
100
AcDbEntity
  8
0
  6
Continuous
 62
     7
370
    35
100
AcDbSpline
210
0.0
220
0.0
230
1.0
 70
     8
 71
     3
 72
     9
 73
     5
 74
     0
 42
0.000000001
 43
0.00000001
 40
0.0
 40
0.0
 40
0.0
 40
0.0
 40
0.0494865767873114
 40
1.0
 40
1.0
 40
1.0
 40
1.0
 10
1633.066547334194
 20
968.2989184244016
 30
0.0
 10
1633.063513713872
 20
968.303701995383
 30
0.0
 10
1633.002211831243
 20
968.4003660059491
 30
0.0
 10
1632.997051479758
 20
968.4056802946776
 30
0.0
 10
1632.992146496403
 20
968.4107315974492
 30
0.0
  0
SPLINE
  5
241
330
1F
100
AcDbEntity
  8
0
  6
Continuous
 62
     7
370
    35
100
AcDbSpline
210
0.0
220
0.0
230
1.0
 70
     8
 71
     3
 72
    14
 73
    10
 74
     0
 42
0.000000001
 43
0.00000001
 40
0.0
 40
0.0
 40
0.0
 40
0.0
 40
0.0000086772972158
 40
0.0546554576672727
 40
0.1545956188497728
 40
0.2815115513695395
 40
0.4757791841528836
 40
0.7372214479202461
 40
1.0
 40
1.0
 40
1.0
 40
1.0
 10
1632.861275460783
 20
968.4912689212864
 30
0.0
 10
1632.86127648262
 20
968.4912668004531
 30
0.0
 10
1632.867712701147
 20
968.4779083650701
 30
0.0
 10
1632.902445865536
 20
968.413507160788
 30
0.0
 10
1633.051597525794
 20
968.1575209755516
 30
0.0
 10
1633.416200598153
 20
967.5415843718966
 30
0.0
 10
1634.046563265999
 20
966.465910325621
 30
0.0
 10
1634.857761694215
 20
965.0450943011839
 30
0.0
 10
1635.438847628168
 20
963.9860806397131
 30
0.0
 10
1635.730131216576
 20
963.4552240461146
 30
0.0
  0
SPLINE
  5
242
330
1F
100
AcDbEntity
  8
0
  6
Continuous
 62
     7
370
    35
100
AcDbSpline
210
0.0
220
0.0
230
1.0
 70
     8
 71
     3
 72
    12
 73
     8
 74
     0
 42
0.000000001
 43
0.00000001
 40
0.0
 40
0.0
 40
0.0
 40
0.0
 40
0.1720163517394638
 40
0.4559765852487139
 40
0.667992488147798
 40
0.8863162030505048
 40
1.0
 40
1.0
 40
1.0
 40
1.0
 10
1637.163915808857
 20
960.7476444267363
 30
0.0
 10
1637.645759789412
 20
959.6999415099192
 30
0.0
 10
1638.923019600206
 20
956.9227171731947
 30
0.0
 10
1639.882885085709
 20
952.5010329079581
 30
0.0
 10
1640.083401034126
 20
947.7122914675533
 30
0.0
 10
1639.62500247156
 20
944.0701410785214
 30
0.0
 10
1638.98939997378
 20
941.9388024263085
 30
0.0
 10
1638.77176120743
 20
941.2090036659823
 30
0.0
  0
SPLINE
  5
243
330
1F
100
AcDbEntity
  8
0
  6
Continuous
 62
     7
370
    35
100
AcDbSpline
210
0.0
220
0.0
230
1.0
 70
    24
 71
     3
 72
     9
 73
     5
 74
     0
 42
0.000000001
 43
0.00000001
 40
0.0
 40
0.0
 40
0.0
 40
0.0
 40
0.5083839877526621
 40
1.0
 40
1.0
 40
1.0
 40
1.0
 10
1601.451979363709
 20
944.9403313073198
 30
0.0
 10
1601.451979363709
 20
943.4100454798086
 30
0.0
 10
1601.451979363709
 20
940.3999470810061
 30
0.0
 10
1601.451979363709
 20
937.8027848682527
 30
0.0
 10
1601.451979363709
 20
936.5259783380593
 30
0.0
  0
SPLINE
  5
244
330
1F
100
AcDbEntity
  8
0
  6
Continuous
 62
     7
370
    35
100
AcDbSpline
210
0.0
220
0.0
230
1.0
 70
    24
 71
     3
 72
    13
 73
     9
 74
     0
 42
0.000000001
 43
0.00000001
 40
0.0
 40
0.0
 40
0.0
 40
0.0
 40
0.369196217800684
 40
0.7482503419935743
 40
0.8262738837480735
 40
0.9040766892940519
 40
0.9808985751670088
 40
1.0
 40
1.0
 40
1.0
 40
1.0
 10
1629.951979363708
 20
975.6116793806783
 30
0.0
 10
1629.963761285842
 20
975.6116793806783
 30
0.0
 10
1629.987639719155
 20
975.6116793806785
 30
0.0
 10
1629.853743249281
 20
975.6116793806785
 30
0.0
 10
1630.017496587328
 20
975.6116793806785
 30
0.0
 10
1629.70253456124
 20
975.6116793806783
 30
0.0
 10
1628.902485947836
 20
975.6116793806783
 30
0.0
 10
1628.040888287037
 20
975.6116793806783
 30
0.0
 10
1627.869316404948
 20
975.6116793806783
 30
0.0
  0
SPLINE
  5
245
330
1F
100
AcDbEntity
  8
0
  6
Continuous
 62
     7
370
    35
100
AcDbSpline
210
0.0
220
0.0
230
1.0
 70
     8
 71
     3
 72
    14
 73
    10
 74
     0
 42
0.000000001
 43
0.00000001
 40
0.0
 40
0.0
 40
0.0
 40
0.0
 40
0.0000086772972158
 40
0.0546554576672727
 40
0.1545956188497728
 40
0.2815115513695395
 40
0.4757791841528836
 40
0.7372214479202452
 40
1.0
 40
1.0
 40
1.0
 40
1.0
 10
1570.042683266634
 20
968.4912689212862
 30
0.0
 10
1570.042682244797
 20
968.4912668004529
 30
0.0
 10
1570.036246026269
 20
968.4779083650739
 30
0.0
 10
1570.001512861882
 20
968.4135071607845
 30
0.0
 10
1569.852361201623
 20
968.1575209755529
 30
0.0
 10
1569.487758129264
 20
967.5415843718959
 30
0.0
 10
1568.857395461418
 20
966.465910325621
 30
0.0
 10
1568.046197033202
 20
965.0450943011834
 30
0.0
 10
1567.465111099249
 20
963.9860806397128
 30
0.0
 10
1567.173827510841
 20
963.4552240461145
 30
0.0
  0
SPLINE
  5
246
330
1F
100
AcDbEntity
  8
0
  6
Continuous
 62
     7
370
    35
100
AcDbSpline
210
0.0
220
0.0
230
1.0
 70
     8
 71
     3
 72
     9
 73
     5
 74
     0
 42
0.000000001
 43
0.00000001
 40
0.0
 40
0.0
 40
0.0
 40
0.0
 40
0.1570259663643213
 40
1.0
 40
1.0
 40
1.0
 40
1.0
 10
1569.81430471521
 20
968.2625004282448
 30
0.0
 10
1569.825515028229
 20
968.2801953515545
 30
0.0
 10
1569.896906488369
 20
968.3928832319054
 30
0.0
 10
1569.904994362844
 20
968.4025677772205
 30
0.0
 10
1569.911812231014
 20
968.4107315974488
 30
0.0
  0
LINE
  5
247
330
1F
100
AcDbEntity
  8
0
  6
Continuous
 62
     7
370
    35
100
AcDbLine
 10
1572.9519793637
 20
972.1955555766
 30
0.0
 11
1572.9519793637
 21
975.6116793807
 31
0.0
  0
SPLINE
  5
248
330
1F
100
AcDbEntity
  8
0
  6
Continuous
 62
     7
370
    35
100
AcDbSpline
210
0.0
220
0.0
230
1.0
 70
     8
 71
     3
 72
    12
 73
     8
 74
     0
 42
0.000000001
 43
0.00000001
 40
0.0
 40
0.0
 40
0.0
 40
0.0
 40
0.1720163517394582
 40
0.4559765852487098
 40
0.6679924881477988
 40
0.886316203050505
 40
1.0
 40
1.0
 40
1.0
 40
1.0
 10
1565.74004291856
 20
960.747644426736
 30
0.0
 10
1565.258198938005
 20
959.6999415099189
 30
0.0
 10
1563.980939127211
 20
956.9227171731943
 30
0.0
 10
1563.021073641708
 20
952.5010329079579
 30
0.0
 10
1562.82055769329
 20
947.7122914675532
 30
0.0
 10
1563.278956255856
 20
944.0701410785211
 30
0.0
 10
1563.914558753637
 20
941.9388024263084
 30
0.0
 10
1564.132197519986
 20
941.209003665982
 30
0.0
  0
SPLINE
  5
249
330
1F
100
AcDbEntity
  8
0
  6
Continuous
 62
     7
370
    35
100
AcDbSpline
210
0.0
220
0.0
230
1.0
 70
    24
 71
     3
 72
    13
 73
     9
 74
     0
 42
0.000000001
 43
0.00000001
 40
0.0
 40
0.0
 40
0.0
 40
0.0
 40
0.3699055321299812
 40
0.7496879100505804
 40
0.8278613537095971
 40
0.9058136370729868
 40
0.9827831161818058
 40
1.0
 40
1.0
 40
1.0
 40
1.0
 10
1572.951979363708
 20
975.6116793806782
 30
0.0
 10
1572.94011963775
 20
975.6116793806782
 30
0.0
 10
1572.916083519349
 20
975.6116793806783
 30
0.0
 10
1573.050864575593
 20
975.6116793806783
 30
0.0
 10
1572.886031028581
 20
975.6116793806783
 30
0.0
 10
1573.20309318222
 20
975.6116793806781
 30
0.0
 10
1573.988498313186
 20
975.6116793806781
 30
0.0
 10
1574.830692629124
 20
975.6116793806782
 30
0.0
 10
1574.984642322469
 20
975.6116793806782
 30
0.0
  0
SPLINE
  5
24A
330
1F
100
AcDbEntity
  8
0
  6
Continuous
 62
     7
370
    35
100
AcDbSpline
210
0.0
220
0.0
230
1.0
 70
    24
 71
     3
 72
    12
 73
     8
 74
     0
 42
0.000000001
 43
0.00000001
 40
0.0
 40
0.0
 40
0.0
 40
0.0
 40
0.1412104094081674
 40
0.378776799543145
 40
0.6231915895614722
 40
0.8099823699849353
 40
1.0
 40
1.0
 40
1.0
 40
1.0
 10
1601.451979363709
 20
932.7112793806784
 30
0.0
 10
1601.451979363709
 20
932.3884276584579
 30
0.0
 10
1601.451979363709
 20
931.5224239227402
 30
0.0
 10
1601.451979363709
 20
930.4809661240517
 30
0.0
 10
1601.451979363709
 20
929.6759994408644
 30
0.0
 10
1601.451979363709
 20
929.2375681925438
 30
0.0
 10
1601.451979363709
 20
929.1871196589052
 30
0.0
 10
1601.451979363709
 20
929.1616793806784
 30
0.0
  0
SPLINE
  5
24B
330
1F
100
AcDbEntity
  8
0
  6
Continuous
 62
     7
370
    35
100
AcDbSpline
210
0.0
220
0.0
230
1.0
 70
    24
 71
     3
 72
    17
 73
    13
 74
     0
 42
0.000000001
 43
0.00000001
 40
0.0
 40
0.0
 40
0.0
 40
0.0
 40
0.0569795784918646
 40
0.1353024541387309
 40
0.2160128774647465
 40
0.2868547793926922
 40
0.3593481415837563
 40
0.4253072501105227
 40
0.492857949599672
 40
0.556594223632562
 40
0.6223126637270417
 40
0.9999999999999999
 40
0.9999999999999999
 40
0.9999999999999999
 40
0.9999999999999999
 10
1601.451979363709
 20
929.1616793806784
 30
0.0
 10
1600.401598931339
 20
929.1616793806784
 30
0.0
 10
1597.907388653896
 20
929.1616793806784
 30
0.0
 10
1594.088523645621
 20
929.1616793806784
 30
0.0
 10
1590.321157473212
 20
929.1616793806784
 30
0.0
 10
1587.02611630115
 20
929.1616793806784
 30
0.0
 10
1584.345597150674
 20
929.1616793806783
 30
0.0
 10
1582.155329887551
 20
929.1616793806783
 30
0.0
 10
1580.561428201669
 20
929.1616793806783
 30
0.0
 10
1579.509334967061
 20
929.1616793806783
 30
0.0
 10
1578.854025559929
 20
929.1616793806783
 30
0.0
 10
1578.913448663417
 20
929.1616793806783
 30
0.0
 10
1578.964064498541
 20
929.1616793806783
 30
0.0
  0
SPLINE
  5
24C
330
1F
100
AcDbEntity
  8
0
  6
Continuous
 62
     7
370
    35
100
AcDbSpline
210
0.0
220
0.0
230
1.0
 70
    24
 71
     3
 72
    17
 73
    13
 74
     0
 42
0.000000001
 43
0.00000001
 40
0.0
 40
0.0
 40
0.0
 40
0.0
 40
0.0569845589005268
 40
0.1364939970869631
 40
0.2160235345599468
 40
0.2876998720940995
 40
0.3593687415705892
 40
0.4261501537102086
 40
0.4928872867050051
 40
0.5575313349414394
 40
0.62227977055286
 40
1.0
 40
1.0
 40
1.0
 40
1.0
 10
1601.451979363709
 20
929.1616793806784
 30
0.0
 10
1602.502434310612
 20
929.1616793806784
 30
0.0
 10
1605.01856845693
 20
929.1616793806784
 30
0.0
 10
1608.834118048439
 20
929.1616793806784
 30
0.0
 10
1612.614673163745
 20
929.1616793806785
 30
0.0
 10
1615.887870484601
 20
929.1616793806784
 30
0.0
 10
1618.579253876601
 20
929.1616793806784
 30
0.0
 10
1620.751800911217
 20
929.1616793806784
 30
0.0
 10
1622.365396525765
 20
929.1616793806784
 30
0.0
 10
1623.358828146843
 20
929.1616793806784
 30
0.0
 10
1624.117344315202
 20
929.1616793806784
 30
0.0
 10
1624.018549325488
 20
929.1616793806783
 30
0.0
 10
1623.934211452256
 20
929.1616793806783
 30
0.0
  0
SPLINE
  5
24D
330
1F
100
AcDbEntity
  8
0
  6
Continuous
 62
     7
370
    35
100
AcDbSpline
210
0.0
220
0.0
230
1.0
 70
     8
 71
     3
 72
    13
 73
     9
 74
     0
 42
0.000000001
 43
0.00000001
 40
0.0
 40
0.0
 40
0.0
 40
0.0
 40
0.2029467742027866
 40
0.4117773519856949
 40
0.6147258594307108
 40
0.8235672334127709
 40
0.9115535143092877
 40
0.9999999999999999
 40
0.9999999999999999
 40
0.9999999999999999
 40
0.9999999999999999
 10
1640.036221185908
 20
940.790875155588
 30
0.0
 10
1640.43928447775
 20
942.1735299042566
 30
0.0
 10
1641.257096614203
 20
944.9789251284661
 30
0.0
 10
1641.566510770353
 20
949.3523251443139
 30
0.0
 10
1641.188050268782
 20
953.7458668778675
 30
0.0
 10
1640.274927360673
 20
957.1848200350588
 30
0.0
 10
1639.274260643871
 20
959.7253747918849
 30
0.0
 10
1638.712380409539
 20
960.8417761422976
 30
0.0
 10
1638.430707492048
 20
961.4014328204437
 30
0.0
  0
SPLINE
  5
24E
330
1F
100
AcDbEntity
  8
0
  6
Continuous
 62
     7
370
    35
100
AcDbSpline
210
0.0
220
0.0
230
1.0
 70
     8
 71
     3
 72
    13
 73
     9
 74
     0
 42
0.000000001
 43
0.00000001
 40
0.0
 40
0.0
 40
0.0
 40
0.0
 40
0.202946774202786
 40
0.4117773519856937
 40
0.6147258594307141
 40
0.8235672334127763
 40
0.9115535143092928
 40
1.0
 40
1.0
 40
1.0
 40
1.0
 10
1562.867737541509
 20
940.7908751555876
 30
0.0
 10
1562.464674249667
 20
942.1735299042564
 30
0.0
 10
1561.646862113213
 20
944.978925128466
 30
0.0
 10
1561.337447957064
 20
949.3523251443138
 30
0.0
 10
1561.715908458635
 20
953.7458668778675
 30
0.0
 10
1562.629031366743
 20
957.1848200350587
 30
0.0
 10
1563.629698083546
 20
959.7253747918847
 30
0.0
 10
1564.191578317877
 20
960.8417761422972
 30
0.0
 10
1564.473251235369
 20
961.4014328204435
 30
0.0
  0
SPLINE
  5
24F
330
1F
100
AcDbEntity
  8
0
  6
Continuous
 62
     7
370
    35
100
AcDbSpline
210
0.0
220
0.0
230
1.0
 70
     8
 71
     3
 72
    12
 73
     8
 74
     0
 42
0.000000001
 43
0.00000001
 40
0.0
 40
0.0
 40
0.0
 40
0.0
 40
0.0542100646910305
 40
0.3612059465304435
 40
0.5267652948495962
 40
0.7633787062243805
 40
1.0
 40
1.0
 40
1.0
 40
1.0
 10
1633.774171831731
 20
932.9380579753231
 30
0.0
 10
1633.927453582362
 20
933.0358212736861
 30
0.0
 10
1634.948782004268
 20
933.687225859207
 30
0.0
 10
1636.333377154802
 20
934.850329732099
 30
0.0
 10
1637.918173282008
 20
936.6861776697546
 30
0.0
 10
1639.132292519385
 20
938.5252532831581
 30
0.0
 10
1639.734908284591
 20
940.0356594787862
 30
0.0
 10
1640.036221185908
 20
940.790875155588
 30
0.0
  0
SPLINE
  5
250
330
1F
100
AcDbEntity
  8
0
  6
Continuous
 62
     7
370
    35
100
AcDbSpline
210
0.0
220
0.0
230
1.0
 70
     8
 71
     3
 72
    12
 73
     8
 74
     0
 42
0.000000001
 43
0.00000001
 40
0.0
 40
0.0
 40
0.0
 40
0.0
 40
0.0542100646910311
 40
0.3612059465304473
 40
0.5267652948496011
 40
0.7633787062243828
 40
1.0
 40
1.0
 40
1.0
 40
1.0
 10
1569.129786895686
 20
932.938057975323
 30
0.0
 10
1568.976505145055
 20
933.035821273686
 30
0.0
 10
1567.955176723149
 20
933.6872258592069
 30
0.0
 10
1566.570581572615
 20
934.850329732099
 30
0.0
 10
1564.985785445408
 20
936.6861776697542
 30
0.0
 10
1563.771666208032
 20
938.525253283158
 30
0.0
 10
1563.169050442826
 20
940.0356594787859
 30
0.0
 10
1562.867737541509
 20
940.7908751555876
 30
0.0
  0
SPLINE
  5
251
330
1F
100
AcDbEntity
  8
0
  6
Continuous
 62
     7
370
    35
100
AcDbSpline
210
0.0
220
0.0
230
1.0
 70
     8
 71
     3
 72
    11
 73
     7
 74
     0
 42
0.000000001
 43
0.00000001
 40
0.0
 40
0.0
 40
0.0
 40
0.0
 40
0.3166351430858642
 40
0.6421699667518178
 40
0.8203579608774899
 40
1.0
 40
1.0
 40
1.0
 40
1.0
 10
1636.952812605234
 20
964.122960886816
 30
0.0
 10
1636.686847251141
 20
964.5554031829195
 30
0.0
 10
1636.147441040794
 20
965.4324424534325
 30
0.0
 10
1635.252151611503
 20
966.3957266681692
 30
0.0
 10
1634.436774253933
 20
967.1089056405157
 30
0.0
 10
1633.975243446018
 20
967.4315171412178
 30
0.0
 10
1633.743540325128
 20
967.5934783586829
 30
0.0
  0
SPLINE
  5
252
330
1F
100
AcDbEntity
  8
0
  6
Continuous
 62
     7
370
    35
100
AcDbSpline
210
0.0
220
0.0
230
1.0
 70
     8
 71
     3
 72
    11
 73
     7
 74
     0
 42
0.000000001
 43
0.00000001
 40
0.0
 40
0.0
 40
0.0
 40
0.0
 40
0.3166502316689759
 40
0.6422005680136363
 40
0.8852711377571085
 40
1.0
 40
1.0
 40
1.0
 40
1.0
 10
1565.951146122183
 20
964.1229608868157
 30
0.0
 10
1566.217169879469
 20
964.5553732558803
 30
0.0
 10
1566.756694537745
 20
965.432351831155
 30
0.0
 10
1567.721950106363
 20
966.4722345352599
 30
0.0
 10
1568.54827053631
 20
967.17282705294
 30
0.0
 10
1569.011790205743
 20
967.4913451186244
 30
0.0
 10
1569.160418402289
 20
967.5934783586825
 30
0.0
  0
LINE
  5
253
330
1F
100
AcDbEntity
  8
0
  6
Continuous
 62
     7
370
    35
100
AcDbLine
 10
1638.430707492
 20
961.4014328204
 30
0.0
 11
1636.9528126052
 21
964.1229608868
 31
0.0
  0
LINE
  5
254
330
1F
100
AcDbEntity
  8
0
  6
Continuous
 62
     7
370
    35
100
AcDbLine
 10
1564.4732512354
 20
961.4014328204
 30
0.0
 11
1565.9511461222
 21
964.1229608868
 31
0.0
  0
LINE
  5
255
330
1F
100
AcDbEntity
  8
0
  6
Continuous
 62
     7
370
    35
100
AcDbLine
 10
1568.6557121149
 20
933.245326572
 30
0.0
 11
1568.6693664458
 21
933.2364766031
 31
0.0
  0
LINE
  5
256
330
1F
100
AcDbEntity
  8
0
  6
Continuous
 62
     7
370
    35
100
AcDbLine
 10
1633.7435403251
 20
967.5934783587
 30
0.0
 11
1633.8443355259
 21
967.5257043324
 31
0.0
  0
ARC
  5
257
330
1F
100
AcDbEntity
  8
0
  6
Continuous
 62
     7
370
    35
100
AcDbCircle
 10
1567.3709154186
 20
970.004546434
 30
0.0
 40
2.999398629828454
100
AcDbArc
 50
304.2645941137
 51
312.8939997982
  0
LINE
  5
258
330
1F
100
AcDbEntity
  8
0
  6
Continuous
 62
     7
370
    35
100
AcDbLine
 10
1569.1604184023
 20
967.5934783587
 30
0.0
 11
1569.0596232015
 21
967.5257043324
 31
0.0
  0
SPLINE
  5
259
330
1F
100
AcDbEntity
  8
0
  6
Continuous
 62
     7
370
    35
100
AcDbSpline
210
0.0
220
0.0
230
1.0
 70
     8
 71
     3
 72
     9
 73
     5
 74
     0
 42
0.000000001
 43
0.00000001
 40
0.0
 40
0.0
 40
0.0
 40
0.0
 40
0.6590643911515649
 40
1.0
 40
1.0
 40
1.0
 40
1.0
 10
1633.28365493511
 20
969.163043594293
 30
0.0
 10
1632.968179215098
 20
969.189037821563
 30
0.0
 10
1632.48950713958
 20
969.2284789256781
 30
0.0
 10
1632.088831307595
 20
969.4826569816533
 30
0.0
 10
1631.952226648867
 20
969.5693153319232
 30
0.0
  0
ARC
  5
25A
330
1F
100
AcDbEntity
  8
0
  6
Continuous
 62
     7
370
    35
100
AcDbCircle
 10
1632.9519723825
 20
958.1680383523
 30
0.0
 40
11.00000698123941
100
AcDbArc
 50
0.0000092142
 51
88.2721018854
  0
SPLINE
  5
25B
330
1F
100
AcDbEntity
  8
0
  6
Continuous
 62
     7
370
    35
100
AcDbSpline
210
0.0
220
0.0
230
1.0
 70
    24
 71
     3
 72
    19
 73
    15
 74
     0
 42
0.000000001
 43
0.00000001
 40
0.0
 40
0.0
 40
0.0
 40
0.0
 40
0.0003400432997567
 40
0.1018635778277051
 40
0.2035434036526508
 40
0.3480218784455772
 40
0.4928620408160619
 40
0.5714933381061469
 40
0.6496296261320129
 40
0.7087399627822181
 40
0.7683238584295642
 40
0.8224306267254499
 40
0.8926101632270907
 40
1.0
 40
1.0
 40
1.0
 40
1.0
 10
1643.951979363708
 20
958.1680401213009
 30
0.0
 10
1643.951979363708
 20
958.1680423311528
 30
0.0
 10
1643.951979363709
 20
958.1687043157414
 30
0.0
 10
1643.951979363708
 20
957.9992673629275
 30
0.0
 10
1643.951979363708
 20
957.2138084907144
 30
0.0
 10
1643.951979363708
 20
955.8136517087512
 30
0.0
 10
1643.951979363708
 20
954.1479098707582
 30
0.0
 10
1643.951979363708
 20
952.6580595346048
 30
0.0
 10
1643.951979363708
 20
951.4099698152975
 30
0.0
 10
1643.951979363708
 20
950.0742189763805
 30
0.0
 10
1643.951979363708
 20
948.7614481169344
 30
0.0
 10
1643.951979363708
 20
947.3855077449186
 30
0.0
 10
1643.951979363708
 20
945.9714232697517
 30
0.0
 10
1643.951979363708
 20
945.1422886444129
 30
0.0
 10
1643.951979363708
 20
944.6408472616116
 30
0.0
  0
SPLINE
  5
25C
330
1F
100
AcDbEntity
  8
0
  6
Continuous
 62
     7
370
    35
100
AcDbSpline
210
0.0
220
0.0
230
1.0
 70
    24
 71
     3
 72
     9
 73
     5
 74
     0
 42
0.000000001
 43
0.00000001
 40
0.0
 40
0.0
 40
0.0
 40
0.0
 40
0.4979466281839514
 40
1.0
 40
1.0
 40
1.0
 40
1.0
 10
1643.951979363708
 20
944.6408472616116
 30
0.0
 10
1643.951979363708
 20
944.0100797660544
 30
0.0
 10
1643.951979363708
 20
942.7433426101916
 30
0.0
 10
1643.951979363708
 20
941.6891987091262
 30
0.0
 10
1643.951979363708
 20
941.159962209217
 30
0.0
  0
LINE
  5
25D
330
1F
100
AcDbEntity
  8
0
  6
Continuous
 62
     7
370
    35
100
AcDbLine
 10
1643.9519793637
 20
941.1599622092
 30
0.0
 11
1643.9519793637
 21
940.1616793807
 31
0.0
  0
ARC
  5
25E
330
1F
100
AcDbEntity
  8
0
  6
Continuous
 62
     7
370
    35
100
AcDbCircle
 10
1552.9519793637
 20
987.6112793807
 30
0.0
 40
1.0
100
AcDbArc
 50
180.0
 51
270.0
  0
LINE
  5
25F
330
1F
100
AcDbEntity
  8
0
  6
Continuous
 62
     7
370
    35
100
AcDbLine
 10
1551.9519793637
 20
987.6112793807
 30
0.0
 11
1551.9519793637
 21
997.6112793807
 31
0.0
  0
LINE
  5
260
330
1F
100
AcDbEntity
  8
0
  6
Continuous
 62
     7
370
    35
100
AcDbLine
 10
1636.4519793637
 20
997.6112793807
 30
0.0
 11
1636.4519793637
 21
986.6112793807
 31
0.0
  0
LINE
  5
261
330
1F
100
AcDbEntity
  8
0
  6
Continuous
 62
     7
370
    35
100
AcDbLine
 10
1634.3019793637
 20
985.6112793807
 30
0.0
 11
1634.3019793637
 21
979.8854199023
 31
0.0
  0
LINE
  5
262
330
1F
100
AcDbEntity
  8
0
  6
Continuous
 62
     7
370
    35
100
AcDbLine
 10
1633.1472158872
 20
978.0728043282
 30
0.0
 11
1617.5817428402
 21
970.8145050436
 31
0.0
  0
ARC
  5
263
330
1F
100
AcDbEntity
  8
0
  6
Continuous
 62
     7
370
    35
100
AcDbCircle
 10
1618.4269793637
 20
969.0018894695
 30
0.0
 40
2.00000000000013
100
AcDbArc
 50
115.0
 51
180.0
  0
LINE
  5
264
330
1F
100
AcDbEntity
  8
0
  6
Continuous
 62
     7
370
    35
100
AcDbLine
 10
1616.4269793637
 20
969.0018894695
 30
0.0
 11
1616.4269793637
 21
934.7112793807
 31
0.0
  0
ARC
  5
265
330
1F
100
AcDbEntity
  8
0
  6
Continuous
 62
     7
370
    35
100
AcDbCircle
 10
1614.4269793637
 20
934.7112793807
 30
0.0
 40
2.0
100
AcDbArc
 50
270.0
 51
0.0
  0
LINE
  5
266
330
1F
100
AcDbEntity
  8
0
  6
Continuous
 62
     7
370
    35
100
AcDbLine
 10
1614.4269793637
 20
932.7112793807
 30
0.0
 11
1588.4269793637
 21
932.7112793807
 31
0.0
  0
ARC
  5
267
330
1F
100
AcDbEntity
  8
0
  6
Continuous
 62
     7
370
    35
100
AcDbCircle
 10
1588.4269793637
 20
934.7112793807
 30
0.0
 40
2.000000000000114
100
AcDbArc
 50
180.0
 51
270.0
  0
LINE
  5
268
330
1F
100
AcDbEntity
  8
0
  6
Continuous
 62
     7
370
    35
100
AcDbLine
 10
1586.4269793637
 20
934.7112793807
 30
0.0
 11
1586.4269793637
 21
969.0018894695
 31
0.0
  0
ARC
  5
269
330
1F
100
AcDbEntity
  8
0
  6
Continuous
 62
     7
370
    35
100
AcDbCircle
 10
1584.4269793637
 20
969.0018894695
 30
0.0
 40
2.0
100
AcDbArc
 50
0.0
 51
65.0
  0
LINE
  5
26A
330
1F
100
AcDbEntity
  8
0
  6
Continuous
 62
     7
370
    35
100
AcDbLine
 10
1585.2722158872
 20
970.8145050436
 30
0.0
 11
1569.7067428402
 21
978.0728043282
 31
0.0
  0
ARC
  5
26B
330
1F
100
AcDbEntity
  8
0
  6
Continuous
 62
     7
370
    35
100
AcDbCircle
 10
1570.5519793637
 20
979.8854199023
 30
0.0
 40
1.999999999999835
100
AcDbArc
 50
180.0
 51
245.0
  0
LINE
  5
26C
330
1F
100
AcDbEntity
  8
0
  6
Continuous
 62
     7
370
    35
100
AcDbLine
 10
1568.5519793637
 20
979.8854199023
 30
0.0
 11
1568.5519793637
 21
985.6112793807
 31
0.0
  0
LINE
  5
26D
330
1F
100
AcDbEntity
  8
0
  6
Continuous
 62
     7
370
    35
100
AcDbLine
 10
1587.4269793637
 20
952.7112793807
 30
0.0
 11
1587.4269793637
 21
962.7112793807
 31
0.0
  0
ARC
  5
26E
330
1F
100
AcDbEntity
  8
0
  6
Continuous
 62
     7
370
    35
100
AcDbCircle
 10
1593.9269793637
 20
952.7112793807
 30
0.0
 40
6.500000000000227
100
AcDbArc
 50
180.0
 51
0.0
  0
LINE
  5
26F
330
1F
100
AcDbEntity
  8
0
  6
Continuous
 62
     7
370
    35
100
AcDbLine
 10
1600.4269793637
 20
962.7112793807
 30
0.0
 11
1600.4269793637
 21
952.7112793807
 31
0.0
  0
LINE
  5
270
330
1F
100
AcDbEntity
  8
0
  6
Continuous
 62
     7
370
    35
100
AcDbLine
 10
1602.4269793637
 20
952.7112793807
 30
0.0
 11
1602.4269793637
 21
962.7112793807
 31
0.0
  0
ARC
  5
271
330
1F
100
AcDbEntity
  8
0
  6
Continuous
 62
     7
370
    35
100
AcDbCircle
 10
1608.9269793637
 20
952.7112793807
 30
0.0
 40
6.5
100
AcDbArc
 50
180.0
 51
0.0
  0
LINE
  5
272
330
1F
100
AcDbEntity
  8
0
  6
Continuous
 62
     7
370
    35
100
AcDbLine
 10
1615.4269793637
 20
962.7112793807
 30
0.0
 11
1615.4269793637
 21
952.7112793807
 31
0.0
  0
ARC
  5
273
330
1F
100
AcDbEntity
  8
0
  6
Continuous
 62
     7
370
    35
100
AcDbCircle
 10
1608.9269793637
 20
962.7112793807
 30
0.0
 40
6.5
100
AcDbArc
 50
0.0
 51
180.0
  0
CIRCLE
  5
274
330
1F
100
AcDbEntity
  8
0
  6
Continuous
 62
     7
370
    35
100
AcDbCircle
 10
1601.4269793637
 20
940.7112793807
 30
0.0
 40
4.25
  0
ARC
  5
275
330
1F
100
AcDbEntity
  8
0
  6
Continuous
 62
     7
370
    35
100
AcDbCircle
 10
1632.3019793637
 20
979.8854199023
 30
0.0
 40
2.00000000000013
100
AcDbArc
 50
295.0
 51
360.0
  0
ARC
  5
276
330
1F
100
AcDbEntity
  8
0
  6
Continuous
 62
     7
370
    35
100
AcDbCircle
 10
1593.9269793637
 20
962.7112793807
 30
0.0
 40
6.500000000000227
100
AcDbArc
 50
0.0
 51
180.0
  0
LINE
  5
277
330
1F
100
AcDbEntity
  8
0
  6
Continuous
 62
     7
370
    35
100
AcDbLine
 10
1636.4519793637
 20
998.6112793807
 30
0.0
 11
1551.9519793637
 21
998.6112793807
 31
0.0
  0
LINE
  5
278
330
1F
100
AcDbEntity
  8
0
  6
Continuous
 62
     7
370
    35
100
AcDbLine
 10
1636.4519793637
 20
998.6112793807
 30
0.0
 11
1636.4519793637
 21
997.6112793807
 31
0.0
  0
LINE
  5
279
330
1F
100
AcDbEntity
  8
0
  6
Continuous
 62
     7
370
    35
100
AcDbLine
 10
1551.9519793637
 20
997.6112793807
 30
0.0
 11
1551.9519793637
 21
998.6112793807
 31
0.0
  0
LINE
  5
27A
330
1F
100
AcDbEntity
  8
0
  6
Continuous
 62
     7
370
    35
100
AcDbLine
 10
1550.9269793637
 20
1029.1112793807
 30
0.0
 11
1551.9269793637
 21
1029.1112793807
 31
0.0
  0
LINE
  5
27B
330
1F
100
AcDbEntity
  8
0
  6
Continuous
 62
     7
370
    35
100
AcDbLine
 10
1551.9269793637
 20
1029.1112793807
 30
0.0
 11
1551.9269793637
 21
1019.1112793807
 31
0.0
  0
LINE
  5
27C
330
1F
100
AcDbEntity
  8
0
  6
Continuous
 62
     7
370
    35
100
AcDbLine
 10
1550.9269793637
 20
1019.1112793807
 30
0.0
 11
1550.9269793637
 21
1029.1112793807
 31
0.0
  0
LINE
  5
27D
330
1F
100
AcDbEntity
  8
0
  6
Continuous
 62
     7
370
    35
100
AcDbLine
 10
1551.9269793637
 20
1019.1112793807
 30
0.0
 11
1551.9269793637
 21
987.6112793807
 31
0.0
  0
LINE
  5
27E
330
1F
100
AcDbEntity
  8
0
  6
Continuous
 62
     7
370
    35
100
AcDbLine
 10
1550.9269793637
 20
1019.1112793807
 30
0.0
 11
1550.9269793637
 21
987.6112793807
 31
0.0
  0
LINE
  5
27F
330
1F
100
AcDbEntity
  8
0
  6
Continuous
 62
     7
370
    35
100
AcDbLine
 10
1656.9269793637
 20
985.6112793807
 30
0.0
 11
1552.9269793637
 21
985.6112793807
 31
0.0
  0
LINE
  5
280
330
1F
100
AcDbEntity
  8
0
  6
Continuous
 62
     7
370
    35
100
AcDbLine
 10
1656.9269793637
 20
986.6112793807
 30
0.0
 11
1552.9269793637
 21
986.6112793807
 31
0.0
  0
ARC
  5
281
330
1F
100
AcDbEntity
  8
0
  6
Continuous
 62
     7
370
    35
100
AcDbCircle
 10
1552.9269793637
 20
987.6112793807
 30
0.0
 40
2.0
100
AcDbArc
 50
180.0
 51
270.0
  0
ARC
  5
282
330
1F
100
AcDbEntity
  8
0
  6
Continuous
 62
     7
370
    35
100
AcDbCircle
 10
1552.9269793637
 20
987.6112793807
 30
0.0
 40
1.0
100
AcDbArc
 50
180.0
 51
270.0
  0
LINE
  5
283
330
1F
100
AcDbEntity
  8
0
  6
Continuous
 62
     7
370
    35
100
AcDbLine
 10
1666.9269793637
 20
986.6112793807
 30
0.0
 11
1666.9269793637
 21
985.6112793807
 31
0.0
  0
LINE
  5
284
330
1F
100
AcDbEntity
  8
0
  6
Continuous
 62
     7
370
    35
100
AcDbLine
 10
1666.9269793637
 20
985.6112793807
 30
0.0
 11
1656.9269793637
 21
985.6112793807
 31
0.0
  0
LINE
  5
285
330
1F
100
AcDbEntity
  8
0
  6
Continuous
 62
     7
370
    35
100
AcDbLine
 10
1656.9269793637
 20
986.6112793807
 30
0.0
 11
1666.9269793637
 21
986.6112793807
 31
0.0
  0
LINE
  5
286
330
1F
100
AcDbEntity
  8
0
  6
Continuous
 62
     8
370
    18
100
AcDbLine
 10
1551.9269793637
 20
999.6112793807
 30
0.0
 11
1551.9519793637
 21
999.6112793807
 31
0.0
  0
LINE
  5
287
330
1F
100
AcDbEntity
  8
0
  6
Continuous
 62
     8
370
    18
100
AcDbLine
 10
1568.4519793637
 20
984.27319787
 30
0.0
 11
1568.5519793637
 21
984.27319787
 31
0.0
  0
LINE
  5
288
330
1F
100
AcDbEntity
  8
0
  6
Continuous
 62
     8
370
    18
100
AcDbLine
 10
1634.4519793637
 20
984.27319787
 30
0.0
 11
1634.3019793637
 21
984.27319787
 31
0.0
  0
SPLINE
  5
289
330
1F
100
AcDbEntity
  8
0
  6
Continuous
 62
     8
370
    18
100
AcDbSpline
210
0.0
220
0.0
230
1.0
 70
     8
 71
     3
 72
    11
 73
     7
 74
     0
 42
0.000000001
 43
0.00000001
 40
0.0
 40
0.0
 40
0.0
 40
0.0
 40
0.2499912677933777
 40
0.4999867562316059
 40
0.749992678491824
 40
1.0
 40
1.0
 40
1.0
 40
1.0
 10
1632.992146496403
 20
968.4107315974492
 30
0.0
 10
1632.984388867374
 20
968.4162294523766
 30
0.0
 10
1632.968873478344
 20
968.4272252550527
 30
0.0
 10
1632.938180295131
 20
968.4485822447849
 30
0.0
 10
1632.901015013499
 20
968.4754551643654
 30
0.0
 10
1632.873705614303
 20
968.492405095105
 30
0.0
 10
1632.860050876494
 20
968.5008800841914
 30
0.0
  0
SPLINE
  5
28A
330
1F
100
AcDbEntity
  8
0
  6
Continuous
 62
     8
370
    18
100
AcDbSpline
210
0.0
220
0.0
230
1.0
 70
     8
 71
     3
 72
    10
 73
     6
 74
     0
 42
0.000000001
 43
0.00000001
 40
0.0
 40
0.0
 40
0.0
 40
0.0
 40
0.4993573099105828
 40
0.9998128115878191
 40
0.9999999999999999
 40
0.9999999999999999
 40
0.9999999999999999
 40
0.9999999999999999
 10
1632.860050876494
 20
968.5008800841914
 30
0.0
 10
1632.859310040676
 20
968.5008034640911
 30
0.0
 10
1632.857826739787
 20
968.5006500553864
 30
0.0
 10
1632.859734644407
 20
968.4950353138706
 30
0.0
 10
1632.861274884893
 20
968.4912703289999
 30
0.0
 10
1632.861275460783
 20
968.4912689212864
 30
0.0
  0
SPLINE
  5
28B
330
1F
100
AcDbEntity
  8
0
  6
Continuous
 62
     8
370
    18
100
AcDbSpline
210
0.0
220
0.0
230
1.0
 70
     8
 71
     3
 72
    10
 73
     6
 74
     0
 42
0.000000001
 43
0.00000001
 40
0.0
 40
0.0
 40
0.0
 40
0.0
 40
0.4999712442950947
 40
0.7499826264318606
 40
1.0
 40
1.0
 40
1.0
 40
1.0
 10
1635.730131216576
 20
963.4552240461146
 30
0.0
 10
1635.972467739919
 20
963.0057820893686
 30
0.0
 10
1636.335985010826
 20
962.3315959976779
 30
0.0
 10
1636.811218485481
 20
961.4276199348307
 30
0.0
 10
1637.046349095273
 20
960.9743047400015
 30
0.0
 10
1637.163915808857
 20
960.7476444267363
 30
0.0
  0
SPLINE
  5
28C
330
1F
100
AcDbEntity
  8
0
  6
Continuous
 62
     8
370
    18
100
AcDbSpline
210
0.0
220
0.0
230
1.0
 70
     8
 71
     3
 72
    11
 73
     7
 74
     0
 42
0.000000001
 43
0.00000001
 40
0.0
 40
0.0
 40
0.0
 40
0.0
 40
0.2471593440128838
 40
0.4953474341907567
 40
0.7469783905689303
 40
1.0
 40
1.0
 40
1.0
 40
1.0
 10
1638.77176120743
 20
941.2090036659823
 30
0.0
 10
1638.619025734138
 20
940.7715896999518
 30
0.0
 10
1638.312919059888
 20
939.8949411288945
 30
0.0
 10
1637.752374192533
 20
938.6128789210823
 30
0.0
 10
1637.121463681214
 20
937.3534031680575
 30
0.0
 10
1636.637384507249
 20
936.5506930675488
 30
0.0
 10
1636.39467794042
 20
936.148232017516
 30
0.0
  0
SPLINE
  5
28D
330
1F
100
AcDbEntity
  8
0
  6
Continuous
 62
     8
370
    18
100
AcDbSpline
210
0.0
220
0.0
230
1.0
 70
     8
 71
     3
 72
    15
 73
    11
 74
     0
 42
0.000000001
 43
0.00000001
 40
0.0
 40
0.0
 40
0.0
 40
0.0
 40
0.0725909092871178
 40
0.2113393667722928
 40
0.3503145350511133
 40
0.4890346857736718
 40
0.6277980450951437
 40
0.77142610962461
 40
0.9150674468033593
 40
1.0
 40
1.0
 40
1.0
 40
1.0
 10
1636.39467794042
 20
936.148232017516
 30
0.0
 10
1636.377136010567
 20
936.1536543438642
 30
0.0
 10
1636.326064872547
 20
936.1694407698526
 30
0.0
 10
1635.770494828093
 20
936.0458452978346
 30
0.0
 10
1634.065470577852
 20
935.780037863505
 30
0.0
 10
1631.547442018799
 20
935.694836531331
 30
0.0
 10
1628.245829360608
 20
935.5935974162629
 30
0.0
 10
1624.199363278746
 20
935.5093987747606
 30
0.0
 10
1620.234351119514
 20
935.4426622403683
 30
0.0
 10
1617.458440792395
 20
935.4163046159082
 30
0.0
 10
1616.426979363708
 20
935.4065107573973
 30
0.0
  0
LINE
  5
28E
330
1F
100
AcDbEntity
  8
0
  6
Continuous
 62
     8
370
    18
100
AcDbLine
 10
1567.1738275108
 20
963.4552240461
 30
0.0
 11
1565.7400429186
 21
960.7476444267
 31
0.0
  0
SPLINE
  5
28F
330
1F
100
AcDbEntity
  8
0
  6
Continuous
 62
     8
370
    18
100
AcDbSpline
210
0.0
220
0.0
230
1.0
 70
     8
 71
     3
 72
     9
 73
     5
 74
     0
 42
0.000000001
 43
0.00000001
 40
0.0
 40
0.0
 40
0.0
 40
0.0
 40
0.9998127596651308
 40
0.9999999999999999
 40
0.9999999999999999
 40
0.9999999999999999
 40
0.9999999999999999
 10
1570.043907850923
 20
968.5008800841913
 30
0.0
 10
1570.044833648783
 20
968.4998344967215
 30
0.0
 10
1570.045759620022
 20
968.4987887134389
 30
0.0
 10
1570.042683842544
 20
968.491270329031
 30
0.0
 10
1570.042683266634
 20
968.4912689212862
 30
0.0
  0
SPLINE
  5
290
330
1F
100
AcDbEntity
  8
0
  6
Continuous
 62
     8
370
    18
100
AcDbSpline
210
0.0
220
0.0
230
1.0
 70
     8
 71
     3
 72
     9
 73
     5
 74
     0
 42
0.000000001
 43
0.00000001
 40
0.0
 40
0.0
 40
0.0
 40
0.0
 40
0.4999863548673912
 40
1.0
 40
1.0
 40
1.0
 40
1.0
 10
1569.911812231014
 20
968.4107315974488
 30
0.0
 10
1569.928326809833
 20
968.4226042605059
 30
0.0
 10
1569.96135686887
 20
968.4463502346539
 30
0.0
 10
1570.016390356279
 20
968.4827031369853
 30
0.0
 10
1570.043907850923
 20
968.5008800841913
 30
0.0
  0
SPLINE
  5
291
330
1F
100
AcDbEntity
  8
0
  6
Continuous
 62
     8
370
    18
100
AcDbSpline
210
0.0
220
0.0
230
1.0
 70
     8
 71
     3
 72
    15
 73
    11
 74
     0
 42
0.000000001
 43
0.00000001
 40
0.0
 40
0.0
 40
0.0
 40
0.0
 40
0.0726922106735396
 40
0.2116342931077105
 40
0.3508034027128527
 40
0.4897171388820172
 40
0.6286741439481547
 40
0.7725026429701772
 40
0.9163444331636061
 40
0.9999999999999999
 40
0.9999999999999999
 40
0.9999999999999999
 40
0.9999999999999999
 10
1566.509280786996
 20
936.1482320175159
 30
0.0
 10
1566.526822680788
 20
936.1536543423173
 30
0.0
 10
1566.577893713819
 20
936.1694407638015
 30
0.0
 10
1567.133465104233
 20
936.0458453495232
 30
0.0
 10
1568.838483720936
 20
935.780037673523
 30
0.0
 10
1571.356533184574
 20
935.6948372381257
 30
0.0
 10
1574.658066946662
 20
935.5935947385285
 30
0.0
 10
1578.704837520427
 20
935.5094091592903
 30
0.0
 10
1582.654019316281
 20
935.4428802426387
 30
0.0
 10
1585.412593551431
 20
935.4166656423314
 30
0.0
 10
1586.426979363708
 20
935.4070259819998
 30
0.0
  0
SPLINE
  5
292
330
1F
100
AcDbEntity
  8
0
  6
Continuous
 62
     8
370
    18
100
AcDbSpline
210
0.0
220
0.0
230
1.0
 70
     8
 71
     3
 72
     9
 73
     5
 74
     0
 42
0.000000001
 43
0.00000001
 40
0.0
 40
0.0
 40
0.0
 40
0.0
 40
0.4953960175050964
 40
1.0
 40
1.0
 40
1.0
 40
1.0
 10
1564.132197519986
 20
941.209003665982
 30
0.0
 10
1564.450188480798
 20
940.3346523242853
 30
0.0
 10
1565.092080925579
 20
938.5696980032958
 30
0.0
 10
1566.033989811841
 20
936.9603270233222
 30
0.0
 10
1566.509280786996
 20
936.1482320175159
 30
0.0
  0
SPLINE
  5
293
330
1F
100
AcDbEntity
  8
0
  6
Continuous
 62
     8
370
    18
100
AcDbSpline
210
0.0
220
0.0
230
1.0
 70
     8
 71
     3
 72
    13
 73
     9
 74
     0
 42
0.000000001
 43
0.00000001
 40
0.0
 40
0.0
 40
0.0
 40
0.0
 40
0.3455606136556955
 40
0.7377948233629087
 40
0.8482878985160521
 40
0.9091433588593544
 40
0.9540191324658088
 40
1.0
 40
1.0
 40
1.0
 40
1.0
 10
1566.509280786996
 20
936.1482320175159
 30
0.0
 10
1566.847723396201
 20
935.6470606714229
 30
0.0
 10
1567.570320808085
 20
934.5770266161715
 30
0.0
 10
1568.605475891617
 20
933.4899264697609
 30
0.0
 10
1569.23538062258
 20
932.9097447219949
 30
0.0
 10
1569.412814434637
 20
932.7504288462704
 30
0.0
 10
1569.483013393725
 20
932.6856272338923
 30
0.0
 10
1569.479042183509
 20
932.6855700712522
 30
0.0
 10
1569.477032427386
 20
932.6855411422962
 30
0.0
  0
SPLINE
  5
294
330
1F
100
AcDbEntity
  8
0
  6
Continuous
 62
     8
370
    18
100
AcDbSpline
210
0.0
220
0.0
230
1.0
 70
     8
 71
     3
 72
     9
 73
     5
 74
     0
 42
0.000000001
 43
0.00000001
 40
0.0
 40
0.0
 40
0.0
 40
0.0
 40
0.4998468996431856
 40
1.0
 40
1.0
 40
1.0
 40
1.0
 10
1569.477032427386
 20
932.6855411422962
 30
0.0
 10
1569.37145897901
 20
932.7491330890206
 30
0.0
 10
1569.160247409125
 20
932.8763559381969
 30
0.0
 10
1569.039668571373
 20
932.9539838821217
 30
0.0
 10
1568.979360691834
 20
932.9928097389501
 30
0.0
  0
SPLINE
  5
295
330
1F
100
AcDbEntity
  8
0
  6
Continuous
 62
     8
370
    18
100
AcDbSpline
210
0.0
220
0.0
230
1.0
 70
     8
 71
     3
 72
    13
 73
     9
 74
     0
 42
0.000000001
 43
0.00000001
 40
0.0
 40
0.0
 40
0.0
 40
0.0
 40
0.3455606136556849
 40
0.7377948233629062
 40
0.8482878985160515
 40
0.9091433588593542
 40
0.9540191324658097
 40
1.0
 40
1.0
 40
1.0
 40
1.0
 10
1636.39467794042
 20
936.148232017516
 30
0.0
 10
1636.056235331216
 20
935.647060671423
 30
0.0
 10
1635.333637919332
 20
934.5770266161716
 30
0.0
 10
1634.2984828358
 20
933.489926469761
 30
0.0
 10
1633.668578104837
 20
932.909744721995
 30
0.0
 10
1633.49114429278
 20
932.7504288462706
 30
0.0
 10
1633.420945333692
 20
932.6856272338925
 30
0.0
 10
1633.424916543907
 20
932.6855700712523
 30
0.0
 10
1633.426926300031
 20
932.6855411422962
 30
0.0
  0
SPLINE
  5
296
330
1F
100
AcDbEntity
  8
0
  6
Continuous
 62
     8
370
    18
100
AcDbSpline
210
0.0
220
0.0
230
1.0
 70
     8
 71
     3
 72
    11
 73
     7
 74
     0
 42
0.000000001
 43
0.00000001
 40
0.0
 40
0.0
 40
0.0
 40
0.0
 40
0.2499068565621725
 40
0.4998445626142473
 40
0.749897447561109
 40
1.0
 40
1.0
 40
1.0
 40
1.0
 10
1633.426926300031
 20
932.6855411422962
 30
0.0
 10
1633.480758033428
 20
932.717648974433
 30
0.0
 10
1633.588428145426
 20
932.7818686022246
 30
0.0
 10
1633.724309474672
 20
932.8657422620654
 30
0.0
 10
1633.840496745122
 20
932.9388100842257
 30
0.0
 10
1633.896562416246
 20
932.9748086624404
 30
0.0
 10
1633.924598035584
 20
932.9928097389513
 30
0.0
  0
SPLINE
  5
297
330
1F
100
AcDbEntity
  8
0
  6
Continuous
 62
     8
370
    18
100
AcDbSpline
210
0.0
220
0.0
230
1.0
 70
     8
 71
     3
 72
     9
 73
     5
 74
     0
 42
0.000000001
 43
0.00000001
 40
0.0
 40
0.0
 40
0.0
 40
0.0
 40
0.7340356503372908
 40
1.0
 40
1.0
 40
1.0
 40
1.0
 10
1633.924598035584
 20
932.9928097389513
 30
0.0
 10
1633.930150331285
 20
932.9968245842012
 30
0.0
 10
1633.937714399458
 20
933.0022941349623
 30
0.0
 10
1633.984797166087
 20
933.0444162846222
 30
0.0
 10
1633.997319503494
 20
933.055619274763
 30
0.0
  0
SPLINE
  5
298
330
1F
100
AcDbEntity
  8
0
  6
Continuous
 62
     8
370
    18
100
AcDbSpline
210
0.0
220
0.0
230
1.0
 70
     8
 71
     3
 72
    12
 73
     8
 74
     0
 42
0.000000001
 43
0.00000001
 40
0.0
 40
0.0
 40
0.0
 40
0.0
 40
0.1139159269059949
 40
0.3258009088085499
 40
0.5443041886655096
 40
0.8274327407183922
 40
1.0
 40
1.0
 40
1.0
 40
1.0
 10
1639.534911203447
 20
940.9722176619349
 30
0.0
 10
1639.766155192894
 20
941.7256891456851
 30
0.0
 10
1640.427515759099
 20
943.8806265704554
 30
0.0
 10
1640.950547965779
 20
947.6355335486511
 30
0.0
 10
1640.799411849178
 20
952.5814110628038
 30
0.0
 10
1639.780095211086
 20
957.1899069622912
 30
0.0
 10
1638.438507034817
 20
960.0458687478224
 30
0.0
 10
1637.930461560391
 20
961.1273917411955
 30
0.0
  0
ARC
  5
299
330
1F
100
AcDbEntity
  8
0
  6
Continuous
 62
     8
370
    18
100
AcDbCircle
 10
1634.1525445264
 20
924.9732976272
 30
0.0
 40
16.88002705343112
100
AcDbArc
 50
71.4059989949
 51
74.1184304799
  0
ARC
  5
29A
330
1F
100
AcDbEntity
  8
0
  6
Continuous
 62
     8
370
    18
100
AcDbCircle
 10
1628.4483668712
 20
979.3041080227
 30
0.0
 40
20.50129592180084
100
AcDbArc
 50
295.1583766345
 51
297.5493192595
  0
ARC
  5
29B
330
1F
100
AcDbEntity
  8
0
  6
Continuous
 62
     8
370
    18
100
AcDbCircle
 10
1568.7514142009
 20
924.9732976275
 30
0.0
 40
16.88002705310187
100
AcDbArc
 50
105.88156952
 51
108.5940010051
  0
SPLINE
  5
29C
330
1F
100
AcDbEntity
  8
0
  6
Continuous
 62
     8
370
    18
100
AcDbSpline
210
0.0
220
0.0
230
1.0
 70
     8
 71
     3
 72
    12
 73
     8
 74
     0
 42
0.000000001
 43
0.00000001
 40
0.0
 40
0.0
 40
0.0
 40
0.0
 40
0.1139185701341834
 40
0.3290869588708598
 40
0.5442936150078426
 40
0.8274287365843251
 40
0.9999999999999999
 40
0.9999999999999999
 40
0.9999999999999999
 40
0.9999999999999999
 10
1563.36904752397
 20
940.9722176619348
 30
0.0
 10
1563.137673916031
 20
941.7256715293925
 30
0.0
 10
1562.469283881729
 20
943.9022424045279
 30
0.0
 10
1561.956876798253
 20
947.659191497815
 30
0.0
 10
1562.107859768104
 20
952.6038041773509
 30
0.0
 10
1563.124126165809
 20
957.1899343612553
 30
0.0
 10
1564.465523835469
 20
960.0458762735934
 30
0.0
 10
1564.973497167026
 20
961.1273917411954
 30
0.0
  0
ARC
  5
29D
330
1F
100
AcDbEntity
  8
0
  6
Continuous
 62
     8
370
    18
100
AcDbCircle
 10
1574.4555918564
 20
979.3041080232
 30
0.0
 40
20.50129592233588
100
AcDbArc
 50
242.4506807405
 51
244.8416233655
  0
SPLINE
  5
29E
330
1F
100
AcDbEntity
  8
0
  6
Continuous
 62
     8
370
    18
100
AcDbSpline
210
0.0
220
0.0
230
1.0
 70
     8
 71
     3
 72
    11
 73
     7
 74
     0
 42
0.000000001
 43
0.00000001
 40
0.0
 40
0.0
 40
0.0
 40
0.0
 40
0.3598580230790485
 40
0.7246062069006127
 40
0.8621677510649551
 40
1.0
 40
1.0
 40
1.0
 40
1.0
 10
1636.939968315596
 20
936.0713410797258
 30
0.0
 10
1637.325270754717
 20
936.6176374283567
 30
0.0
 10
1638.101111561411
 20
937.7176538227061
 30
0.0
 10
1638.822006794864
 20
939.1525851309299
 30
0.0
 10
1639.279967866804
 20
940.2488346679036
 30
0.0
 10
1639.449874420026
 20
940.7309320342969
 30
0.0
 10
1639.534911203447
 20
940.9722176619349
 30
0.0
  0
ARC
  5
29F
330
1F
100
AcDbEntity
  8
0
  6
Continuous
 62
     8
370
    18
100
AcDbCircle
 10
1636.5780017109
 20
935.4763424723
 30
0.0
 40
0.6964504044255577
100
AcDbArc
 50
58.685815836
 51
105.2615608993
  0
ARC
  5
2A0
330
1F
100
AcDbEntity
  8
0
  6
Continuous
 62
     8
370
    18
100
AcDbCircle
 10
1566.3259570166
 20
935.4763424723
 30
0.0
 40
0.6964504044231216
100
AcDbArc
 50
74.7384391007
 51
121.3141841641
  0
SPLINE
  5
2A1
330
1F
100
AcDbEntity
  8
0
  6
Continuous
 62
     8
370
    18
100
AcDbSpline
210
0.0
220
0.0
230
1.0
 70
     8
 71
     3
 72
    11
 73
     7
 74
     0
 42
0.000000001
 43
0.00000001
 40
0.0
 40
0.0
 40
0.0
 40
0.0
 40
0.3598580230790378
 40
0.7246062069006073
 40
0.8621677510649521
 40
1.0
 40
1.0
 40
1.0
 40
1.0
 10
1565.963990411821
 20
936.0713410797257
 30
0.0
 10
1565.5786879727
 20
936.6176374283566
 30
0.0
 10
1564.802847166006
 20
937.7176538227059
 30
0.0
 10
1564.081951932552
 20
939.1525851309298
 30
0.0
 10
1563.623990860613
 20
940.2488346679035
 30
0.0
 10
1563.454084307391
 20
940.7309320342965
 30
0.0
 10
1563.36904752397
 20
940.9722176619348
 30
0.0
  0
ARC
  5
2A2
330
1F
100
AcDbEntity
  8
0
  6
Continuous
 62
     8
370
    18
100
AcDbCircle
 10
1635.4009673476
 20
970.0910326075
 30
0.0
 40
2.997472528741559
100
AcDbArc
 50
212.0390940145
 51
236.4309513429
  0
SPLINE
  5
2A3
330
1F
100
AcDbEntity
  8
0
  6
Continuous
 62
     8
370
    18
100
AcDbSpline
210
0.0
220
0.0
230
1.0
 70
     8
 71
     3
 72
    14
 73
    10
 74
     0
 42
0.000000001
 43
0.00000001
 40
0.0
 40
0.0
 40
0.0
 40
0.0
 40
0.6113158653943737
 40
0.7934072053583404
 40
0.8854170307688747
 40
0.9194198313361065
 40
0.9434501870529951
 40
0.9749897870426378
 40
1.0
 40
1.0
 40
1.0
 40
1.0
 10
1636.469268505781
 20
963.8455640747899
 30
0.0
 10
1635.912811555494
 20
964.7278873953846
 30
0.0
 10
1635.190603972113
 20
965.8730264628354
 30
0.0
 10
1634.205926722255
 20
967.0086825756159
 30
0.0
 10
1633.880886482284
 20
967.3864296374908
 30
0.0
 10
1633.767832658649
 20
967.5274705314997
 30
0.0
 10
1633.727462716354
 20
967.5846757674275
 30
0.0
 10
1633.71935062856
 20
967.6070135728938
 30
0.0
 10
1633.736122604795
 20
967.5976289040766
 30
0.0
 10
1633.743540325128
 20
967.5934783586829
 30
0.0
  0
ARC
  5
2A4
330
1F
100
AcDbEntity
  8
0
  6
Continuous
 62
     8
370
    18
100
AcDbCircle
 10
1623.8411591456
 20
986.8628342113
 30
0.0
 40
26.2538353493632
100
AcDbArc
 50
296.9264954205
 51
298.7507702117
  0
ARC
  5
2A5
330
1F
100
AcDbEntity
  8
0
  6
Continuous
 62
     8
370
    18
100
AcDbCircle
 10
1579.0627995812
 20
986.8628342101
 30
0.0
 40
26.25383534797058
100
AcDbArc
 50
241.2492297883
 51
243.0735045796
  0
SPLINE
  5
2A6
330
1F
100
AcDbEntity
  8
0
  6
Continuous
 62
     8
370
    18
100
AcDbSpline
210
0.0
220
0.0
230
1.0
 70
     8
 71
     3
 72
    14
 73
    10
 74
     0
 42
0.000000001
 43
0.00000001
 40
0.0
 40
0.0
 40
0.0
 40
0.0
 40
0.6113158653943737
 40
0.7934072053583404
 40
0.8854170307688746
 40
0.9194198313361064
 40
0.943450187052995
 40
0.9749897870426377
 40
1.0
 40
1.0
 40
1.0
 40
1.0
 10
1566.434690221636
 20
963.8455640747898
 30
0.0
 10
1566.991147171923
 20
964.7278873953845
 30
0.0
 10
1567.713354755304
 20
965.8730264628351
 30
0.0
 10
1568.698032005162
 20
967.0086825756157
 30
0.0
 10
1569.023072245133
 20
967.3864296374906
 30
0.0
 10
1569.136126068768
 20
967.5274705314994
 30
0.0
 10
1569.176496011062
 20
967.5846757674273
 30
0.0
 10
1569.184608098857
 20
967.6070135728936
 30
0.0
 10
1569.167836122622
 20
967.5976289040765
 30
0.0
 10
1569.160418402289
 20
967.5934783586825
 30
0.0
  0
ARC
  5
2A7
330
1F
100
AcDbEntity
  8
0
  6
Continuous
 62
     8
370
    18
100
AcDbCircle
 10
1567.5029913798
 20
970.0910326075
 30
0.0
 40
2.997472528735915
100
AcDbArc
 50
303.5690486571
 51
327.9609059855
  0
LINE
  5
2A8
330
1F
100
AcDbEntity
  8
0
  6
Continuous
 62
     8
370
    18
100
AcDbLine
 10
1637.9304615604
 20
961.1273917412
 30
0.0
 11
1636.4692685058
 21
963.8455640748
 31
0.0
  0
LINE
  5
2A9
330
1F
100
AcDbEntity
  8
0
  6
Continuous
 62
     8
370
    18
100
AcDbLine
 10
1564.973497167
 20
961.1273917412
 30
0.0
 11
1566.4346902216
 21
963.8455640748
 31
0.0
  0
SPLINE
  5
2AA
330
1F
100
AcDbEntity
  8
0
  6
Continuous
 62
     8
370
    18
100
AcDbSpline
210
0.0
220
0.0
230
1.0
 70
     8
 71
     3
 72
    16
 73
    12
 74
     0
 42
0.000000001
 43
0.00000001
 40
0.0
 40
0.0
 40
0.0
 40
0.0
 40
0.0117733620155408
 40
0.0227113902881394
 40
0.0341085178796155
 40
0.0448724470144665
 40
0.0843977891274209
 40
0.1801725761900129
 40
0.6004756555876873
 40
0.7301077904365098
 40
1.0
 40
1.0
 40
1.0
 40
1.0
 10
1633.774171831731
 20
932.9380579753231
 30
0.0
 10
1633.768598468869
 20
932.9347046079002
 30
0.0
 10
1633.75784717973
 20
932.9282357983773
 30
0.0
 10
1633.757520774473
 20
932.9302993365635
 30
0.0
 10
1633.773376398849
 20
932.9439395214354
 30
0.0
 10
1633.824494092623
 20
932.984517464335
 30
0.0
 10
1633.995002035083
 20
933.1151839543659
 30
0.0
 10
1634.669250971064
 20
933.6425728326941
 30
0.0
 10
1635.419407095491
 20
934.3236424290495
 30
0.0
 10
1636.292247004629
 20
935.2542136339797
 30
0.0
 10
1636.678823091804
 20
935.7418954893568
 30
0.0
 10
1636.939968315596
 20
936.0713410797258
 30
0.0
  0
ARC
  5
2AB
330
1F
100
AcDbEntity
  8
0
  6
Continuous
 62
     8
370
    18
100
AcDbCircle
 10
1635.3387958114
 20
930.4214701375
 30
0.0
 40
2.963319514210932
100
AcDbArc
 50
121.8702236033
 51
130.1790467467
  0
ARC
  5
2AC
330
1F
100
AcDbEntity
  8
0
  6
Continuous
 62
     8
370
    18
100
AcDbCircle
 10
1567.565162916
 20
930.4214701375
 30
0.0
 40
2.963319514192566
100
AcDbArc
 50
49.8209532533
 51
58.1297763968
  0
SPLINE
  5
2AD
330
1F
100
AcDbEntity
  8
0
  6
Continuous
 62
     8
370
    18
100
AcDbSpline
210
0.0
220
0.0
230
1.0
 70
     8
 71
     3
 72
    16
 73
    12
 74
     0
 42
0.000000001
 43
0.00000001
 40
0.0
 40
0.0
 40
0.0
 40
0.0
 40
0.0117733620155406
 40
0.0227113902881391
 40
0.0341085178796156
 40
0.044872447014466
 40
0.0843977891274212
 40
0.1801725761900122
 40
0.6004756555876863
 40
0.7301077904365099
 40
1.0
 40
1.0
 40
1.0
 40
1.0
 10
1569.129786895686
 20
932.938057975323
 30
0.0
 10
1569.135360258548
 20
932.9347046079
 30
0.0
 10
1569.146111547687
 20
932.9282357983773
 30
0.0
 10
1569.146437952944
 20
932.9302993365632
 30
0.0
 10
1569.130582328568
 20
932.9439395214354
 30
0.0
 10
1569.079464634794
 20
932.9845174643349
 30
0.0
 10
1568.908956692334
 20
933.1151839543656
 30
0.0
 10
1568.234707756353
 20
933.642572832694
 30
0.0
 10
1567.484551631925
 20
934.3236424290494
 30
0.0
 10
1566.611711722787
 20
935.2542136339797
 30
0.0
 10
1566.225135635613
 20
935.7418954893568
 30
0.0
 10
1565.963990411821
 20
936.0713410797257
 30
0.0
  0
ARC
  5
2AE
330
1F
100
AcDbEntity
  8
0
  6
Continuous
 62
     8
370
    18
100
AcDbCircle
 10
1631.1364841684
 20
974.1230047073
 30
0.0
 40
14.66438151327022
100
AcDbArc
 50
297.6001215934
 51
299.8288543736
  0
ARC
  5
2AF
330
1F
100
AcDbEntity
  8
0
  6
Continuous
 62
     8
370
    18
100
AcDbCircle
 10
1635.5232176476
 20
929.0985512443
 30
0.0
 40
12.53306185185205
100
AcDbArc
 50
68.8944075233
 51
71.3317007916
  0
ARC
  5
2B0
330
1F
100
AcDbEntity
  8
0
  6
Continuous
 62
     8
370
    18
100
AcDbCircle
 10
1571.767474559
 20
974.1230047073
 30
0.0
 40
14.66438151325541
100
AcDbArc
 50
240.1711456264
 51
242.3998784066
  0
ARC
  5
2B1
330
1F
100
AcDbEntity
  8
0
  6
Continuous
 62
     8
370
    18
100
AcDbCircle
 10
1567.3807410797
 20
929.0985512447
 30
0.0
 40
12.53306185151666
100
AcDbArc
 50
108.6682992084
 51
111.1055924767
  0
ARC
  5
2B2
330
1F
100
AcDbEntity
  8
0
  6
Continuous
 62
     8
370
    18
100
AcDbCircle
 10
1629.145483154
 20
977.1721596807
 30
0.0
 40
15.20644542033338
100
AcDbArc
 50
298.7915058483
 51
300.8920630849
  0
ARC
  5
2B3
330
1F
100
AcDbEntity
  8
0
  6
Continuous
 62
     8
370
    18
100
AcDbCircle
 10
1573.7584755739
 20
977.1721596816
 30
0.0
 40
15.20644542137146
100
AcDbArc
 50
239.1079369152
 51
241.2084941517
  0
ARC
  5
2B4
330
1F
100
AcDbEntity
  8
0
  6
Continuous
 62
     8
370
    18
100
AcDbCircle
 10
1635.9224219175
 20
930.7658838213
 30
0.0
 40
2.991738508936098
100
AcDbArc
 50
124.0281034349
 51
131.8959735504
  0
ARC
  5
2B5
330
1F
100
AcDbEntity
  8
0
  6
Continuous
 62
     8
370
    18
100
AcDbCircle
 10
1566.98153681
 20
930.7658838214
 30
0.0
 40
2.991738508809921
100
AcDbArc
 50
48.1040264495
 51
55.9718965653
  0
ARC
  5
2B6
330
1F
100
AcDbEntity
  8
0
  6
Continuous
 62
     8
370
    18
100
AcDbCircle
 10
1635.5330684181
 20
970.0045763764
 30
0.0
 40
2.999437512490777
100
AcDbArc
 50
212.0988262038
 51
235.7353315129
  0
ARC
  5
2B7
330
1F
100
AcDbEntity
  8
0
  6
Continuous
 62
     8
370
    18
100
AcDbCircle
 10
1567.3708708652
 20
970.0045917478
 30
0.0
 40
2.999462152344397
100
AcDbArc
 50
312.894034143
 51
327.9011224249
  0
ARC
  5
2B8
330
1F
100
AcDbEntity
  8
0
  6
Continuous
 62
     8
370
    18
100
AcDbCircle
 10
1635.0359446991
 20
945.1839575581
 30
0.0
 40
8.932560827388775
100
AcDbArc
 50
287.5397504291
 51
356.514198663
  0
SPLINE
  5
2B9
330
1F
100
AcDbEntity
  8
0
  6
Continuous
 62
     8
370
    18
100
AcDbSpline
210
0.0
220
0.0
230
1.0
 70
     8
 71
     3
 72
    11
 73
     7
 74
     0
 42
0.000000001
 43
0.00000001
 40
0.0
 40
0.0
 40
0.0
 40
0.0
 40
0.2352104509735894
 40
0.4712568957191361
 40
0.7971477029157545
 40
1.0
 40
1.0
 40
1.0
 40
1.0
 10
1632.951979363708
 20
931.3800856663198
 30
0.0
 10
1633.31467850937
 20
931.6608519273684
 30
0.0
 10
1634.041365919546
 20
932.2233823593992
 30
0.0
 10
1635.221885715107
 20
933.3420120920362
 30
0.0
 10
1636.320209668719
 20
934.5333570164453
 30
0.0
 10
1636.984524986695
 20
935.555099700742
 30
0.0
 10
1637.239389564878
 20
935.9470912914795
 30
0.0
  0
SPLINE
  5
2BA
330
1F
100
AcDbEntity
  8
0
  6
Continuous
 62
     8
370
    18
100
AcDbSpline
210
0.0
220
0.0
230
1.0
 70
     8
 71
     3
 72
    10
 73
     6
 74
     0
 42
0.000000001
 43
0.00000001
 40
0.0
 40
0.0
 40
0.0
 40
0.0
 40
0.4338511233656986
 40
0.8744573306293693
 40
1.0
 40
1.0
 40
1.0
 40
1.0
 10
1632.951979363708
 20
931.3800856663198
 30
0.0
 10
1631.917356940887
 20
930.9267250827702
 30
0.0
 10
1629.832002971878
 20
930.0129450684927
 30
0.0
 10
1627.332952287889
 20
929.4122432274213
 30
0.0
 10
1625.903991449644
 20
929.3296199379391
 30
0.0
 10
1625.587121514079
 20
929.3112983466725
 30
0.0
  0
LWPOLYLINE
  5
2BB
330
1F
100
AcDbEntity
  8
0
  6
Continuous
 62
     8
370
    18
100
AcDbPolyline
 90
        9
 70
   128
 43
0.0
 10
1643.9519793637
 20
941.1599622092
 10
1643.7406174481
 20
939.2520029452
 10
1643.1146542213
 20
937.4173654857
 10
1642.098145099
 20
935.7265539194
 10
1640.7301539568
 20
934.2445451866
 10
1639.0632519269
 20
933.0282920517
 10
1637.1614971197
 20
932.1245344407
 10
1635.0979729059
 20
931.5680032518
 10
1632.9519793637
 20
931.3800856663
  0
LINE
  5
2BC
330
1F
100
AcDbEntity
  8
0
  6
Continuous
 62
     8
370
    18
100
AcDbLine
 10
1632.9519793637
 20
929.1616793807
 30
0.0
 11
1632.9519793637
 21
931.3800856663
 31
0.0
  0
LINE
  5
2BD
330
1F
100
AcDbEntity
  8
0
  6
Continuous
 62
     8
370
    18
100
AcDbLine
 10
1636.4519793637
 20
997.6112793807
 30
0.0
 11
1551.9519793637
 21
997.6112793807
 31
0.0
  0
LINE
  5
2BE
330
1F
100
AcDbEntity
  8
0
  6
Continuous
 62
     8
370
    18
100
AcDbLine
 10
1551.9269793637
 20
1019.1112793807
 30
0.0
 11
1550.9269793637
 21
1019.1112793807
 31
0.0
  0
LINE
  5
2BF
330
1F
100
AcDbEntity
  8
0
  6
Continuous
 62
     8
370
    18
100
AcDbLine
 10
1551.9269793637
 20
987.6112793807
 30
0.0
 11
1550.9269793637
 21
987.6112793807
 31
0.0
  0
LINE
  5
2C0
330
1F
100
AcDbEntity
  8
0
  6
Continuous
 62
     8
370
    18
100
AcDbLine
 10
1656.9269793637
 20
985.6112793807
 30
0.0
 11
1656.9269793637
 21
986.6112793807
 31
0.0
  0
LINE
  5
2C1
330
1F
100
AcDbEntity
  8
0
  6
Continuous
 62
     8
370
    18
100
AcDbLine
 10
1552.9269793637
 20
986.6112793807
 30
0.0
 11
1552.9269793637
 21
985.6112793807
 31
0.0
  0
LINE
  5
2C2
330
1F
100
AcDbEntity
  8
0
  6
Continuous
 62
     7
370
    35
100
AcDbLine
 10
592.0546682673
 20
675.1611838457
 30
0.0
 11
1272.0546682673
 21
675.1611838457
 31
0.0
  0
LINE
  5
2C3
330
1F
100
AcDbEntity
  8
0
  6
Continuous
 62
     7
370
    35
100
AcDbLine
 10
592.0546682673
 20
676.1611838457
 30
0.0
 11
592.0546682673
 21
675.1611838457
 31
0.0
  0
LINE
  5
2C4
330
1F
100
AcDbEntity
  8
0
  6
Continuous
 62
     7
370
    35
100
AcDbLine
 10
1272.0546682673
 20
676.1611838457
 30
0.0
 11
1272.0546682673
 21
675.1611838457
 31
0.0
  0
LINE
  5
2C5
330
1F
100
AcDbEntity
  8
0
  6
Continuous
 62
     7
370
    35
100
AcDbLine
 10
592.0546682673
 20
676.1611838457
 30
0.0
 11
1272.0546682673
 21
676.1611838457
 31
0.0
  0
LINE
  5
2C6
330
1F
100
AcDbEntity
  8
0
  6
Continuous
 62
     7
370
    35
100
AcDbLine
 10
1272.0546682673
 20
674.1611838457
 30
0.0
 11
1272.0546682673
 21
675.1611838457
 31
0.0
  0
LINE
  5
2C7
330
1F
100
AcDbEntity
  8
0
  6
Continuous
 62
     7
370
    35
100
AcDbLine
 10
592.0546682673
 20
675.1611838457
 30
0.0
 11
592.0546682673
 21
674.1611838457
 31
0.0
  0
LINE
  5
2C8
330
1F
100
AcDbEntity
  8
0
  6
Continuous
 62
     7
370
    35
100
AcDbLine
 10
1272.0546682673
 20
659.6611838457
 30
0.0
 11
1272.0546682673
 21
674.1611838457
 31
0.0
  0
LINE
  5
2C9
330
1F
100
AcDbEntity
  8
0
  6
Continuous
 62
     7
370
    35
100
AcDbLine
 10
592.0546682673
 20
674.1611838457
 30
0.0
 11
592.0546682673
 21
659.6611838457
 31
0.0
  0
LINE
  5
2CA
330
1F
100
AcDbEntity
  8
0
  6
Continuous
 62
     7
370
    35
100
AcDbLine
 10
1272.0546682673
 20
659.6611838457
 30
0.0
 11
1272.0546682673
 21
657.9291330381
 31
0.0
  0
LINE
  5
2CB
330
1F
100
AcDbEntity
  8
0
  6
Continuous
 62
     7
370
    35
100
AcDbLine
 10
1272.0546682673
 20
657.6611838457
 30
0.0
 11
592.0546682673
 21
657.6611838457
 31
0.0
  0
LINE
  5
2CC
330
1F
100
AcDbEntity
  8
0
  6
Continuous
 62
     7
370
    35
100
AcDbLine
 10
592.0546682673
 20
657.9291330381
 30
0.0
 11
592.0546682673
 21
659.6611838457
 31
0.0
  0
LINE
  5
2CD
330
1F
100
AcDbEntity
  8
0
  6
Continuous
 62
     7
370
    35
100
AcDbLine
 10
1272.0546682673
 20
593.575397408
 30
0.0
 11
1272.0546682673
 21
590.7469702833
 31
0.0
  0
LINE
  5
2CE
330
1F
100
AcDbEntity
  8
0
  6
Continuous
 62
     7
370
    35
100
AcDbLine
 10
592.0546682673
 20
590.6611838457
 30
0.0
 11
1272.0546682673
 21
590.6611838457
 31
0.0
  0
LINE
  5
2CF
330
1F
100
AcDbEntity
  8
0
  6
Continuous
 62
     7
370
    35
100
AcDbLine
 10
592.0546682673
 20
593.6611838457
 30
0.0
 11
1272.0546682673
 21
593.6611838457
 31
0.0
  0
LINE
  5
2D0
330
1F
100
AcDbEntity
  8
0
  6
Continuous
 62
     7
370
    35
100
AcDbLine
 10
592.0546682673
 20
590.7469702833
 30
0.0
 11
592.0546682673
 21
593.575397408
 31
0.0
  0
LINE
  5
2D1
330
1F
100
AcDbEntity
  8
0
  6
Continuous
 62
     7
370
    35
100
AcDbLine
 10
592.0546682673
 20
590.6611838457
 30
0.0
 11
592.0546682673
 21
589.6611838457
 31
0.0
  0
LINE
  5
2D2
330
1F
100
AcDbEntity
  8
0
  6
Continuous
 62
     7
370
    35
100
AcDbLine
 10
1272.0546682673
 20
589.6611838457
 30
0.0
 11
1272.0546682673
 21
590.6611838457
 31
0.0
  0
LINE
  5
2D3
330
1F
100
AcDbEntity
  8
0
  6
Continuous
 62
     7
370
    35
100
AcDbLine
 10
1272.0546682673
 20
560.1611838457
 30
0.0
 11
592.0546682673
 21
560.1611838457
 31
0.0
  0
LINE
  5
2D4
330
1F
100
AcDbEntity
  8
0
  6
Continuous
 62
     7
370
    35
100
AcDbLine
 10
592.0546682673
 20
560.1611838457
 30
0.0
 11
592.0546682673
 21
589.6611838457
 31
0.0
  0
LINE
  5
2D5
330
1F
100
AcDbEntity
  8
0
  6
Continuous
 62
     7
370
    35
100
AcDbLine
 10
1272.0546682673
 20
589.6611838457
 30
0.0
 11
1272.0546682673
 21
560.1611838457
 31
0.0
  0
LINE
  5
2D6
330
1F
100
AcDbEntity
  8
0
  6
Continuous
 62
     7
370
    35
100
AcDbLine
 10
879.0546682673
 20
654.9161635436
 30
0.0
 11
985.0546682673
 21
654.9161635436
 31
0.0
  0
SPLINE
  5
2D7
330
1F
100
AcDbEntity
  8
0
  6
Continuous
 62
     7
370
    35
100
AcDbSpline
210
0.0
220
0.0
230
1.0
 70
     8
 71
     3
 72
     8
 73
     4
 74
     0
 42
0.000000001
 43
0.00000001
 40
0.0
 40
0.0
 40
0.0
 40
0.0
 40
1.0
 40
1.0
 40
1.0
 40
1.0
 10
872.2874052954057
 20
654.7178992738711
 30
0.0
 10
874.5407322865151
 20
654.8483870546721
 30
0.0
 10
876.797549735013
 20
654.9161635436224
 30
0.0
 10
879.0546682672936
 20
654.9161635436224
 30
0.0
  0
SPLINE
  5
2D8
330
1F
100
AcDbEntity
  8
0
  6
Continuous
 62
     7
370
    35
100
AcDbSpline
210
0.0
220
0.0
230
1.0
 70
     8
 71
     3
 72
     8
 73
     4
 74
     0
 42
0.000000001
 43
0.00000001
 40
0.0
 40
0.0
 40
0.0
 40
0.0
 40
1.0
 40
1.0
 40
1.0
 40
1.0
 10
985.0546682672936
 20
654.9161635436224
 30
0.0
 10
987.311781937039
 20
654.9161635436224
 30
0.0
 10
989.5686039418111
 20
654.8483870724316
 30
0.0
 10
991.8219312391813
 20
654.7178992738712
 30
0.0
  0
SPLINE
  5
2D9
330
1F
100
AcDbEntity
  8
0
  6
Continuous
 62
     7
370
    35
100
AcDbSpline
210
0.0
220
0.0
230
1.0
 70
     8
 71
     3
 72
     8
 73
     4
 74
     0
 42
0.000000001
 43
0.00000001
 40
0.0
 40
0.0
 40
0.0
 40
0.0
 40
1.0
 40
1.0
 40
1.0
 40
1.0
 10
879.0546682672936
 20
596.406204147708
 30
0.0
 10
876.797554597548
 20
596.406204147708
 30
0.0
 10
874.5407325927758
 20
596.4739806188988
 30
0.0
 10
872.2874052954056
 20
596.604468417459
 30
0.0
  0
LINE
  5
2DA
330
1F
100
AcDbEntity
  8
0
  6
Continuous
 62
     7
370
    35
100
AcDbLine
 10
985.0546682673
 20
596.4062041477
 30
0.0
 11
879.0546682673
 21
596.4062041477
 31
0.0
  0
SPLINE
  5
2DB
330
1F
100
AcDbEntity
  8
0
  6
Continuous
 62
     7
370
    35
100
AcDbSpline
210
0.0
220
0.0
230
1.0
 70
     8
 71
     3
 72
     8
 73
     4
 74
     0
 42
0.000000001
 43
0.00000001
 40
0.0
 40
0.0
 40
0.0
 40
0.0
 40
1.0
 40
1.0
 40
1.0
 40
1.0
 10
991.8219312391814
 20
596.6044684174592
 30
0.0
 10
989.568604248072
 20
596.4739806366583
 30
0.0
 10
987.311786799574
 20
596.406204147708
 30
0.0
 10
985.0546682672936
 20
596.406204147708
 30
0.0
  0
SPLINE
  5
2DC
330
1F
100
AcDbEntity
  8
0
  6
Continuous
 62
     7
370
    35
100
AcDbSpline
210
0.0
220
0.0
230
1.0
 70
     8
 71
     3
 72
    10
 73
     6
 74
     0
 42
0.000000001
 43
0.00000001
 40
0.0
 40
0.0
 40
0.0
 40
0.0
 40
0.5
 40
0.5
 40
1.0
 40
1.0
 40
1.0
 40
1.0
 10
985.0546682672936
 20
654.9111838456652
 30
0.0
 10
986.1976284152508
 20
654.9111838456652
 30
0.0
 10
987.3328218929943
 20
654.8949098268369
 30
0.0
 10
989.5883482253652
 20
654.8304754348276
 30
0.0
 10
990.708684171421
 20
654.7823178575217
 30
0.0
 10
991.8219312391814
 20
654.7178766332287
 30
0.0
  0
SPLINE
  5
2DD
330
1F
100
AcDbEntity
  8
0
  6
Continuous
 62
     7
370
    35
100
AcDbSpline
210
0.0
220
0.0
230
1.0
 70
     8
 71
     3
 72
    10
 73
     6
 74
     0
 42
0.000000001
 43
0.00000001
 40
0.0
 40
0.0
 40
0.0
 40
0.0
 40
0.5
 40
0.5
 40
1.0
 40
1.0
 40
1.0
 40
1.0
 10
872.2874052954056
 20
654.7178766332287
 30
0.0
 10
873.400652363166
 20
654.7823178575217
 30
0.0
 10
874.5209883092218
 20
654.8304754348278
 30
0.0
 10
876.7765146415927
 20
654.8949098268369
 30
0.0
 10
877.9117081193361
 20
654.9111838456652
 30
0.0
 10
879.0546682672936
 20
654.9111838456652
 30
0.0
  0
SPLINE
  5
2DE
330
1F
100
AcDbEntity
  8
0
  6
Continuous
 62
     7
370
    35
100
AcDbSpline
210
0.0
220
0.0
230
1.0
 70
     8
 71
     3
 72
    10
 73
     6
 74
     0
 42
0.000000001
 43
0.00000001
 40
0.0
 40
0.0
 40
0.0
 40
0.0
 40
0.5
 40
0.5
 40
1.0
 40
1.0
 40
1.0
 40
1.0
 10
985.0546682672936
 20
652.6611838456652
 30
0.0
 10
986.0834080003823
 20
652.6611838456652
 30
0.0
 10
987.1050874766781
 20
652.6025903086562
 30
0.0
 10
989.1350130593249
 20
652.3706276346409
 30
0.0
 10
990.1432625760908
 20
652.1972709203532
 30
0.0
 10
991.1452049419925
 20
651.9652778808937
 30
0.0
  0
SPLINE
  5
2DF
330
1F
100
AcDbEntity
  8
0
  6
Continuous
 62
     7
370
    35
100
AcDbSpline
210
0.0
220
0.0
230
1.0
 70
     8
 71
     3
 72
    10
 73
     6
 74
     0
 42
0.000000001
 43
0.00000001
 40
0.0
 40
0.0
 40
0.0
 40
0.0
 40
0.5
 40
0.5
 40
1.0
 40
1.0
 40
1.0
 40
1.0
 10
872.9641315925945
 20
651.9652778808937
 30
0.0
 10
873.9660739584962
 20
652.1972709203532
 30
0.0
 10
874.9743234752622
 20
652.3706276346409
 30
0.0
 10
877.0042490579089
 20
652.6025903086562
 30
0.0
 10
878.0259285342047
 20
652.6611838456652
 30
0.0
 10
879.0546682672936
 20
652.6611838456652
 30
0.0
  0
SPLINE
  5
2E0
330
1F
100
AcDbEntity
  8
0
  6
Continuous
 62
     7
370
    35
100
AcDbSpline
210
0.0
220
0.0
230
1.0
 70
     8
 71
     3
 72
    10
 73
     6
 74
     0
 42
0.000000001
 43
0.00000001
 40
0.0
 40
0.0
 40
0.0
 40
0.0
 40
0.5
 40
0.5
 40
1.0
 40
1.0
 40
1.0
 40
1.0
 10
879.0546682672936
 20
596.4111838456652
 30
0.0
 10
877.9117081193361
 20
596.4111838456652
 30
0.0
 10
876.7765146415927
 20
596.4274578644936
 30
0.0
 10
874.5209883092217
 20
596.4918922565026
 30
0.0
 10
873.4006523631658
 20
596.5400498338087
 30
0.0
 10
872.2874052954055
 20
596.6044910581018
 30
0.0
  0
SPLINE
  5
2E1
330
1F
100
AcDbEntity
  8
0
  6
Continuous
 62
     7
370
    35
100
AcDbSpline
210
0.0
220
0.0
230
1.0
 70
     8
 71
     3
 72
    10
 73
     6
 74
     0
 42
0.000000001
 43
0.00000001
 40
0.0
 40
0.0
 40
0.0
 40
0.0
 40
0.5
 40
0.5
 40
1.0
 40
1.0
 40
1.0
 40
1.0
 10
879.0546682672936
 20
598.6611838456652
 30
0.0
 10
878.0259285342047
 20
598.6611838456652
 30
0.0
 10
877.0042490579089
 20
598.7197773826742
 30
0.0
 10
874.974323475262
 20
598.9517400566896
 30
0.0
 10
873.966073958496
 20
599.1250967709772
 30
0.0
 10
872.9641315925944
 20
599.3570898104366
 30
0.0
  0
SPLINE
  5
2E2
330
1F
100
AcDbEntity
  8
0
  6
Continuous
 62
     7
370
    35
100
AcDbSpline
210
0.0
220
0.0
230
1.0
 70
     8
 71
     3
 72
    10
 73
     6
 74
     0
 42
0.000000001
 43
0.00000001
 40
0.0
 40
0.0
 40
0.0
 40
0.0
 40
0.5
 40
0.5
 40
1.0
 40
1.0
 40
1.0
 40
1.0
 10
991.8219312391816
 20
596.6044910581018
 30
0.0
 10
990.7086841714212
 20
596.5400498338087
 30
0.0
 10
989.5883482253654
 20
596.4918922565026
 30
0.0
 10
987.3328218929943
 20
596.4274578644936
 30
0.0
 10
986.1976284152508
 20
596.4111838456652
 30
0.0
 10
985.0546682672936
 20
596.4111838456652
 30
0.0
  0
SPLINE
  5
2E3
330
1F
100
AcDbEntity
  8
0
  6
Continuous
 62
     7
370
    35
100
AcDbSpline
210
0.0
220
0.0
230
1.0
 70
     8
 71
     3
 72
    10
 73
     6
 74
     0
 42
0.000000001
 43
0.00000001
 40
0.0
 40
0.0
 40
0.0
 40
0.0
 40
0.5
 40
0.5
 40
1.0
 40
1.0
 40
1.0
 40
1.0
 10
991.1452049419926
 20
599.3570898104366
 30
0.0
 10
990.1432625760908
 20
599.1250967709772
 30
0.0
 10
989.135013059325
 20
598.9517400566896
 30
0.0
 10
987.1050874766781
 20
598.7197773826742
 30
0.0
 10
986.0834080003823
 20
598.6611838456652
 30
0.0
 10
985.0546682672936
 20
598.6611838456652
 30
0.0
  0
LINE
  5
2E4
330
1F
100
AcDbEntity
  8
0
  6
Continuous
 62
     7
370
    35
100
AcDbLine
 10
985.0546682673
 20
654.9111838457
 30
0.0
 11
879.0546682673
 21
654.9111838457
 31
0.0
  0
LINE
  5
2E5
330
1F
100
AcDbEntity
  8
0
  6
Continuous
 62
     7
370
    35
100
AcDbLine
 10
879.0546682673
 20
652.6611838457
 30
0.0
 11
985.0546682673
 21
652.6611838457
 31
0.0
  0
LINE
  5
2E6
330
1F
100
AcDbEntity
  8
0
  6
Continuous
 62
     7
370
    35
100
AcDbLine
 10
879.0546682673
 20
596.4111838457
 30
0.0
 11
985.0546682673
 21
596.4111838457
 31
0.0
  0
LINE
  5
2E7
330
1F
100
AcDbEntity
  8
0
  6
Continuous
 62
     7
370
    35
100
AcDbLine
 10
985.0546682673
 20
598.6611838457
 30
0.0
 11
879.0546682673
 21
598.6611838457
 31
0.0
  0
ARC
  5
2E8
330
1F
100
AcDbEntity
  8
0
  6
Continuous
 62
     7
370
    35
100
AcDbCircle
 10
985.0546682673
 20
625.6611838457
 30
0.0
 40
27.0000000000001
100
AcDbArc
 50
0.4331051188
 51
76.9632820449
  0
ARC
  5
2E9
330
1F
100
AcDbEntity
  8
0
  6
Continuous
 62
     7
370
    35
100
AcDbCircle
 10
879.0546682673
 20
625.6611838457
 30
0.0
 40
27.0000000000001
100
AcDbArc
 50
103.0367179551
 51
179.5668948812
  0
ARC
  5
2EA
330
1F
100
AcDbEntity
  8
0
  6
Continuous
 62
     7
370
    35
100
AcDbCircle
 10
879.0546682673
 20
625.6611838457
 30
0.0
 40
27.0000000000001
100
AcDbArc
 50
180.4331051188
 51
256.9632820449
  0
ARC
  5
2EB
330
1F
100
AcDbEntity
  8
0
  6
Continuous
 62
     7
370
    35
100
AcDbCircle
 10
985.0546682673
 20
625.6611838457
 30
0.0
 40
27.0000000000001
100
AcDbArc
 50
283.0367179551
 51
359.5668948812
  0
LINE
  5
2EC
330
1F
100
AcDbEntity
  8
0
  6
Continuous
 62
     7
370
    35
100
AcDbLine
 10
975.0546682673
 20
630.5943583483
 30
0.0
 11
975.4742693518
 21
633.4607073535
 31
0.0
  0
SPLINE
  5
2ED
330
1F
100
AcDbEntity
  8
0
  6
Continuous
 62
     7
370
    35
100
AcDbSpline
210
0.0
220
0.0
230
1.0
 70
     8
 71
     3
 72
    11
 73
     7
 74
     0
 42
0.000000001
 43
0.00000001
 40
0.0
 40
0.0
 40
0.0
 40
0.0
 40
0.2606216717114493
 40
0.4632004480831417
 40
0.6713667795621364
 40
1.0
 40
1.0
 40
1.0
 40
1.0
 10
975.4742693517958
 20
633.4607073535467
 30
0.0
 10
975.8411507224572
 20
634.4624255333571
 30
0.0
 10
976.4932055349666
 20
636.2427698412354
 30
0.0
 10
978.0305703967894
 20
638.4977694632981
 30
0.0
 10
980.0453361812802
 20
640.7124036436443
 30
0.0
 10
981.8906642671094
 20
641.8328657416143
 30
0.0
 10
983.0203897101449
 20
642.5188221033877
 30
0.0
  0
SPLINE
  5
2EE
330
1F
100
AcDbEntity
  8
0
  6
Continuous
 62
     7
370
    35
100
AcDbSpline
210
0.0
220
0.0
230
1.0
 70
     8
 71
     3
 72
    16
 73
    12
 74
     0
 42
0.000000001
 43
0.00000001
 40
0.0
 40
0.0
 40
0.0
 40
0.0
 40
0.6093642604474573
 40
0.723375050386525
 40
0.8172213162014311
 40
0.8496365726793006
 40
0.8823612341653069
 40
0.9067814804498371
 40
0.9311421346350482
 40
0.9706402276062257
 40
1.0
 40
1.0
 40
1.0
 40
1.0
 10
983.0203897101449
 20
642.5188221033877
 30
0.0
 10
983.597223979734
 20
642.8164771793372
 30
0.0
 10
984.2819827454059
 20
643.1698229029683
 30
0.0
 10
984.9492257165977
 20
643.6955612266258
 30
0.0
 10
985.1194791145815
 20
643.8807142366833
 30
0.0
 10
985.1877525752612
 20
644.0293705368566
 30
0.0
 10
985.199391716257
 20
644.1229712022388
 30
0.0
 10
985.1748662680454
 20
644.2069338872477
 30
0.0
 10
985.1186035604037
 20
644.2850728744208
 30
0.0
 10
985.0355313977393
 20
644.3472700702582
 30
0.0
 10
984.9671105292928
 20
644.3791599994881
 30
0.0
 10
984.9379370846334
 20
644.3927572996497
 30
0.0
  0
SPLINE
  5
2EF
330
1F
100
AcDbEntity
  8
0
  6
Continuous
 62
     7
370
    35
100
AcDbSpline
210
0.0
220
0.0
230
1.0
 70
     8
 71
     3
 72
    13
 73
     9
 74
     0
 42
0.000000001
 43
0.00000001
 40
0.0
 40
0.0
 40
0.0
 40
0.0
 40
0.1585077763891391
 40
0.3168380823631816
 40
0.4791716695216214
 40
0.6493085002786916
 40
0.8235953482371676
 40
1.0
 40
1.0
 40
1.0
 40
1.0
 10
997.5822805044522
 20
629.9823365061446
 30
0.0
 10
997.2897053506932
 20
630.9926619579495
 30
0.0
 10
996.704882619747
 20
633.012181668621
 30
0.0
 10
995.2088560680608
 20
635.832784420181
 30
0.0
 10
993.2821773983557
 20
638.4628352281657
 30
0.0
 10
990.8831030005767
 20
640.825767824414
 30
0.0
 10
988.0907767278426
 20
642.8816601694909
 30
0.0
 10
985.9931061989561
 20
643.8870344589974
 30
0.0
 10
984.9379370846334
 20
644.3927572996497
 30
0.0
  0
SPLINE
  5
2F0
330
1F
100
AcDbEntity
  8
0
  6
Continuous
 62
     7
370
    35
100
AcDbSpline
210
0.0
220
0.0
230
1.0
 70
     8
 71
     3
 72
     9
 73
     5
 74
     0
 42
0.000000001
 43
0.00000001
 40
0.0
 40
0.0
 40
0.0
 40
0.0
 40
0.4781757401206178
 40
0.9999999999999999
 40
0.9999999999999999
 40
0.9999999999999999
 40
0.9999999999999999
 10
997.5822805044522
 20
629.9823365061446
 30
0.0
 10
997.8290068961177
 20
628.6060904362747
 30
0.0
 10
998.3449811937752
 20
625.7279727184607
 30
0.0
 10
997.8438059204993
 20
622.8446295828855
 30
0.0
 10
997.5822805044522
 20
621.3400311851857
 30
0.0
  0
SPLINE
  5
2F1
330
1F
100
AcDbEntity
  8
0
  6
Continuous
 62
     7
370
    35
100
AcDbSpline
210
0.0
220
0.0
230
1.0
 70
     8
 71
     3
 72
    13
 73
     9
 74
     0
 42
0.000000001
 43
0.00000001
 40
0.0
 40
0.0
 40
0.0
 40
0.0
 40
0.1585077763891392
 40
0.3168380823631819
 40
0.4791716695216211
 40
0.6493085002786912
 40
0.8235953482371675
 40
1.0
 40
1.0
 40
1.0
 40
1.0
 10
997.5822805044522
 20
621.3400311851857
 30
0.0
 10
997.2897053506932
 20
620.3297057333808
 30
0.0
 10
996.7048826197471
 20
618.3101860227093
 30
0.0
 10
995.2088560680608
 20
615.4895832711493
 30
0.0
 10
993.2821773983557
 20
612.8595324631647
 30
0.0
 10
990.8831030005767
 20
610.4965998669163
 30
0.0
 10
988.0907767278426
 20
608.4407075218395
 30
0.0
 10
985.9931061989561
 20
607.4353332323329
 30
0.0
 10
984.9379370846334
 20
606.9296103916806
 30
0.0
  0
SPLINE
  5
2F2
330
1F
100
AcDbEntity
  8
0
  6
Continuous
 62
     7
370
    35
100
AcDbSpline
210
0.0
220
0.0
230
1.0
 70
     8
 71
     3
 72
    16
 73
    12
 74
     0
 42
0.000000001
 43
0.00000001
 40
0.0
 40
0.0
 40
0.0
 40
0.0
 40
0.6093642604474552
 40
0.7233750503865203
 40
0.8172213162014316
 40
0.849636572679301
 40
0.8823612341653072
 40
0.9067814804498373
 40
0.9311421346350485
 40
0.9706402276062258
 40
1.0
 40
1.0
 40
1.0
 40
1.0
 10
983.0203897101449
 20
608.8035455879426
 30
0.0
 10
983.597223979734
 20
608.5058905119931
 30
0.0
 10
984.2819827454059
 20
608.1525447883619
 30
0.0
 10
984.9492257165977
 20
607.6268064647045
 30
0.0
 10
985.1194791145813
 20
607.441653454647
 30
0.0
 10
985.1877525752612
 20
607.2929971544737
 30
0.0
 10
985.199391716257
 20
607.1993964890917
 30
0.0
 10
985.1748662680454
 20
607.1154338040826
 30
0.0
 10
985.1186035604037
 20
607.0372948169096
 30
0.0
 10
985.0355313977393
 20
606.9750976210722
 30
0.0
 10
984.9671105292928
 20
606.9432076918421
 30
0.0
 10
984.9379370846334
 20
606.9296103916806
 30
0.0
  0
SPLINE
  5
2F3
330
1F
100
AcDbEntity
  8
0
  6
Continuous
 62
     7
370
    35
100
AcDbSpline
210
0.0
220
0.0
230
1.0
 70
     8
 71
     3
 72
    11
 73
     7
 74
     0
 42
0.000000001
 43
0.00000001
 40
0.0
 40
0.0
 40
0.0
 40
0.0
 40
0.2606216717114551
 40
0.4632004480831455
 40
0.6713667795621385
 40
1.0
 40
1.0
 40
1.0
 40
1.0
 10
975.4742693517958
 20
617.8616603377836
 30
0.0
 10
975.8411507224572
 20
616.8599421579733
 30
0.0
 10
976.4932055349666
 20
615.0795978500951
 30
0.0
 10
978.0305703967894
 20
612.8245982280322
 30
0.0
 10
980.0453361812802
 20
610.609964047686
 30
0.0
 10
981.8906642671094
 20
609.489501949716
 30
0.0
 10
983.0203897101449
 20
608.8035455879426
 30
0.0
  0
LINE
  5
2F4
330
1F
100
AcDbEntity
  8
0
  6
Continuous
 62
     7
370
    35
100
AcDbLine
 10
975.0546682673
 20
620.728009343
 30
0.0
 11
975.4742693518
 21
617.8616603378
 31
0.0
  0
LINE
  5
2F5
330
1F
100
AcDbEntity
  8
0
  6
Continuous
 62
     7
370
    35
100
AcDbLine
 10
975.0546682673
 20
630.5943583483
 30
0.0
 11
975.0546682673
 21
620.728009343
 31
0.0
  0
LINE
  5
2F6
330
1F
100
AcDbEntity
  8
0
  6
Continuous
 62
     7
370
    35
100
AcDbLine
 10
889.0546682673
 20
620.728009343
 30
0.0
 11
888.6350671828
 21
617.8616603378
 31
0.0
  0
SPLINE
  5
2F7
330
1F
100
AcDbEntity
  8
0
  6
Continuous
 62
     7
370
    35
100
AcDbSpline
210
0.0
220
0.0
230
1.0
 70
     8
 71
     3
 72
    11
 73
     7
 74
     0
 42
0.000000001
 43
0.00000001
 40
0.0
 40
0.0
 40
0.0
 40
0.0
 40
0.2606216717114519
 40
0.4632004480831438
 40
0.6713667795621374
 40
1.0
 40
1.0
 40
1.0
 40
1.0
 10
888.6350671827921
 20
617.8616603377836
 30
0.0
 10
888.2681858121307
 20
616.8599421579733
 30
0.0
 10
887.6161309996213
 20
615.079597850095
 30
0.0
 10
886.0787661377985
 20
612.8245982280322
 30
0.0
 10
884.0640003533077
 20
610.609964047686
 30
0.0
 10
882.2186722674784
 20
609.489501949716
 30
0.0
 10
881.0889468244429
 20
608.8035455879426
 30
0.0
  0
SPLINE
  5
2F8
330
1F
100
AcDbEntity
  8
0
  6
Continuous
 62
     7
370
    35
100
AcDbSpline
210
0.0
220
0.0
230
1.0
 70
     8
 71
     3
 72
    16
 73
    12
 74
     0
 42
0.000000001
 43
0.00000001
 40
0.0
 40
0.0
 40
0.0
 40
0.0
 40
0.6093642604474533
 40
0.7233750503865207
 40
0.8172213162014319
 40
0.8496365726793013
 40
0.8823612341653073
 40
0.9067814804498374
 40
0.9311421346350486
 40
0.9706402276062259
 40
1.0
 40
1.0
 40
1.0
 40
1.0
 10
881.0889468244429
 20
608.8035455879426
 30
0.0
 10
880.5121125548538
 20
608.5058905119931
 30
0.0
 10
879.827353789182
 20
608.152544788362
 30
0.0
 10
879.1601108179902
 20
607.6268064647045
 30
0.0
 10
878.9898574200065
 20
607.441653454647
 30
0.0
 10
878.9215839593265
 20
607.2929971544738
 30
0.0
 10
878.9099448183309
 20
607.1993964890917
 30
0.0
 10
878.9344702665423
 20
607.1154338040827
 30
0.0
 10
878.9907329741842
 20
607.0372948169096
 30
0.0
 10
879.0738051368485
 20
606.9750976210722
 30
0.0
 10
879.1422260052951
 20
606.9432076918421
 30
0.0
 10
879.1713994499544
 20
606.9296103916806
 30
0.0
  0
SPLINE
  5
2F9
330
1F
100
AcDbEntity
  8
0
  6
Continuous
 62
     7
370
    35
100
AcDbSpline
210
0.0
220
0.0
230
1.0
 70
     8
 71
     3
 72
    13
 73
     9
 74
     0
 42
0.000000001
 43
0.00000001
 40
0.0
 40
0.0
 40
0.0
 40
0.0
 40
0.1585077763891352
 40
0.3168380823631736
 40
0.4791716695216344
 40
0.6493085002787004
 40
0.8235953482371718
 40
1.0
 40
1.0
 40
1.0
 40
1.0
 10
866.5270560301349
 20
621.3400311851857
 30
0.0
 10
866.8196311838939
 20
620.3297057333808
 30
0.0
 10
867.4044539148401
 20
618.3101860227093
 30
0.0
 10
868.9004804665261
 20
615.489583271149
 30
0.0
 10
870.8271591362322
 20
612.8595324631649
 30
0.0
 10
873.2262335340112
 20
610.4965998669162
 30
0.0
 10
876.0185598067453
 20
608.4407075218395
 30
0.0
 10
878.1162303356318
 20
607.435333232333
 30
0.0
 10
879.1713994499544
 20
606.9296103916806
 30
0.0
  0
SPLINE
  5
2FA
330
1F
100
AcDbEntity
  8
0
  6
Continuous
 62
     7
370
    35
100
AcDbSpline
210
0.0
220
0.0
230
1.0
 70
     8
 71
     3
 72
     9
 73
     5
 74
     0
 42
0.000000001
 43
0.00000001
 40
0.0
 40
0.0
 40
0.0
 40
0.0
 40
0.4781757401206179
 40
0.9999999999999999
 40
0.9999999999999999
 40
0.9999999999999999
 40
0.9999999999999999
 10
866.5270560301349
 20
629.9823365061446
 30
0.0
 10
866.2803296384693
 20
628.6060904362747
 30
0.0
 10
865.7643553408119
 20
625.7279727184607
 30
0.0
 10
866.2655306140878
 20
622.8446295828855
 30
0.0
 10
866.5270560301349
 20
621.3400311851857
 30
0.0
  0
SPLINE
  5
2FB
330
1F
100
AcDbEntity
  8
0
  6
Continuous
 62
     7
370
    35
100
AcDbSpline
210
0.0
220
0.0
230
1.0
 70
     8
 71
     3
 72
    13
 73
     9
 74
     0
 42
0.000000001
 43
0.00000001
 40
0.0
 40
0.0
 40
0.0
 40
0.0
 40
0.1585077763891351
 40
0.316838082363174
 40
0.4791716695216339
 40
0.6493085002786999
 40
0.823595348237172
 40
1.0
 40
1.0
 40
1.0
 40
1.0
 10
866.5270560301349
 20
629.9823365061446
 30
0.0
 10
866.8196311838939
 20
630.9926619579495
 30
0.0
 10
867.4044539148401
 20
633.012181668621
 30
0.0
 10
868.9004804665262
 20
635.8327844201814
 30
0.0
 10
870.8271591362322
 20
638.4628352281654
 30
0.0
 10
873.2262335340112
 20
640.825767824414
 30
0.0
 10
876.0185598067453
 20
642.8816601694907
 30
0.0
 10
878.1162303356318
 20
643.8870344589974
 30
0.0
 10
879.1713994499545
 20
644.3927572996497
 30
0.0
  0
SPLINE
  5
2FC
330
1F
100
AcDbEntity
  8
0
  6
Continuous
 62
     7
370
    35
100
AcDbSpline
210
0.0
220
0.0
230
1.0
 70
     8
 71
     3
 72
    16
 73
    12
 74
     0
 42
0.000000001
 43
0.00000001
 40
0.0
 40
0.0
 40
0.0
 40
0.0
 40
0.6093642604474555
 40
0.7233750503865256
 40
0.8172213162014316
 40
0.8496365726793009
 40
0.8823612341653071
 40
0.9067814804498373
 40
0.9311421346350485
 40
0.9706402276062258
 40
1.0
 40
1.0
 40
1.0
 40
1.0
 10
881.0889468244429
 20
642.5188221033877
 30
0.0
 10
880.5121125548538
 20
642.8164771793372
 30
0.0
 10
879.827353789182
 20
643.1698229029683
 30
0.0
 10
879.1601108179902
 20
643.6955612266258
 30
0.0
 10
878.9898574200064
 20
643.8807142366833
 30
0.0
 10
878.9215839593265
 20
644.0293705368566
 30
0.0
 10
878.9099448183307
 20
644.1229712022388
 30
0.0
 10
878.9344702665425
 20
644.2069338872477
 30
0.0
 10
878.9907329741842
 20
644.2850728744208
 30
0.0
 10
879.0738051368485
 20
644.3472700702582
 30
0.0
 10
879.1422260052951
 20
644.3791599994881
 30
0.0
 10
879.1713994499545
 20
644.3927572996497
 30
0.0
  0
SPLINE
  5
2FD
330
1F
100
AcDbEntity
  8
0
  6
Continuous
 62
     7
370
    35
100
AcDbSpline
210
0.0
220
0.0
230
1.0
 70
     8
 71
     3
 72
    11
 73
     7
 74
     0
 42
0.000000001
 43
0.00000001
 40
0.0
 40
0.0
 40
0.0
 40
0.0
 40
0.2606216717114516
 40
0.4632004480831435
 40
0.6713667795621371
 40
0.9999999999999999
 40
0.9999999999999999
 40
0.9999999999999999
 40
0.9999999999999999
 10
888.6350671827921
 20
633.4607073535467
 30
0.0
 10
888.2681858121307
 20
634.4624255333571
 30
0.0
 10
887.6161309996213
 20
636.2427698412354
 30
0.0
 10
886.0787661377985
 20
638.4977694632981
 30
0.0
 10
884.0640003533077
 20
640.7124036436443
 30
0.0
 10
882.2186722674784
 20
641.8328657416143
 30
0.0
 10
881.0889468244429
 20
642.5188221033877
 30
0.0
  0
LINE
  5
2FE
330
1F
100
AcDbEntity
  8
0
  6
Continuous
 62
     7
370
    35
100
AcDbLine
 10
889.0546682673
 20
630.5943583483
 30
0.0
 11
888.6350671828
 21
633.4607073535
 31
0.0
  0
LINE
  5
2FF
330
1F
100
AcDbEntity
  8
0
  6
Continuous
 62
     7
370
    35
100
AcDbLine
 10
889.0546682673
 20
630.5943583483
 30
0.0
 11
889.0546682673
 21
620.728009343
 31
0.0
  0
SPLINE
  5
300
330
1F
100
AcDbEntity
  8
0
  6
Continuous
 62
     7
370
    35
100
AcDbSpline
210
0.0
220
0.0
230
1.0
 70
     8
 71
     3
 72
    17
 73
    13
 74
     0
 42
0.000000001
 43
0.00000001
 40
0.0
 40
0.0
 40
0.0
 40
0.0
 40
0.0352140993686977
 40
0.1768685086523017
 40
0.2823152604671501
 40
0.3877837521866218
 40
0.4930422793344948
 40
0.5965412136257938
 40
0.7000040808468552
 40
0.8049238598612705
 40
0.9098460499592929
 40
1.0
 40
1.0
 40
1.0
 40
1.0
 10
985.060572738263
 20
647.3984562413431
 30
0.0
 10
985.4607427029916
 20
647.3910223620013
 30
0.0
 10
987.4706610634747
 20
647.3536845008539
 30
0.0
 10
990.665742133105
 20
646.7982455007764
 30
0.0
 10
994.4294087717396
 20
645.3797506405106
 30
0.0
 10
997.5483879848646
 20
643.5614368988679
 30
0.0
 10
1000.31829201182
 20
641.2813196208622
 30
0.0
 10
1002.649573605116
 20
638.5849814076563
 30
0.0
 10
1004.519378735338
 20
635.5542975402268
 30
0.0
 10
1005.867874520307
 20
632.2448629714459
 30
0.0
 10
1006.663373966231
 20
628.9058616718848
 30
0.0
 10
1006.752111400671
 20
626.686743675132
 30
0.0
 10
1006.793121183956
 20
625.6611838456652
 30
0.0
  0
SPLINE
  5
301
330
1F
100
AcDbEntity
  8
0
  6
Continuous
 62
     7
370
    35
100
AcDbSpline
210
0.0
220
0.0
230
1.0
 70
     8
 71
     3
 72
    17
 73
    13
 74
     0
 42
0.000000001
 43
0.00000001
 40
0.0
 40
0.0
 40
0.0
 40
0.0
 40
0.0352140993686969
 40
0.1768685086522978
 40
0.2823152604671553
 40
0.3877837521866356
 40
0.4930422793345062
 40
0.5965412136258028
 40
0.7000040808468619
 40
0.8049238598612748
 40
0.9098460499592949
 40
1.0
 40
1.0
 40
1.0
 40
1.0
 10
879.0487637963248
 20
647.3984562413431
 30
0.0
 10
878.648593831596
 20
647.3910223620013
 30
0.0
 10
876.6386754711132
 20
647.3536845008539
 30
0.0
 10
873.4435944014828
 20
646.7982455007761
 30
0.0
 10
869.6799277628478
 20
645.3797506405106
 30
0.0
 10
866.5609485497226
 20
643.561436898868
 30
0.0
 10
863.7910445227668
 20
641.2813196208622
 30
0.0
 10
861.4597629294711
 20
638.5849814076563
 30
0.0
 10
859.589957799249
 20
635.5542975402268
 30
0.0
 10
858.2414620142799
 20
632.2448629714459
 30
0.0
 10
857.4459625683563
 20
628.9058616718848
 30
0.0
 10
857.3572251339162
 20
626.686743675132
 30
0.0
 10
857.3162153506308
 20
625.6611838456652
 30
0.0
  0
SPLINE
  5
302
330
1F
100
AcDbEntity
  8
0
  6
Continuous
 62
     7
370
    35
100
AcDbSpline
210
0.0
220
0.0
230
1.0
 70
     8
 71
     3
 72
    17
 73
    13
 74
     0
 42
0.000000001
 43
0.00000001
 40
0.0
 40
0.0
 40
0.0
 40
0.0
 40
0.035212730180031
 40
0.1768616316808078
 40
0.2808325704307759
 40
0.3877934996385845
 40
0.493047934142175
 40
0.5965428442053838
 40
0.7000016886007089
 40
0.8034759650084172
 40
0.9098495553099583
 40
1.0
 40
1.0
 40
1.0
 40
1.0
 10
985.060572738263
 20
603.9239114499874
 30
0.0
 10
985.4607540803448
 20
603.9313154571863
 30
0.0
 10
987.4707295854232
 20
603.9685032806664
 30
0.0
 10
990.6478775082238
 20
604.5243982101669
 30
0.0
 10
994.4175087749427
 20
605.9272531890231
 30
0.0
 10
997.5341808496898
 20
607.7521244961015
 30
0.0
 10
1000.318472353999
 20
610.0405469592038
 30
0.0
 10
1002.649835553583
 20
612.7373906672365
 30
0.0
 10
1004.509508623673
 20
615.7545430484352
 30
0.0
 10
1005.867664629784
 20
619.0598644220044
 30
0.0
 10
1006.661584775351
 20
622.4002559546259
 30
0.0
 10
1006.75175696576
 20
624.6357207496623
 30
0.0
 10
1006.793121183956
 20
625.6611838456652
 30
0.0
  0
SPLINE
  5
303
330
1F
100
AcDbEntity
  8
0
  6
Continuous
 62
     7
370
    35
100
AcDbSpline
210
0.0
220
0.0
230
1.0
 70
     8
 71
     3
 72
    17
 73
    13
 74
     0
 42
0.000000001
 43
0.00000001
 40
0.0
 40
0.0
 40
0.0
 40
0.0
 40
0.0352127301800303
 40
0.1768616316808041
 40
0.2808325704307699
 40
0.3877934996385973
 40
0.4930479341421858
 40
0.5965428442053925
 40
0.7000016886007153
 40
0.8034759650084211
 40
0.9098495553099601
 40
1.0
 40
1.0
 40
1.0
 40
1.0
 10
879.0487637963248
 20
603.9239114499874
 30
0.0
 10
878.6485824542431
 20
603.9313154571863
 30
0.0
 10
876.6386069491647
 20
603.9685032806664
 30
0.0
 10
873.461459026364
 20
604.5243982101669
 30
0.0
 10
869.6918277596451
 20
605.9272531890233
 30
0.0
 10
866.5751556848974
 20
607.7521244961013
 30
0.0
 10
863.7908641805877
 20
610.0405469592038
 30
0.0
 10
861.4595009810038
 20
612.7373906672365
 30
0.0
 10
859.5998279109143
 20
615.7545430484352
 30
0.0
 10
858.2416719048032
 20
619.0598644220044
 30
0.0
 10
857.4477517592362
 20
622.4002559546259
 30
0.0
 10
857.3575795688265
 20
624.6357207496623
 30
0.0
 10
857.3162153506308
 20
625.6611838456652
 30
0.0
  0
LINE
  5
304
330
1F
100
AcDbEntity
  8
0
  6
Continuous
 62
     7
370
    35
100
AcDbLine
 10
932.0546682673
 20
647.4024563132
 30
0.0
 11
985.0605727383
 21
647.3984562413
 31
0.0
  0
LINE
  5
305
330
1F
100
AcDbEntity
  8
0
  6
Continuous
 62
     7
370
    35
100
AcDbLine
 10
932.0546682673
 20
647.4024563132
 30
0.0
 11
879.0487637963
 21
647.3984562413
 31
0.0
  0
LINE
  5
306
330
1F
100
AcDbEntity
  8
0
  6
Continuous
 62
     7
370
    35
100
AcDbLine
 10
932.0546682673
 20
603.9199113782
 30
0.0
 11
985.0605727383
 21
603.92391145
 31
0.0
  0
LINE
  5
307
330
1F
100
AcDbEntity
  8
0
  6
Continuous
 62
     7
370
    35
100
AcDbLine
 10
932.0546682673
 20
603.9199113782
 30
0.0
 11
879.0487637963
 21
603.92391145
 31
0.0
  0
LINE
  5
308
330
1F
100
AcDbEntity
  8
0
  6
Continuous
 62
     7
370
    35
100
AcDbLine
 10
975.2108394575
 20
619.6611838457
 30
0.0
 11
888.8984970771
 21
619.6611838457
 31
0.0
  0
LINE
  5
309
330
1F
100
AcDbEntity
  8
0
  6
Continuous
 62
     7
370
    35
100
AcDbLine
 10
975.2108394575
 20
631.6611838457
 30
0.0
 11
888.8984970771
 21
631.6611838457
 31
0.0
  0
ARC
  5
30A
330
1F
100
AcDbEntity
  8
0
  6
Continuous
 62
     7
370
    35
100
AcDbCircle
 10
985.0546682673
 20
625.6611838457
 30
0.0
 40
21.75
100
AcDbArc
 50
270.0
 51
90.0
  0
LINE
  5
30B
330
1F
100
AcDbEntity
  8
0
  6
Continuous
 62
     7
370
    35
100
AcDbLine
 10
879.0546682673
 20
647.4111838457
 30
0.0
 11
985.0546682673
 21
647.4111838457
 31
0.0
  0
ARC
  5
30C
330
1F
100
AcDbEntity
  8
0
  6
Continuous
 62
     7
370
    35
100
AcDbCircle
 10
879.0546682673
 20
625.6611838457
 30
0.0
 40
21.75
100
AcDbArc
 50
90.0
 51
270.0
  0
LINE
  5
30D
330
1F
100
AcDbEntity
  8
0
  6
Continuous
 62
     7
370
    35
100
AcDbLine
 10
879.0546682673
 20
603.9111838457
 30
0.0
 11
985.0546682673
 21
603.9111838457
 31
0.0
  0
LINE
  5
30E
330
1F
100
AcDbEntity
  8
0
  6
Continuous
 62
     7
370
    35
100
AcDbLine
 10
1274.0546682673
 20
590.6611838457
 30
0.0
 11
1273.0546682673
 21
590.6611838457
 31
0.0
  0
LINE
  5
30F
330
1F
100
AcDbEntity
  8
0
  6
Continuous
 62
     7
370
    35
100
AcDbLine
 10
1273.0546682673
 20
675.1611838457
 30
0.0
 11
1274.0546682673
 21
675.1611838457
 31
0.0
  0
LINE
  5
310
330
1F
100
AcDbEntity
  8
0
  6
Continuous
 62
     7
370
    35
100
AcDbLine
 10
1274.0546682673
 20
675.1611838457
 30
0.0
 11
1274.0546682673
 21
590.6611838457
 31
0.0
  0
LINE
  5
311
330
1F
100
AcDbEntity
  8
0
  6
Continuous
 62
     7
370
    35
100
AcDbLine
 10
1273.0546682673
 20
590.6611838457
 30
0.0
 11
1272.0546682673
 21
590.6611838457
 31
0.0
  0
LINE
  5
312
330
1F
100
AcDbEntity
  8
0
  6
Continuous
 62
     7
370
    35
100
AcDbLine
 10
1272.0546682673
 20
590.6611838457
 30
0.0
 11
1272.0546682673
 21
590.7469702833
 31
0.0
  0
LINE
  5
313
330
1F
100
AcDbEntity
  8
0
  6
Continuous
 62
     7
370
    35
100
AcDbLine
 10
1272.0546682673
 20
593.575397408
 30
0.0
 11
1272.0546682673
 21
657.9291330381
 31
0.0
  0
LINE
  5
314
330
1F
100
AcDbEntity
  8
0
  6
Continuous
 62
     7
370
    35
100
AcDbLine
 10
1272.0546682673
 20
675.1611838457
 30
0.0
 11
1273.0546682673
 21
675.1611838457
 31
0.0
  0
LINE
  5
315
330
1F
100
AcDbEntity
  8
0
  6
Continuous
 62
     7
370
    35
100
AcDbLine
 10
592.0546682673
 20
590.6611838457
 30
0.0
 11
591.0546682673
 21
590.6611838457
 31
0.0
  0
LINE
  5
316
330
1F
100
AcDbEntity
  8
0
  6
Continuous
 62
     7
370
    35
100
AcDbLine
 10
591.0546682673
 20
675.1611838457
 30
0.0
 11
592.0546682673
 21
675.1611838457
 31
0.0
  0
LINE
  5
317
330
1F
100
AcDbEntity
  8
0
  6
Continuous
 62
     7
370
    35
100
AcDbLine
 10
592.0546682673
 20
657.9291330381
 30
0.0
 11
592.0546682673
 21
593.575397408
 31
0.0
  0
LINE
  5
318
330
1F
100
AcDbEntity
  8
0
  6
Continuous
 62
     7
370
    35
100
AcDbLine
 10
592.0546682673
 20
590.7469702833
 30
0.0
 11
592.0546682673
 21
590.6611838457
 31
0.0
  0
LINE
  5
319
330
1F
100
AcDbEntity
  8
0
  6
Continuous
 62
     7
370
    35
100
AcDbLine
 10
591.0546682673
 20
590.6611838457
 30
0.0
 11
590.0546682673
 21
590.6611838457
 31
0.0
  0
LINE
  5
31A
330
1F
100
AcDbEntity
  8
0
  6
Continuous
 62
     7
370
    35
100
AcDbLine
 10
590.0546682673
 20
590.6611838457
 30
0.0
 11
590.0546682673
 21
675.1611838457
 31
0.0
  0
LINE
  5
31B
330
1F
100
AcDbEntity
  8
0
  6
Continuous
 62
     7
370
    35
100
AcDbLine
 10
590.0546682673
 20
675.1611838457
 30
0.0
 11
591.0546682673
 21
675.1611838457
 31
0.0
  0
LINE
  5
31C
330
1F
100
AcDbEntity
  8
0
  6
Continuous
 62
     7
370
    35
100
AcDbLine
 10
592.0546682673
 20
676.1861838457
 30
0.0
 11
592.0546682673
 21
675.1861838457
 31
0.0
  0
LINE
  5
31D
330
1F
100
AcDbEntity
  8
0
  6
Continuous
 62
     7
370
    35
100
AcDbLine
 10
592.0546682673
 20
676.1861838457
 30
0.0
 11
569.5546682673
 21
676.1861838457
 31
0.0
  0
LINE
  5
31E
330
1F
100
AcDbEntity
  8
0
  6
Continuous
 62
     7
370
    35
100
AcDbLine
 10
592.0546682673
 20
675.1861838457
 30
0.0
 11
569.5546682673
 21
675.1861838457
 31
0.0
  0
LINE
  5
31F
330
1F
100
AcDbEntity
  8
0
  6
Continuous
 62
     7
370
    35
100
AcDbLine
 10
559.5546682673
 20
675.1861838457
 30
0.0
 11
559.5546682673
 21
676.1861838457
 31
0.0
  0
LINE
  5
320
330
1F
100
AcDbEntity
  8
0
  6
Continuous
 62
     7
370
    35
100
AcDbLine
 10
559.5546682673
 20
676.1861838457
 30
0.0
 11
569.5546682673
 21
676.1861838457
 31
0.0
  0
LINE
  5
321
330
1F
100
AcDbEntity
  8
0
  6
Continuous
 62
     7
370
    35
100
AcDbLine
 10
569.5546682673
 20
675.1861838457
 30
0.0
 11
559.5546682673
 21
675.1861838457
 31
0.0
  0
LINE
  5
322
330
1F
100
AcDbEntity
  8
0
  6
Continuous
 62
     7
370
    35
100
AcDbLine
 10
559.5546682673
 20
675.1861838457
 30
0.0
 11
559.5546682673
 21
674.1861838457
 31
0.0
  0
LINE
  5
323
330
1F
100
AcDbEntity
  8
0
  6
Continuous
 62
     7
370
    35
100
AcDbLine
 10
592.0546682673
 20
589.6611838457
 30
0.0
 11
592.0546682673
 21
560.1861838457
 31
0.0
  0
LINE
  5
324
330
1F
100
AcDbEntity
  8
0
  6
Continuous
 62
     7
370
    35
100
AcDbLine
 10
592.0546682673
 20
560.1861838457
 30
0.0
 11
569.5546682673
 21
560.1861838457
 31
0.0
  0
ARC
  5
325
330
1F
100
AcDbEntity
  8
0
  6
Continuous
 62
     7
370
    35
100
AcDbCircle
 10
569.5546682673
 20
570.1861838457
 30
0.0
 40
10.0
100
AcDbArc
 50
180.0
 51
270.0
  0
LINE
  5
326
330
1F
100
AcDbEntity
  8
0
  6
Continuous
 62
     7
370
    35
100
AcDbLine
 10
559.5546682673
 20
570.1861838457
 30
0.0
 11
559.5546682673
 21
674.1861838457
 31
0.0
  0
LINE
  5
327
330
1F
100
AcDbEntity
  8
0
  6
Continuous
 62
     7
370
    35
100
AcDbLine
 10
1272.0546682673
 20
676.1861838457
 30
0.0
 11
1272.0546682673
 21
675.1861838457
 31
0.0
  0
LINE
  5
328
330
1F
100
AcDbEntity
  8
0
  6
Continuous
 62
     7
370
    35
100
AcDbLine
 10
1272.0546682673
 20
676.1861838457
 30
0.0
 11
1294.5546682673
 21
676.1861838457
 31
0.0
  0
LINE
  5
329
330
1F
100
AcDbEntity
  8
0
  6
Continuous
 62
     7
370
    35
100
AcDbLine
 10
1272.0546682673
 20
675.1861838457
 30
0.0
 11
1294.5546682673
 21
675.1861838457
 31
0.0
  0
LINE
  5
32A
330
1F
100
AcDbEntity
  8
0
  6
Continuous
 62
     7
370
    35
100
AcDbLine
 10
1304.5546682673
 20
676.1861838457
 30
0.0
 11
1304.5546682673
 21
675.1861838457
 31
0.0
  0
LINE
  5
32B
330
1F
100
AcDbEntity
  8
0
  6
Continuous
 62
     7
370
    35
100
AcDbLine
 10
1294.5546682673
 20
676.1861838457
 30
0.0
 11
1304.5546682673
 21
676.1861838457
 31
0.0
  0
LINE
  5
32C
330
1F
100
AcDbEntity
  8
0
  6
Continuous
 62
     7
370
    35
100
AcDbLine
 10
1304.5546682673
 20
675.1861838457
 30
0.0
 11
1294.5546682673
 21
675.1861838457
 31
0.0
  0
LINE
  5
32D
330
1F
100
AcDbEntity
  8
0
  6
Continuous
 62
     7
370
    35
100
AcDbLine
 10
1304.5546682673
 20
674.1861838457
 30
0.0
 11
1304.5546682673
 21
675.1861838457
 31
0.0
  0
ARC
  5
32E
330
1F
100
AcDbEntity
  8
0
  6
Continuous
 62
     7
370
    35
100
AcDbCircle
 10
1294.5546682673
 20
570.1861838457
 30
0.0
 40
10.0
100
AcDbArc
 50
270.0
 51
0.0
  0
LINE
  5
32F
330
1F
100
AcDbEntity
  8
0
  6
Continuous
 62
     7
370
    35
100
AcDbLine
 10
1272.0546682673
 20
560.1861838457
 30
0.0
 11
1294.5546682673
 21
560.1861838457
 31
0.0
  0
LINE
  5
330
330
1F
100
AcDbEntity
  8
0
  6
Continuous
 62
     7
370
    35
100
AcDbLine
 10
1272.0546682673
 20
589.6611838457
 30
0.0
 11
1272.0546682673
 21
560.1861838457
 31
0.0
  0
LINE
  5
331
330
1F
100
AcDbEntity
  8
0
  6
Continuous
 62
     7
370
    35
100
AcDbLine
 10
1304.5546682673
 20
570.1861838457
 30
0.0
 11
1304.5546682673
 21
674.1861838457
 31
0.0
  0
LINE
  5
332
330
1F
100
AcDbEntity
  8
0
  6
Continuous
 62
     8
370
    18
100
AcDbLine
 10
592.0546682673
 20
674.1611838457
 30
0.0
 11
1272.0546682673
 21
674.1611838457
 31
0.0
  0
LINE
  5
333
330
1F
100
AcDbEntity
  8
0
  6
Continuous
 62
     8
370
    18
100
AcDbLine
 10
1272.0546682673
 20
659.6611838457
 30
0.0
 11
592.0546682673
 21
659.6611838457
 31
0.0
  0
LINE
  5
334
330
1F
100
AcDbEntity
  8
0
  6
Continuous
 62
     8
370
    18
100
AcDbLine
 10
592.0546682673
 20
589.6611838457
 30
0.0
 11
1272.0546682673
 21
589.6611838457
 31
0.0
  0
LINE
  5
335
330
1F
100
AcDbEntity
  8
0
  6
Continuous
 62
     8
370
    18
100
AcDbLine
 10
592.0546682673
 20
656.7178766332
 30
0.0
 11
1272.0546682673
 21
656.7178766332
 31
0.0
  0
LINE
  5
336
330
1F
100
AcDbEntity
  8
0
  6
Continuous
 62
     8
370
    18
100
AcDbLine
 10
592.0546682673
 20
594.6044910581
 30
0.0
 11
1272.0546682673
 21
594.6044910581
 31
0.0
  0
SPLINE
  5
337
330
1F
100
AcDbEntity
  8
0
  6
Continuous
 62
     8
370
    18
100
AcDbSpline
210
0.0
220
0.0
230
1.0
 70
     8
 71
     3
 72
    14
 73
    10
 74
     0
 42
0.000000001
 43
0.00000001
 40
0.0
 40
0.0
 40
0.0
 40
0.0
 40
0.2500000000000001
 40
0.2500000000000001
 40
0.5000000000000001
 40
0.5000000000000001
 40
0.7500000000000001
 40
0.7500000000000001
 40
1.0
 40
1.0
 40
1.0
 40
1.0
 10
849.0555253654469
 20
625.7178766332286
 30
0.0
 10
849.0807669515901
 20
629.0570401420438
 30
0.0
 10
849.6686428947779
 20
632.3912622117847
 30
0.0
 10
851.9051897958736
 20
638.6841517121887
 30
0.0
 10
853.553399733176
 20
641.6415219861829
 30
0.0
 10
857.728929627429
 20
646.8537720192584
 30
0.0
 10
860.2553888801754
 20
649.1075773744607
 30
0.0
 10
865.908613431757
 20
652.6633687736419
 30
0.0
 10
869.0342134284003
 20
653.9646218604432
 30
0.0
 10
872.2874052954057
 20
654.7178766332286
 30
0.0
  0
LINE
  5
338
330
1F
100
AcDbEntity
  8
0
  6
Continuous
 62
     8
370
    18
100
AcDbLine
 10
592.0546682673
 20
625.7178766332
 30
0.0
 11
849.0555253654
 21
625.7178766332
 31
0.0
  0
LINE
  5
339
330
1F
100
AcDbEntity
  8
0
  6
Continuous
 62
     8
370
    18
100
AcDbLine
 10
1015.0538111691
 20
625.7178766332
 30
0.0
 11
1272.0546682673
 21
625.7178766332
 31
0.0
  0
SPLINE
  5
33A
330
1F
100
AcDbEntity
  8
0
  6
Continuous
 62
     8
370
    18
100
AcDbSpline
210
0.0
220
0.0
230
1.0
 70
     8
 71
     3
 72
    14
 73
    10
 74
     0
 42
0.000000001
 43
0.00000001
 40
0.0
 40
0.0
 40
0.0
 40
0.0
 40
0.25
 40
0.25
 40
0.5
 40
0.5
 40
0.75
 40
0.75
 40
1.0
 40
1.0
 40
1.0
 40
1.0
 10
991.8219312391813
 20
654.7178766332286
 30
0.0
 10
995.0751231061868
 20
653.9646218604432
 30
0.0
 10
998.20072310283
 20
652.6633687736419
 30
0.0
 10
1003.853947654412
 20
649.1075773744607
 30
0.0
 10
1006.380406907158
 20
646.8537720192584
 30
0.0
 10
1010.555936801411
 20
641.6415219861829
 30
0.0
 10
1012.204146738713
 20
638.6841517121887
 30
0.0
 10
1014.440693639809
 20
632.3912622117847
 30
0.0
 10
1015.028569582997
 20
629.0570401420438
 30
0.0
 10
1015.05381116914
 20
625.7178766332286
 30
0.0
  0
LINE
  5
33B
330
1F
100
AcDbEntity
  8
0
  6
Continuous
 62
     8
370
    18
100
AcDbLine
 10
592.0546682673
 20
625.6044910581
 30
0.0
 11
849.0555253654
 21
625.6044910581
 31
0.0
  0
SPLINE
  5
33C
330
1F
100
AcDbEntity
  8
0
  6
Continuous
 62
     8
370
    18
100
AcDbSpline
210
0.0
220
0.0
230
1.0
 70
     8
 71
     3
 72
    14
 73
    10
 74
     0
 42
0.000000001
 43
0.00000001
 40
0.0
 40
0.0
 40
0.0
 40
0.0
 40
0.2500000000000002
 40
0.2500000000000002
 40
0.5000000000000003
 40
0.5000000000000003
 40
0.7500000000000002
 40
0.7500000000000002
 40
1.0
 40
1.0
 40
1.0
 40
1.0
 10
872.2874052954056
 20
596.6044910581018
 30
0.0
 10
869.0342134284001
 20
597.3577458308871
 30
0.0
 10
865.908613431757
 20
598.6589989176886
 30
0.0
 10
860.2553888801754
 20
602.2147903168698
 30
0.0
 10
857.7289296274289
 20
604.4685956720718
 30
0.0
 10
853.553399733176
 20
609.6808457051475
 30
0.0
 10
851.9051897958736
 20
612.6382159791416
 30
0.0
 10
849.6686428947778
 20
618.9311054795456
 30
0.0
 10
849.0807669515901
 20
622.2653275492866
 30
0.0
 10
849.0555253654469
 20
625.6044910581019
 30
0.0
  0
SPLINE
  5
33D
330
1F
100
AcDbEntity
  8
0
  6
Continuous
 62
     8
370
    18
100
AcDbSpline
210
0.0
220
0.0
230
1.0
 70
     8
 71
     3
 72
    14
 73
    10
 74
     0
 42
0.000000001
 43
0.00000001
 40
0.0
 40
0.0
 40
0.0
 40
0.0
 40
0.25
 40
0.25
 40
0.5
 40
0.5
 40
0.75
 40
0.75
 40
1.0
 40
1.0
 40
1.0
 40
1.0
 10
1015.05381116914
 20
625.6044910581019
 30
0.0
 10
1015.028569582997
 20
622.2653275492866
 30
0.0
 10
1014.440693639809
 20
618.9311054795457
 30
0.0
 10
1012.204146738713
 20
612.6382159791416
 30
0.0
 10
1010.555936801411
 20
609.6808457051475
 30
0.0
 10
1006.380406907158
 20
604.4685956720718
 30
0.0
 10
1003.853947654412
 20
602.2147903168698
 30
0.0
 10
998.20072310283
 20
598.6589989176885
 30
0.0
 10
995.0751231061868
 20
597.3577458308871
 30
0.0
 10
991.8219312391814
 20
596.6044910581018
 30
0.0
  0
LINE
  5
33E
330
1F
100
AcDbEntity
  8
0
  6
Continuous
 62
     8
370
    18
100
AcDbLine
 10
1015.0538111691
 20
625.6044910581
 30
0.0
 11
1272.0546682673
 21
625.6044910581
 31
0.0
  0
LINE
  5
33F
330
1F
100
AcDbEntity
  8
0
  6
Continuous
 62
     8
370
    18
100
AcDbLine
 10
985.0546682673
 20
654.9161635436
 30
0.0
 11
985.0546682673
 21
654.9111838457
 31
0.0
  0
LINE
  5
340
330
1F
100
AcDbEntity
  8
0
  6
Continuous
 62
     8
370
    18
100
AcDbLine
 10
879.0546682673
 20
654.9161635436
 30
0.0
 11
879.0546682673
 21
654.9111838457
 31
0.0
  0
ARC
  5
341
330
1F
100
AcDbEntity
  8
0
  6
Continuous
 62
     8
370
    18
100
AcDbCircle
 10
938.8049576674
 20
666.2926115996
 30
0.0
 40
54.2657716820597
100
AcDbArc
 50
344.6911781266
 51
347.6843554441
  0
LINE
  5
342
330
1F
100
AcDbEntity
  8
0
  6
Continuous
 62
     8
370
    18
100
AcDbLine
 10
985.0546682673
 20
654.9111838457
 30
0.0
 11
985.0546682673
 21
652.6611838457
 31
0.0
  0
LINE
  5
343
330
1F
100
AcDbEntity
  8
0
  6
Continuous
 62
     8
370
    18
100
AcDbLine
 10
879.0546682673
 20
654.9111838457
 30
0.0
 11
879.0546682673
 21
652.6611838457
 31
0.0
  0
ARC
  5
344
330
1F
100
AcDbEntity
  8
0
  6
Continuous
 62
     8
370
    18
100
AcDbCircle
 10
925.3043788675
 20
666.2926115997
 30
0.0
 40
54.26577168246381
100
AcDbArc
 50
192.3156445559
 51
195.3088218734
  0
ARC
  5
345
330
1F
100
AcDbEntity
  8
0
  6
Continuous
 62
     8
370
    18
100
AcDbCircle
 10
925.3043788675
 20
585.0297560916
 30
0.0
 40
54.26577168241679
100
AcDbArc
 50
164.6911781266
 51
167.6843554441
  0
LINE
  5
346
330
1F
100
AcDbEntity
  8
0
  6
Continuous
 62
     8
370
    18
100
AcDbLine
 10
879.0546682673
 20
598.6611838457
 30
0.0
 11
879.0546682673
 21
596.4111838457
 31
0.0
  0
LINE
  5
347
330
1F
100
AcDbEntity
  8
0
  6
Continuous
 62
     8
370
    18
100
AcDbLine
 10
985.0546682673
 20
598.6611838457
 30
0.0
 11
985.0546682673
 21
596.4111838457
 31
0.0
  0
ARC
  5
348
330
1F
100
AcDbEntity
  8
0
  6
Continuous
 62
     8
370
    18
100
AcDbCircle
 10
938.804957667
 20
585.0297560916
 30
0.0
 40
54.26577168254598
100
AcDbArc
 50
12.3156445559
 51
15.3088218734
  0
LINE
  5
349
330
1F
100
AcDbEntity
  8
0
  6
Continuous
 62
     8
370
    18
100
AcDbLine
 10
879.0546682673
 20
596.4062041477
 30
0.0
 11
879.0546682673
 21
596.4111838457
 31
0.0
  0
LINE
  5
34A
330
1F
100
AcDbEntity
  8
0
  6
Continuous
 62
     8
370
    18
100
AcDbLine
 10
985.0546682673
 20
596.4062041477
 30
0.0
 11
985.0546682673
 21
596.4111838457
 31
0.0
  0
ARC
  5
34B
330
1F
100
AcDbEntity
  8
0
  6
Continuous
 62
     8
370
    18
100
AcDbCircle
 10
1014.2219740347
 20
640.1157487577
 30
0.0
 40
14.42188180273561
100
AcDbArc
 50
261.3675974434
 51
273.306588142
  0
ARC
  5
34C
330
1F
100
AcDbEntity
  8
0
  6
Continuous
 62
     8
370
    18
100
AcDbCircle
 10
849.8873624999
 20
640.1157487577
 30
0.0
 40
14.42188180273923
100
AcDbArc
 50
266.693411858
 51
278.6324025566
  0
ARC
  5
34D
330
1F
100
AcDbEntity
  8
0
  6
Continuous
 62
     8
370
    18
100
AcDbCircle
 10
849.8873624999
 20
611.2066189335
 30
0.0
 40
14.42188180278281
100
AcDbArc
 50
81.3675974434
 51
93.306588142
  0
ARC
  5
34E
330
1F
100
AcDbEntity
  8
0
  6
Continuous
 62
     8
370
    18
100
AcDbCircle
 10
1014.2219740347
 20
611.2066189335
 30
0.0
 40
14.42188180278008
100
AcDbArc
 50
86.693411858
 51
98.6324025566
  0
SPLINE
  5
34F
330
1F
100
AcDbEntity
  8
0
  6
Continuous
 62
     8
370
    18
100
AcDbSpline
210
0.0
220
0.0
230
1.0
 70
     8
 71
     3
 72
     8
 73
     4
 74
     0
 42
0.000000001
 43
0.00000001
 40
0.0
 40
0.0
 40
0.0
 40
0.0
 40
1.0
 40
1.0
 40
1.0
 40
1.0
 10
849.0555253654469
 20
625.6044910581019
 30
0.0
 10
849.0543825515838
 20
625.6422862498107
 30
0.0
 10
849.0543825515838
 20
625.6800814415196
 30
0.0
 10
849.0555253654469
 20
625.7178766332286
 30
0.0
  0
SPLINE
  5
350
330
1F
100
AcDbEntity
  8
0
  6
Continuous
 62
     8
370
    18
100
AcDbSpline
210
0.0
220
0.0
230
1.0
 70
     8
 71
     3
 72
     8
 73
     4
 74
     0
 42
0.000000001
 43
0.00000001
 40
0.0
 40
0.0
 40
0.0
 40
0.0
 40
1.0
 40
1.0
 40
1.0
 40
1.0
 10
1015.05381116914
 20
625.7178766332286
 30
0.0
 10
1015.054953983003
 20
625.6800814415196
 30
0.0
 10
1015.054953983003
 20
625.6422862498107
 30
0.0
 10
1015.05381116914
 20
625.6044910581019
 30
0.0
  0
SPLINE
  5
351
330
1F
100
AcDbEntity
  8
0
  6
Continuous
 62
     8
370
    18
100
AcDbSpline
210
0.0
220
0.0
230
1.0
 70
     8
 71
     3
 72
    17
 73
    13
 74
     0
 42
0.000000001
 43
0.00000001
 40
0.0
 40
0.0
 40
0.0
 40
0.0
 40
0.0000017599180569
 40
0.1227053397329221
 40
0.2502071717394977
 40
0.3526128094214253
 40
0.4578053944919651
 40
0.4930427252802735
 40
0.6348536903675623
 40
0.7415522131116683
 40
0.8461670224033183
 40
1.0
 40
1.0
 40
1.0
 40
1.0
 10
985.0605730991964
 20
647.4028961657823
 30
0.0
 10
985.0605930991962
 20
647.4028961641369
 30
0.0
 10
986.4550368657242
 20
647.4027814428161
 30
0.0
 10
989.3038311754224
 20
647.1165230580793
 30
0.0
 10
993.1704671418007
 20
645.9661089016503
 30
0.0
 10
996.5677544546669
 20
644.2103172905421
 30
0.0
 10
998.7991440308294
 20
642.563672038546
 30
0.0
 10
1001.159632234069
 20
640.391703743894
 30
0.0
 10
1003.214418839431
 20
637.8620577403085
 30
0.0
 10
1005.105153175161
 20
634.3103239544328
 30
0.0
 10
1006.47880401943
 20
630.3595956878992
 30
0.0
 10
1006.67862419243
 20
627.4142869393037
 30
0.0
 10
1006.797560912944
 20
625.6611838456652
 30
0.0
  0
LWPOLYLINE
  5
352
330
1F
100
AcDbEntity
  8
0
  6
Continuous
 62
     8
370
    18
100
AcDbPolyline
 90
        3
 70
   128
 43
0.0
 10
985.0605730992
 20
647.4028961658
 10
985.0605737983
 20
647.4084351694
 10
985.0605740728
 20
647.4111830439
  0
LINE
  5
353
330
1F
100
AcDbEntity
  8
0
  6
Continuous
 62
     8
370
    18
100
AcDbLine
 10
1006.793121184
 20
625.6611838457
 30
0.0
 11
1006.7975609129
 21
625.6611838457
 31
0.0
  0
LINE
  5
354
330
1F
100
AcDbEntity
  8
0
  6
Continuous
 62
     8
370
    18
100
AcDbLine
 10
985.0605727383
 20
647.3984562413
 30
0.0
 11
985.0605730992
 21
647.4028961658
 31
0.0
  0
SPLINE
  5
355
330
1F
100
AcDbEntity
  8
0
  6
Continuous
 62
     8
370
    18
100
AcDbSpline
210
0.0
220
0.0
230
1.0
 70
     8
 71
     3
 72
    17
 73
    13
 74
     0
 42
0.000000001
 43
0.00000001
 40
0.0
 40
0.0
 40
0.0
 40
0.0
 40
0.0000017599180569
 40
0.1227053397329192
 40
0.2502071717394923
 40
0.3526128094214395
 40
0.4578053944919769
 40
0.4930427252802845
 40
0.6348536903675702
 40
0.741552213111674
 40
0.8461670224033215
 40
1.0
 40
1.0
 40
1.0
 40
1.0
 10
879.0487634353915
 20
647.4028961657823
 30
0.0
 10
879.0487434353917
 20
647.4028961641369
 30
0.0
 10
877.6542996687016
 20
647.4027814428161
 30
0.0
 10
874.8055053592443
 20
647.1165230580793
 30
0.0
 10
870.9388693927702
 20
645.9661089016499
 30
0.0
 10
867.5415820799245
 20
644.2103172905423
 30
0.0
 10
865.3101925037573
 20
642.563672038546
 30
0.0
 10
862.9497043005185
 20
640.391703743894
 30
0.0
 10
860.8949176951558
 20
637.8620577403085
 30
0.0
 10
859.0041833594262
 20
634.3103239544329
 30
0.0
 10
857.6305325151575
 20
630.3595956878992
 30
0.0
 10
857.4307123421571
 20
627.4142869393037
 30
0.0
 10
857.3117756216434
 20
625.6611838456652
 30
0.0
  0
LWPOLYLINE
  5
356
330
1F
100
AcDbEntity
  8
0
  6
Continuous
 62
     8
370
    18
100
AcDbPolyline
 90
        3
 70
   128
 43
0.0
 10
879.0487634354
 20
647.4028961658
 10
879.0487627363
 20
647.4084351694
 10
879.0487624618
 20
647.4111830439
  0
LINE
  5
357
330
1F
100
AcDbEntity
  8
0
  6
Continuous
 62
     8
370
    18
100
AcDbLine
 10
857.3162153506
 20
625.6611838457
 30
0.0
 11
857.3117756216
 21
625.6611838457
 31
0.0
  0
LINE
  5
358
330
1F
100
AcDbEntity
  8
0
  6
Continuous
 62
     8
370
    18
100
AcDbLine
 10
879.0487637963
 20
647.3984562413
 30
0.0
 11
879.0487634354
 21
647.4028961658
 31
0.0
  0
SPLINE
  5
359
330
1F
100
AcDbEntity
  8
0
  6
Continuous
 62
     8
370
    18
100
AcDbSpline
210
0.0
220
0.0
230
1.0
 70
     8
 71
     3
 72
    17
 73
    13
 74
     0
 42
0.000000001
 43
0.00000001
 40
0.0
 40
0.0
 40
0.0
 40
0.0
 40
0.0000017599180569
 40
0.1227053397329221
 40
0.2502071717394977
 40
0.3526128094214254
 40
0.4578053944919651
 40
0.4930427252802735
 40
0.6348536903675623
 40
0.7415522131116683
 40
0.8461670224033182
 40
1.0
 40
1.0
 40
1.0
 40
1.0
 10
985.0605730991964
 20
603.919471525548
 30
0.0
 10
985.0605930991962
 20
603.9194715271934
 30
0.0
 10
986.4550368657242
 20
603.9195862485142
 30
0.0
 10
989.3038311754224
 20
604.2058446332511
 30
0.0
 10
993.1704671418007
 20
605.3562587896802
 30
0.0
 10
996.5677544546669
 20
607.1120504007883
 30
0.0
 10
998.7991440308294
 20
608.7586956527845
 30
0.0
 10
1001.159632234069
 20
610.9306639474363
 30
0.0
 10
1003.214418839431
 20
613.4603099510219
 30
0.0
 10
1005.105153175161
 20
617.0120437368976
 30
0.0
 10
1006.47880401943
 20
620.9627720034313
 30
0.0
 10
1006.67862419243
 20
623.9080807520265
 30
0.0
 10
1006.797560912944
 20
625.6611838456652
 30
0.0
  0
LWPOLYLINE
  5
35A
330
1F
100
AcDbEntity
  8
0
  6
Continuous
 62
     8
370
    18
100
AcDbPolyline
 90
        3
 70
   128
 43
0.0
 10
985.0605730992
 20
603.9194715255
 10
985.0605737983
 20
603.9139325219
 10
985.0605740728
 20
603.9111846475
  0
LINE
  5
35B
330
1F
100
AcDbEntity
  8
0
  6
Continuous
 62
     8
370
    18
100
AcDbLine
 10
985.0605727383
 20
603.92391145
 30
0.0
 11
985.0605730992
 21
603.9194715255
 31
0.0
  0
SPLINE
  5
35C
330
1F
100
AcDbEntity
  8
0
  6
Continuous
 62
     8
370
    18
100
AcDbSpline
210
0.0
220
0.0
230
1.0
 70
     8
 71
     3
 72
    17
 73
    13
 74
     0
 42
0.000000001
 43
0.00000001
 40
0.0
 40
0.0
 40
0.0
 40
0.0
 40
0.0000017599180569
 40
0.1227053397329189
 40
0.2502071717394924
 40
0.3526128094214394
 40
0.4578053944919769
 40
0.4930427252802844
 40
0.6348536903675702
 40
0.741552213111674
 40
0.8461670224033216
 40
1.0
 40
1.0
 40
1.0
 40
1.0
 10
879.0487634353914
 20
603.9194715255481
 30
0.0
 10
879.0487434353917
 20
603.9194715271934
 30
0.0
 10
877.6542996690243
 20
603.9195862486756
 30
0.0
 10
874.8055053590872
 20
604.2058446331724
 30
0.0
 10
870.9388693928039
 20
605.3562587896972
 30
0.0
 10
867.541582079916
 20
607.1120504007838
 30
0.0
 10
865.3101925037579
 20
608.7586956527847
 30
0.0
 10
862.9497043005181
 20
610.9306639474362
 30
0.0
 10
860.894917695156
 20
613.4603099510219
 30
0.0
 10
859.0041833594262
 20
617.0120437368976
 30
0.0
 10
857.6305325151575
 20
620.9627720034313
 30
0.0
 10
857.4307123421571
 20
623.9080807520265
 30
0.0
 10
857.3117756216434
 20
625.6611838456652
 30
0.0
  0
LINE
  5
35D
330
1F
100
AcDbEntity
  8
0
  6
Continuous
 62
     8
370
    18
100
AcDbLine
 10
879.0487637963
 20
603.92391145
 30
0.0
 11
879.0487634354
 21
603.9194715255
 31
0.0
  0
LWPOLYLINE
  5
35E
330
1F
100
AcDbEntity
  8
0
  6
Continuous
 62
     8
370
    18
100
AcDbPolyline
 90
        3
 70
   128
 43
0.0
 10
879.0487634354
 20
603.9194715255
 10
879.0487627363
 20
603.9139325219
 10
879.0487624618
 20
603.9111846475
  0
ARC
  5
35F
330
1F
100
AcDbEntity
  8
0
  6
Continuous
 62
     8
370
    18
100
AcDbCircle
 10
979.0393010148
 20
640.8976574874
 30
0.0
 40
2.052564240822799
100
AcDbArc
 50
11.6472091992
 51
44.8009049346
  0
SPLINE
  5
360
330
1F
100
AcDbEntity
  8
0
  6
Continuous
 62
     8
370
    18
100
AcDbSpline
210
0.0
220
0.0
230
1.0
 70
     8
 71
     3
 72
     9
 73
     5
 74
     0
 42
0.000000001
 43
0.00000001
 40
0.0
 40
0.0
 40
0.0
 40
0.0
 40
0.1546895589893173
 40
1.0
 40
1.0
 40
1.0
 40
1.0
 10
984.9379370846334
 20
644.3927572996497
 30
0.0
 10
984.6948846280637
 20
644.32008276465
 30
0.0
 10
983.1236573380145
 20
643.8502738423513
 30
0.0
 10
981.6995394291937
 20
643.0339958133075
 30
0.0
 10
980.4957176916371
 20
642.3439874725891
 30
0.0
  0
SPLINE
  5
361
330
1F
100
AcDbEntity
  8
0
  6
Continuous
 62
     8
370
    18
100
AcDbSpline
210
0.0
220
0.0
230
1.0
 70
     8
 71
     3
 72
     9
 73
     5
 74
     0
 42
0.000000001
 43
0.00000001
 40
0.0
 40
0.0
 40
0.0
 40
0.0
 40
0.1546895589893171
 40
1.0
 40
1.0
 40
1.0
 40
1.0
 10
879.1713994499545
 20
644.3927572996497
 30
0.0
 10
879.4144519065242
 20
644.32008276465
 30
0.0
 10
880.9856791965734
 20
643.8502738423513
 30
0.0
 10
882.4097971053942
 20
643.0339958133075
 30
0.0
 10
883.6136188429507
 20
642.3439874725891
 30
0.0
  0
ARC
  5
362
330
1F
100
AcDbEntity
  8
0
  6
Continuous
 62
     8
370
    18
100
AcDbCircle
 10
885.0700355198
 20
640.8976574874
 30
0.0
 40
2.052564240823874
100
AcDbArc
 50
135.1990950654
 51
168.3527908008
  0
SPLINE
  5
363
330
1F
100
AcDbEntity
  8
0
  6
Continuous
 62
     8
370
    18
100
AcDbSpline
210
0.0
220
0.0
230
1.0
 70
     8
 71
     3
 72
     9
 73
     5
 74
     0
 42
0.000000001
 43
0.00000001
 40
0.0
 40
0.0
 40
0.0
 40
0.0
 40
0.1546895589893174
 40
0.9999999999999999
 40
0.9999999999999999
 40
0.9999999999999999
 40
0.9999999999999999
 10
984.9379370846334
 20
606.9296103916806
 30
0.0
 10
984.6948846280637
 20
607.0022849266803
 30
0.0
 10
983.1236573380145
 20
607.4720938489792
 30
0.0
 10
981.6995394291937
 20
608.288371878023
 30
0.0
 10
980.4957176916371
 20
608.9783802187413
 30
0.0
  0
ARC
  5
364
330
1F
100
AcDbEntity
  8
0
  6
Continuous
 62
     8
370
    18
100
AcDbCircle
 10
979.0393010148
 20
610.4247102039
 30
0.0
 40
2.052564240822738
100
AcDbArc
 50
315.1990950654
 51
348.3527908008
  0
ARC
  5
365
330
1F
100
AcDbEntity
  8
0
  6
Continuous
 62
     8
370
    18
100
AcDbCircle
 10
885.0700355198
 20
610.4247102039
 30
0.0
 40
2.052564240824211
100
AcDbArc
 50
191.6472091992
 51
224.8009049346
  0
SPLINE
  5
366
330
1F
100
AcDbEntity
  8
0
  6
Continuous
 62
     8
370
    18
100
AcDbSpline
210
0.0
220
0.0
230
1.0
 70
     8
 71
     3
 72
     9
 73
     5
 74
     0
 42
0.000000001
 43
0.00000001
 40
0.0
 40
0.0
 40
0.0
 40
0.0
 40
0.1546895589893173
 40
1.0
 40
1.0
 40
1.0
 40
1.0
 10
879.1713994499544
 20
606.9296103916806
 30
0.0
 10
879.414451906524
 20
607.0022849266803
 30
0.0
 10
880.9856791965734
 20
607.4720938489792
 30
0.0
 10
882.4097971053942
 20
608.288371878023
 30
0.0
 10
883.6136188429507
 20
608.9783802187413
 30
0.0
  0
ARC
  5
367
330
1F
100
AcDbEntity
  8
0
  6
Continuous
 62
     8
370
    18
100
AcDbCircle
 10
978.0546682673
 20
625.6611838457
 30
0.0
 40
20.0
100
AcDbArc
 50
270.0
 51
347.5224163015
  0
LINE
  5
368
330
1F
100
AcDbEntity
  8
0
  6
Continuous
 62
     8
370
    18
100
AcDbLine
 10
978.0546682673
 20
612.9485330588
 30
0.0
 11
978.0546682673
 21
605.6611838457
 31
0.0
  0
LINE
  5
369
330
1F
100
AcDbEntity
  8
0
  6
Continuous
 62
     8
370
    18
100
AcDbLine
 10
978.0546682673
 20
638.3738346326
 30
0.0
 11
978.0546682673
 21
645.6611838457
 31
0.0
  0
ARC
  5
36A
330
1F
100
AcDbEntity
  8
0
  6
Continuous
 62
     8
370
    18
100
AcDbCircle
 10
978.0546682673
 20
625.6611838457
 30
0.0
 40
20.00000000000011
100
AcDbArc
 50
12.4775836985
 51
90.0
  0
SPLINE
  5
36B
330
1F
100
AcDbEntity
  8
0
  6
Continuous
 62
     8
370
    18
100
AcDbSpline
210
0.0
220
0.0
230
1.0
 70
     8
 71
     3
 72
    14
 73
    10
 74
     0
 42
0.000000001
 43
0.00000001
 40
0.0
 40
0.0
 40
0.0
 40
0.0
 40
0.1114289230463675
 40
0.4958785649708676
 40
0.7046555305635106
 40
0.8301760374267202
 40
0.9121018798664099
 40
0.9942797082137652
 40
1.0
 40
1.0
 40
1.0
 40
1.0
 10
980.4957176916371
 20
642.3439874725891
 30
0.0
 10
980.376326645995
 20
642.261655107336
 30
0.0
 10
979.8450152165672
 20
641.8952614097554
 30
0.0
 10
979.1707236932072
 20
641.2624902590313
 30
0.0
 10
978.7128599054453
 20
640.4715057443311
 30
0.0
 10
978.6284021551118
 20
639.9613110104683
 30
0.0
 10
978.7108664479641
 20
639.6169824048043
 30
0.0
 10
978.8305733915863
 20
639.4392826840714
 30
0.0
 10
978.9112846647926
 20
639.3639001146486
 30
0.0
 10
978.9165372462184
 20
639.3589943181191
 30
0.0
  0
SPLINE
  5
36C
330
1F
100
AcDbEntity
  8
0
  6
Continuous
 62
     8
370
    18
100
AcDbSpline
210
0.0
220
0.0
230
1.0
 70
     8
 71
     3
 72
    14
 73
    10
 74
     0
 42
0.000000001
 43
0.00000001
 40
0.0
 40
0.0
 40
0.0
 40
0.0
 40
0.1114289230463679
 40
0.4958785649708705
 40
0.7046555305635143
 40
0.8301760374267243
 40
0.9121018798664143
 40
0.99427970821377
 40
1.0
 40
1.0
 40
1.0
 40
1.0
 10
980.4957176916371
 20
608.9783802187413
 30
0.0
 10
980.376326645995
 20
609.0607125839944
 30
0.0
 10
979.8450152165672
 20
609.4271062815749
 30
0.0
 10
979.1707236932072
 20
610.0598774322989
 30
0.0
 10
978.7128599054453
 20
610.8508619469992
 30
0.0
 10
978.6284021551118
 20
611.361056680862
 30
0.0
 10
978.7108664479641
 20
611.7053852865262
 30
0.0
 10
978.8305733915863
 20
611.883085007259
 30
0.0
 10
978.9112846647926
 20
611.9584675766819
 30
0.0
 10
978.9165372462184
 20
611.9633733732113
 30
0.0
  0
SPLINE
  5
36D
330
1F
100
AcDbEntity
  8
0
  6
Continuous
 62
     8
370
    18
100
AcDbSpline
210
0.0
220
0.0
230
1.0
 70
     8
 71
     3
 72
    14
 73
    10
 74
     0
 42
0.000000001
 43
0.00000001
 40
0.0
 40
0.0
 40
0.0
 40
0.0
 40
0.1114289230463678
 40
0.4958785649708698
 40
0.7046555305635135
 40
0.8301760374267233
 40
0.9121018798664129
 40
0.9942797082137684
 40
1.0
 40
1.0
 40
1.0
 40
1.0
 10
883.6136188429507
 20
608.9783802187413
 30
0.0
 10
883.7330098885927
 20
609.0607125839944
 30
0.0
 10
884.2643213180207
 20
609.4271062815749
 30
0.0
 10
884.9386128413805
 20
610.0598774322989
 30
0.0
 10
885.3964766291425
 20
610.8508619469992
 30
0.0
 10
885.4809343794761
 20
611.361056680862
 30
0.0
 10
885.3984700866238
 20
611.7053852865262
 30
0.0
 10
885.2787631430015
 20
611.8830850072591
 30
0.0
 10
885.1980518697953
 20
611.9584675766819
 30
0.0
 10
885.1927992883695
 20
611.9633733732113
 30
0.0
  0
SPLINE
  5
36E
330
1F
100
AcDbEntity
  8
0
  6
Continuous
 62
     8
370
    18
100
AcDbSpline
210
0.0
220
0.0
230
1.0
 70
     8
 71
     3
 72
    14
 73
    10
 74
     0
 42
0.000000001
 43
0.00000001
 40
0.0
 40
0.0
 40
0.0
 40
0.0
 40
0.1114289230463675
 40
0.4958785649708679
 40
0.7046555305635108
 40
0.8301760374267203
 40
0.9121018798664103
 40
0.9942797082137657
 40
1.0
 40
1.0
 40
1.0
 40
1.0
 10
883.6136188429507
 20
642.3439874725891
 30
0.0
 10
883.7330098885928
 20
642.261655107336
 30
0.0
 10
884.2643213180207
 20
641.8952614097554
 30
0.0
 10
884.9386128413805
 20
641.2624902590313
 30
0.0
 10
885.3964766291425
 20
640.4715057443311
 30
0.0
 10
885.4809343794761
 20
639.9613110104683
 30
0.0
 10
885.3984700866238
 20
639.6169824048043
 30
0.0
 10
885.2787631430016
 20
639.4392826840714
 30
0.0
 10
885.1980518697953
 20
639.3639001146486
 30
0.0
 10
885.1927992883695
 20
639.3589943181191
 30
0.0
  0
ARC
  5
36F
330
1F
100
AcDbEntity
  8
0
  6
Continuous
 62
     8
370
    18
100
AcDbCircle
 10
886.0546682673
 20
625.6611838457
 30
0.0
 40
20.00000000000029
100
AcDbArc
 50
90.0
 51
167.5224163015
  0
LINE
  5
370
330
1F
100
AcDbEntity
  8
0
  6
Continuous
 62
     8
370
    18
100
AcDbLine
 10
886.0546682673
 20
638.3738346326
 30
0.0
 11
886.0546682673
 21
645.6611838457
 31
0.0
  0
LINE
  5
371
330
1F
100
AcDbEntity
  8
0
  6
Continuous
 62
     8
370
    18
100
AcDbLine
 10
886.0546682673
 20
612.9485330588
 30
0.0
 11
886.0546682673
 21
605.6611838457
 31
0.0
  0
ARC
  5
372
330
1F
100
AcDbEntity
  8
0
  6
Continuous
 62
     8
370
    18
100
AcDbCircle
 10
886.0546682673
 20
625.6611838457
 30
0.0
 40
20.00000000000029
100
AcDbArc
 50
192.4775836985
 51
270.0
  0
LINE
  5
373
330
1F
100
AcDbEntity
  8
0
  6
Continuous
 62
     8
370
    18
100
AcDbLine
 10
932.0546682673
 20
647.4068962376
 30
0.0
 11
985.0605545845
 21
647.4028961672
 31
0.0
  0
LINE
  5
374
330
1F
100
AcDbEntity
  8
0
  6
Continuous
 62
     8
370
    18
100
AcDbLine
 10
932.0546682673
 20
647.4068962376
 30
0.0
 11
932.0546682673
 21
647.4024563132
 31
0.0
  0
LINE
  5
375
330
1F
100
AcDbEntity
  8
0
  6
Continuous
 62
     8
370
    18
100
AcDbLine
 10
932.0546682673
 20
647.4068962376
 30
0.0
 11
879.0487819501
 21
647.4028961672
 31
0.0
  0
LINE
  5
376
330
1F
100
AcDbEntity
  8
0
  6
Continuous
 62
     8
370
    18
100
AcDbLine
 10
932.0546682673
 20
603.9154714537
 30
0.0
 11
985.0605545845
 21
603.9194715242
 31
0.0
  0
LINE
  5
377
330
1F
100
AcDbEntity
  8
0
  6
Continuous
 62
     8
370
    18
100
AcDbLine
 10
932.0546682673
 20
603.9154714537
 30
0.0
 11
932.0546682673
 21
603.9199113782
 31
0.0
  0
LINE
  5
378
330
1F
100
AcDbEntity
  8
0
  6
Continuous
 62
     8
370
    18
100
AcDbLine
 10
932.0546682673
 20
603.9154714537
 30
0.0
 11
879.0487819501
 21
603.9194715242
 31
0.0
  0
LINE
  5
379
330
1F
100
AcDbEntity
  8
0
  6
Continuous
 62
     8
370
    18
100
AcDbLine
 10
886.0546682673
 20
605.6611838457
 30
0.0
 11
978.0546682673
 21
605.6611838457
 31
0.0
  0
LINE
  5
37A
330
1F
100
AcDbEntity
  8
0
  6
Continuous
 62
     8
370
    18
100
AcDbLine
 10
886.0546682673
 20
645.6611838457
 30
0.0
 11
978.0546682673
 21
645.6611838457
 31
0.0
  0
LINE
  5
37B
330
1F
100
AcDbEntity
  8
0
  6
Continuous
 62
     8
370
    18
100
AcDbLine
 10
985.0605545845
 20
647.4028961672
 30
0.0
 11
985.0605552098
 21
647.411183049
 31
0.0
  0
LINE
  5
37C
330
1F
100
AcDbEntity
  8
0
  6
Continuous
 62
     8
370
    18
100
AcDbLine
 10
879.0487819501
 20
647.4028961672
 30
0.0
 11
879.0487813248
 21
647.411183049
 31
0.0
  0
LINE
  5
37D
330
1F
100
AcDbEntity
  8
0
  6
Continuous
 62
     8
370
    18
100
AcDbLine
 10
985.0605545845
 20
603.9194715242
 30
0.0
 11
985.0605552098
 21
603.9111846424
 31
0.0
  0
LINE
  5
37E
330
1F
100
AcDbEntity
  8
0
  6
Continuous
 62
     8
370
    18
100
AcDbLine
 10
879.0487819501
 20
603.9194715242
 30
0.0
 11
879.0487813248
 21
603.9111846424
 31
0.0
  0
LINE
  5
37F
330
1F
100
AcDbEntity
  8
0
  6
Continuous
 62
     8
370
    18
100
AcDbLine
 10
985.0546682673
 20
599.4111838457
 30
0.0
 11
985.0546682673
 21
598.6611838457
 31
0.0
  0
ARC
  5
380
330
1F
100
AcDbEntity
  8
0
  6
Continuous
 62
     8
370
    18
100
AcDbCircle
 10
985.0546682673
 20
625.6611838457
 30
0.0
 40
26.25
100
AcDbArc
 50
270.0
 51
90.0
  0
LINE
  5
381
330
1F
100
AcDbEntity
  8
0
  6
Continuous
 62
     8
370
    18
100
AcDbLine
 10
985.0546682673
 20
651.9111838457
 30
0.0
 11
985.0546682673
 21
652.6611838457
 31
0.0
  0
LINE
  5
382
330
1F
100
AcDbEntity
  8
0
  6
Continuous
 62
     8
370
    18
100
AcDbLine
 10
985.0546682673
 20
603.9111838457
 30
0.0
 11
985.0546682673
 21
599.4111838457
 31
0.0
  0
LINE
  5
383
330
1F
100
AcDbEntity
  8
0
  6
Continuous
 62
     8
370
    18
100
AcDbLine
 10
985.0546682673
 20
647.4111838457
 30
0.0
 11
985.0546682673
 21
651.9111838457
 31
0.0
  0
LINE
  5
384
330
1F
100
AcDbEntity
  8
0
  6
Continuous
 62
     8
370
    18
100
AcDbLine
 10
879.0546682673
 20
651.9111838457
 30
0.0
 11
985.0546682673
 21
651.9111838457
 31
0.0
  0
LINE
  5
385
330
1F
100
AcDbEntity
  8
0
  6
Continuous
 62
     8
370
    18
100
AcDbLine
 10
879.0546682673
 20
651.9111838457
 30
0.0
 11
879.0546682673
 21
652.6611838457
 31
0.0
  0
LINE
  5
386
330
1F
100
AcDbEntity
  8
0
  6
Continuous
 62
     8
370
    18
100
AcDbLine
 10
879.0546682673
 20
647.4111838457
 30
0.0
 11
879.0546682673
 21
651.9111838457
 31
0.0
  0
ARC
  5
387
330
1F
100
AcDbEntity
  8
0
  6
Continuous
 62
     8
370
    18
100
AcDbCircle
 10
879.0546682673
 20
625.6611838457
 30
0.0
 40
26.25
100
AcDbArc
 50
90.0
 51
270.0
  0
LINE
  5
388
330
1F
100
AcDbEntity
  8
0
  6
Continuous
 62
     8
370
    18
100
AcDbLine
 10
879.0546682673
 20
599.4111838457
 30
0.0
 11
879.0546682673
 21
598.6611838457
 31
0.0
  0
LINE
  5
389
330
1F
100
AcDbEntity
  8
0
  6
Continuous
 62
     8
370
    18
100
AcDbLine
 10
879.0546682673
 20
603.9111838457
 30
0.0
 11
879.0546682673
 21
599.4111838457
 31
0.0
  0
LINE
  5
38A
330
1F
100
AcDbEntity
  8
0
  6
Continuous
 62
     8
370
    18
100
AcDbLine
 10
879.0546682673
 20
599.4111838457
 30
0.0
 11
985.0546682673
 21
599.4111838457
 31
0.0
  0
CIRCLE
  5
38B
330
1F
100
AcDbEntity
  8
0
  6
Continuous
 62
     8
370
    18
100
AcDbCircle
 10
932.0546682673
 20
625.6611838457
 30
0.0
 40
3.548336454629634
  0
CIRCLE
  5
38C
330
1F
100
AcDbEntity
  8
0
  6
Continuous
 62
     8
370
    18
100
AcDbCircle
 10
932.0546682673
 20
625.6611838457
 30
0.0
 40
5.614709433546636
  0
ARC
  5
38D
330
1F
100
AcDbEntity
  8
0
  6
Continuous
 62
     8
370
    18
100
AcDbCircle
 10
932.0546682673
 20
625.6611838457
 30
0.0
 40
7.463480267439865
100
AcDbArc
 50
126.4944476701
 51
233.5055523299
  0
ARC
  5
38E
330
1F
100
AcDbEntity
  8
0
  6
Continuous
 62
     8
370
    18
100
AcDbCircle
 10
932.0546682673
 20
625.6611838457
 30
0.0
 40
7.463480267439797
100
AcDbArc
 50
306.4944476701
 51
53.5055523299
  0
ARC
  5
38F
330
1F
100
AcDbEntity
  8
0
  6
Continuous
 62
     8
370
    18
100
AcDbCircle
 10
932.0546682673
 20
625.6611838457
 30
0.0
 40
8.284968901367037
100
AcDbArc
 50
133.5974061618
 51
226.4025938382
  0
ARC
  5
390
330
1F
100
AcDbEntity
  8
0
  6
Continuous
 62
     8
370
    18
100
AcDbCircle
 10
932.0546682673
 20
625.6611838457
 30
0.0
 40
8.284968901367037
100
AcDbArc
 50
313.5974061618
 51
46.4025938382
  0
LINE
  5
391
330
1F
100
AcDbEntity
  8
0
  6
Continuous
 62
     8
370
    18
100
AcDbLine
 10
1273.0546682673
 20
590.6611838457
 30
0.0
 11
1273.0546682673
 21
675.1611838457
 31
0.0
  0
LINE
  5
392
330
1F
100
AcDbEntity
  8
0
  6
Continuous
 62
     8
370
    18
100
AcDbLine
 10
591.0546682673
 20
590.6611838457
 30
0.0
 11
591.0546682673
 21
675.1611838457
 31
0.0
  0
LINE
  5
393
330
1F
100
AcDbEntity
  8
0
  6
Continuous
 62
     8
370
    18
100
AcDbLine
 10
569.5546682673
 20
676.1861838457
 30
0.0
 11
569.5546682673
 21
675.1861838457
 31
0.0
  0
LINE
  5
394
330
1F
100
AcDbEntity
  8
0
  6
Continuous
 62
     8
370
    18
100
AcDbLine
 10
559.5546682673
 20
674.1861838457
 30
0.0
 11
590.0546682673
 21
674.1861838457
 31
0.0
  0
LINE
  5
395
330
1F
100
AcDbEntity
  8
0
  6
Continuous
 62
     8
370
    18
100
AcDbLine
 10
1294.5546682673
 20
675.1861838457
 30
0.0
 11
1294.5546682673
 21
676.1861838457
 31
0.0
  0
LINE
  5
396
330
1F
100
AcDbEntity
  8
0
  6
Continuous
 62
     8
370
    18
100
AcDbLine
 10
1274.0546682673
 20
674.1861838457
 30
0.0
 11
1304.5546682673
 21
674.1861838457
 31
0.0
  0
ENDSEC
  0
SECTION
  2
OBJECTS
  0
DICTIONARY
  5
C
330
0
100
AcDbDictionary
281
     1
  3
ACAD_GROUP
350
D
  3
ACAD_LAYOUT
350
1A
  3
ACAD_MLINESTYLE
350
17
  3
ACAD_PLOTSETTINGS
350
19
  3
ACAD_PLOTSTYLENAME
350
E
  3
ACAD_SCALELIST
350
47
  0
DICTIONARY
  5
D
102
{ACAD_REACTORS
330
C
102
}
330
C
100
AcDbDictionary
281
     1
  0
DICTIONARY
  5
1A
102
{ACAD_REACTORS
330
C
102
}
330
C
100
AcDbDictionary
281
     1
  3
Layout1
350
1E
  3
Layout2
350
26
  3
Model
350
22
  0
DICTIONARY
  5
17
102
{ACAD_REACTORS
330
C
102
}
330
C
100
AcDbDictionary
281
     1
  3
Standard
350
18
  0
DICTIONARY
  5
19
102
{ACAD_REACTORS
330
C
102
}
330
C
100
AcDbDictionary
281
     1
  0
ACDBDICTIONARYWDFLT
  5
E
102
{ACAD_REACTORS
330
C
102
}
330
C
100
AcDbDictionary
281
     1
  3
Normal
350
F
100
AcDbDictionaryWithDefault
340
F
  0
DICTIONARY
  5
47
102
{ACAD_REACTORS
330
C
102
}
330
C
100
AcDbDictionary
281
     1
  3
A0
350
48
  3
A1
350
49
  3
A2
350
4A
  3
A3
350
4B
  3
A4
350
4C
  3
A5
350
4D
  3
A6
350
4E
  3
A7
350
4F
  3
A8
350
50
  3
A9
350
51
  3
B0
350
52
  3
B1
350
53
  3
B2
350
54
  3
B3
350
55
  3
B4
350
56
  3
B5
350
57
  3
B6
350
58
  3
B7
350
59
  3
B8
350
5A
  3
B9
350
5B
  3
C0
350
5C
  3
C1
350
5D
  3
C2
350
5E
  3
C3
350
5F
  3
C4
350
60
  3
C5
350
61
  3
C6
350
62
  3
C7
350
63
  3
C8
350
64
  3
C9
350
65
  3
D0
350
66
  3
D1
350
67
  3
D2
350
68
  0
LAYOUT
  5
1E
102
{ACAD_REACTORS
330
1A
102
}
330
1A
100
AcDbPlotSettings
  1

  2
none_device
  4

  6

 40
0.0
 41
0.0
 42
0.0
 43
0.0
 44
0.0
 45
0.0
 46
0.0
 47
0.0
 48
0.0
 49
0.0
140
0.0
141
0.0
142
1.0
143
1.0
 70
   688
 72
     1
 73
     0
 74
     5
  7

 75
    16
147
1.0
148
0.0
149
0.0
100
AcDbLayout
  1
Layout1
 70
     1
 71
     1
 10
0.0
 20
0.0
 11
420.0
 21
297.0
 12
0.0
 22
0.0
 32
0.0
 14
1.0000000000E+20
 24
1.0000000000E+20
 34
1.0000000000E+20
 15
-1.0000000000E+20
 25
-1.0000000000E+20
 35
-1.0000000000E+20
146
0.0
 13
0.0
 23
0.0
 33
0.0
 16
1.0
 26
0.0
 36
0.0
 17
0.0
 27
1.0
 37
0.0
 76
     0
330
1B
  0
LAYOUT
  5
26
102
{ACAD_REACTORS
330
1A
102
}
330
1A
100
AcDbPlotSettings
  1

  2
none_device
  4

  6

 40
0.0
 41
0.0
 42
0.0
 43
0.0
 44
0.0
 45
0.0
 46
0.0
 47
0.0
 48
0.0
 49
0.0
140
0.0
141
0.0
142
1.0
143
1.0
 70
   688
 72
     1
 73
     0
 74
     5
  7

 75
    16
147
1.0
148
0.0
149
0.0
100
AcDbLayout
  1
Layout2
 70
     1
 71
     2
 10
0.0
 20
0.0
 11
0.0
 21
0.0
 12
0.0
 22
0.0
 32
0.0
 14
0.0
 24
0.0
 34
0.0
 15
0.0
 25
0.0
 35
0.0
146
0.0
 13
0.0
 23
0.0
 33
0.0
 16
1.0
 26
0.0
 36
0.0
 17
0.0
 27
1.0
 37
0.0
 76
     0
330
23
  0
LAYOUT
  5
22
102
{ACAD_REACTORS
330
1A
102
}
330
1A
100
AcDbPlotSettings
  1

  2
none_device
  4
Letter_(8.50_x_11.00_Inches)
  6

 40
6.35
 41
6.35
 42
6.35000508
 43
6.35000508
 44
215.9
 45
279.4
 46
0.0
 47
0.0
 48
0.0
 49
0.0
140
0.0
141
0.0
142
1.0
143
1.0
 70
  1712
 72
     1
 73
     0
 74
     0
  7

 75
     0
147
1.0
148
0.0
149
0.0
100
AcDbLayout
  1
Model
 70
     1
 71
     0
 10
0.0
 20
0.0
 11
2100.0
 21
1485.0
 12
0.0
 22
0.0
 32
0.0
 14
0.0
 24
0.0
 34
0.0
 15
2100.0
 25
1485.0
 35
0.0
146
0.0
 13
0.0
 23
0.0
 33
0.0
 16
1.0
 26
0.0
 36
0.0
 17
0.0
 27
1.0
 37
0.0
 76
     0
330
1F
331
29
  0
MLINESTYLE
  5
18
102
{ACAD_REACTORS
330
17
102
}
330
17
100
AcDbMlineStyle
  2
Standard
 70
     0
  3

 62
   256
 51
90.0
 52
90.0
 71
     2
 49
0.5
 62
   256
  6
BYLAYER
 49
-0.5
 62
   256
  6
BYLAYER
  0
ACDBPLACEHOLDER
  5
F
102
{ACAD_REACTORS
330
E
102
}
330
E
  0
SCALE
  5
48
102
{ACAD_REACTORS
330
47
102
}
330
47
100
AcDbScale
 70
     0
300
1:1
140
1.0
141
1.0
290
     1
  0
SCALE
  5
49
102
{ACAD_REACTORS
330
47
102
}
330
47
100
AcDbScale
 70
     0
300
1:2
140
1.0
141
2.0
290
     0
  0
SCALE
  5
4A
102
{ACAD_REACTORS
330
47
102
}
330
47
100
AcDbScale
 70
     0
300
1:4
140
1.0
141
4.0
290
     0
  0
SCALE
  5
4B
102
{ACAD_REACTORS
330
47
102
}
330
47
100
AcDbScale
 70
     0
300
1:5
140
1.0
141
5.0
290
     0
  0
SCALE
  5
4C
102
{ACAD_REACTORS
330
47
102
}
330
47
100
AcDbScale
 70
     0
300
1:8
140
1.0
141
8.0
290
     0
  0
SCALE
  5
4D
102
{ACAD_REACTORS
330
47
102
}
330
47
100
AcDbScale
 70
     0
300
1:10
140
1.0
141
10.0
290
     0
  0
SCALE
  5
4E
102
{ACAD_REACTORS
330
47
102
}
330
47
100
AcDbScale
 70
     0
300
1:16
140
1.0
141
16.0
290
     0
  0
SCALE
  5
4F
102
{ACAD_REACTORS
330
47
102
}
330
47
100
AcDbScale
 70
     0
300
1:20
140
1.0
141
20.0
290
     0
  0
SCALE
  5
50
102
{ACAD_REACTORS
330
47
102
}
330
47
100
AcDbScale
 70
     0
300
1:30
140
1.0
141
30.0
290
     0
  0
SCALE
  5
51
102
{ACAD_REACTORS
330
47
102
}
330
47
100
AcDbScale
 70
     0
300
1:40
140
1.0
141
40.0
290
     0
  0
SCALE
  5
52
102
{ACAD_REACTORS
330
47
102
}
330
47
100
AcDbScale
 70
     0
300
1:50
140
1.0
141
50.0
290
     0
  0
SCALE
  5
53
102
{ACAD_REACTORS
330
47
102
}
330
47
100
AcDbScale
 70
     0
300
1:100
140
1.0
141
100.0
290
     0
  0
SCALE
  5
54
102
{ACAD_REACTORS
330
47
102
}
330
47
100
AcDbScale
 70
     0
300
2:1
140
2.0
141
1.0
290
     0
  0
SCALE
  5
55
102
{ACAD_REACTORS
330
47
102
}
330
47
100
AcDbScale
 70
     0
300
4:1
140
4.0
141
1.0
290
     0
  0
SCALE
  5
56
102
{ACAD_REACTORS
330
47
102
}
330
47
100
AcDbScale
 70
     0
300
8:1
140
8.0
141
1.0
290
     0
  0
SCALE
  5
57
102
{ACAD_REACTORS
330
47
102
}
330
47
100
AcDbScale
 70
     0
300
10:1
140
10.0
141
1.0
290
     0
  0
SCALE
  5
58
102
{ACAD_REACTORS
330
47
102
}
330
47
100
AcDbScale
 70
     0
300
100:1
140
100.0
141
1.0
290
     0
  0
SCALE
  5
59
102
{ACAD_REACTORS
330
47
102
}
330
47
100
AcDbScale
 70
     0
300
1/128" = 1'-0"
140
0.0078125
141
12.0
290
     0
  0
SCALE
  5
5A
102
{ACAD_REACTORS
330
47
102
}
330
47
100
AcDbScale
 70
     0
300
1/64" = 1'-0"
140
0.015625
141
12.0
290
     0
  0
SCALE
  5
5B
102
{ACAD_REACTORS
330
47
102
}
330
47
100
AcDbScale
 70
     0
300
1/32" = 1'-0"
140
0.03125
141
12.0
290
     0
  0
SCALE
  5
5C
102
{ACAD_REACTORS
330
47
102
}
330
47
100
AcDbScale
 70
     0
300
1/16" = 1'-0"
140
0.0625
141
12.0
290
     0
  0
SCALE
  5
5D
102
{ACAD_REACTORS
330
47
102
}
330
47
100
AcDbScale
 70
     0
300
3/32" = 1'-0"
140
0.09375
141
12.0
290
     0
  0
SCALE
  5
5E
102
{ACAD_REACTORS
330
47
102
}
330
47
100
AcDbScale
 70
     0
300
1/8" = 1'-0"
140
0.125
141
12.0
290
     0
  0
SCALE
  5
5F
102
{ACAD_REACTORS
330
47
102
}
330
47
100
AcDbScale
 70
     0
300
3/16" = 1'-0"
140
0.1875
141
12.0
290
     0
  0
SCALE
  5
60
102
{ACAD_REACTORS
330
47
102
}
330
47
100
AcDbScale
 70
     0
300
1/4" = 1'-0"
140
0.25
141
12.0
290
     0
  0
SCALE
  5
61
102
{ACAD_REACTORS
330
47
102
}
330
47
100
AcDbScale
 70
     0
300
3/8" = 1'-0"
140
0.375
141
12.0
290
     0
  0
SCALE
  5
62
102
{ACAD_REACTORS
330
47
102
}
330
47
100
AcDbScale
 70
     0
300
1/2" = 1'-0"
140
0.5
141
12.0
290
     0
  0
SCALE
  5
63
102
{ACAD_REACTORS
330
47
102
}
330
47
100
AcDbScale
 70
     0
300
3/4" = 1'-0"
140
0.75
141
12.0
290
     0
  0
SCALE
  5
64
102
{ACAD_REACTORS
330
47
102
}
330
47
100
AcDbScale
 70
     0
300
1" = 1'-0"
140
1.0
141
12.0
290
     0
  0
SCALE
  5
65
102
{ACAD_REACTORS
330
47
102
}
330
47
100
AcDbScale
 70
     0
300
1-1/2" = 1'-0"
140
1.5
141
12.0
290
     0
  0
SCALE
  5
66
102
{ACAD_REACTORS
330
47
102
}
330
47
100
AcDbScale
 70
     0
300
3" = 1'-0"
140
3.0
141
12.0
290
     0
  0
SCALE
  5
67
102
{ACAD_REACTORS
330
47
102
}
330
47
100
AcDbScale
 70
     0
300
6" = 1'-0"
140
6.0
141
12.0
290
     0
  0
SCALE
  5
68
102
{ACAD_REACTORS
330
47
102
}
330
47
100
AcDbScale
 70
     0
300
1'-0" = 1'-0"
140
12.0
141
12.0
290
     0
  0
ENDSEC
  0
EOF
