  0
SECTION
  2
HEADER
  9
$ACADVER
  1
AC1015
  9
$ACADMAINTVER
 70
     6
  9
$DWGCODEPAGE
  3
ANSI_1252
  9
$INSBASE
 10
0.0
 20
0.0
 30
0.0
  9
$EXTMIN
 10
0.0
 20
0.0
 30
0.0
  9
$EXTMAX
 10
2100.0
 20
1485.0
 30
0.0
  9
$LIMMIN
 10
0.0
 20
0.0
  9
$LIMMAX
 10
2100.0
 20
1485.0
  9
$ORTHOMODE
 70
     0
  9
$REGENMODE
 70
     1
  9
$FILLMODE
 70
     1
  9
$QTEXTMODE
 70
     0
  9
$MIRRTEXT
 70
     1
  9
$LTSCALE
 40
5.0
  9
$ATTMODE
 70
     1
  9
$TEXTSIZE
 40
12.5
  9
$TRACEWID
 40
1.0
  9
$TEXTSTYLE
  7
Standard
  9
$CLAYER
  8
0
  9
$CELTYPE
  6
ByLayer
  9
$CECOLOR
 62
   256
  9
$CELTSCALE
 40
1.0
  9
$DISPSILH
 70
     0
  9
$DIMSCALE
 40
1.0
  9
$DIMASZ
 40
12.5
  9
$DIMEXO
 40
0.0
  9
$DIMDLI
 40
3.75
  9
$DIMRND
 40
0.0
  9
$DIMDLE
 40
0.0
  9
$DIMEXE
 40
5.0
  9
$DIMTP
 40
0.0
  9
$DIMTM
 40
0.0
  9
$DIMTXT
 40
12.5
  9
$DIMCEN
 40
2.5
  9
$DIMTSZ
 40
0.0
  9
$DIMTOL
 70
     0
  9
$DIMLIM
 70
     0
  9
$DIMTIH
 70
     1
  9
$DIMTOH
 70
     1
  9
$DIMSE1
 70
     0
  9
$DIMSE2
 70
     0
  9
$DIMTAD
 70
     1
  9
$DIMZIN
 70
     0
  9
$DIMBLK
  1

  9
$DIMASO
 70
     1
  9
$DIMSHO
 70
     1
  9
$DIMPOST
  1

  9
$DIMAPOST
  1

  9
$DIMALT
 70
     0
  9
$DIMALTD
 70
     3
  9
$DIMALTF
 40
0.0393700787
  9
$DIMLFAC
 40
1.0
  9
$DIMTOFL
 70
     1
  9
$DIMTVP
 40
0.0
  9
$DIMTIX
 70
     0
  9
$DIMSOXD
 70
     0
  9
$DIMSAH
 70
     0
  9
$DIMBLK1
  1

  9
$DIMBLK2
  1

  9
$DIMSTYLE
  2
ISO-25
  9
$DIMCLRD
 70
     0
  9
$DIMCLRE
 70
     0
  9
$DIMCLRT
 70
     0
  9
$DIMTFAC
 40
1.0
  9
$DIMGAP
 40
7.62
  9
$DIMJUST
 70
     0
  9
$DIMSD1
 70
     0
  9
$DIMSD2
 70
     0
  9
$DIMTOLJ
 70
     0
  9
$DIMTZIN
 70
     0
  9
$DIMALTZ
 70
     0
  9
$DIMALTTZ
 70
     0
  9
$DIMUPT
 70
     0
  9
$DIMDEC
 70
     2
  9
$DIMTDEC
 70
     2
  9
$DIMALTU
 70
     2
  9
$DIMALTTD
 70
     3
  9
$DIMTXSTY
  7
Standard
  9
$DIMAUNIT
 70
     0
  9
$DIMADEC
 70
     2
  9
$DIMALTRND
 40
0.0
  9
$DIMAZIN
 70
     0
  9
$DIMDSEP
 70
    44
  9
$DIMATFIT
 70
     3
  9
$DIMFRAC
 70
     0
  9
$DIMLDRBLK
  1

  9
$DIMLUNIT
 70
     2
  9
$DIMLWD
 70
    -2
  9
$DIMLWE
 70
    -2
  9
$DIMTMOVE
 70
     0
  9
$LUNITS
 70
     2
  9
$LUPREC
 70
     1
  9
$SKETCHINC
 40
1.0
  9
$FILLETRAD
 40
10.0
  9
$AUNITS
 70
     0
  9
$AUPREC
 70
     2
  9
$MENU
  1
.
  9
$ELEVATION
 40
0.0
  9
$PELEVATION
 40
0.0
  9
$THICKNESS
 40
0.0
  9
$LIMCHECK
 70
     0
  9
$CHAMFERA
 40
0.0
  9
$CHAMFERB
 40
0.0
  9
$CHAMFERC
 40
0.0
  9
$CHAMFERD
 40
0.0
  9
$SKPOLY
 70
     0
  9
$TDCREATE
 40
2458907.508040938
  9
$TDUCREATE
 40
2458907.278874271
  9
$TDUPDATE
 40
2458907.508045023
  9
$TDUUPDATE
 40
2458907.278878356
  9
$TDINDWG
 40
0.0000000116
  9
$TDUSRTIMER
 40
0.0000000116
  9
$USRTIMER
 70
     1
  9
$ANGBASE
 50
0.0
  9
$ANGDIR
 70
     0
  9
$PDMODE
 70
     0
  9
$PDSIZE
 40
-1.0
  9
$PLINEWID
 40
0.0
  9
$SPLFRAME
 70
     0
  9
$SPLINETYPE
 70
     6
  9
$SPLINESEGS
 70
     8
  9
$HANDSEED
  5
397
  9
$SURFTAB1
 70
     6
  9
$SURFTAB2
 70
     6
  9
$SURFTYPE
 70
     6
  9
$SURFU
 70
     6
  9
$SURFV
 70
     6
  9
$UCSBASE
  2

  9
$UCSNAME
  2

  9
$UCSORG
 10
0.0
 20
0.0
 30
0.0
  9
$UCSXDIR
 10
1.0
 20
0.0
 30
0.0
  9
$UCSYDIR
 10
0.0
 20
1.0
 30
0.0
  9
$UCSORTHOREF
  2

  9
$UCSORTHOVIEW
 70
     0
  9
$UCSORGTOP
 10
0.0
 20
0.0
 30
0.0
  9
$UCSORGBOTTOM
 10
0.0
 20
0.0
 30
0.0
  9
$UCSORGLEFT
 10
0.0
 20
0.0
 30
0.0
  9
$UCSORGRIGHT
 10
0.0
 20
0.0
 30
0.0
  9
$UCSORGFRONT
 10
0.0
 20
0.0
 30
0.0
  9
$UCSORGBACK
 10
0.0
 20
0.0
 30
0.0
  9
$PUCSBASE
  2

  9
$PUCSNAME
  2

  9
$PUCSORG
 10
0.0
 20
0.0
 30
0.0
  9
$PUCSXDIR
 10
1.0
 20
0.0
 30
0.0
  9
$PUCSYDIR
 10
0.0
 20
1.0
 30
0.0
  9
$PUCSORTHOREF
  2

  9
$PUCSORTHOVIEW
 70
     0
  9
$PUCSORGTOP
 10
0.0
 20
0.0
 30
0.0
  9
$PUCSORGBOTTOM
 10
0.0
 20
0.0
 30
0.0
  9
$PUCSORGLEFT
 10
0.0
 20
0.0
 30
0.0
  9
$PUCSORGRIGHT
 10
0.0
 20
0.0
 30
0.0
  9
$PUCSORGFRONT
 10
0.0
 20
0.0
 30
0.0
  9
$PUCSORGBACK
 10
0.0
 20
0.0
 30
0.0
  9
$USERI1
 70
     0
  9
$USERI2
 70
     0
  9
$USERI3
 70
     0
  9
$USERI4
 70
     0
  9
$USERI5
 70
     0
  9
$USERR1
 40
0.0
  9
$USERR2
 40
0.0
  9
$USERR3
 40
0.0
  9
$USERR4
 40
0.0
  9
$USERR5
 40
0.0
  9
$WORLDVIEW
 70
     1
  9
$SHADEDGE
 70
     3
  9
$SHADEDIF
 70
    70
  9
$TILEMODE
 70
     1
  9
$MAXACTVP
 70
    64
  9
$PINSBASE
 10
0.0
 20
0.0
 30
0.0
  9
$PLIMCHECK
 70
     0
  9
$PEXTMIN
 10
1.0000000000E+20
 20
1.0000000000E+20
 30
1.0000000000E+20
  9
$PEXTMAX
 10
-1.0000000000E+20
 20
-1.0000000000E+20
 30
-1.0000000000E+20
  9
$PLIMMIN
 10
0.0
 20
0.0
  9
$PLIMMAX
 10
420.0
 20
297.0
  9
$UNITMODE
 70
     0
  9
$VISRETAIN
 70
     1
  9
$PLINEGEN
 70
     0
  9
$PSLTSCALE
 70
     1
  9
$TREEDEPTH
 70
  3020
  9
$CMLSTYLE
  2
Standard
  9
$CMLJUST
 70
     0
  9
$CMLSCALE
 40
20.0
  9
$PROXYGRAPHICS
 70
     1
  9
$MEASUREMENT
 70
     1
  9
$CELWEIGHT
370
    -1
  9
$ENDCAPS
280
     0
  9
$JOINSTYLE
280
     0
  9
$LWDISPLAY
290
     1
  9
$INSUNITS
 70
     4
  9
$HYPERLINKBASE
  1

  9
$STYLESHEET
  1

  9
$XEDIT
290
     1
  9
$CEPSNTYPE
380
     0
  9
$PSTYLEMODE
290
     1
  9
$FINGERPRINTGUID
  2
{0646c647-8598-4423-8a2f-ab543d0d1cbc}
  9
$VERSIONGUID
  2
{FAEB1C32-E019-11D5-929B-00C0DF256EC4}
  9
$EXTNAMES
290
     1
  9
$PSVPSCALE
 40
0.0
  9
$OLESTARTUP
290
     0
  0
ENDSEC
  0
SECTION
  2
CLASSES
  0
CLASS
  1
ACDBDICTIONARYWDFLT
  2
AcDbDictionaryWithDefault
  3
ObjectDBX Classes
 90
        0
280
     0
281
     0
  0
CLASS
  1
VISUALSTYLE
  2
AcDbVisualStyle
  3
ObjectDBX Classes
 90
     4095
280
     0
281
     0
  0
CLASS
  1
MATERIAL
  2
AcDbMaterial
  3
ObjectDBX Classes
 90
     1153
280
     0
281
     0
  0
CLASS
  1
SCALE
  2
AcDbScale
  3
ObjectDBX Classes
 90
     1153
280
     0
281
     0
  0
CLASS
  1
TABLESTYLE
  2
AcDbTableStyle
  3
ObjectDBX Classes
 90
     4095
280
     0
281
     0
  0
CLASS
  1
MLEADERSTYLE
  2
AcDbMLeaderStyle
  3
ACDB_MLEADERSTYLE_CLASS
 90
     4095
280
     0
281
     0
  0
CLASS
  1
SUN
  2
AcDbSun
  3
SCENEOE
 90
     1153
280
     0
281
     0
  0
CLASS
  1
ACDBPLACEHOLDER
  2
AcDbPlaceHolder
  3
ObjectDBX Classes
 90
        0
280
     0
281
     0
  0
CLASS
  1
LAYOUT
  2
AcDbLayout
  3
ObjectDBX Classes
 90
        0
280
     0
281
     0
  0
ENDSEC
  0
SECTION
  2
TABLES
  0
TABLE
  2
VPORT
  5
8
330
0
100
AcDbSymbolTable
 70
     1
  0
VPORT
  5
29
330
8
100
AcDbSymbolTableRecord
100
AcDbViewportTableRecord
  2
*Active
 70
     0
 10
0.0
 20
0.0
 11
1.0
 21
1.0
 12
1050.0
 22
742.5
 13
0.0
 23
0.0
 14
10.0
 24
10.0
 15
10.0
 25
10.0
 16
0.0
 26
0.0
 36
1.0
 17
0.0
 27
0.0
 37
0.0
 40
1485.0
 41
1.4141414141
 42
50.0
 43
0.0
 44
0.0
 50
0.0
 51
0.0
 71
     0
 72
  2000
 73
     1
 74
     3
 75
     0
 76
     0
 77
     0
 78
     0
281
     0
 65
     1
110
0.0
120
0.0
130
0.0
111
1.0
121
0.0
131
0.0
112
0.0
122
1.0
132
0.0
 79
     0
146
0.0
  0
ENDTAB
  0
TABLE
  2
LTYPE
  5
5
330
0
100
AcDbSymbolTable
 70
     6
  0
LTYPE
  5
14
330
5
100
AcDbSymbolTableRecord
100
AcDbLinetypeTableRecord
  2
ByBlock
 70
     0
  3

 72
    65
 73
     0
 40
0.0
  0
LTYPE
  5
15
330
5
100
AcDbSymbolTableRecord
100
AcDbLinetypeTableRecord
  2
ByLayer
 70
     0
  3

 72
    65
 73
     0
 40
0.0
  0
LTYPE
  5
16
330
5
100
AcDbSymbolTableRecord
100
AcDbLinetypeTableRecord
  2
Continuous
 70
     0
  3
Solid line
 72
    65
 73
     0
 40
0.0
  0
LTYPE
  5
6E
330
5
100
AcDbSymbolTableRecord
100
AcDbLinetypeTableRecord
  2
HIDDEN
 70
     0
  3
Hidden __ __ __ __ __ __ __ __ __ __ __ __ __ __
 72
    65
 73
     2
 40
1.905
 49
1.27
 74
     0
 49
-0.635
 74
     0
  0
LTYPE
  5
6F
330
5
100
AcDbSymbolTableRecord
100
AcDbLinetypeTableRecord
  2
PHANTOM
 70
     0
  3
Phantom ______  __  __  ______  __  __  ______
 72
    65
 73
     6
 40
12.7
 49
6.35
 74
     0
 49
-1.27
 74
     0
 49
1.27
 74
     0
 49
-1.27
 74
     0
 49
1.27
 74
     0
 49
-1.27
 74
     0
  0
LTYPE
  5
70
330
5
100
AcDbSymbolTableRecord
100
AcDbLinetypeTableRecord
  2
CENTER
 70
     0
  3
Center ____ _ ____ _ ____ _ ____ _ ____ _ ____
 72
    65
 73
     4
 40
10.16
 49
6.35
 74
     0
 49
-1.27
 74
     0
 49
1.27
 74
     0
 49
-1.27
 74
     0
  0
LTYPE
  5
71
330
5
100
AcDbSymbolTableRecord
100
AcDbLinetypeTableRecord
  2
CENTERX2
 70
     0
  3
Center (2x) ________  __  ________  __  _____
 72
    65
 73
     4
 40
20.32
 49
12.7
 74
     0
 49
-2.54
 74
     0
 49
2.54
 74
     0
 49
-2.54
 74
     0
  0
LTYPE
  5
72
330
5
100
AcDbSymbolTableRecord
100
AcDbLinetypeTableRecord
  2
DOT2
 70
     0
  3
Dot (.5x) ........................................
 72
    65
 73
     2
 40
0.635
 49
0.0
 74
     0
 49
-0.635
 74
     0
  0
ENDTAB
  0
TABLE
  2
LAYER
  5
2
330
0
100
AcDbSymbolTable
 70
    10
  0
LAYER
  5
10
330
2
100
AcDbSymbolTableRecord
100
AcDbLayerTableRecord
  2
0
 70
     0
 62
     7
  6
Continuous
370
    -3
390
F
  0
LAYER
  5
73
330
2
100
AcDbSymbolTableRecord
100
AcDbLayerTableRecord
  2
DIMENSION
 70
     0
 62
     7
  6
Continuous
370
    -3
390
F
  0
LAYER
  5
74
330
2
100
AcDbSymbolTableRecord
100
AcDbLayerTableRecord
  2
NOTES
 70
     0
 62
     7
  6
Continuous
370
    -3
390
F
  0
LAYER
  5
75
330
2
100
AcDbSymbolTableRecord
100
AcDbLayerTableRecord
  2
TABLES
 70
     0
 62
     7
  6
Continuous
370
    -3
390
F
  0
LAYER
  5
76
330
2
100
AcDbSymbolTableRecord
100
AcDbLayerTableRecord
  2
INVISIBLE
 70
     0
 62
    -7
  6
Continuous
290
     0
370
    -3
390
F
  0
LAYER
  5
77
330
2
100
AcDbSymbolTableRecord
100
AcDbLayerTableRecord
  2
WEP
 70
     0
 62
  -150
  6
Continuous
290
     0
370
    -3
390
F
  0
LAYER
  5
78
330
2
100
AcDbSymbolTableRecord
100
AcDbLayerTableRecord
  2
EMP
 70
     0
 62
     1
  6
Continuous
370
    -3
390
F
  0
LAYER
  5
79
330
2
100
AcDbSymbolTableRecord
100
AcDbLayerTableRecord
  2
MARKETING_DRW
 70
     0
 62
    -7
  6
Continuous
290
     0
370
    -3
390
F
  0
LAYER
  5
7A
330
2
100
AcDbSymbolTableRecord
100
AcDbLayerTableRecord
  2
SINGLE_ARTICLE_DRW
 70
     0
 62
     7
  6
Continuous
370
    -3
390
F
  0
LAYER
  5
7B
330
2
100
AcDbSymbolTableRecord
100
AcDbLayerTableRecord
  2
TABLE_DRW
 70
     0
 62
    -7
  6
Continuous
290
     0
370
    -3
390
F
  0
ENDTAB
  0
TABLE
  2
STYLE
  5
3
330
0
100
AcDbSymbolTable
 70
     2
  0
STYLE
  5
11
330
3
100
AcDbSymbolTableRecord
100
AcDbTextStyleTableRecord
  2
Standard
 70
     0
 40
0.0
 41
1.0
 50
0.0
 71
     0
 42
12.5
  3
txt
  4

  0
STYLE
  5
B5
330
3
100
AcDbSymbolTableRecord
100
AcDbTextStyleTableRecord
  2
SLDTEXTSTYLE0
 70
     0
 40
0.0
 41
0.605
 50
0.0
 71
     0
 42
12.5
  3
TXT
  4

  0
ENDTAB
  0
TABLE
  2
VIEW
  5
6
330
0
100
AcDbSymbolTable
 70
     0
  0
ENDTAB
  0
TABLE
  2
UCS
  5
7
330
0
100
AcDbSymbolTable
 70
     0
  0
ENDTAB
  0
TABLE
  2
APPID
  5
9
330
0
100
AcDbSymbolTable
 70
     1
  0
APPID
  5
12
330
9
100
AcDbSymbolTableRecord
100
AcDbRegAppTableRecord
  2
ACAD
 70
     0
  0
ENDTAB
  0
TABLE
  2
DIMSTYLE
  5
A
330
0
100
AcDbSymbolTable
 70
     1
100
AcDbDimStyleTable
  0
DIMSTYLE
105
27
330
A
100
AcDbSymbolTableRecord
100
AcDbDimStyleTableRecord
  2
ISO-25
 70
     0
 41
2.5
 42
0.625
 43
3.75
 44
1.25
 73
     0
 74
     0
 77
     1
 78
     8
140
2.5
141
2.5
143
0.0393700787
147
0.625
171
     3
172
     1
178
     0
271
     2
272
     2
274
     3
278
    44
283
     0
284
     8
340
11
  0
ENDTAB
  0
TABLE
  2
BLOCK_RECORD
  5
1
330
0
100
AcDbSymbolTable
 70
     3
  0
BLOCK_RECORD
  5
1F
330
1
100
AcDbSymbolTableRecord
100
AcDbBlockTableRecord
  2
*Model_Space
340
22
  0
BLOCK_RECORD
  5
1B
330
1
100
AcDbSymbolTableRecord
100
AcDbBlockTableRecord
  2
*Paper_Space
340
1E
  0
BLOCK_RECORD
  5
23
330
1
100
AcDbSymbolTableRecord
100
AcDbBlockTableRecord
  2
*Paper_Space0
340
26
  0
BLOCK_RECORD
  5
BF
330
1
100
AcDbSymbolTableRecord
100
AcDbBlockTableRecord
  2
SW_NOTE_0
340
0
102
{BLKREFS
331
C5
102
}
  0
BLOCK_RECORD
  5
E8
330
1
100
AcDbSymbolTableRecord
100
AcDbBlockTableRecord
  2
SW_NOTE_0_1
340
0
102
{BLKREFS
331
EE
102
}
  0
ENDTAB
  0
ENDSEC
  0
SECTION
  2
BLOCKS
  0
BLOCK
  5
20
330
1F
100
AcDbEntity
  8
0
100
AcDbBlockBegin
  2
*Model_Space
 70
     0
 10
0.0
 20
0.0
 30
0.0
  3
*Model_Space
  1

  0
ENDBLK
  5
21
330
1F
100
AcDbEntity
  8
0
100
AcDbBlockEnd
  0
BLOCK
  5
1C
330
1B
100
AcDbEntity
 67
     1
  8
0
100
AcDbBlockBegin
  2
*Paper_Space
 70
     0
 10
0.0
 20
0.0
 30
0.0
  3
*Paper_Space
  1

  0
ENDBLK
  5
1D
330
1B
100
AcDbEntity
 67
     1
  8
0
100
AcDbBlockEnd
  0
BLOCK
  5
24
330
23
100
AcDbEntity
  8
0
100
AcDbBlockBegin
  2
*Paper_Space0
 70
     0
 10
0.0
 20
0.0
 30
0.0
  3
*Paper_Space0
  1

  0
ENDBLK
  5
25
330
23
100
AcDbEntity
  8
0
100
AcDbBlockEnd
  0
BLOCK
  5
C0
330
BF
100
AcDbEntity
  8
0
100
AcDbBlockBegin
  2
SW_NOTE_0
 70
     0
 10
0.0
 20
0.0
 30
0.0
  3
SW_NOTE_0
  1

  0
MTEXT
  5
C2
330
BF
100
AcDbEntity
  8
TABLE_DRW
 62
     0
100
AcDbMText
 10
0.0
 20
11.6016096579
 30
0.0
 40
9.0
 41
0.0
 71
     1
 72
     1
  1
The reproduction, distribution and utilization of this document as well as the communication of its contents to
  7
SLDTEXTSTYLE0
 73
     1
 44
1.0
  0
MTEXT
  5
C3
330
BF
100
AcDbEntity
  8
TABLE_DRW
 62
     0
100
AcDbMText
 10
0.0
 20
0.0016098055
 30
0.0
 40
9.0
 41
0.0
 71
     1
 72
     1
  1
others without express authorization is prohibited. Offenders will be held liable for the payment of damages.
  7
SLDTEXTSTYLE0
 73
     1
 44
1.0
  0
MTEXT
  5
C4
330
BF
100
AcDbEntity
  8
TABLE_DRW
 62
     0
100
AcDbMText
 10
0.0
 20
-11.598390047
 30
0.0
 40
9.0
 41
0.0
 71
     1
 72
     1
  1
All rights reserved in the event of the grant of a patent, utility model or design. Observe copyright by ISO 16016
  7
SLDTEXTSTYLE0
 73
     1
 44
1.0
  0
ENDBLK
  5
C1
330
BF
100
AcDbEntity
  8
0
100
AcDbBlockEnd
  0
BLOCK
  5
E9
330
E8
100
AcDbEntity
  8
0
100
AcDbBlockBegin
  2
SW_NOTE_0_1
 70
     0
 10
0.0
 20
0.0
 30
0.0
  3
SW_NOTE_0_1
  1

  0
MTEXT
  5
EB
330
E8
100
AcDbEntity
  8
MARKETING_DRW
 62
     0
100
AcDbMText
 10
0.0
 20
11.6016096579
 30
0.0
 40
9.0
 41
0.0
 71
     1
 72
     1
  1
The reproduction, distribution and utilization of this document as well as the communication of its contents to
  7
SLDTEXTSTYLE0
 73
     1
 44
1.0
  0
MTEXT
  5
EC
330
E8
100
AcDbEntity
  8
MARKETING_DRW
 62
     0
100
AcDbMText
 10
0.0
 20
-0.0233903849
 30
0.0
 40
9.0
 41
0.0
 71
     1
 72
     1
  1
others without express authorization is prohibited. Offenders will be held liable for the payment of damages.
  7
SLDTEXTSTYLE0
 73
     1
 44
1.0
  0
MTEXT
  5
ED
330
E8
100
AcDbEntity
  8
MARKETING_DRW
 62
     0
100
AcDbMText
 10
0.0
 20
-11.6483904277
 30
0.0
 40
9.0
 41
0.0
 71
     1
 72
     1
  1
All rights reserved in the event of the grant of a patent, utility model or design. Observe copyright by ISO 16016
  7
SLDTEXTSTYLE0
 73
     1
 44
1.0
  0
ENDBLK
  5
EA
330
E8
100
AcDbEntity
  8
0
100
AcDbBlockEnd
  0
ENDSEC
  0
SECTION
  2
ENTITIES
  0
LINE
  5
7C
330
1F
100
AcDbEntity
  8
TABLE_DRW
  6
CENTERX2
 62
     7
100
AcDbLine
 10
1955.0
 20
200.0
 30
0.0
 11
1980.0
 21
200.0
 31
0.0
  0
LINE
  5
7D
330
1F
100
AcDbEntity
  8
TABLE_DRW
  6
CENTERX2
 62
     7
100
AcDbLine
 10
1967.5
 20
212.5
 30
0.0
 11
1967.5
 21
187.5
 31
0.0
  0
LINE
  5
7E
330
1F
100
AcDbEntity
  8
TABLE_DRW
  6
CENTERX2
 62
     7
100
AcDbLine
 10
1915.0
 20
200.0
 30
0.0
 11
1950.0
 21
200.0
 31
0.0
  0
LINE
  5
7F
330
1F
100
AcDbEntity
  8
TABLE_DRW
 62
     7
100
AcDbLine
 10
1920.0
 20
194.95
 30
0.0
 11
1945.0
 21
190.0
 31
0.0
  0
LINE
  5
80
330
1F
100
AcDbEntity
  8
TABLE_DRW
 62
     7
100
AcDbLine
 10
1920.0
 20
205.05
 30
0.0
 11
1920.0
 21
194.95
 31
0.0
  0
LINE
  5
81
330
1F
100
AcDbEntity
  8
TABLE_DRW
 62
     7
100
AcDbLine
 10
1945.0
 20
210.0
 30
0.0
 11
1920.0
 21
205.05
 31
0.0
  0
LINE
  5
82
330
1F
100
AcDbEntity
  8
TABLE_DRW
 62
     7
100
AcDbLine
 10
1945.0
 20
190.0
 30
0.0
 11
1945.0
 21
210.0
 31
0.0
  0
LINE
  5
83
330
1F
100
AcDbEntity
  8
TABLE_DRW
 62
     7
100
AcDbLine
 10
2050.0
 20
50.0
 30
0.0
 11
2050.0
 21
340.0
 31
0.0
  0
LINE
  5
84
330
1F
100
AcDbEntity
  8
TABLE_DRW
 62
     7
100
AcDbLine
 10
1150.0
 20
340.0
 30
0.0
 11
1150.0
 21
50.0
 31
0.0
  0
LINE
  5
85
330
1F
100
AcDbEntity
  8
TABLE_DRW
 62
     7
100
AcDbLine
 10
1700.0
 20
95.0
 30
0.0
 11
1700.0
 21
50.0
 31
0.0
  0
LINE
  5
86
330
1F
100
AcDbEntity
  8
TABLE_DRW
 62
     7
100
AcDbLine
 10
1850.0
 20
50.0
 30
0.0
 11
1850.0
 21
95.0
 31
0.0
  0
LINE
  5
87
330
1F
100
AcDbEntity
  8
TABLE_DRW
 62
     7
100
AcDbLine
 10
2000.0
 20
95.0
 30
0.0
 11
2000.0
 21
50.0
 31
0.0
  0
LINE
  5
88
330
1F
100
AcDbEntity
  8
TABLE_DRW
 62
     7
100
AcDbLine
 10
1900.0
 20
320.0
 30
0.0
 11
1900.0
 21
185.0
 31
0.0
  0
LINE
  5
89
330
1F
100
AcDbEntity
  8
TABLE_DRW
 62
     7
100
AcDbLine
 10
2050.0
 20
320.0
 30
0.0
 11
1150.0
 21
320.0
 31
0.0
  0
LINE
  5
8A
330
1F
100
AcDbEntity
  8
TABLE_DRW
 62
     7
100
AcDbLine
 10
1800.0
 20
95.0
 30
0.0
 11
1800.0
 21
50.0
 31
0.0
  0
LINE
  5
8B
330
1F
100
AcDbEntity
  8
TABLE_DRW
 62
     7
100
AcDbLine
 10
2050.0
 20
275.0
 30
0.0
 11
1400.0
 21
275.0
 31
0.0
  0
LINE
  5
8C
330
1F
100
AcDbEntity
  8
TABLE_DRW
 62
     7
100
AcDbLine
 10
1650.0
 20
230.0
 30
0.0
 11
1650.0
 21
185.0
 31
0.0
  0
LINE
  5
8D
330
1F
100
AcDbEntity
  8
TABLE_DRW
 62
     7
100
AcDbLine
 10
2050.0
 20
230.0
 30
0.0
 11
1400.0
 21
230.0
 31
0.0
  0
LINE
  5
8E
330
1F
100
AcDbEntity
  8
TABLE_DRW
 62
     7
100
AcDbLine
 10
1400.0
 20
320.0
 30
0.0
 11
1400.0
 21
185.0
 31
0.0
  0
LINE
  5
8F
330
1F
100
AcDbEntity
  8
TABLE_DRW
 62
     7
100
AcDbLine
 10
2000.0
 20
230.0
 30
0.0
 11
2000.0
 21
185.0
 31
0.0
  0
LINE
  5
90
330
1F
100
AcDbEntity
  8
TABLE_DRW
 62
     7
100
AcDbLine
 10
2050.0
 20
95.0
 30
0.0
 11
1150.0
 21
95.0
 31
0.0
  0
LINE
  5
91
330
1F
100
AcDbEntity
  8
TABLE_DRW
 62
     7
100
AcDbLine
 10
1650.0
 20
275.0
 30
0.0
 11
1650.0
 21
320.0
 31
0.0
  0
LINE
  5
92
330
1F
100
AcDbEntity
  8
TABLE_DRW
 62
     7
100
AcDbLine
 10
1150.0
 20
340.0
 30
0.0
 11
2050.0
 21
340.0
 31
0.0
  0
LINE
  5
93
330
1F
100
AcDbEntity
  8
TABLE_DRW
 62
     7
100
AcDbLine
 10
1150.0
 20
185.0
 30
0.0
 11
2050.0
 21
185.0
 31
0.0
  0
LINE
  5
94
330
1F
100
AcDbEntity
  8
TABLE_DRW
 62
     7
100
AcDbLine
 10
1150.0
 20
50.0
 30
0.0
 11
2050.0
 21
50.0
 31
0.0
  0
LINE
  5
95
330
1F
100
AcDbEntity
  8
TABLE_DRW
 62
     7
100
AcDbLine
 10
1400.0
 20
275.0
 30
0.0
 11
1150.0
 21
275.0
 31
0.0
  0
LINE
  5
96
330
1F
100
AcDbEntity
  8
MARKETING_DRW
  6
CENTERX2
100
AcDbLine
 10
1955.0
 20
200.0
 30
0.0
 11
1980.0
 21
200.0
 31
0.0
  0
LINE
  5
97
330
1F
100
AcDbEntity
  8
MARKETING_DRW
  6
CENTERX2
100
AcDbLine
 10
1967.5
 20
212.5
 30
0.0
 11
1967.5
 21
187.5
 31
0.0
  0
LINE
  5
98
330
1F
100
AcDbEntity
  8
MARKETING_DRW
  6
CENTERX2
100
AcDbLine
 10
1915.0
 20
200.0
 30
0.0
 11
1950.0
 21
200.0
 31
0.0
  0
LINE
  5
99
330
1F
100
AcDbEntity
  8
MARKETING_DRW
100
AcDbLine
 10
1920.0
 20
194.95
 30
0.0
 11
1945.0
 21
190.0
 31
0.0
  0
LINE
  5
9A
330
1F
100
AcDbEntity
  8
MARKETING_DRW
100
AcDbLine
 10
1920.0
 20
205.05
 30
0.0
 11
1920.0
 21
194.95
 31
0.0
  0
LINE
  5
9B
330
1F
100
AcDbEntity
  8
MARKETING_DRW
100
AcDbLine
 10
1945.0
 20
210.0
 30
0.0
 11
1920.0
 21
205.05
 31
0.0
  0
LINE
  5
9C
330
1F
100
AcDbEntity
  8
MARKETING_DRW
100
AcDbLine
 10
1945.0
 20
190.0
 30
0.0
 11
1945.0
 21
210.0
 31
0.0
  0
LINE
  5
9D
330
1F
100
AcDbEntity
  8
MARKETING_DRW
100
AcDbLine
 10
2050.0
 20
50.0
 30
0.0
 11
2050.0
 21
230.0
 31
0.0
  0
LINE
  5
9E
330
1F
100
AcDbEntity
  8
MARKETING_DRW
100
AcDbLine
 10
1150.0
 20
50.0
 30
0.0
 11
2050.0
 21
50.0
 31
0.0
  0
LINE
  5
9F
330
1F
100
AcDbEntity
  8
MARKETING_DRW
100
AcDbLine
 10
1150.0
 20
275.0
 30
0.0
 11
1150.0
 21
50.0
 31
0.0
  0
LINE
  5
A0
330
1F
100
AcDbEntity
  8
MARKETING_DRW
100
AcDbLine
 10
1150.0
 20
275.0
 30
0.0
 11
1650.0
 21
275.0
 31
0.0
  0
LINE
  5
A1
330
1F
100
AcDbEntity
  8
MARKETING_DRW
 62
     7
100
AcDbLine
 10
1850.0
 20
50.0
 30
0.0
 11
1850.0
 21
95.0
 31
0.0
  0
LINE
  5
A2
330
1F
100
AcDbEntity
  8
MARKETING_DRW
100
AcDbLine
 10
2000.0
 20
95.0
 30
0.0
 11
2000.0
 21
50.0
 31
0.0
  0
LINE
  5
A3
330
1F
100
AcDbEntity
  8
MARKETING_DRW
100
AcDbLine
 10
1650.0
 20
275.0
 30
0.0
 11
1650.0
 21
230.0
 31
0.0
  0
LINE
  5
A4
330
1F
100
AcDbEntity
  8
MARKETING_DRW
100
AcDbLine
 10
2050.0
 20
230.0
 30
0.0
 11
1400.0
 21
230.0
 31
0.0
  0
LINE
  5
A5
330
1F
100
AcDbEntity
  8
MARKETING_DRW
100
AcDbLine
 10
1400.0
 20
275.0
 30
0.0
 11
1400.0
 21
185.0
 31
0.0
  0
LINE
  5
A6
330
1F
100
AcDbEntity
  8
MARKETING_DRW
100
AcDbLine
 10
2000.0
 20
230.0
 30
0.0
 11
2000.0
 21
185.0
 31
0.0
  0
LINE
  5
A7
330
1F
100
AcDbEntity
  8
MARKETING_DRW
100
AcDbLine
 10
2050.0
 20
95.0
 30
0.0
 11
1150.0
 21
95.0
 31
0.0
  0
LINE
  5
A8
330
1F
100
AcDbEntity
  8
MARKETING_DRW
100
AcDbLine
 10
1150.0
 20
185.0
 30
0.0
 11
2050.0
 21
185.0
 31
0.0
  0
LINE
  5
A9
330
1F
100
AcDbEntity
  8
MARKETING_DRW
100
AcDbLine
 10
1150.0
 20
50.0
 30
0.0
 11
2050.0
 21
50.0
 31
0.0
  0
LINE
  5
AA
330
1F
100
AcDbEntity
  8
MARKETING_DRW
100
AcDbLine
 10
1900.0
 20
230.0
 30
0.0
 11
1900.0
 21
185.0
 31
0.0
  0
LINE
  5
AB
330
1F
100
AcDbEntity
  8
MARKETING_DRW
100
AcDbLine
 10
1650.0
 20
275.0
 30
0.0
 11
1900.0
 21
275.0
 31
0.0
  0
LINE
  5
AC
330
1F
100
AcDbEntity
  8
MARKETING_DRW
100
AcDbLine
 10
1900.0
 20
275.0
 30
0.0
 11
1900.0
 21
230.0
 31
0.0
  0
LINE
  5
AD
330
1F
100
AcDbEntity
  8
MARKETING_DRW
100
AcDbLine
 10
1900.0
 20
275.0
 30
0.0
 11
2050.0
 21
275.0
 31
0.0
  0
LINE
  5
AE
330
1F
100
AcDbEntity
  8
MARKETING_DRW
100
AcDbLine
 10
2050.0
 20
275.0
 30
0.0
 11
2050.0
 21
230.0
 31
0.0
  0
LINE
  5
AF
330
1F
100
AcDbEntity
  8
MARKETING_DRW
100
AcDbLine
 10
1825.0
 20
275.0
 30
0.0
 11
1825.0
 21
230.0
 31
0.0
  0
LINE
  5
B0
330
1F
100
AcDbEntity
  8
MARKETING_DRW
100
AcDbLine
 10
1650.0
 20
230.0
 30
0.0
 11
1650.0
 21
185.0
 31
0.0
  0
CIRCLE
  5
B1
330
1F
100
AcDbEntity
  8
TABLE_DRW
 62
     7
100
AcDbCircle
 10
1967.5
 20
200.0
 30
0.0
 40
5.000000000000224
  0
CIRCLE
  5
B2
330
1F
100
AcDbEntity
  8
TABLE_DRW
 62
     7
100
AcDbCircle
 10
1967.5
 20
200.0
 30
0.0
 40
10.00000000000024
  0
CIRCLE
  5
B3
330
1F
100
AcDbEntity
  8
MARKETING_DRW
100
AcDbCircle
 10
1967.5
 20
200.0
 30
0.0
 40
5.000000000000224
  0
CIRCLE
  5
B4
330
1F
100
AcDbEntity
  8
MARKETING_DRW
100
AcDbCircle
 10
1967.5
 20
200.0
 30
0.0
 40
10.00000000000024
  0
MTEXT
  5
B6
330
1F
100
AcDbEntity
  8
TABLE_DRW
100
AcDbMText
 10
1905.0
 20
294.9675136777
 30
0.0
 40
12.5
 41
0.0
 71
     1
 72
     1
  1
see table
  7
SLDTEXTSTYLE0
 73
     1
 44
1.0
  0
MTEXT
  5
B7
330
1F
100
AcDbEntity
  8
TABLE_DRW
100
AcDbMText
 10
1155.0
 20
334.9766099061
 30
0.0
 40
9.0
 41
0.0
 71
     1
 72
     1
  1
modification:
  7
SLDTEXTSTYLE0
 73
     1
 44
1.0
  0
MTEXT
  5
B8
330
1F
100
AcDbEntity
  8
TABLE_DRW
100
AcDbMText
 10
1405.0
 20
249.9675136777
 30
0.0
 40
12.5
 41
0.0
 71
     1
 72
     1
  1
see table
  7
SLDTEXTSTYLE0
 73
     1
 44
1.0
  0
MTEXT
  5
B9
330
1F
100
AcDbEntity
  8
TABLE_DRW
100
AcDbMText
 10
1155.0
 20
159.9675136777
 30
0.0
 40
12.5
 41
0.0
 71
     1
 72
     1
  1
ACO ShowerDrain
  7
SLDTEXTSTYLE0
 73
     1
 44
1.0
  0
MTEXT
  5
BA
330
1F
100
AcDbEntity
  8
TABLE_DRW
100
AcDbMText
 10
1824.7395830229
 20
69.9675136777
 30
0.0
 40
12.5
 41
0.0
 71
     2
 72
     1
  1
001
  7
SLDTEXTSTYLE0
 73
     1
 44
1.0
  0
MTEXT
  5
BB
330
1F
100
AcDbEntity
  8
TABLE_DRW
100
AcDbMText
 10
1749.0407964215
 20
69.9675136777
 30
0.0
 40
12.5
 41
0.0
 71
     2
 72
     1
  1
1088278-O
  7
SLDTEXTSTYLE0
 73
     1
 44
1.0
  0
MTEXT
  5
BC
330
1F
100
AcDbEntity
  8
TABLE_DRW
100
AcDbMText
 10
1155.0
 20
295.0022357116
 30
0.0
 40
12.5
 41
0.0
 71
     1
 72
     1
  1
Bohms, Michael
  7
SLDTEXTSTYLE0
 73
     1
 44
1.0
  0
MTEXT
  5
BD
330
1F
100
AcDbEntity
  8
TABLE_DRW
100
AcDbMText
 10
1155.0
 20
137.4675136777
 30
0.0
 40
12.5
 41
0.0
 71
     1
 72
     1
  1
ASM Shower Channel C with WA and gap, with DN40 side outlet, with FAT GV25 L580, International
  7
SLDTEXTSTYLE0
 73
     1
 44
1.0
  0
MTEXT
  5
BE
330
1F
100
AcDbEntity
  8
TABLE_DRW
100
AcDbMText
 10
1155.0
 20
114.9675136777
 30
0.0
 40
12.5
 41
0.0
 71
     1
 72
     1
  1
ZB Duschrinne C mit Spalt, mit Wandaufkantung, mit DN40 Seite Auslass, mit FAT GV25 L580, International
  7
SLDTEXTSTYLE0
 73
     1
 44
1.0
  0
INSERT
  5
C5
330
1F
100
AcDbEntity
  8
TABLE_DRW
100
AcDbBlockReference
  2
SW_NOTE_0
 10
1155.0
 20
78.4000001475
 30
0.0
  0
MTEXT
  5
C6
330
1F
100
AcDbEntity
  8
TABLE_DRW
100
AcDbMText
 10
1405.0
 20
224.9766099061
 30
0.0
 40
9.0
 41
0.0
 71
     1
 72
     1
  1
created by:
  7
SLDTEXTSTYLE0
 73
     1
 44
1.0
  0
MTEXT
  5
C7
330
1F
100
AcDbEntity
  8
TABLE_DRW
100
AcDbMText
 10
1655.0
 20
314.9766099061
 30
0.0
 40
9.0
 41
0.0
 71
     1
 72
     1
  1
surface:
  7
SLDTEXTSTYLE0
 73
     1
 44
1.0
  0
MTEXT
  5
C8
330
1F
100
AcDbEntity
  8
TABLE_DRW
100
AcDbMText
 10
2024.8750000875
 20
224.9766099061
 30
0.0
 40
9.0
 41
0.0
 71
     2
 72
     1
  1
scale:
  7
SLDTEXTSTYLE0
 73
     1
 44
1.0
  0
MTEXT
  5
C9
330
1F
100
AcDbEntity
  8
TABLE_DRW
100
AcDbMText
 10
1905.0
 20
314.9766099061
 30
0.0
 40
9.0
 41
0.0
 71
     1
 72
     1
  1
weight:
  7
SLDTEXTSTYLE0
 73
     1
 44
1.0
  0
MTEXT
  5
CA
330
1F
100
AcDbEntity
  8
TABLE_DRW
100
AcDbMText
 10
1749.034373872
 20
89.9766099061
 30
0.0
 40
9.0
 41
0.0
 71
     2
 72
     1
  1
drawing-no.:
  7
SLDTEXTSTYLE0
 73
     1
 44
1.0
  0
MTEXT
  5
CB
330
1F
100
AcDbEntity
  8
TABLE_DRW
100
AcDbMText
 10
1905.0
 20
269.9766099061
 30
0.0
 40
9.0
 41
0.0
 71
     1
 72
     1
  1
documenttype:
  7
SLDTEXTSTYLE0
 73
     1
 44
1.0
  0
MTEXT
  5
CC
330
1F
100
AcDbEntity
  8
TABLE_DRW
100
AcDbMText
 10
1824.8125000894
 20
89.9766099061
 30
0.0
 40
9.0
 41
0.0
 71
     2
 72
     1
  1
index:
  7
SLDTEXTSTYLE0
 73
     1
 44
1.0
  0
MTEXT
  5
CD
330
1F
100
AcDbEntity
  8
TABLE_DRW
100
AcDbMText
 10
1655.0
 20
224.9766099061
 30
0.0
 40
9.0
 41
0.0
 71
     1
 72
     1
  1
reviewed by:
  7
SLDTEXTSTYLE0
 73
     1
 44
1.0
  0
MTEXT
  5
CE
330
1F
100
AcDbEntity
  8
TABLE_DRW
100
AcDbMText
 10
1855.0
 20
89.9766099061
 30
0.0
 40
9.0
 41
0.0
 71
     1
 72
     1
  1
release date:
  7
SLDTEXTSTYLE0
 73
     1
 44
1.0
  0
MTEXT
  5
CF
330
1F
100
AcDbEntity
  8
TABLE_DRW
100
AcDbMText
 10
2024.7500000913
 20
89.9766099061
 30
0.0
 40
9.0
 41
0.0
 71
     2
 72
     1
  1
sheet:
  7
SLDTEXTSTYLE0
 73
     1
 44
1.0
  0
MTEXT
  5
D0
330
1F
100
AcDbEntity
  8
TABLE_DRW
100
AcDbMText
 10
1905.0
 20
224.9766099061
 30
0.0
 40
9.0
 41
0.0
 71
     1
 72
     1
  1
projection:ISO-E
  7
SLDTEXTSTYLE0
 73
     1
 44
1.0
  0
MTEXT
  5
D1
330
1F
100
AcDbEntity
  8
TABLE_DRW
100
AcDbMText
 10
1405.0
 20
269.9766099061
 30
0.0
 40
9.0
 41
0.0
 71
     1
 72
     1
  1
material:
  7
SLDTEXTSTYLE0
 73
     1
 44
1.0
  0
MTEXT
  5
D2
330
1F
100
AcDbEntity
  8
TABLE_DRW
100
AcDbMText
 10
1905.0
 20
249.9675136777
 30
0.0
 40
12.5
 41
0.0
 71
     1
 72
     1
  1
production drw.
  7
SLDTEXTSTYLE0
 73
     1
 44
1.0
  0
MTEXT
  5
D3
330
1F
100
AcDbEntity
  8
TABLE_DRW
100
AcDbMText
 10
1405.0
 20
314.9766099061
 30
0.0
 40
9.0
 41
0.0
 71
     1
 72
     1
  1
general tolerance:
  7
SLDTEXTSTYLE0
 73
     1
 44
1.0
  0
MTEXT
  5
D4
330
1F
100
AcDbEntity
  8
TABLE_DRW
100
AcDbMText
 10
2024.7829862405
 20
204.9675136777
 30
0.0
 40
12.5
 41
0.0
 71
     2
 72
     1
  1
1:5
  7
SLDTEXTSTYLE0
 73
     1
 44
1.0
  0
MTEXT
  5
D5
330
1F
100
AcDbEntity
  8
TABLE_DRW
100
AcDbMText
 10
2024.7829862405
 20
69.9675136777
 30
0.0
 40
12.5
 41
0.0
 71
     2
 72
     1
  1
1/1
  7
SLDTEXTSTYLE0
 73
     1
 44
1.0
  0
MTEXT
  5
D6
330
1F
100
AcDbEntity
  8
TABLE_DRW
100
AcDbMText
 10
1155.0
 20
314.9766099061
 30
0.0
 40
9.0
 41
0.0
 71
     1
 72
     1
  1
technical reference:
  7
SLDTEXTSTYLE0
 73
     1
 44
1.0
  0
MTEXT
  5
D7
330
1F
100
AcDbEntity
  8
TABLE_DRW
100
AcDbMText
 10
1155.0
 20
179.9766099061
 30
0.0
 40
9.0
 41
0.0
 71
     1
 72
     1
  1
title:
  7
SLDTEXTSTYLE0
 73
     1
 44
1.0
  0
MTEXT
  5
D8
330
1F
100
AcDbEntity
  8
MARKETING_DRW
100
AcDbMText
 10
1155.0
 20
114.9675136777
 30
0.0
 40
12.5
 41
0.0
 71
     1
 72
     1
  1
ZB Duschrinne C mit Spalt, mit Wandaufkantung, mit DN40 Seite Auslass, mit FAT GV25 L580, International
  7
SLDTEXTSTYLE0
 73
     1
 44
1.0
  0
MTEXT
  5
D9
330
1F
100
AcDbEntity
  8
MARKETING_DRW
100
AcDbMText
 10
1155.0
 20
137.4675136777
 30
0.0
 40
12.5
 41
0.0
 71
     1
 72
     1
  1
ASM Shower Channel C with WA and gap, with DN40 side outlet, with FAT GV25 L580, International
  7
SLDTEXTSTYLE0
 73
     1
 44
1.0
  0
MTEXT
  5
DA
330
1F
100
AcDbEntity
  8
MARKETING_DRW
100
AcDbMText
 10
1736.5407964215
 20
249.9675136777
 30
0.0
 40
12.5
 41
0.0
 71
     2
 72
     1
  1
1088278-O
  7
SLDTEXTSTYLE0
 73
     1
 44
1.0
  0
MTEXT
  5
DB
330
1F
100
AcDbEntity
  8
MARKETING_DRW
100
AcDbMText
 10
1862.2395830229
 20
252.0971433073
 30
0.0
 40
12.5
 41
0.0
 71
     2
 72
     1
  1
001
  7
SLDTEXTSTYLE0
 73
     1
 44
1.0
  0
MTEXT
  5
DC
330
1F
100
AcDbEntity
  8
MARKETING_DRW
100
AcDbMText
 10
1155.0
 20
159.9675136777
 30
0.0
 40
12.5
 41
0.0
 71
     1
 72
     1
  1
ACO ShowerDrain
  7
SLDTEXTSTYLE0
 73
     1
 44
1.0
  0
MTEXT
  5
DD
330
1F
100
AcDbEntity
  8
MARKETING_DRW
100
AcDbMText
 10
1905.0
 20
269.9766099061
 30
0.0
 40
9.0
 41
0.0
 71
     1
 72
     1
  1
documenttype:
  7
SLDTEXTSTYLE0
 73
     1
 44
1.0
  0
MTEXT
  5
DE
330
1F
100
AcDbEntity
  8
MARKETING_DRW
100
AcDbMText
 10
1655.0
 20
224.9766099061
 30
0.0
 40
9.0
 41
0.0
 71
     1
 72
     1
  1
reviewed by:
  7
SLDTEXTSTYLE0
 73
     1
 44
1.0
  0
MTEXT
  5
DF
330
1F
100
AcDbEntity
  8
MARKETING_DRW
100
AcDbMText
 10
1736.534373872
 20
270.0578764559
 30
0.0
 40
9.0
 41
0.0
 71
     2
 72
     1
  1
drawing-no.:
  7
SLDTEXTSTYLE0
 73
     1
 44
1.0
  0
MTEXT
  5
E0
330
1F
100
AcDbEntity
  8
MARKETING_DRW
100
AcDbMText
 10
1905.0
 20
224.9766099061
 30
0.0
 40
9.0
 41
0.0
 71
     1
 72
     1
  1
projection:ISO-E
  7
SLDTEXTSTYLE0
 73
     1
 44
1.0
  0
MTEXT
  5
E1
330
1F
100
AcDbEntity
  8
MARKETING_DRW
100
AcDbMText
 10
2024.7500000913
 20
89.9766099061
 30
0.0
 40
9.0
 41
0.0
 71
     2
 72
     1
  1
sheet:
  7
SLDTEXTSTYLE0
 73
     1
 44
1.0
  0
MTEXT
  5
E2
330
1F
100
AcDbEntity
  8
MARKETING_DRW
100
AcDbMText
 10
2024.7829862405
 20
69.9675136777
 30
0.0
 40
12.5
 41
0.0
 71
     2
 72
     1
  1
1/1
  7
SLDTEXTSTYLE0
 73
     1
 44
1.0
  0
MTEXT
  5
E3
330
1F
100
AcDbEntity
  8
MARKETING_DRW
100
AcDbMText
 10
1855.0
 20
89.9766099061
 30
0.0
 40
9.0
 41
0.0
 71
     1
 72
     1
  1
release date:
  7
SLDTEXTSTYLE0
 73
     1
 44
1.0
  0
MTEXT
  5
E4
330
1F
100
AcDbEntity
  8
MARKETING_DRW
100
AcDbMText
 10
1862.3125000894
 20
269.9766099061
 30
0.0
 40
9.0
 41
0.0
 71
     2
 72
     1
  1
index:
  7
SLDTEXTSTYLE0
 73
     1
 44
1.0
  0
MTEXT
  5
E5
330
1F
100
AcDbEntity
  8
MARKETING_DRW
100
AcDbMText
 10
1155.0
 20
179.9766099061
 30
0.0
 40
9.0
 41
0.0
 71
     1
 72
     1
  1
title:
  7
SLDTEXTSTYLE0
 73
     1
 44
1.0
  0
MTEXT
  5
E6
330
1F
100
AcDbEntity
  8
MARKETING_DRW
100
AcDbMText
 10
2024.8750000875
 20
224.9766099061
 30
0.0
 40
9.0
 41
0.0
 71
     2
 72
     1
  1
scale:
  7
SLDTEXTSTYLE0
 73
     1
 44
1.0
  0
MTEXT
  5
E7
330
1F
100
AcDbEntity
  8
MARKETING_DRW
100
AcDbMText
 10
2024.7829862405
 20
204.9675136777
 30
0.0
 40
12.5
 41
0.0
 71
     2
 72
     1
  1
1:5
  7
SLDTEXTSTYLE0
 73
     1
 44
1.0
  0
INSERT
  5
EE
330
1F
100
AcDbEntity
  8
MARKETING_DRW
100
AcDbBlockReference
  2
SW_NOTE_0_1
 10
1155.0
 20
78.3750002482
 30
0.0
  0
MTEXT
  5
EF
330
1F
100
AcDbEntity
  8
MARKETING_DRW
100
AcDbMText
 10
1905.0
 20
249.9675136777
 30
0.0
 40
12.5
 41
0.0
 71
     1
 72
     1
  1
marketing drw.
  7
SLDTEXTSTYLE0
 73
     1
 44
1.0
  0
MTEXT
  5
F0
330
1F
100
AcDbEntity
  8
MARKETING_DRW
100
AcDbMText
 10
1405.0
 20
224.9766099061
 30
0.0
 40
9.0
 41
0.0
 71
     1
 72
     1
  1
created by:
  7
SLDTEXTSTYLE0
 73
     1
 44
1.0
  0
LINE
  5
F1
330
1F
100
AcDbEntity
  8
0
  6
Continuous
 62
     7
370
    35
100
AcDbLine
 10
1222.0546682673
 20
998.6112793807
 30
0.0
 11
642.0546682673
 21
998.6112793807
 31
0.0
  0
LINE
  5
F2
330
1F
100
AcDbEntity
  8
0
  6
Continuous
 62
     7
370
    35
100
AcDbLine
 10
851.0546682673
 20
978.5197236188
 30
0.0
 11
851.0546682673
 21
975.6116793807
 31
0.0
  0
LINE
  5
F3
330
1F
100
AcDbEntity
  8
0
  6
Continuous
 62
     7
370
    35
100
AcDbLine
 10
1013.0546682673
 20
975.6116793807
 30
0.0
 11
1013.0546682673
 21
978.5197236188
 31
0.0
  0
ARC
  5
F4
330
1F
100
AcDbEntity
  8
0
  6
Continuous
 62
     7
370
    35
100
AcDbCircle
 10
849.0546682673
 20
978.513290301
 30
0.0
 40
2.00000000000007
100
AcDbArc
 50
0.1603835477
 51
88.7916387136
  0
ARC
  5
F5
330
1F
100
AcDbEntity
  8
0
  6
Continuous
 62
     7
370
    35
100
AcDbCircle
 10
1015.0546682673
 20
978.513290301
 30
0.0
 40
2.000000000000099
100
AcDbArc
 50
91.1928878275
 51
179.8251412338
  0
LINE
  5
F6
330
1F
100
AcDbEntity
  8
0
  6
Continuous
 62
     7
370
    35
100
AcDbLine
 10
1015.0138474552
 20
980.512890301
 30
0.0
 11
1222.0546682673
 21
980.512890301
 31
0.0
  0
LINE
  5
F7
330
1F
100
AcDbEntity
  8
0
  6
Continuous
 62
     7
370
    35
100
AcDbLine
 10
642.0546682673
 20
980.512890301
 30
0.0
 11
849.0954890792
 21
980.512890301
 31
0.0
  0
LINE
  5
F8
330
1F
100
AcDbEntity
  8
0
  6
Continuous
 62
     7
370
    35
100
AcDbLine
 10
1003.7462475646
 20
929.1616793807
 30
0.0
 11
1020.5546682673
 21
929.1616793807
 31
0.0
  0
LINE
  5
F9
330
1F
100
AcDbEntity
  8
0
  6
Continuous
 62
     7
370
    35
100
AcDbLine
 10
1020.5546682673
 20
969.1616793807
 30
0.0
 11
1016.9754891918
 21
969.1616793807
 31
0.0
  0
LINE
  5
FA
330
1F
100
AcDbEntity
  8
0
  6
Continuous
 62
     7
370
    35
100
AcDbLine
 10
1020.5546682673
 20
929.1616793807
 30
0.0
 11
1060.2486167251
 21
929.1616793807
 31
0.0
  0
LINE
  5
FB
330
1F
100
AcDbEntity
  8
0
  6
Continuous
 62
     7
370
    35
100
AcDbLine
 10
1060.2486167251
 20
969.1616793807
 30
0.0
 11
1020.5546682673
 21
969.1616793807
 31
0.0
  0
ARC
  5
FC
330
1F
100
AcDbEntity
  8
0
  6
Continuous
 62
     7
370
    35
100
AcDbCircle
 10
1060.248616725
 20
966.1616793807
 30
0.0
 40
3.0
100
AcDbArc
 50
78.3499964745
 51
90.0
  0
ARC
  5
FD
330
1F
100
AcDbEntity
  8
0
  6
Continuous
 62
     7
370
    35
100
AcDbCircle
 10
1060.248616725
 20
932.1616793807
 30
0.0
 40
3.000000000000092
100
AcDbArc
 50
270.0
 51
281.6500035255
  0
LINE
  5
FE
330
1F
100
AcDbEntity
  8
0
  6
Continuous
 62
     7
370
    35
100
AcDbLine
 10
1060.8544149613
 20
929.2234812088
 30
0.0
 11
1065.5546682673
 21
930.1925802948
 31
0.0
  0
LINE
  5
FF
330
1F
100
AcDbEntity
  8
0
  6
Continuous
 62
     7
370
    35
100
AcDbLine
 10
1065.5546682673
 20
968.1307784666
 30
0.0
 11
1060.8544149613
 21
969.0998775525
 31
0.0
  0
LINE
  5
100
330
1F
100
AcDbEntity
  8
0
  6
Continuous
 62
     7
370
    35
100
AcDbLine
 10
1222.0546682673
 20
986.6112793807
 30
0.0
 11
642.0546682673
 21
986.6112793807
 31
0.0
  0
LINE
  5
101
330
1F
100
AcDbEntity
  8
0
  6
Continuous
 62
     7
370
    35
100
AcDbLine
 10
1222.0546682673
 20
985.6112793807
 30
0.0
 11
1222.0546682673
 21
986.6112793807
 31
0.0
  0
LINE
  5
102
330
1F
100
AcDbEntity
  8
0
  6
Continuous
 62
     7
370
    35
100
AcDbLine
 10
642.0546682673
 20
985.6112793807
 30
0.0
 11
642.0546682673
 21
986.6112793807
 31
0.0
  0
LINE
  5
103
330
1F
100
AcDbEntity
  8
0
  6
Continuous
 62
     7
370
    35
100
AcDbLine
 10
1222.0546682673
 20
985.6112793807
 30
0.0
 11
642.0546682673
 21
985.6112793807
 31
0.0
  0
LINE
  5
104
330
1F
100
AcDbEntity
  8
0
  6
Continuous
 62
     7
370
    35
100
AcDbLine
 10
642.0546682673
 20
987.6112793807
 30
0.0
 11
642.0546682673
 21
986.6112793807
 31
0.0
  0
LINE
  5
105
330
1F
100
AcDbEntity
  8
0
  6
Continuous
 62
     7
370
    35
100
AcDbLine
 10
1222.0546682673
 20
986.6112793807
 30
0.0
 11
1222.0546682673
 21
987.6112793807
 31
0.0
  0
LINE
  5
106
330
1F
100
AcDbEntity
  8
0
  6
Continuous
 62
     7
370
    35
100
AcDbLine
 10
1222.0546682673
 20
997.1112793807
 30
0.0
 11
1222.0546682673
 21
987.6112793807
 31
0.0
  0
LINE
  5
107
330
1F
100
AcDbEntity
  8
0
  6
Continuous
 62
     7
370
    35
100
AcDbLine
 10
642.0546682673
 20
987.6112793807
 30
0.0
 11
642.0546682673
 21
997.1112793807
 31
0.0
  0
LINE
  5
108
330
1F
100
AcDbEntity
  8
0
  6
Continuous
 62
     7
370
    35
100
AcDbLine
 10
642.0546682673
 20
997.6112793807
 30
0.0
 11
642.0546682673
 21
998.6112793807
 31
0.0
  0
LINE
  5
109
330
1F
100
AcDbEntity
  8
0
  6
Continuous
 62
     7
370
    35
100
AcDbLine
 10
1222.0546682673
 20
998.6112793807
 30
0.0
 11
1222.0546682673
 21
997.6112793807
 31
0.0
  0
LINE
  5
10A
330
1F
100
AcDbEntity
  8
0
  6
Continuous
 62
     7
370
    35
100
AcDbLine
 10
1222.0546682673
 20
984.27319787
 30
0.0
 11
1222.0546682673
 21
985.6112793807
 31
0.0
  0
LINE
  5
10B
330
1F
100
AcDbEntity
  8
0
  6
Continuous
 62
     7
370
    35
100
AcDbLine
 10
642.0546682673
 20
984.27319787
 30
0.0
 11
642.0546682673
 21
985.6112793807
 31
0.0
  0
LINE
  5
10C
330
1F
100
AcDbEntity
  8
0
  6
Continuous
 62
     7
370
    35
100
AcDbLine
 10
642.0546682673
 20
983.5132636623
 30
0.0
 11
642.0546682673
 21
984.27319787
 31
0.0
  0
LINE
  5
10D
330
1F
100
AcDbEntity
  8
0
  6
Continuous
 62
     7
370
    35
100
AcDbLine
 10
1222.0546682673
 20
983.5132636623
 30
0.0
 11
1222.0546682673
 21
984.27319787
 31
0.0
  0
SPLINE
  5
10E
330
1F
100
AcDbEntity
  8
0
  6
Continuous
 62
     7
370
    35
100
AcDbSpline
210
0.0
220
0.0
230
1.0
 70
     8
 71
     3
 72
    14
 73
    10
 74
     0
 42
0.000000001
 43
0.00000001
 40
0.0
 40
0.0
 40
0.0
 40
0.0
 40
0.2499999999999999
 40
0.2499999999999999
 40
0.4999999999999999
 40
0.4999999999999999
 40
0.7499999999999999
 40
0.7499999999999999
 40
1.0
 40
1.0
 40
1.0
 40
1.0
 10
1015.013844375979
 20
980.5161069598971
 30
0.0
 10
1014.988620280429
 20
980.7053542860464
 30
0.0
 10
1014.402443800045
 20
980.8942739000545
 30
0.0
 10
1012.171052462001
 20
981.2510109491815
 30
0.0
 10
1010.526794879113
 20
981.418666287379
 30
0.0
 10
1006.358266294452
 20
981.7143231753548
 30
0.0
 10
1003.835765417069
 20
981.8421923576497
 30
0.0
 10
998.1878030477818
 20
982.0440184222234
 30
0.0
 10
995.0648118922105
 20
982.1178843415895
 30
0.0
 10
991.8129021486693
 20
982.1606403899925
 30
0.0
  0
SPLINE
  5
10F
330
1F
100
AcDbEntity
  8
0
  6
Continuous
 62
     7
370
    35
100
AcDbSpline
210
0.0
220
0.0
230
1.0
 70
     8
 71
     3
 72
    16
 73
    12
 74
     0
 42
0.000000001
 43
0.00000001
 40
0.0
 40
0.0
 40
0.0
 40
0.0
 40
0.0624999999999992
 40
0.0624999999999992
 40
0.1249999999999984
 40
0.1249999999999984
 40
0.2499999999999969
 40
0.2499999999999969
 40
0.4999999999999969
 40
0.4999999999999969
 40
1.0
 40
1.0
 40
1.0
 40
1.0
 10
991.8129021486133
 20
982.1606403899779
 30
0.0
 10
991.6744369796525
 20
982.1624609274259
 30
0.0
 10
991.534017144593
 20
982.163135645853
 30
0.0
 10
991.253179915936
 20
982.1644865138843
 30
0.0
 10
991.1125434563274
 20
982.1650342476928
 30
0.0
 10
990.6905042641778
 20
982.1666013529631
 30
0.0
 10
990.4089546502865
 20
982.1675073122361
 30
0.0
 10
989.564287198063
 20
982.1700232480697
 30
0.0
 10
989.0009692392812
 20
982.1713993183992
 30
0.0
 10
987.3104668433323
 20
982.1747267247002
 30
0.0
 10
986.1825807757706
 20
982.1758517000416
 30
0.0
 10
985.0546682672936
 20
982.1758517000416
 30
0.0
  0
LINE
  5
110
330
1F
100
AcDbEntity
  8
0
  6
Continuous
 62
     7
370
    35
100
AcDbLine
 10
985.0546682673
 20
982.1758517
 30
0.0
 11
879.0546682673
 21
982.1758517
 31
0.0
  0
SPLINE
  5
111
330
1F
100
AcDbEntity
  8
0
  6
Continuous
 62
     7
370
    35
100
AcDbSpline
210
0.0
220
0.0
230
1.0
 70
     8
 71
     3
 72
    16
 73
    12
 74
     0
 42
0.000000001
 43
0.00000001
 40
0.0
 40
0.0
 40
0.0
 40
0.0
 40
0.5000000000000031
 40
0.5000000000000031
 40
0.7500000000000031
 40
0.7500000000000031
 40
0.8750000000000016
 40
0.8750000000000016
 40
0.9375000000000007
 40
0.9375000000000007
 40
1.0
 40
1.0
 40
1.0
 40
1.0
 10
879.0546682672936
 20
982.1758517000416
 30
0.0
 10
877.9267182456288
 20
982.1758517000416
 30
0.0
 10
876.7991765154763
 20
982.1747272221891
 30
0.0
 10
875.1084597405305
 20
982.1713995535605
 30
0.0
 10
874.5449725836226
 20
982.1700230764106
 30
0.0
 10
873.70019148154
 20
982.1675067166099
 30
0.0
 10
873.4186521472769
 20
982.1666007617877
 30
0.0
 10
872.9965785575614
 20
982.1650334122764
 30
0.0
 10
872.8558995707392
 20
982.1644854658484
 30
0.0
 10
872.5750610547694
 20
982.1631342144746
 30
0.0
 10
872.4346437796542
 20
982.1624575644975
 30
0.0
 10
872.2964343859737
 20
982.1606403899779
 30
0.0
  0
SPLINE
  5
112
330
1F
100
AcDbEntity
  8
0
  6
Continuous
 62
     7
370
    35
100
AcDbSpline
210
0.0
220
0.0
230
1.0
 70
     8
 71
     3
 72
    14
 73
    10
 74
     0
 42
0.000000001
 43
0.00000001
 40
0.0
 40
0.0
 40
0.0
 40
0.0
 40
0.25
 40
0.25
 40
0.5
 40
0.5
 40
0.75
 40
0.75
 40
1.0
 40
1.0
 40
1.0
 40
1.0
 10
872.2964343858868
 20
982.1606403899991
 30
0.0
 10
869.0445246513258
 20
982.1178843417141
 30
0.0
 10
865.9215571894067
 20
982.0440193675187
 30
0.0
 10
860.2735251454831
 20
981.842190616562
 30
0.0
 10
857.7510608762432
 20
981.7143226446151
 30
0.0
 10
853.5825345312055
 20
981.4186656486795
 30
0.0
 10
851.9382643531122
 20
981.2510080434912
 30
0.0
 10
849.7069036984755
 20
980.894275406001
 30
0.0
 10
849.1207162542416
 20
980.7053542856385
 30
0.0
 10
849.0954921587471
 20
980.5161069598965
 30
0.0
  0
LINE
  5
113
330
1F
100
AcDbEntity
  8
0
  6
Continuous
 62
     7
370
    35
100
AcDbLine
 10
851.0546682673
 20
975.6116793807
 30
0.0
 11
879.0546682673
 21
975.6116793807
 31
0.0
  0
LINE
  5
114
330
1F
100
AcDbEntity
  8
0
  6
Continuous
 62
     7
370
    35
100
AcDbLine
 10
985.0546682673
 20
975.6116793807
 30
0.0
 11
1006.2088246166
 21
975.6116793807
 31
0.0
  0
LINE
  5
115
330
1F
100
AcDbEntity
  8
0
  6
Continuous
 62
     7
370
    35
100
AcDbLine
 10
1006.8438745341
 20
975.6116793807
 30
0.0
 11
1013.0546682673
 21
975.6116793807
 31
0.0
  0
LINE
  5
116
330
1F
100
AcDbEntity
  8
0
  6
Continuous
 62
     7
370
    35
100
AcDbLine
 10
879.0546682673
 20
975.6116793807
 30
0.0
 11
985.0546682673
 21
975.6116793807
 31
0.0
  0
LINE
  5
117
330
1F
100
AcDbEntity
  8
0
  6
Continuous
 62
     7
370
    35
100
AcDbLine
 10
1222.0546682673
 20
998.6112793807
 30
0.0
 11
642.0546682673
 21
998.6112793807
 31
0.0
  0
LINE
  5
118
330
1F
100
AcDbEntity
  8
0
  6
Continuous
 62
     7
370
    35
100
AcDbLine
 10
642.0546682673
 20
999.6112793807
 30
0.0
 11
642.0546682673
 21
998.6112793807
 31
0.0
  0
LINE
  5
119
330
1F
100
AcDbEntity
  8
0
  6
Continuous
 62
     7
370
    35
100
AcDbLine
 10
1222.0546682673
 20
998.6112793807
 30
0.0
 11
1222.0546682673
 21
999.6112793807
 31
0.0
  0
LINE
  5
11A
330
1F
100
AcDbEntity
  8
0
  6
Continuous
 62
     7
370
    35
100
AcDbLine
 10
642.0546682673
 20
1029.1112793807
 30
0.0
 11
1222.0546682673
 21
1029.1112793807
 31
0.0
  0
LINE
  5
11B
330
1F
100
AcDbEntity
  8
0
  6
Continuous
 62
     7
370
    35
100
AcDbLine
 10
642.0546682673
 20
999.6112793807
 30
0.0
 11
642.0546682673
 21
1029.1112793807
 31
0.0
  0
LINE
  5
11C
330
1F
100
AcDbEntity
  8
0
  6
Continuous
 62
     7
370
    35
100
AcDbLine
 10
1222.0546682673
 20
1029.1112793807
 30
0.0
 11
1222.0546682673
 21
999.6112793807
 31
0.0
  0
ARC
  5
11D
330
1F
100
AcDbEntity
  8
0
  6
Continuous
 62
     7
370
    35
100
AcDbCircle
 10
932.0546682673
 20
949.1616793807
 30
0.0
 40
19.99999999999994
100
AcDbArc
 50
242.7578274734
 51
297.2421725266
  0
SPLINE
  5
11E
330
1F
100
AcDbEntity
  8
0
  6
Continuous
 62
     7
370
    35
100
AcDbSpline
210
0.0
220
0.0
230
1.0
 70
     8
 71
     3
 72
    23
 73
    19
 74
     0
 42
0.000000001
 43
0.00000001
 40
0.0
 40
0.0
 40
0.0
 40
0.0
 40
0.0758439674746771
 40
0.0948049593331006
 40
0.1128914355571508
 40
0.1336676542610442
 40
0.1567718346598146
 40
0.2022013669991164
 40
0.2424816341995565
 40
0.2818986298408125
 40
0.3206021944779496
 40
0.3951163817032061
 40
0.4632081862901961
 40
0.525187367065296
 40
0.5924928344462234
 40
0.7259812554141616
 40
0.8620429027987468
 40
1.0
 40
1.0
 40
1.0
 40
1.0
 10
850.5546682672929
 20
975.6116793806783
 30
0.0
 10
850.5386637436725
 20
974.5079094406549
 30
0.0
 10
850.5186580891491
 20
973.1281970157744
 30
0.0
 10
850.584169265499
 20
971.5288528673309
 30
0.0
 10
850.4389167866345
 20
970.622422668551
 30
0.0
 10
849.5294470064745
 20
970.2562588864386
 30
0.0
 10
848.5330256975321
 20
969.4626080039308
 30
0.0
 10
847.5365515133253
 20
968.185975466275
 30
0.0
 10
846.9542603568291
 20
966.4662503695494
 30
0.0
 10
846.3316739063345
 20
964.8742317820696
 30
0.0
 10
845.5824877566054
 20
962.7989529342224
 30
0.0
 10
844.7234011963607
 20
960.3249182926353
 30
0.0
 10
843.8146111367913
 20
957.5078838941905
 30
0.0
 10
843.2695473253722
 20
954.7020424342767
 30
0.0
 10
842.9281614209616
 20
950.9130052043773
 30
0.0
 10
843.3163826929293
 20
946.027312638323
 30
0.0
 10
844.9957782088842
 20
940.3064301899614
 30
0.0
 10
847.1428621668022
 20
936.9590783787902
 30
0.0
 10
848.2238300791595
 20
935.2738252772971
 30
0.0
  0
SPLINE
  5
11F
330
1F
100
AcDbEntity
  8
0
  6
Continuous
 62
     7
370
    35
100
AcDbSpline
210
0.0
220
0.0
230
1.0
 70
    24
 71
     3
 72
    19
 73
    15
 74
     0
 42
0.000000001
 43
0.00000001
 40
0.0
 40
0.0
 40
0.0
 40
0.0
 40
0.2409129494906415
 40
0.4882585144584847
 40
0.5391714996611944
 40
0.5899404470637042
 40
0.6400693113877666
 40
0.689988748568498
 40
0.7400419491330567
 40
0.7904190815941289
 40
0.8413201881352521
 40
0.8929676782752882
 40
0.9456873804469081
 40
1.0
 40
1.0
 40
1.0
 40
1.0
 10
932.0546682672934
 20
975.6116793806783
 30
0.0
 10
924.2086272658505
 20
975.6116793806783
 30
0.0
 10
908.3070481608481
 20
975.6116793806783
 30
0.0
 10
890.7416236410467
 20
975.6116793806783
 30
0.0
 10
879.3797348941176
 20
975.6116793806785
 30
0.0
 10
874.4239696758008
 20
975.6116793806782
 30
0.0
 10
869.6396089164562
 20
975.6116793806782
 30
0.0
 10
865.1560309514516
 20
975.6116793806783
 30
0.0
 10
861.0777806664809
 20
975.6116793806783
 30
0.0
 10
857.5045287234697
 20
975.6116793806783
 30
0.0
 10
854.538122979062
 20
975.6116793806783
 30
0.0
 10
852.3080967595845
 20
975.6116793806783
 30
0.0
 10
850.8347866625927
 20
975.6116793806783
 30
0.0
 10
850.6489629115084
 20
975.6116793806783
 30
0.0
 10
850.5546682672929
 20
975.6116793806783
 30
0.0
  0
SPLINE
  5
120
330
1F
100
AcDbEntity
  8
0
  6
Continuous
 62
     7
370
    35
100
AcDbSpline
210
0.0
220
0.0
230
1.0
 70
    24
 71
     3
 72
    19
 73
    15
 74
     0
 42
0.000000001
 43
0.00000001
 40
0.0
 40
0.0
 40
0.0
 40
0.0
 40
0.2409129494906415
 40
0.4882585144584847
 40
0.5391714996611942
 40
0.589940447063704
 40
0.6400693113877652
 40
0.6899887485684957
 40
0.7400419491330545
 40
0.7904190815941272
 40
0.8413201881352516
 40
0.8929676782752881
 40
0.945687380446908
 40
1.0
 40
1.0
 40
1.0
 40
1.0
 10
932.0546682672934
 20
975.6116793806783
 30
0.0
 10
939.9007092687363
 20
975.6116793806783
 30
0.0
 10
955.8022883737385
 20
975.6116793806783
 30
0.0
 10
973.36771289354
 20
975.6116793806783
 30
0.0
 10
984.729601640469
 20
975.6116793806783
 30
0.0
 10
989.6853668587858
 20
975.611679380678
 30
0.0
 10
994.4697276181305
 20
975.611679380678
 30
0.0
 10
998.9533055831347
 20
975.6116793806783
 30
0.0
 10
1003.031555868105
 20
975.6116793806783
 30
0.0
 10
1006.604807811117
 20
975.6116793806783
 30
0.0
 10
1009.571213555524
 20
975.6116793806782
 30
0.0
 10
1011.801239775002
 20
975.6116793806782
 30
0.0
 10
1013.274549871994
 20
975.6116793806782
 30
0.0
 10
1013.460373623078
 20
975.6116793806782
 30
0.0
 10
1013.554668267294
 20
975.6116793806782
 30
0.0
  0
SPLINE
  5
121
330
1F
100
AcDbEntity
  8
0
  6
Continuous
 62
     7
370
    35
100
AcDbSpline
210
0.0
220
0.0
230
1.0
 70
     8
 71
     3
 72
    12
 73
     8
 74
     0
 42
0.000000001
 43
0.00000001
 40
0.0
 40
0.0
 40
0.0
 40
0.0
 40
0.5113573105439742
 40
0.63919663811089
 40
0.7611397820034679
 40
0.8740152375255761
 40
1.0
 40
1.0
 40
1.0
 40
1.0
 10
1013.554668267294
 20
975.6116793806782
 30
0.0
 10
1013.569374273322
 20
974.507148870651
 30
0.0
 10
1013.587756780855
 20
973.1264857332661
 30
0.0
 10
1013.527560815192
 20
971.5302548193565
 30
0.0
 10
1013.651715614167
 20
970.6806497806044
 30
0.0
 10
1014.409018927007
 20
970.3332964202875
 30
0.0
 10
1014.816418367632
 20
970.0341233807018
 30
0.0
 10
1015.031297689898
 20
969.8763271405112
 30
0.0
  0
SPLINE
  5
122
330
1F
100
AcDbEntity
  8
0
  6
Continuous
 62
     7
370
    35
100
AcDbSpline
210
0.0
220
0.0
230
1.0
 70
     8
 71
     3
 72
    12
 73
     8
 74
     0
 42
0.000000001
 43
0.00000001
 40
0.0
 40
0.0
 40
0.0
 40
0.0
 40
0.0187022824907647
 40
0.2635054426144017
 40
0.5085219380108149
 40
0.7541594978531967
 40
1.0
 40
1.0
 40
1.0
 40
1.0
 10
1014.991894604164
 20
969.7079403028484
 30
0.0
 10
1014.991958832151
 20
969.710091758453
 30
0.0
 10
1014.992863771105
 20
969.7404046500291
 30
0.0
 10
1014.994970871283
 20
969.7902998407039
 30
0.0
 10
1015.001343632171
 20
969.8406418475606
 30
0.0
 10
1015.012192474072
 20
969.8714306654076
 30
0.0
 10
1015.024927531759
 20
969.8746945329019
 30
0.0
 10
1015.031297689898
 20
969.8763271405112
 30
0.0
  0
SPLINE
  5
123
330
1F
100
AcDbEntity
  8
0
  6
Continuous
 62
     7
370
    35
100
AcDbSpline
210
0.0
220
0.0
230
1.0
 70
     8
 71
     3
 72
    13
 73
     9
 74
     0
 42
0.000000001
 43
0.00000001
 40
0.0
 40
0.0
 40
0.0
 40
0.0
 40
0.1771815196505904
 40
0.3595140594802962
 40
0.536691256885091
 40
0.7189759962167964
 40
0.85828470464849
 40
1.0
 40
1.0
 40
1.0
 40
1.0
 10
848.2238300791595
 20
935.2738252772971
 30
0.0
 10
848.7506338787746
 20
934.6275469937464
 30
0.0
 10
849.8195567152126
 20
933.3162018278877
 30
0.0
 10
851.8034325349806
 20
931.733015288308
 30
0.0
 10
854.0226925102716
 20
930.4704941998283
 30
0.0
 10
856.2379854317996
 20
929.6780916001534
 30
0.0
 10
858.3767941841788
 20
929.2370952818806
 30
0.0
 10
859.697221489014
 20
929.1869611246159
 30
0.0
 10
860.3630889699971
 20
929.1616793806784
 30
0.0
  0
SPLINE
  5
124
330
1F
100
AcDbEntity
  8
0
  6
Continuous
 62
     7
370
    35
100
AcDbSpline
210
0.0
220
0.0
230
1.0
 70
    24
 71
     3
 72
    19
 73
    15
 74
     0
 42
0.000000001
 43
0.00000001
 40
0.0
 40
0.0
 40
0.0
 40
0.0
 40
0.0382207566244326
 40
0.091549429249133
 40
0.144891582893153
 40
0.1929664281754636
 40
0.2410362644725347
 40
0.285827979099648
 40
0.3305899947618055
 40
0.3739481339232544
 40
0.4173762879190904
 40
0.6722423197123578
 40
0.9271575473554003
 40
1.0
 40
1.0
 40
1.0
 40
1.0
 10
860.3630889699971
 20
929.1616793806784
 30
0.0
 10
860.5287654455248
 20
929.1616793806784
 30
0.0
 10
860.9256070602421
 20
929.1616793806783
 30
0.0
 10
862.2982786791472
 20
929.1616793806784
 30
0.0
 10
864.3818021393772
 20
929.1616793806785
 30
0.0
 10
866.9661997206596
 20
929.1616793806784
 30
0.0
 10
869.8316168385159
 20
929.1616793806783
 30
0.0
 10
872.9956959993559
 20
929.1616793806784
 30
0.0
 10
876.3349375350743
 20
929.1616793806783
 30
0.0
 10
879.8787260781727
 20
929.1616793806784
 30
0.0
 10
889.3630362945688
 20
929.1616793806783
 30
0.0
 10
904.7403762057993
 20
929.1616793806783
 30
0.0
 10
920.9267202799081
 20
929.1616793806783
 30
0.0
 10
930.031236526596
 20
929.1616793806783
 30
0.0
 10
932.0546682672934
 20
929.1616793806783
 30
0.0
  0
SPLINE
  5
125
330
1F
100
AcDbEntity
  8
0
  6
Continuous
 62
     7
370
    35
100
AcDbSpline
210
0.0
220
0.0
230
1.0
 70
    24
 71
     3
 72
    19
 73
    15
 74
     0
 42
0.000000001
 43
0.00000001
 40
0.0
 40
0.0
 40
0.0
 40
0.0
 40
0.0382184429616671
 40
0.0907526742552611
 40
0.1448883276233768
 40
0.1924047757928804
 40
0.2410289232739617
 40
0.2852702899838298
 40
0.3305791993120206
 40
0.3733296235550266
 40
0.4174095644875291
 40
0.6721476066227443
 40
0.9271619568147013
 40
1.0
 40
1.0
 40
1.0
 40
1.0
 10
1003.74624756459
 20
929.1616793806782
 30
0.0
 10
1003.580378120417
 20
929.1616793806782
 30
0.0
 10
1003.186508185657
 20
929.1616793806782
 30
0.0
 10
1001.824700032502
 20
929.1616793806782
 30
0.0
 10
999.747297683155
 20
929.1616793806782
 30
0.0
 10
997.1554870035678
 20
929.1616793806782
 30
0.0
 10
994.3006913886777
 20
929.1616793806783
 30
0.0
 10
991.1289508791747
 20
929.1616793806783
 30
0.0
 10
987.8013270759194
 20
929.1616793806783
 30
0.0
 10
984.256002685224
 20
929.1616793806783
 30
0.0
 10
974.7568943800379
 20
929.1616793806783
 30
0.0
 10
959.3767005151128
 20
929.1616793806783
 30
0.0
 10
943.1855364937327
 20
929.1616793806783
 30
0.0
 10
934.0780523727952
 20
929.1616793806783
 30
0.0
 10
932.0546682672934
 20
929.1616793806783
 30
0.0
  0
LINE
  5
126
330
1F
100
AcDbEntity
  8
0
  6
Continuous
 62
     7
370
    35
100
AcDbLine
 10
1020.5546682673
 20
969.1616793807
 30
0.0
 11
1020.5546682673
 21
929.1616793807
 31
0.0
  0
SPLINE
  5
127
330
1F
100
AcDbEntity
  8
0
  6
Continuous
 62
     7
370
    35
100
AcDbSpline
210
0.0
220
0.0
230
1.0
 70
     8
 71
     3
 72
    10
 73
     6
 74
     0
 42
0.000000001
 43
0.00000001
 40
0.0
 40
0.0
 40
0.0
 40
0.0
 40
0.4996662810518022
 40
0.9790557875043399
 40
1.0
 40
1.0
 40
1.0
 40
1.0
 10
1015.031297689896
 20
969.8763271405088
 30
0.0
 10
1015.322702241144
 20
969.675489952792
 30
0.0
 10
1015.893685962126
 20
969.2819656778171
 30
0.0
 10
1016.609916220866
 20
969.1635280236937
 30
0.0
 10
1016.960800985185
 20
969.1617536565487
 30
0.0
 10
1016.97548919185
 20
969.1616793806783
 30
0.0
  0
LINE
  5
128
330
1F
100
AcDbEntity
  8
0
  6
Continuous
 62
     7
370
    35
100
AcDbLine
 10
879.0546682673
 20
978.6616793807
 30
0.0
 11
851.2546682673
 21
978.6616793807
 31
0.0
  0
LINE
  5
129
330
1F
100
AcDbEntity
  8
0
  6
Continuous
 62
     7
370
    35
100
AcDbLine
 10
985.0546682673
 20
978.6616793807
 30
0.0
 11
1012.8546682673
 21
978.6616793807
 31
0.0
  0
LINE
  5
12A
330
1F
100
AcDbEntity
  8
0
  6
Continuous
 62
     7
370
    35
100
AcDbLine
 10
1020.5546682673
 20
949.1616793807
 30
0.0
 11
1020.5546682673
 21
969.1616793807
 31
0.0
  0
LINE
  5
12B
330
1F
100
AcDbEntity
  8
0
  6
Continuous
 62
     7
370
    35
100
AcDbLine
 10
1020.5546682673
 20
929.1616793807
 30
0.0
 11
1020.5546682673
 21
949.1616793807
 31
0.0
  0
LINE
  5
12C
330
1F
100
AcDbEntity
  8
0
  6
Continuous
 62
     7
370
    35
100
AcDbLine
 10
1065.5546682673
 20
949.1616793807
 30
0.0
 11
1065.5546682673
 21
968.1307784666
 31
0.0
  0
LINE
  5
12D
330
1F
100
AcDbEntity
  8
0
  6
Continuous
 62
     7
370
    35
100
AcDbLine
 10
1065.5546682673
 20
930.1925802948
 30
0.0
 11
1065.5546682673
 21
949.1616793807
 31
0.0
  0
ARC
  5
12E
330
1F
100
AcDbEntity
  8
0
  6
Continuous
 62
     7
370
    35
100
AcDbCircle
 10
1223.0546682673
 20
997.6112793807
 30
0.0
 40
1.0
100
AcDbArc
 50
90.0
 51
180.0
  0
ARC
  5
12F
330
1F
100
AcDbEntity
  8
0
  6
Continuous
 62
     7
370
    35
100
AcDbCircle
 10
1223.0546682673
 20
997.6112793807
 30
0.0
 40
1.000000000000227
100
AcDbArc
 50
0.0
 51
90.0
  0
LINE
  5
130
330
1F
100
AcDbEntity
  8
0
  6
Continuous
 62
     7
370
    35
100
AcDbLine
 10
1222.0546682673
 20
997.6112793807
 30
0.0
 11
1222.0546682673
 21
987.6112793807
 31
0.0
  0
LINE
  5
131
330
1F
100
AcDbEntity
  8
0
  6
Continuous
 62
     7
370
    35
100
AcDbLine
 10
1224.0546682673
 20
997.6112793807
 30
0.0
 11
1224.0546682673
 21
986.6112793807
 31
0.0
  0
LINE
  5
132
330
1F
100
AcDbEntity
  8
0
  6
Continuous
 62
     7
370
    35
100
AcDbLine
 10
1222.0546682673
 20
983.5132636623
 30
0.0
 11
1222.0546682673
 21
979.8854199023
 31
0.0
  0
LINE
  5
133
330
1F
100
AcDbEntity
  8
0
  6
Continuous
 62
     7
370
    35
100
AcDbLine
 10
1224.0546682673
 20
985.6112793807
 30
0.0
 11
1224.0546682673
 21
979.8854199023
 31
0.0
  0
LINE
  5
134
330
1F
100
AcDbEntity
  8
0
  6
Continuous
 62
     7
370
    35
100
AcDbLine
 10
1222.0546682673
 20
978.0728043282
 30
0.0
 11
1222.0546682673
 21
979.8854199023
 31
0.0
  0
LINE
  5
135
330
1F
100
AcDbEntity
  8
0
  6
Continuous
 62
     7
370
    35
100
AcDbLine
 10
1224.0546682673
 20
979.8854199023
 30
0.0
 11
1224.0546682673
 21
978.0728043282
 31
0.0
  0
LINE
  5
136
330
1F
100
AcDbEntity
  8
0
  6
Continuous
 62
     7
370
    35
100
AcDbLine
 10
1222.0546682673
 20
978.0728043282
 30
0.0
 11
1222.0546682673
 21
970.8145050436
 31
0.0
  0
LINE
  5
137
330
1F
100
AcDbEntity
  8
0
  6
Continuous
 62
     7
370
    35
100
AcDbLine
 10
1224.0546682673
 20
978.0728043282
 30
0.0
 11
1224.0546682673
 21
970.8145050436
 31
0.0
  0
LINE
  5
138
330
1F
100
AcDbEntity
  8
0
  6
Continuous
 62
     7
370
    35
100
AcDbLine
 10
1222.0546682673
 20
969.0018894695
 30
0.0
 11
1222.0546682673
 21
970.8145050436
 31
0.0
  0
LINE
  5
139
330
1F
100
AcDbEntity
  8
0
  6
Continuous
 62
     7
370
    35
100
AcDbLine
 10
1224.0546682673
 20
970.8145050436
 30
0.0
 11
1224.0546682673
 21
969.0018894695
 31
0.0
  0
LINE
  5
13A
330
1F
100
AcDbEntity
  8
0
  6
Continuous
 62
     7
370
    35
100
AcDbLine
 10
1222.0546682673
 20
969.0018894695
 30
0.0
 11
1222.0546682673
 21
934.7112793807
 31
0.0
  0
LINE
  5
13B
330
1F
100
AcDbEntity
  8
0
  6
Continuous
 62
     7
370
    35
100
AcDbLine
 10
1224.0546682673
 20
969.0018894695
 30
0.0
 11
1224.0546682673
 21
934.7112793807
 31
0.0
  0
LINE
  5
13C
330
1F
100
AcDbEntity
  8
0
  6
Continuous
 62
     7
370
    35
100
AcDbLine
 10
1224.0546682673
 20
932.7112793807
 30
0.0
 11
1222.0546682673
 21
932.7112793807
 31
0.0
  0
LINE
  5
13D
330
1F
100
AcDbEntity
  8
0
  6
Continuous
 62
     7
370
    35
100
AcDbLine
 10
1222.0546682673
 20
932.7112793807
 30
0.0
 11
1222.0546682673
 21
934.7112793807
 31
0.0
  0
LINE
  5
13E
330
1F
100
AcDbEntity
  8
0
  6
Continuous
 62
     7
370
    35
100
AcDbLine
 10
1224.0546682673
 20
934.7112793807
 30
0.0
 11
1224.0546682673
 21
932.7112793807
 31
0.0
  0
LINE
  5
13F
330
1F
100
AcDbEntity
  8
0
  6
Continuous
 62
     7
370
    35
100
AcDbLine
 10
640.0546682673
 20
997.6112793807
 30
0.0
 11
640.0546682673
 21
986.6112793807
 31
0.0
  0
ARC
  5
140
330
1F
100
AcDbEntity
  8
0
  6
Continuous
 62
     7
370
    35
100
AcDbCircle
 10
641.0546682673
 20
997.6112793807
 30
0.0
 40
0.9999999999998863
100
AcDbArc
 50
90.0
 51
180.0
  0
ARC
  5
141
330
1F
100
AcDbEntity
  8
0
  6
Continuous
 62
     7
370
    35
100
AcDbCircle
 10
641.0546682673
 20
997.6112793807
 30
0.0
 40
1.0
100
AcDbArc
 50
0.0
 51
90.0
  0
LINE
  5
142
330
1F
100
AcDbEntity
  8
0
  6
Continuous
 62
     7
370
    35
100
AcDbLine
 10
642.0546682673
 20
997.6112793807
 30
0.0
 11
642.0546682673
 21
987.6112793807
 31
0.0
  0
LINE
  5
143
330
1F
100
AcDbEntity
  8
0
  6
Continuous
 62
     7
370
    35
100
AcDbLine
 10
640.0546682673
 20
985.6112793807
 30
0.0
 11
640.0546682673
 21
979.8854199023
 31
0.0
  0
LINE
  5
144
330
1F
100
AcDbEntity
  8
0
  6
Continuous
 62
     7
370
    35
100
AcDbLine
 10
642.0546682673
 20
983.5132636623
 30
0.0
 11
642.0546682673
 21
979.8854199023
 31
0.0
  0
LINE
  5
145
330
1F
100
AcDbEntity
  8
0
  6
Continuous
 62
     7
370
    35
100
AcDbLine
 10
640.0546682673
 20
978.0728043282
 30
0.0
 11
640.0546682673
 21
979.8854199023
 31
0.0
  0
LINE
  5
146
330
1F
100
AcDbEntity
  8
0
  6
Continuous
 62
     7
370
    35
100
AcDbLine
 10
642.0546682673
 20
979.8854199023
 30
0.0
 11
642.0546682673
 21
978.0728043282
 31
0.0
  0
LINE
  5
147
330
1F
100
AcDbEntity
  8
0
  6
Continuous
 62
     7
370
    35
100
AcDbLine
 10
640.0546682673
 20
978.0728043282
 30
0.0
 11
640.0546682673
 21
970.8145050436
 31
0.0
  0
LINE
  5
148
330
1F
100
AcDbEntity
  8
0
  6
Continuous
 62
     7
370
    35
100
AcDbLine
 10
642.0546682673
 20
978.0728043282
 30
0.0
 11
642.0546682673
 21
970.8145050436
 31
0.0
  0
LINE
  5
149
330
1F
100
AcDbEntity
  8
0
  6
Continuous
 62
     7
370
    35
100
AcDbLine
 10
640.0546682673
 20
969.0018894695
 30
0.0
 11
640.0546682673
 21
970.8145050436
 31
0.0
  0
LINE
  5
14A
330
1F
100
AcDbEntity
  8
0
  6
Continuous
 62
     7
370
    35
100
AcDbLine
 10
642.0546682673
 20
970.8145050436
 30
0.0
 11
642.0546682673
 21
969.0018894695
 31
0.0
  0
LINE
  5
14B
330
1F
100
AcDbEntity
  8
0
  6
Continuous
 62
     7
370
    35
100
AcDbLine
 10
640.0546682673
 20
969.0018894695
 30
0.0
 11
640.0546682673
 21
934.7112793807
 31
0.0
  0
LINE
  5
14C
330
1F
100
AcDbEntity
  8
0
  6
Continuous
 62
     7
370
    35
100
AcDbLine
 10
642.0546682673
 20
969.0018894695
 30
0.0
 11
642.0546682673
 21
934.7112793807
 31
0.0
  0
LINE
  5
14D
330
1F
100
AcDbEntity
  8
0
  6
Continuous
 62
     7
370
    35
100
AcDbLine
 10
642.0546682673
 20
932.7112793807
 30
0.0
 11
640.0546682673
 21
932.7112793807
 31
0.0
  0
LINE
  5
14E
330
1F
100
AcDbEntity
  8
0
  6
Continuous
 62
     7
370
    35
100
AcDbLine
 10
640.0546682673
 20
932.7112793807
 30
0.0
 11
640.0546682673
 21
934.7112793807
 31
0.0
  0
LINE
  5
14F
330
1F
100
AcDbEntity
  8
0
  6
Continuous
 62
     7
370
    35
100
AcDbLine
 10
642.0546682673
 20
934.7112793807
 30
0.0
 11
642.0546682673
 21
932.7112793807
 31
0.0
  0
LINE
  5
150
330
1F
100
AcDbEntity
  8
0
  6
Continuous
 62
     7
370
    35
100
AcDbLine
 10
609.5546682673
 20
985.6112793807
 30
0.0
 11
609.5546682673
 21
986.6112793807
 31
0.0
  0
LINE
  5
151
330
1F
100
AcDbEntity
  8
0
  6
Continuous
 62
     7
370
    35
100
AcDbLine
 10
609.5546682673
 20
986.6112793807
 30
0.0
 11
619.5546682673
 21
986.6112793807
 31
0.0
  0
LINE
  5
152
330
1F
100
AcDbEntity
  8
0
  6
Continuous
 62
     7
370
    35
100
AcDbLine
 10
619.5546682673
 20
985.6112793807
 30
0.0
 11
609.5546682673
 21
985.6112793807
 31
0.0
  0
LINE
  5
153
330
1F
100
AcDbEntity
  8
0
  6
Continuous
 62
     7
370
    35
100
AcDbLine
 10
642.0546682673
 20
986.6112793807
 30
0.0
 11
619.5546682673
 21
986.6112793807
 31
0.0
  0
LINE
  5
154
330
1F
100
AcDbEntity
  8
0
  6
Continuous
 62
     7
370
    35
100
AcDbLine
 10
642.0546682673
 20
985.6112793807
 30
0.0
 11
619.5546682673
 21
985.6112793807
 31
0.0
  0
LINE
  5
155
330
1F
100
AcDbEntity
  8
0
  6
Continuous
 62
     7
370
    35
100
AcDbLine
 10
609.5546682673
 20
987.6112793807
 30
0.0
 11
609.5546682673
 21
986.6112793807
 31
0.0
  0
ARC
  5
156
330
1F
100
AcDbEntity
  8
0
  6
Continuous
 62
     7
370
    35
100
AcDbCircle
 10
619.5546682673
 20
1019.1112793807
 30
0.0
 40
10.0
100
AcDbArc
 50
90.0
 51
180.0
  0
LINE
  5
157
330
1F
100
AcDbEntity
  8
0
  6
Continuous
 62
     7
370
    35
100
AcDbLine
 10
642.0546682673
 20
1029.1112793807
 30
0.0
 11
619.5546682673
 21
1029.1112793807
 31
0.0
  0
LINE
  5
158
330
1F
100
AcDbEntity
  8
0
  6
Continuous
 62
     7
370
    35
100
AcDbLine
 10
609.5546682673
 20
1019.1112793807
 30
0.0
 11
609.5546682673
 21
987.6112793807
 31
0.0
  0
LINE
  5
159
330
1F
100
AcDbEntity
  8
0
  6
Continuous
 62
     7
370
    35
100
AcDbLine
 10
1254.5546682673
 20
986.6112793807
 30
0.0
 11
1254.5546682673
 21
985.6112793807
 31
0.0
  0
LINE
  5
15A
330
1F
100
AcDbEntity
  8
0
  6
Continuous
 62
     7
370
    35
100
AcDbLine
 10
1244.5546682673
 20
986.6112793807
 30
0.0
 11
1254.5546682673
 21
986.6112793807
 31
0.0
  0
LINE
  5
15B
330
1F
100
AcDbEntity
  8
0
  6
Continuous
 62
     7
370
    35
100
AcDbLine
 10
1254.5546682673
 20
985.6112793807
 30
0.0
 11
1244.5546682673
 21
985.6112793807
 31
0.0
  0
LINE
  5
15C
330
1F
100
AcDbEntity
  8
0
  6
Continuous
 62
     7
370
    35
100
AcDbLine
 10
1222.0546682673
 20
986.6112793807
 30
0.0
 11
1244.5546682673
 21
986.6112793807
 31
0.0
  0
LINE
  5
15D
330
1F
100
AcDbEntity
  8
0
  6
Continuous
 62
     7
370
    35
100
AcDbLine
 10
1222.0546682673
 20
985.6112793807
 30
0.0
 11
1244.5546682673
 21
985.6112793807
 31
0.0
  0
LINE
  5
15E
330
1F
100
AcDbEntity
  8
0
  6
Continuous
 62
     7
370
    35
100
AcDbLine
 10
1254.5546682673
 20
986.6112793807
 30
0.0
 11
1254.5546682673
 21
987.6112793807
 31
0.0
  0
LINE
  5
15F
330
1F
100
AcDbEntity
  8
0
  6
Continuous
 62
     7
370
    35
100
AcDbLine
 10
1222.0546682673
 20
1029.1112793807
 30
0.0
 11
1244.5546682673
 21
1029.1112793807
 31
0.0
  0
ARC
  5
160
330
1F
100
AcDbEntity
  8
0
  6
Continuous
 62
     7
370
    35
100
AcDbCircle
 10
1244.5546682673
 20
1019.1112793807
 30
0.0
 40
10.0
100
AcDbArc
 50
0.0
 51
90.0
  0
LINE
  5
161
330
1F
100
AcDbEntity
  8
0
  6
Continuous
 62
     7
370
    35
100
AcDbLine
 10
1254.5546682673
 20
1019.1112793807
 30
0.0
 11
1254.5546682673
 21
987.6112793807
 31
0.0
  0
LINE
  5
162
330
1F
100
AcDbEntity
  8
0
  6
Continuous
 62
     8
370
    18
100
AcDbLine
 10
1222.0546682673
 20
987.6112793807
 30
0.0
 11
642.0546682673
 21
987.6112793807
 31
0.0
  0
LINE
  5
163
330
1F
100
AcDbEntity
  8
0
  6
Continuous
 62
     8
370
    18
100
AcDbLine
 10
642.0546682673
 20
997.1112793807
 30
0.0
 11
1222.0546682673
 21
997.1112793807
 31
0.0
  0
LINE
  5
164
330
1F
100
AcDbEntity
  8
0
  6
Continuous
 62
     8
370
    18
100
AcDbLine
 10
642.0546682673
 20
984.27319787
 30
0.0
 11
1222.0546682673
 21
984.27319787
 31
0.0
  0
LINE
  5
165
330
1F
100
AcDbEntity
  8
0
  6
Continuous
 62
     8
370
    18
100
AcDbLine
 10
642.0546682673
 20
982.2764145289
 30
0.0
 11
1222.0546682673
 21
982.2764145289
 31
0.0
  0
LINE
  5
166
330
1F
100
AcDbEntity
  8
0
  6
Continuous
 62
     8
370
    18
100
AcDbLine
 10
642.0546682673
 20
980.5161069599
 30
0.0
 11
849.0954921586
 21
980.5161069599
 31
0.0
  0
LINE
  5
167
330
1F
100
AcDbEntity
  8
0
  6
Continuous
 62
     8
370
    18
100
AcDbLine
 10
1015.013844376
 20
980.5161069599
 30
0.0
 11
1222.0546682673
 21
980.5161069599
 31
0.0
  0
SPLINE
  5
168
330
1F
100
AcDbEntity
  8
0
  6
Continuous
 62
     8
370
    18
100
AcDbSpline
210
0.0
220
0.0
230
1.0
 70
     8
 71
     3
 72
    10
 73
     6
 74
     0
 42
0.000000001
 43
0.00000001
 40
0.0
 40
0.0
 40
0.0
 40
0.0
 40
0.5
 40
0.5
 40
1.0
 40
1.0
 40
1.0
 40
1.0
 10
991.3707803743889
 20
980.1664629574508
 30
0.0
 10
990.3317366916306
 20
980.1811000933943
 30
0.0
 10
989.2861243709262
 20
980.2155700705468
 30
0.0
 10
987.1809979360997
 20
980.2685936769432
 30
0.0
 10
986.1214805246384
 20
980.2870462935047
 30
0.0
 10
985.0546682672941
 20
980.2870462935047
 30
0.0
  0
LINE
  5
169
330
1F
100
AcDbEntity
  8
0
  6
Continuous
 62
     8
370
    18
100
AcDbLine
 10
985.0546682673
 20
980.2870462935
 30
0.0
 11
985.0546682673
 21
982.1758517
 31
0.0
  0
ARC
  5
16A
330
1F
100
AcDbEntity
  8
0
  6
Continuous
 62
     8
370
    18
100
AcDbCircle
 10
994.3348952764
 20
980.5553992153
 30
0.0
 40
2.989523133341693
100
AcDbArc
 50
147.5233674626
 51
187.4753574051
  0
SPLINE
  5
16B
330
1F
100
AcDbEntity
  8
0
  6
Continuous
 62
     8
370
    18
100
AcDbSpline
210
0.0
220
0.0
230
1.0
 70
     8
 71
     3
 72
    10
 73
     6
 74
     0
 42
0.000000001
 43
0.00000001
 40
0.0
 40
0.0
 40
0.0
 40
0.0
 40
0.5
 40
0.5
 40
1.0
 40
1.0
 40
1.0
 40
1.0
 10
879.0546682672936
 20
980.2870462934641
 30
0.0
 10
877.9878560099495
 20
980.2870462934641
 30
0.0
 10
876.9283385984876
 20
980.2685936769432
 30
0.0
 10
874.823212163661
 20
980.2155700705468
 30
0.0
 10
873.7775998429564
 20
980.1811000934263
 30
0.0
 10
872.7385561601982
 20
980.1664629574828
 30
0.0
  0
ARC
  5
16C
330
1F
100
AcDbEntity
  8
0
  6
Continuous
 62
     8
370
    18
100
AcDbCircle
 10
869.7744412572
 20
980.5553992152
 30
0.0
 40
2.989523134308619
100
AcDbArc
 50
352.5246425999
 51
32.476632528
  0
LINE
  5
16D
330
1F
100
AcDbEntity
  8
0
  6
Continuous
 62
     8
370
    18
100
AcDbLine
 10
879.0546682673
 20
980.2870462935
 30
0.0
 11
879.0546682673
 21
982.1758517
 31
0.0
  0
LINE
  5
16E
330
1F
100
AcDbEntity
  8
0
  6
Continuous
 62
     8
370
    18
100
AcDbLine
 10
985.0546682673
 20
980.2870462935
 30
0.0
 11
879.0546682673
 21
980.2870462935
 31
0.0
  0
ELLIPSE
  5
16F
330
1F
100
AcDbEntity
  8
0
  6
Continuous
 62
     8
370
    18
100
AcDbEllipse
 10
985.0546682673
 20
978.5068466197
 30
0.0
 11
27.99999999999989
 21
0.0
 31
0.0
210
0.0
220
0.0
230
1.0
 40
0.0608401234
 41
0.0075591103181333
 42
1.343262674821319
  0
ARC
  5
170
330
1F
100
AcDbEntity
  8
0
  6
Continuous
 62
     8
370
    18
100
AcDbCircle
 10
1015.0531671134
 20
978.5171774216
 30
0.0
 40
1.999300425703757
100
AcDbArc
 50
91.1268920303
 51
179.9270312827
  0
ELLIPSE
  5
171
330
1F
100
AcDbEntity
  8
0
  6
Continuous
 62
     8
370
    18
100
AcDbEllipse
 10
879.0546682673
 20
978.5068466197
 30
0.0
 11
28.0
 21
0.0
 31
0.0
210
0.0
220
0.0
230
1.0
 40
0.0608401234
 41
1.798329978768473
 42
3.134033543271658
  0
ARC
  5
172
330
1F
100
AcDbEntity
  8
0
  6
Continuous
 62
     8
370
    18
100
AcDbCircle
 10
849.0561694212
 20
978.5171774216
 30
0.0
 40
1.999300425704085
100
AcDbArc
 50
0.0729687173
 51
88.8731079808
  0
LINE
  5
173
330
1F
100
AcDbEntity
  8
0
  6
Continuous
 62
     8
370
    18
100
AcDbLine
 10
879.0546682673
 20
980.2870462935
 30
0.0
 11
879.0546682673
 21
975.6116793807
 31
0.0
  0
LINE
  5
174
330
1F
100
AcDbEntity
  8
0
  6
Continuous
 62
     8
370
    18
100
AcDbLine
 10
985.0546682673
 20
980.2870462935
 30
0.0
 11
985.0546682673
 21
975.6116793807
 31
0.0
  0
LINE
  5
175
330
1F
100
AcDbEntity
  8
0
  6
Continuous
 62
     8
370
    18
100
AcDbLine
 10
1222.0546682673
 20
999.6112793807
 30
0.0
 11
642.0546682673
 21
999.6112793807
 31
0.0
  0
SPLINE
  5
176
330
1F
100
AcDbEntity
  8
0
  6
Continuous
 62
     8
370
    18
100
AcDbSpline
210
0.0
220
0.0
230
1.0
 70
     8
 71
     3
 72
    20
 73
    16
 74
     0
 42
0.000000001
 43
0.00000001
 40
0.0
 40
0.0
 40
0.0
 40
0.0
 40
0.0991423914481105
 40
0.190957996792216
 40
0.2834490201131843
 40
0.3743163084071863
 40
0.4461862568119869
 40
0.5184421762495497
 40
0.590832217983911
 40
0.6638400079808525
 40
0.7368167649629362
 40
0.8091054166526833
 40
0.8751601672161237
 40
0.9411263593187081
 40
1.0
 40
1.0
 40
1.0
 40
1.0
 10
915.9446231546918
 20
936.6666884660306
 30
0.0
 10
915.0498474726763
 20
937.8030169556857
 30
0.0
 10
913.3264215060404
 20
939.991697387063
 30
0.0
 10
911.6773969039306
 20
944.0445102225078
 30
0.0
 10
910.9780792308799
 20
948.3447986356942
 30
0.0
 10
911.3045366227637
 20
952.3785479971859
 30
0.0
 10
912.3305077564056
 20
955.8784991550945
 30
0.0
 10
913.784618664995
 20
958.8139801628884
 30
0.0
 10
915.6795385985605
 20
961.4289157283893
 30
0.0
 10
917.9547947753019
 20
963.7585054257859
 30
0.0
 10
920.5500776263725
 20
965.758759921766
 30
0.0
 10
923.3693696218741
 20
967.3233650919049
 30
0.0
 10
926.2948211944912
 20
968.404993402686
 30
0.0
 10
929.1691934542619
 20
969.0459212279405
 30
0.0
 10
931.1299761137648
 20
969.1255100373779
 30
0.0
 10
932.0546682667056
 20
969.1630435942928
 30
0.0
  0
LWPOLYLINE
  5
177
330
1F
100
AcDbEntity
  8
0
  6
Continuous
 62
     8
370
    18
100
AcDbPolyline
 90
        9
 70
   128
 43
0.0
 10
932.0546682667
 20
969.1630435943
 10
932.056047593
 20
968.8963064882
 10
932.0572337488
 20
968.2329180844
 10
932.0581828788
 20
967.1974055525
 10
932.0588598912
 20
965.8280544453
 10
932.0592397552
 20
964.1754931833
 10
932.0593084262
 20
962.3008211924
 10
932.0590633653
 20
960.2733499015
 10
932.0585136349
 20
958.1680401213
  0
SPLINE
  5
178
330
1F
100
AcDbEntity
  8
0
  6
Continuous
 62
     8
370
    18
100
AcDbSpline
210
0.0
220
0.0
230
1.0
 70
     8
 71
     3
 72
    19
 73
    15
 74
     0
 42
0.000000001
 43
0.00000001
 40
0.0
 40
0.0
 40
0.0
 40
0.0
 40
0.0003400432997567
 40
0.101863577827705
 40
0.2035434036526509
 40
0.3480218784455774
 40
0.4928620408160621
 40
0.571493338106147
 40
0.6496296261320132
 40
0.7087399627822184
 40
0.7683238584295646
 40
0.8224306267254504
 40
0.8926101632270913
 40
1.0
 40
1.0
 40
1.0
 40
1.0
 10
932.0585136349303
 20
958.1680401213009
 30
0.0
 10
932.0559500617163
 20
958.1680423311528
 30
0.0
 10
931.2880045095533
 20
958.1687043157414
 30
0.0
 10
929.7494652715673
 20
957.9992673629275
 30
0.0
 10
927.2359344949916
 20
957.2138084907144
 30
0.0
 10
924.620695274612
 20
955.8136517087512
 30
0.0
 10
922.3952543836004
 20
954.1479098707582
 30
0.0
 10
920.676684854199
 20
952.6580595346048
 30
0.0
 10
919.608378625483
 20
951.4099698152975
 30
0.0
 10
918.941414755491
 20
950.0742189763804
 30
0.0
 10
918.6774354455683
 20
948.7614481169344
 30
0.0
 10
919.0600562093489
 20
947.3855077449186
 30
0.0
 10
920.1336420250034
 20
945.9714232697517
 30
0.0
 10
921.1888804971381
 20
945.1422886444127
 30
0.0
 10
921.827064240141
 20
944.6408472616116
 30
0.0
  0
LINE
  5
179
330
1F
100
AcDbEntity
  8
0
  6
Continuous
 62
     8
370
    18
100
AcDbLine
 10
915.9446231547
 20
936.666688466
 30
0.0
 11
921.8270642401
 21
944.6408472616
 31
0.0
  0
SPLINE
  5
17A
330
1F
100
AcDbEntity
  8
0
  6
Continuous
 62
     8
370
    18
100
AcDbSpline
210
0.0
220
0.0
230
1.0
 70
     8
 71
     3
 72
    11
 73
     7
 74
     0
 42
0.000000001
 43
0.00000001
 40
0.0
 40
0.0
 40
0.0
 40
0.0
 40
0.2086522750571022
 40
0.4180461498251457
 40
0.7071398446856882
 40
1.0
 40
1.0
 40
1.0
 40
1.0
 10
922.899619115187
 20
931.3800856663198
 30
0.0
 10
922.3759940127948
 20
931.6610622584614
 30
0.0
 10
921.3268827201096
 20
932.2240141002451
 30
0.0
 10
919.6165067628534
 20
933.339072084696
 30
0.0
 10
917.7703283894787
 20
934.7475253631611
 30
0.0
 10
916.5558117219334
 20
936.0242131503027
 30
0.0
 10
915.9446231546918
 20
936.6666884660308
 30
0.0
  0
SPLINE
  5
17B
330
1F
100
AcDbEntity
  8
0
  6
Continuous
 62
     8
370
    18
100
AcDbSpline
210
0.0
220
0.0
230
1.0
 70
     8
 71
     3
 72
     9
 73
     5
 74
     0
 42
0.000000001
 43
0.00000001
 40
0.0
 40
0.0
 40
0.0
 40
0.0
 40
0.4979466281839525
 40
0.9999999999999999
 40
0.9999999999999999
 40
0.9999999999999999
 40
0.9999999999999999
 10
921.827064240141
 20
944.6408472616116
 30
0.0
 10
922.8106392347092
 20
944.0100797660544
 30
0.0
 10
924.7859011180063
 20
942.7433426101916
 30
0.0
 10
926.8823612637813
 20
941.6891987091261
 30
0.0
 10
927.9348961488454
 20
941.159962209217
 30
0.0
  0
LINE
  5
17C
330
1F
100
AcDbEntity
  8
0
  6
Continuous
 62
     8
370
    18
100
AcDbLine
 10
927.9348961488
 20
941.1599622092
 30
0.0
 11
922.8996191152
 21
931.3800856663
 31
0.0
  0
SPLINE
  5
17D
330
1F
100
AcDbEntity
  8
0
  6
Continuous
 62
     8
370
    18
100
AcDbSpline
210
0.0
220
0.0
230
1.0
 70
     8
 71
     3
 72
    21
 73
    17
 74
     0
 42
0.000000001
 43
0.00000001
 40
0.0
 40
0.0
 40
0.0
 40
0.0
 40
0.0575996839374354
 40
0.13569305663828
 40
0.2164055400301533
 40
0.2512185653939529
 40
0.3293048865225219
 40
0.4092636364585426
 40
0.4704678040649304
 40
0.5261582095357707
 40
0.5829972309833106
 40
0.6699291064424866
 40
0.7487170988516961
 40
0.839499710702756
 40
0.9180548896099051
 40
1.0
 40
1.0
 40
1.0
 40
1.0
 10
932.0546682667056
 20
969.1630435942928
 30
0.0
 10
932.959568370369
 20
969.1265500484468
 30
0.0
 10
935.0913276548775
 20
969.0405787297707
 30
0.0
 10
938.3402781759075
 20
968.2774205585653
 30
0.0
 10
941.0784102914058
 20
967.1375523054336
 30
0.0
 10
943.625306434793
 20
965.6787307456659
 30
0.0
 10
945.9594370632398
 20
963.9528920158511
 30
0.0
 10
948.2581011190207
 20
961.6178019667828
 30
0.0
 10
949.9993986732153
 20
959.2889154733839
 30
0.0
 10
951.257058571927
 20
956.9972811474928
 30
0.0
 10
952.362660861201
 20
954.1475637742121
 30
0.0
 10
953.0384259848487
 20
950.7175398738752
 30
0.0
 10
952.9582355036707
 20
946.6497967748124
 30
0.0
 10
952.022979824788
 20
942.8646259778347
 30
0.0
 10
950.3741123453137
 20
939.4162624009698
 30
0.0
 10
948.9114771557817
 20
937.5960281850568
 30
0.0
 10
948.164713379894
 20
936.6666884660325
 30
0.0
  0
LINE
  5
17E
330
1F
100
AcDbEntity
  8
0
  6
Continuous
 62
     8
370
    18
100
AcDbLine
 10
948.1647133799
 20
936.666688466
 30
0.0
 11
942.2822722944
 21
944.6408472616
 31
0.0
  0
SPLINE
  5
17F
330
1F
100
AcDbEntity
  8
0
  6
Continuous
 62
     8
370
    18
100
AcDbSpline
210
0.0
220
0.0
230
1.0
 70
     8
 71
     3
 72
    17
 73
    13
 74
     0
 42
0.000000001
 43
0.00000001
 40
0.0
 40
0.0
 40
0.0
 40
0.0
 40
0.0789144527054628
 40
0.1571593044481633
 40
0.2135614770373524
 40
0.2600875689337681
 40
0.3261379151498149
 40
0.4287697285227776
 40
0.5974697941885959
 40
0.7661237400516264
 40
0.9416481750856449
 40
0.9999999999999999
 40
0.9999999999999999
 40
0.9999999999999999
 40
0.9999999999999999
 10
942.2822722944459
 20
944.640847261612
 30
0.0
 10
942.7547948448989
 20
945.0027928416008
 30
0.0
 10
943.6958305211193
 20
945.7236128390662
 30
0.0
 10
944.772246249675
 20
946.9419131656437
 30
0.0
 10
945.3465349846957
 20
948.2178273121507
 30
0.0
 10
945.3403770238692
 20
949.5196159914135
 30
0.0
 10
944.7616648249302
 20
951.0678635133779
 30
0.0
 10
943.130429775119
 20
953.0581628499162
 30
0.0
 10
940.5435245003703
 20
955.1567064060109
 30
0.0
 10
937.2073900171307
 20
957.124968807994
 30
0.0
 10
934.2610276620717
 20
958.0764977712873
 30
0.0
 10
932.4983095325201
 20
958.149761032271
 30
0.0
 10
932.0585136349303
 20
958.1680401213009
 30
0.0
  0
ARC
  5
180
330
1F
100
AcDbEntity
  8
0
  6
Continuous
 62
     8
370
    18
100
AcDbCircle
 10
932.0546682673
 20
949.1616793807
 30
0.0
 40
8.999999999999964
100
AcDbArc
 50
242.7578274734
 51
297.2421725266
  0
LINE
  5
181
330
1F
100
AcDbEntity
  8
0
  6
Continuous
 62
     8
370
    18
100
AcDbLine
 10
936.1744403857
 20
941.1599622092
 30
0.0
 11
941.2097174194
 21
931.3800856663
 31
0.0
  0
SPLINE
  5
182
330
1F
100
AcDbEntity
  8
0
  6
Continuous
 62
     8
370
    18
100
AcDbSpline
210
0.0
220
0.0
230
1.0
 70
     8
 71
     3
 72
     9
 73
     5
 74
     0
 42
0.000000001
 43
0.00000001
 40
0.0
 40
0.0
 40
0.0
 40
0.0
 40
0.4992621918959264
 40
1.0
 40
1.0
 40
1.0
 40
1.0
 10
936.1744403857413
 20
941.159962209217
 30
0.0
 10
937.2210881449382
 20
941.6862948256769
 30
0.0
 10
939.3174771288952
 20
942.7405156839822
 30
0.0
 10
941.2930355172697
 20
944.006780562076
 30
0.0
 10
942.2822722944459
 20
944.640847261612
 30
0.0
  0
SPLINE
  5
183
330
1F
100
AcDbEntity
  8
0
  6
Continuous
 62
     8
370
    18
100
AcDbSpline
210
0.0
220
0.0
230
1.0
 70
     8
 71
     3
 72
    10
 73
     6
 74
     0
 42
0.000000001
 43
0.00000001
 40
0.0
 40
0.0
 40
0.0
 40
0.0
 40
0.0076204656895135
 40
0.4952213558631344
 40
1.0
 40
1.0
 40
1.0
 40
1.0
 10
948.164713379894
 20
936.6666884660325
 30
0.0
 10
948.1493680269771
 20
936.6492614371638
 30
0.0
 10
947.1521394077021
 20
935.5167536329693
 30
0.0
 10
944.931512072395
 20
933.4936711978443
 30
0.0
 10
942.4645497315361
 20
932.0926976362699
 30
0.0
 10
941.2097174193998
 20
931.3800856663198
 30
0.0
  0
SPLINE
  5
184
330
1F
100
AcDbEntity
  8
0
  6
Continuous
 62
     8
370
    18
100
AcDbSpline
210
0.0
220
0.0
230
1.0
 70
     8
 71
     3
 72
    12
 73
     8
 74
     0
 42
0.000000001
 43
0.00000001
 40
0.0
 40
0.0
 40
0.0
 40
0.0
 40
0.000006074466645
 40
0.3341227654086643
 40
0.6739443301613987
 40
0.9999939255333555
 40
1.0
 40
1.0
 40
1.0
 40
1.0
 10
932.0546682672934
 20
969.8322437921234
 30
0.0
 10
932.0546882651113
 20
969.8322437234648
 30
0.0
 10
933.154657465925
 20
969.8284671938748
 30
0.0
 10
935.373871703855
 20
969.7175583370017
 30
0.0
 10
938.5931129739108
 20
969.2537076188011
 30
0.0
 10
940.6922607089468
 20
968.7640733281631
 30
0.0
 10
941.707098557748
 20
968.4727113888317
 30
0.0
 10
941.7071174643313
 20
968.4727059607144
 30
0.0
  0
SPLINE
  5
185
330
1F
100
AcDbEntity
  8
0
  6
Continuous
 62
     8
370
    18
100
AcDbSpline
210
0.0
220
0.0
230
1.0
 70
     8
 71
     3
 72
    12
 73
     8
 74
     0
 42
0.000000001
 43
0.00000001
 40
0.0
 40
0.0
 40
0.0
 40
0.0
 40
0.0000045934025293
 40
0.4143885673284386
 40
0.7037780019579085
 40
0.999995349056934
 40
0.9999999999999999
 40
0.9999999999999999
 40
0.9999999999999999
 40
0.9999999999999999
 10
941.7071174643313
 20
968.4727059607144
 30
0.0
 10
941.7071348964597
 20
968.4726981715381
 30
0.0
 10
943.2797544727204
 20
967.7700065181263
 30
0.0
 10
945.7944830341318
 20
966.2956858115143
 30
0.0
 10
948.8311900228562
 20
963.6346756888746
 30
0.0
 10
950.3245185520377
 20
961.8277302106172
 30
0.0
 10
950.9975646219362
 20
960.8652595543601
 30
0.0
 10
950.9975751893452
 20
960.8652444427335
 30
0.0
  0
SPLINE
  5
186
330
1F
100
AcDbEntity
  8
0
  6
Continuous
 62
     8
370
    18
100
AcDbSpline
210
0.0
220
0.0
230
1.0
 70
     8
 71
     3
 72
    17
 73
    13
 74
     0
 42
0.000000001
 43
0.00000001
 40
0.0
 40
0.0
 40
0.0
 40
0.0
 40
0.0000021433935779
 40
0.1041532548279361
 40
0.2108142976269833
 40
0.3091075186364268
 40
0.4099627238957807
 40
0.511765244198147
 40
0.6173565118270791
 40
0.7189536236524954
 40
0.8238769623572229
 40
0.9999999999999999
 40
0.9999999999999999
 40
0.9999999999999999
 40
0.9999999999999999
 10
950.9975751893452
 20
960.8652444427335
 30
0.0
 10
950.9975866038078
 20
960.8652298585624
 30
0.0
 10
951.5522460279091
 20
960.1565457885334
 30
0.0
 10
952.5854661682455
 20
958.6219045575821
 30
0.0
 10
953.7856339911409
 20
956.1185571959629
 30
0.0
 10
954.6138329433272
 20
953.4435914443571
 30
0.0
 10
955.0581066634851
 20
950.6857852249362
 30
0.0
 10
955.092517494978
 20
947.7985775749377
 30
0.0
 10
954.6722494736907
 20
944.9392004884336
 30
0.0
 10
953.8103980393698
 20
942.2056061091994
 30
0.0
 10
952.3178963383798
 20
939.1018731134859
 30
0.0
 10
950.7747519541472
 20
937.2586410829656
 30
0.0
 10
949.8077112827656
 20
936.103544801296
 30
0.0
  0
ARC
  5
187
330
1F
100
AcDbEntity
  8
0
  6
Continuous
 62
     8
370
    18
100
AcDbCircle
 10
947.8728359615
 20
933.1367891548
 30
0.0
 40
3.541946015257546
100
AcDbArc
 50
56.8881881133
 51
85.2731268278
  0
SPLINE
  5
188
330
1F
100
AcDbEntity
  8
0
  6
Continuous
 62
     8
370
    18
100
AcDbSpline
210
0.0
220
0.0
230
1.0
 70
     8
 71
     3
 72
     9
 73
     5
 74
     0
 42
0.000000001
 43
0.00000001
 40
0.0
 40
0.0
 40
0.0
 40
0.0
 40
0.4770884652791106
 40
1.0
 40
1.0
 40
1.0
 40
1.0
 10
932.0546682667056
 20
969.1630435942928
 30
0.0
 10
932.0546682669509
 20
969.1976225648873
 30
0.0
 10
932.0546682674651
 20
969.2701017235987
 30
0.0
 10
932.0546682673522
 20
969.6392249823774
 30
0.0
 10
932.0546682672931
 20
969.8322437921265
 30
0.0
  0
SPLINE
  5
189
330
1F
100
AcDbEntity
  8
0
  6
Continuous
 62
     8
370
    18
100
AcDbSpline
210
0.0
220
0.0
230
1.0
 70
     8
 71
     3
 72
    13
 73
     9
 74
     0
 42
0.000000001
 43
0.00000001
 40
0.0
 40
0.0
 40
0.0
 40
0.0
 40
0.2149368602724834
 40
0.4364871802266617
 40
0.5720189549561244
 40
0.7091058686892359
 40
0.8535021383530083
 40
1.0
 40
1.0
 40
1.0
 40
1.0
 10
896.49824898666
 20
961.1364423073469
 30
0.0
 10
896.499902444483
 20
959.7776509003944
 30
0.0
 10
896.5032602358918
 20
957.0182590074215
 30
0.0
 10
896.5054783163305
 20
953.1122080844422
 30
0.0
 10
896.5127516709865
 20
949.7018226737339
 30
0.0
 10
896.5159516837127
 20
946.8118678349325
 30
0.0
 10
896.5164367627755
 20
943.8653977894342
 30
0.0
 10
896.5157291309578
 20
941.9313469386084
 30
0.0
 10
896.5153727588726
 20
940.9573351471507
 30
0.0
  0
ARC
  5
18A
330
1F
100
AcDbEntity
  8
0
  6
Continuous
 62
     8
370
    18
100
AcDbCircle
 10
895.2284696307
 20
945.8485678063
 30
0.0
 40
5.057694789823596
100
AcDbArc
 50
270.0526961859
 51
284.7406775986
  0
SPLINE
  5
18B
330
1F
100
AcDbEntity
  8
0
  6
Continuous
 62
     8
370
    18
100
AcDbSpline
210
0.0
220
0.0
230
1.0
 70
     8
 71
     3
 72
    13
 73
     9
 74
     0
 42
0.000000001
 43
0.00000001
 40
0.0
 40
0.0
 40
0.0
 40
0.0
 40
0.2027299767790348
 40
0.4113282396852232
 40
0.6140610633746085
 40
0.8226668372537685
 40
0.9110997276786644
 40
1.0
 40
1.0
 40
1.0
 40
1.0
 10
895.1311770147953
 20
961.4014328204437
 30
0.0
 10
895.1159508869904
 20
960.0992951529083
 30
0.0
 10
895.0850578910619
 20
957.4573277284313
 30
0.0
 10
895.0622949912074
 20
953.1891024953313
 30
0.0
 10
895.1150639173951
 20
948.7949025718364
 30
0.0
 10
895.1694820558416
 20
945.2562064063582
 30
0.0
 10
895.2100269957737
 20
942.5865017192493
 30
0.0
 10
895.2254096863037
 20
941.390468104747
 30
0.0
 10
895.2331213029915
 20
940.790875155588
 30
0.0
  0
ARC
  5
18C
330
1F
100
AcDbEntity
  8
0
  6
Continuous
 62
     8
370
    18
100
AcDbCircle
 10
895.1591563304
 20
957.8869555469
 30
0.0
 40
3.514588645694737
100
AcDbArc
 50
67.6037550453
 51
90.456131227
  0
SPLINE
  5
18D
330
1F
100
AcDbEntity
  8
0
  6
Continuous
 62
     8
370
    18
100
AcDbSpline
210
0.0
220
0.0
230
1.0
 70
     8
 71
     3
 72
    13
 73
     9
 74
     0
 42
0.000000001
 43
0.00000001
 40
0.0
 40
0.0
 40
0.0
 40
0.0
 40
0.1436817584227077
 40
0.2896128899910156
 40
0.4254711377184159
 40
0.5627814455502946
 40
0.7787239735870445
 40
1.0
 40
1.0
 40
1.0
 40
1.0
 10
898.4541597396666
 20
941.1381004231841
 30
0.0
 10
898.4732009386313
 20
942.0708260584346
 30
0.0
 10
898.5115814311981
 20
943.9508793773733
 30
0.0
 10
898.5769938982469
 20
946.8056365277101
 30
0.0
 10
898.6262151451159
 20
949.6296211671165
 30
0.0
 10
898.6630545272876
 20
952.9067082504973
 30
0.0
 10
898.6372228894697
 20
956.722942260594
 30
0.0
 10
898.5827242450968
 20
959.4315416552523
 30
0.0
 10
898.5551425165792
 20
960.8023620495261
 30
0.0
  0
ARC
  5
18E
330
1F
100
AcDbEntity
  8
0
  6
Continuous
 62
     8
370
    18
100
AcDbCircle
 10
898.2286987825
 20
933.068714618
 30
0.0
 40
8.072534912705354
100
AcDbArc
 50
88.399555844
 51
102.2537357991
  0
ARC
  5
18F
330
1F
100
AcDbEntity
  8
0
  6
Continuous
 62
     8
370
    18
100
AcDbCircle
 10
898.3810883001
 20
966.2297983375
 30
0.0
 40
5.43022647140316
100
AcDbArc
 50
249.71237279
 51
271.8368074448
  0
SPLINE
  5
190
330
1F
100
AcDbEntity
  8
0
  6
Continuous
 62
     8
370
    18
100
AcDbSpline
210
0.0
220
0.0
230
1.0
 70
     8
 71
     3
 72
    13
 73
     9
 74
     0
 42
0.000000001
 43
0.00000001
 40
0.0
 40
0.0
 40
0.0
 40
0.0
 40
0.2027299767790307
 40
0.4113282396852189
 40
0.6140610633746081
 40
0.8226668372537687
 40
0.9110997276786641
 40
1.0
 40
1.0
 40
1.0
 40
1.0
 10
968.9781595197915
 20
961.4014328204435
 30
0.0
 10
968.9933856475963
 20
960.0992951529082
 30
0.0
 10
969.0242786435247
 20
957.4573277284313
 30
0.0
 10
969.0470415433792
 20
953.1891024953313
 30
0.0
 10
968.9942726171915
 20
948.7949025718361
 30
0.0
 10
968.9398544787451
 20
945.2562064063578
 30
0.0
 10
968.8993095388129
 20
942.5865017192492
 30
0.0
 10
968.8839268482831
 20
941.3904681047468
 30
0.0
 10
968.8762152315952
 20
940.7908751555876
 30
0.0
  0
ARC
  5
191
330
1F
100
AcDbEntity
  8
0
  6
Continuous
 62
     8
370
    18
100
AcDbCircle
 10
968.8808669038
 20
945.8485678063
 30
0.0
 40
5.057694789840093
100
AcDbArc
 50
255.2593224014
 51
269.947303814
  0
SPLINE
  5
192
330
1F
100
AcDbEntity
  8
0
  6
Continuous
 62
     8
370
    18
100
AcDbSpline
210
0.0
220
0.0
230
1.0
 70
     8
 71
     3
 72
    13
 73
     9
 74
     0
 42
0.000000001
 43
0.00000001
 40
0.0
 40
0.0
 40
0.0
 40
0.0
 40
0.2149368602724794
 40
0.4364871802266577
 40
0.572018954956124
 40
0.7091058686892352
 40
0.8535021383530079
 40
1.0
 40
1.0
 40
1.0
 40
1.0
 10
967.6110875479269
 20
961.1364423073468
 30
0.0
 10
967.6094340901038
 20
959.7776509003943
 30
0.0
 10
967.606076298695
 20
957.0182590074215
 30
0.0
 10
967.6038582182558
 20
953.1122080844422
 30
0.0
 10
967.5965848636
 20
949.7018226737338
 30
0.0
 10
967.5933848508739
 20
946.8118678349323
 30
0.0
 10
967.5928997718112
 20
943.8653977894339
 30
0.0
 10
967.593607403629
 20
941.9313469386082
 30
0.0
 10
967.5939637757142
 20
940.9573351471505
 30
0.0
  0
ARC
  5
193
330
1F
100
AcDbEntity
  8
0
  6
Continuous
 62
     8
370
    18
100
AcDbCircle
 10
968.9501802042
 20
957.8869555469
 30
0.0
 40
3.514588645692787
100
AcDbArc
 50
89.543868773
 51
112.3962449547
  0
ARC
  5
194
330
1F
100
AcDbEntity
  8
0
  6
Continuous
 62
     8
370
    18
100
AcDbCircle
 10
965.8806377521
 20
933.068714618
 30
0.0
 40
8.072534912694914
100
AcDbArc
 50
77.7462642009
 51
91.600444156
  0
SPLINE
  5
195
330
1F
100
AcDbEntity
  8
0
  6
Continuous
 62
     8
370
    18
100
AcDbSpline
210
0.0
220
0.0
230
1.0
 70
     8
 71
     3
 72
    13
 73
     9
 74
     0
 42
0.000000001
 43
0.00000001
 40
0.0
 40
0.0
 40
0.0
 40
0.0
 40
0.143681758422707
 40
0.2896128899910154
 40
0.4254711377184157
 40
0.5627814455502985
 40
0.7787239735870485
 40
1.0
 40
1.0
 40
1.0
 40
1.0
 10
965.6551767949201
 20
941.138100423184
 30
0.0
 10
965.6361355959552
 20
942.0708260584345
 30
0.0
 10
965.5977551033889
 20
943.9508793773731
 30
0.0
 10
965.5323426363399
 20
946.8056365277099
 30
0.0
 10
965.4831213894709
 20
949.6296211671165
 30
0.0
 10
965.4462820072988
 20
952.9067082504972
 30
0.0
 10
965.4721136451169
 20
956.7229422605939
 30
0.0
 10
965.5266122894898
 20
959.4315416552522
 30
0.0
 10
965.5541940180075
 20
960.8023620495259
 30
0.0
  0
ARC
  5
196
330
1F
100
AcDbEntity
  8
0
  6
Continuous
 62
     8
370
    18
100
AcDbCircle
 10
965.7282482344
 20
966.2297983375
 30
0.0
 40
5.430226471406507
100
AcDbArc
 50
268.1631925552
 51
290.28762721
  0
SPLINE
  5
197
330
1F
100
AcDbEntity
  8
0
  6
Continuous
 62
     8
370
    18
100
AcDbSpline
210
0.0
220
0.0
230
1.0
 70
     8
 71
     3
 72
    12
 73
     8
 74
     0
 42
0.000000001
 43
0.00000001
 40
0.0
 40
0.0
 40
0.0
 40
0.0
 40
0.1139159269059948
 40
0.3258009088085498
 40
0.5443041886655106
 40
0.8274327407183935
 40
1.0
 40
1.0
 40
1.0
 40
1.0
 10
887.5820387555831
 20
940.9722176619348
 30
0.0
 10
887.5824106352038
 20
941.725689145685
 30
0.0
 10
887.5834742153519
 20
943.8806265704552
 30
0.0
 10
887.5898258027064
 20
947.6355335486511
 30
0.0
 10
887.6033358972602
 20
952.5814110628037
 30
0.0
 10
887.6050795118912
 20
957.189906962291
 30
0.0
 10
887.6094963554108
 20
960.0458687478224
 30
0.0
 10
887.6111689680657
 20
961.1273917411954
 30
0.0
  0
ARC
  5
198
330
1F
100
AcDbEntity
  8
0
  6
Continuous
 62
     8
370
    18
100
AcDbCircle
 10
888.9627814947
 20
957.935255295
 30
0.0
 40
3.466495566627323
100
AcDbArc
 50
89.2238649506
 51
112.9487422267
  0
SPLINE
  5
199
330
1F
100
AcDbEntity
  8
0
  6
Continuous
 62
     8
370
    18
100
AcDbSpline
210
0.0
220
0.0
230
1.0
 70
     8
 71
     3
 72
    13
 73
     9
 74
     0
 42
0.000000001
 43
0.00000001
 40
0.0
 40
0.0
 40
0.0
 40
0.0
 40
0.2029467742027865
 40
0.4117773519856947
 40
0.6147258594307117
 40
0.8235672334127722
 40
0.9115535143092889
 40
1.0
 40
1.0
 40
1.0
 40
1.0
 10
888.9414348330788
 20
940.790875155588
 30
0.0
 10
888.9513944239459
 20
942.1735299042565
 30
0.0
 10
888.9716023527011
 20
944.978925128466
 30
0.0
 10
889.0114823336046
 20
949.3523251443139
 30
0.0
 10
889.0396642177068
 20
953.7458668778675
 30
0.0
 10
889.029112021453
 20
957.1848200350588
 30
0.0
 10
889.0159977588062
 20
959.7253747918847
 30
0.0
 10
889.0118279424435
 20
960.8417761422975
 30
0.0
 10
889.0097375960164
 20
961.4014328204437
 30
0.0
  0
ARC
  5
19A
330
1F
100
AcDbEntity
  8
0
  6
Continuous
 62
     8
370
    18
100
AcDbCircle
 10
888.9024003518
 20
945.6841464424
 30
0.0
 40
4.893426976802296
100
AcDbArc
 50
254.3462356244
 51
270.4570487635
  0
ARC
  5
19B
330
1F
100
AcDbEntity
  8
0
  6
Continuous
 62
     8
370
    18
100
AcDbCircle
 10
885.7102787411
 20
933.7153800368
 30
0.0
 40
7.49434305790836
100
AcDbArc
 50
75.536903345
 51
90.7939043825
  0
SPLINE
  5
19C
330
1F
100
AcDbEntity
  8
0
  6
Continuous
 62
     8
370
    18
100
AcDbSpline
210
0.0
220
0.0
230
1.0
 70
     8
 71
     3
 72
    12
 73
     8
 74
     0
 42
0.000000001
 43
0.00000001
 40
0.0
 40
0.0
 40
0.0
 40
0.0
 40
0.1720163517394625
 40
0.4559765852487129
 40
0.6679924881477982
 40
0.886316203050505
 40
1.0
 40
1.0
 40
1.0
 40
1.0
 10
885.5443390817853
 20
960.7476444267363
 30
0.0
 10
885.5260249777488
 20
959.699941509919
 30
0.0
 10
885.4774784149595
 20
956.9227171731947
 30
0.0
 10
885.4463590362133
 20
952.5010329079581
 30
0.0
 10
885.5042896539285
 20
947.7122914675532
 30
0.0
 10
885.5650191435215
 20
944.0701410785213
 30
0.0
 10
885.5958736225167
 20
941.9388024263085
 30
0.0
 10
885.6064386073434
 20
941.2090036659822
 30
0.0
  0
ARC
  5
19D
330
1F
100
AcDbEntity
  8
0
  6
Continuous
 62
     8
370
    18
100
AcDbCircle
 10
885.648002114
 20
965.9978278298
 30
0.0
 40
5.251206698455325
100
AcDbArc
 50
268.86886188
 51
291.9532916353
  0
SPLINE
  5
19E
330
1F
100
AcDbEntity
  8
0
  6
Continuous
 62
     8
370
    18
100
AcDbSpline
210
0.0
220
0.0
230
1.0
 70
     8
 71
     3
 72
    12
 73
     8
 74
     0
 42
0.000000001
 43
0.00000001
 40
0.0
 40
0.0
 40
0.0
 40
0.0
 40
0.1720163517392757
 40
0.4559765852483123
 40
0.6679924881472418
 40
0.886316203049785
 40
1.0
 40
1.0
 40
1.0
 40
1.0
 10
978.5649974528013
 20
960.7476444267351
 30
0.0
 10
978.5833115568379
 20
959.6999415099182
 30
0.0
 10
978.631858119627
 20
956.9227171731941
 30
0.0
 10
978.6629774983733
 20
952.5010329079579
 30
0.0
 10
978.6050468806584
 20
947.7122914675532
 30
0.0
 10
978.5443173910652
 20
944.0701410785157
 30
0.0
 10
978.5134629120699
 20
941.938802426298
 30
0.0
 10
978.5028979272432
 20
941.2090036659666
 30
0.0
  0
ARC
  5
19F
330
1F
100
AcDbEntity
  8
0
  6
Continuous
 62
     8
370
    18
100
AcDbCircle
 10
978.3990577935
 20
933.7153800358
 30
0.0
 40
7.494343058827487
100
AcDbArc
 50
89.206095618
 51
104.4630966537
  0
SPLINE
  5
1A0
330
1F
100
AcDbEntity
  8
0
  6
Continuous
 62
     8
370
    18
100
AcDbSpline
210
0.0
220
0.0
230
1.0
 70
     8
 71
     3
 72
    12
 73
     8
 74
     0
 42
0.000000001
 43
0.00000001
 40
0.0
 40
0.0
 40
0.0
 40
0.0
 40
0.1139185701341836
 40
0.3290869588708605
 40
0.5442936150078441
 40
0.8274287365843251
 40
1.0
 40
1.0
 40
1.0
 40
1.0
 10
976.5272977790038
 20
940.9722176619348
 30
0.0
 10
976.5269293319765
 20
941.7256715293925
 30
0.0
 10
976.5258649654596
 20
943.902242404528
 30
0.0
 10
976.5193418837764
 20
947.659191497815
 30
0.0
 10
976.506022593967
 20
952.6038041773509
 30
0.0
 10
976.5042522516878
 20
957.1899343612553
 30
0.0
 10
976.4998388687063
 20
960.0458762735934
 30
0.0
 10
976.498167566521
 20
961.1273917411954
 30
0.0
  0
ARC
  5
1A1
330
1F
100
AcDbEntity
  8
0
  6
Continuous
 62
     8
370
    18
100
AcDbCircle
 10
978.4613344206
 20
965.9978278298
 30
0.0
 40
5.2512066984336
100
AcDbArc
 50
248.0467083646
 51
271.13113812
  0
SPLINE
  5
1A2
330
1F
100
AcDbEntity
  8
0
  6
Continuous
 62
     8
370
    18
100
AcDbSpline
210
0.0
220
0.0
230
1.0
 70
     8
 71
     3
 72
    13
 73
     9
 74
     0
 42
0.000000001
 43
0.00000001
 40
0.0
 40
0.0
 40
0.0
 40
0.0
 40
0.2029467742027865
 40
0.4117773519856945
 40
0.6147258594307157
 40
0.823567233412776
 40
0.9115535143092928
 40
1.0
 40
1.0
 40
1.0
 40
1.0
 10
975.1679017015082
 20
940.7908751555876
 30
0.0
 10
975.1579421106408
 20
942.1735299042564
 30
0.0
 10
975.1377341818855
 20
944.978925128466
 30
0.0
 10
975.097854200982
 20
949.3523251443138
 30
0.0
 10
975.0696723168797
 20
953.7458668778675
 30
0.0
 10
975.0802245131339
 20
957.1848200350587
 30
0.0
 10
975.0933387757806
 20
959.7253747918847
 30
0.0
 10
975.0975085921433
 20
960.8417761422972
 30
0.0
 10
975.0995989385704
 20
961.4014328204435
 30
0.0
  0
ARC
  5
1A3
330
1F
100
AcDbEntity
  8
0
  6
Continuous
 62
     8
370
    18
100
AcDbCircle
 10
975.1465550399
 20
957.935255295
 30
0.0
 40
3.466495566624878
100
AcDbArc
 50
67.0512577733
 51
90.7761350494
  0
ARC
  5
1A4
330
1F
100
AcDbEntity
  8
0
  6
Continuous
 62
     8
370
    18
100
AcDbCircle
 10
975.2069361827
 20
945.6841464424
 30
0.0
 40
4.893426976806134
100
AcDbArc
 50
269.5429512365
 51
285.6537643756
  0
SPLINE
  5
1A5
330
1F
100
AcDbEntity
  8
0
  6
Continuous
 62
     8
370
    18
100
AcDbSpline
210
0.0
220
0.0
230
1.0
 70
     8
 71
     3
 72
    18
 73
    14
 74
     0
 42
0.000000001
 43
0.00000001
 40
0.0
 40
0.0
 40
0.0
 40
0.0
 40
0.1170843799009918
 40
0.237281924902866
 40
0.3300747022077624
 40
0.4254586925014824
 40
0.4734360164953311
 40
0.5731168771933359
 40
0.6761579172513456
 40
0.7772864519268966
 40
0.8811332132399238
 40
0.9999978571948125
 40
1.0
 40
1.0
 40
1.0
 40
1.0
 10
914.3016252518211
 20
936.1035448012958
 30
0.0
 10
913.6494011640503
 20
936.8546755433662
 30
0.0
 10
912.3276109547576
 20
938.3769088974894
 30
0.0
 10
910.8664023807831
 20
940.9175526236252
 30
0.0
 10
909.8365800599324
 20
943.5206056520025
 30
0.0
 10
909.328635202611
 20
945.6523735482245
 30
0.0
 10
909.0468886496166
 20
947.8970780911905
 30
0.0
 10
909.0172139428269
 20
950.2483163810568
 30
0.0
 10
909.4047288489265
 20
953.0480186169956
 30
0.0
 10
910.1884172720484
 20
955.7653860671691
 30
0.0
 10
911.3994709167703
 20
958.4185797654608
 30
0.0
 10
912.4785610098493
 20
960.0562092540587
 30
0.0
 10
913.1117499307788
 20
960.8652298585625
 30
0.0
 10
913.1117613452415
 20
960.8652444427336
 30
0.0
  0
SPLINE
  5
1A6
330
1F
100
AcDbEntity
  8
0
  6
Continuous
 62
     8
370
    18
100
AcDbSpline
210
0.0
220
0.0
230
1.0
 70
     8
 71
     3
 72
    12
 73
     8
 74
     0
 42
0.000000001
 43
0.00000001
 40
0.0
 40
0.0
 40
0.0
 40
0.0
 40
0.0000046503675272
 40
0.3713978843430382
 40
0.6812676171491645
 40
0.9999954071658926
 40
0.9999999999999999
 40
0.9999999999999999
 40
0.9999999999999999
 40
0.9999999999999999
 10
913.1117613452415
 20
960.8652444427336
 30
0.0
 10
913.1117719126503
 20
960.8652595543601
 30
0.0
 10
913.9557295673052
 20
962.072137528497
 30
0.0
 10
915.7428663217026
 20
964.1467515165338
 30
0.0
 10
918.9157509785074
 20
966.6745832236232
 30
0.0
 10
921.1924510285503
 20
967.9321468053674
 30
0.0
 10
922.4022016381269
 20
968.4726981715381
 30
0.0
 10
922.4022190702555
 20
968.4727059607145
 30
0.0
  0
SPLINE
  5
1A7
330
1F
100
AcDbEntity
  8
0
  6
Continuous
 62
     8
370
    18
100
AcDbSpline
210
0.0
220
0.0
230
1.0
 70
     8
 71
     3
 72
    13
 73
     9
 74
     0
 42
0.000000001
 43
0.00000001
 40
0.0
 40
0.0
 40
0.0
 40
0.0
 40
0.0000060748835873
 40
0.0389961893340875
 40
0.442705928278595
 40
0.8520774557676255
 40
0.9999939251164126
 40
1.0
 40
1.0
 40
1.0
 40
1.0
 10
922.4022190702555
 20
968.4727059607145
 30
0.0
 10
922.4022379768384
 20
968.4727113888326
 30
0.0
 10
922.5236040370407
 20
968.5075558292747
 30
0.0
 10
923.9039672257754
 20
968.893575121453
 30
0.0
 10
926.601482081022
 20
969.4658232798238
 30
0.0
 10
929.7333961301639
 20
969.7869162931739
 30
0.0
 10
931.5677042695537
 20
969.8305718942667
 30
0.0
 10
932.0546482694754
 20
969.8322437234647
 30
0.0
 10
932.0546682672934
 20
969.8322437921233
 30
0.0
  0
ARC
  5
1A8
330
1F
100
AcDbEntity
  8
0
  6
Continuous
 62
     8
370
    18
100
AcDbCircle
 10
916.2365005731
 20
933.1367891548
 30
0.0
 40
3.541946015253895
100
AcDbArc
 50
94.7268731721
 51
123.1118118867
  0
LINE
  5
1A9
330
1F
100
AcDbEntity
  8
0
  6
Continuous
 62
     8
370
    18
100
AcDbLine
 10
895.1311770148
 20
961.4014328204
 30
0.0
 11
889.009737596
 21
961.4014328204
 31
0.0
  0
LINE
  5
1AA
330
1F
100
AcDbEntity
  8
0
  6
Continuous
 62
     8
370
    18
100
AcDbLine
 10
895.233121303
 20
940.7908751556
 30
0.0
 11
888.9414348331
 21
940.7908751556
 31
0.0
  0
LINE
  5
1AB
330
1F
100
AcDbEntity
  8
0
  6
Continuous
 62
     8
370
    18
100
AcDbLine
 10
968.9781595198
 20
961.4014328204
 30
0.0
 11
975.0995989386
 21
961.4014328204
 31
0.0
  0
LINE
  5
1AC
330
1F
100
AcDbEntity
  8
0
  6
Continuous
 62
     8
370
    18
100
AcDbLine
 10
968.8762152316
 20
940.7908751556
 30
0.0
 11
975.1679017015
 21
940.7908751556
 31
0.0
  0
SPLINE
  5
1AD
330
1F
100
AcDbEntity
  8
0
  6
Continuous
 62
     8
370
    18
100
AcDbSpline
210
0.0
220
0.0
230
1.0
 70
     8
 71
     3
 72
    11
 73
     7
 74
     0
 42
0.000000001
 43
0.00000001
 40
0.0
 40
0.0
 40
0.0
 40
0.0
 40
0.2462626445433184
 40
0.4941955352616855
 40
0.7464627646446215
 40
1.0
 40
1.0
 40
1.0
 40
1.0
 10
898.000642106149
 20
936.1612940917815
 30
0.0
 10
898.0707113016065
 20
936.5445436066267
 30
0.0
 10
898.2113249282435
 20
937.3136419791341
 30
0.0
 10
898.3335344196486
 20
938.5400789460309
 30
0.0
 10
898.4192367077329
 20
939.8131200045328
 30
0.0
 10
898.4424992593247
 20
940.6957016029911
 30
0.0
 10
898.4541597396666
 20
941.1381004231841
 30
0.0
  0
SPLINE
  5
1AE
330
1F
100
AcDbEntity
  8
0
  6
Continuous
 62
     8
370
    18
100
AcDbSpline
210
0.0
220
0.0
230
1.0
 70
     8
 71
     3
 72
    12
 73
     8
 74
     0
 42
0.000000001
 43
0.00000001
 40
0.0
 40
0.0
 40
0.0
 40
0.0
 40
0.1229311840443836
 40
0.3421870394857943
 40
0.5614466570298289
 40
0.7807202463634099
 40
1.0
 40
1.0
 40
1.0
 40
1.0
 10
898.5551425165792
 20
960.8023620495261
 30
0.0
 10
898.5536717707975
 20
960.914258196123
 30
0.0
 10
898.5495778531412
 20
961.2257284827838
 30
0.0
 10
898.5433384648857
 20
961.7357035323075
 30
0.0
 10
898.5354791758672
 20
962.3319976611525
 30
0.0
 10
898.5276296543652
 20
962.926932845352
 30
0.0
 10
898.5225682043284
 20
963.3221159154843
 30
0.0
 10
898.5200374437381
 20
963.519710227896
 30
0.0
  0
SPLINE
  5
1AF
330
1F
100
AcDbEntity
  8
0
  6
Continuous
 62
     8
370
    18
100
AcDbSpline
210
0.0
220
0.0
230
1.0
 70
     8
 71
     3
 72
    13
 73
     9
 74
     0
 42
0.000000001
 43
0.00000001
 40
0.0
 40
0.0
 40
0.0
 40
0.0
 40
0.2367907207557265
 40
0.4727251677986153
 40
0.6779786081237327
 40
0.8068813697292117
 40
0.9029811039670014
 40
1.0
 40
1.0
 40
1.0
 40
1.0
 10
898.5200374437381
 20
963.519710227896
 30
0.0
 10
898.5035563075868
 20
964.0041345277848
 30
0.0
 10
898.4706536337497
 20
964.9712313705994
 30
0.0
 10
898.1846169770907
 20
966.3223997197103
 30
0.0
 10
897.67375898229
 20
967.3928880034625
 30
0.0
 10
896.9932521394429
 20
968.0318775238368
 30
0.0
 10
896.3276289338806
 20
968.3517339387635
 30
0.0
 10
895.8777812097939
 20
968.3910034092787
 30
0.0
 10
895.6517868067025
 20
968.4107315974492
 30
0.0
  0
SPLINE
  5
1B0
330
1F
100
AcDbEntity
  8
0
  6
Continuous
 62
     8
370
    18
100
AcDbSpline
210
0.0
220
0.0
230
1.0
 70
     8
 71
     3
 72
    11
 73
     7
 74
     0
 42
0.000000001
 43
0.00000001
 40
0.0
 40
0.0
 40
0.0
 40
0.0
 40
0.2499912677933777
 40
0.4999867562316059
 40
0.749992678491824
 40
1.0
 40
1.0
 40
1.0
 40
1.0
 10
895.6517868067025
 20
968.4107315974492
 30
0.0
 10
895.0592967492797
 20
968.4162294523766
 30
0.0
 10
893.8743066313241
 20
968.4272252550526
 30
0.0
 10
892.0969486190202
 20
968.4485822447848
 30
0.0
 10
890.3197570598378
 20
968.4754551643653
 30
0.0
 10
889.1349886190891
 20
968.492405095105
 30
0.0
 10
888.5426027409737
 20
968.5008800841914
 30
0.0
  0
SPLINE
  5
1B1
330
1F
100
AcDbEntity
  8
0
  6
Continuous
 62
     8
370
    18
100
AcDbSpline
210
0.0
220
0.0
230
1.0
 70
     8
 71
     3
 72
    10
 73
     6
 74
     0
 42
0.000000001
 43
0.00000001
 40
0.0
 40
0.0
 40
0.0
 40
0.0
 40
0.4993573099105828
 40
0.9998128115878191
 40
0.9999999999999999
 40
0.9999999999999999
 40
0.9999999999999999
 40
0.9999999999999999
 10
888.5426027409737
 20
968.5008800841914
 30
0.0
 10
888.4892457367758
 20
968.5008034640908
 30
0.0
 10
888.3824143851041
 20
968.5006500553862
 30
0.0
 10
888.2756613598157
 20
968.4950353138706
 30
0.0
 10
888.2223254853081
 20
968.4912703289999
 30
0.0
 10
888.2223055432261
 20
968.4912689212864
 30
0.0
  0
SPLINE
  5
1B2
330
1F
100
AcDbEntity
  8
0
  6
Continuous
 62
     8
370
    18
100
AcDbSpline
210
0.0
220
0.0
230
1.0
 70
     8
 71
     3
 72
    14
 73
    10
 74
     0
 42
0.000000001
 43
0.00000001
 40
0.0
 40
0.0
 40
0.0
 40
0.0
 40
0.0000086772972158
 40
0.0546554576672727
 40
0.1545956188497728
 40
0.2815115513695395
 40
0.4757791841528836
 40
0.7372214479202458
 40
1.0
 40
1.0
 40
1.0
 40
1.0
 10
888.2223055432261
 20
968.4912689212864
 30
0.0
 10
888.2222857003387
 20
968.4912668004531
 30
0.0
 10
888.0973018417832
 20
968.4779083650701
 30
0.0
 10
887.7468449375284
 20
968.4135071607878
 30
0.0
 10
887.156630786643
 20
968.1575209755516
 30
0.0
 10
886.4746271554915
 20
967.5415843718966
 30
0.0
 10
885.9239002397395
 20
966.465910325621
 30
0.0
 10
885.6164635821439
 20
965.0450943011839
 30
0.0
 10
885.58646180877
 20
963.9860806397131
 30
0.0
 10
885.5714226834078
 20
963.4552240461146
 30
0.0
  0
SPLINE
  5
1B3
330
1F
100
AcDbEntity
  8
0
  6
Continuous
 62
     8
370
    18
100
AcDbSpline
210
0.0
220
0.0
230
1.0
 70
     8
 71
     3
 72
    10
 73
     6
 74
     0
 42
0.000000001
 43
0.00000001
 40
0.0
 40
0.0
 40
0.0
 40
0.0
 40
0.4999712442950947
 40
0.7499826264318606
 40
1.0
 40
1.0
 40
1.0
 40
1.0
 10
885.5714226834078
 20
963.4552240461146
 30
0.0
 10
885.5669196449263
 20
963.0057820893686
 30
0.0
 10
885.5601648551942
 20
962.3315959976779
 30
0.0
 10
885.5509903655645
 20
961.4276199348305
 30
0.0
 10
885.5465561940887
 20
960.9743047400015
 30
0.0
 10
885.5443390817853
 20
960.7476444267363
 30
0.0
  0
SPLINE
  5
1B4
330
1F
100
AcDbEntity
  8
0
  6
Continuous
 62
     8
370
    18
100
AcDbSpline
210
0.0
220
0.0
230
1.0
 70
     8
 71
     3
 72
    11
 73
     7
 74
     0
 42
0.000000001
 43
0.00000001
 40
0.0
 40
0.0
 40
0.0
 40
0.0
 40
0.2471593440128848
 40
0.4953474341907588
 40
0.7469783905689334
 40
1.0
 40
1.0
 40
1.0
 40
1.0
 10
885.6064386073434
 20
941.2090036659822
 30
0.0
 10
885.6154535385308
 20
940.7715896999517
 30
0.0
 10
885.6335209235648
 20
939.8949411288945
 30
0.0
 10
885.7060689284795
 20
938.612878921082
 30
0.0
 10
885.8128712119628
 20
937.3534031680575
 30
0.0
 10
885.9428239528917
 20
936.5506930675487
 30
0.0
 10
886.0079793764197
 20
936.148232017516
 30
0.0
  0
SPLINE
  5
1B5
330
1F
100
AcDbEntity
  8
0
  6
Continuous
 62
     8
370
    18
100
AcDbSpline
210
0.0
220
0.0
230
1.0
 70
     8
 71
     3
 72
    18
 73
    14
 74
     0
 42
0.000000001
 43
0.00000001
 40
0.0
 40
0.0
 40
0.0
 40
0.0
 40
0.0523730000254536
 40
0.1524774488988115
 40
0.2527454654215899
 40
0.3528294914886515
 40
0.4529446917616049
 40
0.5565696869728531
 40
0.6602042581553638
 40
0.7756279704749335
 40
0.8910143299899647
 40
0.9999989407468235
 40
1.0
 40
1.0
 40
1.0
 40
1.0
 10
886.0079793764197
 20
936.148232017516
 30
0.0
 10
885.019350846006
 20
936.1536544196292
 30
0.0
 10
882.1410823459619
 20
936.1694410661976
 30
0.0
 10
877.3777056037122
 20
936.0458427663361
 30
0.0
 10
871.9424488685478
 20
935.7800471679992
 30
0.0
 10
866.8351972508523
 20
935.6948019155492
 30
0.0
 10
862.120734062096
 20
935.5937285602306
 30
0.0
 10
857.9136545888301
 20
935.508890184958
 30
0.0
 10
854.1688363846936
 20
935.431193100337
 30
0.0
 10
851.1320986233255
 20
935.3771311656135
 30
0.0
 10
849.036199425472
 20
935.3318515809307
 30
0.0
 10
848.3721592787527
 20
935.2911172019634
 30
0.0
 10
848.2238315207861
 20
935.2738254453592
 30
0.0
 10
848.2238300791595
 20
935.2738252772971
 30
0.0
  0
SPLINE
  5
1B6
330
1F
100
AcDbEntity
  8
0
  6
Continuous
 62
     8
370
    18
100
AcDbSpline
210
0.0
220
0.0
230
1.0
 70
    24
 71
     3
 72
    13
 73
     9
 74
     0
 42
0.000000001
 43
0.00000001
 40
0.0
 40
0.0
 40
0.0
 40
0.0
 40
0.0110338135176561
 40
0.1238791831256935
 40
0.2424431658814003
 40
0.367620380925847
 40
0.4940963046860038
 40
1.0
 40
1.0
 40
1.0
 40
1.0
 10
932.0546682672934
 20
969.8322437921329
 30
0.0
 10
932.0546682672934
 20
969.8472199303702
 30
0.0
 10
932.0546682672934
 20
970.0153605073539
 30
0.0
 10
932.0546682672934
 20
970.3177647457907
 30
0.0
 10
932.0546682672934
 20
970.6443718099051
 30
0.0
 10
932.0546682672934
 20
971.5200908978015
 30
0.0
 10
932.0546682672934
 20
973.1271502117338
 30
0.0
 10
932.0546682672934
 20
974.5074441944145
 30
0.0
 10
932.0546682672934
 20
975.6116793806783
 30
0.0
  0
SPLINE
  5
1B7
330
1F
100
AcDbEntity
  8
0
  6
Continuous
 62
     8
370
    18
100
AcDbSpline
210
0.0
220
0.0
230
1.0
 70
     8
 71
     3
 72
    10
 73
     6
 74
     0
 42
0.000000001
 43
0.00000001
 40
0.0
 40
0.0
 40
0.0
 40
0.0
 40
0.1324174185454045
 40
0.5661890535506213
 40
1.0
 40
1.0
 40
1.0
 40
1.0
 10
914.3016252518211
 20
936.1035448012958
 30
0.0
 10
913.5821733222463
 20
936.1051549894564
 30
0.0
 10
910.5059480676255
 20
936.112039815642
 30
0.0
 10
905.0723439916883
 20
936.1360281036655
 30
0.0
 10
900.3579472734144
 20
936.152871841338
 30
0.0
 10
898.000642106149
 20
936.1612940917815
 30
0.0
  0
SPLINE
  5
1B8
330
1F
100
AcDbEntity
  8
0
  6
Continuous
 62
     8
370
    18
100
AcDbSpline
210
0.0
220
0.0
230
1.0
 70
     8
 71
     3
 72
    13
 73
     9
 74
     0
 42
0.000000001
 43
0.00000001
 40
0.0
 40
0.0
 40
0.0
 40
0.0
 40
0.0000053737334978
 40
0.0906707942514933
 40
0.4284179505337227
 40
0.7661993120302165
 40
0.9999947023277419
 40
1.0
 40
1.0
 40
1.0
 40
1.0
 10
1014.250866543964
 20
959.7725317374503
 30
0.0
 10
1014.25086426758
 20
959.7725488725689
 30
0.0
 10
1014.21245493069
 20
960.0616690574266
 30
0.0
 10
1014.045395937322
 20
961.4125386325616
 30
0.0
 10
1013.903931034539
 20
963.6932786523308
 30
0.0
 10
1014.007752615269
 20
966.0606345198081
 30
0.0
 10
1014.195758287787
 20
967.3215006843748
 30
0.0
 10
1014.282478204011
 20
967.7937268200936
 30
0.0
 10
1014.282480168991
 20
967.7937375202305
 30
0.0
  0
SPLINE
  5
1B9
330
1F
100
AcDbEntity
  8
0
  6
Continuous
 62
     8
370
    18
100
AcDbSpline
210
0.0
220
0.0
230
1.0
 70
     8
 71
     3
 72
    16
 73
    12
 74
     0
 42
0.000000001
 43
0.00000001
 40
0.0
 40
0.0
 40
0.0
 40
0.0
 40
0.1394094534900457
 40
0.2827549548329896
 40
0.4174662298324172
 40
0.5565082610192973
 40
0.6798003195682376
 40
0.8081263295826784
 40
0.9032923535072406
 40
0.9999977543174701
 40
1.0
 40
1.0
 40
1.0
 40
1.0
 10
1011.057394240625
 20
935.4107932772208
 30
0.0
 10
1011.33914706639
 20
936.3430400172635
 30
0.0
 10
1011.910607649076
 20
938.233854293304
 30
0.0
 10
1012.839293081458
 20
941.4534202714439
 30
0.0
 10
1013.703028930735
 20
944.8959005460835
 30
0.0
 10
1014.357885385671
 20
948.360452821736
 30
0.0
 10
1014.719840351647
 20
951.8396037915015
 30
0.0
 10
1014.709087438733
 20
954.8752521147629
 30
0.0
 10
1014.510614669631
 20
957.5354916487896
 30
0.0
 10
1014.339214336565
 20
959.040339147267
 30
0.0
 10
1014.250868595471
 20
959.7725147353415
 30
0.0
 10
1014.250866543964
 20
959.7725317374503
 30
0.0
  0
SPLINE
  5
1BA
330
1F
100
AcDbEntity
  8
0
  6
Continuous
 62
     8
370
    18
100
AcDbSpline
210
0.0
220
0.0
230
1.0
 70
     8
 71
     3
 72
    15
 73
    11
 74
     0
 42
0.000000001
 43
0.00000001
 40
0.0
 40
0.0
 40
0.0
 40
0.0
 40
0.0741043092108454
 40
0.2157454416471986
 40
0.3576180114207995
 40
0.4992302469455361
 40
0.6408865918967278
 40
0.7875090630818145
 40
0.9341450836288826
 40
1.0
 40
1.0
 40
1.0
 40
1.0
 10
978.1013571581677
 20
936.1482320175162
 30
0.0
 10
979.0899865729255
 20
936.1536544294702
 30
0.0
 10
981.968257647627
 20
936.1694411046891
 30
0.0
 10
986.7316013826949
 20
936.0458424375248
 30
0.0
 10
992.1669962700405
 20
935.780048376541
 30
0.0
 10
997.273735241091
 20
935.6947974193748
 30
0.0
 10
1001.990133212303
 20
935.5937455942567
 30
0.0
 10
1006.189745579231
 20
935.5088241252504
 30
0.0
 10
1009.158097289408
 20
935.4479674776364
 30
0.0
 10
1010.608032267352
 20
935.4195884643257
 30
0.0
 10
1011.057394240625
 20
935.4107932772208
 30
0.0
  0
SPLINE
  5
1BB
330
1F
100
AcDbEntity
  8
0
  6
Continuous
 62
     8
370
    18
100
AcDbSpline
210
0.0
220
0.0
230
1.0
 70
     8
 71
     3
 72
    11
 73
     7
 74
     0
 42
0.000000001
 43
0.00000001
 40
0.0
 40
0.0
 40
0.0
 40
0.0
 40
0.2471593440107359
 40
0.4953474341893453
 40
0.7469783905682664
 40
1.0
 40
1.0
 40
1.0
 40
1.0
 10
978.5028979272432
 20
941.2090036659666
 30
0.0
 10
978.4938829960558
 20
940.7715896999415
 30
0.0
 10
978.4758156110216
 20
939.8949411288894
 30
0.0
 10
978.4032676061074
 20
938.612878921082
 30
0.0
 10
978.2964653226238
 20
937.3534031680575
 30
0.0
 10
978.1665125816954
 20
936.5506930675488
 30
0.0
 10
978.1013571581677
 20
936.1482320175162
 30
0.0
  0
SPLINE
  5
1BC
330
1F
100
AcDbEntity
  8
0
  6
Continuous
 62
     8
370
    18
100
AcDbSpline
210
0.0
220
0.0
230
1.0
 70
     8
 71
     3
 72
    10
 73
     6
 74
     0
 42
0.000000001
 43
0.00000001
 40
0.0
 40
0.0
 40
0.0
 40
0.0
 40
0.499971244294921
 40
0.749982626431599
 40
1.0
 40
1.0
 40
1.0
 40
1.0
 10
978.5379138511788
 20
963.4552240461145
 30
0.0
 10
978.5424168896603
 20
963.0057820893684
 30
0.0
 10
978.5491716793924
 20
962.3315959976777
 30
0.0
 10
978.5583461690221
 20
961.4276199348301
 30
0.0
 10
978.562780340498
 20
960.9743047400005
 30
0.0
 10
978.5649974528013
 20
960.7476444267351
 30
0.0
  0
SPLINE
  5
1BD
330
1F
100
AcDbEntity
  8
0
  6
Continuous
 62
     8
370
    18
100
AcDbSpline
210
0.0
220
0.0
230
1.0
 70
     8
 71
     3
 72
    14
 73
    10
 74
     0
 42
0.000000001
 43
0.00000001
 40
0.0
 40
0.0
 40
0.0
 40
0.0
 40
0.0000086772971397
 40
0.0546554576672007
 40
0.1545956188497111
 40
0.2815115513694871
 40
0.4757791841528456
 40
0.7372214479202279
 40
1.0
 40
1.0
 40
1.0
 40
1.0
 10
975.8870309913611
 20
968.4912689212862
 30
0.0
 10
975.8870508342484
 20
968.4912668004529
 30
0.0
 10
976.0120346928013
 20
968.4779083650108
 30
0.0
 10
976.3624915970604
 20
968.4135071608388
 30
0.0
 10
976.9527057479427
 20
968.1575209755298
 30
0.0
 10
977.6347093790956
 20
967.5415843719065
 30
0.0
 10
978.1854362948468
 20
966.4659103256166
 30
0.0
 10
978.4928729524428
 20
965.0450943011848
 30
0.0
 10
978.5228747258167
 20
963.9860806397132
 30
0.0
 10
978.5379138511788
 20
963.4552240461145
 30
0.0
  0
SPLINE
  5
1BE
330
1F
100
AcDbEntity
  8
0
  6
Continuous
 62
     8
370
    18
100
AcDbSpline
210
0.0
220
0.0
230
1.0
 70
     8
 71
     3
 72
    10
 73
     6
 74
     0
 42
0.000000001
 43
0.00000001
 40
0.0
 40
0.0
 40
0.0
 40
0.0
 40
0.4993573099096776
 40
0.9998128115861747
 40
1.0
 40
1.0
 40
1.0
 40
1.0
 10
975.5667337936129
 20
968.5008800841913
 30
0.0
 10
975.6200907978116
 20
968.5008034640914
 30
0.0
 10
975.7269221494853
 20
968.5006500553882
 30
0.0
 10
975.8336751747645
 20
968.4950353138656
 30
0.0
 10
975.8870110492788
 20
968.4912703289998
 30
0.0
 10
975.8870309913611
 20
968.4912689212862
 30
0.0
  0
SPLINE
  5
1BF
330
1F
100
AcDbEntity
  8
0
  6
Continuous
 62
     8
370
    18
100
AcDbSpline
210
0.0
220
0.0
230
1.0
 70
     8
 71
     3
 72
    11
 73
     7
 74
     0
 42
0.000000001
 43
0.00000001
 40
0.0
 40
0.0
 40
0.0
 40
0.0
 40
0.2499912677933776
 40
0.4999867562316062
 40
0.7499926784918242
 40
1.0
 40
1.0
 40
1.0
 40
1.0
 10
968.4575497278842
 20
968.4107315974488
 30
0.0
 10
969.0500397853069
 20
968.4162294523762
 30
0.0
 10
970.2350299032624
 20
968.4272252550525
 30
0.0
 10
972.0123879155665
 20
968.4485822447847
 30
0.0
 10
973.7895794747487
 20
968.4754551643653
 30
0.0
 10
974.9743479154974
 20
968.4924050951048
 30
0.0
 10
975.5667337936129
 20
968.5008800841913
 30
0.0
  0
SPLINE
  5
1C0
330
1F
100
AcDbEntity
  8
0
  6
Continuous
 62
     8
370
    18
100
AcDbSpline
210
0.0
220
0.0
230
1.0
 70
     8
 71
     3
 72
    13
 73
     9
 74
     0
 42
0.000000001
 43
0.00000001
 40
0.0
 40
0.0
 40
0.0
 40
0.0
 40
0.236790720755729
 40
0.472725167798617
 40
0.6779786081237344
 40
0.8068813697292123
 40
0.9029811039670017
 40
0.9999999999999999
 40
0.9999999999999999
 40
0.9999999999999999
 40
0.9999999999999999
 10
965.5892990908484
 20
963.5197102278958
 30
0.0
 10
965.6057802269997
 20
964.0041345277846
 30
0.0
 10
965.6386829008369
 20
964.9712313705992
 30
0.0
 10
965.9247195574959
 20
966.3223997197102
 30
0.0
 10
966.4355775522966
 20
967.3928880034624
 30
0.0
 10
967.1160843951437
 20
968.0318775238366
 30
0.0
 10
967.7817076007061
 20
968.3517339387631
 30
0.0
 10
968.2315553247928
 20
968.3910034092785
 30
0.0
 10
968.4575497278842
 20
968.4107315974488
 30
0.0
  0
SPLINE
  5
1C1
330
1F
100
AcDbEntity
  8
0
  6
Continuous
 62
     8
370
    18
100
AcDbSpline
210
0.0
220
0.0
230
1.0
 70
     8
 71
     3
 72
    12
 73
     8
 74
     0
 42
0.000000001
 43
0.00000001
 40
0.0
 40
0.0
 40
0.0
 40
0.0
 40
0.1229311840443831
 40
0.3421870394857952
 40
0.5614466570298312
 40
0.7807202463634135
 40
1.0
 40
1.0
 40
1.0
 40
1.0
 10
965.5541940180075
 20
960.8023620495259
 30
0.0
 10
965.5556647637892
 20
960.9142581961228
 30
0.0
 10
965.5597586814455
 20
961.2257284827836
 30
0.0
 10
965.5659980697011
 20
961.7357035323072
 30
0.0
 10
965.5738573587195
 20
962.3319976611523
 30
0.0
 10
965.5817068802214
 20
962.9269328453518
 30
0.0
 10
965.5867683302581
 20
963.3221159154842
 30
0.0
 10
965.5892990908484
 20
963.5197102278958
 30
0.0
  0
SPLINE
  5
1C2
330
1F
100
AcDbEntity
  8
0
  6
Continuous
 62
     8
370
    18
100
AcDbSpline
210
0.0
220
0.0
230
1.0
 70
     8
 71
     3
 72
    11
 73
     7
 74
     0
 42
0.000000001
 43
0.00000001
 40
0.0
 40
0.0
 40
0.0
 40
0.0
 40
0.2462626445433908
 40
0.4941955352617329
 40
0.7464627646446462
 40
1.0
 40
1.0
 40
1.0
 40
1.0
 10
966.1086944284377
 20
936.1612940917809
 30
0.0
 10
966.0386252329803
 20
936.5445436066261
 30
0.0
 10
965.8980116063433
 20
937.3136419791336
 30
0.0
 10
965.7758021149382
 20
938.5400789460308
 30
0.0
 10
965.6900998268541
 20
939.8131200045327
 30
0.0
 10
965.666837275262
 20
940.695701602991
 30
0.0
 10
965.6551767949201
 20
941.138100423184
 30
0.0
  0
SPLINE
  5
1C3
330
1F
100
AcDbEntity
  8
0
  6
Continuous
 62
     8
370
    18
100
AcDbSpline
210
0.0
220
0.0
230
1.0
 70
     8
 71
     3
 72
    10
 73
     6
 74
     0
 42
0.000000001
 43
0.00000001
 40
0.0
 40
0.0
 40
0.0
 40
0.0
 40
0.1324174185454157
 40
0.566189053550627
 40
1.0
 40
1.0
 40
1.0
 40
1.0
 10
949.8077112827656
 20
936.103544801296
 30
0.0
 10
950.5271632123404
 20
936.1051549894564
 30
0.0
 10
953.6033884669612
 20
936.1120398156418
 30
0.0
 10
959.0369925428985
 20
936.1360281036655
 30
0.0
 10
963.7513892611726
 20
936.1528718413375
 30
0.0
 10
966.1086944284377
 20
936.1612940917809
 30
0.0
  0
SPLINE
  5
1C4
330
1F
100
AcDbEntity
  8
0
  6
Continuous
 62
     8
370
    18
100
AcDbSpline
210
0.0
220
0.0
230
1.0
 70
     8
 71
     3
 72
    11
 73
     7
 74
     0
 42
0.000000001
 43
0.00000001
 40
0.0
 40
0.0
 40
0.0
 40
0.0
 40
0.0000075172908922
 40
0.448675364976936
 40
0.9105406426921417
 40
1.0
 40
1.0
 40
1.0
 40
1.0
 10
1014.282480168991
 20
967.7937375202305
 30
0.0
 10
1014.282483823112
 20
967.7937457044391
 30
0.0
 10
1014.500582854215
 20
968.2822265799621
 30
0.0
 10
1014.814367136522
 20
969.0684460305479
 30
0.0
 10
1014.940556020541
 20
969.5403857099758
 30
0.0
 10
1014.984727264232
 20
969.6845481357972
 30
0.0
 10
1014.991894604164
 20
969.7079403028484
 30
0.0
  0
SPLINE
  5
1C5
330
1F
100
AcDbEntity
  8
0
  6
Continuous
 62
     8
370
    18
100
AcDbSpline
210
0.0
220
0.0
230
1.0
 70
     8
 71
     3
 72
    11
 73
     7
 74
     0
 42
0.000000001
 43
0.00000001
 40
0.0
 40
0.0
 40
0.0
 40
0.0
 40
0.3674155899718534
 40
0.7400731437703103
 40
0.8699218969645782
 40
1.0
 40
1.0
 40
1.0
 40
1.0
 10
896.5153727588726
 20
940.9573351471507
 30
0.0
 10
896.5150016908342
 20
940.3302980180803
 30
0.0
 10
896.5142542606835
 20
939.0672777433894
 30
0.0
 10
896.511853110189
 20
937.679606505949
 30
0.0
 10
896.5033796583699
 20
936.7156018594609
 30
0.0
 10
896.4956688478874
 20
936.3337764303556
 30
0.0
 10
896.4918100407791
 20
936.1426952614871
 30
0.0
  0
SPLINE
  5
1C6
330
1F
100
AcDbEntity
  8
0
  6
Continuous
 62
     8
370
    18
100
AcDbSpline
210
0.0
220
0.0
230
1.0
 70
     8
 71
     3
 72
    17
 73
    13
 74
     0
 42
0.000000001
 43
0.00000001
 40
0.0
 40
0.0
 40
0.0
 40
0.0
 40
0.3465956100132774
 40
0.5797997290136655
 40
0.7338947238710144
 40
0.8810219207410035
 40
0.9331891565949332
 40
0.9524593563030799
 40
0.9753918570412521
 40
0.9867243403144463
 40
0.9980977605384078
 40
1.0
 40
1.0
 40
1.0
 40
1.0
 10
896.4918100407791
 20
936.1426952614871
 30
0.0
 10
896.4817930177326
 20
935.7620343049743
 30
0.0
 10
896.4650361198374
 20
935.1252486300959
 30
0.0
 10
896.4472417497561
 20
934.3909844097775
 30
0.0
 10
896.412148729471
 20
933.8826752982246
 30
0.0
 10
896.3634489637849
 20
933.562332260645
 30
0.0
 10
896.2810915531625
 20
933.375033796007
 30
0.0
 10
896.2210552771163
 20
933.30148268387
 30
0.0
 10
896.1716833917873
 20
933.2644324223955
 30
0.0
 10
896.1133760516915
 20
933.246292792094
 30
0.0
 10
896.0782013880614
 20
933.2440153273585
 30
0.0
 10
896.0597463363982
 20
933.2451622342636
 30
0.0
 10
896.0571019534923
 20
933.2453265719782
 30
0.0
  0
SPLINE
  5
1C7
330
1F
100
AcDbEntity
  8
0
  6
Continuous
 62
     8
370
    18
100
AcDbSpline
210
0.0
220
0.0
230
1.0
 70
     8
 71
     3
 72
    13
 73
     9
 74
     0
 42
0.000000001
 43
0.00000001
 40
0.0
 40
0.0
 40
0.0
 40
0.0
 40
0.2478822118510309
 40
0.5026960354996666
 40
0.5906876656854307
 40
0.6789803873276623
 40
0.8384693780655351
 40
1.0
 40
1.0
 40
1.0
 40
1.0
 10
895.2331213029915
 20
940.790875155588
 30
0.0
 10
895.2481945868094
 20
940.0431666778467
 30
0.0
 10
895.2787626536369
 20
938.5268413043425
 30
0.0
 10
895.3883314050629
 20
936.922023497515
 30
0.0
 10
895.5015150604871
 20
935.8437311444375
 30
0.0
 10
895.6039862081615
 20
935.0468084261638
 30
0.0
 10
895.7679361385955
 20
934.1430400383467
 30
0.0
 10
895.9603055360984
 20
933.5458304452374
 30
0.0
 10
896.0571019534923
 20
933.2453265719782
 30
0.0
  0
SPLINE
  5
1C8
330
1F
100
AcDbEntity
  8
0
  6
Continuous
 62
     8
370
    18
100
AcDbSpline
210
0.0
220
0.0
230
1.0
 70
     8
 71
     3
 72
    13
 73
     9
 74
     0
 42
0.000000001
 43
0.00000001
 40
0.0
 40
0.0
 40
0.0
 40
0.0
 40
0.2478822118510322
 40
0.502696035499669
 40
0.5906876656854326
 40
0.6789803873276651
 40
0.8384693780655392
 40
1.0
 40
1.0
 40
1.0
 40
1.0
 10
968.8762152315952
 20
940.7908751555876
 30
0.0
 10
968.8611419477774
 20
940.0431666778466
 30
0.0
 10
968.8305738809498
 20
938.5268413043424
 30
0.0
 10
968.7210051295239
 20
936.9220234975148
 30
0.0
 10
968.6078214740998
 20
935.8437311444371
 30
0.0
 10
968.5053503264254
 20
935.0468084261636
 30
0.0
 10
968.3414003959913
 20
934.1430400383465
 30
0.0
 10
968.1490309984883
 20
933.5458304452372
 30
0.0
 10
968.0522345810946
 20
933.2453265719781
 30
0.0
  0
SPLINE
  5
1C9
330
1F
100
AcDbEntity
  8
0
  6
Continuous
 62
     8
370
    18
100
AcDbSpline
210
0.0
220
0.0
230
1.0
 70
     8
 71
     3
 72
    17
 73
    13
 74
     0
 42
0.000000001
 43
0.00000001
 40
0.0
 40
0.0
 40
0.0
 40
0.0
 40
0.3465956100132824
 40
0.5797997290136738
 40
0.7338947238710104
 40
0.8810219207410025
 40
0.9331891565949331
 40
0.9524593563030792
 40
0.9753918570412518
 40
0.9867243403144461
 40
0.9980977605384078
 40
1.0
 40
1.0
 40
1.0
 40
1.0
 10
967.6175264938076
 20
936.1426952614869
 30
0.0
 10
967.6275435168542
 20
935.7620343049741
 30
0.0
 10
967.6443004147495
 20
935.1252486300958
 30
0.0
 10
967.6620947848306
 20
934.3909844097774
 30
0.0
 10
967.697187805116
 20
933.8826752982246
 30
0.0
 10
967.7458875708019
 20
933.562332260645
 30
0.0
 10
967.8282449814243
 20
933.375033796007
 30
0.0
 10
967.8882812574705
 20
933.3014826838698
 30
0.0
 10
967.9376531427997
 20
933.2644324223954
 30
0.0
 10
967.9959604828953
 20
933.246292792094
 30
0.0
 10
968.0311351465253
 20
933.2440153273583
 30
0.0
 10
968.0495901981885
 20
933.2451622342634
 30
0.0
 10
968.0522345810946
 20
933.2453265719781
 30
0.0
  0
SPLINE
  5
1CA
330
1F
100
AcDbEntity
  8
0
  6
Continuous
 62
     8
370
    18
100
AcDbSpline
210
0.0
220
0.0
230
1.0
 70
     8
 71
     3
 72
    11
 73
     7
 74
     0
 42
0.000000001
 43
0.00000001
 40
0.0
 40
0.0
 40
0.0
 40
0.0
 40
0.367415589971851
 40
0.7400731437703101
 40
0.8699218969645782
 40
1.0
 40
1.0
 40
1.0
 40
1.0
 10
967.5939637757142
 20
940.9573351471505
 30
0.0
 10
967.5943348437527
 20
940.33029801808
 30
0.0
 10
967.5950822739034
 20
939.0672777433892
 30
0.0
 10
967.5974834243978
 20
937.6796065059486
 30
0.0
 10
967.6059568762169
 20
936.7156018594607
 30
0.0
 10
967.6136676866995
 20
936.3337764303556
 30
0.0
 10
967.6175264938076
 20
936.1426952614869
 30
0.0
  0
SPLINE
  5
1CB
330
1F
100
AcDbEntity
  8
0
  6
Continuous
 62
     8
370
    18
100
AcDbSpline
210
0.0
220
0.0
230
1.0
 70
     8
 71
     3
 72
    16
 73
    12
 74
     0
 42
0.000000001
 43
0.00000001
 40
0.0
 40
0.0
 40
0.0
 40
0.0
 40
0.0117733620155408
 40
0.0227113902881394
 40
0.0341085178796155
 40
0.0448724470144665
 40
0.0843977891274209
 40
0.1801725761900129
 40
0.6004756555876873
 40
0.7301077904365098
 40
1.0
 40
1.0
 40
1.0
 40
1.0
 10
888.0223760539791
 20
932.9380579753231
 30
0.0
 10
888.0051149737391
 20
932.9347046079002
 30
0.0
 10
887.9718175069994
 20
932.9282357983773
 30
0.0
 10
887.917289048361
 20
932.9302993365633
 30
0.0
 10
887.8688780494882
 20
932.9439395214354
 30
0.0
 10
887.7969289489263
 20
932.984517464335
 30
0.0
 10
887.7029202991885
 20
933.1151839543659
 30
0.0
 10
887.5778114744058
 20
933.6425728326941
 30
0.0
 10
887.5982429098167
 20
934.3236424290495
 30
0.0
 10
887.5951388592217
 20
935.2542136339797
 30
0.0
 10
887.5888016236914
 20
935.7418954893568
 30
0.0
 10
887.5845206067179
 20
936.0713410797258
 30
0.0
  0
SPLINE
  5
1CC
330
1F
100
AcDbEntity
  8
0
  6
Continuous
 62
     8
370
    18
100
AcDbSpline
210
0.0
220
0.0
230
1.0
 70
     8
 71
     3
 72
    11
 73
     7
 74
     0
 42
0.000000001
 43
0.00000001
 40
0.0
 40
0.0
 40
0.0
 40
0.0
 40
0.3598580230790459
 40
0.7246062069006117
 40
0.8621677510649546
 40
1.0
 40
1.0
 40
1.0
 40
1.0
 10
887.5845206067179
 20
936.0713410797258
 30
0.0
 10
887.5812685104662
 20
936.6176374283566
 30
0.0
 10
887.5747201247741
 20
937.7176538227061
 30
0.0
 10
887.580778627773
 20
939.1525851309299
 30
0.0
 10
887.5818941837456
 20
940.2488346679036
 30
0.0
 10
887.5819905334009
 20
940.7309320342968
 30
0.0
 10
887.5820387555831
 20
940.9722176619348
 30
0.0
  0
SPLINE
  5
1CD
330
1F
100
AcDbEntity
  8
0
  6
Continuous
 62
     8
370
    18
100
AcDbSpline
210
0.0
220
0.0
230
1.0
 70
     8
 71
     3
 72
    12
 73
     8
 74
     0
 42
0.000000001
 43
0.00000001
 40
0.0
 40
0.0
 40
0.0
 40
0.0
 40
0.0542100646910307
 40
0.3612059465304444
 40
0.5267652948495976
 40
0.7633787062243809
 40
1.0
 40
1.0
 40
1.0
 40
1.0
 10
888.0223760539791
 20
932.9380579753231
 30
0.0
 10
888.061107865222
 20
933.035821273686
 30
0.0
 10
888.3191809854189
 20
933.687225859207
 30
0.0
 10
888.5866575230236
 20
934.850329732099
 30
0.0
 10
888.7878435598262
 20
936.6861776697543
 30
0.0
 10
888.9088745003222
 20
938.5252532831581
 30
0.0
 10
888.9305812683075
 20
940.0356594787862
 30
0.0
 10
888.9414348330788
 20
940.790875155588
 30
0.0
  0
SPLINE
  5
1CE
330
1F
100
AcDbEntity
  8
0
  6
Continuous
 62
     8
370
    18
100
AcDbSpline
210
0.0
220
0.0
230
1.0
 70
     8
 71
     3
 72
    11
 73
     7
 74
     0
 42
0.000000001
 43
0.00000001
 40
0.0
 40
0.0
 40
0.0
 40
0.0
 40
0.3598580230790374
 40
0.7246062069006073
 40
0.8621677510649506
 40
1.0
 40
1.0
 40
1.0
 40
1.0
 10
976.5248159278689
 20
936.0713410797257
 30
0.0
 10
976.5280680241208
 20
936.6176374283566
 30
0.0
 10
976.5346164098127
 20
937.717653822706
 30
0.0
 10
976.528557906814
 20
939.1525851309298
 30
0.0
 10
976.5274423508413
 20
940.2488346679035
 30
0.0
 10
976.527346001186
 20
940.7309320342965
 30
0.0
 10
976.5272977790038
 20
940.9722176619348
 30
0.0
  0
SPLINE
  5
1CF
330
1F
100
AcDbEntity
  8
0
  6
Continuous
 62
     8
370
    18
100
AcDbSpline
210
0.0
220
0.0
230
1.0
 70
     8
 71
     3
 72
    16
 73
    12
 74
     0
 42
0.000000001
 43
0.00000001
 40
0.0
 40
0.0
 40
0.0
 40
0.0
 40
0.0117733620155406
 40
0.0227113902881391
 40
0.0341085178796156
 40
0.044872447014466
 40
0.0843977891274212
 40
0.1801725761900122
 40
0.6004756555876863
 40
0.7301077904365099
 40
1.0
 40
1.0
 40
1.0
 40
1.0
 10
976.0869604806079
 20
932.938057975323
 30
0.0
 10
976.1042215608479
 20
932.9347046079
 30
0.0
 10
976.1375190275874
 20
932.9282357983773
 30
0.0
 10
976.1920474862258
 20
932.9302993365633
 30
0.0
 10
976.2404584850985
 20
932.9439395214354
 30
0.0
 10
976.3124075856605
 20
932.9845174643349
 30
0.0
 10
976.4064162353984
 20
933.1151839543656
 30
0.0
 10
976.5315250601809
 20
933.642572832694
 30
0.0
 10
976.5110936247701
 20
934.3236424290494
 30
0.0
 10
976.5141976753652
 20
935.2542136339797
 30
0.0
 10
976.5205349108953
 20
935.7418954893568
 30
0.0
 10
976.5248159278689
 20
936.0713410797257
 30
0.0
  0
SPLINE
  5
1D0
330
1F
100
AcDbEntity
  8
0
  6
Continuous
 62
     8
370
    18
100
AcDbSpline
210
0.0
220
0.0
230
1.0
 70
     8
 71
     3
 72
    12
 73
     8
 74
     0
 42
0.000000001
 43
0.00000001
 40
0.0
 40
0.0
 40
0.0
 40
0.0
 40
0.0542100646910311
 40
0.3612059465304473
 40
0.5267652948496011
 40
0.7633787062243828
 40
1.0
 40
1.0
 40
1.0
 40
1.0
 10
976.0869604806079
 20
932.938057975323
 30
0.0
 10
976.0482286693648
 20
933.035821273686
 30
0.0
 10
975.7901555491678
 20
933.6872258592069
 30
0.0
 10
975.5226790115632
 20
934.850329732099
 30
0.0
 10
975.3214929747605
 20
936.6861776697543
 30
0.0
 10
975.2004620342645
 20
938.525253283158
 30
0.0
 10
975.1787552662794
 20
940.0356594787859
 30
0.0
 10
975.1679017015082
 20
940.7908751555876
 30
0.0
  0
LINE
  5
1D1
330
1F
100
AcDbEntity
  8
0
  6
Continuous
 62
     8
370
    18
100
AcDbLine
 10
896.0571019535
 20
933.245326572
 30
0.0
 11
888.022376054
 21
932.9380579753
 31
0.0
  0
LINE
  5
1D2
330
1F
100
AcDbEntity
  8
0
  6
Continuous
 62
     8
370
    18
100
AcDbLine
 10
968.0522345811
 20
933.245326572
 30
0.0
 11
976.0869604806
 21
932.9380579753
 31
0.0
  0
ARC
  5
1D3
330
1F
100
AcDbEntity
  8
0
  6
Continuous
 62
     8
370
    18
100
AcDbCircle
 10
897.3056074192
 20
931.3346767512
 30
0.0
 40
4.876403199902978
100
AcDbArc
 50
81.8057158496
 51
99.6067415552
  0
ARC
  5
1D4
330
1F
100
AcDbEntity
  8
0
  6
Continuous
 62
     8
370
    18
100
AcDbCircle
 10
966.8037291154
 20
931.3346767512
 30
0.0
 40
4.876403199916318
100
AcDbArc
 50
80.3932584449
 51
98.1942841504
  0
ARC
  5
1D5
330
1F
100
AcDbEntity
  8
0
  6
Continuous
 62
     8
370
    18
100
AcDbCircle
 10
886.5688065885
 20
931.4463774024
 30
0.0
 40
4.735183627177786
100
AcDbArc
 50
77.6135927186
 51
96.8019823782
  0
ARC
  5
1D6
330
1F
100
AcDbEntity
  8
0
  6
Continuous
 62
     8
370
    18
100
AcDbCircle
 10
977.5405299461
 20
931.4463774025
 30
0.0
 40
4.735183627154359
100
AcDbArc
 50
83.1980176217
 51
102.3864072814
  0
SPLINE
  5
1D7
330
1F
100
AcDbEntity
  8
0
  6
Continuous
 62
     8
370
    18
100
AcDbSpline
210
0.0
220
0.0
230
1.0
 70
     8
 71
     3
 72
    13
 73
     9
 74
     0
 42
0.000000001
 43
0.00000001
 40
0.0
 40
0.0
 40
0.0
 40
0.0
 40
0.3455606136556849
 40
0.7377948233629062
 40
0.8482878985160515
 40
0.9091433588593542
 40
0.9540191324658097
 40
1.0
 40
1.0
 40
1.0
 40
1.0
 10
886.0079793764197
 20
936.148232017516
 30
0.0
 10
886.1179672858158
 20
935.647060671423
 30
0.0
 10
886.3527987653827
 20
934.5770266161716
 30
0.0
 10
886.7026175096101
 20
933.489926469761
 30
0.0
 10
887.2565766558583
 20
932.909744721995
 30
0.0
 10
887.5659314167199
 20
932.7504288462704
 30
0.0
 10
887.8247337918473
 20
932.6856272338925
 30
0.0
 10
887.9877466439576
 20
932.6855700712523
 30
0.0
 10
888.0702444368007
 20
932.685541142296
 30
0.0
  0
SPLINE
  5
1D8
330
1F
100
AcDbEntity
  8
0
  6
Continuous
 62
     8
370
    18
100
AcDbSpline
210
0.0
220
0.0
230
1.0
 70
     8
 71
     3
 72
    11
 73
     7
 74
     0
 42
0.000000001
 43
0.00000001
 40
0.0
 40
0.0
 40
0.0
 40
0.0
 40
0.2499068565621724
 40
0.4998445626142471
 40
0.7498974475611091
 40
1.0
 40
1.0
 40
1.0
 40
1.0
 10
888.0702444368007
 20
932.685541142296
 30
0.0
 10
888.7362796133117
 20
932.7176489744329
 30
0.0
 10
890.0684321843474
 20
932.7818686022246
 30
0.0
 10
892.0695084745818
 20
932.8657422620654
 30
0.0
 10
894.0728136146257
 20
932.9388100842257
 30
0.0
 10
895.4100362857303
 20
932.9748086624404
 30
0.0
 10
896.0787140171379
 20
932.9928097389513
 30
0.0
  0
SPLINE
  5
1D9
330
1F
100
AcDbEntity
  8
0
  6
Continuous
 62
     8
370
    18
100
AcDbSpline
210
0.0
220
0.0
230
1.0
 70
     8
 71
     3
 72
    14
 73
    10
 74
     0
 42
0.000000001
 43
0.00000001
 40
0.0
 40
0.0
 40
0.0
 40
0.0
 40
0.0519065920714211
 40
0.1222358501282125
 40
0.1884605327707504
 40
0.3425806135662249
 40
0.4883356727123421
 40
0.6976961013112962
 40
1.0
 40
1.0
 40
1.0
 40
1.0
 10
896.0787140171379
 20
932.9928097389513
 30
0.0
 10
896.1621633475868
 20
932.9999941256604
 30
0.0
 10
896.3586798100048
 20
933.0169127786094
 30
0.0
 10
896.6212047081552
 20
933.1305520367586
 30
0.0
 10
896.9359589166008
 20
933.3664898463308
 30
0.0
 10
897.2075256041384
 20
933.7393272236402
 30
0.0
 10
897.4784429120563
 20
934.3065587609383
 30
0.0
 10
897.7453525186041
 20
935.0936045060462
 30
0.0
 10
897.9058287766521
 20
935.7647592958809
 30
0.0
 10
898.000642106149
 20
936.1612940917815
 30
0.0
  0
SPLINE
  5
1DA
330
1F
100
AcDbEntity
  8
0
  6
Continuous
 62
     8
370
    18
100
AcDbSpline
210
0.0
220
0.0
230
1.0
 70
     8
 71
     3
 72
     9
 73
     5
 74
     0
 42
0.000000001
 43
0.00000001
 40
0.0
 40
0.0
 40
0.0
 40
0.0
 40
0.0293344768638363
 40
1.0
 40
1.0
 40
1.0
 40
1.0
 10
932.0546682672934
 20
929.1616793806783
 30
0.0
 10
932.0466072499554
 20
929.1616756382145
 30
0.0
 10
931.7718105533783
 20
929.1615480592005
 30
0.0
 10
931.4973900532895
 20
929.186691069365
 30
0.0
 10
931.2310195350116
 20
929.2110965224794
 30
0.0
  0
SPLINE
  5
1DB
330
1F
100
AcDbEntity
  8
0
  6
Continuous
 62
     8
370
    18
100
AcDbSpline
210
0.0
220
0.0
230
1.0
 70
     8
 71
     3
 72
    12
 73
     8
 74
     0
 42
0.000000001
 43
0.00000001
 40
0.0
 40
0.0
 40
0.0
 40
0.0
 40
0.1168311330920041
 40
0.3726334449298773
 40
0.633827023893272
 40
0.8149152954169021
 40
1.0
 40
1.0
 40
1.0
 40
1.0
 10
930.689292591023
 20
929.2445749931829
 30
0.0
 10
930.0128995043975
 20
929.2737987940922
 30
0.0
 10
927.8555405939303
 20
929.3670082436499
 30
0.0
 10
924.2156634353321
 20
930.1765981011354
 30
0.0
 10
920.3192850827652
 20
931.7098787520065
 30
0.0
 10
916.964217350755
 20
933.6905334235964
 30
0.0
 10
915.195590250984
 20
935.293376501349
 30
0.0
 10
914.3016252518211
 20
936.1035448012958
 30
0.0
  0
SPLINE
  5
1DC
330
1F
100
AcDbEntity
  8
0
  6
Continuous
 62
     8
370
    18
100
AcDbSpline
210
0.0
220
0.0
230
1.0
 70
     8
 71
     3
 72
    14
 73
    10
 74
     0
 42
0.000000001
 43
0.00000001
 40
0.0
 40
0.0
 40
0.0
 40
0.0
 40
0.0519065920714864
 40
0.1222358501282813
 40
0.1884605327708231
 40
0.3425806135663074
 40
0.4883356727124331
 40
0.6976961013113864
 40
1.0
 40
1.0
 40
1.0
 40
1.0
 10
968.0306225174488
 20
932.9928097389501
 30
0.0
 10
967.947173187
 20
932.9999941256594
 30
0.0
 10
967.7506567245822
 20
933.0169127786095
 30
0.0
 10
967.4881318264315
 20
933.1305520367583
 30
0.0
 10
967.1733776179861
 20
933.3664898463308
 30
0.0
 10
966.9018109304484
 20
933.7393272236402
 30
0.0
 10
966.6308936225307
 20
934.3065587609381
 30
0.0
 10
966.3639840159829
 20
935.093604506046
 30
0.0
 10
966.2035077579346
 20
935.7647592958804
 30
0.0
 10
966.1086944284377
 20
936.1612940917809
 30
0.0
  0
SPLINE
  5
1DD
330
1F
100
AcDbEntity
  8
0
  6
Continuous
 62
     8
370
    18
100
AcDbSpline
210
0.0
220
0.0
230
1.0
 70
     8
 71
     3
 72
    11
 73
     7
 74
     0
 42
0.000000001
 43
0.00000001
 40
0.0
 40
0.0
 40
0.0
 40
0.0
 40
0.2499068565623326
 40
0.4998445626143546
 40
0.7498974475611634
 40
1.0
 40
1.0
 40
1.0
 40
1.0
 10
976.0390920977878
 20
932.6855411422963
 30
0.0
 10
975.3730569212764
 20
932.717648974433
 30
0.0
 10
974.0409043502399
 20
932.7818686022244
 30
0.0
 10
972.039828060005
 20
932.8657422620649
 30
0.0
 10
970.036522919961
 20
932.9388100842258
 30
0.0
 10
968.6993002488566
 20
932.9748086624397
 30
0.0
 10
968.0306225174488
 20
932.9928097389501
 30
0.0
  0
SPLINE
  5
1DE
330
1F
100
AcDbEntity
  8
0
  6
Continuous
 62
     8
370
    18
100
AcDbSpline
210
0.0
220
0.0
230
1.0
 70
     8
 71
     3
 72
    13
 73
     9
 74
     0
 42
0.000000001
 43
0.00000001
 40
0.0
 40
0.0
 40
0.0
 40
0.0
 40
0.3455606136558529
 40
0.7377948233631723
 40
0.8482878985163453
 40
0.9091433588596641
 40
0.9540191324661307
 40
1.0
 40
1.0
 40
1.0
 40
1.0
 10
978.1013571581677
 20
936.1482320175162
 30
0.0
 10
977.9913692487715
 20
935.6470606714232
 30
0.0
 10
977.756537769204
 20
934.5770266161716
 30
0.0
 10
977.4067190249767
 20
933.4899264697609
 30
0.0
 10
976.8527598787284
 20
932.9097447219949
 30
0.0
 10
976.5434051178669
 20
932.7504288462704
 30
0.0
 10
976.28460274274
 20
932.6856272338925
 30
0.0
 10
976.1215898906304
 20
932.6855700712524
 30
0.0
 10
976.0390920977878
 20
932.6855411422963
 30
0.0
  0
SPLINE
  5
1DF
330
1F
100
AcDbEntity
  8
0
  6
Continuous
 62
     8
370
    18
100
AcDbSpline
210
0.0
220
0.0
230
1.0
 70
     8
 71
     3
 72
    13
 73
     9
 74
     0
 42
0.000000001
 43
0.00000001
 40
0.0
 40
0.0
 40
0.0
 40
0.0
 40
0.0016043355124024
 40
0.272792605906233
 40
0.4428579083924361
 40
0.6159723835324823
 40
0.8046605251224451
 40
1.0
 40
1.0
 40
1.0
 40
1.0
 10
1003.74624756459
 20
929.1616793806782
 30
0.0
 10
1003.751702414765
 20
929.1616821106966
 30
0.0
 10
1004.679215882286
 20
929.1621463083615
 30
0.0
 10
1006.092052208121
 20
929.3599766368052
 30
0.0
 10
1007.812741840894
 20
930.1889688126996
 30
0.0
 10
1009.115387715033
 20
931.3323197268081
 30
0.0
 10
1010.271587459282
 20
932.9885037425432
 30
0.0
 10
1010.792451536223
 20
934.5940938602644
 30
0.0
 10
1011.057394240625
 20
935.4107932772208
 30
0.0
  0
SPLINE
  5
1E0
330
1F
100
AcDbEntity
  8
0
  6
Continuous
 62
     8
370
    18
100
AcDbSpline
210
0.0
220
0.0
230
1.0
 70
     8
 71
     3
 72
    13
 73
     9
 74
     0
 42
0.000000001
 43
0.00000001
 40
0.0
 40
0.0
 40
0.0
 40
0.0
 40
0.1765903405244138
 40
0.3535107282095487
 40
0.5953143040081179
 40
0.8373696963545587
 40
0.9987093023973762
 40
1.0
 40
1.0
 40
1.0
 40
1.0
 10
949.8077112827656
 20
936.103544801296
 30
0.0
 10
948.8866289408795
 20
935.2709874953922
 30
0.0
 10
947.042742755179
 20
933.6043168348557
 30
0.0
 10
943.5960887289037
 20
931.6168305313976
 30
0.0
 10
939.6100802970255
 20
930.0719935677656
 30
0.0
 10
935.6063992179812
 20
929.3027730142043
 30
0.0
 10
933.0784181847596
 20
929.1619745656901
 30
0.0
 10
932.0627291719616
 20
929.1616817049355
 30
0.0
 10
932.0546682672934
 20
929.1616793806783
 30
0.0
  0
SPLINE
  5
1E1
330
1F
100
AcDbEntity
  8
0
  6
Continuous
 62
     8
370
    18
100
AcDbSpline
210
0.0
220
0.0
230
1.0
 70
     8
 71
     3
 72
     9
 73
     5
 74
     0
 42
0.000000001
 43
0.00000001
 40
0.0
 40
0.0
 40
0.0
 40
0.0
 40
0.8741204396861987
 40
1.0
 40
1.0
 40
1.0
 40
1.0
 10
896.5019654305393
 20
963.8615764228432
 30
0.0
 10
896.500853671239
 20
963.069974011805
 30
0.0
 10
896.4995818106923
 20
962.1643752234704
 30
0.0
 10
896.4983980037565
 20
961.2513708912512
 30
0.0
 10
896.49824898666
 20
961.1364423073469
 30
0.0
  0
LINE
  5
1E2
330
1F
100
AcDbEntity
  8
0
  6
Continuous
 62
     8
370
    18
100
AcDbLine
 10
895.1625540937
 20
964.1229608868
 30
0.0
 11
895.1311770148
 21
961.4014328204
 31
0.0
  0
ARC
  5
1E3
330
1F
100
AcDbEntity
  8
0
  6
Continuous
 62
     8
370
    18
100
AcDbCircle
 10
895.18777497
 20
960.6897378774
 30
0.0
 40
3.433315645981402
100
AcDbArc
 50
67.4942658279
 51
90.4208942352
  0
LINE
  5
1E4
330
1F
100
AcDbEntity
  8
0
  6
Continuous
 62
     8
370
    18
100
AcDbLine
 10
968.9467824409
 20
964.1229608868
 30
0.0
 11
968.9781595198
 21
961.4014328204
 31
0.0
  0
SPLINE
  5
1E5
330
1F
100
AcDbEntity
  8
0
  6
Continuous
 62
     8
370
    18
100
AcDbSpline
210
0.0
220
0.0
230
1.0
 70
     8
 71
     3
 72
     9
 73
     5
 74
     0
 42
0.000000001
 43
0.00000001
 40
0.0
 40
0.0
 40
0.0
 40
0.0
 40
0.8741204396861987
 40
1.0
 40
1.0
 40
1.0
 40
1.0
 10
967.6073711040475
 20
963.8615764228431
 30
0.0
 10
967.6084828633478
 20
963.0699740118048
 30
0.0
 10
967.6097547238944
 20
962.1643752234703
 30
0.0
 10
967.6109385308303
 20
961.2513708912511
 30
0.0
 10
967.6110875479269
 20
961.1364423073468
 30
0.0
  0
ARC
  5
1E6
330
1F
100
AcDbEntity
  8
0
  6
Continuous
 62
     8
370
    18
100
AcDbCircle
 10
968.9215615646
 20
960.6897378774
 30
0.0
 40
3.433315645972107
100
AcDbArc
 50
89.5791057647
 51
112.5057341721
  0
LINE
  5
1E7
330
1F
100
AcDbEntity
  8
0
  6
Continuous
 62
     8
370
    18
100
AcDbLine
 10
887.6111689681
 20
961.1273917412
 30
0.0
 11
887.6067671475
 21
963.8455640748
 31
0.0
  0
ARC
  5
1E8
330
1F
100
AcDbEntity
  8
0
  6
Continuous
 62
     8
370
    18
100
AcDbCircle
 10
888.9467571869
 20
960.7514825699
 30
0.0
 40
3.371781971740784
100
AcDbArc
 50
89.2310445
 51
113.4165528547
  0
LINE
  5
1E9
330
1F
100
AcDbEntity
  8
0
  6
Continuous
 62
     8
370
    18
100
AcDbLine
 10
889.009737596
 20
961.4014328204
 30
0.0
 11
888.9920078578
 21
964.1229608868
 31
0.0
  0
LINE
  5
1EA
330
1F
100
AcDbEntity
  8
0
  6
Continuous
 62
     8
370
    18
100
AcDbLine
 10
975.0995989386
 20
961.4014328204
 30
0.0
 11
975.1173286768
 21
964.1229608868
 31
0.0
  0
ARC
  5
1EB
330
1F
100
AcDbEntity
  8
0
  6
Continuous
 62
     8
370
    18
100
AcDbCircle
 10
975.1625793477
 20
960.7514825699
 30
0.0
 40
3.371781971732435
100
AcDbArc
 50
66.5834471453
 51
90.7689555
  0
LINE
  5
1EC
330
1F
100
AcDbEntity
  8
0
  6
Continuous
 62
     8
370
    18
100
AcDbLine
 10
976.4981675665
 20
961.1273917412
 30
0.0
 11
976.5025693871
 21
963.8455640748
 31
0.0
  0
LINE
  5
1ED
330
1F
100
AcDbEntity
  8
0
  6
Continuous
 62
     8
370
    18
100
AcDbLine
 10
895.1625540937
 20
964.1229608868
 30
0.0
 11
888.9920078578
 21
964.1229608868
 31
0.0
  0
LINE
  5
1EE
330
1F
100
AcDbEntity
  8
0
  6
Continuous
 62
     8
370
    18
100
AcDbLine
 10
968.9467824409
 20
964.1229608868
 30
0.0
 11
975.1173286768
 21
964.1229608868
 31
0.0
  0
ARC
  5
1EF
330
1F
100
AcDbEntity
  8
0
  6
Continuous
 62
     8
370
    18
100
AcDbCircle
 10
898.3734313745
 20
968.7816577215
 30
0.0
 40
5.263989434302461
100
AcDbArc
 50
249.1745380236
 51
271.5959369635
  0
ARC
  5
1F0
330
1F
100
AcDbEntity
  8
0
  6
Continuous
 62
     8
370
    18
100
AcDbCircle
 10
965.73590516
 20
968.7816577215
 30
0.0
 40
5.263989434303538
100
AcDbArc
 50
268.4040630365
 51
290.8254619764
  0
ARC
  5
1F1
330
1F
100
AcDbEntity
  8
0
  6
Continuous
 62
     8
370
    18
100
AcDbCircle
 10
885.6516738675
 20
968.5383753083
 30
0.0
 40
5.083784712846376
100
AcDbArc
 50
269.0955075017
 51
292.6173188939
  0
ARC
  5
1F2
330
1F
100
AcDbEntity
  8
0
  6
Continuous
 62
     8
370
    18
100
AcDbCircle
 10
978.4576626671
 20
968.5383753083
 30
0.0
 40
5.083784712840989
100
AcDbArc
 50
247.3826811061
 51
270.9044924983
  0
ARC
  5
1F3
330
1F
100
AcDbEntity
  8
0
  6
Continuous
 62
     8
370
    18
100
AcDbCircle
 10
880.0765731733
 20
931.7504237701
 30
0.0
 40
16.05029702162207
100
AcDbArc
 50
4.4394660911
 51
5.34419658
  0
ARC
  5
1F4
330
1F
100
AcDbEntity
  8
0
  6
Continuous
 62
     8
370
    18
100
AcDbCircle
 10
984.0327633599
 20
931.7504237702
 30
0.0
 40
16.05029702025725
100
AcDbArc
 50
174.65580342
 51
175.5605339089
  0
ARC
  5
1F5
330
1F
100
AcDbEntity
  8
0
  6
Continuous
 62
     8
370
    18
100
AcDbCircle
 10
881.491066726
 20
931.5691540586
 30
0.0
 40
6.673222570197899
100
AcDbArc
 50
9.6304973659
 51
11.8373353031
  0
ARC
  5
1F6
330
1F
100
AcDbEntity
  8
0
  6
Continuous
 62
     8
370
    18
100
AcDbCircle
 10
982.6182698139
 20
931.5691540577
 30
0.0
 40
6.67322257556182
100
AcDbArc
 50
168.1626646981
 51
170.3695026335
  0
SPLINE
  5
1F7
330
1F
100
AcDbEntity
  8
0
  6
Continuous
 62
     8
370
    18
100
AcDbSpline
210
0.0
220
0.0
230
1.0
 70
     8
 71
     3
 72
    15
 73
    11
 74
     0
 42
0.000000001
 43
0.00000001
 40
0.0
 40
0.0
 40
0.0
 40
0.0
 40
0.0357295768982801
 40
0.0559023856318683
 40
0.0935770997983526
 40
0.1154709098174164
 40
0.2166995392891669
 40
0.4238827620184569
 40
0.9068299214990614
 40
1.0
 40
1.0
 40
1.0
 40
1.0
 10
895.6346711547428
 20
967.5257043324278
 30
0.0
 10
895.6940416821999
 20
967.5275980326876
 30
0.0
 10
895.7869326260395
 20
967.5305609102637
 30
0.0
 10
895.9350265637953
 20
967.4896440258374
 30
0.0
 10
896.0430398183913
 20
967.4278940314878
 30
0.0
 10
896.2122731380381
 20
967.2719634512388
 30
0.0
 10
896.4051253180894
 20
966.8779263190363
 30
0.0
 10
896.526237824048
 20
965.8839426353387
 30
0.0
 10
896.5019272527724
 20
964.8239226852543
 30
0.0
 10
896.5019601158928
 20
963.9955426203279
 30
0.0
 10
896.5019654305393
 20
963.8615764228432
 30
0.0
  0
SPLINE
  5
1F8
330
1F
100
AcDbEntity
  8
0
  6
Continuous
 62
     8
370
    18
100
AcDbSpline
210
0.0
220
0.0
230
1.0
 70
     8
 71
     3
 72
    11
 73
     7
 74
     0
 42
0.000000001
 43
0.00000001
 40
0.0
 40
0.0
 40
0.0
 40
0.0
 40
0.1688447665100254
 40
0.3388483789551354
 40
0.6648683581705613
 40
1.0
 40
1.0
 40
1.0
 40
1.0
 10
895.6346711547428
 20
967.5257043324278
 30
0.0
 10
895.586623453089
 20
967.3751627060104
 30
0.0
 10
895.4901982801069
 20
967.0730462286613
 30
0.0
 10
895.3403438040276
 20
966.3958463235658
 30
0.0
 10
895.2026259656704
 20
965.4478516725817
 30
0.0
 10
895.1760335455265
 20
964.5686301465779
 30
0.0
 10
895.1625540937041
 20
964.122960886816
 30
0.0
  0
SPLINE
  5
1F9
330
1F
100
AcDbEntity
  8
0
  6
Continuous
 62
     8
370
    18
100
AcDbSpline
210
0.0
220
0.0
230
1.0
 70
     8
 71
     3
 72
    15
 73
    11
 74
     0
 42
0.000000001
 43
0.00000001
 40
0.0
 40
0.0
 40
0.0
 40
0.0
 40
0.0357295768982801
 40
0.0559023856318686
 40
0.0935770997983523
 40
0.1154709098174169
 40
0.2166995392891664
 40
0.4238827620184563
 40
0.9068299214990614
 40
1.0
 40
1.0
 40
1.0
 40
1.0
 10
968.4746653798438
 20
967.5257043324277
 30
0.0
 10
968.4152948523868
 20
967.5275980326874
 30
0.0
 10
968.3224039085471
 20
967.5305609102634
 30
0.0
 10
968.1743099707913
 20
967.4896440258373
 30
0.0
 10
968.0662967161953
 20
967.4278940314878
 30
0.0
 10
967.8970633965484
 20
967.2719634512388
 30
0.0
 10
967.7042112164972
 20
966.8779263190362
 30
0.0
 10
967.5830987105384
 20
965.8839426353387
 30
0.0
 10
967.6074092818145
 20
964.8239226852542
 30
0.0
 10
967.6073764186942
 20
963.9955426203278
 30
0.0
 10
967.6073711040475
 20
963.8615764228431
 30
0.0
  0
SPLINE
  5
1FA
330
1F
100
AcDbEntity
  8
0
  6
Continuous
 62
     8
370
    18
100
AcDbSpline
210
0.0
220
0.0
230
1.0
 70
     8
 71
     3
 72
    11
 73
     7
 74
     0
 42
0.000000001
 43
0.00000001
 40
0.0
 40
0.0
 40
0.0
 40
0.0
 40
0.1688447665100255
 40
0.3388483789551348
 40
0.6648683581705628
 40
1.0
 40
1.0
 40
1.0
 40
1.0
 10
968.4746653798438
 20
967.5257043324277
 30
0.0
 10
968.5227130814976
 20
967.3751627060101
 30
0.0
 10
968.6191382544797
 20
967.0730462286612
 30
0.0
 10
968.768992730559
 20
966.3958463235656
 30
0.0
 10
968.9067105689163
 20
965.4478516725816
 30
0.0
 10
968.9333029890604
 20
964.5686301465777
 30
0.0
 10
968.9467824408827
 20
964.1229608868157
 30
0.0
  0
SPLINE
  5
1FB
330
1F
100
AcDbEntity
  8
0
  6
Continuous
 62
     8
370
    18
100
AcDbSpline
210
0.0
220
0.0
230
1.0
 70
     8
 71
     3
 72
    14
 73
    10
 74
     0
 42
0.000000001
 43
0.00000001
 40
0.0
 40
0.0
 40
0.0
 40
0.0
 40
0.6113158653943737
 40
0.7934072053583404
 40
0.8854170307688747
 40
0.9194198313361065
 40
0.9434501870529951
 40
0.9749897870426378
 40
1.0
 40
1.0
 40
1.0
 40
1.0
 10
887.6067671474982
 20
963.8455640747899
 30
0.0
 10
887.5799580038617
 20
964.7278873953846
 30
0.0
 10
887.545163278361
 20
965.8730264628354
 30
0.0
 10
887.7017693067377
 20
967.0086825756158
 30
0.0
 10
887.9068563485905
 20
967.3864296374908
 30
0.0
 10
888.0928353803002
 20
967.5274705314997
 30
0.0
 10
888.2297942637035
 20
967.5846757674274
 30
0.0
 10
888.3686749963263
 20
967.6070135728937
 30
0.0
 10
888.4632997726836
 20
967.5976289040766
 30
0.0
 10
888.5051493506824
 20
967.5934783586829
 30
0.0
  0
SPLINE
  5
1FC
330
1F
100
AcDbEntity
  8
0
  6
Continuous
 62
     8
370
    18
100
AcDbSpline
210
0.0
220
0.0
230
1.0
 70
     8
 71
     3
 72
    11
 73
     7
 74
     0
 42
0.000000001
 43
0.00000001
 40
0.0
 40
0.0
 40
0.0
 40
0.0
 40
0.3166351430858644
 40
0.6421699667518176
 40
0.8203579608774898
 40
1.0
 40
1.0
 40
1.0
 40
1.0
 10
888.9920078577655
 20
964.122960886816
 30
0.0
 10
888.980771708474
 20
964.5554031829195
 30
0.0
 10
888.9579835948531
 20
965.4324424534325
 30
0.0
 10
888.8223280243689
 20
966.3957266681691
 30
0.0
 10
888.6648044360553
 20
967.1089056405157
 30
0.0
 10
888.558511686266
 20
967.4315171412176
 30
0.0
 10
888.5051493506824
 20
967.5934783586829
 30
0.0
  0
SPLINE
  5
1FD
330
1F
100
AcDbEntity
  8
0
  6
Continuous
 62
     8
370
    18
100
AcDbSpline
210
0.0
220
0.0
230
1.0
 70
     8
 71
     3
 72
    11
 73
     7
 74
     0
 42
0.000000001
 43
0.00000001
 40
0.0
 40
0.0
 40
0.0
 40
0.0
 40
0.3166351430858725
 40
0.6421699667518201
 40
0.8203579608774911
 40
1.0
 40
1.0
 40
1.0
 40
1.0
 10
975.1173286768213
 20
964.1229608868157
 30
0.0
 10
975.1285648261129
 20
964.5554031829192
 30
0.0
 10
975.1513529397337
 20
965.4324424534321
 30
0.0
 10
975.2870085102178
 20
966.3957266681689
 30
0.0
 10
975.4445320985313
 20
967.1089056405154
 30
0.0
 10
975.5508248483206
 20
967.4315171412175
 30
0.0
 10
975.6041871839043
 20
967.5934783586825
 30
0.0
  0
SPLINE
  5
1FE
330
1F
100
AcDbEntity
  8
0
  6
Continuous
 62
     8
370
    18
100
AcDbSpline
210
0.0
220
0.0
230
1.0
 70
     8
 71
     3
 72
    14
 73
    10
 74
     0
 42
0.000000001
 43
0.00000001
 40
0.0
 40
0.0
 40
0.0
 40
0.0
 40
0.6113158653943676
 40
0.7934072053583324
 40
0.8854170307688759
 40
0.9194198313361073
 40
0.9434501870529957
 40
0.9749897870426381
 40
1.0
 40
1.0
 40
1.0
 40
1.0
 10
976.5025693870886
 20
963.8455640747898
 30
0.0
 10
976.529378530725
 20
964.7278873953845
 30
0.0
 10
976.5641732562257
 20
965.8730264628351
 30
0.0
 10
976.407567227849
 20
967.0086825756157
 30
0.0
 10
976.2024801859961
 20
967.3864296374906
 30
0.0
 10
976.0165011542864
 20
967.5274705314996
 30
0.0
 10
975.8795422708831
 20
967.5846757674273
 30
0.0
 10
975.7406615382604
 20
967.6070135728936
 30
0.0
 10
975.646036761903
 20
967.5976289040765
 30
0.0
 10
975.6041871839043
 20
967.5934783586825
 30
0.0
  0
LINE
  5
1FF
330
1F
100
AcDbEntity
  8
0
  6
Continuous
 62
     8
370
    18
100
AcDbLine
 10
888.5051493507
 20
967.5934783587
 30
0.0
 11
895.6346711547
 21
967.5257043324
 31
0.0
  0
LINE
  5
200
330
1F
100
AcDbEntity
  8
0
  6
Continuous
 62
     8
370
    18
100
AcDbLine
 10
975.6041871839
 20
967.5934783587
 30
0.0
 11
968.4746653798
 21
967.5257043324
 31
0.0
  0
ARC
  5
201
330
1F
100
AcDbEntity
  8
0
  6
Continuous
 62
     8
370
    18
100
AcDbCircle
 10
845.684004834
 20
969.8154130383
 30
0.0
 40
42.87875244730201
100
AcDbArc
 50
357.0296588464
 51
358.2432093098
  0
ARC
  5
202
330
1F
100
AcDbEntity
  8
0
  6
Continuous
 62
     8
370
    18
100
AcDbCircle
 10
1018.4253317007
 20
969.8154130383
 30
0.0
 40
42.87875244744681
100
AcDbArc
 50
181.7567906902
 51
182.9703411536
  0
ARC
  5
203
330
1F
100
AcDbEntity
  8
0
  6
Continuous
 62
     8
370
    18
100
AcDbCircle
 10
802.25180743
 20
969.7743262403
 30
0.0
 40
93.40993275831333
100
AcDbArc
 50
358.6206071693
 51
359.1635686825
  0
ARC
  5
204
330
1F
100
AcDbEntity
  8
0
  6
Continuous
 62
     8
370
    18
100
AcDbCircle
 10
1061.8575290954
 20
969.7743262401
 30
0.0
 40
93.40993274918985
100
AcDbArc
 50
180.8364313175
 51
181.3793928307
  0
SPLINE
  5
205
330
1F
100
AcDbEntity
  8
0
  6
Continuous
 62
     8
370
    18
100
AcDbSpline
210
0.0
220
0.0
230
1.0
 70
     8
 71
     3
 72
    20
 73
    16
 74
     0
 42
0.000000001
 43
0.00000001
 40
0.0
 40
0.0
 40
0.0
 40
0.0
 40
0.0262949951381527
 40
0.1141805994167148
 40
0.2050009162995106
 40
0.3018213591643524
 40
0.4001096700271496
 40
0.4957119737796375
 40
0.5689984974216382
 40
0.6442268808353194
 40
0.7075782994275364
 40
0.7721105905636335
 40
0.8325062307491622
 40
0.8941019040528452
 40
1.0
 40
1.0
 40
1.0
 40
1.0
 10
1011.998008888285
 20
935.7075436478827
 30
0.0
 10
1012.073823884791
 20
935.992763260224
 30
0.0
 10
1012.403034888646
 20
937.2312706693873
 30
0.0
 10
1013.0604058908
 20
939.7047790956808
 30
0.0
 10
1013.956958832888
 20
943.3741060222565
 30
0.0
 10
1014.7629639317
 20
947.4912757306522
 30
0.0
 10
1015.218987682153
 20
951.8519660857545
 30
0.0
 10
1015.09711276686
 20
955.7632364111593
 30
0.0
 10
1014.749902584993
 20
959.0599857772412
 30
0.0
 10
1014.488580420266
 20
961.672359288318
 30
0.0
 10
1014.48784411406
 20
963.9450205066173
 30
0.0
 10
1014.631468584056
 20
965.8027049478296
 30
0.0
 10
1014.946825711774
 20
967.3677100752305
 30
0.0
 10
1015.148925227133
 20
968.8822217698212
 30
0.0
 10
1015.052720276376
 20
969.3880989631197
 30
0.0
 10
1014.991894604164
 20
969.7079403028484
 30
0.0
  0
ARC
  5
206
330
1F
100
AcDbEntity
  8
0
  6
Continuous
 62
     8
370
    18
100
AcDbCircle
 10
1012.3243642087
 20
933.033973462
 30
0.0
 40
2.693415180362033
100
AcDbArc
 50
96.9595071703
 51
118.0599624147
  0
ARC
  5
207
330
1F
100
AcDbEntity
  8
0
  6
Continuous
 62
     8
370
    18
100
AcDbCircle
 10
1016.9813319866
 20
971.9579571889
 30
0.0
 40
3.003404249506474
100
AcDbArc
 50
228.5172796838
 51
270.3109595547
  0
SPLINE
  5
208
330
1F
100
AcDbEntity
  8
0
  6
Continuous
 62
     8
370
    18
100
AcDbSpline
210
0.0
220
0.0
230
1.0
 70
     8
 71
     3
 72
    22
 73
    18
 74
     0
 42
0.000000001
 43
0.00000001
 40
0.0
 40
0.0
 40
0.0
 40
0.0
 40
0.0604782955210948
 40
0.1209107522713745
 40
0.188474913944386
 40
0.2560958620764555
 40
0.3308528003812599
 40
0.40560413259029
 40
0.4728286997367328
 40
0.5400039932488331
 40
0.6145903506605181
 40
0.6892095991779489
 40
0.697375909210306
 40
0.7789456219531092
 40
0.8605868885159255
 40
0.930299654574024
 40
1.0
 40
1.0
 40
1.0
 40
1.0
 10
1016.997632186547
 20
968.9545971722526
 30
0.0
 10
1017.032886295983
 20
968.7938301519534
 30
0.0
 10
1017.103367794443
 20
968.4724179627157
 30
0.0
 10
1017.140548833474
 20
967.5238568285888
 30
0.0
 10
1016.816065430602
 20
966.2006098163893
 30
0.0
 10
1016.40917563619
 20
964.4025230806316
 30
0.0
 10
1016.316472172816
 20
962.1379394868994
 30
0.0
 10
1016.573670290327
 20
959.5579263300007
 30
0.0
 10
1016.985814197573
 20
956.8401303503855
 30
0.0
 10
1017.227805050136
 20
953.9371423805462
 30
0.0
 10
1017.1590099804
 20
950.7961683028487
 30
0.0
 10
1016.857801802188
 20
948.4997672939918
 30
0.0
 10
1016.415780376597
 20
946.148371469882
 30
0.0
 10
1015.832180899098
 20
943.7375816200968
 30
0.0
 10
1014.887288276488
 20
940.6660318736509
 30
0.0
 10
1013.963814105894
 20
937.9507157786918
 30
0.0
 10
1013.433417937357
 20
936.4385229389396
 30
0.0
 10
1013.16824348019
 20
935.6824938814183
 30
0.0
  0
ARC
  5
209
330
1F
100
AcDbEntity
  8
0
  6
Continuous
 62
     8
370
    18
100
AcDbCircle
 10
1012.4994401897
 20
931.7855114313
 30
0.0
 40
3.953956253945289
100
AcDbArc
 50
80.261721698
 51
97.2857328838
  0
SPLINE
  5
20A
330
1F
100
AcDbEntity
  8
0
  6
Continuous
 62
     8
370
    18
100
AcDbSpline
210
0.0
220
0.0
230
1.0
 70
     8
 71
     3
 72
    11
 73
     7
 74
     0
 42
0.000000001
 43
0.00000001
 40
0.0
 40
0.0
 40
0.0
 40
0.0
 40
0.2101620489852548
 40
0.6011741985698238
 40
0.9956880907203882
 40
0.9999999999999999
 40
0.9999999999999999
 40
0.9999999999999999
 40
0.9999999999999999
 10
1007.804668267294
 20
929.8331518286753
 30
0.0
 10
1007.541553120492
 20
929.7419016722203
 30
0.0
 10
1006.788905160147
 20
929.4808781432758
 30
0.0
 10
1005.455599968761
 20
929.2290033168013
 30
0.0
 10
1004.3348805544
 20
929.1619092461003
 30
0.0
 10
1003.752543507598
 20
929.1616818392893
 30
0.0
 10
1003.74624756459
 20
929.1616793806782
 30
0.0
  0
SPLINE
  5
20B
330
1F
100
AcDbEntity
  8
0
  6
Continuous
 62
     8
370
    18
100
AcDbSpline
210
0.0
220
0.0
230
1.0
 70
     8
 71
     3
 72
    12
 73
     8
 74
     0
 42
0.000000001
 43
0.00000001
 40
0.0
 40
0.0
 40
0.0
 40
0.0
 40
0.2467373750775636
 40
0.5009759128091618
 40
0.7464462631527693
 40
0.9969045478149674
 40
1.0
 40
1.0
 40
1.0
 40
1.0
 10
1013.16824348019
 20
935.6824938814183
 30
0.0
 10
1012.876295871548
 20
934.971984457788
 30
0.0
 10
1012.283525037029
 20
933.5293651264005
 30
0.0
 10
1011.023986953838
 20
931.8938914627847
 30
0.0
 10
1009.540889660711
 20
930.6361019616028
 30
0.0
 10
1008.413739821385
 20
930.0640843747652
 30
0.0
 10
1007.812014294297
 20
929.835937111797
 30
0.0
 10
1007.804668267294
 20
929.8331518286753
 30
0.0
  0
SPLINE
  5
20C
330
1F
100
AcDbEntity
  8
0
  6
Continuous
 62
     8
370
    18
100
AcDbSpline
210
0.0
220
0.0
230
1.0
 70
     8
 71
     3
 72
    10
 73
     6
 74
     0
 42
0.000000001
 43
0.00000001
 40
0.0
 40
0.0
 40
0.0
 40
0.0
 40
0.0157305655563993
 40
0.506346682876915
 40
1.0
 40
1.0
 40
1.0
 40
1.0
 10
1016.975489191848
 20
969.1616793806783
 30
0.0
 10
1016.975043122277
 20
969.1616673164742
 30
0.0
 10
1016.960684716222
 20
969.1612789852538
 30
0.0
 10
1016.954924987407
 20
969.1296334250043
 30
0.0
 10
1016.983367198409
 20
969.0130624923759
 30
0.0
 10
1016.997632186547
 20
968.9545971722525
 30
0.0
  0
SPLINE
  5
20D
330
1F
100
AcDbEntity
  8
0
  6
Continuous
 62
     8
370
    18
100
AcDbSpline
210
0.0
220
0.0
230
1.0
 70
     8
 71
     3
 72
    12
 73
     8
 74
     0
 42
0.000000001
 43
0.00000001
 40
0.0
 40
0.0
 40
0.0
 40
0.0
 40
0.3107222013442914
 40
0.6300915284038193
 40
0.7856616918457191
 40
0.8925423191164941
 40
1.0
 40
1.0
 40
1.0
 40
1.0
 10
1007.804668267294
 20
929.8331518286753
 30
0.0
 10
1008.355599393329
 20
930.1816234802109
 30
0.0
 10
1009.472793574326
 20
930.8882644430109
 30
0.0
 10
1010.619371807592
 20
932.3933904716296
 30
0.0
 10
1011.323856010922
 20
933.7818538386791
 30
0.0
 10
1011.715531568337
 20
934.7641472895992
 30
0.0
 10
1011.903680932879
 20
935.3925142868326
 30
0.0
 10
1011.998008888285
 20
935.7075436478827
 30
0.0
  0
LINE
  5
20E
330
1F
100
AcDbEntity
  8
0
  6
Continuous
 62
     8
370
    18
100
AcDbLine
 10
879.0546682673
 20
978.4616793807
 30
0.0
 11
879.0546682673
 21
978.3188778524
 31
0.0
  0
LINE
  5
20F
330
1F
100
AcDbEntity
  8
0
  6
Continuous
 62
     8
370
    18
100
AcDbLine
 10
879.0546682673
 20
978.3188778524
 30
0.0
 11
851.114640686
 21
978.3188778524
 31
0.0
  0
LINE
  5
210
330
1F
100
AcDbEntity
  8
0
  6
Continuous
 62
     8
370
    18
100
AcDbLine
 10
985.0546682673
 20
978.4616793807
 30
0.0
 11
985.0546682673
 21
978.3188778524
 31
0.0
  0
LINE
  5
211
330
1F
100
AcDbEntity
  8
0
  6
Continuous
 62
     8
370
    18
100
AcDbLine
 10
879.0546682673
 20
978.3188778524
 30
0.0
 11
985.0546682673
 21
978.3188778524
 31
0.0
  0
LINE
  5
212
330
1F
100
AcDbEntity
  8
0
  6
Continuous
 62
     8
370
    18
100
AcDbLine
 10
985.0546682673
 20
978.3188778524
 30
0.0
 11
1012.9946958486
 21
978.3188778524
 31
0.0
  0
LINE
  5
213
330
1F
100
AcDbEntity
  8
0
  6
Continuous
 62
     8
370
    18
100
AcDbLine
 10
879.0546682673
 20
978.3188778524
 30
0.0
 11
879.0546682673
 21
977.3971104869
 31
0.0
  0
LINE
  5
214
330
1F
100
AcDbEntity
  8
0
  6
Continuous
 62
     8
370
    18
100
AcDbLine
 10
985.0546682673
 20
978.3188778524
 30
0.0
 11
985.0546682673
 21
977.3971104869
 31
0.0
  0
LINE
  5
215
330
1F
100
AcDbEntity
  8
0
  6
Continuous
 62
     8
370
    18
100
AcDbLine
 10
1060.248616725
 20
929.1616793807
 30
0.0
 11
1060.248616725
 21
969.1616793807
 31
0.0
  0
LINE
  5
216
330
1F
100
AcDbEntity
  8
0
  6
Continuous
 62
     8
370
    18
100
AcDbLine
 10
1060.8544149613
 20
969.0998775525
 30
0.0
 11
1060.8544149613
 21
929.2234812088
 31
0.0
  0
LINE
  5
217
330
1F
100
AcDbEntity
  8
0
  6
Continuous
 62
     8
370
    18
100
AcDbLine
 10
1222.0546682673
 20
979.8854199023
 30
0.0
 11
1224.0546682673
 21
979.8854199023
 31
0.0
  0
LINE
  5
218
330
1F
100
AcDbEntity
  8
0
  6
Continuous
 62
     8
370
    18
100
AcDbLine
 10
1224.0546682673
 20
978.0728043282
 30
0.0
 11
1222.0546682673
 21
978.0728043282
 31
0.0
  0
LINE
  5
219
330
1F
100
AcDbEntity
  8
0
  6
Continuous
 62
     8
370
    18
100
AcDbLine
 10
1222.0546682673
 20
970.8145050436
 30
0.0
 11
1224.0546682673
 21
970.8145050436
 31
0.0
  0
LINE
  5
21A
330
1F
100
AcDbEntity
  8
0
  6
Continuous
 62
     8
370
    18
100
AcDbLine
 10
1224.0546682673
 20
969.0018894695
 30
0.0
 11
1222.0546682673
 21
969.0018894695
 31
0.0
  0
LINE
  5
21B
330
1F
100
AcDbEntity
  8
0
  6
Continuous
 62
     8
370
    18
100
AcDbLine
 10
1222.0546682673
 20
934.7112793807
 30
0.0
 11
1224.0546682673
 21
934.7112793807
 31
0.0
  0
LINE
  5
21C
330
1F
100
AcDbEntity
  8
0
  6
Continuous
 62
     8
370
    18
100
AcDbLine
 10
640.0546682673
 20
979.8854199023
 30
0.0
 11
642.0546682673
 21
979.8854199023
 31
0.0
  0
LINE
  5
21D
330
1F
100
AcDbEntity
  8
0
  6
Continuous
 62
     8
370
    18
100
AcDbLine
 10
642.0546682673
 20
978.0728043282
 30
0.0
 11
640.0546682673
 21
978.0728043282
 31
0.0
  0
LINE
  5
21E
330
1F
100
AcDbEntity
  8
0
  6
Continuous
 62
     8
370
    18
100
AcDbLine
 10
640.0546682673
 20
970.8145050436
 30
0.0
 11
642.0546682673
 21
970.8145050436
 31
0.0
  0
LINE
  5
21F
330
1F
100
AcDbEntity
  8
0
  6
Continuous
 62
     8
370
    18
100
AcDbLine
 10
642.0546682673
 20
969.0018894695
 30
0.0
 11
640.0546682673
 21
969.0018894695
 31
0.0
  0
LINE
  5
220
330
1F
100
AcDbEntity
  8
0
  6
Continuous
 62
     8
370
    18
100
AcDbLine
 10
640.0546682673
 20
934.7112793807
 30
0.0
 11
642.0546682673
 21
934.7112793807
 31
0.0
  0
LINE
  5
221
330
1F
100
AcDbEntity
  8
0
  6
Continuous
 62
     8
370
    18
100
AcDbLine
 10
619.5546682673
 20
986.6112793807
 30
0.0
 11
619.5546682673
 21
985.6112793807
 31
0.0
  0
LINE
  5
222
330
1F
100
AcDbEntity
  8
0
  6
Continuous
 62
     8
370
    18
100
AcDbLine
 10
640.0546682673
 20
987.6112793807
 30
0.0
 11
609.5546682673
 21
987.6112793807
 31
0.0
  0
LINE
  5
223
330
1F
100
AcDbEntity
  8
0
  6
Continuous
 62
     8
370
    18
100
AcDbLine
 10
1244.5546682673
 20
985.6112793807
 30
0.0
 11
1244.5546682673
 21
986.6112793807
 31
0.0
  0
LINE
  5
224
330
1F
100
AcDbEntity
  8
0
  6
Continuous
 62
     8
370
    18
100
AcDbLine
 10
1254.5546682673
 20
987.6112793807
 30
0.0
 11
1224.0546682673
 21
987.6112793807
 31
0.0
  0
SPLINE
  5
225
330
1F
100
AcDbEntity
  8
0
  6
Continuous
 62
     7
370
    35
100
AcDbSpline
210
0.0
220
0.0
230
1.0
 70
     8
 71
     3
 72
    17
 73
    13
 74
     0
 42
0.000000001
 43
0.00000001
 40
0.0
 40
0.0
 40
0.0
 40
0.0
 40
0.0944724089342779
 40
0.203769052621472
 40
0.2658214290228417
 40
0.2993037426792485
 40
0.3336657805550386
 40
0.4040243448807467
 40
0.4775461189670116
 40
0.6372893935537612
 40
0.8168942664887757
 40
0.9999999999999999
 40
0.9999999999999999
 40
0.9999999999999999
 40
0.9999999999999999
 10
1539.23111825527
 20
968.1220326133431
 30
0.0
 10
1538.968510940771
 20
968.5309515693666
 30
0.0
 10
1538.402089016207
 20
969.4129554179805
 30
0.0
 10
1537.338208052957
 20
970.1692053890948
 30
0.0
 10
1536.493440059731
 20
970.4759566628006
 30
0.0
 10
1536.123037399894
 20
970.853260688083
 30
0.0
 10
1535.958308315962
 20
971.332671072968
 30
0.0
 10
1536.020429195834
 20
971.8596676822532
 30
0.0
 10
1535.99401495102
 20
972.5728891441659
 30
0.0
 10
1536.008378384731
 20
973.1905870823007
 30
0.0
 10
1536.003243638489
 20
973.5707033352747
 30
0.0
 10
1536.003962362084
 20
973.5982500735789
 30
0.0
 10
1536.00432519242
 20
973.6121563824472
 30
0.0
  0
SPLINE
  5
226
330
1F
100
AcDbEntity
  8
0
  6
Continuous
 62
     7
370
    35
100
AcDbSpline
210
0.0
220
0.0
230
1.0
 70
     8
 71
     3
 72
    17
 73
    13
 74
     0
 42
0.000000001
 43
0.00000001
 40
0.0
 40
0.0
 40
0.0
 40
0.0
 40
0.1890801208241949
 40
0.3745451547246979
 40
0.5395005445935699
 40
0.6154211925198327
 40
0.6880754212459821
 40
0.7235586262153609
 40
0.758133403258346
 40
0.8222104291489615
 40
0.9350732117415796
 40
1.0
 40
1.0
 40
1.0
 40
1.0
 10
1479.004312533908
 20
973.6121563822882
 30
0.0
 10
1479.004675160709
 20
973.598250320399
 30
0.0
 10
1479.005393481126
 20
973.5707040713315
 30
0.0
 10
1479.000261605295
 20
973.1905843351576
 30
0.0
 10
1479.014617001423
 20
972.5728961504458
 30
0.0
 10
1478.988217529896
 20
971.859656761495
 30
0.0
 10
1479.050303655539
 20
971.3327023256895
 30
0.0
 10
1478.885643440448
 20
970.853208369915
 30
0.0
 10
1478.514980447679
 20
970.4762202528154
 30
0.0
 10
1477.672594086119
 20
970.166578922728
 30
0.0
 10
1476.721061507022
 20
969.5173445336802
 30
0.0
 10
1476.236044947169
 20
968.7799049254057
 30
0.0
 10
1476.058922254693
 20
968.5106001227077
 30
0.0
  0
ARC
  5
227
330
1F
100
AcDbEntity
  8
0
  6
Continuous
 62
     7
370
    35
100
AcDbCircle
 10
1485.0143056947
 20
944.1615550529
 30
0.0
 40
14.99987568081155
100
AcDbArc
 50
226.8610757221
 51
269.924195537
  0
ARC
  5
228
330
1F
100
AcDbEntity
  8
0
  6
Continuous
 62
     7
370
    35
100
AcDbCircle
 10
1529.9943322458
 20
944.1615539805
 30
0.0
 40
14.99987460813961
100
AcDbArc
 50
270.0758036504
 51
312.1690218566
  0
SPLINE
  5
229
330
1F
100
AcDbEntity
  8
0
  6
Continuous
 62
     7
370
    35
100
AcDbSpline
210
0.0
220
0.0
230
1.0
 70
     8
 71
     3
 72
    14
 73
    10
 74
     0
 42
0.000000001
 43
0.00000001
 40
0.0
 40
0.0
 40
0.0
 40
0.0
 40
0.3118518497933925
 40
0.5835247383001523
 40
0.7472368347595598
 40
0.816507345588861
 40
0.869191421004244
 40
0.9293786199966252
 40
1.0
 40
1.0
 40
1.0
 40
1.0
 10
1539.884211499191
 20
967.5386587276901
 30
0.0
 10
1539.774272410687
 20
967.6191063399011
 30
0.0
 10
1539.568558774898
 20
967.7696367019738
 30
0.0
 10
1539.344606208916
 20
968.0042982129144
 30
0.0
 10
1539.206465585166
 20
968.1761589428347
 30
0.0
 10
1539.14694369629
 20
968.2583525756744
 30
0.0
 10
1539.123692932151
 20
968.2917397448066
 30
0.0
 10
1539.111483254853
 20
968.3097899808939
 30
0.0
 10
1539.111213238748
 20
968.310216167058
 30
0.0
 10
1539.111067461536
 20
968.3104462578921
 30
0.0
  0
SPLINE
  5
22A
330
1F
100
AcDbEntity
  8
0
  6
Continuous
 62
     7
370
    35
100
AcDbSpline
210
0.0
220
0.0
230
1.0
 70
     8
 71
     3
 72
    12
 73
     8
 74
     0
 42
0.000000001
 43
0.00000001
 40
0.0
 40
0.0
 40
0.0
 40
0.0
 40
0.1249100435532775
 40
0.2370776954459025
 40
0.3308192653831765
 40
0.48146060942316
 40
1.0
 40
1.0
 40
1.0
 40
1.0
 10
1475.896398075436
 20
968.308695082937
 30
0.0
 10
1475.896519386753
 20
968.3088609342569
 30
0.0
 10
1475.89674963411
 20
968.309175717981
 30
0.0
 10
1475.877573673499
 20
968.2808937606604
 30
0.0
 10
1475.836516846358
 20
968.2231880861084
 30
0.0
 10
1475.710130212879
 20
968.0547381762672
 30
0.0
 10
1475.57178332484
 20
967.9159628500867
 30
0.0
 10
1475.464580132487
 20
967.8084276666269
 30
0.0
  0
SPLINE
  5
22B
330
1F
100
AcDbEntity
  8
0
  6
Continuous
 62
     7
370
    35
100
AcDbSpline
210
0.0
220
0.0
230
1.0
 70
     8
 71
     3
 72
    12
 73
     8
 74
     0
 42
0.000000001
 43
0.00000001
 40
0.0
 40
0.0
 40
0.0
 40
0.0
 40
0.0910374224932352
 40
0.2353541285536674
 40
0.3547454600034744
 40
0.5766251015732212
 40
0.9999999999999999
 40
0.9999999999999999
 40
0.9999999999999999
 40
0.9999999999999999
 10
1540.050232494684
 20
933.0560696124292
 30
0.0
 10
1540.04926731379
 20
933.0552310233228
 30
0.0
 10
1540.046772083786
 20
933.053063064225
 30
0.0
 10
1540.061186993185
 20
933.065433394605
 30
0.0
 10
1540.096675362878
 20
933.0946944288936
 30
0.0
 10
1540.175142897891
 20
933.1582349025888
 30
0.0
 10
1540.24946909701
 20
933.2062193430738
 30
0.0
 10
1540.298237211066
 20
933.2377036742287
 30
0.0
  0
SPLINE
  5
22C
330
1F
100
AcDbEntity
  8
0
  6
Continuous
 62
     7
370
    35
100
AcDbSpline
210
0.0
220
0.0
230
1.0
 70
     8
 71
     3
 72
    13
 73
     9
 74
     0
 42
0.000000001
 43
0.00000001
 40
0.0
 40
0.0
 40
0.0
 40
0.0
 40
0.3192547612652096
 40
0.6030634359022049
 40
0.7318310647360224
 40
0.8311168408436707
 40
0.9400008211449761
 40
1.0
 40
1.0
 40
1.0
 40
1.0
 10
1474.711082361241
 20
933.2392219688195
 30
0.0
 10
1474.747745682796
 20
933.2154542022274
 30
0.0
 10
1474.817001685686
 20
933.1705575468793
 30
0.0
 10
1474.894911035946
 20
933.1085414050003
 30
0.0
 10
1474.938090271888
 20
933.0732220498737
 30
0.0
 10
1474.95488601349
 20
933.0590593809068
 30
0.0
 10
1474.961837054279
 20
933.0530955296609
 30
0.0
 10
1474.960857990724
 20
933.0539433897858
 30
0.0
 10
1474.960510158474
 20
933.0542446093481
 30
0.0
  0
SPLINE
  5
22D
330
1F
100
AcDbEntity
  8
0
  6
Continuous
 62
     7
370
    35
100
AcDbSpline
210
0.0
220
0.0
230
1.0
 70
     8
 71
     3
 72
    10
 73
     6
 74
     0
 42
0.000000001
 43
0.00000001
 40
0.0
 40
0.0
 40
0.0
 40
0.0
 40
0.2926068144144691
 40
0.7936688105170028
 40
1.0
 40
1.0
 40
1.0
 40
1.0
 10
1539.220410849909
 20
969.1812435430575
 30
0.0
 10
1539.118611886586
 20
969.1865379864084
 30
0.0
 10
1538.842491652361
 20
969.2008986723176
 30
0.0
 10
1538.501674845897
 20
969.2983983186211
 30
0.0
 10
1538.282966728775
 20
969.4022409999386
 30
0.0
 10
1538.219174333153
 20
969.4325296490125
 30
0.0
  0
ARC
  5
22E
330
1F
100
AcDbEntity
  8
0
  6
Continuous
 62
     7
370
    35
100
AcDbCircle
 10
1539.0043188632
 20
940.1616793807
 30
0.0
 40
11.0
100
AcDbArc
 50
270.0
 51
0.0
  0
LINE
  5
22F
330
1F
100
AcDbEntity
  8
0
  6
Continuous
 62
     7
370
    35
100
AcDbLine
 10
1529.5174640728
 20
929.1616793807
 30
0.0
 11
1539.0043188632
 21
929.1616793807
 31
0.0
  0
SPLINE
  5
230
330
1F
100
AcDbEntity
  8
0
  6
Continuous
 62
     7
370
    35
100
AcDbSpline
210
0.0
220
0.0
230
1.0
 70
     8
 71
     3
 72
    13
 73
     9
 74
     0
 42
0.000000001
 43
0.00000001
 40
0.0
 40
0.0
 40
0.0
 40
0.0
 40
0.0125063724609284
 40
0.1462174367170606
 40
0.2953845314575759
 40
0.4584621237503331
 40
0.7227547020175669
 40
1.0
 40
1.0
 40
1.0
 40
1.0
 10
1536.004336422164
 20
972.5674887731165
 30
0.0
 10
1536.004336084842
 20
972.6197433263612
 30
0.0
 10
1536.004332141067
 20
973.230674022382
 30
0.0
 10
1536.004329628617
 20
974.010146745582
 30
0.0
 10
1536.004324513808
 20
974.8046824073508
 30
0.0
 10
1536.004320911346
 20
975.3465100173895
 30
0.0
 10
1536.004318882116
 20
975.5892953700724
 30
0.0
 10
1536.004318869581
 20
975.6041000093799
 30
0.0
 10
1536.004318863164
 20
975.6116793806783
 30
0.0
  0
LINE
  5
231
330
1F
100
AcDbEntity
  8
0
  6
Continuous
 62
     7
370
    35
100
AcDbLine
 10
1573.0043188632
 20
986.6112793807
 30
0.0
 11
1572.9793188632
 21
986.6112793807
 31
0.0
  0
LINE
  5
232
330
1F
100
AcDbEntity
  8
0
  6
Continuous
 62
     7
370
    35
100
AcDbLine
 10
1573.0043188632
 20
985.6112793807
 30
0.0
 11
1573.0043188632
 21
986.6112793807
 31
0.0
  0
LINE
  5
233
330
1F
100
AcDbEntity
  8
0
  6
Continuous
 62
     7
370
    35
100
AcDbLine
 10
1573.0043188632
 20
985.6112793807
 30
0.0
 11
1572.9793188632
 21
985.6112793807
 31
0.0
  0
ARC
  5
234
330
1F
100
AcDbEntity
  8
0
  6
Continuous
 62
     7
370
    35
100
AcDbCircle
 10
1543.5043188632
 20
987.6112793807
 30
0.0
 40
1.0
100
AcDbArc
 50
180.0
 51
270.0
  0
ARC
  5
235
330
1F
100
AcDbEntity
  8
0
  6
Continuous
 62
     7
370
    35
100
AcDbCircle
 10
1459.0043188632
 20
999.6112793807
 30
0.0
 40
1.0
100
AcDbArc
 50
180.0
 51
270.0
  0
LINE
  5
236
330
1F
100
AcDbEntity
  8
0
  6
Continuous
 62
     7
370
    35
100
AcDbLine
 10
1474.5043188632
 20
985.6112793807
 30
0.0
 11
1474.5043188632
 21
984.27319787
 31
0.0
  0
LWPOLYLINE
  5
237
330
1F
100
AcDbEntity
  8
0
  6
Continuous
 62
     7
370
    35
100
AcDbPolyline
 90
        3
 70
   128
 43
0.0
 10
1474.5043188632
 20
984.27319787
 10
1474.5400310962
 20
983.8969352374
 10
1474.6043188632
 20
983.6486980701
  0
LINE
  5
238
330
1F
100
AcDbEntity
  8
0
  6
Continuous
 62
     7
370
    35
100
AcDbLine
 10
1540.5043188632
 20
984.27319787
 30
0.0
 11
1540.5043188632
 21
985.6112793807
 31
0.0
  0
LINE
  5
239
330
1F
100
AcDbEntity
  8
0
  6
Continuous
 62
     7
370
    35
100
AcDbLine
 10
1458.0043188632
 20
999.6112793807
 30
0.0
 11
1458.0043188632
 21
1029.1112793807
 31
0.0
  0
LINE
  5
23A
330
1F
100
AcDbEntity
  8
0
  6
Continuous
 62
     7
370
    35
100
AcDbLine
 10
1457.9793188632
 20
1029.1112793807
 30
0.0
 11
1458.0043188632
 21
1029.1112793807
 31
0.0
  0
ARC
  5
23B
330
1F
100
AcDbEntity
  8
0
  6
Continuous
 62
     7
370
    35
100
AcDbCircle
 10
1538.5043188632
 20
984.27319787
 30
0.0
 40
2.000000000000026
100
AcDbArc
 50
337.6683549908
 51
0.0
  0
LINE
  5
23C
330
1F
100
AcDbEntity
  8
0
  6
Continuous
 62
     7
370
    35
100
AcDbLine
 10
1535.5043188632
 20
976.3496872386
 30
0.0
 11
1535.5043188632
 21
975.6116793807
 31
0.0
  0
LINE
  5
23D
330
1F
100
AcDbEntity
  8
0
  6
Continuous
 62
     7
370
    35
100
AcDbLine
 10
1479.5043188632
 20
976.3263718557
 30
0.0
 11
1479.5043188632
 21
975.6116793807
 31
0.0
  0
LINE
  5
23E
330
1F
100
AcDbEntity
  8
0
  6
Continuous
 62
     7
370
    35
100
AcDbLine
 10
1479.5043188632
 20
975.6116793807
 30
0.0
 11
1481.036981822
 21
975.6116793807
 31
0.0
  0
LINE
  5
23F
330
1F
100
AcDbEntity
  8
0
  6
Continuous
 62
     7
370
    35
100
AcDbLine
 10
1533.9216559044
 20
975.6116793807
 30
0.0
 11
1535.5043188632
 21
975.6116793807
 31
0.0
  0
SPLINE
  5
240
330
1F
100
AcDbEntity
  8
0
  6
Continuous
 62
     7
370
    35
100
AcDbSpline
210
0.0
220
0.0
230
1.0
 70
     8
 71
     3
 72
     9
 73
     5
 74
     0
 42
0.000000001
 43
0.00000001
 40
0.0
 40
0.0
 40
0.0
 40
0.0
 40
0.0494865767859509
 40
1.0
 40
1.0
 40
1.0
 40
1.0
 10
1539.118886833649
 20
968.298918424402
 30
0.0
 10
1539.115853213327
 20
968.3037019953831
 30
0.0
 10
1539.054551330699
 20
968.4003660059491
 30
0.0
 10
1539.049390979214
 20
968.4056802946776
 30
0.0
 10
1539.044485995858
 20
968.4107315974492
 30
0.0
  0
SPLINE
  5
241
330
1F
100
AcDbEntity
  8
0
  6
Continuous
 62
     7
370
    35
100
AcDbSpline
210
0.0
220
0.0
230
1.0
 70
     8
 71
     3
 72
    14
 73
    10
 74
     0
 42
0.000000001
 43
0.00000001
 40
0.0
 40
0.0
 40
0.0
 40
0.0
 40
0.0000086772972158
 40
0.0546554576672727
 40
0.1545956188497728
 40
0.2815115513695395
 40
0.4757791841528836
 40
0.7372214479202458
 40
1.0
 40
1.0
 40
1.0
 40
1.0
 10
1538.913614960238
 20
968.4912689212864
 30
0.0
 10
1538.913615982075
 20
968.4912668004531
 30
0.0
 10
1538.920052200603
 20
968.4779083650701
 30
0.0
 10
1538.954785364991
 20
968.413507160788
 30
0.0
 10
1539.10393702525
 20
968.1575209755516
 30
0.0
 10
1539.468540097609
 20
967.5415843718966
 30
0.0
 10
1540.098902765454
 20
966.465910325621
 30
0.0
 10
1540.91010119367
 20
965.0450943011839
 30
0.0
 10
1541.491187127624
 20
963.9860806397131
 30
0.0
 10
1541.782470716032
 20
963.4552240461146
 30
0.0
  0
SPLINE
  5
242
330
1F
100
AcDbEntity
  8
0
  6
Continuous
 62
     7
370
    35
100
AcDbSpline
210
0.0
220
0.0
230
1.0
 70
     8
 71
     3
 72
    12
 73
     8
 74
     0
 42
0.000000001
 43
0.00000001
 40
0.0
 40
0.0
 40
0.0
 40
0.0
 40
0.1720163517394629
 40
0.4559765852487132
 40
0.6679924881477981
 40
0.886316203050505
 40
1.0
 40
1.0
 40
1.0
 40
1.0
 10
1543.216255308313
 20
960.7476444267363
 30
0.0
 10
1543.698099288868
 20
959.699941509919
 30
0.0
 10
1544.975359099661
 20
956.9227171731947
 30
0.0
 10
1545.935224585165
 20
952.5010329079581
 30
0.0
 10
1546.135740533582
 20
947.7122914675532
 30
0.0
 10
1545.677341971016
 20
944.0701410785213
 30
0.0
 10
1545.041739473236
 20
941.9388024263085
 30
0.0
 10
1544.824100706886
 20
941.2090036659823
 30
0.0
  0
SPLINE
  5
243
330
1F
100
AcDbEntity
  8
0
  6
Continuous
 62
     7
370
    35
100
AcDbSpline
210
0.0
220
0.0
230
1.0
 70
    24
 71
     3
 72
     9
 73
     5
 74
     0
 42
0.000000001
 43
0.00000001
 40
0.0
 40
0.0
 40
0.0
 40
0.0
 40
0.5083839877526579
 40
1.0
 40
1.0
 40
1.0
 40
1.0
 10
1507.504318863164
 20
944.9403313073198
 30
0.0
 10
1507.504318863164
 20
943.4100454798086
 30
0.0
 10
1507.504318863164
 20
940.3999470810061
 30
0.0
 10
1507.504318863164
 20
937.8027848682527
 30
0.0
 10
1507.504318863164
 20
936.5259783380593
 30
0.0
  0
SPLINE
  5
244
330
1F
100
AcDbEntity
  8
0
  6
Continuous
 62
     7
370
    35
100
AcDbSpline
210
0.0
220
0.0
230
1.0
 70
    24
 71
     3
 72
    13
 73
     9
 74
     0
 42
0.000000001
 43
0.00000001
 40
0.0
 40
0.0
 40
0.0
 40
0.0
 40
0.3691962178006846
 40
0.7482503419935755
 40
0.8262738837480746
 40
0.9040766892940533
 40
0.9808985751670101
 40
1.0
 40
1.0
 40
1.0
 40
1.0
 10
1536.004318863164
 20
975.6116793806783
 30
0.0
 10
1536.016100785298
 20
975.6116793806783
 30
0.0
 10
1536.039979218611
 20
975.6116793806783
 30
0.0
 10
1535.906082748737
 20
975.6116793806785
 30
0.0
 10
1536.069836086783
 20
975.6116793806785
 30
0.0
 10
1535.754874060696
 20
975.6116793806782
 30
0.0
 10
1534.954825447292
 20
975.6116793806782
 30
0.0
 10
1534.093227786493
 20
975.6116793806783
 30
0.0
 10
1533.921655904404
 20
975.6116793806783
 30
0.0
  0
SPLINE
  5
245
330
1F
100
AcDbEntity
  8
0
  6
Continuous
 62
     7
370
    35
100
AcDbSpline
210
0.0
220
0.0
230
1.0
 70
     8
 71
     3
 72
    14
 73
    10
 74
     0
 42
0.000000001
 43
0.00000001
 40
0.0
 40
0.0
 40
0.0
 40
0.0
 40
0.0000086772972158
 40
0.0546554576672727
 40
0.1545956188497728
 40
0.2815115513695395
 40
0.4757791841528836
 40
0.7372214479202452
 40
1.0
 40
1.0
 40
1.0
 40
1.0
 10
1476.09502276609
 20
968.4912689212862
 30
0.0
 10
1476.095021744253
 20
968.4912668004529
 30
0.0
 10
1476.088585525725
 20
968.4779083650739
 30
0.0
 10
1476.053852361337
 20
968.4135071607845
 30
0.0
 10
1475.904700701078
 20
968.1575209755529
 30
0.0
 10
1475.540097628719
 20
967.5415843718959
 30
0.0
 10
1474.909734960874
 20
966.465910325621
 30
0.0
 10
1474.098536532658
 20
965.0450943011834
 30
0.0
 10
1473.517450598704
 20
963.9860806397128
 30
0.0
 10
1473.226167010296
 20
963.4552240461145
 30
0.0
  0
SPLINE
  5
246
330
1F
100
AcDbEntity
  8
0
  6
Continuous
 62
     7
370
    35
100
AcDbSpline
210
0.0
220
0.0
230
1.0
 70
     8
 71
     3
 72
     9
 73
     5
 74
     0
 42
0.000000001
 43
0.00000001
 40
0.0
 40
0.0
 40
0.0
 40
0.0
 40
0.0487880016062182
 40
1.0
 40
1.0
 40
1.0
 40
1.0
 10
1475.889883913607
 20
968.2991280761593
 30
0.0
 10
1475.89287187616
 20
968.3038396195398
 30
0.0
 10
1475.954115674932
 20
968.4004113836118
 30
0.0
 10
1475.959259173202
 20
968.4057005135708
 30
0.0
 10
1475.964151730469
 20
968.4107315974488
 30
0.0
  0
LINE
  5
247
330
1F
100
AcDbEntity
  8
0
  6
Continuous
 62
     7
370
    35
100
AcDbLine
 10
1479.0043188632
 20
972.1955555763
 30
0.0
 11
1479.0043188632
 21
975.6116793807
 31
0.0
  0
SPLINE
  5
248
330
1F
100
AcDbEntity
  8
0
  6
Continuous
 62
     7
370
    35
100
AcDbSpline
210
0.0
220
0.0
230
1.0
 70
     8
 71
     3
 72
    12
 73
     8
 74
     0
 42
0.000000001
 43
0.00000001
 40
0.0
 40
0.0
 40
0.0
 40
0.0
 40
0.1720163517394582
 40
0.4559765852487098
 40
0.6679924881477988
 40
0.8863162030505048
 40
0.9999999999999999
 40
0.9999999999999999
 40
0.9999999999999999
 40
0.9999999999999999
 10
1471.792382418016
 20
960.747644426736
 30
0.0
 10
1471.310538437461
 20
959.6999415099189
 30
0.0
 10
1470.033278626667
 20
956.9227171731943
 30
0.0
 10
1469.073413141163
 20
952.5010329079579
 30
0.0
 10
1468.872897192746
 20
947.7122914675532
 30
0.0
 10
1469.331295755312
 20
944.0701410785211
 30
0.0
 10
1469.966898253092
 20
941.9388024263084
 30
0.0
 10
1470.184537019442
 20
941.209003665982
 30
0.0
  0
SPLINE
  5
249
330
1F
100
AcDbEntity
  8
0
  6
Continuous
 62
     7
370
    35
100
AcDbSpline
210
0.0
220
0.0
230
1.0
 70
    24
 71
     3
 72
    13
 73
     9
 74
     0
 42
0.000000001
 43
0.00000001
 40
0.0
 40
0.0
 40
0.0
 40
0.0
 40
0.3699055321299805
 40
0.7496879100505789
 40
0.8278613537095952
 40
0.9058136370729848
 40
0.9827831161818037
 40
1.0
 40
1.0
 40
1.0
 40
1.0
 10
1479.004318863164
 20
975.6116793806782
 30
0.0
 10
1478.992459137206
 20
975.6116793806783
 30
0.0
 10
1478.968423018805
 20
975.6116793806783
 30
0.0
 10
1479.103204075049
 20
975.6116793806783
 30
0.0
 10
1478.938370528037
 20
975.6116793806783
 30
0.0
 10
1479.255432681675
 20
975.6116793806781
 30
0.0
 10
1480.040837812641
 20
975.6116793806781
 30
0.0
 10
1480.88303212858
 20
975.6116793806782
 30
0.0
 10
1481.036981821924
 20
975.6116793806782
 30
0.0
  0
SPLINE
  5
24A
330
1F
100
AcDbEntity
  8
0
  6
Continuous
 62
     7
370
    35
100
AcDbSpline
210
0.0
220
0.0
230
1.0
 70
    24
 71
     3
 72
    12
 73
     8
 74
     0
 42
0.000000001
 43
0.00000001
 40
0.0
 40
0.0
 40
0.0
 40
0.0
 40
0.1412104094081674
 40
0.378776799543145
 40
0.6231915895614722
 40
0.8099823699849353
 40
1.0
 40
1.0
 40
1.0
 40
1.0
 10
1507.504318863164
 20
932.7112793806784
 30
0.0
 10
1507.504318863164
 20
932.3884276584579
 30
0.0
 10
1507.504318863164
 20
931.5224239227402
 30
0.0
 10
1507.504318863164
 20
930.4809661240516
 30
0.0
 10
1507.504318863164
 20
929.6759994408644
 30
0.0
 10
1507.504318863164
 20
929.2375681925438
 30
0.0
 10
1507.504318863164
 20
929.1871196589052
 30
0.0
 10
1507.504318863164
 20
929.1616793806784
 30
0.0
  0
SPLINE
  5
24B
330
1F
100
AcDbEntity
  8
0
  6
Continuous
 62
     7
370
    35
100
AcDbSpline
210
0.0
220
0.0
230
1.0
 70
    24
 71
     3
 72
    17
 73
    13
 74
     0
 42
0.000000001
 43
0.00000001
 40
0.0
 40
0.0
 40
0.0
 40
0.0
 40
0.0569795784918639
 40
0.1353024541387293
 40
0.2160128774647439
 40
0.2868547793926888
 40
0.3593481415837518
 40
0.4253072501105174
 40
0.4928579495996658
 40
0.5565942236325551
 40
0.6223126637270342
 40
1.0
 40
1.0
 40
1.0
 40
1.0
 10
1507.504318863164
 20
929.1616793806784
 30
0.0
 10
1506.453938430795
 20
929.1616793806784
 30
0.0
 10
1503.959728153352
 20
929.1616793806784
 30
0.0
 10
1500.140863145076
 20
929.1616793806784
 30
0.0
 10
1496.373496972668
 20
929.1616793806784
 30
0.0
 10
1493.078455800606
 20
929.1616793806784
 30
0.0
 10
1490.39793665013
 20
929.1616793806782
 30
0.0
 10
1488.207669387007
 20
929.1616793806783
 30
0.0
 10
1486.613767701124
 20
929.1616793806783
 30
0.0
 10
1485.561674466516
 20
929.1616793806783
 30
0.0
 10
1484.906365059385
 20
929.1616793806783
 30
0.0
 10
1484.965788162873
 20
929.1616793806783
 30
0.0
 10
1485.016403997996
 20
929.1616793806783
 30
0.0
  0
SPLINE
  5
24C
330
1F
100
AcDbEntity
  8
0
  6
Continuous
 62
     7
370
    35
100
AcDbSpline
210
0.0
220
0.0
230
1.0
 70
    24
 71
     3
 72
    17
 73
    13
 74
     0
 42
0.000000001
 43
0.00000001
 40
0.0
 40
0.0
 40
0.0
 40
0.0
 40
0.0569845589005255
 40
0.1364939970869601
 40
0.216023534559942
 40
0.2876998720940933
 40
0.3593687415705811
 40
0.426150153710199
 40
0.4928872867049942
 40
0.5575313349414267
 40
0.6222797705528461
 40
1.0
 40
1.0
 40
1.0
 40
1.0
 10
1507.504318863164
 20
929.1616793806784
 30
0.0
 10
1508.554773810067
 20
929.1616793806784
 30
0.0
 10
1511.070907956386
 20
929.1616793806784
 30
0.0
 10
1514.886457547895
 20
929.1616793806784
 30
0.0
 10
1518.6670126632
 20
929.1616793806785
 30
0.0
 10
1521.940209984057
 20
929.1616793806784
 30
0.0
 10
1524.631593376057
 20
929.1616793806783
 30
0.0
 10
1526.804140410673
 20
929.1616793806784
 30
0.0
 10
1528.41773602522
 20
929.1616793806784
 30
0.0
 10
1529.411167646298
 20
929.1616793806784
 30
0.0
 10
1530.169683814658
 20
929.1616793806784
 30
0.0
 10
1530.070888824944
 20
929.1616793806783
 30
0.0
 10
1529.986550951712
 20
929.1616793806783
 30
0.0
  0
SPLINE
  5
24D
330
1F
100
AcDbEntity
  8
0
  6
Continuous
 62
     7
370
    35
100
AcDbSpline
210
0.0
220
0.0
230
1.0
 70
     8
 71
     3
 72
    13
 73
     9
 74
     0
 42
0.000000001
 43
0.00000001
 40
0.0
 40
0.0
 40
0.0
 40
0.0
 40
0.2029467742027865
 40
0.4117773519856948
 40
0.6147258594307115
 40
0.8235672334127718
 40
0.9115535143092885
 40
1.0
 40
1.0
 40
1.0
 40
1.0
 10
1546.088560685364
 20
940.790875155588
 30
0.0
 10
1546.491623977205
 20
942.1735299042565
 30
0.0
 10
1547.309436113659
 20
944.978925128466
 30
0.0
 10
1547.618850269808
 20
949.3523251443139
 30
0.0
 10
1547.240389768238
 20
953.7458668778675
 30
0.0
 10
1546.327266860129
 20
957.1848200350588
 30
0.0
 10
1545.326600143326
 20
959.7253747918849
 30
0.0
 10
1544.764719908995
 20
960.8417761422975
 30
0.0
 10
1544.483046991504
 20
961.4014328204437
 30
0.0
  0
SPLINE
  5
24E
330
1F
100
AcDbEntity
  8
0
  6
Continuous
 62
     7
370
    35
100
AcDbSpline
210
0.0
220
0.0
230
1.0
 70
     8
 71
     3
 72
    13
 73
     9
 74
     0
 42
0.000000001
 43
0.00000001
 40
0.0
 40
0.0
 40
0.0
 40
0.0
 40
0.2029467742027861
 40
0.4117773519856938
 40
0.6147258594307142
 40
0.8235672334127763
 40
0.9115535143092927
 40
1.0
 40
1.0
 40
1.0
 40
1.0
 10
1468.920077040964
 20
940.7908751555876
 30
0.0
 10
1468.517013749123
 20
942.1735299042564
 30
0.0
 10
1467.699201612669
 20
944.978925128466
 30
0.0
 10
1467.38978745652
 20
949.3523251443137
 30
0.0
 10
1467.76824795809
 20
953.7458668778675
 30
0.0
 10
1468.681370866199
 20
957.1848200350587
 30
0.0
 10
1469.682037583002
 20
959.7253747918847
 30
0.0
 10
1470.243917817333
 20
960.8417761422972
 30
0.0
 10
1470.525590734824
 20
961.4014328204435
 30
0.0
  0
SPLINE
  5
24F
330
1F
100
AcDbEntity
  8
0
  6
Continuous
 62
     7
370
    35
100
AcDbSpline
210
0.0
220
0.0
230
1.0
 70
     8
 71
     3
 72
    12
 73
     8
 74
     0
 42
0.000000001
 43
0.00000001
 40
0.0
 40
0.0
 40
0.0
 40
0.0
 40
0.0542100646910306
 40
0.3612059465304441
 40
0.5267652948495972
 40
0.7633787062243803
 40
1.0
 40
1.0
 40
1.0
 40
1.0
 10
1539.826511331187
 20
932.9380579753231
 30
0.0
 10
1539.979793081817
 20
933.0358212736861
 30
0.0
 10
1541.001121503724
 20
933.687225859207
 30
0.0
 10
1542.385716654258
 20
934.850329732099
 30
0.0
 10
1543.970512781464
 20
936.6861776697543
 30
0.0
 10
1545.184632018841
 20
938.5252532831581
 30
0.0
 10
1545.787247784047
 20
940.0356594787862
 30
0.0
 10
1546.088560685364
 20
940.790875155588
 30
0.0
  0
SPLINE
  5
250
330
1F
100
AcDbEntity
  8
0
  6
Continuous
 62
     7
370
    35
100
AcDbSpline
210
0.0
220
0.0
230
1.0
 70
     8
 71
     3
 72
    12
 73
     8
 74
     0
 42
0.000000001
 43
0.00000001
 40
0.0
 40
0.0
 40
0.0
 40
0.0
 40
0.0542100646910311
 40
0.3612059465304473
 40
0.5267652948496011
 40
0.7633787062243828
 40
1.0
 40
1.0
 40
1.0
 40
1.0
 10
1475.182126395141
 20
932.938057975323
 30
0.0
 10
1475.028844644511
 20
933.035821273686
 30
0.0
 10
1474.007516222604
 20
933.6872258592069
 30
0.0
 10
1472.62292107207
 20
934.850329732099
 30
0.0
 10
1471.038124944864
 20
936.6861776697542
 30
0.0
 10
1469.824005707487
 20
938.525253283158
 30
0.0
 10
1469.221389942281
 20
940.0356594787859
 30
0.0
 10
1468.920077040964
 20
940.7908751555876
 30
0.0
  0
SPLINE
  5
251
330
1F
100
AcDbEntity
  8
0
  6
Continuous
 62
     7
370
    35
100
AcDbSpline
210
0.0
220
0.0
230
1.0
 70
     8
 71
     3
 72
    11
 73
     7
 74
     0
 42
0.000000001
 43
0.00000001
 40
0.0
 40
0.0
 40
0.0
 40
0.0
 40
0.3166351430858643
 40
0.6421699667518177
 40
0.8203579608774899
 40
1.0
 40
1.0
 40
1.0
 40
1.0
 10
1543.005152104689
 20
964.122960886816
 30
0.0
 10
1542.739186750597
 20
964.5554031829195
 30
0.0
 10
1542.199780540249
 20
965.4324424534325
 30
0.0
 10
1541.304491110958
 20
966.3957266681691
 30
0.0
 10
1540.489113753388
 20
967.1089056405157
 30
0.0
 10
1540.027582945474
 20
967.4315171412176
 30
0.0
 10
1539.795879824584
 20
967.5934783586829
 30
0.0
  0
SPLINE
  5
252
330
1F
100
AcDbEntity
  8
0
  6
Continuous
 62
     7
370
    35
100
AcDbSpline
210
0.0
220
0.0
230
1.0
 70
     8
 71
     3
 72
    11
 73
     7
 74
     0
 42
0.000000001
 43
0.00000001
 40
0.0
 40
0.0
 40
0.0
 40
0.0
 40
0.3166502316689759
 40
0.6422005680136363
 40
0.8852711377571085
 40
1.0
 40
1.0
 40
1.0
 40
1.0
 10
1472.003485621638
 20
964.1229608868157
 30
0.0
 10
1472.269509378925
 20
964.5553732558803
 30
0.0
 10
1472.809034037201
 20
965.432351831155
 30
0.0
 10
1473.774289605819
 20
966.4722345352599
 30
0.0
 10
1474.600610035766
 20
967.17282705294
 30
0.0
 10
1475.064129705199
 20
967.4913451186244
 30
0.0
 10
1475.212757901744
 20
967.5934783586825
 30
0.0
  0
LINE
  5
253
330
1F
100
AcDbEntity
  8
0
  6
Continuous
 62
     7
370
    35
100
AcDbLine
 10
1544.4830469915
 20
961.4014328204
 30
0.0
 11
1543.0051521047
 21
964.1229608868
 31
0.0
  0
LINE
  5
254
330
1F
100
AcDbEntity
  8
0
  6
Continuous
 62
     7
370
    35
100
AcDbLine
 10
1470.5255907348
 20
961.4014328204
 30
0.0
 11
1472.0034856216
 21
964.1229608868
 31
0.0
  0
LINE
  5
255
330
1F
100
AcDbEntity
  8
0
  6
Continuous
 62
     7
370
    35
100
AcDbLine
 10
1474.7080516144
 20
933.245326572
 30
0.0
 11
1474.7217059452
 21
933.2364766031
 31
0.0
  0
LINE
  5
256
330
1F
100
AcDbEntity
  8
0
  6
Continuous
 62
     7
370
    35
100
AcDbLine
 10
1539.7958798246
 20
967.5934783587
 30
0.0
 11
1539.8966750254
 21
967.5257043324
 31
0.0
  0
ARC
  5
257
330
1F
100
AcDbEntity
  8
0
  6
Continuous
 62
     7
370
    35
100
AcDbCircle
 10
1473.4232549181
 20
970.004546434
 30
0.0
 40
2.999398629805063
100
AcDbArc
 50
304.2645941137
 51
312.8939998002
  0
LINE
  5
258
330
1F
100
AcDbEntity
  8
0
  6
Continuous
 62
     7
370
    35
100
AcDbLine
 10
1475.2127579017
 20
967.5934783587
 30
0.0
 11
1475.1119627009
 21
967.5257043324
 31
0.0
  0
SPLINE
  5
259
330
1F
100
AcDbEntity
  8
0
  6
Continuous
 62
     7
370
    35
100
AcDbSpline
210
0.0
220
0.0
230
1.0
 70
     8
 71
     3
 72
     9
 73
     5
 74
     0
 42
0.000000001
 43
0.00000001
 40
0.0
 40
0.0
 40
0.0
 40
0.0
 40
0.6590643911476903
 40
1.0
 40
1.0
 40
1.0
 40
1.0
 10
1539.335994434565
 20
969.163043594293
 30
0.0
 10
1539.020518714553
 20
969.1890378215633
 30
0.0
 10
1538.541846639033
 20
969.2284789256789
 30
0.0
 10
1538.141170807046
 20
969.4826569816559
 30
0.0
 10
1538.004566148315
 20
969.5693153319272
 30
0.0
  0
ARC
  5
25A
330
1F
100
AcDbEntity
  8
0
  6
Continuous
 62
     7
370
    35
100
AcDbCircle
 10
1539.0043118819
 20
958.1680383523
 30
0.0
 40
11.00000698123964
100
AcDbArc
 50
0.0000092142
 51
88.2721018854
  0
SPLINE
  5
25B
330
1F
100
AcDbEntity
  8
0
  6
Continuous
 62
     7
370
    35
100
AcDbSpline
210
0.0
220
0.0
230
1.0
 70
    24
 71
     3
 72
    19
 73
    15
 74
     0
 42
0.000000001
 43
0.00000001
 40
0.0
 40
0.0
 40
0.0
 40
0.0
 40
0.0003400432997567
 40
0.1018635778277051
 40
0.2035434036526508
 40
0.3480218784455773
 40
0.492862040816062
 40
0.5714933381061469
 40
0.6496296261320131
 40
0.7087399627822183
 40
0.7683238584295645
 40
0.8224306267254503
 40
0.8926101632270912
 40
1.0
 40
1.0
 40
1.0
 40
1.0
 10
1550.004318863164
 20
958.1680401213009
 30
0.0
 10
1550.004318863164
 20
958.1680423311528
 30
0.0
 10
1550.004318863165
 20
958.1687043157409
 30
0.0
 10
1550.004318863163
 20
957.9992673629278
 30
0.0
 10
1550.004318863164
 20
957.2138084907143
 30
0.0
 10
1550.004318863164
 20
955.8136517087512
 30
0.0
 10
1550.004318863164
 20
954.1479098707582
 30
0.0
 10
1550.004318863164
 20
952.6580595346048
 30
0.0
 10
1550.004318863164
 20
951.4099698152975
 30
0.0
 10
1550.004318863164
 20
950.0742189763804
 30
0.0
 10
1550.004318863164
 20
948.7614481169344
 30
0.0
 10
1550.004318863164
 20
947.3855077449186
 30
0.0
 10
1550.004318863164
 20
945.9714232697517
 30
0.0
 10
1550.004318863164
 20
945.1422886444127
 30
0.0
 10
1550.004318863164
 20
944.6408472616116
 30
0.0
  0
SPLINE
  5
25C
330
1F
100
AcDbEntity
  8
0
  6
Continuous
 62
     7
370
    35
100
AcDbSpline
210
0.0
220
0.0
230
1.0
 70
    24
 71
     3
 72
     9
 73
     5
 74
     0
 42
0.000000001
 43
0.00000001
 40
0.0
 40
0.0
 40
0.0
 40
0.0
 40
0.4979466281839522
 40
1.0
 40
1.0
 40
1.0
 40
1.0
 10
1550.004318863164
 20
944.6408472616116
 30
0.0
 10
1550.004318863164
 20
944.0100797660544
 30
0.0
 10
1550.004318863164
 20
942.7433426101916
 30
0.0
 10
1550.004318863164
 20
941.6891987091262
 30
0.0
 10
1550.004318863164
 20
941.159962209217
 30
0.0
  0
LINE
  5
25D
330
1F
100
AcDbEntity
  8
0
  6
Continuous
 62
     7
370
    35
100
AcDbLine
 10
1550.0043188632
 20
941.1599622092
 30
0.0
 11
1550.0043188632
 21
940.1616793807
 31
0.0
  0
ARC
  5
25E
330
1F
100
AcDbEntity
  8
0
  6
Continuous
 62
     7
370
    35
100
AcDbCircle
 10
1459.0043188632
 20
987.6112793807
 30
0.0
 40
1.0
100
AcDbArc
 50
180.0
 51
270.0
  0
LINE
  5
25F
330
1F
100
AcDbEntity
  8
0
  6
Continuous
 62
     7
370
    35
100
AcDbLine
 10
1458.0043188632
 20
987.6112793807
 30
0.0
 11
1458.0043188632
 21
997.6112793807
 31
0.0
  0
LINE
  5
260
330
1F
100
AcDbEntity
  8
0
  6
Continuous
 62
     7
370
    35
100
AcDbLine
 10
1542.5043188632
 20
997.6112793807
 30
0.0
 11
1542.5043188632
 21
986.6112793807
 31
0.0
  0
LINE
  5
261
330
1F
100
AcDbEntity
  8
0
  6
Continuous
 62
     7
370
    35
100
AcDbLine
 10
1540.3543188632
 20
985.6112793807
 30
0.0
 11
1540.3543188632
 21
979.8854199023
 31
0.0
  0
LINE
  5
262
330
1F
100
AcDbEntity
  8
0
  6
Continuous
 62
     7
370
    35
100
AcDbLine
 10
1539.1995553866
 20
978.0728043282
 30
0.0
 11
1523.6340823397
 21
970.8145050436
 31
0.0
  0
ARC
  5
263
330
1F
100
AcDbEntity
  8
0
  6
Continuous
 62
     7
370
    35
100
AcDbCircle
 10
1524.4793188632
 20
969.0018894695
 30
0.0
 40
2.000000000000027
100
AcDbArc
 50
115.0
 51
180.0
  0
LINE
  5
264
330
1F
100
AcDbEntity
  8
0
  6
Continuous
 62
     7
370
    35
100
AcDbLine
 10
1522.4793188632
 20
969.0018894695
 30
0.0
 11
1522.4793188632
 21
934.7112793807
 31
0.0
  0
ARC
  5
265
330
1F
100
AcDbEntity
  8
0
  6
Continuous
 62
     7
370
    35
100
AcDbCircle
 10
1520.4793188632
 20
934.7112793807
 30
0.0
 40
2.0
100
AcDbArc
 50
270.0
 51
0.0
  0
LINE
  5
266
330
1F
100
AcDbEntity
  8
0
  6
Continuous
 62
     7
370
    35
100
AcDbLine
 10
1520.4793188632
 20
932.7112793807
 30
0.0
 11
1494.4793188632
 21
932.7112793807
 31
0.0
  0
ARC
  5
267
330
1F
100
AcDbEntity
  8
0
  6
Continuous
 62
     7
370
    35
100
AcDbCircle
 10
1494.4793188632
 20
934.7112793807
 30
0.0
 40
2.000000000000114
100
AcDbArc
 50
180.0
 51
270.0
  0
LINE
  5
268
330
1F
100
AcDbEntity
  8
0
  6
Continuous
 62
     7
370
    35
100
AcDbLine
 10
1492.4793188632
 20
934.7112793807
 30
0.0
 11
1492.4793188632
 21
969.0018894695
 31
0.0
  0
ARC
  5
269
330
1F
100
AcDbEntity
  8
0
  6
Continuous
 62
     7
370
    35
100
AcDbCircle
 10
1490.4793188632
 20
969.0018894695
 30
0.0
 40
2.0
100
AcDbArc
 50
0.0
 51
65.0
  0
LINE
  5
26A
330
1F
100
AcDbEntity
  8
0
  6
Continuous
 62
     7
370
    35
100
AcDbLine
 10
1491.3245553866
 20
970.8145050436
 30
0.0
 11
1475.7590823397
 21
978.0728043282
 31
0.0
  0
ARC
  5
26B
330
1F
100
AcDbEntity
  8
0
  6
Continuous
 62
     7
370
    35
100
AcDbCircle
 10
1476.6043188632
 20
979.8854199023
 30
0.0
 40
1.999999999999835
100
AcDbArc
 50
180.0
 51
245.0
  0
LINE
  5
26C
330
1F
100
AcDbEntity
  8
0
  6
Continuous
 62
     7
370
    35
100
AcDbLine
 10
1474.6043188632
 20
979.8854199023
 30
0.0
 11
1474.6043188632
 21
985.6112793807
 31
0.0
  0
LINE
  5
26D
330
1F
100
AcDbEntity
  8
0
  6
Continuous
 62
     7
370
    35
100
AcDbLine
 10
1493.4793188632
 20
952.7112793807
 30
0.0
 11
1493.4793188632
 21
962.7112793807
 31
0.0
  0
ARC
  5
26E
330
1F
100
AcDbEntity
  8
0
  6
Continuous
 62
     7
370
    35
100
AcDbCircle
 10
1499.9793188632
 20
952.7112793807
 30
0.0
 40
6.500000000000227
100
AcDbArc
 50
180.0
 51
0.0
  0
LINE
  5
26F
330
1F
100
AcDbEntity
  8
0
  6
Continuous
 62
     7
370
    35
100
AcDbLine
 10
1506.4793188632
 20
962.7112793807
 30
0.0
 11
1506.4793188632
 21
952.7112793807
 31
0.0
  0
LINE
  5
270
330
1F
100
AcDbEntity
  8
0
  6
Continuous
 62
     7
370
    35
100
AcDbLine
 10
1508.4793188632
 20
952.7112793807
 30
0.0
 11
1508.4793188632
 21
962.7112793807
 31
0.0
  0
ARC
  5
271
330
1F
100
AcDbEntity
  8
0
  6
Continuous
 62
     7
370
    35
100
AcDbCircle
 10
1514.9793188632
 20
952.7112793807
 30
0.0
 40
6.5
100
AcDbArc
 50
180.0
 51
0.0
  0
LINE
  5
272
330
1F
100
AcDbEntity
  8
0
  6
Continuous
 62
     7
370
    35
100
AcDbLine
 10
1521.4793188632
 20
962.7112793807
 30
0.0
 11
1521.4793188632
 21
952.7112793807
 31
0.0
  0
ARC
  5
273
330
1F
100
AcDbEntity
  8
0
  6
Continuous
 62
     7
370
    35
100
AcDbCircle
 10
1514.9793188632
 20
962.7112793807
 30
0.0
 40
6.5
100
AcDbArc
 50
0.0
 51
180.0
  0
CIRCLE
  5
274
330
1F
100
AcDbEntity
  8
0
  6
Continuous
 62
     7
370
    35
100
AcDbCircle
 10
1507.4793188632
 20
940.7112793807
 30
0.0
 40
4.25
  0
ARC
  5
275
330
1F
100
AcDbEntity
  8
0
  6
Continuous
 62
     7
370
    35
100
AcDbCircle
 10
1538.3543188632
 20
979.8854199023
 30
0.0
 40
2.00000000000013
100
AcDbArc
 50
295.0
 51
360.0
  0
ARC
  5
276
330
1F
100
AcDbEntity
  8
0
  6
Continuous
 62
     7
370
    35
100
AcDbCircle
 10
1499.9793188632
 20
962.7112793807
 30
0.0
 40
6.500000000000227
100
AcDbArc
 50
0.0
 51
180.0
  0
LINE
  5
277
330
1F
100
AcDbEntity
  8
0
  6
Continuous
 62
     7
370
    35
100
AcDbLine
 10
1542.5043188632
 20
998.6112793807
 30
0.0
 11
1458.0043188632
 21
998.6112793807
 31
0.0
  0
LINE
  5
278
330
1F
100
AcDbEntity
  8
0
  6
Continuous
 62
     7
370
    35
100
AcDbLine
 10
1542.5043188632
 20
998.6112793807
 30
0.0
 11
1542.5043188632
 21
997.6112793807
 31
0.0
  0
LINE
  5
279
330
1F
100
AcDbEntity
  8
0
  6
Continuous
 62
     7
370
    35
100
AcDbLine
 10
1458.0043188632
 20
997.6112793807
 30
0.0
 11
1458.0043188632
 21
998.6112793807
 31
0.0
  0
LINE
  5
27A
330
1F
100
AcDbEntity
  8
0
  6
Continuous
 62
     7
370
    35
100
AcDbLine
 10
1456.9793188632
 20
1029.1112793807
 30
0.0
 11
1457.9793188632
 21
1029.1112793807
 31
0.0
  0
LINE
  5
27B
330
1F
100
AcDbEntity
  8
0
  6
Continuous
 62
     7
370
    35
100
AcDbLine
 10
1457.9793188632
 20
1029.1112793807
 30
0.0
 11
1457.9793188632
 21
1019.1112793807
 31
0.0
  0
LINE
  5
27C
330
1F
100
AcDbEntity
  8
0
  6
Continuous
 62
     7
370
    35
100
AcDbLine
 10
1456.9793188632
 20
1019.1112793807
 30
0.0
 11
1456.9793188632
 21
1029.1112793807
 31
0.0
  0
LINE
  5
27D
330
1F
100
AcDbEntity
  8
0
  6
Continuous
 62
     7
370
    35
100
AcDbLine
 10
1457.9793188632
 20
1019.1112793807
 30
0.0
 11
1457.9793188632
 21
987.6112793807
 31
0.0
  0
LINE
  5
27E
330
1F
100
AcDbEntity
  8
0
  6
Continuous
 62
     7
370
    35
100
AcDbLine
 10
1456.9793188632
 20
1019.1112793807
 30
0.0
 11
1456.9793188632
 21
987.6112793807
 31
0.0
  0
LINE
  5
27F
330
1F
100
AcDbEntity
  8
0
  6
Continuous
 62
     7
370
    35
100
AcDbLine
 10
1562.9793188632
 20
985.6112793807
 30
0.0
 11
1458.9793188632
 21
985.6112793807
 31
0.0
  0
LINE
  5
280
330
1F
100
AcDbEntity
  8
0
  6
Continuous
 62
     7
370
    35
100
AcDbLine
 10
1562.9793188632
 20
986.6112793807
 30
0.0
 11
1458.9793188632
 21
986.6112793807
 31
0.0
  0
ARC
  5
281
330
1F
100
AcDbEntity
  8
0
  6
Continuous
 62
     7
370
    35
100
AcDbCircle
 10
1458.9793188632
 20
987.6112793807
 30
0.0
 40
2.0
100
AcDbArc
 50
180.0
 51
270.0
  0
ARC
  5
282
330
1F
100
AcDbEntity
  8
0
  6
Continuous
 62
     7
370
    35
100
AcDbCircle
 10
1458.9793188632
 20
987.6112793807
 30
0.0
 40
1.0
100
AcDbArc
 50
180.0
 51
270.0
  0
LINE
  5
283
330
1F
100
AcDbEntity
  8
0
  6
Continuous
 62
     7
370
    35
100
AcDbLine
 10
1572.9793188632
 20
986.6112793807
 30
0.0
 11
1572.9793188632
 21
985.6112793807
 31
0.0
  0
LINE
  5
284
330
1F
100
AcDbEntity
  8
0
  6
Continuous
 62
     7
370
    35
100
AcDbLine
 10
1572.9793188632
 20
985.6112793807
 30
0.0
 11
1562.9793188632
 21
985.6112793807
 31
0.0
  0
LINE
  5
285
330
1F
100
AcDbEntity
  8
0
  6
Continuous
 62
     7
370
    35
100
AcDbLine
 10
1562.9793188632
 20
986.6112793807
 30
0.0
 11
1572.9793188632
 21
986.6112793807
 31
0.0
  0
LINE
  5
286
330
1F
100
AcDbEntity
  8
0
  6
Continuous
 62
     8
370
    18
100
AcDbLine
 10
1457.9793188632
 20
999.6112793807
 30
0.0
 11
1458.0043188632
 21
999.6112793807
 31
0.0
  0
LINE
  5
287
330
1F
100
AcDbEntity
  8
0
  6
Continuous
 62
     8
370
    18
100
AcDbLine
 10
1474.5043188632
 20
984.27319787
 30
0.0
 11
1474.6043188632
 21
984.27319787
 31
0.0
  0
LINE
  5
288
330
1F
100
AcDbEntity
  8
0
  6
Continuous
 62
     8
370
    18
100
AcDbLine
 10
1540.5043188632
 20
984.27319787
 30
0.0
 11
1540.3543188632
 21
984.27319787
 31
0.0
  0
SPLINE
  5
289
330
1F
100
AcDbEntity
  8
0
  6
Continuous
 62
     8
370
    18
100
AcDbSpline
210
0.0
220
0.0
230
1.0
 70
     8
 71
     3
 72
    11
 73
     7
 74
     0
 42
0.000000001
 43
0.00000001
 40
0.0
 40
0.0
 40
0.0
 40
0.0
 40
0.2499912677933777
 40
0.4999867562316059
 40
0.749992678491824
 40
1.0
 40
1.0
 40
1.0
 40
1.0
 10
1539.044485995858
 20
968.4107315974492
 30
0.0
 10
1539.03672836683
 20
968.4162294523766
 30
0.0
 10
1539.021212977799
 20
968.4272252550527
 30
0.0
 10
1538.990519794587
 20
968.4485822447848
 30
0.0
 10
1538.953354512954
 20
968.4754551643653
 30
0.0
 10
1538.926045113759
 20
968.492405095105
 30
0.0
 10
1538.91239037595
 20
968.5008800841914
 30
0.0
  0
SPLINE
  5
28A
330
1F
100
AcDbEntity
  8
0
  6
Continuous
 62
     8
370
    18
100
AcDbSpline
210
0.0
220
0.0
230
1.0
 70
     8
 71
     3
 72
    10
 73
     6
 74
     0
 42
0.000000001
 43
0.00000001
 40
0.0
 40
0.0
 40
0.0
 40
0.0
 40
0.4993573099105828
 40
0.9998128115878191
 40
0.9999999999999999
 40
0.9999999999999999
 40
0.9999999999999999
 40
0.9999999999999999
 10
1538.91239037595
 20
968.5008800841914
 30
0.0
 10
1538.911649540132
 20
968.5008034640912
 30
0.0
 10
1538.910166239243
 20
968.5006500553873
 30
0.0
 10
1538.912074143863
 20
968.4950353138682
 30
0.0
 10
1538.913614384348
 20
968.4912703289999
 30
0.0
 10
1538.913614960238
 20
968.4912689212864
 30
0.0
  0
SPLINE
  5
28B
330
1F
100
AcDbEntity
  8
0
  6
Continuous
 62
     8
370
    18
100
AcDbSpline
210
0.0
220
0.0
230
1.0
 70
     8
 71
     3
 72
    10
 73
     6
 74
     0
 42
0.000000001
 43
0.00000001
 40
0.0
 40
0.0
 40
0.0
 40
0.0
 40
0.4999712442950947
 40
0.7499826264318606
 40
1.0
 40
1.0
 40
1.0
 40
1.0
 10
1541.782470716032
 20
963.4552240461146
 30
0.0
 10
1542.024807239375
 20
963.0057820893686
 30
0.0
 10
1542.388324510281
 20
962.3315959976779
 30
0.0
 10
1542.863557984937
 20
961.4276199348305
 30
0.0
 10
1543.098688594729
 20
960.9743047400015
 30
0.0
 10
1543.216255308313
 20
960.7476444267363
 30
0.0
  0
SPLINE
  5
28C
330
1F
100
AcDbEntity
  8
0
  6
Continuous
 62
     8
370
    18
100
AcDbSpline
210
0.0
220
0.0
230
1.0
 70
     8
 71
     3
 72
    11
 73
     7
 74
     0
 42
0.000000001
 43
0.00000001
 40
0.0
 40
0.0
 40
0.0
 40
0.0
 40
0.2471593440128845
 40
0.4953474341907583
 40
0.7469783905689326
 40
1.0
 40
1.0
 40
1.0
 40
1.0
 10
1544.824100706886
 20
941.2090036659823
 30
0.0
 10
1544.671365233593
 20
940.7715896999517
 30
0.0
 10
1544.365258559343
 20
939.8949411288945
 30
0.0
 10
1543.804713691988
 20
938.612878921082
 30
0.0
 10
1543.17380318067
 20
937.3534031680575
 30
0.0
 10
1542.689724006704
 20
936.5506930675487
 30
0.0
 10
1542.447017439876
 20
936.148232017516
 30
0.0
  0
SPLINE
  5
28D
330
1F
100
AcDbEntity
  8
0
  6
Continuous
 62
     8
370
    18
100
AcDbSpline
210
0.0
220
0.0
230
1.0
 70
     8
 71
     3
 72
    15
 73
    11
 74
     0
 42
0.000000001
 43
0.00000001
 40
0.0
 40
0.0
 40
0.0
 40
0.0
 40
0.0725909092871169
 40
0.2113393667722923
 40
0.3503145350511133
 40
0.489034685773672
 40
0.627798045095144
 40
0.7714261096246109
 40
0.9150674468033608
 40
1.0
 40
1.0
 40
1.0
 40
1.0
 10
1542.447017439876
 20
936.148232017516
 30
0.0
 10
1542.429475510023
 20
936.1536543438642
 30
0.0
 10
1542.378404372003
 20
936.1694407698525
 30
0.0
 10
1541.822834327548
 20
936.0458452978346
 30
0.0
 10
1540.117810077308
 20
935.780037863505
 30
0.0
 10
1537.599781518254
 20
935.694836531331
 30
0.0
 10
1534.298168860063
 20
935.5935974162629
 30
0.0
 10
1530.251702778202
 20
935.5093987747606
 30
0.0
 10
1526.28669061897
 20
935.4426622403683
 30
0.0
 10
1523.510780291851
 20
935.4163046159081
 30
0.0
 10
1522.479318863164
 20
935.4065107573973
 30
0.0
  0
LINE
  5
28E
330
1F
100
AcDbEntity
  8
0
  6
Continuous
 62
     8
370
    18
100
AcDbLine
 10
1473.2261670103
 20
963.4552240461
 30
0.0
 11
1471.792382418
 21
960.7476444267
 31
0.0
  0
SPLINE
  5
28F
330
1F
100
AcDbEntity
  8
0
  6
Continuous
 62
     8
370
    18
100
AcDbSpline
210
0.0
220
0.0
230
1.0
 70
     8
 71
     3
 72
     9
 73
     5
 74
     0
 42
0.000000001
 43
0.00000001
 40
0.0
 40
0.0
 40
0.0
 40
0.0
 40
0.9998127596651308
 40
0.9999999999999999
 40
0.9999999999999999
 40
0.9999999999999999
 40
0.9999999999999999
 10
1476.096247350379
 20
968.5008800841913
 30
0.0
 10
1476.097173148239
 20
968.4998344967215
 30
0.0
 10
1476.098099119478
 20
968.4987887134389
 30
0.0
 10
1476.095023341999
 20
968.491270329031
 30
0.0
 10
1476.09502276609
 20
968.4912689212862
 30
0.0
  0
SPLINE
  5
290
330
1F
100
AcDbEntity
  8
0
  6
Continuous
 62
     8
370
    18
100
AcDbSpline
210
0.0
220
0.0
230
1.0
 70
     8
 71
     3
 72
     9
 73
     5
 74
     0
 42
0.000000001
 43
0.00000001
 40
0.0
 40
0.0
 40
0.0
 40
0.0
 40
0.4999863548673912
 40
1.0
 40
1.0
 40
1.0
 40
1.0
 10
1475.964151730469
 20
968.4107315974488
 30
0.0
 10
1475.980666309288
 20
968.4226042605059
 30
0.0
 10
1476.013696368325
 20
968.4463502346539
 30
0.0
 10
1476.068729855735
 20
968.4827031369853
 30
0.0
 10
1476.096247350379
 20
968.5008800841913
 30
0.0
  0
SPLINE
  5
291
330
1F
100
AcDbEntity
  8
0
  6
Continuous
 62
     8
370
    18
100
AcDbSpline
210
0.0
220
0.0
230
1.0
 70
     8
 71
     3
 72
    15
 73
    11
 74
     0
 42
0.000000001
 43
0.00000001
 40
0.0
 40
0.0
 40
0.0
 40
0.0
 40
0.0726922106735385
 40
0.2116342931077091
 40
0.3508034027128514
 40
0.4897171388820158
 40
0.6286741439481532
 40
0.7725026429701756
 40
0.9163444331636043
 40
1.0
 40
1.0
 40
1.0
 40
1.0
 10
1472.561620286452
 20
936.1482320175159
 30
0.0
 10
1472.579162180244
 20
936.1536543423173
 30
0.0
 10
1472.630233213275
 20
936.1694407638015
 30
0.0
 10
1473.185804603688
 20
936.0458453495232
 30
0.0
 10
1474.890823220392
 20
935.780037673523
 30
0.0
 10
1477.40887268403
 20
935.6948372381256
 30
0.0
 10
1480.710406446117
 20
935.5935947385284
 30
0.0
 10
1484.757177019883
 20
935.5094091592903
 30
0.0
 10
1488.706358815736
 20
935.4428802426387
 30
0.0
 10
1491.464933050886
 20
935.4166656423313
 30
0.0
 10
1492.479318863164
 20
935.4070259819998
 30
0.0
  0
SPLINE
  5
292
330
1F
100
AcDbEntity
  8
0
  6
Continuous
 62
     8
370
    18
100
AcDbSpline
210
0.0
220
0.0
230
1.0
 70
     8
 71
     3
 72
     9
 73
     5
 74
     0
 42
0.000000001
 43
0.00000001
 40
0.0
 40
0.0
 40
0.0
 40
0.0
 40
0.4953960175050964
 40
1.0
 40
1.0
 40
1.0
 40
1.0
 10
1470.184537019442
 20
941.209003665982
 30
0.0
 10
1470.502527980253
 20
940.3346523242853
 30
0.0
 10
1471.144420425035
 20
938.5696980032958
 30
0.0
 10
1472.086329311297
 20
936.9603270233222
 30
0.0
 10
1472.561620286452
 20
936.1482320175159
 30
0.0
  0
SPLINE
  5
293
330
1F
100
AcDbEntity
  8
0
  6
Continuous
 62
     8
370
    18
100
AcDbSpline
210
0.0
220
0.0
230
1.0
 70
     8
 71
     3
 72
    13
 73
     9
 74
     0
 42
0.000000001
 43
0.00000001
 40
0.0
 40
0.0
 40
0.0
 40
0.0
 40
0.3455606136556955
 40
0.7377948233629087
 40
0.8482878985160521
 40
0.9091433588593544
 40
0.9540191324658088
 40
1.0
 40
1.0
 40
1.0
 40
1.0
 10
1472.561620286452
 20
936.1482320175159
 30
0.0
 10
1472.900062895656
 20
935.6470606714229
 30
0.0
 10
1473.62266030754
 20
934.5770266161715
 30
0.0
 10
1474.657815391073
 20
933.4899264697609
 30
0.0
 10
1475.287720122035
 20
932.9097447219949
 30
0.0
 10
1475.465153934092
 20
932.7504288462704
 30
0.0
 10
1475.535352893181
 20
932.6856272338923
 30
0.0
 10
1475.531381682965
 20
932.6855700712522
 30
0.0
 10
1475.529371926842
 20
932.6855411422962
 30
0.0
  0
SPLINE
  5
294
330
1F
100
AcDbEntity
  8
0
  6
Continuous
 62
     8
370
    18
100
AcDbSpline
210
0.0
220
0.0
230
1.0
 70
     8
 71
     3
 72
     9
 73
     5
 74
     0
 42
0.000000001
 43
0.00000001
 40
0.0
 40
0.0
 40
0.0
 40
0.0
 40
0.4998468996431858
 40
1.0
 40
1.0
 40
1.0
 40
1.0
 10
1475.529371926842
 20
932.6855411422962
 30
0.0
 10
1475.423798478466
 20
932.7491330890206
 30
0.0
 10
1475.212586908581
 20
932.8763559381969
 30
0.0
 10
1475.092008070829
 20
932.9539838821217
 30
0.0
 10
1475.031700191289
 20
932.9928097389501
 30
0.0
  0
SPLINE
  5
295
330
1F
100
AcDbEntity
  8
0
  6
Continuous
 62
     8
370
    18
100
AcDbSpline
210
0.0
220
0.0
230
1.0
 70
     8
 71
     3
 72
    13
 73
     9
 74
     0
 42
0.000000001
 43
0.00000001
 40
0.0
 40
0.0
 40
0.0
 40
0.0
 40
0.3455606136556849
 40
0.7377948233629062
 40
0.8482878985160515
 40
0.9091433588593542
 40
0.9540191324658097
 40
1.0
 40
1.0
 40
1.0
 40
1.0
 10
1542.447017439876
 20
936.148232017516
 30
0.0
 10
1542.108574830671
 20
935.647060671423
 30
0.0
 10
1541.385977418787
 20
934.5770266161716
 30
0.0
 10
1540.350822335255
 20
933.489926469761
 30
0.0
 10
1539.720917604292
 20
932.909744721995
 30
0.0
 10
1539.543483792235
 20
932.7504288462706
 30
0.0
 10
1539.473284833148
 20
932.6856272338925
 30
0.0
 10
1539.477256043363
 20
932.6855700712523
 30
0.0
 10
1539.479265799486
 20
932.685541142296
 30
0.0
  0
SPLINE
  5
296
330
1F
100
AcDbEntity
  8
0
  6
Continuous
 62
     8
370
    18
100
AcDbSpline
210
0.0
220
0.0
230
1.0
 70
     8
 71
     3
 72
    11
 73
     7
 74
     0
 42
0.000000001
 43
0.00000001
 40
0.0
 40
0.0
 40
0.0
 40
0.0
 40
0.2499068565621725
 40
0.4998445626142473
 40
0.7498974475611091
 40
1.0
 40
1.0
 40
1.0
 40
1.0
 10
1539.479265799486
 20
932.685541142296
 30
0.0
 10
1539.533097532884
 20
932.717648974433
 30
0.0
 10
1539.640767644881
 20
932.7818686022246
 30
0.0
 10
1539.776648974128
 20
932.8657422620654
 30
0.0
 10
1539.892836244578
 20
932.9388100842257
 30
0.0
 10
1539.948901915702
 20
932.9748086624404
 30
0.0
 10
1539.97693753504
 20
932.9928097389513
 30
0.0
  0
SPLINE
  5
297
330
1F
100
AcDbEntity
  8
0
  6
Continuous
 62
     8
370
    18
100
AcDbSpline
210
0.0
220
0.0
230
1.0
 70
     8
 71
     3
 72
     9
 73
     5
 74
     0
 42
0.000000001
 43
0.00000001
 40
0.0
 40
0.0
 40
0.0
 40
0.0
 40
0.7340356503341486
 40
1.0
 40
1.0
 40
1.0
 40
1.0
 10
1539.97693753504
 20
932.9928097389513
 30
0.0
 10
1539.982489830741
 20
932.9968245842012
 30
0.0
 10
1539.990053898914
 20
933.0022941349625
 30
0.0
 10
1540.037136665543
 20
933.0444162846226
 30
0.0
 10
1540.04965900295
 20
933.0556192747634
 30
0.0
  0
SPLINE
  5
298
330
1F
100
AcDbEntity
  8
0
  6
Continuous
 62
     8
370
    18
100
AcDbSpline
210
0.0
220
0.0
230
1.0
 70
     8
 71
     3
 72
    12
 73
     8
 74
     0
 42
0.000000001
 43
0.00000001
 40
0.0
 40
0.0
 40
0.0
 40
0.0
 40
0.1139159269059948
 40
0.3258009088085498
 40
0.5443041886655102
 40
0.8274327407183931
 40
1.0
 40
1.0
 40
1.0
 40
1.0
 10
1545.587250702903
 20
940.9722176619348
 30
0.0
 10
1545.81849469235
 20
941.725689145685
 30
0.0
 10
1546.479855258555
 20
943.8806265704552
 30
0.0
 10
1547.002887465235
 20
947.6355335486511
 30
0.0
 10
1546.851751348634
 20
952.5814110628037
 30
0.0
 10
1545.832434710542
 20
957.189906962291
 30
0.0
 10
1544.490846534273
 20
960.0458687478224
 30
0.0
 10
1543.982801059847
 20
961.1273917411954
 30
0.0
  0
ARC
  5
299
330
1F
100
AcDbEntity
  8
0
  6
Continuous
 62
     8
370
    18
100
AcDbCircle
 10
1540.2048840259
 20
924.9732976274
 30
0.0
 40
16.88002705324173
100
AcDbArc
 50
71.4059989949
 51
74.1184304799
  0
ARC
  5
29A
330
1F
100
AcDbEntity
  8
0
  6
Continuous
 62
     8
370
    18
100
AcDbCircle
 10
1534.5007063706
 20
979.3041080228
 30
0.0
 40
20.50129592190886
100
AcDbArc
 50
295.1583766345
 51
297.5493192595
  0
ARC
  5
29B
330
1F
100
AcDbEntity
  8
0
  6
Continuous
 62
     8
370
    18
100
AcDbCircle
 10
1474.8037537004
 20
924.9732976275
 30
0.0
 40
16.88002705310193
100
AcDbArc
 50
105.88156952
 51
108.5940010051
  0
SPLINE
  5
29C
330
1F
100
AcDbEntity
  8
0
  6
Continuous
 62
     8
370
    18
100
AcDbSpline
210
0.0
220
0.0
230
1.0
 70
     8
 71
     3
 72
    12
 73
     8
 74
     0
 42
0.000000001
 43
0.00000001
 40
0.0
 40
0.0
 40
0.0
 40
0.0
 40
0.1139185701341834
 40
0.3290869588708599
 40
0.5442936150078428
 40
0.8274287365843251
 40
1.0
 40
1.0
 40
1.0
 40
1.0
 10
1469.421387023425
 20
940.9722176619348
 30
0.0
 10
1469.190013415486
 20
941.7256715293925
 30
0.0
 10
1468.521623381184
 20
943.902242404528
 30
0.0
 10
1468.009216297708
 20
947.659191497815
 30
0.0
 10
1468.160199267559
 20
952.6038041773509
 30
0.0
 10
1469.176465665265
 20
957.1899343612553
 30
0.0
 10
1470.517863334925
 20
960.0458762735934
 30
0.0
 10
1471.025836666481
 20
961.1273917411954
 30
0.0
  0
ARC
  5
29D
330
1F
100
AcDbEntity
  8
0
  6
Continuous
 62
     8
370
    18
100
AcDbCircle
 10
1480.5079313559
 20
979.3041080232
 30
0.0
 40
20.50129592233578
100
AcDbArc
 50
242.4506807405
 51
244.8416233655
  0
SPLINE
  5
29E
330
1F
100
AcDbEntity
  8
0
  6
Continuous
 62
     8
370
    18
100
AcDbSpline
210
0.0
220
0.0
230
1.0
 70
     8
 71
     3
 72
    11
 73
     7
 74
     0
 42
0.000000001
 43
0.00000001
 40
0.0
 40
0.0
 40
0.0
 40
0.0
 40
0.3598580230790465
 40
0.724606206900612
 40
0.8621677510649547
 40
1.0
 40
1.0
 40
1.0
 40
1.0
 10
1542.992307815051
 20
936.0713410797258
 30
0.0
 10
1543.377610254172
 20
936.6176374283566
 30
0.0
 10
1544.153451060866
 20
937.7176538227061
 30
0.0
 10
1544.87434629432
 20
939.1525851309299
 30
0.0
 10
1545.33230736626
 20
940.2488346679036
 30
0.0
 10
1545.502213919482
 20
940.7309320342968
 30
0.0
 10
1545.587250702903
 20
940.9722176619348
 30
0.0
  0
ARC
  5
29F
330
1F
100
AcDbEntity
  8
0
  6
Continuous
 62
     8
370
    18
100
AcDbCircle
 10
1542.6303412103
 20
935.4763424723
 30
0.0
 40
0.6964504044251822
100
AcDbArc
 50
58.685815836
 51
105.2615608993
  0
ARC
  5
2A0
330
1F
100
AcDbEntity
  8
0
  6
Continuous
 62
     8
370
    18
100
AcDbCircle
 10
1472.378296516
 20
935.4763424723
 30
0.0
 40
0.6964504044248359
100
AcDbArc
 50
74.7384391007
 51
121.3141841641
  0
SPLINE
  5
2A1
330
1F
100
AcDbEntity
  8
0
  6
Continuous
 62
     8
370
    18
100
AcDbSpline
210
0.0
220
0.0
230
1.0
 70
     8
 71
     3
 72
    11
 73
     7
 74
     0
 42
0.000000001
 43
0.00000001
 40
0.0
 40
0.0
 40
0.0
 40
0.0
 40
0.3598580230790378
 40
0.7246062069006073
 40
0.8621677510649521
 40
1.0
 40
1.0
 40
1.0
 40
1.0
 10
1472.016329911276
 20
936.0713410797257
 30
0.0
 10
1471.631027472156
 20
936.6176374283566
 30
0.0
 10
1470.855186665462
 20
937.7176538227059
 30
0.0
 10
1470.134291432008
 20
939.1525851309298
 30
0.0
 10
1469.676330360068
 20
940.2488346679035
 30
0.0
 10
1469.506423806846
 20
940.7309320342965
 30
0.0
 10
1469.421387023425
 20
940.9722176619348
 30
0.0
  0
ARC
  5
2A2
330
1F
100
AcDbEntity
  8
0
  6
Continuous
 62
     8
370
    18
100
AcDbCircle
 10
1541.4533068471
 20
970.0910326075
 30
0.0
 40
2.997472528737871
100
AcDbArc
 50
212.0390940145
 51
236.4309513429
  0
SPLINE
  5
2A3
330
1F
100
AcDbEntity
  8
0
  6
Continuous
 62
     8
370
    18
100
AcDbSpline
210
0.0
220
0.0
230
1.0
 70
     8
 71
     3
 72
    14
 73
    10
 74
     0
 42
0.000000001
 43
0.00000001
 40
0.0
 40
0.0
 40
0.0
 40
0.0
 40
0.6113158653943737
 40
0.7934072053583404
 40
0.8854170307688747
 40
0.9194198313361065
 40
0.9434501870529951
 40
0.9749897870426378
 40
1.0
 40
1.0
 40
1.0
 40
1.0
 10
1542.521608005236
 20
963.8455640747899
 30
0.0
 10
1541.96515105495
 20
964.7278873953846
 30
0.0
 10
1541.242943471569
 20
965.8730264628354
 30
0.0
 10
1540.258266221711
 20
967.0086825756158
 30
0.0
 10
1539.933225981739
 20
967.3864296374908
 30
0.0
 10
1539.820172158104
 20
967.5274705314997
 30
0.0
 10
1539.77980221581
 20
967.5846757674274
 30
0.0
 10
1539.771690128015
 20
967.6070135728937
 30
0.0
 10
1539.78846210425
 20
967.5976289040766
 30
0.0
 10
1539.795879824584
 20
967.5934783586829
 30
0.0
  0
ARC
  5
2A4
330
1F
100
AcDbEntity
  8
0
  6
Continuous
 62
     8
370
    18
100
AcDbCircle
 10
1529.8934986448
 20
986.8628342118
 30
0.0
 40
26.25383534990128
100
AcDbArc
 50
296.9264954205
 51
298.7507702117
  0
ARC
  5
2A5
330
1F
100
AcDbEntity
  8
0
  6
Continuous
 62
     8
370
    18
100
AcDbCircle
 10
1485.1151390811
 20
986.862834211
 30
0.0
 40
26.25383534901521
100
AcDbArc
 50
241.2492297883
 51
243.0735045795
  0
SPLINE
  5
2A6
330
1F
100
AcDbEntity
  8
0
  6
Continuous
 62
     8
370
    18
100
AcDbSpline
210
0.0
220
0.0
230
1.0
 70
     8
 71
     3
 72
    14
 73
    10
 74
     0
 42
0.000000001
 43
0.00000001
 40
0.0
 40
0.0
 40
0.0
 40
0.0
 40
0.6113158653943737
 40
0.7934072053583404
 40
0.8854170307688746
 40
0.9194198313361064
 40
0.943450187052995
 40
0.9749897870426377
 40
1.0
 40
1.0
 40
1.0
 40
1.0
 10
1472.487029721092
 20
963.8455640747898
 30
0.0
 10
1473.043486671379
 20
964.7278873953845
 30
0.0
 10
1473.76569425476
 20
965.8730264628351
 30
0.0
 10
1474.750371504617
 20
967.0086825756157
 30
0.0
 10
1475.075411744589
 20
967.3864296374906
 30
0.0
 10
1475.188465568223
 20
967.5274705314994
 30
0.0
 10
1475.228835510518
 20
967.5846757674273
 30
0.0
 10
1475.236947598313
 20
967.6070135728936
 30
0.0
 10
1475.220175622078
 20
967.5976289040765
 30
0.0
 10
1475.212757901744
 20
967.5934783586825
 30
0.0
  0
ARC
  5
2A7
330
1F
100
AcDbEntity
  8
0
  6
Continuous
 62
     8
370
    18
100
AcDbCircle
 10
1473.5553308793
 20
970.0910326075
 30
0.0
 40
2.997472528740615
100
AcDbArc
 50
303.5690486571
 51
327.9609059855
  0
LINE
  5
2A8
330
1F
100
AcDbEntity
  8
0
  6
Continuous
 62
     8
370
    18
100
AcDbLine
 10
1543.9828010598
 20
961.1273917412
 30
0.0
 11
1542.5216080052
 21
963.8455640748
 31
0.0
  0
LINE
  5
2A9
330
1F
100
AcDbEntity
  8
0
  6
Continuous
 62
     8
370
    18
100
AcDbLine
 10
1471.0258366665
 20
961.1273917412
 30
0.0
 11
1472.4870297211
 21
963.8455640748
 31
0.0
  0
ARC
  5
2AA
330
1F
100
AcDbEntity
  8
0
  6
Continuous
 62
     8
370
    18
100
AcDbCircle
 10
1473.6175024155
 20
930.4214701375
 30
0.0
 40
2.963319514208716
100
AcDbArc
 50
49.8209532533
 51
58.1297763967
  0
SPLINE
  5
2AB
330
1F
100
AcDbEntity
  8
0
  6
Continuous
 62
     8
370
    18
100
AcDbSpline
210
0.0
220
0.0
230
1.0
 70
     8
 71
     3
 72
    16
 73
    12
 74
     0
 42
0.000000001
 43
0.00000001
 40
0.0
 40
0.0
 40
0.0
 40
0.0
 40
0.0117733620155406
 40
0.0227113902881391
 40
0.0341085178796156
 40
0.044872447014466
 40
0.0843977891274212
 40
0.1801725761900122
 40
0.6004756555876863
 40
0.7301077904365099
 40
1.0
 40
1.0
 40
1.0
 40
1.0
 10
1475.182126395141
 20
932.938057975323
 30
0.0
 10
1475.187699758003
 20
932.9347046079
 30
0.0
 10
1475.198451047143
 20
932.9282357983773
 30
0.0
 10
1475.1987774524
 20
932.9302993365632
 30
0.0
 10
1475.182921828024
 20
932.9439395214354
 30
0.0
 10
1475.131804134249
 20
932.9845174643349
 30
0.0
 10
1474.961296191789
 20
933.1151839543656
 30
0.0
 10
1474.287047255809
 20
933.642572832694
 30
0.0
 10
1473.536891131381
 20
934.3236424290494
 30
0.0
 10
1472.664051222243
 20
935.2542136339797
 30
0.0
 10
1472.277475135069
 20
935.7418954893568
 30
0.0
 10
1472.016329911276
 20
936.0713410797257
 30
0.0
  0
SPLINE
  5
2AC
330
1F
100
AcDbEntity
  8
0
  6
Continuous
 62
     8
370
    18
100
AcDbSpline
210
0.0
220
0.0
230
1.0
 70
     8
 71
     3
 72
    16
 73
    12
 74
     0
 42
0.000000001
 43
0.00000001
 40
0.0
 40
0.0
 40
0.0
 40
0.0
 40
0.0117733620155408
 40
0.0227113902881394
 40
0.0341085178796155
 40
0.0448724470144665
 40
0.0843977891274209
 40
0.1801725761900129
 40
0.6004756555876873
 40
0.7301077904365098
 40
1.0
 40
1.0
 40
1.0
 40
1.0
 10
1539.826511331187
 20
932.9380579753231
 30
0.0
 10
1539.820937968325
 20
932.9347046079002
 30
0.0
 10
1539.810186679185
 20
932.9282357983773
 30
0.0
 10
1539.809860273929
 20
932.9302993365633
 30
0.0
 10
1539.825715898304
 20
932.9439395214354
 30
0.0
 10
1539.876833592078
 20
932.984517464335
 30
0.0
 10
1540.047341534539
 20
933.1151839543656
 30
0.0
 10
1540.721590470519
 20
933.6425728326941
 30
0.0
 10
1541.471746594947
 20
934.3236424290495
 30
0.0
 10
1542.344586504085
 20
935.2542136339797
 30
0.0
 10
1542.731162591259
 20
935.7418954893568
 30
0.0
 10
1542.992307815051
 20
936.0713410797258
 30
0.0
  0
ARC
  5
2AD
330
1F
100
AcDbEntity
  8
0
  6
Continuous
 62
     8
370
    18
100
AcDbCircle
 10
1541.3911353108
 20
930.4214701375
 30
0.0
 40
2.963319514135226
100
AcDbArc
 50
121.8702236032
 51
130.1790467468
  0
ARC
  5
2AE
330
1F
100
AcDbEntity
  8
0
  6
Continuous
 62
     8
370
    18
100
AcDbCircle
 10
1537.1888236678
 20
974.1230047075
 30
0.0
 40
14.66438151349225
100
AcDbArc
 50
297.6001215934
 51
299.8288543736
  0
ARC
  5
2AF
330
1F
100
AcDbEntity
  8
0
  6
Continuous
 62
     8
370
    18
100
AcDbCircle
 10
1541.5755571471
 20
929.0985512445
 30
0.0
 40
12.53306185168913
100
AcDbArc
 50
68.8944075233
 51
71.3317007916
  0
ARC
  5
2B0
330
1F
100
AcDbEntity
  8
0
  6
Continuous
 62
     8
370
    18
100
AcDbCircle
 10
1477.8198140583
 20
974.123004707
 30
0.0
 40
14.66438151297554
100
AcDbArc
 50
240.1711456264
 51
242.3998784067
  0
ARC
  5
2B1
330
1F
100
AcDbEntity
  8
0
  6
Continuous
 62
     8
370
    18
100
AcDbCircle
 10
1473.4330805791
 20
929.0985512449
 30
0.0
 40
12.53306185123555
100
AcDbArc
 50
108.6682992084
 51
111.1055924768
  0
ARC
  5
2B2
330
1F
100
AcDbEntity
  8
0
  6
Continuous
 62
     8
370
    18
100
AcDbCircle
 10
1535.1978226534
 20
977.1721596808
 30
0.0
 40
15.20644542046741
100
AcDbArc
 50
298.7915058483
 51
300.8920630849
  0
ARC
  5
2B3
330
1F
100
AcDbEntity
  8
0
  6
Continuous
 62
     8
370
    18
100
AcDbCircle
 10
1479.8108150736
 20
977.1721596819
 30
0.0
 40
15.20644542178716
100
AcDbArc
 50
239.1079369153
 51
241.2084941516
  0
ARC
  5
2B4
330
1F
100
AcDbEntity
  8
0
  6
Continuous
 62
     8
370
    18
100
AcDbCircle
 10
1541.9747614169
 20
930.7658838213
 30
0.0
 40
2.991738508908615
100
AcDbArc
 50
124.0281034348
 51
131.8959735504
  0
ARC
  5
2B5
330
1F
100
AcDbEntity
  8
0
  6
Continuous
 62
     8
370
    18
100
AcDbCircle
 10
1473.0338763095
 20
930.7658838214
 30
0.0
 40
2.991738508810072
100
AcDbArc
 50
48.1040264495
 51
55.9718965653
  0
ARC
  5
2B6
330
1F
100
AcDbEntity
  8
0
  6
Continuous
 62
     8
370
    18
100
AcDbCircle
 10
1541.5854079175
 20
970.0045763764
 30
0.0
 40
2.999437512501545
100
AcDbArc
 50
212.0988262038
 51
235.7353315129
  0
ARC
  5
2B7
330
1F
100
AcDbEntity
  8
0
  6
Continuous
 62
     8
370
    18
100
AcDbCircle
 10
1473.4232103647
 20
970.0045917477
 30
0.0
 40
2.999462152268729
100
AcDbArc
 50
312.8940341447
 51
327.9011224251
  0
ARC
  5
2B8
330
1F
100
AcDbEntity
  8
0
  6
Continuous
 62
     8
370
    18
100
AcDbCircle
 10
1541.0882841985
 20
945.1839575581
 30
0.0
 40
8.932560827389254
100
AcDbArc
 50
287.5397504291
 51
356.514198663
  0
SPLINE
  5
2B9
330
1F
100
AcDbEntity
  8
0
  6
Continuous
 62
     8
370
    18
100
AcDbSpline
210
0.0
220
0.0
230
1.0
 70
     8
 71
     3
 72
    11
 73
     7
 74
     0
 42
0.000000001
 43
0.00000001
 40
0.0
 40
0.0
 40
0.0
 40
0.0
 40
0.2352104509735851
 40
0.4712568957191273
 40
0.7971477029157381
 40
1.0
 40
1.0
 40
1.0
 40
1.0
 10
1539.004318863164
 20
931.3800856663198
 30
0.0
 10
1539.367018008825
 20
931.6608519273682
 30
0.0
 10
1540.093705419002
 20
932.2233823593992
 30
0.0
 10
1541.274225214562
 20
933.3420120920362
 30
0.0
 10
1542.372549168174
 20
934.5333570164453
 30
0.0
 10
1543.036864486151
 20
935.555099700742
 30
0.0
 10
1543.291729064334
 20
935.9470912914796
 30
0.0
  0
SPLINE
  5
2BA
330
1F
100
AcDbEntity
  8
0
  6
Continuous
 62
     8
370
    18
100
AcDbSpline
210
0.0
220
0.0
230
1.0
 70
     8
 71
     3
 72
    10
 73
     6
 74
     0
 42
0.000000001
 43
0.00000001
 40
0.0
 40
0.0
 40
0.0
 40
0.0
 40
0.4338511233655696
 40
0.8744573306291079
 40
1.0
 40
1.0
 40
1.0
 40
1.0
 10
1539.004318863164
 20
931.3800856663198
 30
0.0
 10
1537.969696440342
 20
930.9267250827702
 30
0.0
 10
1535.884342471334
 20
930.0129450684927
 30
0.0
 10
1533.385291787344
 20
929.4122432274213
 30
0.0
 10
1531.956330949099
 20
929.329619937939
 30
0.0
 10
1531.639461013533
 20
929.3112983466724
 30
0.0
  0
LWPOLYLINE
  5
2BB
330
1F
100
AcDbEntity
  8
0
  6
Continuous
 62
     8
370
    18
100
AcDbPolyline
 90
        9
 70
   128
 43
0.0
 10
1550.0043188632
 20
941.1599622092
 10
1549.7929569476
 20
939.2520029452
 10
1549.1669937208
 20
937.4173654857
 10
1548.1504845985
 20
935.7265539194
 10
1546.7824934562
 20
934.2445451866
 10
1545.1155914264
 20
933.0282920517
 10
1543.2138366192
 20
932.1245344407
 10
1541.1503124053
 20
931.5680032518
 10
1539.0043188632
 20
931.3800856663
  0
LINE
  5
2BC
330
1F
100
AcDbEntity
  8
0
  6
Continuous
 62
     8
370
    18
100
AcDbLine
 10
1539.0043188632
 20
929.1616793807
 30
0.0
 11
1539.0043188632
 21
931.3800856663
 31
0.0
  0
LINE
  5
2BD
330
1F
100
AcDbEntity
  8
0
  6
Continuous
 62
     8
370
    18
100
AcDbLine
 10
1542.5043188632
 20
997.6112793807
 30
0.0
 11
1458.0043188632
 21
997.6112793807
 31
0.0
  0
LINE
  5
2BE
330
1F
100
AcDbEntity
  8
0
  6
Continuous
 62
     8
370
    18
100
AcDbLine
 10
1457.9793188632
 20
1019.1112793807
 30
0.0
 11
1456.9793188632
 21
1019.1112793807
 31
0.0
  0
LINE
  5
2BF
330
1F
100
AcDbEntity
  8
0
  6
Continuous
 62
     8
370
    18
100
AcDbLine
 10
1457.9793188632
 20
987.6112793807
 30
0.0
 11
1456.9793188632
 21
987.6112793807
 31
0.0
  0
LINE
  5
2C0
330
1F
100
AcDbEntity
  8
0
  6
Continuous
 62
     8
370
    18
100
AcDbLine
 10
1562.9793188632
 20
985.6112793807
 30
0.0
 11
1562.9793188632
 21
986.6112793807
 31
0.0
  0
LINE
  5
2C1
330
1F
100
AcDbEntity
  8
0
  6
Continuous
 62
     8
370
    18
100
AcDbLine
 10
1458.9793188632
 20
986.6112793807
 30
0.0
 11
1458.9793188632
 21
985.6112793807
 31
0.0
  0
LINE
  5
2C2
330
1F
100
AcDbEntity
  8
0
  6
Continuous
 62
     7
370
    35
100
AcDbLine
 10
642.0546682673
 20
675.1611838457
 30
0.0
 11
1222.0546682673
 21
675.1611838457
 31
0.0
  0
LINE
  5
2C3
330
1F
100
AcDbEntity
  8
0
  6
Continuous
 62
     7
370
    35
100
AcDbLine
 10
642.0546682673
 20
676.1611838457
 30
0.0
 11
642.0546682673
 21
675.1611838457
 31
0.0
  0
LINE
  5
2C4
330
1F
100
AcDbEntity
  8
0
  6
Continuous
 62
     7
370
    35
100
AcDbLine
 10
1222.0546682673
 20
676.1611838457
 30
0.0
 11
1222.0546682673
 21
675.1611838457
 31
0.0
  0
LINE
  5
2C5
330
1F
100
AcDbEntity
  8
0
  6
Continuous
 62
     7
370
    35
100
AcDbLine
 10
642.0546682673
 20
676.1611838457
 30
0.0
 11
1222.0546682673
 21
676.1611838457
 31
0.0
  0
LINE
  5
2C6
330
1F
100
AcDbEntity
  8
0
  6
Continuous
 62
     7
370
    35
100
AcDbLine
 10
1222.0546682673
 20
674.1611838457
 30
0.0
 11
1222.0546682673
 21
675.1611838457
 31
0.0
  0
LINE
  5
2C7
330
1F
100
AcDbEntity
  8
0
  6
Continuous
 62
     7
370
    35
100
AcDbLine
 10
642.0546682673
 20
675.1611838457
 30
0.0
 11
642.0546682673
 21
674.1611838457
 31
0.0
  0
LINE
  5
2C8
330
1F
100
AcDbEntity
  8
0
  6
Continuous
 62
     7
370
    35
100
AcDbLine
 10
1222.0546682673
 20
659.6611838457
 30
0.0
 11
1222.0546682673
 21
674.1611838457
 31
0.0
  0
LINE
  5
2C9
330
1F
100
AcDbEntity
  8
0
  6
Continuous
 62
     7
370
    35
100
AcDbLine
 10
642.0546682673
 20
674.1611838457
 30
0.0
 11
642.0546682673
 21
659.6611838457
 31
0.0
  0
LINE
  5
2CA
330
1F
100
AcDbEntity
  8
0
  6
Continuous
 62
     7
370
    35
100
AcDbLine
 10
1222.0546682673
 20
659.6611838457
 30
0.0
 11
1222.0546682673
 21
657.9291330381
 31
0.0
  0
LINE
  5
2CB
330
1F
100
AcDbEntity
  8
0
  6
Continuous
 62
     7
370
    35
100
AcDbLine
 10
1222.0546682673
 20
657.6611838457
 30
0.0
 11
642.0546682673
 21
657.6611838457
 31
0.0
  0
LINE
  5
2CC
330
1F
100
AcDbEntity
  8
0
  6
Continuous
 62
     7
370
    35
100
AcDbLine
 10
642.0546682673
 20
657.9291330381
 30
0.0
 11
642.0546682673
 21
659.6611838457
 31
0.0
  0
LINE
  5
2CD
330
1F
100
AcDbEntity
  8
0
  6
Continuous
 62
     7
370
    35
100
AcDbLine
 10
1222.0546682673
 20
593.575397408
 30
0.0
 11
1222.0546682673
 21
590.7469702833
 31
0.0
  0
LINE
  5
2CE
330
1F
100
AcDbEntity
  8
0
  6
Continuous
 62
     7
370
    35
100
AcDbLine
 10
642.0546682673
 20
590.6611838457
 30
0.0
 11
1222.0546682673
 21
590.6611838457
 31
0.0
  0
LINE
  5
2CF
330
1F
100
AcDbEntity
  8
0
  6
Continuous
 62
     7
370
    35
100
AcDbLine
 10
642.0546682673
 20
593.6611838457
 30
0.0
 11
1222.0546682673
 21
593.6611838457
 31
0.0
  0
LINE
  5
2D0
330
1F
100
AcDbEntity
  8
0
  6
Continuous
 62
     7
370
    35
100
AcDbLine
 10
642.0546682673
 20
590.7469702833
 30
0.0
 11
642.0546682673
 21
593.575397408
 31
0.0
  0
LINE
  5
2D1
330
1F
100
AcDbEntity
  8
0
  6
Continuous
 62
     7
370
    35
100
AcDbLine
 10
642.0546682673
 20
590.6611838457
 30
0.0
 11
642.0546682673
 21
589.6611838457
 31
0.0
  0
LINE
  5
2D2
330
1F
100
AcDbEntity
  8
0
  6
Continuous
 62
     7
370
    35
100
AcDbLine
 10
1222.0546682673
 20
589.6611838457
 30
0.0
 11
1222.0546682673
 21
590.6611838457
 31
0.0
  0
LINE
  5
2D3
330
1F
100
AcDbEntity
  8
0
  6
Continuous
 62
     7
370
    35
100
AcDbLine
 10
1222.0546682673
 20
560.1611838457
 30
0.0
 11
642.0546682673
 21
560.1611838457
 31
0.0
  0
LINE
  5
2D4
330
1F
100
AcDbEntity
  8
0
  6
Continuous
 62
     7
370
    35
100
AcDbLine
 10
642.0546682673
 20
560.1611838457
 30
0.0
 11
642.0546682673
 21
589.6611838457
 31
0.0
  0
LINE
  5
2D5
330
1F
100
AcDbEntity
  8
0
  6
Continuous
 62
     7
370
    35
100
AcDbLine
 10
1222.0546682673
 20
589.6611838457
 30
0.0
 11
1222.0546682673
 21
560.1611838457
 31
0.0
  0
LINE
  5
2D6
330
1F
100
AcDbEntity
  8
0
  6
Continuous
 62
     7
370
    35
100
AcDbLine
 10
879.0546682673
 20
654.9161635436
 30
0.0
 11
985.0546682673
 21
654.9161635436
 31
0.0
  0
SPLINE
  5
2D7
330
1F
100
AcDbEntity
  8
0
  6
Continuous
 62
     7
370
    35
100
AcDbSpline
210
0.0
220
0.0
230
1.0
 70
     8
 71
     3
 72
     8
 73
     4
 74
     0
 42
0.000000001
 43
0.00000001
 40
0.0
 40
0.0
 40
0.0
 40
0.0
 40
1.0
 40
1.0
 40
1.0
 40
1.0
 10
872.2874052954057
 20
654.7178992738711
 30
0.0
 10
874.5407322865151
 20
654.8483870546721
 30
0.0
 10
876.797549735013
 20
654.9161635436224
 30
0.0
 10
879.0546682672936
 20
654.9161635436224
 30
0.0
  0
SPLINE
  5
2D8
330
1F
100
AcDbEntity
  8
0
  6
Continuous
 62
     7
370
    35
100
AcDbSpline
210
0.0
220
0.0
230
1.0
 70
     8
 71
     3
 72
     8
 73
     4
 74
     0
 42
0.000000001
 43
0.00000001
 40
0.0
 40
0.0
 40
0.0
 40
0.0
 40
1.0
 40
1.0
 40
1.0
 40
1.0
 10
985.0546682672936
 20
654.9161635436224
 30
0.0
 10
987.311781937039
 20
654.9161635436224
 30
0.0
 10
989.5686039418111
 20
654.8483870724316
 30
0.0
 10
991.8219312391813
 20
654.7178992738712
 30
0.0
  0
SPLINE
  5
2D9
330
1F
100
AcDbEntity
  8
0
  6
Continuous
 62
     7
370
    35
100
AcDbSpline
210
0.0
220
0.0
230
1.0
 70
     8
 71
     3
 72
     8
 73
     4
 74
     0
 42
0.000000001
 43
0.00000001
 40
0.0
 40
0.0
 40
0.0
 40
0.0
 40
1.0
 40
1.0
 40
1.0
 40
1.0
 10
879.0546682672936
 20
596.406204147708
 30
0.0
 10
876.797554597548
 20
596.406204147708
 30
0.0
 10
874.5407325927758
 20
596.4739806188988
 30
0.0
 10
872.2874052954056
 20
596.604468417459
 30
0.0
  0
LINE
  5
2DA
330
1F
100
AcDbEntity
  8
0
  6
Continuous
 62
     7
370
    35
100
AcDbLine
 10
985.0546682673
 20
596.4062041477
 30
0.0
 11
879.0546682673
 21
596.4062041477
 31
0.0
  0
SPLINE
  5
2DB
330
1F
100
AcDbEntity
  8
0
  6
Continuous
 62
     7
370
    35
100
AcDbSpline
210
0.0
220
0.0
230
1.0
 70
     8
 71
     3
 72
     8
 73
     4
 74
     0
 42
0.000000001
 43
0.00000001
 40
0.0
 40
0.0
 40
0.0
 40
0.0
 40
1.0
 40
1.0
 40
1.0
 40
1.0
 10
991.8219312391814
 20
596.6044684174592
 30
0.0
 10
989.568604248072
 20
596.4739806366583
 30
0.0
 10
987.311786799574
 20
596.406204147708
 30
0.0
 10
985.0546682672936
 20
596.406204147708
 30
0.0
  0
SPLINE
  5
2DC
330
1F
100
AcDbEntity
  8
0
  6
Continuous
 62
     7
370
    35
100
AcDbSpline
210
0.0
220
0.0
230
1.0
 70
     8
 71
     3
 72
    10
 73
     6
 74
     0
 42
0.000000001
 43
0.00000001
 40
0.0
 40
0.0
 40
0.0
 40
0.0
 40
0.5
 40
0.5
 40
1.0
 40
1.0
 40
1.0
 40
1.0
 10
985.0546682672936
 20
654.9111838456652
 30
0.0
 10
986.1976284152508
 20
654.9111838456652
 30
0.0
 10
987.3328218929943
 20
654.8949098268369
 30
0.0
 10
989.5883482253652
 20
654.8304754348276
 30
0.0
 10
990.708684171421
 20
654.7823178575217
 30
0.0
 10
991.8219312391814
 20
654.7178766332287
 30
0.0
  0
SPLINE
  5
2DD
330
1F
100
AcDbEntity
  8
0
  6
Continuous
 62
     7
370
    35
100
AcDbSpline
210
0.0
220
0.0
230
1.0
 70
     8
 71
     3
 72
    10
 73
     6
 74
     0
 42
0.000000001
 43
0.00000001
 40
0.0
 40
0.0
 40
0.0
 40
0.0
 40
0.5
 40
0.5
 40
1.0
 40
1.0
 40
1.0
 40
1.0
 10
872.2874052954056
 20
654.7178766332287
 30
0.0
 10
873.400652363166
 20
654.7823178575217
 30
0.0
 10
874.5209883092218
 20
654.8304754348278
 30
0.0
 10
876.7765146415927
 20
654.8949098268369
 30
0.0
 10
877.9117081193361
 20
654.9111838456652
 30
0.0
 10
879.0546682672936
 20
654.9111838456652
 30
0.0
  0
SPLINE
  5
2DE
330
1F
100
AcDbEntity
  8
0
  6
Continuous
 62
     7
370
    35
100
AcDbSpline
210
0.0
220
0.0
230
1.0
 70
     8
 71
     3
 72
    10
 73
     6
 74
     0
 42
0.000000001
 43
0.00000001
 40
0.0
 40
0.0
 40
0.0
 40
0.0
 40
0.5
 40
0.5
 40
1.0
 40
1.0
 40
1.0
 40
1.0
 10
985.0546682672936
 20
652.6611838456652
 30
0.0
 10
986.0834080003823
 20
652.6611838456652
 30
0.0
 10
987.1050874766781
 20
652.6025903086562
 30
0.0
 10
989.1350130593249
 20
652.3706276346409
 30
0.0
 10
990.1432625760908
 20
652.1972709203532
 30
0.0
 10
991.1452049419925
 20
651.9652778808937
 30
0.0
  0
SPLINE
  5
2DF
330
1F
100
AcDbEntity
  8
0
  6
Continuous
 62
     7
370
    35
100
AcDbSpline
210
0.0
220
0.0
230
1.0
 70
     8
 71
     3
 72
    10
 73
     6
 74
     0
 42
0.000000001
 43
0.00000001
 40
0.0
 40
0.0
 40
0.0
 40
0.0
 40
0.5
 40
0.5
 40
1.0
 40
1.0
 40
1.0
 40
1.0
 10
872.9641315925945
 20
651.9652778808937
 30
0.0
 10
873.9660739584962
 20
652.1972709203532
 30
0.0
 10
874.9743234752622
 20
652.3706276346409
 30
0.0
 10
877.0042490579089
 20
652.6025903086562
 30
0.0
 10
878.0259285342047
 20
652.6611838456652
 30
0.0
 10
879.0546682672936
 20
652.6611838456652
 30
0.0
  0
SPLINE
  5
2E0
330
1F
100
AcDbEntity
  8
0
  6
Continuous
 62
     7
370
    35
100
AcDbSpline
210
0.0
220
0.0
230
1.0
 70
     8
 71
     3
 72
    10
 73
     6
 74
     0
 42
0.000000001
 43
0.00000001
 40
0.0
 40
0.0
 40
0.0
 40
0.0
 40
0.5
 40
0.5
 40
1.0
 40
1.0
 40
1.0
 40
1.0
 10
879.0546682672936
 20
596.4111838456652
 30
0.0
 10
877.9117081193361
 20
596.4111838456652
 30
0.0
 10
876.7765146415927
 20
596.4274578644936
 30
0.0
 10
874.5209883092217
 20
596.4918922565026
 30
0.0
 10
873.4006523631658
 20
596.5400498338087
 30
0.0
 10
872.2874052954055
 20
596.6044910581018
 30
0.0
  0
SPLINE
  5
2E1
330
1F
100
AcDbEntity
  8
0
  6
Continuous
 62
     7
370
    35
100
AcDbSpline
210
0.0
220
0.0
230
1.0
 70
     8
 71
     3
 72
    10
 73
     6
 74
     0
 42
0.000000001
 43
0.00000001
 40
0.0
 40
0.0
 40
0.0
 40
0.0
 40
0.5
 40
0.5
 40
1.0
 40
1.0
 40
1.0
 40
1.0
 10
879.0546682672936
 20
598.6611838456652
 30
0.0
 10
878.0259285342047
 20
598.6611838456652
 30
0.0
 10
877.0042490579089
 20
598.7197773826742
 30
0.0
 10
874.974323475262
 20
598.9517400566896
 30
0.0
 10
873.966073958496
 20
599.1250967709772
 30
0.0
 10
872.9641315925944
 20
599.3570898104366
 30
0.0
  0
SPLINE
  5
2E2
330
1F
100
AcDbEntity
  8
0
  6
Continuous
 62
     7
370
    35
100
AcDbSpline
210
0.0
220
0.0
230
1.0
 70
     8
 71
     3
 72
    10
 73
     6
 74
     0
 42
0.000000001
 43
0.00000001
 40
0.0
 40
0.0
 40
0.0
 40
0.0
 40
0.5
 40
0.5
 40
1.0
 40
1.0
 40
1.0
 40
1.0
 10
991.8219312391816
 20
596.6044910581018
 30
0.0
 10
990.7086841714212
 20
596.5400498338087
 30
0.0
 10
989.5883482253654
 20
596.4918922565026
 30
0.0
 10
987.3328218929943
 20
596.4274578644936
 30
0.0
 10
986.1976284152508
 20
596.4111838456652
 30
0.0
 10
985.0546682672936
 20
596.4111838456652
 30
0.0
  0
SPLINE
  5
2E3
330
1F
100
AcDbEntity
  8
0
  6
Continuous
 62
     7
370
    35
100
AcDbSpline
210
0.0
220
0.0
230
1.0
 70
     8
 71
     3
 72
    10
 73
     6
 74
     0
 42
0.000000001
 43
0.00000001
 40
0.0
 40
0.0
 40
0.0
 40
0.0
 40
0.5
 40
0.5
 40
1.0
 40
1.0
 40
1.0
 40
1.0
 10
991.1452049419926
 20
599.3570898104366
 30
0.0
 10
990.1432625760908
 20
599.1250967709772
 30
0.0
 10
989.135013059325
 20
598.9517400566896
 30
0.0
 10
987.1050874766781
 20
598.7197773826742
 30
0.0
 10
986.0834080003823
 20
598.6611838456652
 30
0.0
 10
985.0546682672936
 20
598.6611838456652
 30
0.0
  0
LINE
  5
2E4
330
1F
100
AcDbEntity
  8
0
  6
Continuous
 62
     7
370
    35
100
AcDbLine
 10
985.0546682673
 20
654.9111838457
 30
0.0
 11
879.0546682673
 21
654.9111838457
 31
0.0
  0
LINE
  5
2E5
330
1F
100
AcDbEntity
  8
0
  6
Continuous
 62
     7
370
    35
100
AcDbLine
 10
879.0546682673
 20
652.6611838457
 30
0.0
 11
985.0546682673
 21
652.6611838457
 31
0.0
  0
LINE
  5
2E6
330
1F
100
AcDbEntity
  8
0
  6
Continuous
 62
     7
370
    35
100
AcDbLine
 10
879.0546682673
 20
596.4111838457
 30
0.0
 11
985.0546682673
 21
596.4111838457
 31
0.0
  0
LINE
  5
2E7
330
1F
100
AcDbEntity
  8
0
  6
Continuous
 62
     7
370
    35
100
AcDbLine
 10
985.0546682673
 20
598.6611838457
 30
0.0
 11
879.0546682673
 21
598.6611838457
 31
0.0
  0
ARC
  5
2E8
330
1F
100
AcDbEntity
  8
0
  6
Continuous
 62
     7
370
    35
100
AcDbCircle
 10
985.0546682673
 20
625.6611838457
 30
0.0
 40
27.0000000000001
100
AcDbArc
 50
0.4331051188
 51
76.9632820449
  0
ARC
  5
2E9
330
1F
100
AcDbEntity
  8
0
  6
Continuous
 62
     7
370
    35
100
AcDbCircle
 10
879.0546682673
 20
625.6611838457
 30
0.0
 40
27.0000000000001
100
AcDbArc
 50
103.0367179551
 51
179.5668948812
  0
ARC
  5
2EA
330
1F
100
AcDbEntity
  8
0
  6
Continuous
 62
     7
370
    35
100
AcDbCircle
 10
879.0546682673
 20
625.6611838457
 30
0.0
 40
27.0000000000001
100
AcDbArc
 50
180.4331051188
 51
256.9632820449
  0
ARC
  5
2EB
330
1F
100
AcDbEntity
  8
0
  6
Continuous
 62
     7
370
    35
100
AcDbCircle
 10
985.0546682673
 20
625.6611838457
 30
0.0
 40
27.0000000000001
100
AcDbArc
 50
283.0367179551
 51
359.5668948812
  0
LINE
  5
2EC
330
1F
100
AcDbEntity
  8
0
  6
Continuous
 62
     7
370
    35
100
AcDbLine
 10
975.0546682673
 20
630.5943583483
 30
0.0
 11
975.4742693518
 21
633.4607073535
 31
0.0
  0
SPLINE
  5
2ED
330
1F
100
AcDbEntity
  8
0
  6
Continuous
 62
     7
370
    35
100
AcDbSpline
210
0.0
220
0.0
230
1.0
 70
     8
 71
     3
 72
    11
 73
     7
 74
     0
 42
0.000000001
 43
0.00000001
 40
0.0
 40
0.0
 40
0.0
 40
0.0
 40
0.2606216717114495
 40
0.4632004480831418
 40
0.6713667795621364
 40
1.0
 40
1.0
 40
1.0
 40
1.0
 10
975.4742693517958
 20
633.4607073535467
 30
0.0
 10
975.8411507224572
 20
634.4624255333571
 30
0.0
 10
976.4932055349666
 20
636.2427698412354
 30
0.0
 10
978.0305703967894
 20
638.4977694632981
 30
0.0
 10
980.0453361812802
 20
640.7124036436443
 30
0.0
 10
981.8906642671094
 20
641.8328657416143
 30
0.0
 10
983.0203897101449
 20
642.5188221033877
 30
0.0
  0
SPLINE
  5
2EE
330
1F
100
AcDbEntity
  8
0
  6
Continuous
 62
     7
370
    35
100
AcDbSpline
210
0.0
220
0.0
230
1.0
 70
     8
 71
     3
 72
    16
 73
    12
 74
     0
 42
0.000000001
 43
0.00000001
 40
0.0
 40
0.0
 40
0.0
 40
0.0
 40
0.6093642604474573
 40
0.723375050386525
 40
0.8172213162014312
 40
0.8496365726793007
 40
0.882361234165307
 40
0.9067814804498372
 40
0.9311421346350484
 40
0.9706402276062258
 40
1.0
 40
1.0
 40
1.0
 40
1.0
 10
983.0203897101449
 20
642.5188221033877
 30
0.0
 10
983.5972239797338
 20
642.8164771793372
 30
0.0
 10
984.2819827454059
 20
643.1698229029683
 30
0.0
 10
984.9492257165977
 20
643.6955612266258
 30
0.0
 10
985.1194791145813
 20
643.8807142366833
 30
0.0
 10
985.1877525752612
 20
644.0293705368566
 30
0.0
 10
985.199391716257
 20
644.1229712022388
 30
0.0
 10
985.1748662680454
 20
644.2069338872477
 30
0.0
 10
985.1186035604037
 20
644.2850728744208
 30
0.0
 10
985.0355313977393
 20
644.3472700702582
 30
0.0
 10
984.9671105292928
 20
644.3791599994881
 30
0.0
 10
984.9379370846334
 20
644.3927572996497
 30
0.0
  0
SPLINE
  5
2EF
330
1F
100
AcDbEntity
  8
0
  6
Continuous
 62
     7
370
    35
100
AcDbSpline
210
0.0
220
0.0
230
1.0
 70
     8
 71
     3
 72
    13
 73
     9
 74
     0
 42
0.000000001
 43
0.00000001
 40
0.0
 40
0.0
 40
0.0
 40
0.0
 40
0.158507776389139
 40
0.3168380823631813
 40
0.4791716695216218
 40
0.6493085002786918
 40
0.8235953482371677
 40
1.0
 40
1.0
 40
1.0
 40
1.0
 10
997.5822805044522
 20
629.9823365061446
 30
0.0
 10
997.2897053506932
 20
630.9926619579495
 30
0.0
 10
996.704882619747
 20
633.012181668621
 30
0.0
 10
995.2088560680608
 20
635.832784420181
 30
0.0
 10
993.2821773983557
 20
638.4628352281657
 30
0.0
 10
990.8831030005767
 20
640.825767824414
 30
0.0
 10
988.0907767278426
 20
642.8816601694909
 30
0.0
 10
985.9931061989561
 20
643.8870344589974
 30
0.0
 10
984.9379370846334
 20
644.3927572996497
 30
0.0
  0
SPLINE
  5
2F0
330
1F
100
AcDbEntity
  8
0
  6
Continuous
 62
     7
370
    35
100
AcDbSpline
210
0.0
220
0.0
230
1.0
 70
     8
 71
     3
 72
     9
 73
     5
 74
     0
 42
0.000000001
 43
0.00000001
 40
0.0
 40
0.0
 40
0.0
 40
0.0
 40
0.4781757401206178
 40
0.9999999999999999
 40
0.9999999999999999
 40
0.9999999999999999
 40
0.9999999999999999
 10
997.5822805044522
 20
629.9823365061446
 30
0.0
 10
997.8290068961177
 20
628.6060904362747
 30
0.0
 10
998.3449811937752
 20
625.7279727184607
 30
0.0
 10
997.8438059204993
 20
622.8446295828855
 30
0.0
 10
997.5822805044522
 20
621.3400311851857
 30
0.0
  0
SPLINE
  5
2F1
330
1F
100
AcDbEntity
  8
0
  6
Continuous
 62
     7
370
    35
100
AcDbSpline
210
0.0
220
0.0
230
1.0
 70
     8
 71
     3
 72
    13
 73
     9
 74
     0
 42
0.000000001
 43
0.00000001
 40
0.0
 40
0.0
 40
0.0
 40
0.0
 40
0.1585077763891391
 40
0.3168380823631818
 40
0.4791716695216216
 40
0.6493085002786917
 40
0.8235953482371676
 40
1.0
 40
1.0
 40
1.0
 40
1.0
 10
997.5822805044522
 20
621.3400311851857
 30
0.0
 10
997.2897053506932
 20
620.3297057333808
 30
0.0
 10
996.7048826197471
 20
618.3101860227093
 30
0.0
 10
995.2088560680608
 20
615.4895832711493
 30
0.0
 10
993.2821773983557
 20
612.8595324631647
 30
0.0
 10
990.8831030005766
 20
610.4965998669163
 30
0.0
 10
988.0907767278426
 20
608.4407075218395
 30
0.0
 10
985.9931061989561
 20
607.4353332323329
 30
0.0
 10
984.9379370846334
 20
606.9296103916806
 30
0.0
  0
SPLINE
  5
2F2
330
1F
100
AcDbEntity
  8
0
  6
Continuous
 62
     7
370
    35
100
AcDbSpline
210
0.0
220
0.0
230
1.0
 70
     8
 71
     3
 72
    16
 73
    12
 74
     0
 42
0.000000001
 43
0.00000001
 40
0.0
 40
0.0
 40
0.0
 40
0.0
 40
0.6093642604474552
 40
0.7233750503865203
 40
0.8172213162014315
 40
0.8496365726793009
 40
0.8823612341653071
 40
0.9067814804498372
 40
0.9311421346350484
 40
0.9706402276062257
 40
0.9999999999999999
 40
0.9999999999999999
 40
0.9999999999999999
 40
0.9999999999999999
 10
983.0203897101449
 20
608.8035455879426
 30
0.0
 10
983.5972239797338
 20
608.5058905119931
 30
0.0
 10
984.2819827454059
 20
608.1525447883619
 30
0.0
 10
984.9492257165977
 20
607.6268064647045
 30
0.0
 10
985.1194791145813
 20
607.441653454647
 30
0.0
 10
985.1877525752612
 20
607.2929971544738
 30
0.0
 10
985.199391716257
 20
607.1993964890917
 30
0.0
 10
985.1748662680454
 20
607.1154338040826
 30
0.0
 10
985.1186035604036
 20
607.0372948169096
 30
0.0
 10
985.0355313977393
 20
606.9750976210722
 30
0.0
 10
984.9671105292928
 20
606.9432076918421
 30
0.0
 10
984.9379370846334
 20
606.9296103916806
 30
0.0
  0
SPLINE
  5
2F3
330
1F
100
AcDbEntity
  8
0
  6
Continuous
 62
     7
370
    35
100
AcDbSpline
210
0.0
220
0.0
230
1.0
 70
     8
 71
     3
 72
    11
 73
     7
 74
     0
 42
0.000000001
 43
0.00000001
 40
0.0
 40
0.0
 40
0.0
 40
0.0
 40
0.2606216717114549
 40
0.4632004480831453
 40
0.6713667795621383
 40
1.0
 40
1.0
 40
1.0
 40
1.0
 10
975.4742693517958
 20
617.8616603377836
 30
0.0
 10
975.8411507224571
 20
616.8599421579733
 30
0.0
 10
976.4932055349666
 20
615.0795978500951
 30
0.0
 10
978.0305703967894
 20
612.8245982280322
 30
0.0
 10
980.0453361812802
 20
610.609964047686
 30
0.0
 10
981.8906642671094
 20
609.489501949716
 30
0.0
 10
983.0203897101449
 20
608.8035455879426
 30
0.0
  0
LINE
  5
2F4
330
1F
100
AcDbEntity
  8
0
  6
Continuous
 62
     7
370
    35
100
AcDbLine
 10
975.0546682673
 20
620.728009343
 30
0.0
 11
975.4742693518
 21
617.8616603378
 31
0.0
  0
LINE
  5
2F5
330
1F
100
AcDbEntity
  8
0
  6
Continuous
 62
     7
370
    35
100
AcDbLine
 10
975.0546682673
 20
630.5943583483
 30
0.0
 11
975.0546682673
 21
620.728009343
 31
0.0
  0
LINE
  5
2F6
330
1F
100
AcDbEntity
  8
0
  6
Continuous
 62
     7
370
    35
100
AcDbLine
 10
889.0546682673
 20
620.728009343
 30
0.0
 11
888.6350671828
 21
617.8616603378
 31
0.0
  0
SPLINE
  5
2F7
330
1F
100
AcDbEntity
  8
0
  6
Continuous
 62
     7
370
    35
100
AcDbSpline
210
0.0
220
0.0
230
1.0
 70
     8
 71
     3
 72
    11
 73
     7
 74
     0
 42
0.000000001
 43
0.00000001
 40
0.0
 40
0.0
 40
0.0
 40
0.0
 40
0.2606216717114519
 40
0.4632004480831438
 40
0.6713667795621374
 40
1.0
 40
1.0
 40
1.0
 40
1.0
 10
888.6350671827921
 20
617.8616603377836
 30
0.0
 10
888.2681858121307
 20
616.8599421579733
 30
0.0
 10
887.6161309996213
 20
615.079597850095
 30
0.0
 10
886.0787661377985
 20
612.8245982280322
 30
0.0
 10
884.0640003533076
 20
610.609964047686
 30
0.0
 10
882.2186722674784
 20
609.489501949716
 30
0.0
 10
881.0889468244429
 20
608.8035455879426
 30
0.0
  0
SPLINE
  5
2F8
330
1F
100
AcDbEntity
  8
0
  6
Continuous
 62
     7
370
    35
100
AcDbSpline
210
0.0
220
0.0
230
1.0
 70
     8
 71
     3
 72
    16
 73
    12
 74
     0
 42
0.000000001
 43
0.00000001
 40
0.0
 40
0.0
 40
0.0
 40
0.0
 40
0.6093642604474534
 40
0.7233750503865208
 40
0.8172213162014319
 40
0.8496365726793013
 40
0.8823612341653073
 40
0.9067814804498374
 40
0.9311421346350486
 40
0.9706402276062259
 40
1.0
 40
1.0
 40
1.0
 40
1.0
 10
881.0889468244429
 20
608.8035455879426
 30
0.0
 10
880.5121125548538
 20
608.5058905119931
 30
0.0
 10
879.8273537891818
 20
608.1525447883619
 30
0.0
 10
879.1601108179902
 20
607.6268064647045
 30
0.0
 10
878.9898574200064
 20
607.441653454647
 30
0.0
 10
878.9215839593265
 20
607.2929971544738
 30
0.0
 10
878.9099448183307
 20
607.1993964890917
 30
0.0
 10
878.9344702665423
 20
607.1154338040827
 30
0.0
 10
878.9907329741842
 20
607.0372948169096
 30
0.0
 10
879.0738051368484
 20
606.9750976210722
 30
0.0
 10
879.1422260052951
 20
606.9432076918421
 30
0.0
 10
879.1713994499544
 20
606.9296103916806
 30
0.0
  0
SPLINE
  5
2F9
330
1F
100
AcDbEntity
  8
0
  6
Continuous
 62
     7
370
    35
100
AcDbSpline
210
0.0
220
0.0
230
1.0
 70
     8
 71
     3
 72
    13
 73
     9
 74
     0
 42
0.000000001
 43
0.00000001
 40
0.0
 40
0.0
 40
0.0
 40
0.0
 40
0.1585077763891354
 40
0.3168380823631738
 40
0.479171669521634
 40
0.6493085002787001
 40
0.8235953482371717
 40
1.0
 40
1.0
 40
1.0
 40
1.0
 10
866.5270560301349
 20
621.3400311851857
 30
0.0
 10
866.8196311838939
 20
620.3297057333808
 30
0.0
 10
867.4044539148401
 20
618.3101860227093
 30
0.0
 10
868.9004804665261
 20
615.489583271149
 30
0.0
 10
870.8271591362322
 20
612.8595324631649
 30
0.0
 10
873.2262335340112
 20
610.4965998669162
 30
0.0
 10
876.0185598067452
 20
608.4407075218395
 30
0.0
 10
878.1162303356318
 20
607.435333232333
 30
0.0
 10
879.1713994499544
 20
606.9296103916806
 30
0.0
  0
SPLINE
  5
2FA
330
1F
100
AcDbEntity
  8
0
  6
Continuous
 62
     7
370
    35
100
AcDbSpline
210
0.0
220
0.0
230
1.0
 70
     8
 71
     3
 72
     9
 73
     5
 74
     0
 42
0.000000001
 43
0.00000001
 40
0.0
 40
0.0
 40
0.0
 40
0.0
 40
0.4781757401206179
 40
0.9999999999999999
 40
0.9999999999999999
 40
0.9999999999999999
 40
0.9999999999999999
 10
866.5270560301349
 20
629.9823365061446
 30
0.0
 10
866.2803296384693
 20
628.6060904362747
 30
0.0
 10
865.7643553408119
 20
625.7279727184607
 30
0.0
 10
866.2655306140878
 20
622.8446295828855
 30
0.0
 10
866.5270560301349
 20
621.3400311851857
 30
0.0
  0
SPLINE
  5
2FB
330
1F
100
AcDbEntity
  8
0
  6
Continuous
 62
     7
370
    35
100
AcDbSpline
210
0.0
220
0.0
230
1.0
 70
     8
 71
     3
 72
    13
 73
     9
 74
     0
 42
0.000000001
 43
0.00000001
 40
0.0
 40
0.0
 40
0.0
 40
0.0
 40
0.1585077763891352
 40
0.3168380823631742
 40
0.4791716695216337
 40
0.6493085002786997
 40
0.8235953482371718
 40
1.0
 40
1.0
 40
1.0
 40
1.0
 10
866.5270560301349
 20
629.9823365061446
 30
0.0
 10
866.8196311838939
 20
630.9926619579495
 30
0.0
 10
867.4044539148401
 20
633.012181668621
 30
0.0
 10
868.9004804665262
 20
635.8327844201814
 30
0.0
 10
870.8271591362322
 20
638.4628352281654
 30
0.0
 10
873.226233534011
 20
640.825767824414
 30
0.0
 10
876.0185598067453
 20
642.8816601694909
 30
0.0
 10
878.1162303356318
 20
643.8870344589974
 30
0.0
 10
879.1713994499544
 20
644.3927572996497
 30
0.0
  0
SPLINE
  5
2FC
330
1F
100
AcDbEntity
  8
0
  6
Continuous
 62
     7
370
    35
100
AcDbSpline
210
0.0
220
0.0
230
1.0
 70
     8
 71
     3
 72
    16
 73
    12
 74
     0
 42
0.000000001
 43
0.00000001
 40
0.0
 40
0.0
 40
0.0
 40
0.0
 40
0.6093642604474555
 40
0.7233750503865255
 40
0.8172213162014316
 40
0.8496365726793009
 40
0.8823612341653071
 40
0.9067814804498373
 40
0.9311421346350485
 40
0.9706402276062258
 40
1.0
 40
1.0
 40
1.0
 40
1.0
 10
881.0889468244429
 20
642.5188221033877
 30
0.0
 10
880.5121125548538
 20
642.8164771793372
 30
0.0
 10
879.8273537891818
 20
643.1698229029683
 30
0.0
 10
879.1601108179902
 20
643.6955612266258
 30
0.0
 10
878.9898574200064
 20
643.8807142366833
 30
0.0
 10
878.9215839593265
 20
644.0293705368566
 30
0.0
 10
878.9099448183307
 20
644.1229712022388
 30
0.0
 10
878.9344702665423
 20
644.2069338872477
 30
0.0
 10
878.9907329741842
 20
644.2850728744208
 30
0.0
 10
879.0738051368485
 20
644.3472700702582
 30
0.0
 10
879.1422260052951
 20
644.3791599994881
 30
0.0
 10
879.1713994499544
 20
644.3927572996497
 30
0.0
  0
SPLINE
  5
2FD
330
1F
100
AcDbEntity
  8
0
  6
Continuous
 62
     7
370
    35
100
AcDbSpline
210
0.0
220
0.0
230
1.0
 70
     8
 71
     3
 72
    11
 73
     7
 74
     0
 42
0.000000001
 43
0.00000001
 40
0.0
 40
0.0
 40
0.0
 40
0.0
 40
0.2606216717114516
 40
0.4632004480831434
 40
0.6713667795621371
 40
0.9999999999999999
 40
0.9999999999999999
 40
0.9999999999999999
 40
0.9999999999999999
 10
888.6350671827921
 20
633.4607073535467
 30
0.0
 10
888.2681858121307
 20
634.4624255333571
 30
0.0
 10
887.6161309996213
 20
636.2427698412354
 30
0.0
 10
886.0787661377985
 20
638.4977694632981
 30
0.0
 10
884.0640003533077
 20
640.7124036436443
 30
0.0
 10
882.2186722674784
 20
641.8328657416143
 30
0.0
 10
881.0889468244429
 20
642.5188221033877
 30
0.0
  0
LINE
  5
2FE
330
1F
100
AcDbEntity
  8
0
  6
Continuous
 62
     7
370
    35
100
AcDbLine
 10
889.0546682673
 20
630.5943583483
 30
0.0
 11
888.6350671828
 21
633.4607073535
 31
0.0
  0
LINE
  5
2FF
330
1F
100
AcDbEntity
  8
0
  6
Continuous
 62
     7
370
    35
100
AcDbLine
 10
889.0546682673
 20
630.5943583483
 30
0.0
 11
889.0546682673
 21
620.728009343
 31
0.0
  0
SPLINE
  5
300
330
1F
100
AcDbEntity
  8
0
  6
Continuous
 62
     7
370
    35
100
AcDbSpline
210
0.0
220
0.0
230
1.0
 70
     8
 71
     3
 72
    17
 73
    13
 74
     0
 42
0.000000001
 43
0.00000001
 40
0.0
 40
0.0
 40
0.0
 40
0.0
 40
0.0352140993686977
 40
0.1768685086523016
 40
0.2823152604671501
 40
0.3877837521866221
 40
0.4930422793344952
 40
0.596541213625794
 40
0.7000040808468554
 40
0.8049238598612706
 40
0.909846049959293
 40
1.0
 40
1.0
 40
1.0
 40
1.0
 10
985.060572738263
 20
647.3984562413431
 30
0.0
 10
985.4607427029916
 20
647.3910223620013
 30
0.0
 10
987.4706610634745
 20
647.3536845008539
 30
0.0
 10
990.665742133105
 20
646.7982455007764
 30
0.0
 10
994.4294087717396
 20
645.3797506405106
 30
0.0
 10
997.5483879848646
 20
643.5614368988679
 30
0.0
 10
1000.31829201182
 20
641.2813196208622
 30
0.0
 10
1002.649573605116
 20
638.5849814076563
 30
0.0
 10
1004.519378735338
 20
635.5542975402268
 30
0.0
 10
1005.867874520307
 20
632.2448629714459
 30
0.0
 10
1006.663373966231
 20
628.9058616718848
 30
0.0
 10
1006.752111400671
 20
626.686743675132
 30
0.0
 10
1006.793121183956
 20
625.6611838456652
 30
0.0
  0
SPLINE
  5
301
330
1F
100
AcDbEntity
  8
0
  6
Continuous
 62
     7
370
    35
100
AcDbSpline
210
0.0
220
0.0
230
1.0
 70
     8
 71
     3
 72
    17
 73
    13
 74
     0
 42
0.000000001
 43
0.00000001
 40
0.0
 40
0.0
 40
0.0
 40
0.0
 40
0.035214099368697
 40
0.1768685086522979
 40
0.2823152604671548
 40
0.3877837521866352
 40
0.493042279334506
 40
0.5965412136258026
 40
0.7000040808468617
 40
0.8049238598612748
 40
0.9098460499592949
 40
1.0
 40
1.0
 40
1.0
 40
1.0
 10
879.0487637963248
 20
647.3984562413431
 30
0.0
 10
878.648593831596
 20
647.3910223620013
 30
0.0
 10
876.6386754711132
 20
647.3536845008539
 30
0.0
 10
873.4435944014826
 20
646.7982455007761
 30
0.0
 10
869.6799277628478
 20
645.3797506405106
 30
0.0
 10
866.5609485497226
 20
643.561436898868
 30
0.0
 10
863.7910445227668
 20
641.2813196208622
 30
0.0
 10
861.4597629294711
 20
638.5849814076563
 30
0.0
 10
859.589957799249
 20
635.5542975402268
 30
0.0
 10
858.2414620142799
 20
632.2448629714459
 30
0.0
 10
857.4459625683563
 20
628.9058616718848
 30
0.0
 10
857.3572251339162
 20
626.686743675132
 30
0.0
 10
857.3162153506308
 20
625.6611838456652
 30
0.0
  0
SPLINE
  5
302
330
1F
100
AcDbEntity
  8
0
  6
Continuous
 62
     7
370
    35
100
AcDbSpline
210
0.0
220
0.0
230
1.0
 70
     8
 71
     3
 72
    17
 73
    13
 74
     0
 42
0.000000001
 43
0.00000001
 40
0.0
 40
0.0
 40
0.0
 40
0.0
 40
0.035212730180031
 40
0.1768616316808077
 40
0.2808325704307758
 40
0.3877934996385849
 40
0.4930479341421753
 40
0.5965428442053842
 40
0.7000016886007091
 40
0.8034759650084173
 40
0.9098495553099583
 40
1.0
 40
1.0
 40
1.0
 40
1.0
 10
985.060572738263
 20
603.9239114499874
 30
0.0
 10
985.4607540803448
 20
603.9313154571863
 30
0.0
 10
987.4707295854232
 20
603.9685032806664
 30
0.0
 10
990.6478775082238
 20
604.5243982101669
 30
0.0
 10
994.4175087749426
 20
605.9272531890231
 30
0.0
 10
997.5341808496898
 20
607.7521244961015
 30
0.0
 10
1000.318472353999
 20
610.0405469592038
 30
0.0
 10
1002.649835553583
 20
612.7373906672365
 30
0.0
 10
1004.509508623673
 20
615.7545430484352
 30
0.0
 10
1005.867664629784
 20
619.0598644220044
 30
0.0
 10
1006.661584775351
 20
622.4002559546259
 30
0.0
 10
1006.75175696576
 20
624.6357207496623
 30
0.0
 10
1006.793121183956
 20
625.6611838456652
 30
0.0
  0
SPLINE
  5
303
330
1F
100
AcDbEntity
  8
0
  6
Continuous
 62
     7
370
    35
100
AcDbSpline
210
0.0
220
0.0
230
1.0
 70
     8
 71
     3
 72
    17
 73
    13
 74
     0
 42
0.000000001
 43
0.00000001
 40
0.0
 40
0.0
 40
0.0
 40
0.0
 40
0.0352127301800303
 40
0.1768616316808042
 40
0.2808325704307701
 40
0.387793499638597
 40
0.4930479341421855
 40
0.5965428442053923
 40
0.7000016886007152
 40
0.803475965008421
 40
0.90984955530996
 40
1.0
 40
1.0
 40
1.0
 40
1.0
 10
879.0487637963248
 20
603.9239114499874
 30
0.0
 10
878.6485824542431
 20
603.9313154571863
 30
0.0
 10
876.6386069491646
 20
603.9685032806664
 30
0.0
 10
873.461459026364
 20
604.5243982101669
 30
0.0
 10
869.6918277596451
 20
605.9272531890233
 30
0.0
 10
866.5751556848974
 20
607.7521244961013
 30
0.0
 10
863.7908641805877
 20
610.0405469592038
 30
0.0
 10
861.4595009810038
 20
612.7373906672365
 30
0.0
 10
859.5998279109143
 20
615.7545430484352
 30
0.0
 10
858.2416719048032
 20
619.0598644220044
 30
0.0
 10
857.4477517592362
 20
622.4002559546259
 30
0.0
 10
857.3575795688266
 20
624.6357207496623
 30
0.0
 10
857.3162153506308
 20
625.6611838456652
 30
0.0
  0
LINE
  5
304
330
1F
100
AcDbEntity
  8
0
  6
Continuous
 62
     7
370
    35
100
AcDbLine
 10
932.0546682673
 20
647.4024563132
 30
0.0
 11
985.0605727383
 21
647.3984562413
 31
0.0
  0
LINE
  5
305
330
1F
100
AcDbEntity
  8
0
  6
Continuous
 62
     7
370
    35
100
AcDbLine
 10
932.0546682673
 20
647.4024563132
 30
0.0
 11
879.0487637963
 21
647.3984562413
 31
0.0
  0
LINE
  5
306
330
1F
100
AcDbEntity
  8
0
  6
Continuous
 62
     7
370
    35
100
AcDbLine
 10
932.0546682673
 20
603.9199113782
 30
0.0
 11
985.0605727383
 21
603.92391145
 31
0.0
  0
LINE
  5
307
330
1F
100
AcDbEntity
  8
0
  6
Continuous
 62
     7
370
    35
100
AcDbLine
 10
932.0546682673
 20
603.9199113782
 30
0.0
 11
879.0487637963
 21
603.92391145
 31
0.0
  0
LINE
  5
308
330
1F
100
AcDbEntity
  8
0
  6
Continuous
 62
     7
370
    35
100
AcDbLine
 10
975.2108394575
 20
619.6611838457
 30
0.0
 11
888.8984970771
 21
619.6611838457
 31
0.0
  0
LINE
  5
309
330
1F
100
AcDbEntity
  8
0
  6
Continuous
 62
     7
370
    35
100
AcDbLine
 10
975.2108394575
 20
631.6611838457
 30
0.0
 11
888.8984970771
 21
631.6611838457
 31
0.0
  0
ARC
  5
30A
330
1F
100
AcDbEntity
  8
0
  6
Continuous
 62
     7
370
    35
100
AcDbCircle
 10
985.0546682673
 20
625.6611838457
 30
0.0
 40
21.75
100
AcDbArc
 50
270.0
 51
90.0
  0
LINE
  5
30B
330
1F
100
AcDbEntity
  8
0
  6
Continuous
 62
     7
370
    35
100
AcDbLine
 10
879.0546682673
 20
647.4111838457
 30
0.0
 11
985.0546682673
 21
647.4111838457
 31
0.0
  0
ARC
  5
30C
330
1F
100
AcDbEntity
  8
0
  6
Continuous
 62
     7
370
    35
100
AcDbCircle
 10
879.0546682673
 20
625.6611838457
 30
0.0
 40
21.75
100
AcDbArc
 50
90.0
 51
270.0
  0
LINE
  5
30D
330
1F
100
AcDbEntity
  8
0
  6
Continuous
 62
     7
370
    35
100
AcDbLine
 10
879.0546682673
 20
603.9111838457
 30
0.0
 11
985.0546682673
 21
603.9111838457
 31
0.0
  0
LINE
  5
30E
330
1F
100
AcDbEntity
  8
0
  6
Continuous
 62
     7
370
    35
100
AcDbLine
 10
1224.0546682673
 20
590.6611838457
 30
0.0
 11
1223.0546682673
 21
590.6611838457
 31
0.0
  0
LINE
  5
30F
330
1F
100
AcDbEntity
  8
0
  6
Continuous
 62
     7
370
    35
100
AcDbLine
 10
1223.0546682673
 20
675.1611838457
 30
0.0
 11
1224.0546682673
 21
675.1611838457
 31
0.0
  0
LINE
  5
310
330
1F
100
AcDbEntity
  8
0
  6
Continuous
 62
     7
370
    35
100
AcDbLine
 10
1224.0546682673
 20
675.1611838457
 30
0.0
 11
1224.0546682673
 21
590.6611838457
 31
0.0
  0
LINE
  5
311
330
1F
100
AcDbEntity
  8
0
  6
Continuous
 62
     7
370
    35
100
AcDbLine
 10
1223.0546682673
 20
590.6611838457
 30
0.0
 11
1222.0546682673
 21
590.6611838457
 31
0.0
  0
LINE
  5
312
330
1F
100
AcDbEntity
  8
0
  6
Continuous
 62
     7
370
    35
100
AcDbLine
 10
1222.0546682673
 20
590.6611838457
 30
0.0
 11
1222.0546682673
 21
590.7469702833
 31
0.0
  0
LINE
  5
313
330
1F
100
AcDbEntity
  8
0
  6
Continuous
 62
     7
370
    35
100
AcDbLine
 10
1222.0546682673
 20
593.575397408
 30
0.0
 11
1222.0546682673
 21
657.9291330381
 31
0.0
  0
LINE
  5
314
330
1F
100
AcDbEntity
  8
0
  6
Continuous
 62
     7
370
    35
100
AcDbLine
 10
1222.0546682673
 20
675.1611838457
 30
0.0
 11
1223.0546682673
 21
675.1611838457
 31
0.0
  0
LINE
  5
315
330
1F
100
AcDbEntity
  8
0
  6
Continuous
 62
     7
370
    35
100
AcDbLine
 10
642.0546682673
 20
590.6611838457
 30
0.0
 11
641.0546682673
 21
590.6611838457
 31
0.0
  0
LINE
  5
316
330
1F
100
AcDbEntity
  8
0
  6
Continuous
 62
     7
370
    35
100
AcDbLine
 10
641.0546682673
 20
675.1611838457
 30
0.0
 11
642.0546682673
 21
675.1611838457
 31
0.0
  0
LINE
  5
317
330
1F
100
AcDbEntity
  8
0
  6
Continuous
 62
     7
370
    35
100
AcDbLine
 10
642.0546682673
 20
657.9291330381
 30
0.0
 11
642.0546682673
 21
593.575397408
 31
0.0
  0
LINE
  5
318
330
1F
100
AcDbEntity
  8
0
  6
Continuous
 62
     7
370
    35
100
AcDbLine
 10
642.0546682673
 20
590.7469702833
 30
0.0
 11
642.0546682673
 21
590.6611838457
 31
0.0
  0
LINE
  5
319
330
1F
100
AcDbEntity
  8
0
  6
Continuous
 62
     7
370
    35
100
AcDbLine
 10
641.0546682673
 20
590.6611838457
 30
0.0
 11
640.0546682673
 21
590.6611838457
 31
0.0
  0
LINE
  5
31A
330
1F
100
AcDbEntity
  8
0
  6
Continuous
 62
     7
370
    35
100
AcDbLine
 10
640.0546682673
 20
590.6611838457
 30
0.0
 11
640.0546682673
 21
675.1611838457
 31
0.0
  0
LINE
  5
31B
330
1F
100
AcDbEntity
  8
0
  6
Continuous
 62
     7
370
    35
100
AcDbLine
 10
640.0546682673
 20
675.1611838457
 30
0.0
 11
641.0546682673
 21
675.1611838457
 31
0.0
  0
LINE
  5
31C
330
1F
100
AcDbEntity
  8
0
  6
Continuous
 62
     7
370
    35
100
AcDbLine
 10
642.0546682673
 20
676.1861838457
 30
0.0
 11
642.0546682673
 21
675.1861838457
 31
0.0
  0
LINE
  5
31D
330
1F
100
AcDbEntity
  8
0
  6
Continuous
 62
     7
370
    35
100
AcDbLine
 10
642.0546682673
 20
676.1861838457
 30
0.0
 11
619.5546682673
 21
676.1861838457
 31
0.0
  0
LINE
  5
31E
330
1F
100
AcDbEntity
  8
0
  6
Continuous
 62
     7
370
    35
100
AcDbLine
 10
642.0546682673
 20
675.1861838457
 30
0.0
 11
619.5546682673
 21
675.1861838457
 31
0.0
  0
LINE
  5
31F
330
1F
100
AcDbEntity
  8
0
  6
Continuous
 62
     7
370
    35
100
AcDbLine
 10
609.5546682673
 20
675.1861838457
 30
0.0
 11
609.5546682673
 21
676.1861838457
 31
0.0
  0
LINE
  5
320
330
1F
100
AcDbEntity
  8
0
  6
Continuous
 62
     7
370
    35
100
AcDbLine
 10
609.5546682673
 20
676.1861838457
 30
0.0
 11
619.5546682673
 21
676.1861838457
 31
0.0
  0
LINE
  5
321
330
1F
100
AcDbEntity
  8
0
  6
Continuous
 62
     7
370
    35
100
AcDbLine
 10
619.5546682673
 20
675.1861838457
 30
0.0
 11
609.5546682673
 21
675.1861838457
 31
0.0
  0
LINE
  5
322
330
1F
100
AcDbEntity
  8
0
  6
Continuous
 62
     7
370
    35
100
AcDbLine
 10
609.5546682673
 20
675.1861838457
 30
0.0
 11
609.5546682673
 21
674.1861838457
 31
0.0
  0
LINE
  5
323
330
1F
100
AcDbEntity
  8
0
  6
Continuous
 62
     7
370
    35
100
AcDbLine
 10
642.0546682673
 20
589.6611838457
 30
0.0
 11
642.0546682673
 21
560.1861838457
 31
0.0
  0
LINE
  5
324
330
1F
100
AcDbEntity
  8
0
  6
Continuous
 62
     7
370
    35
100
AcDbLine
 10
642.0546682673
 20
560.1861838457
 30
0.0
 11
619.5546682673
 21
560.1861838457
 31
0.0
  0
ARC
  5
325
330
1F
100
AcDbEntity
  8
0
  6
Continuous
 62
     7
370
    35
100
AcDbCircle
 10
619.5546682673
 20
570.1861838457
 30
0.0
 40
10.0
100
AcDbArc
 50
180.0
 51
270.0
  0
LINE
  5
326
330
1F
100
AcDbEntity
  8
0
  6
Continuous
 62
     7
370
    35
100
AcDbLine
 10
609.5546682673
 20
570.1861838457
 30
0.0
 11
609.5546682673
 21
674.1861838457
 31
0.0
  0
LINE
  5
327
330
1F
100
AcDbEntity
  8
0
  6
Continuous
 62
     7
370
    35
100
AcDbLine
 10
1222.0546682673
 20
676.1861838457
 30
0.0
 11
1222.0546682673
 21
675.1861838457
 31
0.0
  0
LINE
  5
328
330
1F
100
AcDbEntity
  8
0
  6
Continuous
 62
     7
370
    35
100
AcDbLine
 10
1222.0546682673
 20
676.1861838457
 30
0.0
 11
1244.5546682673
 21
676.1861838457
 31
0.0
  0
LINE
  5
329
330
1F
100
AcDbEntity
  8
0
  6
Continuous
 62
     7
370
    35
100
AcDbLine
 10
1222.0546682673
 20
675.1861838457
 30
0.0
 11
1244.5546682673
 21
675.1861838457
 31
0.0
  0
LINE
  5
32A
330
1F
100
AcDbEntity
  8
0
  6
Continuous
 62
     7
370
    35
100
AcDbLine
 10
1254.5546682673
 20
676.1861838457
 30
0.0
 11
1254.5546682673
 21
675.1861838457
 31
0.0
  0
LINE
  5
32B
330
1F
100
AcDbEntity
  8
0
  6
Continuous
 62
     7
370
    35
100
AcDbLine
 10
1244.5546682673
 20
676.1861838457
 30
0.0
 11
1254.5546682673
 21
676.1861838457
 31
0.0
  0
LINE
  5
32C
330
1F
100
AcDbEntity
  8
0
  6
Continuous
 62
     7
370
    35
100
AcDbLine
 10
1254.5546682673
 20
675.1861838457
 30
0.0
 11
1244.5546682673
 21
675.1861838457
 31
0.0
  0
LINE
  5
32D
330
1F
100
AcDbEntity
  8
0
  6
Continuous
 62
     7
370
    35
100
AcDbLine
 10
1254.5546682673
 20
674.1861838457
 30
0.0
 11
1254.5546682673
 21
675.1861838457
 31
0.0
  0
ARC
  5
32E
330
1F
100
AcDbEntity
  8
0
  6
Continuous
 62
     7
370
    35
100
AcDbCircle
 10
1244.5546682673
 20
570.1861838457
 30
0.0
 40
10.0
100
AcDbArc
 50
270.0
 51
0.0
  0
LINE
  5
32F
330
1F
100
AcDbEntity
  8
0
  6
Continuous
 62
     7
370
    35
100
AcDbLine
 10
1222.0546682673
 20
560.1861838457
 30
0.0
 11
1244.5546682673
 21
560.1861838457
 31
0.0
  0
LINE
  5
330
330
1F
100
AcDbEntity
  8
0
  6
Continuous
 62
     7
370
    35
100
AcDbLine
 10
1222.0546682673
 20
589.6611838457
 30
0.0
 11
1222.0546682673
 21
560.1861838457
 31
0.0
  0
LINE
  5
331
330
1F
100
AcDbEntity
  8
0
  6
Continuous
 62
     7
370
    35
100
AcDbLine
 10
1254.5546682673
 20
570.1861838457
 30
0.0
 11
1254.5546682673
 21
674.1861838457
 31
0.0
  0
LINE
  5
332
330
1F
100
AcDbEntity
  8
0
  6
Continuous
 62
     8
370
    18
100
AcDbLine
 10
642.0546682673
 20
674.1611838457
 30
0.0
 11
1222.0546682673
 21
674.1611838457
 31
0.0
  0
LINE
  5
333
330
1F
100
AcDbEntity
  8
0
  6
Continuous
 62
     8
370
    18
100
AcDbLine
 10
1222.0546682673
 20
659.6611838457
 30
0.0
 11
642.0546682673
 21
659.6611838457
 31
0.0
  0
LINE
  5
334
330
1F
100
AcDbEntity
  8
0
  6
Continuous
 62
     8
370
    18
100
AcDbLine
 10
642.0546682673
 20
589.6611838457
 30
0.0
 11
1222.0546682673
 21
589.6611838457
 31
0.0
  0
LINE
  5
335
330
1F
100
AcDbEntity
  8
0
  6
Continuous
 62
     8
370
    18
100
AcDbLine
 10
642.0546682673
 20
656.7178766332
 30
0.0
 11
1222.0546682673
 21
656.7178766332
 31
0.0
  0
LINE
  5
336
330
1F
100
AcDbEntity
  8
0
  6
Continuous
 62
     8
370
    18
100
AcDbLine
 10
642.0546682673
 20
594.6044910581
 30
0.0
 11
1222.0546682673
 21
594.6044910581
 31
0.0
  0
SPLINE
  5
337
330
1F
100
AcDbEntity
  8
0
  6
Continuous
 62
     8
370
    18
100
AcDbSpline
210
0.0
220
0.0
230
1.0
 70
     8
 71
     3
 72
    14
 73
    10
 74
     0
 42
0.000000001
 43
0.00000001
 40
0.0
 40
0.0
 40
0.0
 40
0.0
 40
0.2500000000000001
 40
0.2500000000000001
 40
0.5000000000000001
 40
0.5000000000000001
 40
0.7500000000000001
 40
0.7500000000000001
 40
1.0
 40
1.0
 40
1.0
 40
1.0
 10
849.0555253654469
 20
625.7178766332286
 30
0.0
 10
849.0807669515901
 20
629.0570401420438
 30
0.0
 10
849.6686428947779
 20
632.3912622117847
 30
0.0
 10
851.9051897958736
 20
638.6841517121887
 30
0.0
 10
853.553399733176
 20
641.6415219861829
 30
0.0
 10
857.728929627429
 20
646.8537720192584
 30
0.0
 10
860.2553888801754
 20
649.1075773744607
 30
0.0
 10
865.908613431757
 20
652.6633687736419
 30
0.0
 10
869.0342134284003
 20
653.9646218604432
 30
0.0
 10
872.2874052954057
 20
654.7178766332286
 30
0.0
  0
LINE
  5
338
330
1F
100
AcDbEntity
  8
0
  6
Continuous
 62
     8
370
    18
100
AcDbLine
 10
642.0546682673
 20
625.7178766332
 30
0.0
 11
849.0555253654
 21
625.7178766332
 31
0.0
  0
LINE
  5
339
330
1F
100
AcDbEntity
  8
0
  6
Continuous
 62
     8
370
    18
100
AcDbLine
 10
1015.0538111691
 20
625.7178766332
 30
0.0
 11
1222.0546682673
 21
625.7178766332
 31
0.0
  0
SPLINE
  5
33A
330
1F
100
AcDbEntity
  8
0
  6
Continuous
 62
     8
370
    18
100
AcDbSpline
210
0.0
220
0.0
230
1.0
 70
     8
 71
     3
 72
    14
 73
    10
 74
     0
 42
0.000000001
 43
0.00000001
 40
0.0
 40
0.0
 40
0.0
 40
0.0
 40
0.25
 40
0.25
 40
0.5
 40
0.5
 40
0.75
 40
0.75
 40
1.0
 40
1.0
 40
1.0
 40
1.0
 10
991.8219312391813
 20
654.7178766332286
 30
0.0
 10
995.0751231061868
 20
653.9646218604432
 30
0.0
 10
998.20072310283
 20
652.6633687736419
 30
0.0
 10
1003.853947654412
 20
649.1075773744607
 30
0.0
 10
1006.380406907158
 20
646.8537720192584
 30
0.0
 10
1010.555936801411
 20
641.6415219861829
 30
0.0
 10
1012.204146738713
 20
638.6841517121887
 30
0.0
 10
1014.440693639809
 20
632.3912622117847
 30
0.0
 10
1015.028569582997
 20
629.0570401420438
 30
0.0
 10
1015.05381116914
 20
625.7178766332286
 30
0.0
  0
LINE
  5
33B
330
1F
100
AcDbEntity
  8
0
  6
Continuous
 62
     8
370
    18
100
AcDbLine
 10
642.0546682673
 20
625.6044910581
 30
0.0
 11
849.0555253654
 21
625.6044910581
 31
0.0
  0
SPLINE
  5
33C
330
1F
100
AcDbEntity
  8
0
  6
Continuous
 62
     8
370
    18
100
AcDbSpline
210
0.0
220
0.0
230
1.0
 70
     8
 71
     3
 72
    14
 73
    10
 74
     0
 42
0.000000001
 43
0.00000001
 40
0.0
 40
0.0
 40
0.0
 40
0.0
 40
0.2500000000000002
 40
0.2500000000000002
 40
0.5000000000000003
 40
0.5000000000000003
 40
0.7500000000000002
 40
0.7500000000000002
 40
1.0
 40
1.0
 40
1.0
 40
1.0
 10
872.2874052954056
 20
596.6044910581018
 30
0.0
 10
869.0342134284001
 20
597.3577458308871
 30
0.0
 10
865.908613431757
 20
598.6589989176886
 30
0.0
 10
860.2553888801754
 20
602.2147903168698
 30
0.0
 10
857.7289296274289
 20
604.4685956720718
 30
0.0
 10
853.553399733176
 20
609.6808457051475
 30
0.0
 10
851.9051897958736
 20
612.6382159791416
 30
0.0
 10
849.6686428947778
 20
618.9311054795456
 30
0.0
 10
849.0807669515901
 20
622.2653275492866
 30
0.0
 10
849.0555253654469
 20
625.6044910581019
 30
0.0
  0
SPLINE
  5
33D
330
1F
100
AcDbEntity
  8
0
  6
Continuous
 62
     8
370
    18
100
AcDbSpline
210
0.0
220
0.0
230
1.0
 70
     8
 71
     3
 72
    14
 73
    10
 74
     0
 42
0.000000001
 43
0.00000001
 40
0.0
 40
0.0
 40
0.0
 40
0.0
 40
0.25
 40
0.25
 40
0.5
 40
0.5
 40
0.75
 40
0.75
 40
1.0
 40
1.0
 40
1.0
 40
1.0
 10
1015.05381116914
 20
625.6044910581019
 30
0.0
 10
1015.028569582997
 20
622.2653275492866
 30
0.0
 10
1014.440693639809
 20
618.9311054795457
 30
0.0
 10
1012.204146738713
 20
612.6382159791416
 30
0.0
 10
1010.555936801411
 20
609.6808457051475
 30
0.0
 10
1006.380406907158
 20
604.4685956720718
 30
0.0
 10
1003.853947654412
 20
602.2147903168698
 30
0.0
 10
998.20072310283
 20
598.6589989176885
 30
0.0
 10
995.0751231061868
 20
597.3577458308871
 30
0.0
 10
991.8219312391814
 20
596.6044910581018
 30
0.0
  0
LINE
  5
33E
330
1F
100
AcDbEntity
  8
0
  6
Continuous
 62
     8
370
    18
100
AcDbLine
 10
1015.0538111691
 20
625.6044910581
 30
0.0
 11
1222.0546682673
 21
625.6044910581
 31
0.0
  0
LINE
  5
33F
330
1F
100
AcDbEntity
  8
0
  6
Continuous
 62
     8
370
    18
100
AcDbLine
 10
985.0546682673
 20
654.9161635436
 30
0.0
 11
985.0546682673
 21
654.9111838457
 31
0.0
  0
LINE
  5
340
330
1F
100
AcDbEntity
  8
0
  6
Continuous
 62
     8
370
    18
100
AcDbLine
 10
879.0546682673
 20
654.9161635436
 30
0.0
 11
879.0546682673
 21
654.9111838457
 31
0.0
  0
ARC
  5
341
330
1F
100
AcDbEntity
  8
0
  6
Continuous
 62
     8
370
    18
100
AcDbCircle
 10
938.8049576674
 20
666.2926115996
 30
0.0
 40
54.2657716820597
100
AcDbArc
 50
344.6911781266
 51
347.6843554441
  0
LINE
  5
342
330
1F
100
AcDbEntity
  8
0
  6
Continuous
 62
     8
370
    18
100
AcDbLine
 10
985.0546682673
 20
654.9111838457
 30
0.0
 11
985.0546682673
 21
652.6611838457
 31
0.0
  0
LINE
  5
343
330
1F
100
AcDbEntity
  8
0
  6
Continuous
 62
     8
370
    18
100
AcDbLine
 10
879.0546682673
 20
654.9111838457
 30
0.0
 11
879.0546682673
 21
652.6611838457
 31
0.0
  0
ARC
  5
344
330
1F
100
AcDbEntity
  8
0
  6
Continuous
 62
     8
370
    18
100
AcDbCircle
 10
925.3043788675
 20
666.2926115997
 30
0.0
 40
54.26577168246381
100
AcDbArc
 50
192.3156445559
 51
195.3088218734
  0
ARC
  5
345
330
1F
100
AcDbEntity
  8
0
  6
Continuous
 62
     8
370
    18
100
AcDbCircle
 10
925.3043788675
 20
585.0297560916
 30
0.0
 40
54.26577168241679
100
AcDbArc
 50
164.6911781266
 51
167.6843554441
  0
LINE
  5
346
330
1F
100
AcDbEntity
  8
0
  6
Continuous
 62
     8
370
    18
100
AcDbLine
 10
879.0546682673
 20
598.6611838457
 30
0.0
 11
879.0546682673
 21
596.4111838457
 31
0.0
  0
LINE
  5
347
330
1F
100
AcDbEntity
  8
0
  6
Continuous
 62
     8
370
    18
100
AcDbLine
 10
985.0546682673
 20
598.6611838457
 30
0.0
 11
985.0546682673
 21
596.4111838457
 31
0.0
  0
ARC
  5
348
330
1F
100
AcDbEntity
  8
0
  6
Continuous
 62
     8
370
    18
100
AcDbCircle
 10
938.804957667
 20
585.0297560916
 30
0.0
 40
54.26577168254598
100
AcDbArc
 50
12.3156445559
 51
15.3088218734
  0
LINE
  5
349
330
1F
100
AcDbEntity
  8
0
  6
Continuous
 62
     8
370
    18
100
AcDbLine
 10
879.0546682673
 20
596.4062041477
 30
0.0
 11
879.0546682673
 21
596.4111838457
 31
0.0
  0
LINE
  5
34A
330
1F
100
AcDbEntity
  8
0
  6
Continuous
 62
     8
370
    18
100
AcDbLine
 10
985.0546682673
 20
596.4062041477
 30
0.0
 11
985.0546682673
 21
596.4111838457
 31
0.0
  0
ARC
  5
34B
330
1F
100
AcDbEntity
  8
0
  6
Continuous
 62
     8
370
    18
100
AcDbCircle
 10
1014.2219740347
 20
640.1157487577
 30
0.0
 40
14.42188180273561
100
AcDbArc
 50
261.3675974434
 51
273.306588142
  0
ARC
  5
34C
330
1F
100
AcDbEntity
  8
0
  6
Continuous
 62
     8
370
    18
100
AcDbCircle
 10
849.8873624999
 20
640.1157487577
 30
0.0
 40
14.42188180273923
100
AcDbArc
 50
266.693411858
 51
278.6324025566
  0
ARC
  5
34D
330
1F
100
AcDbEntity
  8
0
  6
Continuous
 62
     8
370
    18
100
AcDbCircle
 10
849.8873624999
 20
611.2066189335
 30
0.0
 40
14.42188180278281
100
AcDbArc
 50
81.3675974434
 51
93.306588142
  0
ARC
  5
34E
330
1F
100
AcDbEntity
  8
0
  6
Continuous
 62
     8
370
    18
100
AcDbCircle
 10
1014.2219740347
 20
611.2066189335
 30
0.0
 40
14.42188180278008
100
AcDbArc
 50
86.693411858
 51
98.6324025566
  0
SPLINE
  5
34F
330
1F
100
AcDbEntity
  8
0
  6
Continuous
 62
     8
370
    18
100
AcDbSpline
210
0.0
220
0.0
230
1.0
 70
     8
 71
     3
 72
     8
 73
     4
 74
     0
 42
0.000000001
 43
0.00000001
 40
0.0
 40
0.0
 40
0.0
 40
0.0
 40
1.0
 40
1.0
 40
1.0
 40
1.0
 10
849.0555253654469
 20
625.6044910581019
 30
0.0
 10
849.0543825515838
 20
625.6422862498107
 30
0.0
 10
849.0543825515838
 20
625.6800814415196
 30
0.0
 10
849.0555253654469
 20
625.7178766332286
 30
0.0
  0
SPLINE
  5
350
330
1F
100
AcDbEntity
  8
0
  6
Continuous
 62
     8
370
    18
100
AcDbSpline
210
0.0
220
0.0
230
1.0
 70
     8
 71
     3
 72
     8
 73
     4
 74
     0
 42
0.000000001
 43
0.00000001
 40
0.0
 40
0.0
 40
0.0
 40
0.0
 40
1.0
 40
1.0
 40
1.0
 40
1.0
 10
1015.05381116914
 20
625.7178766332286
 30
0.0
 10
1015.054953983003
 20
625.6800814415196
 30
0.0
 10
1015.054953983003
 20
625.6422862498107
 30
0.0
 10
1015.05381116914
 20
625.6044910581019
 30
0.0
  0
SPLINE
  5
351
330
1F
100
AcDbEntity
  8
0
  6
Continuous
 62
     8
370
    18
100
AcDbSpline
210
0.0
220
0.0
230
1.0
 70
     8
 71
     3
 72
    17
 73
    13
 74
     0
 42
0.000000001
 43
0.00000001
 40
0.0
 40
0.0
 40
0.0
 40
0.0
 40
0.0000017599180569
 40
0.122705339732922
 40
0.2502071717394976
 40
0.3526128094214256
 40
0.4578053944919653
 40
0.4930427252802737
 40
0.6348536903675625
 40
0.7415522131116684
 40
0.8461670224033183
 40
1.0
 40
1.0
 40
1.0
 40
1.0
 10
985.0605730991964
 20
647.4028961657823
 30
0.0
 10
985.0605930991961
 20
647.4028961641369
 30
0.0
 10
986.455036865563
 20
647.4027814427355
 30
0.0
 10
989.3038311755008
 20
647.1165230581186
 30
0.0
 10
993.1704671417839
 20
645.9661089016417
 30
0.0
 10
996.5677544546713
 20
644.2103172905441
 30
0.0
 10
998.7991440308291
 20
642.5636720385459
 30
0.0
 10
1001.159632234069
 20
640.3917037438941
 30
0.0
 10
1003.214418839431
 20
637.8620577403084
 30
0.0
 10
1005.105153175161
 20
634.3103239544328
 30
0.0
 10
1006.47880401943
 20
630.3595956878991
 30
0.0
 10
1006.67862419243
 20
627.4142869393037
 30
0.0
 10
1006.797560912944
 20
625.6611838456652
 30
0.0
  0
LWPOLYLINE
  5
352
330
1F
100
AcDbEntity
  8
0
  6
Continuous
 62
     8
370
    18
100
AcDbPolyline
 90
        3
 70
   128
 43
0.0
 10
985.0605730992
 20
647.4028961658
 10
985.0605737983
 20
647.4084351694
 10
985.0605740728
 20
647.4111830439
  0
LINE
  5
353
330
1F
100
AcDbEntity
  8
0
  6
Continuous
 62
     8
370
    18
100
AcDbLine
 10
1006.793121184
 20
625.6611838457
 30
0.0
 11
1006.7975609129
 21
625.6611838457
 31
0.0
  0
LINE
  5
354
330
1F
100
AcDbEntity
  8
0
  6
Continuous
 62
     8
370
    18
100
AcDbLine
 10
985.0605727383
 20
647.3984562413
 30
0.0
 11
985.0605730992
 21
647.4028961658
 31
0.0
  0
SPLINE
  5
355
330
1F
100
AcDbEntity
  8
0
  6
Continuous
 62
     8
370
    18
100
AcDbSpline
210
0.0
220
0.0
230
1.0
 70
     8
 71
     3
 72
    17
 73
    13
 74
     0
 42
0.000000001
 43
0.00000001
 40
0.0
 40
0.0
 40
0.0
 40
0.0
 40
0.0000017599180569
 40
0.1227053397329193
 40
0.2502071717394924
 40
0.3526128094214391
 40
0.4578053944919767
 40
0.4930427252802843
 40
0.6348536903675701
 40
0.7415522131116739
 40
0.8461670224033215
 40
1.0
 40
1.0
 40
1.0
 40
1.0
 10
879.0487634353914
 20
647.4028961657823
 30
0.0
 10
879.0487434353917
 20
647.4028961641369
 30
0.0
 10
877.6542996687016
 20
647.4027814428968
 30
0.0
 10
874.8055053592443
 20
647.11652305804
 30
0.0
 10
870.9388693927702
 20
645.9661089016582
 30
0.0
 10
867.5415820799245
 20
644.2103172905402
 30
0.0
 10
865.3101925037573
 20
642.5636720385461
 30
0.0
 10
862.9497043005185
 20
640.3917037438939
 30
0.0
 10
860.8949176951558
 20
637.8620577403085
 30
0.0
 10
859.0041833594262
 20
634.3103239544328
 30
0.0
 10
857.6305325151575
 20
630.3595956878992
 30
0.0
 10
857.4307123421571
 20
627.4142869393037
 30
0.0
 10
857.3117756216434
 20
625.6611838456652
 30
0.0
  0
LWPOLYLINE
  5
356
330
1F
100
AcDbEntity
  8
0
  6
Continuous
 62
     8
370
    18
100
AcDbPolyline
 90
        3
 70
   128
 43
0.0
 10
879.0487634354
 20
647.4028961658
 10
879.0487627363
 20
647.4084351694
 10
879.0487624618
 20
647.4111830439
  0
LINE
  5
357
330
1F
100
AcDbEntity
  8
0
  6
Continuous
 62
     8
370
    18
100
AcDbLine
 10
857.3162153506
 20
625.6611838457
 30
0.0
 11
857.3117756216
 21
625.6611838457
 31
0.0
  0
LINE
  5
358
330
1F
100
AcDbEntity
  8
0
  6
Continuous
 62
     8
370
    18
100
AcDbLine
 10
879.0487637963
 20
647.3984562413
 30
0.0
 11
879.0487634354
 21
647.4028961658
 31
0.0
  0
SPLINE
  5
359
330
1F
100
AcDbEntity
  8
0
  6
Continuous
 62
     8
370
    18
100
AcDbSpline
210
0.0
220
0.0
230
1.0
 70
     8
 71
     3
 72
    17
 73
    13
 74
     0
 42
0.000000001
 43
0.00000001
 40
0.0
 40
0.0
 40
0.0
 40
0.0
 40
0.0000017599180569
 40
0.1227053397329221
 40
0.2502071717394977
 40
0.3526128094214258
 40
0.4578053944919655
 40
0.4930427252802738
 40
0.6348536903675626
 40
0.7415522131116685
 40
0.8461670224033184
 40
1.0
 40
1.0
 40
1.0
 40
1.0
 10
985.0605730991964
 20
603.919471525548
 30
0.0
 10
985.0605930991961
 20
603.9194715271934
 30
0.0
 10
986.4550368658854
 20
603.9195862485142
 30
0.0
 10
989.3038311753438
 20
604.2058446332511
 30
0.0
 10
993.1704671418174
 20
605.3562587896802
 30
0.0
 10
996.5677544546627
 20
607.1120504007882
 30
0.0
 10
998.7991440308297
 20
608.7586956527844
 30
0.0
 10
1001.159632234068
 20
610.9306639474363
 30
0.0
 10
1003.214418839431
 20
613.4603099510219
 30
0.0
 10
1005.105153175161
 20
617.0120437368976
 30
0.0
 10
1006.47880401943
 20
620.9627720034313
 30
0.0
 10
1006.67862419243
 20
623.9080807520265
 30
0.0
 10
1006.797560912944
 20
625.6611838456652
 30
0.0
  0
LWPOLYLINE
  5
35A
330
1F
100
AcDbEntity
  8
0
  6
Continuous
 62
     8
370
    18
100
AcDbPolyline
 90
        3
 70
   128
 43
0.0
 10
985.0605730992
 20
603.9194715255
 10
985.0605737983
 20
603.9139325219
 10
985.0605740728
 20
603.9111846475
  0
LINE
  5
35B
330
1F
100
AcDbEntity
  8
0
  6
Continuous
 62
     8
370
    18
100
AcDbLine
 10
985.0605727383
 20
603.92391145
 30
0.0
 11
985.0605730992
 21
603.9194715255
 31
0.0
  0
SPLINE
  5
35C
330
1F
100
AcDbEntity
  8
0
  6
Continuous
 62
     8
370
    18
100
AcDbSpline
210
0.0
220
0.0
230
1.0
 70
     8
 71
     3
 72
    17
 73
    13
 74
     0
 42
0.000000001
 43
0.00000001
 40
0.0
 40
0.0
 40
0.0
 40
0.0
 40
0.0000017599180569
 40
0.1227053397329189
 40
0.2502071717394925
 40
0.3526128094214389
 40
0.4578053944919764
 40
0.4930427252802841
 40
0.63485369036757
 40
0.7415522131116737
 40
0.8461670224033214
 40
1.0
 40
1.0
 40
1.0
 40
1.0
 10
879.0487634353914
 20
603.9194715255481
 30
0.0
 10
879.0487434353917
 20
603.9194715271935
 30
0.0
 10
877.6542996688631
 20
603.9195862485143
 30
0.0
 10
874.8055053591657
 20
604.205844633251
 30
0.0
 10
870.938869392787
 20
605.3562587896804
 30
0.0
 10
867.5415820799202
 20
607.112050400788
 30
0.0
 10
865.3101925037577
 20
608.7586956527845
 30
0.0
 10
862.9497043005184
 20
610.9306639474363
 30
0.0
 10
860.8949176951558
 20
613.4603099510219
 30
0.0
 10
859.0041833594262
 20
617.0120437368976
 30
0.0
 10
857.6305325151575
 20
620.9627720034313
 30
0.0
 10
857.4307123421571
 20
623.9080807520265
 30
0.0
 10
857.3117756216434
 20
625.6611838456652
 30
0.0
  0
LINE
  5
35D
330
1F
100
AcDbEntity
  8
0
  6
Continuous
 62
     8
370
    18
100
AcDbLine
 10
879.0487637963
 20
603.92391145
 30
0.0
 11
879.0487634354
 21
603.9194715255
 31
0.0
  0
LWPOLYLINE
  5
35E
330
1F
100
AcDbEntity
  8
0
  6
Continuous
 62
     8
370
    18
100
AcDbPolyline
 90
        3
 70
   128
 43
0.0
 10
879.0487634354
 20
603.9194715255
 10
879.0487627363
 20
603.9139325219
 10
879.0487624618
 20
603.9111846475
  0
ARC
  5
35F
330
1F
100
AcDbEntity
  8
0
  6
Continuous
 62
     8
370
    18
100
AcDbCircle
 10
979.0393010148
 20
640.8976574874
 30
0.0
 40
2.052564240822799
100
AcDbArc
 50
11.6472091992
 51
44.8009049346
  0
SPLINE
  5
360
330
1F
100
AcDbEntity
  8
0
  6
Continuous
 62
     8
370
    18
100
AcDbSpline
210
0.0
220
0.0
230
1.0
 70
     8
 71
     3
 72
     9
 73
     5
 74
     0
 42
0.000000001
 43
0.00000001
 40
0.0
 40
0.0
 40
0.0
 40
0.0
 40
0.1546895589893173
 40
1.0
 40
1.0
 40
1.0
 40
1.0
 10
984.9379370846334
 20
644.3927572996497
 30
0.0
 10
984.6948846280637
 20
644.32008276465
 30
0.0
 10
983.1236573380145
 20
643.8502738423513
 30
0.0
 10
981.6995394291937
 20
643.0339958133075
 30
0.0
 10
980.4957176916371
 20
642.3439874725891
 30
0.0
  0
SPLINE
  5
361
330
1F
100
AcDbEntity
  8
0
  6
Continuous
 62
     8
370
    18
100
AcDbSpline
210
0.0
220
0.0
230
1.0
 70
     8
 71
     3
 72
     9
 73
     5
 74
     0
 42
0.000000001
 43
0.00000001
 40
0.0
 40
0.0
 40
0.0
 40
0.0
 40
0.1546895589893171
 40
1.0
 40
1.0
 40
1.0
 40
1.0
 10
879.1713994499544
 20
644.3927572996497
 30
0.0
 10
879.414451906524
 20
644.32008276465
 30
0.0
 10
880.9856791965733
 20
643.8502738423513
 30
0.0
 10
882.4097971053942
 20
643.0339958133075
 30
0.0
 10
883.6136188429507
 20
642.3439874725891
 30
0.0
  0
ARC
  5
362
330
1F
100
AcDbEntity
  8
0
  6
Continuous
 62
     8
370
    18
100
AcDbCircle
 10
885.0700355198
 20
640.8976574874
 30
0.0
 40
2.052564240823874
100
AcDbArc
 50
135.1990950654
 51
168.3527908008
  0
SPLINE
  5
363
330
1F
100
AcDbEntity
  8
0
  6
Continuous
 62
     8
370
    18
100
AcDbSpline
210
0.0
220
0.0
230
1.0
 70
     8
 71
     3
 72
     9
 73
     5
 74
     0
 42
0.000000001
 43
0.00000001
 40
0.0
 40
0.0
 40
0.0
 40
0.0
 40
0.1546895589893174
 40
0.9999999999999999
 40
0.9999999999999999
 40
0.9999999999999999
 40
0.9999999999999999
 10
984.9379370846334
 20
606.9296103916806
 30
0.0
 10
984.6948846280637
 20
607.0022849266803
 30
0.0
 10
983.1236573380145
 20
607.4720938489792
 30
0.0
 10
981.6995394291937
 20
608.288371878023
 30
0.0
 10
980.4957176916371
 20
608.9783802187413
 30
0.0
  0
ARC
  5
364
330
1F
100
AcDbEntity
  8
0
  6
Continuous
 62
     8
370
    18
100
AcDbCircle
 10
979.0393010148
 20
610.4247102039
 30
0.0
 40
2.052564240822738
100
AcDbArc
 50
315.1990950654
 51
348.3527908008
  0
ARC
  5
365
330
1F
100
AcDbEntity
  8
0
  6
Continuous
 62
     8
370
    18
100
AcDbCircle
 10
885.0700355198
 20
610.4247102039
 30
0.0
 40
2.052564240822357
100
AcDbArc
 50
191.6472091992
 51
224.8009049346
  0
SPLINE
  5
366
330
1F
100
AcDbEntity
  8
0
  6
Continuous
 62
     8
370
    18
100
AcDbSpline
210
0.0
220
0.0
230
1.0
 70
     8
 71
     3
 72
     9
 73
     5
 74
     0
 42
0.000000001
 43
0.00000001
 40
0.0
 40
0.0
 40
0.0
 40
0.0
 40
0.1546895589893173
 40
1.0
 40
1.0
 40
1.0
 40
1.0
 10
879.1713994499544
 20
606.9296103916806
 30
0.0
 10
879.414451906524
 20
607.0022849266803
 30
0.0
 10
880.9856791965733
 20
607.4720938489792
 30
0.0
 10
882.4097971053942
 20
608.288371878023
 30
0.0
 10
883.6136188429507
 20
608.9783802187413
 30
0.0
  0
ARC
  5
367
330
1F
100
AcDbEntity
  8
0
  6
Continuous
 62
     8
370
    18
100
AcDbCircle
 10
978.0546682673
 20
625.6611838457
 30
0.0
 40
20.0
100
AcDbArc
 50
270.0
 51
347.5224163015
  0
LINE
  5
368
330
1F
100
AcDbEntity
  8
0
  6
Continuous
 62
     8
370
    18
100
AcDbLine
 10
978.0546682673
 20
612.9485330588
 30
0.0
 11
978.0546682673
 21
605.6611838457
 31
0.0
  0
LINE
  5
369
330
1F
100
AcDbEntity
  8
0
  6
Continuous
 62
     8
370
    18
100
AcDbLine
 10
978.0546682673
 20
638.3738346326
 30
0.0
 11
978.0546682673
 21
645.6611838457
 31
0.0
  0
ARC
  5
36A
330
1F
100
AcDbEntity
  8
0
  6
Continuous
 62
     8
370
    18
100
AcDbCircle
 10
978.0546682673
 20
625.6611838457
 30
0.0
 40
20.00000000000011
100
AcDbArc
 50
12.4775836985
 51
90.0
  0
SPLINE
  5
36B
330
1F
100
AcDbEntity
  8
0
  6
Continuous
 62
     8
370
    18
100
AcDbSpline
210
0.0
220
0.0
230
1.0
 70
     8
 71
     3
 72
    14
 73
    10
 74
     0
 42
0.000000001
 43
0.00000001
 40
0.0
 40
0.0
 40
0.0
 40
0.0
 40
0.1114289230463675
 40
0.4958785649708676
 40
0.7046555305635106
 40
0.8301760374267202
 40
0.9121018798664099
 40
0.9942797082137652
 40
1.0
 40
1.0
 40
1.0
 40
1.0
 10
980.4957176916371
 20
642.3439874725891
 30
0.0
 10
980.376326645995
 20
642.261655107336
 30
0.0
 10
979.8450152165672
 20
641.8952614097554
 30
0.0
 10
979.1707236932072
 20
641.2624902590313
 30
0.0
 10
978.7128599054453
 20
640.4715057443311
 30
0.0
 10
978.6284021551118
 20
639.9613110104683
 30
0.0
 10
978.7108664479641
 20
639.6169824048043
 30
0.0
 10
978.8305733915863
 20
639.4392826840714
 30
0.0
 10
978.9112846647926
 20
639.3639001146486
 30
0.0
 10
978.9165372462184
 20
639.3589943181191
 30
0.0
  0
SPLINE
  5
36C
330
1F
100
AcDbEntity
  8
0
  6
Continuous
 62
     8
370
    18
100
AcDbSpline
210
0.0
220
0.0
230
1.0
 70
     8
 71
     3
 72
    14
 73
    10
 74
     0
 42
0.000000001
 43
0.00000001
 40
0.0
 40
0.0
 40
0.0
 40
0.0
 40
0.1114289230463679
 40
0.4958785649708705
 40
0.7046555305635143
 40
0.8301760374267243
 40
0.9121018798664143
 40
0.99427970821377
 40
1.0
 40
1.0
 40
1.0
 40
1.0
 10
980.4957176916371
 20
608.9783802187413
 30
0.0
 10
980.376326645995
 20
609.0607125839944
 30
0.0
 10
979.8450152165672
 20
609.4271062815749
 30
0.0
 10
979.1707236932072
 20
610.0598774322989
 30
0.0
 10
978.7128599054453
 20
610.8508619469992
 30
0.0
 10
978.6284021551118
 20
611.361056680862
 30
0.0
 10
978.7108664479641
 20
611.7053852865262
 30
0.0
 10
978.8305733915863
 20
611.883085007259
 30
0.0
 10
978.9112846647926
 20
611.9584675766819
 30
0.0
 10
978.9165372462184
 20
611.9633733732113
 30
0.0
  0
SPLINE
  5
36D
330
1F
100
AcDbEntity
  8
0
  6
Continuous
 62
     8
370
    18
100
AcDbSpline
210
0.0
220
0.0
230
1.0
 70
     8
 71
     3
 72
    14
 73
    10
 74
     0
 42
0.000000001
 43
0.00000001
 40
0.0
 40
0.0
 40
0.0
 40
0.0
 40
0.1114289230463678
 40
0.4958785649708698
 40
0.7046555305635135
 40
0.8301760374267233
 40
0.9121018798664129
 40
0.9942797082137684
 40
1.0
 40
1.0
 40
1.0
 40
1.0
 10
883.6136188429507
 20
608.9783802187413
 30
0.0
 10
883.7330098885927
 20
609.0607125839944
 30
0.0
 10
884.2643213180207
 20
609.4271062815749
 30
0.0
 10
884.9386128413805
 20
610.0598774322989
 30
0.0
 10
885.3964766291425
 20
610.8508619469992
 30
0.0
 10
885.4809343794761
 20
611.361056680862
 30
0.0
 10
885.3984700866238
 20
611.7053852865262
 30
0.0
 10
885.2787631430016
 20
611.8830850072591
 30
0.0
 10
885.1980518697953
 20
611.9584675766819
 30
0.0
 10
885.1927992883695
 20
611.9633733732113
 30
0.0
  0
SPLINE
  5
36E
330
1F
100
AcDbEntity
  8
0
  6
Continuous
 62
     8
370
    18
100
AcDbSpline
210
0.0
220
0.0
230
1.0
 70
     8
 71
     3
 72
    14
 73
    10
 74
     0
 42
0.000000001
 43
0.00000001
 40
0.0
 40
0.0
 40
0.0
 40
0.0
 40
0.1114289230463676
 40
0.4958785649708684
 40
0.7046555305635115
 40
0.8301760374267211
 40
0.9121018798664113
 40
0.9942797082137667
 40
1.0
 40
1.0
 40
1.0
 40
1.0
 10
883.6136188429507
 20
642.3439874725891
 30
0.0
 10
883.7330098885927
 20
642.261655107336
 30
0.0
 10
884.2643213180207
 20
641.8952614097554
 30
0.0
 10
884.9386128413805
 20
641.2624902590313
 30
0.0
 10
885.3964766291425
 20
640.4715057443311
 30
0.0
 10
885.4809343794761
 20
639.9613110104683
 30
0.0
 10
885.3984700866238
 20
639.6169824048043
 30
0.0
 10
885.2787631430016
 20
639.4392826840714
 30
0.0
 10
885.1980518697953
 20
639.3639001146486
 30
0.0
 10
885.1927992883695
 20
639.3589943181191
 30
0.0
  0
ARC
  5
36F
330
1F
100
AcDbEntity
  8
0
  6
Continuous
 62
     8
370
    18
100
AcDbCircle
 10
886.0546682673
 20
625.6611838457
 30
0.0
 40
20.00000000000029
100
AcDbArc
 50
90.0
 51
167.5224163015
  0
LINE
  5
370
330
1F
100
AcDbEntity
  8
0
  6
Continuous
 62
     8
370
    18
100
AcDbLine
 10
886.0546682673
 20
638.3738346326
 30
0.0
 11
886.0546682673
 21
645.6611838457
 31
0.0
  0
LINE
  5
371
330
1F
100
AcDbEntity
  8
0
  6
Continuous
 62
     8
370
    18
100
AcDbLine
 10
886.0546682673
 20
612.9485330588
 30
0.0
 11
886.0546682673
 21
605.6611838457
 31
0.0
  0
ARC
  5
372
330
1F
100
AcDbEntity
  8
0
  6
Continuous
 62
     8
370
    18
100
AcDbCircle
 10
886.0546682673
 20
625.6611838457
 30
0.0
 40
20.00000000000029
100
AcDbArc
 50
192.4775836985
 51
270.0
  0
LINE
  5
373
330
1F
100
AcDbEntity
  8
0
  6
Continuous
 62
     8
370
    18
100
AcDbLine
 10
932.0546682673
 20
647.4068962376
 30
0.0
 11
985.0605545845
 21
647.4028961672
 31
0.0
  0
LINE
  5
374
330
1F
100
AcDbEntity
  8
0
  6
Continuous
 62
     8
370
    18
100
AcDbLine
 10
932.0546682673
 20
647.4068962376
 30
0.0
 11
932.0546682673
 21
647.4024563132
 31
0.0
  0
LINE
  5
375
330
1F
100
AcDbEntity
  8
0
  6
Continuous
 62
     8
370
    18
100
AcDbLine
 10
932.0546682673
 20
647.4068962376
 30
0.0
 11
879.0487819501
 21
647.4028961672
 31
0.0
  0
LINE
  5
376
330
1F
100
AcDbEntity
  8
0
  6
Continuous
 62
     8
370
    18
100
AcDbLine
 10
932.0546682673
 20
603.9154714537
 30
0.0
 11
985.0605545845
 21
603.9194715242
 31
0.0
  0
LINE
  5
377
330
1F
100
AcDbEntity
  8
0
  6
Continuous
 62
     8
370
    18
100
AcDbLine
 10
932.0546682673
 20
603.9154714537
 30
0.0
 11
932.0546682673
 21
603.9199113782
 31
0.0
  0
LINE
  5
378
330
1F
100
AcDbEntity
  8
0
  6
Continuous
 62
     8
370
    18
100
AcDbLine
 10
932.0546682673
 20
603.9154714537
 30
0.0
 11
879.0487819501
 21
603.9194715242
 31
0.0
  0
LINE
  5
379
330
1F
100
AcDbEntity
  8
0
  6
Continuous
 62
     8
370
    18
100
AcDbLine
 10
886.0546682673
 20
605.6611838457
 30
0.0
 11
978.0546682673
 21
605.6611838457
 31
0.0
  0
LINE
  5
37A
330
1F
100
AcDbEntity
  8
0
  6
Continuous
 62
     8
370
    18
100
AcDbLine
 10
886.0546682673
 20
645.6611838457
 30
0.0
 11
978.0546682673
 21
645.6611838457
 31
0.0
  0
LINE
  5
37B
330
1F
100
AcDbEntity
  8
0
  6
Continuous
 62
     8
370
    18
100
AcDbLine
 10
985.0605545845
 20
647.4028961672
 30
0.0
 11
985.0605552098
 21
647.411183049
 31
0.0
  0
LINE
  5
37C
330
1F
100
AcDbEntity
  8
0
  6
Continuous
 62
     8
370
    18
100
AcDbLine
 10
879.0487819501
 20
647.4028961672
 30
0.0
 11
879.0487813248
 21
647.411183049
 31
0.0
  0
LINE
  5
37D
330
1F
100
AcDbEntity
  8
0
  6
Continuous
 62
     8
370
    18
100
AcDbLine
 10
985.0605545845
 20
603.9194715242
 30
0.0
 11
985.0605552098
 21
603.9111846424
 31
0.0
  0
LINE
  5
37E
330
1F
100
AcDbEntity
  8
0
  6
Continuous
 62
     8
370
    18
100
AcDbLine
 10
879.0487819501
 20
603.9194715242
 30
0.0
 11
879.0487813248
 21
603.9111846424
 31
0.0
  0
LINE
  5
37F
330
1F
100
AcDbEntity
  8
0
  6
Continuous
 62
     8
370
    18
100
AcDbLine
 10
985.0546682673
 20
599.4111838457
 30
0.0
 11
985.0546682673
 21
598.6611838457
 31
0.0
  0
ARC
  5
380
330
1F
100
AcDbEntity
  8
0
  6
Continuous
 62
     8
370
    18
100
AcDbCircle
 10
985.0546682673
 20
625.6611838457
 30
0.0
 40
26.25
100
AcDbArc
 50
270.0
 51
90.0
  0
LINE
  5
381
330
1F
100
AcDbEntity
  8
0
  6
Continuous
 62
     8
370
    18
100
AcDbLine
 10
985.0546682673
 20
651.9111838457
 30
0.0
 11
985.0546682673
 21
652.6611838457
 31
0.0
  0
LINE
  5
382
330
1F
100
AcDbEntity
  8
0
  6
Continuous
 62
     8
370
    18
100
AcDbLine
 10
985.0546682673
 20
603.9111838457
 30
0.0
 11
985.0546682673
 21
599.4111838457
 31
0.0
  0
LINE
  5
383
330
1F
100
AcDbEntity
  8
0
  6
Continuous
 62
     8
370
    18
100
AcDbLine
 10
985.0546682673
 20
647.4111838457
 30
0.0
 11
985.0546682673
 21
651.9111838457
 31
0.0
  0
LINE
  5
384
330
1F
100
AcDbEntity
  8
0
  6
Continuous
 62
     8
370
    18
100
AcDbLine
 10
879.0546682673
 20
651.9111838457
 30
0.0
 11
985.0546682673
 21
651.9111838457
 31
0.0
  0
LINE
  5
385
330
1F
100
AcDbEntity
  8
0
  6
Continuous
 62
     8
370
    18
100
AcDbLine
 10
879.0546682673
 20
651.9111838457
 30
0.0
 11
879.0546682673
 21
652.6611838457
 31
0.0
  0
LINE
  5
386
330
1F
100
AcDbEntity
  8
0
  6
Continuous
 62
     8
370
    18
100
AcDbLine
 10
879.0546682673
 20
647.4111838457
 30
0.0
 11
879.0546682673
 21
651.9111838457
 31
0.0
  0
ARC
  5
387
330
1F
100
AcDbEntity
  8
0
  6
Continuous
 62
     8
370
    18
100
AcDbCircle
 10
879.0546682673
 20
625.6611838457
 30
0.0
 40
26.25
100
AcDbArc
 50
90.0
 51
270.0
  0
LINE
  5
388
330
1F
100
AcDbEntity
  8
0
  6
Continuous
 62
     8
370
    18
100
AcDbLine
 10
879.0546682673
 20
599.4111838457
 30
0.0
 11
879.0546682673
 21
598.6611838457
 31
0.0
  0
LINE
  5
389
330
1F
100
AcDbEntity
  8
0
  6
Continuous
 62
     8
370
    18
100
AcDbLine
 10
879.0546682673
 20
603.9111838457
 30
0.0
 11
879.0546682673
 21
599.4111838457
 31
0.0
  0
LINE
  5
38A
330
1F
100
AcDbEntity
  8
0
  6
Continuous
 62
     8
370
    18
100
AcDbLine
 10
879.0546682673
 20
599.4111838457
 30
0.0
 11
985.0546682673
 21
599.4111838457
 31
0.0
  0
CIRCLE
  5
38B
330
1F
100
AcDbEntity
  8
0
  6
Continuous
 62
     8
370
    18
100
AcDbCircle
 10
932.0546682673
 20
625.6611838457
 30
0.0
 40
3.548336454629634
  0
CIRCLE
  5
38C
330
1F
100
AcDbEntity
  8
0
  6
Continuous
 62
     8
370
    18
100
AcDbCircle
 10
932.0546682673
 20
625.6611838457
 30
0.0
 40
5.614709433546636
  0
ARC
  5
38D
330
1F
100
AcDbEntity
  8
0
  6
Continuous
 62
     8
370
    18
100
AcDbCircle
 10
932.0546682673
 20
625.6611838457
 30
0.0
 40
7.463480267439865
100
AcDbArc
 50
126.4944476701
 51
233.5055523299
  0
ARC
  5
38E
330
1F
100
AcDbEntity
  8
0
  6
Continuous
 62
     8
370
    18
100
AcDbCircle
 10
932.0546682673
 20
625.6611838457
 30
0.0
 40
7.463480267439797
100
AcDbArc
 50
306.4944476701
 51
53.5055523299
  0
ARC
  5
38F
330
1F
100
AcDbEntity
  8
0
  6
Continuous
 62
     8
370
    18
100
AcDbCircle
 10
932.0546682673
 20
625.6611838457
 30
0.0
 40
8.284968901367037
100
AcDbArc
 50
133.5974061618
 51
226.4025938382
  0
ARC
  5
390
330
1F
100
AcDbEntity
  8
0
  6
Continuous
 62
     8
370
    18
100
AcDbCircle
 10
932.0546682673
 20
625.6611838457
 30
0.0
 40
8.284968901367037
100
AcDbArc
 50
313.5974061618
 51
46.4025938382
  0
LINE
  5
391
330
1F
100
AcDbEntity
  8
0
  6
Continuous
 62
     8
370
    18
100
AcDbLine
 10
1223.0546682673
 20
590.6611838457
 30
0.0
 11
1223.0546682673
 21
675.1611838457
 31
0.0
  0
LINE
  5
392
330
1F
100
AcDbEntity
  8
0
  6
Continuous
 62
     8
370
    18
100
AcDbLine
 10
641.0546682673
 20
590.6611838457
 30
0.0
 11
641.0546682673
 21
675.1611838457
 31
0.0
  0
LINE
  5
393
330
1F
100
AcDbEntity
  8
0
  6
Continuous
 62
     8
370
    18
100
AcDbLine
 10
619.5546682673
 20
676.1861838457
 30
0.0
 11
619.5546682673
 21
675.1861838457
 31
0.0
  0
LINE
  5
394
330
1F
100
AcDbEntity
  8
0
  6
Continuous
 62
     8
370
    18
100
AcDbLine
 10
609.5546682673
 20
674.1861838457
 30
0.0
 11
640.0546682673
 21
674.1861838457
 31
0.0
  0
LINE
  5
395
330
1F
100
AcDbEntity
  8
0
  6
Continuous
 62
     8
370
    18
100
AcDbLine
 10
1244.5546682673
 20
675.1861838457
 30
0.0
 11
1244.5546682673
 21
676.1861838457
 31
0.0
  0
LINE
  5
396
330
1F
100
AcDbEntity
  8
0
  6
Continuous
 62
     8
370
    18
100
AcDbLine
 10
1224.0546682673
 20
674.1861838457
 30
0.0
 11
1254.5546682673
 21
674.1861838457
 31
0.0
  0
ENDSEC
  0
SECTION
  2
OBJECTS
  0
DICTIONARY
  5
C
330
0
100
AcDbDictionary
281
     1
  3
ACAD_GROUP
350
D
  3
ACAD_LAYOUT
350
1A
  3
ACAD_MLINESTYLE
350
17
  3
ACAD_PLOTSETTINGS
350
19
  3
ACAD_PLOTSTYLENAME
350
E
  3
ACAD_SCALELIST
350
47
  0
DICTIONARY
  5
D
102
{ACAD_REACTORS
330
C
102
}
330
C
100
AcDbDictionary
281
     1
  0
DICTIONARY
  5
1A
102
{ACAD_REACTORS
330
C
102
}
330
C
100
AcDbDictionary
281
     1
  3
Layout1
350
1E
  3
Layout2
350
26
  3
Model
350
22
  0
DICTIONARY
  5
17
102
{ACAD_REACTORS
330
C
102
}
330
C
100
AcDbDictionary
281
     1
  3
Standard
350
18
  0
DICTIONARY
  5
19
102
{ACAD_REACTORS
330
C
102
}
330
C
100
AcDbDictionary
281
     1
  0
ACDBDICTIONARYWDFLT
  5
E
102
{ACAD_REACTORS
330
C
102
}
330
C
100
AcDbDictionary
281
     1
  3
Normal
350
F
100
AcDbDictionaryWithDefault
340
F
  0
DICTIONARY
  5
47
102
{ACAD_REACTORS
330
C
102
}
330
C
100
AcDbDictionary
281
     1
  3
A0
350
48
  3
A1
350
49
  3
A2
350
4A
  3
A3
350
4B
  3
A4
350
4C
  3
A5
350
4D
  3
A6
350
4E
  3
A7
350
4F
  3
A8
350
50
  3
A9
350
51
  3
B0
350
52
  3
B1
350
53
  3
B2
350
54
  3
B3
350
55
  3
B4
350
56
  3
B5
350
57
  3
B6
350
58
  3
B7
350
59
  3
B8
350
5A
  3
B9
350
5B
  3
C0
350
5C
  3
C1
350
5D
  3
C2
350
5E
  3
C3
350
5F
  3
C4
350
60
  3
C5
350
61
  3
C6
350
62
  3
C7
350
63
  3
C8
350
64
  3
C9
350
65
  3
D0
350
66
  3
D1
350
67
  3
D2
350
68
  0
LAYOUT
  5
1E
102
{ACAD_REACTORS
330
1A
102
}
330
1A
100
AcDbPlotSettings
  1

  2
none_device
  4

  6

 40
0.0
 41
0.0
 42
0.0
 43
0.0
 44
0.0
 45
0.0
 46
0.0
 47
0.0
 48
0.0
 49
0.0
140
0.0
141
0.0
142
1.0
143
1.0
 70
   688
 72
     1
 73
     0
 74
     5
  7

 75
    16
147
1.0
148
0.0
149
0.0
100
AcDbLayout
  1
Layout1
 70
     1
 71
     1
 10
0.0
 20
0.0
 11
420.0
 21
297.0
 12
0.0
 22
0.0
 32
0.0
 14
1.0000000000E+20
 24
1.0000000000E+20
 34
1.0000000000E+20
 15
-1.0000000000E+20
 25
-1.0000000000E+20
 35
-1.0000000000E+20
146
0.0
 13
0.0
 23
0.0
 33
0.0
 16
1.0
 26
0.0
 36
0.0
 17
0.0
 27
1.0
 37
0.0
 76
     0
330
1B
  0
LAYOUT
  5
26
102
{ACAD_REACTORS
330
1A
102
}
330
1A
100
AcDbPlotSettings
  1

  2
none_device
  4

  6

 40
0.0
 41
0.0
 42
0.0
 43
0.0
 44
0.0
 45
0.0
 46
0.0
 47
0.0
 48
0.0
 49
0.0
140
0.0
141
0.0
142
1.0
143
1.0
 70
   688
 72
     1
 73
     0
 74
     5
  7

 75
    16
147
1.0
148
0.0
149
0.0
100
AcDbLayout
  1
Layout2
 70
     1
 71
     2
 10
0.0
 20
0.0
 11
0.0
 21
0.0
 12
0.0
 22
0.0
 32
0.0
 14
0.0
 24
0.0
 34
0.0
 15
0.0
 25
0.0
 35
0.0
146
0.0
 13
0.0
 23
0.0
 33
0.0
 16
1.0
 26
0.0
 36
0.0
 17
0.0
 27
1.0
 37
0.0
 76
     0
330
23
  0
LAYOUT
  5
22
102
{ACAD_REACTORS
330
1A
102
}
330
1A
100
AcDbPlotSettings
  1

  2
none_device
  4
Letter_(8.50_x_11.00_Inches)
  6

 40
6.35
 41
6.35
 42
6.35000508
 43
6.35000508
 44
215.9
 45
279.4
 46
0.0
 47
0.0
 48
0.0
 49
0.0
140
0.0
141
0.0
142
1.0
143
1.0
 70
  1712
 72
     1
 73
     0
 74
     0
  7

 75
     0
147
1.0
148
0.0
149
0.0
100
AcDbLayout
  1
Model
 70
     1
 71
     0
 10
0.0
 20
0.0
 11
2100.0
 21
1485.0
 12
0.0
 22
0.0
 32
0.0
 14
0.0
 24
0.0
 34
0.0
 15
2100.0
 25
1485.0
 35
0.0
146
0.0
 13
0.0
 23
0.0
 33
0.0
 16
1.0
 26
0.0
 36
0.0
 17
0.0
 27
1.0
 37
0.0
 76
     0
330
1F
331
29
  0
MLINESTYLE
  5
18
102
{ACAD_REACTORS
330
17
102
}
330
17
100
AcDbMlineStyle
  2
Standard
 70
     0
  3

 62
   256
 51
90.0
 52
90.0
 71
     2
 49
0.5
 62
   256
  6
BYLAYER
 49
-0.5
 62
   256
  6
BYLAYER
  0
ACDBPLACEHOLDER
  5
F
102
{ACAD_REACTORS
330
E
102
}
330
E
  0
SCALE
  5
48
102
{ACAD_REACTORS
330
47
102
}
330
47
100
AcDbScale
 70
     0
300
1:1
140
1.0
141
1.0
290
     1
  0
SCALE
  5
49
102
{ACAD_REACTORS
330
47
102
}
330
47
100
AcDbScale
 70
     0
300
1:2
140
1.0
141
2.0
290
     0
  0
SCALE
  5
4A
102
{ACAD_REACTORS
330
47
102
}
330
47
100
AcDbScale
 70
     0
300
1:4
140
1.0
141
4.0
290
     0
  0
SCALE
  5
4B
102
{ACAD_REACTORS
330
47
102
}
330
47
100
AcDbScale
 70
     0
300
1:5
140
1.0
141
5.0
290
     0
  0
SCALE
  5
4C
102
{ACAD_REACTORS
330
47
102
}
330
47
100
AcDbScale
 70
     0
300
1:8
140
1.0
141
8.0
290
     0
  0
SCALE
  5
4D
102
{ACAD_REACTORS
330
47
102
}
330
47
100
AcDbScale
 70
     0
300
1:10
140
1.0
141
10.0
290
     0
  0
SCALE
  5
4E
102
{ACAD_REACTORS
330
47
102
}
330
47
100
AcDbScale
 70
     0
300
1:16
140
1.0
141
16.0
290
     0
  0
SCALE
  5
4F
102
{ACAD_REACTORS
330
47
102
}
330
47
100
AcDbScale
 70
     0
300
1:20
140
1.0
141
20.0
290
     0
  0
SCALE
  5
50
102
{ACAD_REACTORS
330
47
102
}
330
47
100
AcDbScale
 70
     0
300
1:30
140
1.0
141
30.0
290
     0
  0
SCALE
  5
51
102
{ACAD_REACTORS
330
47
102
}
330
47
100
AcDbScale
 70
     0
300
1:40
140
1.0
141
40.0
290
     0
  0
SCALE
  5
52
102
{ACAD_REACTORS
330
47
102
}
330
47
100
AcDbScale
 70
     0
300
1:50
140
1.0
141
50.0
290
     0
  0
SCALE
  5
53
102
{ACAD_REACTORS
330
47
102
}
330
47
100
AcDbScale
 70
     0
300
1:100
140
1.0
141
100.0
290
     0
  0
SCALE
  5
54
102
{ACAD_REACTORS
330
47
102
}
330
47
100
AcDbScale
 70
     0
300
2:1
140
2.0
141
1.0
290
     0
  0
SCALE
  5
55
102
{ACAD_REACTORS
330
47
102
}
330
47
100
AcDbScale
 70
     0
300
4:1
140
4.0
141
1.0
290
     0
  0
SCALE
  5
56
102
{ACAD_REACTORS
330
47
102
}
330
47
100
AcDbScale
 70
     0
300
8:1
140
8.0
141
1.0
290
     0
  0
SCALE
  5
57
102
{ACAD_REACTORS
330
47
102
}
330
47
100
AcDbScale
 70
     0
300
10:1
140
10.0
141
1.0
290
     0
  0
SCALE
  5
58
102
{ACAD_REACTORS
330
47
102
}
330
47
100
AcDbScale
 70
     0
300
100:1
140
100.0
141
1.0
290
     0
  0
SCALE
  5
59
102
{ACAD_REACTORS
330
47
102
}
330
47
100
AcDbScale
 70
     0
300
1/128" = 1'-0"
140
0.0078125
141
12.0
290
     0
  0
SCALE
  5
5A
102
{ACAD_REACTORS
330
47
102
}
330
47
100
AcDbScale
 70
     0
300
1/64" = 1'-0"
140
0.015625
141
12.0
290
     0
  0
SCALE
  5
5B
102
{ACAD_REACTORS
330
47
102
}
330
47
100
AcDbScale
 70
     0
300
1/32" = 1'-0"
140
0.03125
141
12.0
290
     0
  0
SCALE
  5
5C
102
{ACAD_REACTORS
330
47
102
}
330
47
100
AcDbScale
 70
     0
300
1/16" = 1'-0"
140
0.0625
141
12.0
290
     0
  0
SCALE
  5
5D
102
{ACAD_REACTORS
330
47
102
}
330
47
100
AcDbScale
 70
     0
300
3/32" = 1'-0"
140
0.09375
141
12.0
290
     0
  0
SCALE
  5
5E
102
{ACAD_REACTORS
330
47
102
}
330
47
100
AcDbScale
 70
     0
300
1/8" = 1'-0"
140
0.125
141
12.0
290
     0
  0
SCALE
  5
5F
102
{ACAD_REACTORS
330
47
102
}
330
47
100
AcDbScale
 70
     0
300
3/16" = 1'-0"
140
0.1875
141
12.0
290
     0
  0
SCALE
  5
60
102
{ACAD_REACTORS
330
47
102
}
330
47
100
AcDbScale
 70
     0
300
1/4" = 1'-0"
140
0.25
141
12.0
290
     0
  0
SCALE
  5
61
102
{ACAD_REACTORS
330
47
102
}
330
47
100
AcDbScale
 70
     0
300
3/8" = 1'-0"
140
0.375
141
12.0
290
     0
  0
SCALE
  5
62
102
{ACAD_REACTORS
330
47
102
}
330
47
100
AcDbScale
 70
     0
300
1/2" = 1'-0"
140
0.5
141
12.0
290
     0
  0
SCALE
  5
63
102
{ACAD_REACTORS
330
47
102
}
330
47
100
AcDbScale
 70
     0
300
3/4" = 1'-0"
140
0.75
141
12.0
290
     0
  0
SCALE
  5
64
102
{ACAD_REACTORS
330
47
102
}
330
47
100
AcDbScale
 70
     0
300
1" = 1'-0"
140
1.0
141
12.0
290
     0
  0
SCALE
  5
65
102
{ACAD_REACTORS
330
47
102
}
330
47
100
AcDbScale
 70
     0
300
1-1/2" = 1'-0"
140
1.5
141
12.0
290
     0
  0
SCALE
  5
66
102
{ACAD_REACTORS
330
47
102
}
330
47
100
AcDbScale
 70
     0
300
3" = 1'-0"
140
3.0
141
12.0
290
     0
  0
SCALE
  5
67
102
{ACAD_REACTORS
330
47
102
}
330
47
100
AcDbScale
 70
     0
300
6" = 1'-0"
140
6.0
141
12.0
290
     0
  0
SCALE
  5
68
102
{ACAD_REACTORS
330
47
102
}
330
47
100
AcDbScale
 70
     0
300
1'-0" = 1'-0"
140
12.0
141
12.0
290
     0
  0
ENDSEC
  0
EOF
