  0
SECTION
  2
HEADER
  9
$ACADVER
  1
AC1015
  9
$ACADMAINTVER
 70
     6
  9
$DWGCODEPAGE
  3
ANSI_1252
  9
$INSBASE
 10
0.0
 20
0.0
 30
0.0
  9
$EXTMIN
 10
0.0
 20
0.0
 30
0.0
  9
$EXTMAX
 10
2100.0
 20
1485.0
 30
0.0
  9
$LIMMIN
 10
0.0
 20
0.0
  9
$LIMMAX
 10
2100.0
 20
1485.0
  9
$ORTHOMODE
 70
     0
  9
$REGENMODE
 70
     1
  9
$FILLMODE
 70
     1
  9
$QTEXTMODE
 70
     0
  9
$MIRRTEXT
 70
     1
  9
$LTSCALE
 40
5.0
  9
$ATTMODE
 70
     1
  9
$TEXTSIZE
 40
12.5
  9
$TRACEWID
 40
1.0
  9
$TEXTSTYLE
  7
Standard
  9
$CLAYER
  8
0
  9
$CELTYPE
  6
ByLayer
  9
$CECOLOR
 62
   256
  9
$CELTSCALE
 40
1.0
  9
$DISPSILH
 70
     0
  9
$DIMSCALE
 40
1.0
  9
$DIMASZ
 40
12.5
  9
$DIMEXO
 40
0.0
  9
$DIMDLI
 40
3.75
  9
$DIMRND
 40
0.0
  9
$DIMDLE
 40
0.0
  9
$DIMEXE
 40
5.0
  9
$DIMTP
 40
0.0
  9
$DIMTM
 40
0.0
  9
$DIMTXT
 40
12.5
  9
$DIMCEN
 40
2.5
  9
$DIMTSZ
 40
0.0
  9
$DIMTOL
 70
     0
  9
$DIMLIM
 70
     0
  9
$DIMTIH
 70
     1
  9
$DIMTOH
 70
     1
  9
$DIMSE1
 70
     0
  9
$DIMSE2
 70
     0
  9
$DIMTAD
 70
     1
  9
$DIMZIN
 70
     0
  9
$DIMBLK
  1

  9
$DIMASO
 70
     1
  9
$DIMSHO
 70
     1
  9
$DIMPOST
  1

  9
$DIMAPOST
  1

  9
$DIMALT
 70
     0
  9
$DIMALTD
 70
     3
  9
$DIMALTF
 40
0.0393700787
  9
$DIMLFAC
 40
1.0
  9
$DIMTOFL
 70
     1
  9
$DIMTVP
 40
0.0
  9
$DIMTIX
 70
     0
  9
$DIMSOXD
 70
     0
  9
$DIMSAH
 70
     0
  9
$DIMBLK1
  1

  9
$DIMBLK2
  1

  9
$DIMSTYLE
  2
ISO-25
  9
$DIMCLRD
 70
     0
  9
$DIMCLRE
 70
     0
  9
$DIMCLRT
 70
     0
  9
$DIMTFAC
 40
1.0
  9
$DIMGAP
 40
7.62
  9
$DIMJUST
 70
     0
  9
$DIMSD1
 70
     0
  9
$DIMSD2
 70
     0
  9
$DIMTOLJ
 70
     0
  9
$DIMTZIN
 70
     0
  9
$DIMALTZ
 70
     0
  9
$DIMALTTZ
 70
     0
  9
$DIMUPT
 70
     0
  9
$DIMDEC
 70
     2
  9
$DIMTDEC
 70
     2
  9
$DIMALTU
 70
     2
  9
$DIMALTTD
 70
     3
  9
$DIMTXSTY
  7
Standard
  9
$DIMAUNIT
 70
     0
  9
$DIMADEC
 70
     2
  9
$DIMALTRND
 40
0.0
  9
$DIMAZIN
 70
     0
  9
$DIMDSEP
 70
    44
  9
$DIMATFIT
 70
     3
  9
$DIMFRAC
 70
     0
  9
$DIMLDRBLK
  1

  9
$DIMLUNIT
 70
     2
  9
$DIMLWD
 70
    -2
  9
$DIMLWE
 70
    -2
  9
$DIMTMOVE
 70
     0
  9
$LUNITS
 70
     2
  9
$LUPREC
 70
     1
  9
$SKETCHINC
 40
1.0
  9
$FILLETRAD
 40
10.0
  9
$AUNITS
 70
     0
  9
$AUPREC
 70
     2
  9
$MENU
  1
.
  9
$ELEVATION
 40
0.0
  9
$PELEVATION
 40
0.0
  9
$THICKNESS
 40
0.0
  9
$LIMCHECK
 70
     0
  9
$CHAMFERA
 40
0.0
  9
$CHAMFERB
 40
0.0
  9
$CHAMFERC
 40
0.0
  9
$CHAMFERD
 40
0.0
  9
$SKPOLY
 70
     0
  9
$TDCREATE
 40
2458933.522094213
  9
$TDUCREATE
 40
2458933.292927546
  9
$TDUPDATE
 40
2458933.522096933
  9
$TDUUPDATE
 40
2458933.292930266
  9
$TDINDWG
 40
0.0000000116
  9
$TDUSRTIMER
 40
0.0000000116
  9
$USRTIMER
 70
     1
  9
$ANGBASE
 50
0.0
  9
$ANGDIR
 70
     0
  9
$PDMODE
 70
     0
  9
$PDSIZE
 40
-1.0
  9
$PLINEWID
 40
0.0
  9
$SPLFRAME
 70
     0
  9
$SPLINETYPE
 70
     6
  9
$SPLINESEGS
 70
     8
  9
$HANDSEED
  5
3B4
  9
$SURFTAB1
 70
     6
  9
$SURFTAB2
 70
     6
  9
$SURFTYPE
 70
     6
  9
$SURFU
 70
     6
  9
$SURFV
 70
     6
  9
$UCSBASE
  2

  9
$UCSNAME
  2

  9
$UCSORG
 10
0.0
 20
0.0
 30
0.0
  9
$UCSXDIR
 10
1.0
 20
0.0
 30
0.0
  9
$UCSYDIR
 10
0.0
 20
1.0
 30
0.0
  9
$UCSORTHOREF
  2

  9
$UCSORTHOVIEW
 70
     0
  9
$UCSORGTOP
 10
0.0
 20
0.0
 30
0.0
  9
$UCSORGBOTTOM
 10
0.0
 20
0.0
 30
0.0
  9
$UCSORGLEFT
 10
0.0
 20
0.0
 30
0.0
  9
$UCSORGRIGHT
 10
0.0
 20
0.0
 30
0.0
  9
$UCSORGFRONT
 10
0.0
 20
0.0
 30
0.0
  9
$UCSORGBACK
 10
0.0
 20
0.0
 30
0.0
  9
$PUCSBASE
  2

  9
$PUCSNAME
  2

  9
$PUCSORG
 10
0.0
 20
0.0
 30
0.0
  9
$PUCSXDIR
 10
1.0
 20
0.0
 30
0.0
  9
$PUCSYDIR
 10
0.0
 20
1.0
 30
0.0
  9
$PUCSORTHOREF
  2

  9
$PUCSORTHOVIEW
 70
     0
  9
$PUCSORGTOP
 10
0.0
 20
0.0
 30
0.0
  9
$PUCSORGBOTTOM
 10
0.0
 20
0.0
 30
0.0
  9
$PUCSORGLEFT
 10
0.0
 20
0.0
 30
0.0
  9
$PUCSORGRIGHT
 10
0.0
 20
0.0
 30
0.0
  9
$PUCSORGFRONT
 10
0.0
 20
0.0
 30
0.0
  9
$PUCSORGBACK
 10
0.0
 20
0.0
 30
0.0
  9
$USERI1
 70
     0
  9
$USERI2
 70
     0
  9
$USERI3
 70
     0
  9
$USERI4
 70
     0
  9
$USERI5
 70
     0
  9
$USERR1
 40
0.0
  9
$USERR2
 40
0.0
  9
$USERR3
 40
0.0
  9
$USERR4
 40
0.0
  9
$USERR5
 40
0.0
  9
$WORLDVIEW
 70
     1
  9
$SHADEDGE
 70
     3
  9
$SHADEDIF
 70
    70
  9
$TILEMODE
 70
     1
  9
$MAXACTVP
 70
    64
  9
$PINSBASE
 10
0.0
 20
0.0
 30
0.0
  9
$PLIMCHECK
 70
     0
  9
$PEXTMIN
 10
1.0000000000E+20
 20
1.0000000000E+20
 30
1.0000000000E+20
  9
$PEXTMAX
 10
-1.0000000000E+20
 20
-1.0000000000E+20
 30
-1.0000000000E+20
  9
$PLIMMIN
 10
0.0
 20
0.0
  9
$PLIMMAX
 10
420.0
 20
297.0
  9
$UNITMODE
 70
     0
  9
$VISRETAIN
 70
     1
  9
$PLINEGEN
 70
     0
  9
$PSLTSCALE
 70
     1
  9
$TREEDEPTH
 70
  3020
  9
$CMLSTYLE
  2
Standard
  9
$CMLJUST
 70
     0
  9
$CMLSCALE
 40
20.0
  9
$PROXYGRAPHICS
 70
     1
  9
$MEASUREMENT
 70
     1
  9
$CELWEIGHT
370
    -1
  9
$ENDCAPS
280
     0
  9
$JOINSTYLE
280
     0
  9
$LWDISPLAY
290
     1
  9
$INSUNITS
 70
     4
  9
$HYPERLINKBASE
  1

  9
$STYLESHEET
  1

  9
$XEDIT
290
     1
  9
$CEPSNTYPE
380
     0
  9
$PSTYLEMODE
290
     1
  9
$FINGERPRINTGUID
  2
{be4da2fc-8748-49e9-ac1f-0bd3bddfcd31}
  9
$VERSIONGUID
  2
{FAEB1C32-E019-11D5-929B-00C0DF256EC4}
  9
$EXTNAMES
290
     1
  9
$PSVPSCALE
 40
0.0
  9
$OLESTARTUP
290
     0
  0
ENDSEC
  0
SECTION
  2
CLASSES
  0
CLASS
  1
ACDBDICTIONARYWDFLT
  2
AcDbDictionaryWithDefault
  3
ObjectDBX Classes
 90
        0
280
     0
281
     0
  0
CLASS
  1
VISUALSTYLE
  2
AcDbVisualStyle
  3
ObjectDBX Classes
 90
     4095
280
     0
281
     0
  0
CLASS
  1
MATERIAL
  2
AcDbMaterial
  3
ObjectDBX Classes
 90
     1153
280
     0
281
     0
  0
CLASS
  1
SCALE
  2
AcDbScale
  3
ObjectDBX Classes
 90
     1153
280
     0
281
     0
  0
CLASS
  1
TABLESTYLE
  2
AcDbTableStyle
  3
ObjectDBX Classes
 90
     4095
280
     0
281
     0
  0
CLASS
  1
MLEADERSTYLE
  2
AcDbMLeaderStyle
  3
ACDB_MLEADERSTYLE_CLASS
 90
     4095
280
     0
281
     0
  0
CLASS
  1
SUN
  2
AcDbSun
  3
SCENEOE
 90
     1153
280
     0
281
     0
  0
CLASS
  1
ACDBPLACEHOLDER
  2
AcDbPlaceHolder
  3
ObjectDBX Classes
 90
        0
280
     0
281
     0
  0
CLASS
  1
LAYOUT
  2
AcDbLayout
  3
ObjectDBX Classes
 90
        0
280
     0
281
     0
  0
ENDSEC
  0
SECTION
  2
TABLES
  0
TABLE
  2
VPORT
  5
8
330
0
100
AcDbSymbolTable
 70
     1
  0
VPORT
  5
29
330
8
100
AcDbSymbolTableRecord
100
AcDbViewportTableRecord
  2
*Active
 70
     0
 10
0.0
 20
0.0
 11
1.0
 21
1.0
 12
1050.0
 22
742.5
 13
0.0
 23
0.0
 14
10.0
 24
10.0
 15
10.0
 25
10.0
 16
0.0
 26
0.0
 36
1.0
 17
0.0
 27
0.0
 37
0.0
 40
1485.0
 41
1.4141414141
 42
50.0
 43
0.0
 44
0.0
 50
0.0
 51
0.0
 71
     0
 72
  2000
 73
     1
 74
     3
 75
     0
 76
     0
 77
     0
 78
     0
281
     0
 65
     1
110
0.0
120
0.0
130
0.0
111
1.0
121
0.0
131
0.0
112
0.0
122
1.0
132
0.0
 79
     0
146
0.0
  0
ENDTAB
  0
TABLE
  2
LTYPE
  5
5
330
0
100
AcDbSymbolTable
 70
     6
  0
LTYPE
  5
14
330
5
100
AcDbSymbolTableRecord
100
AcDbLinetypeTableRecord
  2
ByBlock
 70
     0
  3

 72
    65
 73
     0
 40
0.0
  0
LTYPE
  5
15
330
5
100
AcDbSymbolTableRecord
100
AcDbLinetypeTableRecord
  2
ByLayer
 70
     0
  3

 72
    65
 73
     0
 40
0.0
  0
LTYPE
  5
16
330
5
100
AcDbSymbolTableRecord
100
AcDbLinetypeTableRecord
  2
Continuous
 70
     0
  3
Solid line
 72
    65
 73
     0
 40
0.0
  0
LTYPE
  5
6E
330
5
100
AcDbSymbolTableRecord
100
AcDbLinetypeTableRecord
  2
HIDDEN
 70
     0
  3
Hidden __ __ __ __ __ __ __ __ __ __ __ __ __ __
 72
    65
 73
     2
 40
1.905
 49
1.27
 74
     0
 49
-0.635
 74
     0
  0
LTYPE
  5
6F
330
5
100
AcDbSymbolTableRecord
100
AcDbLinetypeTableRecord
  2
PHANTOM
 70
     0
  3
Phantom ______  __  __  ______  __  __  ______
 72
    65
 73
     6
 40
12.7
 49
6.35
 74
     0
 49
-1.27
 74
     0
 49
1.27
 74
     0
 49
-1.27
 74
     0
 49
1.27
 74
     0
 49
-1.27
 74
     0
  0
LTYPE
  5
70
330
5
100
AcDbSymbolTableRecord
100
AcDbLinetypeTableRecord
  2
CENTER
 70
     0
  3
Center ____ _ ____ _ ____ _ ____ _ ____ _ ____
 72
    65
 73
     4
 40
10.16
 49
6.35
 74
     0
 49
-1.27
 74
     0
 49
1.27
 74
     0
 49
-1.27
 74
     0
  0
LTYPE
  5
71
330
5
100
AcDbSymbolTableRecord
100
AcDbLinetypeTableRecord
  2
CENTERX2
 70
     0
  3
Center (2x) ________  __  ________  __  _____
 72
    65
 73
     4
 40
20.32
 49
12.7
 74
     0
 49
-2.54
 74
     0
 49
2.54
 74
     0
 49
-2.54
 74
     0
  0
LTYPE
  5
72
330
5
100
AcDbSymbolTableRecord
100
AcDbLinetypeTableRecord
  2
DOT2
 70
     0
  3
Dot (.5x) ........................................
 72
    65
 73
     2
 40
0.635
 49
0.0
 74
     0
 49
-0.635
 74
     0
  0
ENDTAB
  0
TABLE
  2
LAYER
  5
2
330
0
100
AcDbSymbolTable
 70
    10
  0
LAYER
  5
10
330
2
100
AcDbSymbolTableRecord
100
AcDbLayerTableRecord
  2
0
 70
     0
 62
     7
  6
Continuous
370
    -3
390
F
  0
LAYER
  5
73
330
2
100
AcDbSymbolTableRecord
100
AcDbLayerTableRecord
  2
DIMENSION
 70
     0
 62
     7
  6
Continuous
370
    -3
390
F
  0
LAYER
  5
74
330
2
100
AcDbSymbolTableRecord
100
AcDbLayerTableRecord
  2
NOTES
 70
     0
 62
     7
  6
Continuous
370
    -3
390
F
  0
LAYER
  5
75
330
2
100
AcDbSymbolTableRecord
100
AcDbLayerTableRecord
  2
TABLES
 70
     0
 62
     7
  6
Continuous
370
    -3
390
F
  0
LAYER
  5
76
330
2
100
AcDbSymbolTableRecord
100
AcDbLayerTableRecord
  2
INVISIBLE
 70
     0
 62
    -7
  6
Continuous
290
     0
370
    -3
390
F
  0
LAYER
  5
77
330
2
100
AcDbSymbolTableRecord
100
AcDbLayerTableRecord
  2
WEP
 70
     0
 62
  -150
  6
Continuous
290
     0
370
    -3
390
F
  0
LAYER
  5
78
330
2
100
AcDbSymbolTableRecord
100
AcDbLayerTableRecord
  2
EMP
 70
     0
 62
     1
  6
Continuous
370
    -3
390
F
  0
LAYER
  5
79
330
2
100
AcDbSymbolTableRecord
100
AcDbLayerTableRecord
  2
MARKETING_DRW
 70
     0
 62
    -7
  6
Continuous
290
     0
370
    -3
390
F
  0
LAYER
  5
7A
330
2
100
AcDbSymbolTableRecord
100
AcDbLayerTableRecord
  2
SINGLE_ARTICLE_DRW
 70
     0
 62
     7
  6
Continuous
370
    -3
390
F
  0
LAYER
  5
7B
330
2
100
AcDbSymbolTableRecord
100
AcDbLayerTableRecord
  2
TABLE_DRW
 70
     0
 62
    -7
  6
Continuous
290
     0
370
    -3
390
F
  0
ENDTAB
  0
TABLE
  2
STYLE
  5
3
330
0
100
AcDbSymbolTable
 70
     2
  0
STYLE
  5
11
330
3
100
AcDbSymbolTableRecord
100
AcDbTextStyleTableRecord
  2
Standard
 70
     0
 40
0.0
 41
1.0
 50
0.0
 71
     0
 42
12.5
  3
txt
  4

  0
STYLE
  5
B5
330
3
100
AcDbSymbolTableRecord
100
AcDbTextStyleTableRecord
  2
SLDTEXTSTYLE0
 70
     0
 40
0.0
 41
0.605
 50
0.0
 71
     0
 42
12.5
  3
TXT
  4

  0
ENDTAB
  0
TABLE
  2
VIEW
  5
6
330
0
100
AcDbSymbolTable
 70
     0
  0
ENDTAB
  0
TABLE
  2
UCS
  5
7
330
0
100
AcDbSymbolTable
 70
     0
  0
ENDTAB
  0
TABLE
  2
APPID
  5
9
330
0
100
AcDbSymbolTable
 70
     1
  0
APPID
  5
12
330
9
100
AcDbSymbolTableRecord
100
AcDbRegAppTableRecord
  2
ACAD
 70
     0
  0
ENDTAB
  0
TABLE
  2
DIMSTYLE
  5
A
330
0
100
AcDbSymbolTable
 70
     1
100
AcDbDimStyleTable
  0
DIMSTYLE
105
27
330
A
100
AcDbSymbolTableRecord
100
AcDbDimStyleTableRecord
  2
ISO-25
 70
     0
 41
2.5
 42
0.625
 43
3.75
 44
1.25
 73
     0
 74
     0
 77
     1
 78
     8
140
2.5
141
2.5
143
0.0393700787
147
0.625
171
     3
172
     1
178
     0
271
     2
272
     2
274
     3
278
    44
283
     0
284
     8
340
11
  0
ENDTAB
  0
TABLE
  2
BLOCK_RECORD
  5
1
330
0
100
AcDbSymbolTable
 70
     3
  0
BLOCK_RECORD
  5
1F
330
1
100
AcDbSymbolTableRecord
100
AcDbBlockTableRecord
  2
*Model_Space
340
22
  0
BLOCK_RECORD
  5
1B
330
1
100
AcDbSymbolTableRecord
100
AcDbBlockTableRecord
  2
*Paper_Space
340
1E
  0
BLOCK_RECORD
  5
23
330
1
100
AcDbSymbolTableRecord
100
AcDbBlockTableRecord
  2
*Paper_Space0
340
26
  0
BLOCK_RECORD
  5
BF
330
1
100
AcDbSymbolTableRecord
100
AcDbBlockTableRecord
  2
SW_NOTE_0
340
0
102
{BLKREFS
331
C5
102
}
  0
BLOCK_RECORD
  5
E8
330
1
100
AcDbSymbolTableRecord
100
AcDbBlockTableRecord
  2
SW_NOTE_0_1
340
0
102
{BLKREFS
331
EE
102
}
  0
ENDTAB
  0
ENDSEC
  0
SECTION
  2
BLOCKS
  0
BLOCK
  5
20
330
1F
100
AcDbEntity
  8
0
100
AcDbBlockBegin
  2
*Model_Space
 70
     0
 10
0.0
 20
0.0
 30
0.0
  3
*Model_Space
  1

  0
ENDBLK
  5
21
330
1F
100
AcDbEntity
  8
0
100
AcDbBlockEnd
  0
BLOCK
  5
1C
330
1B
100
AcDbEntity
 67
     1
  8
0
100
AcDbBlockBegin
  2
*Paper_Space
 70
     0
 10
0.0
 20
0.0
 30
0.0
  3
*Paper_Space
  1

  0
ENDBLK
  5
1D
330
1B
100
AcDbEntity
 67
     1
  8
0
100
AcDbBlockEnd
  0
BLOCK
  5
24
330
23
100
AcDbEntity
  8
0
100
AcDbBlockBegin
  2
*Paper_Space0
 70
     0
 10
0.0
 20
0.0
 30
0.0
  3
*Paper_Space0
  1

  0
ENDBLK
  5
25
330
23
100
AcDbEntity
  8
0
100
AcDbBlockEnd
  0
BLOCK
  5
C0
330
BF
100
AcDbEntity
  8
0
100
AcDbBlockBegin
  2
SW_NOTE_0
 70
     0
 10
0.0
 20
0.0
 30
0.0
  3
SW_NOTE_0
  1

  0
MTEXT
  5
C2
330
BF
100
AcDbEntity
  8
TABLE_DRW
 62
     0
100
AcDbMText
 10
0.0
 20
11.6016096579
 30
0.0
 40
9.0
 41
0.0
 71
     1
 72
     1
  1
The reproduction, distribution and utilization of this document as well as the communication of its contents to
  7
SLDTEXTSTYLE0
 73
     1
 44
1.0
  0
MTEXT
  5
C3
330
BF
100
AcDbEntity
  8
TABLE_DRW
 62
     0
100
AcDbMText
 10
0.0
 20
0.0016098055
 30
0.0
 40
9.0
 41
0.0
 71
     1
 72
     1
  1
others without express authorization is prohibited. Offenders will be held liable for the payment of damages.
  7
SLDTEXTSTYLE0
 73
     1
 44
1.0
  0
MTEXT
  5
C4
330
BF
100
AcDbEntity
  8
TABLE_DRW
 62
     0
100
AcDbMText
 10
0.0
 20
-11.598390047
 30
0.0
 40
9.0
 41
0.0
 71
     1
 72
     1
  1
All rights reserved in the event of the grant of a patent, utility model or design. Observe copyright by ISO 16016
  7
SLDTEXTSTYLE0
 73
     1
 44
1.0
  0
ENDBLK
  5
C1
330
BF
100
AcDbEntity
  8
0
100
AcDbBlockEnd
  0
BLOCK
  5
E9
330
E8
100
AcDbEntity
  8
0
100
AcDbBlockBegin
  2
SW_NOTE_0_1
 70
     0
 10
0.0
 20
0.0
 30
0.0
  3
SW_NOTE_0_1
  1

  0
MTEXT
  5
EB
330
E8
100
AcDbEntity
  8
MARKETING_DRW
 62
     0
100
AcDbMText
 10
0.0
 20
11.6016096579
 30
0.0
 40
9.0
 41
0.0
 71
     1
 72
     1
  1
The reproduction, distribution and utilization of this document as well as the communication of its contents to
  7
SLDTEXTSTYLE0
 73
     1
 44
1.0
  0
MTEXT
  5
EC
330
E8
100
AcDbEntity
  8
MARKETING_DRW
 62
     0
100
AcDbMText
 10
0.0
 20
-0.0233903849
 30
0.0
 40
9.0
 41
0.0
 71
     1
 72
     1
  1
others without express authorization is prohibited. Offenders will be held liable for the payment of damages.
  7
SLDTEXTSTYLE0
 73
     1
 44
1.0
  0
MTEXT
  5
ED
330
E8
100
AcDbEntity
  8
MARKETING_DRW
 62
     0
100
AcDbMText
 10
0.0
 20
-11.6483904277
 30
0.0
 40
9.0
 41
0.0
 71
     1
 72
     1
  1
All rights reserved in the event of the grant of a patent, utility model or design. Observe copyright by ISO 16016
  7
SLDTEXTSTYLE0
 73
     1
 44
1.0
  0
ENDBLK
  5
EA
330
E8
100
AcDbEntity
  8
0
100
AcDbBlockEnd
  0
ENDSEC
  0
SECTION
  2
ENTITIES
  0
LINE
  5
7C
330
1F
100
AcDbEntity
  8
TABLE_DRW
  6
CENTERX2
 62
     7
100
AcDbLine
 10
1955.0
 20
200.0
 30
0.0
 11
1980.0
 21
200.0
 31
0.0
  0
LINE
  5
7D
330
1F
100
AcDbEntity
  8
TABLE_DRW
  6
CENTERX2
 62
     7
100
AcDbLine
 10
1967.5
 20
212.5
 30
0.0
 11
1967.5
 21
187.5
 31
0.0
  0
LINE
  5
7E
330
1F
100
AcDbEntity
  8
TABLE_DRW
  6
CENTERX2
 62
     7
100
AcDbLine
 10
1915.0
 20
200.0
 30
0.0
 11
1950.0
 21
200.0
 31
0.0
  0
LINE
  5
7F
330
1F
100
AcDbEntity
  8
TABLE_DRW
 62
     7
100
AcDbLine
 10
1920.0
 20
194.95
 30
0.0
 11
1945.0
 21
190.0
 31
0.0
  0
LINE
  5
80
330
1F
100
AcDbEntity
  8
TABLE_DRW
 62
     7
100
AcDbLine
 10
1920.0
 20
205.05
 30
0.0
 11
1920.0
 21
194.95
 31
0.0
  0
LINE
  5
81
330
1F
100
AcDbEntity
  8
TABLE_DRW
 62
     7
100
AcDbLine
 10
1945.0
 20
210.0
 30
0.0
 11
1920.0
 21
205.05
 31
0.0
  0
LINE
  5
82
330
1F
100
AcDbEntity
  8
TABLE_DRW
 62
     7
100
AcDbLine
 10
1945.0
 20
190.0
 30
0.0
 11
1945.0
 21
210.0
 31
0.0
  0
LINE
  5
83
330
1F
100
AcDbEntity
  8
TABLE_DRW
 62
     7
100
AcDbLine
 10
2050.0
 20
50.0
 30
0.0
 11
2050.0
 21
340.0
 31
0.0
  0
LINE
  5
84
330
1F
100
AcDbEntity
  8
TABLE_DRW
 62
     7
100
AcDbLine
 10
1150.0
 20
340.0
 30
0.0
 11
1150.0
 21
50.0
 31
0.0
  0
LINE
  5
85
330
1F
100
AcDbEntity
  8
TABLE_DRW
 62
     7
100
AcDbLine
 10
1700.0
 20
95.0
 30
0.0
 11
1700.0
 21
50.0
 31
0.0
  0
LINE
  5
86
330
1F
100
AcDbEntity
  8
TABLE_DRW
 62
     7
100
AcDbLine
 10
1850.0
 20
50.0
 30
0.0
 11
1850.0
 21
95.0
 31
0.0
  0
LINE
  5
87
330
1F
100
AcDbEntity
  8
TABLE_DRW
 62
     7
100
AcDbLine
 10
2000.0
 20
95.0
 30
0.0
 11
2000.0
 21
50.0
 31
0.0
  0
LINE
  5
88
330
1F
100
AcDbEntity
  8
TABLE_DRW
 62
     7
100
AcDbLine
 10
1900.0
 20
320.0
 30
0.0
 11
1900.0
 21
185.0
 31
0.0
  0
LINE
  5
89
330
1F
100
AcDbEntity
  8
TABLE_DRW
 62
     7
100
AcDbLine
 10
2050.0
 20
320.0
 30
0.0
 11
1150.0
 21
320.0
 31
0.0
  0
LINE
  5
8A
330
1F
100
AcDbEntity
  8
TABLE_DRW
 62
     7
100
AcDbLine
 10
1800.0
 20
95.0
 30
0.0
 11
1800.0
 21
50.0
 31
0.0
  0
LINE
  5
8B
330
1F
100
AcDbEntity
  8
TABLE_DRW
 62
     7
100
AcDbLine
 10
2050.0
 20
275.0
 30
0.0
 11
1400.0
 21
275.0
 31
0.0
  0
LINE
  5
8C
330
1F
100
AcDbEntity
  8
TABLE_DRW
 62
     7
100
AcDbLine
 10
1650.0
 20
230.0
 30
0.0
 11
1650.0
 21
185.0
 31
0.0
  0
LINE
  5
8D
330
1F
100
AcDbEntity
  8
TABLE_DRW
 62
     7
100
AcDbLine
 10
2050.0
 20
230.0
 30
0.0
 11
1400.0
 21
230.0
 31
0.0
  0
LINE
  5
8E
330
1F
100
AcDbEntity
  8
TABLE_DRW
 62
     7
100
AcDbLine
 10
1400.0
 20
320.0
 30
0.0
 11
1400.0
 21
185.0
 31
0.0
  0
LINE
  5
8F
330
1F
100
AcDbEntity
  8
TABLE_DRW
 62
     7
100
AcDbLine
 10
2000.0
 20
230.0
 30
0.0
 11
2000.0
 21
185.0
 31
0.0
  0
LINE
  5
90
330
1F
100
AcDbEntity
  8
TABLE_DRW
 62
     7
100
AcDbLine
 10
2050.0
 20
95.0
 30
0.0
 11
1150.0
 21
95.0
 31
0.0
  0
LINE
  5
91
330
1F
100
AcDbEntity
  8
TABLE_DRW
 62
     7
100
AcDbLine
 10
1650.0
 20
275.0
 30
0.0
 11
1650.0
 21
320.0
 31
0.0
  0
LINE
  5
92
330
1F
100
AcDbEntity
  8
TABLE_DRW
 62
     7
100
AcDbLine
 10
1150.0
 20
340.0
 30
0.0
 11
2050.0
 21
340.0
 31
0.0
  0
LINE
  5
93
330
1F
100
AcDbEntity
  8
TABLE_DRW
 62
     7
100
AcDbLine
 10
1150.0
 20
185.0
 30
0.0
 11
2050.0
 21
185.0
 31
0.0
  0
LINE
  5
94
330
1F
100
AcDbEntity
  8
TABLE_DRW
 62
     7
100
AcDbLine
 10
1150.0
 20
50.0
 30
0.0
 11
2050.0
 21
50.0
 31
0.0
  0
LINE
  5
95
330
1F
100
AcDbEntity
  8
TABLE_DRW
 62
     7
100
AcDbLine
 10
1400.0
 20
275.0
 30
0.0
 11
1150.0
 21
275.0
 31
0.0
  0
LINE
  5
96
330
1F
100
AcDbEntity
  8
MARKETING_DRW
  6
CENTERX2
100
AcDbLine
 10
1955.0
 20
200.0
 30
0.0
 11
1980.0
 21
200.0
 31
0.0
  0
LINE
  5
97
330
1F
100
AcDbEntity
  8
MARKETING_DRW
  6
CENTERX2
100
AcDbLine
 10
1967.5
 20
212.5
 30
0.0
 11
1967.5
 21
187.5
 31
0.0
  0
LINE
  5
98
330
1F
100
AcDbEntity
  8
MARKETING_DRW
  6
CENTERX2
100
AcDbLine
 10
1915.0
 20
200.0
 30
0.0
 11
1950.0
 21
200.0
 31
0.0
  0
LINE
  5
99
330
1F
100
AcDbEntity
  8
MARKETING_DRW
100
AcDbLine
 10
1920.0
 20
194.95
 30
0.0
 11
1945.0
 21
190.0
 31
0.0
  0
LINE
  5
9A
330
1F
100
AcDbEntity
  8
MARKETING_DRW
100
AcDbLine
 10
1920.0
 20
205.05
 30
0.0
 11
1920.0
 21
194.95
 31
0.0
  0
LINE
  5
9B
330
1F
100
AcDbEntity
  8
MARKETING_DRW
100
AcDbLine
 10
1945.0
 20
210.0
 30
0.0
 11
1920.0
 21
205.05
 31
0.0
  0
LINE
  5
9C
330
1F
100
AcDbEntity
  8
MARKETING_DRW
100
AcDbLine
 10
1945.0
 20
190.0
 30
0.0
 11
1945.0
 21
210.0
 31
0.0
  0
LINE
  5
9D
330
1F
100
AcDbEntity
  8
MARKETING_DRW
100
AcDbLine
 10
2050.0
 20
50.0
 30
0.0
 11
2050.0
 21
230.0
 31
0.0
  0
LINE
  5
9E
330
1F
100
AcDbEntity
  8
MARKETING_DRW
100
AcDbLine
 10
1150.0
 20
50.0
 30
0.0
 11
2050.0
 21
50.0
 31
0.0
  0
LINE
  5
9F
330
1F
100
AcDbEntity
  8
MARKETING_DRW
100
AcDbLine
 10
1150.0
 20
275.0
 30
0.0
 11
1150.0
 21
50.0
 31
0.0
  0
LINE
  5
A0
330
1F
100
AcDbEntity
  8
MARKETING_DRW
100
AcDbLine
 10
1150.0
 20
275.0
 30
0.0
 11
1650.0
 21
275.0
 31
0.0
  0
LINE
  5
A1
330
1F
100
AcDbEntity
  8
MARKETING_DRW
 62
     7
100
AcDbLine
 10
1850.0
 20
50.0
 30
0.0
 11
1850.0
 21
95.0
 31
0.0
  0
LINE
  5
A2
330
1F
100
AcDbEntity
  8
MARKETING_DRW
100
AcDbLine
 10
2000.0
 20
95.0
 30
0.0
 11
2000.0
 21
50.0
 31
0.0
  0
LINE
  5
A3
330
1F
100
AcDbEntity
  8
MARKETING_DRW
100
AcDbLine
 10
1650.0
 20
275.0
 30
0.0
 11
1650.0
 21
230.0
 31
0.0
  0
LINE
  5
A4
330
1F
100
AcDbEntity
  8
MARKETING_DRW
100
AcDbLine
 10
2050.0
 20
230.0
 30
0.0
 11
1400.0
 21
230.0
 31
0.0
  0
LINE
  5
A5
330
1F
100
AcDbEntity
  8
MARKETING_DRW
100
AcDbLine
 10
1400.0
 20
275.0
 30
0.0
 11
1400.0
 21
185.0
 31
0.0
  0
LINE
  5
A6
330
1F
100
AcDbEntity
  8
MARKETING_DRW
100
AcDbLine
 10
2000.0
 20
230.0
 30
0.0
 11
2000.0
 21
185.0
 31
0.0
  0
LINE
  5
A7
330
1F
100
AcDbEntity
  8
MARKETING_DRW
100
AcDbLine
 10
2050.0
 20
95.0
 30
0.0
 11
1150.0
 21
95.0
 31
0.0
  0
LINE
  5
A8
330
1F
100
AcDbEntity
  8
MARKETING_DRW
100
AcDbLine
 10
1150.0
 20
185.0
 30
0.0
 11
2050.0
 21
185.0
 31
0.0
  0
LINE
  5
A9
330
1F
100
AcDbEntity
  8
MARKETING_DRW
100
AcDbLine
 10
1150.0
 20
50.0
 30
0.0
 11
2050.0
 21
50.0
 31
0.0
  0
LINE
  5
AA
330
1F
100
AcDbEntity
  8
MARKETING_DRW
100
AcDbLine
 10
1900.0
 20
230.0
 30
0.0
 11
1900.0
 21
185.0
 31
0.0
  0
LINE
  5
AB
330
1F
100
AcDbEntity
  8
MARKETING_DRW
100
AcDbLine
 10
1650.0
 20
275.0
 30
0.0
 11
1900.0
 21
275.0
 31
0.0
  0
LINE
  5
AC
330
1F
100
AcDbEntity
  8
MARKETING_DRW
100
AcDbLine
 10
1900.0
 20
275.0
 30
0.0
 11
1900.0
 21
230.0
 31
0.0
  0
LINE
  5
AD
330
1F
100
AcDbEntity
  8
MARKETING_DRW
100
AcDbLine
 10
1900.0
 20
275.0
 30
0.0
 11
2050.0
 21
275.0
 31
0.0
  0
LINE
  5
AE
330
1F
100
AcDbEntity
  8
MARKETING_DRW
100
AcDbLine
 10
2050.0
 20
275.0
 30
0.0
 11
2050.0
 21
230.0
 31
0.0
  0
LINE
  5
AF
330
1F
100
AcDbEntity
  8
MARKETING_DRW
100
AcDbLine
 10
1825.0
 20
275.0
 30
0.0
 11
1825.0
 21
230.0
 31
0.0
  0
LINE
  5
B0
330
1F
100
AcDbEntity
  8
MARKETING_DRW
100
AcDbLine
 10
1650.0
 20
230.0
 30
0.0
 11
1650.0
 21
185.0
 31
0.0
  0
CIRCLE
  5
B1
330
1F
100
AcDbEntity
  8
TABLE_DRW
 62
     7
100
AcDbCircle
 10
1967.5
 20
200.0
 30
0.0
 40
5.000000000000224
  0
CIRCLE
  5
B2
330
1F
100
AcDbEntity
  8
TABLE_DRW
 62
     7
100
AcDbCircle
 10
1967.5
 20
200.0
 30
0.0
 40
10.00000000000024
  0
CIRCLE
  5
B3
330
1F
100
AcDbEntity
  8
MARKETING_DRW
100
AcDbCircle
 10
1967.5
 20
200.0
 30
0.0
 40
5.000000000000224
  0
CIRCLE
  5
B4
330
1F
100
AcDbEntity
  8
MARKETING_DRW
100
AcDbCircle
 10
1967.5
 20
200.0
 30
0.0
 40
10.00000000000024
  0
MTEXT
  5
B6
330
1F
100
AcDbEntity
  8
TABLE_DRW
100
AcDbMText
 10
1905.0
 20
294.9675136777
 30
0.0
 40
12.5
 41
0.0
 71
     1
 72
     1
  1
see table
  7
SLDTEXTSTYLE0
 73
     1
 44
1.0
  0
MTEXT
  5
B7
330
1F
100
AcDbEntity
  8
TABLE_DRW
100
AcDbMText
 10
1155.0
 20
334.9766099061
 30
0.0
 40
9.0
 41
0.0
 71
     1
 72
     1
  1
modification:
  7
SLDTEXTSTYLE0
 73
     1
 44
1.0
  0
MTEXT
  5
B8
330
1F
100
AcDbEntity
  8
TABLE_DRW
100
AcDbMText
 10
1405.0
 20
249.9675136777
 30
0.0
 40
12.5
 41
0.0
 71
     1
 72
     1
  1
see table
  7
SLDTEXTSTYLE0
 73
     1
 44
1.0
  0
MTEXT
  5
B9
330
1F
100
AcDbEntity
  8
TABLE_DRW
100
AcDbMText
 10
1155.0
 20
159.9675136777
 30
0.0
 40
12.5
 41
0.0
 71
     1
 72
     1
  1
ACO ShowerDrain
  7
SLDTEXTSTYLE0
 73
     1
 44
1.0
  0
MTEXT
  5
BA
330
1F
100
AcDbEntity
  8
TABLE_DRW
100
AcDbMText
 10
1824.7395830229
 20
69.9675136777
 30
0.0
 40
12.5
 41
0.0
 71
     2
 72
     1
  1
001
  7
SLDTEXTSTYLE0
 73
     1
 44
1.0
  0
MTEXT
  5
BB
330
1F
100
AcDbEntity
  8
TABLE_DRW
100
AcDbMText
 10
1749.0407964215
 20
69.9675136777
 30
0.0
 40
12.5
 41
0.0
 71
     2
 72
     1
  1
1108611-O
  7
SLDTEXTSTYLE0
 73
     1
 44
1.0
  0
MTEXT
  5
BC
330
1F
100
AcDbEntity
  8
TABLE_DRW
100
AcDbMText
 10
1155.0
 20
295.0022357116
 30
0.0
 40
12.5
 41
0.0
 71
     1
 72
     1
  1
Bohms, Michael
  7
SLDTEXTSTYLE0
 73
     1
 44
1.0
  0
MTEXT
  5
BD
330
1F
100
AcDbEntity
  8
TABLE_DRW
100
AcDbMText
 10
1155.0
 20
137.4675136777
 30
0.0
 40
12.5
 41
0.0
 71
     1
 72
     1
  1
ASM Shower Channel C with WA and gap, with DN40 left side outlet, with FAT GV25 L1080, International
  7
SLDTEXTSTYLE0
 73
     1
 44
1.0
  0
MTEXT
  5
BE
330
1F
100
AcDbEntity
  8
TABLE_DRW
100
AcDbMText
 10
1155.0
 20
114.9675136777
 30
0.0
 40
12.5
 41
0.0
 71
     1
 72
     1
  1
ZB Duschrinne C mit Spalt, mit Wandaufkantung, mit DN40 links Seite Auslass, mit FAT GV25, L580, International
  7
SLDTEXTSTYLE0
 73
     1
 44
1.0
  0
INSERT
  5
C5
330
1F
100
AcDbEntity
  8
TABLE_DRW
100
AcDbBlockReference
  2
SW_NOTE_0
 10
1155.0
 20
78.4000001475
 30
0.0
  0
MTEXT
  5
C6
330
1F
100
AcDbEntity
  8
TABLE_DRW
100
AcDbMText
 10
1405.0
 20
224.9766099061
 30
0.0
 40
9.0
 41
0.0
 71
     1
 72
     1
  1
created by:
  7
SLDTEXTSTYLE0
 73
     1
 44
1.0
  0
MTEXT
  5
C7
330
1F
100
AcDbEntity
  8
TABLE_DRW
100
AcDbMText
 10
1655.0
 20
314.9766099061
 30
0.0
 40
9.0
 41
0.0
 71
     1
 72
     1
  1
surface:
  7
SLDTEXTSTYLE0
 73
     1
 44
1.0
  0
MTEXT
  5
C8
330
1F
100
AcDbEntity
  8
TABLE_DRW
100
AcDbMText
 10
2024.8750000875
 20
224.9766099061
 30
0.0
 40
9.0
 41
0.0
 71
     2
 72
     1
  1
scale:
  7
SLDTEXTSTYLE0
 73
     1
 44
1.0
  0
MTEXT
  5
C9
330
1F
100
AcDbEntity
  8
TABLE_DRW
100
AcDbMText
 10
1905.0
 20
314.9766099061
 30
0.0
 40
9.0
 41
0.0
 71
     1
 72
     1
  1
weight:
  7
SLDTEXTSTYLE0
 73
     1
 44
1.0
  0
MTEXT
  5
CA
330
1F
100
AcDbEntity
  8
TABLE_DRW
100
AcDbMText
 10
1749.034373872
 20
89.9766099061
 30
0.0
 40
9.0
 41
0.0
 71
     2
 72
     1
  1
drawing-no.:
  7
SLDTEXTSTYLE0
 73
     1
 44
1.0
  0
MTEXT
  5
CB
330
1F
100
AcDbEntity
  8
TABLE_DRW
100
AcDbMText
 10
1905.0
 20
269.9766099061
 30
0.0
 40
9.0
 41
0.0
 71
     1
 72
     1
  1
documenttype:
  7
SLDTEXTSTYLE0
 73
     1
 44
1.0
  0
MTEXT
  5
CC
330
1F
100
AcDbEntity
  8
TABLE_DRW
100
AcDbMText
 10
1824.8125000894
 20
89.9766099061
 30
0.0
 40
9.0
 41
0.0
 71
     2
 72
     1
  1
index:
  7
SLDTEXTSTYLE0
 73
     1
 44
1.0
  0
MTEXT
  5
CD
330
1F
100
AcDbEntity
  8
TABLE_DRW
100
AcDbMText
 10
1655.0
 20
224.9766099061
 30
0.0
 40
9.0
 41
0.0
 71
     1
 72
     1
  1
reviewed by:
  7
SLDTEXTSTYLE0
 73
     1
 44
1.0
  0
MTEXT
  5
CE
330
1F
100
AcDbEntity
  8
TABLE_DRW
100
AcDbMText
 10
1855.0
 20
89.9766099061
 30
0.0
 40
9.0
 41
0.0
 71
     1
 72
     1
  1
release date:
  7
SLDTEXTSTYLE0
 73
     1
 44
1.0
  0
MTEXT
  5
CF
330
1F
100
AcDbEntity
  8
TABLE_DRW
100
AcDbMText
 10
2024.7500000913
 20
89.9766099061
 30
0.0
 40
9.0
 41
0.0
 71
     2
 72
     1
  1
sheet:
  7
SLDTEXTSTYLE0
 73
     1
 44
1.0
  0
MTEXT
  5
D0
330
1F
100
AcDbEntity
  8
TABLE_DRW
100
AcDbMText
 10
1905.0
 20
224.9766099061
 30
0.0
 40
9.0
 41
0.0
 71
     1
 72
     1
  1
projection:ISO-E
  7
SLDTEXTSTYLE0
 73
     1
 44
1.0
  0
MTEXT
  5
D1
330
1F
100
AcDbEntity
  8
TABLE_DRW
100
AcDbMText
 10
1405.0
 20
269.9766099061
 30
0.0
 40
9.0
 41
0.0
 71
     1
 72
     1
  1
material:
  7
SLDTEXTSTYLE0
 73
     1
 44
1.0
  0
MTEXT
  5
D2
330
1F
100
AcDbEntity
  8
TABLE_DRW
100
AcDbMText
 10
1905.0
 20
249.9675136777
 30
0.0
 40
12.5
 41
0.0
 71
     1
 72
     1
  1
production drw.
  7
SLDTEXTSTYLE0
 73
     1
 44
1.0
  0
MTEXT
  5
D3
330
1F
100
AcDbEntity
  8
TABLE_DRW
100
AcDbMText
 10
1405.0
 20
314.9766099061
 30
0.0
 40
9.0
 41
0.0
 71
     1
 72
     1
  1
general tolerance:
  7
SLDTEXTSTYLE0
 73
     1
 44
1.0
  0
MTEXT
  5
D4
330
1F
100
AcDbEntity
  8
TABLE_DRW
100
AcDbMText
 10
2024.7829862405
 20
204.9675136777
 30
0.0
 40
12.5
 41
0.0
 71
     2
 72
     1
  1
1:5
  7
SLDTEXTSTYLE0
 73
     1
 44
1.0
  0
MTEXT
  5
D5
330
1F
100
AcDbEntity
  8
TABLE_DRW
100
AcDbMText
 10
2024.7829862405
 20
69.9675136777
 30
0.0
 40
12.5
 41
0.0
 71
     2
 72
     1
  1
1/1
  7
SLDTEXTSTYLE0
 73
     1
 44
1.0
  0
MTEXT
  5
D6
330
1F
100
AcDbEntity
  8
TABLE_DRW
100
AcDbMText
 10
1155.0
 20
314.9766099061
 30
0.0
 40
9.0
 41
0.0
 71
     1
 72
     1
  1
technical reference:
  7
SLDTEXTSTYLE0
 73
     1
 44
1.0
  0
MTEXT
  5
D7
330
1F
100
AcDbEntity
  8
TABLE_DRW
100
AcDbMText
 10
1155.0
 20
179.9766099061
 30
0.0
 40
9.0
 41
0.0
 71
     1
 72
     1
  1
title:
  7
SLDTEXTSTYLE0
 73
     1
 44
1.0
  0
MTEXT
  5
D8
330
1F
100
AcDbEntity
  8
MARKETING_DRW
100
AcDbMText
 10
1155.0
 20
114.9675136777
 30
0.0
 40
12.5
 41
0.0
 71
     1
 72
     1
  1
ZB Duschrinne C mit Spalt, mit Wandaufkantung, mit DN40 links Seite Auslass, mit FAT GV25, L580, International
  7
SLDTEXTSTYLE0
 73
     1
 44
1.0
  0
MTEXT
  5
D9
330
1F
100
AcDbEntity
  8
MARKETING_DRW
100
AcDbMText
 10
1155.0
 20
137.4675136777
 30
0.0
 40
12.5
 41
0.0
 71
     1
 72
     1
  1
ASM Shower Channel C with WA and gap, with DN40 left side outlet, with FAT GV25 L1080, International
  7
SLDTEXTSTYLE0
 73
     1
 44
1.0
  0
MTEXT
  5
DA
330
1F
100
AcDbEntity
  8
MARKETING_DRW
100
AcDbMText
 10
1736.5407964215
 20
249.9675136777
 30
0.0
 40
12.5
 41
0.0
 71
     2
 72
     1
  1
1108611-O
  7
SLDTEXTSTYLE0
 73
     1
 44
1.0
  0
MTEXT
  5
DB
330
1F
100
AcDbEntity
  8
MARKETING_DRW
100
AcDbMText
 10
1862.2395830229
 20
252.0971433073
 30
0.0
 40
12.5
 41
0.0
 71
     2
 72
     1
  1
001
  7
SLDTEXTSTYLE0
 73
     1
 44
1.0
  0
MTEXT
  5
DC
330
1F
100
AcDbEntity
  8
MARKETING_DRW
100
AcDbMText
 10
1155.0
 20
159.9675136777
 30
0.0
 40
12.5
 41
0.0
 71
     1
 72
     1
  1
ACO ShowerDrain
  7
SLDTEXTSTYLE0
 73
     1
 44
1.0
  0
MTEXT
  5
DD
330
1F
100
AcDbEntity
  8
MARKETING_DRW
100
AcDbMText
 10
1905.0
 20
269.9766099061
 30
0.0
 40
9.0
 41
0.0
 71
     1
 72
     1
  1
documenttype:
  7
SLDTEXTSTYLE0
 73
     1
 44
1.0
  0
MTEXT
  5
DE
330
1F
100
AcDbEntity
  8
MARKETING_DRW
100
AcDbMText
 10
1655.0
 20
224.9766099061
 30
0.0
 40
9.0
 41
0.0
 71
     1
 72
     1
  1
reviewed by:
  7
SLDTEXTSTYLE0
 73
     1
 44
1.0
  0
MTEXT
  5
DF
330
1F
100
AcDbEntity
  8
MARKETING_DRW
100
AcDbMText
 10
1736.534373872
 20
270.0578764559
 30
0.0
 40
9.0
 41
0.0
 71
     2
 72
     1
  1
drawing-no.:
  7
SLDTEXTSTYLE0
 73
     1
 44
1.0
  0
MTEXT
  5
E0
330
1F
100
AcDbEntity
  8
MARKETING_DRW
100
AcDbMText
 10
1905.0
 20
224.9766099061
 30
0.0
 40
9.0
 41
0.0
 71
     1
 72
     1
  1
projection:ISO-E
  7
SLDTEXTSTYLE0
 73
     1
 44
1.0
  0
MTEXT
  5
E1
330
1F
100
AcDbEntity
  8
MARKETING_DRW
100
AcDbMText
 10
2024.7500000913
 20
89.9766099061
 30
0.0
 40
9.0
 41
0.0
 71
     2
 72
     1
  1
sheet:
  7
SLDTEXTSTYLE0
 73
     1
 44
1.0
  0
MTEXT
  5
E2
330
1F
100
AcDbEntity
  8
MARKETING_DRW
100
AcDbMText
 10
2024.7829862405
 20
69.9675136777
 30
0.0
 40
12.5
 41
0.0
 71
     2
 72
     1
  1
1/1
  7
SLDTEXTSTYLE0
 73
     1
 44
1.0
  0
MTEXT
  5
E3
330
1F
100
AcDbEntity
  8
MARKETING_DRW
100
AcDbMText
 10
1855.0
 20
89.9766099061
 30
0.0
 40
9.0
 41
0.0
 71
     1
 72
     1
  1
release date:
  7
SLDTEXTSTYLE0
 73
     1
 44
1.0
  0
MTEXT
  5
E4
330
1F
100
AcDbEntity
  8
MARKETING_DRW
100
AcDbMText
 10
1862.3125000894
 20
269.9766099061
 30
0.0
 40
9.0
 41
0.0
 71
     2
 72
     1
  1
index:
  7
SLDTEXTSTYLE0
 73
     1
 44
1.0
  0
MTEXT
  5
E5
330
1F
100
AcDbEntity
  8
MARKETING_DRW
100
AcDbMText
 10
1155.0
 20
179.9766099061
 30
0.0
 40
9.0
 41
0.0
 71
     1
 72
     1
  1
title:
  7
SLDTEXTSTYLE0
 73
     1
 44
1.0
  0
MTEXT
  5
E6
330
1F
100
AcDbEntity
  8
MARKETING_DRW
100
AcDbMText
 10
2024.8750000875
 20
224.9766099061
 30
0.0
 40
9.0
 41
0.0
 71
     2
 72
     1
  1
scale:
  7
SLDTEXTSTYLE0
 73
     1
 44
1.0
  0
MTEXT
  5
E7
330
1F
100
AcDbEntity
  8
MARKETING_DRW
100
AcDbMText
 10
2024.7829862405
 20
204.9675136777
 30
0.0
 40
12.5
 41
0.0
 71
     2
 72
     1
  1
1:5
  7
SLDTEXTSTYLE0
 73
     1
 44
1.0
  0
INSERT
  5
EE
330
1F
100
AcDbEntity
  8
MARKETING_DRW
100
AcDbBlockReference
  2
SW_NOTE_0_1
 10
1155.0
 20
78.3750002482
 30
0.0
  0
MTEXT
  5
EF
330
1F
100
AcDbEntity
  8
MARKETING_DRW
100
AcDbMText
 10
1905.0
 20
249.9675136777
 30
0.0
 40
12.5
 41
0.0
 71
     1
 72
     1
  1
marketing drw.
  7
SLDTEXTSTYLE0
 73
     1
 44
1.0
  0
MTEXT
  5
F0
330
1F
100
AcDbEntity
  8
MARKETING_DRW
100
AcDbMText
 10
1405.0
 20
224.9766099061
 30
0.0
 40
9.0
 41
0.0
 71
     1
 72
     1
  1
created by:
  7
SLDTEXTSTYLE0
 73
     1
 44
1.0
  0
LINE
  5
F1
330
1F
100
AcDbEntity
  8
0
  6
Continuous
 62
     7
370
    35
100
AcDbLine
 10
1416.068571994
 20
922.195414649
 30
0.0
 11
336.0685290786
 21
922.195414649
 31
0.0
  0
LINE
  5
F2
330
1F
100
AcDbEntity
  8
0
  6
Continuous
 62
     7
370
    35
100
AcDbLine
 10
795.0685502979
 20
902.1038581707
 30
0.0
 11
795.0685502979
 21
899.195813676
 31
0.0
  0
LINE
  5
F3
330
1F
100
AcDbEntity
  8
0
  6
Continuous
 62
     7
370
    35
100
AcDbLine
 10
957.0685507747
 20
899.195813676
 30
0.0
 11
957.0685507747
 21
902.1038581707
 31
0.0
  0
ARC
  5
F4
330
1F
100
AcDbEntity
  8
0
  6
Continuous
 62
     7
370
    35
100
AcDbCircle
 10
793.0685505363
 20
902.0974248153
 30
0.0
 40
2.000000000000031
100
AcDbArc
 50
0.1603835477
 51
88.7916387136
  0
ARC
  5
F5
330
1F
100
AcDbEntity
  8
0
  6
Continuous
 62
     7
370
    35
100
AcDbCircle
 10
959.0685505363
 20
902.0974248153
 30
0.0
 40
2.000000000000092
100
AcDbArc
 50
91.1928878275
 51
179.8251412338
  0
LINE
  5
F6
330
1F
100
AcDbEntity
  8
0
  6
Continuous
 62
     7
370
    35
100
AcDbLine
 10
959.0277330967
 20
904.0970248027
 30
0.0
 11
1416.068571994
 21
904.0970248027
 31
0.0
  0
LINE
  5
F7
330
1F
100
AcDbEntity
  8
0
  6
Continuous
 62
     7
370
    35
100
AcDbLine
 10
336.0685290786
 20
904.0970248027
 30
0.0
 11
793.1093679758
 21
904.0970248027
 31
0.0
  0
LINE
  5
F8
330
1F
100
AcDbEntity
  8
0
  6
Continuous
 62
     7
370
    35
100
AcDbLine
 10
787.5685499998
 20
892.7458139226
 30
0.0
 11
747.8746058437
 21
892.7458139226
 31
0.0
  0
LINE
  5
F9
330
1F
100
AcDbEntity
  8
0
  6
Continuous
 62
     7
370
    35
100
AcDbLine
 10
747.8746058437
 20
852.7458129541
 30
0.0
 11
787.5685499998
 21
852.7458129541
 31
0.0
  0
ARC
  5
FA
330
1F
100
AcDbEntity
  8
0
  6
Continuous
 62
     7
370
    35
100
AcDbCircle
 10
747.8746020785
 20
855.745813895
 30
0.0
 40
3.0
100
AcDbArc
 50
258.3499964744
 51
270.0
  0
ARC
  5
FB
330
1F
100
AcDbEntity
  8
0
  6
Continuous
 62
     7
370
    35
100
AcDbCircle
 10
747.8746020785
 20
889.745813895
 30
0.0
 40
2.999999999999896
100
AcDbArc
 50
90.0
 51
101.6500035256
  0
LINE
  5
FC
330
1F
100
AcDbEntity
  8
0
  6
Continuous
 62
     7
370
    35
100
AcDbLine
 10
747.2687991353
 20
892.6840122879
 30
0.0
 11
742.5685556623
 21
891.714913407
 31
0.0
  0
LINE
  5
FD
330
1F
100
AcDbEntity
  8
0
  6
Continuous
 62
     7
370
    35
100
AcDbLine
 10
742.5685556623
 20
853.7767162636
 30
0.0
 11
747.2687991353
 21
852.8076155201
 31
0.0
  0
LINE
  5
FE
330
1F
100
AcDbEntity
  8
0
  6
Continuous
 62
     7
370
    35
100
AcDbLine
 10
791.1477269622
 20
892.7458139226
 30
0.0
 11
787.5685499998
 21
892.7458139226
 31
0.0
  0
LINE
  5
FF
330
1F
100
AcDbEntity
  8
0
  6
Continuous
 62
     7
370
    35
100
AcDbLine
 10
787.5685499998
 20
852.7458129541
 30
0.0
 11
804.3769704195
 21
852.7458129541
 31
0.0
  0
LINE
  5
100
330
1F
100
AcDbEntity
  8
0
  6
Continuous
 62
     7
370
    35
100
AcDbLine
 10
1416.068571994
 20
910.195414079
 30
0.0
 11
336.0685290786
 21
910.195414079
 31
0.0
  0
LINE
  5
101
330
1F
100
AcDbEntity
  8
0
  6
Continuous
 62
     7
370
    35
100
AcDbLine
 10
1416.068571994
 20
909.1954139151
 30
0.0
 11
1416.068571994
 21
910.195414079
 31
0.0
  0
LINE
  5
102
330
1F
100
AcDbEntity
  8
0
  6
Continuous
 62
     7
370
    35
100
AcDbLine
 10
336.0685290786
 20
909.1954139151
 30
0.0
 11
336.0685290786
 21
910.195414079
 31
0.0
  0
LINE
  5
103
330
1F
100
AcDbEntity
  8
0
  6
Continuous
 62
     7
370
    35
100
AcDbLine
 10
1416.068571994
 20
909.1954139151
 30
0.0
 11
336.0685290786
 21
909.1954139151
 31
0.0
  0
LINE
  5
104
330
1F
100
AcDbEntity
  8
0
  6
Continuous
 62
     7
370
    35
100
AcDbLine
 10
336.0685290786
 20
911.1954137773
 30
0.0
 11
336.0685290786
 21
910.195414079
 31
0.0
  0
LINE
  5
105
330
1F
100
AcDbEntity
  8
0
  6
Continuous
 62
     7
370
    35
100
AcDbLine
 10
1416.068571994
 20
910.195414079
 30
0.0
 11
1416.068571994
 21
911.1954137773
 31
0.0
  0
LINE
  5
106
330
1F
100
AcDbEntity
  8
0
  6
Continuous
 62
     7
370
    35
100
AcDbLine
 10
1416.068571994
 20
922.195414649
 30
0.0
 11
1416.068571994
 21
921.1954144851
 31
0.0
  0
LINE
  5
107
330
1F
100
AcDbEntity
  8
0
  6
Continuous
 62
     7
370
    35
100
AcDbLine
 10
336.0685290786
 20
921.1954144851
 30
0.0
 11
336.0685290786
 21
922.195414649
 31
0.0
  0
LINE
  5
108
330
1F
100
AcDbEntity
  8
0
  6
Continuous
 62
     7
370
    35
100
AcDbLine
 10
336.0685290786
 20
911.1954137773
 30
0.0
 11
336.0685290786
 21
920.6954134718
 31
0.0
  0
LINE
  5
109
330
1F
100
AcDbEntity
  8
0
  6
Continuous
 62
     7
370
    35
100
AcDbLine
 10
1416.068571994
 20
920.6954134718
 30
0.0
 11
1416.068571994
 21
911.1954137773
 31
0.0
  0
LINE
  5
10A
330
1F
100
AcDbEntity
  8
0
  6
Continuous
 62
     7
370
    35
100
AcDbLine
 10
336.0685290786
 20
907.0973981727
 30
0.0
 11
336.0685290786
 21
907.8573324808
 31
0.0
  0
LINE
  5
10B
330
1F
100
AcDbEntity
  8
0
  6
Continuous
 62
     7
370
    35
100
AcDbLine
 10
1416.068571994
 20
907.0973981727
 30
0.0
 11
1416.068571994
 21
907.8573324808
 31
0.0
  0
LINE
  5
10C
330
1F
100
AcDbEntity
  8
0
  6
Continuous
 62
     7
370
    35
100
AcDbLine
 10
1416.068571994
 20
907.8573324808
 30
0.0
 11
1416.068571994
 21
909.1954139151
 31
0.0
  0
LINE
  5
10D
330
1F
100
AcDbEntity
  8
0
  6
Continuous
 62
     7
370
    35
100
AcDbLine
 10
336.0685290786
 20
907.8573324808
 30
0.0
 11
336.0685290786
 21
909.1954139151
 31
0.0
  0
SPLINE
  5
10E
330
1F
100
AcDbEntity
  8
0
  6
Continuous
 62
     7
370
    35
100
AcDbSpline
210
0.0
220
0.0
230
1.0
 70
     8
 71
     3
 72
    14
 73
    10
 74
     0
 42
0.000000001
 43
0.00000001
 40
0.0
 40
0.0
 40
0.0
 40
0.0
 40
0.25
 40
0.25
 40
0.5
 40
0.5
 40
0.75
 40
0.75
 40
1.0
 40
1.0
 40
1.0
 40
1.0
 10
959.0277266449704
 20
904.100241474223
 30
0.0
 10
959.0025025494207
 20
904.2894888003723
 30
0.0
 10
958.4163260690373
 20
904.4784084143805
 30
0.0
 10
956.1849347309909
 20
904.8351454635074
 30
0.0
 10
954.5406771481042
 20
905.0028008017051
 30
0.0
 10
950.3721485634434
 20
905.2984576896808
 30
0.0
 10
947.8496476860602
 20
905.4263268719756
 30
0.0
 10
942.2016853167734
 20
905.6281529365496
 30
0.0
 10
939.0786941612017
 20
905.7020188559156
 30
0.0
 10
935.8267844176605
 20
905.7447749043184
 30
0.0
  0
SPLINE
  5
10F
330
1F
100
AcDbEntity
  8
0
  6
Continuous
 62
     7
370
    35
100
AcDbSpline
210
0.0
220
0.0
230
1.0
 70
     8
 71
     3
 72
    16
 73
    12
 74
     0
 42
0.000000001
 43
0.00000001
 40
0.0
 40
0.0
 40
0.0
 40
0.0
 40
0.0625000000000004
 40
0.0625000000000004
 40
0.1250000000000008
 40
0.1250000000000008
 40
0.2500000000000016
 40
0.2500000000000016
 40
0.5
 40
0.5
 40
1.0
 40
1.0
 40
1.0
 40
1.0
 10
935.8267844176044
 20
905.7447749043038
 30
0.0
 10
935.6883192486437
 20
905.7465954417519
 30
0.0
 10
935.5478994135842
 20
905.7472701601789
 30
0.0
 10
935.2670621849271
 20
905.7486210282102
 30
0.0
 10
935.1264257253187
 20
905.7491687620189
 30
0.0
 10
934.704386533169
 20
905.7507358672891
 30
0.0
 10
934.4228369192778
 20
905.7516418265623
 30
0.0
 10
933.5781694670542
 20
905.7541577623956
 30
0.0
 10
933.0148515082724
 20
905.7555338327252
 30
0.0
 10
931.3243491123235
 20
905.7588612390261
 30
0.0
 10
930.1964630447618
 20
905.7599862143676
 30
0.0
 10
929.0685505362848
 20
905.7599862143676
 30
0.0
  0
LINE
  5
110
330
1F
100
AcDbEntity
  8
0
  6
Continuous
 62
     7
370
    35
100
AcDbLine
 10
929.0685499104
 20
905.7599862429
 30
0.0
 11
823.0685511621
 21
905.7599862429
 31
0.0
  0
SPLINE
  5
111
330
1F
100
AcDbEntity
  8
0
  6
Continuous
 62
     7
370
    35
100
AcDbSpline
210
0.0
220
0.0
230
1.0
 70
     8
 71
     3
 72
    16
 73
    12
 74
     0
 42
0.000000001
 43
0.00000001
 40
0.0
 40
0.0
 40
0.0
 40
0.0
 40
0.5000000000000031
 40
0.5000000000000031
 40
0.7500000000000031
 40
0.7500000000000031
 40
0.8750000000000016
 40
0.8750000000000016
 40
0.9375000000000007
 40
0.9375000000000007
 40
1.0
 40
1.0
 40
1.0
 40
1.0
 10
823.0685505362848
 20
905.7599862143676
 30
0.0
 10
821.94060051462
 20
905.7599862143676
 30
0.0
 10
820.8130587844676
 20
905.7588617365151
 30
0.0
 10
819.1223420095217
 20
905.7555340678865
 30
0.0
 10
818.5588548526138
 20
905.7541575907366
 30
0.0
 10
817.7140737505312
 20
905.7516412309358
 30
0.0
 10
817.432534416268
 20
905.7507352761137
 30
0.0
 10
817.0104608265524
 20
905.7491679266024
 30
0.0
 10
816.8697818397304
 20
905.7486199801743
 30
0.0
 10
816.5889433237606
 20
905.7472687288006
 30
0.0
 10
816.4485260486454
 20
905.7465920788234
 30
0.0
 10
816.3103166549649
 20
905.7447749043038
 30
0.0
  0
SPLINE
  5
112
330
1F
100
AcDbEntity
  8
0
  6
Continuous
 62
     7
370
    35
100
AcDbSpline
210
0.0
220
0.0
230
1.0
 70
     8
 71
     3
 72
    14
 73
    10
 74
     0
 42
0.000000001
 43
0.00000001
 40
0.0
 40
0.0
 40
0.0
 40
0.0
 40
0.25
 40
0.25
 40
0.5
 40
0.5
 40
0.75
 40
0.75
 40
1.0
 40
1.0
 40
1.0
 40
1.0
 10
816.310316654878
 20
905.744774904325
 30
0.0
 10
813.0584069203169
 20
905.7020188560401
 30
0.0
 10
809.9354394583971
 20
905.6281538818446
 30
0.0
 10
804.2874074144748
 20
905.4263251308879
 30
0.0
 10
801.7649431452332
 20
905.2984571589412
 30
0.0
 10
797.5964168001975
 20
905.0028001630054
 30
0.0
 10
795.9521466221038
 20
904.8351425578171
 30
0.0
 10
793.7207859674662
 20
904.478409920327
 30
0.0
 10
793.1345985232331
 20
904.2894887999645
 30
0.0
 10
793.1093744277383
 20
904.1002414742225
 30
0.0
  0
LINE
  5
113
330
1F
100
AcDbEntity
  8
0
  6
Continuous
 62
     7
370
    35
100
AcDbLine
 10
795.0685502979
 20
899.195813676
 30
0.0
 11
823.0685511621
 21
899.195813676
 31
0.0
  0
LINE
  5
114
330
1F
100
AcDbEntity
  8
0
  6
Continuous
 62
     7
370
    35
100
AcDbLine
 10
929.0685499104
 20
899.195813676
 30
0.0
 11
950.2227040025
 21
899.195813676
 31
0.0
  0
LINE
  5
115
330
1F
100
AcDbEntity
  8
0
  6
Continuous
 62
     7
370
    35
100
AcDbLine
 10
950.8577542397
 20
899.195813676
 30
0.0
 11
957.0685507747
 21
899.195813676
 31
0.0
  0
LINE
  5
116
330
1F
100
AcDbEntity
  8
0
  6
Continuous
 62
     7
370
    35
100
AcDbLine
 10
823.0685511621
 20
899.195813676
 30
0.0
 11
929.0685499104
 21
899.195813676
 31
0.0
  0
LINE
  5
117
330
1F
100
AcDbEntity
  8
0
  6
Continuous
 62
     7
370
    35
100
AcDbLine
 10
1416.068571994
 20
922.195414649
 30
0.0
 11
336.0685290786
 21
922.195414649
 31
0.0
  0
LINE
  5
118
330
1F
100
AcDbEntity
  8
0
  6
Continuous
 62
     7
370
    35
100
AcDbLine
 10
1416.068571994
 20
922.195414649
 30
0.0
 11
1416.068571994
 21
923.1954148129
 31
0.0
  0
LINE
  5
119
330
1F
100
AcDbEntity
  8
0
  6
Continuous
 62
     7
370
    35
100
AcDbLine
 10
336.0685290786
 20
923.1954148129
 30
0.0
 11
336.0685290786
 21
922.195414649
 31
0.0
  0
LINE
  5
11A
330
1F
100
AcDbEntity
  8
0
  6
Continuous
 62
     7
370
    35
100
AcDbLine
 10
336.0685290786
 20
952.6954149917
 30
0.0
 11
1416.068571994
 21
952.6954149917
 31
0.0
  0
LINE
  5
11B
330
1F
100
AcDbEntity
  8
0
  6
Continuous
 62
     7
370
    35
100
AcDbLine
 10
1416.068571994
 20
952.6954149917
 30
0.0
 11
1416.068571994
 21
923.1954148129
 31
0.0
  0
LINE
  5
11C
330
1F
100
AcDbEntity
  8
0
  6
Continuous
 62
     7
370
    35
100
AcDbLine
 10
336.0685290786
 20
923.1954148129
 30
0.0
 11
336.0685290786
 21
952.6954149917
 31
0.0
  0
LINE
  5
11D
330
1F
100
AcDbEntity
  8
0
  6
Continuous
 62
     7
370
    35
100
AcDbLine
 10
823.0685511621
 20
902.24581385
 30
0.0
 11
795.2685536834
 21
902.24581385
 31
0.0
  0
LINE
  5
11E
330
1F
100
AcDbEntity
  8
0
  6
Continuous
 62
     7
370
    35
100
AcDbLine
 10
929.0685499104
 20
902.24581385
 30
0.0
 11
956.8685473892
 21
902.24581385
 31
0.0
  0
LINE
  5
11F
330
1F
100
AcDbEntity
  8
0
  6
Continuous
 62
     7
370
    35
100
AcDbLine
 10
787.5685499998
 20
892.7458139226
 30
0.0
 11
787.5685499998
 21
852.7458129541
 31
0.0
  0
LINE
  5
120
330
1F
100
AcDbEntity
  8
0
  6
Continuous
 62
     7
370
    35
100
AcDbLine
 10
742.5685556623
 20
891.714913407
 30
0.0
 11
742.5685556623
 21
853.7767162636
 31
0.0
  0
SPLINE
  5
121
330
1F
100
AcDbEntity
  8
0
  6
Continuous
 62
     7
370
    35
100
AcDbSpline
210
0.0
220
0.0
230
1.0
 70
    24
 71
     3
 72
    19
 73
    15
 74
     0
 42
0.000000001
 43
0.00000001
 40
0.0
 40
0.0
 40
0.0
 40
0.0
 40
0.2409129481453496
 40
0.4882584972039918
 40
0.5391715054699047
 40
0.5899404317474005
 40
0.6400693147041847
 40
0.6899887755827869
 40
0.7400419335781023
 40
0.790419090598131
 40
0.8413201639749477
 40
0.8929676856545625
 40
0.9456873826514184
 40
1.0
 40
1.0
 40
1.0
 40
1.0
 10
876.0685505362848
 20
899.1958136760227
 30
0.0
 10
868.222509449955
 20
899.1958136760227
 30
0.0
 10
852.3209306460594
 20
899.1958136760227
 30
0.0
 10
834.7555056791971
 20
899.1958136760227
 30
0.0
 10
823.393617173784
 20
899.1958136760227
 30
0.0
 10
818.4378512694923
 20
899.1958136760227
 30
0.0
 10
813.6534896751382
 20
899.1958136760227
 30
0.0
 10
809.1699110771161
 20
899.1958136760227
 30
0.0
 10
805.0916638367414
 20
899.1958136760227
 30
0.0
 10
801.518406894762
 20
899.1958136760227
 30
0.0
 10
798.552011157369
 20
899.1958136760227
 30
0.0
 10
796.3219737844184
 20
899.1958136760227
 30
0.0
 10
794.8486656168478
 20
899.1958136760227
 30
0.0
 10
794.6628432361072
 20
899.1958136760227
 30
0.0
 10
794.5685492845872
 20
899.1958136760227
 30
0.0
  0
SPLINE
  5
122
330
1F
100
AcDbEntity
  8
0
  6
Continuous
 62
     7
370
    35
100
AcDbSpline
210
0.0
220
0.0
230
1.0
 70
    24
 71
     3
 72
    22
 73
    18
 74
     0
 42
0.000000001
 43
0.00000001
 40
0.0
 40
0.0
 40
0.0
 40
0.0
 40
0.0768888659657814
 40
0.1782030636580801
 40
0.2801306435844724
 40
0.3828480332198803
 40
0.4911256714887366
 40
0.6010191738944276
 40
0.7042744986178595
 40
0.7546469212119629
 40
0.8044539376495482
 40
0.8505727338921534
 40
0.8676230320498786
 40
0.8855373978609812
 40
0.9044509703646064
 40
0.923560778456894
 40
1.0
 40
1.0
 40
1.0
 40
1.0
 10
876.0685505362848
 20
859.6881074920826
 30
0.0
 10
876.0685505362848
 20
860.6420319231066
 30
0.0
 10
876.0685505362848
 20
862.8529145258289
 30
0.0
 10
876.0685505362848
 20
866.6755363399569
 30
0.0
 10
876.0685505362848
 20
871.0217489603909
 30
0.0
 10
876.0685505362848
 20
875.5311149573001
 30
0.0
 10
876.0685505362848
 20
880.075445757413
 30
0.0
 10
876.0685505362848
 20
884.319391421474
 30
0.0
 10
876.0685505362848
 20
887.6045554234349
 30
0.0
 10
876.0685505362848
 20
890.1211949472641
 30
0.0
 10
876.0685505362848
 20
891.9551066781985
 30
0.0
 10
876.0685505362848
 20
893.2382962089038
 30
0.0
 10
876.0685505362848
 20
893.9009509125452
 30
0.0
 10
876.0685505362848
 20
894.2287806592286
 30
0.0
 10
876.0685505362848
 20
895.1041526354678
 30
0.0
 10
876.0685505362848
 20
896.711372302228
 30
0.0
 10
876.0685505362848
 20
898.091617527268
 30
0.0
 10
876.0685505362848
 20
899.1958136760227
 30
0.0
  0
SPLINE
  5
123
330
1F
100
AcDbEntity
  8
0
  6
Continuous
 62
     7
370
    35
100
AcDbSpline
210
0.0
220
0.0
230
1.0
 70
     8
 71
     3
 72
     9
 73
     5
 74
     0
 42
0.000000001
 43
0.00000001
 40
0.0
 40
0.0
 40
0.0
 40
0.0
 40
0.981288085918023
 40
1.0
 40
1.0
 40
1.0
 40
1.0
 10
793.0919187160829
 20
893.4604615063004
 30
0.0
 10
793.10974117992
 20
893.4351523281451
 30
0.0
 10
793.1279034954447
 20
893.4093605361951
 30
0.0
 10
793.1312619929435
 20
893.2942289910995
 30
0.0
 10
793.13132483686
 20
893.2920746595197
 30
0.0
  0
SPLINE
  5
124
330
1F
100
AcDbEntity
  8
0
  6
Continuous
 62
     7
370
    35
100
AcDbSpline
210
0.0
220
0.0
230
1.0
 70
     8
 71
     3
 72
    12
 73
     8
 74
     0
 42
0.000000001
 43
0.00000001
 40
0.0
 40
0.0
 40
0.0
 40
0.0
 40
0.5113571341654117
 40
0.6391964358125706
 40
0.7611395172891973
 40
0.8740151553467663
 40
1.0
 40
1.0
 40
1.0
 40
1.0
 10
794.5685492845872
 20
899.1958136760227
 30
0.0
 10
794.5538436361346
 20
898.091283070417
 30
0.0
 10
794.5354615750483
 20
896.7106197743013
 30
0.0
 10
794.5956560792118
 20
895.1143896199166
 30
0.0
 10
794.4715042438105
 20
894.2647827700349
 30
0.0
 10
793.7141976823764
 20
893.917431985781
 30
0.0
 10
793.3067980444434
 20
893.6182581136584
 30
0.0
 10
793.0919187160829
 20
893.4604615063004
 30
0.0
  0
SPLINE
  5
125
330
1F
100
AcDbEntity
  8
0
  6
Continuous
 62
     7
370
    35
100
AcDbSpline
210
0.0
220
0.0
230
1.0
 70
    24
 71
     3
 72
    19
 73
    15
 74
     0
 42
0.000000001
 43
0.00000001
 40
0.0
 40
0.0
 40
0.0
 40
0.0
 40
0.2409129481453497
 40
0.4882584972039919
 40
0.5391715054699047
 40
0.5899404317474005
 40
0.6400693147041847
 40
0.6899887755827872
 40
0.7400419335781024
 40
0.7904190905981311
 40
0.8413201639749478
 40
0.8929676856545626
 40
0.9456873826514185
 40
1.0
 40
1.0
 40
1.0
 40
1.0
 10
876.0685505362848
 20
899.1958136760227
 30
0.0
 10
883.9145916226145
 20
899.1958136760227
 30
0.0
 10
899.8161704265101
 20
899.1958136760227
 30
0.0
 10
917.3815953933724
 20
899.1958136760227
 30
0.0
 10
928.7434838987854
 20
899.1958136760227
 30
0.0
 10
933.6992498030771
 20
899.1958136760227
 30
0.0
 10
938.4836113974312
 20
899.1958136760227
 30
0.0
 10
942.9671899954534
 20
899.1958136760227
 30
0.0
 10
947.0454372358281
 20
899.1958136760227
 30
0.0
 10
950.6186941778075
 20
899.1958136760227
 30
0.0
 10
953.5850899152006
 20
899.1958136760227
 30
0.0
 10
955.8151272881508
 20
899.1958136760227
 30
0.0
 10
957.2884354557217
 20
899.1958136760227
 30
0.0
 10
957.4742578364622
 20
899.1958136760227
 30
0.0
 10
957.5685517879823
 20
899.1958136760227
 30
0.0
  0
SPLINE
  5
126
330
1F
100
AcDbEntity
  8
0
  6
Continuous
 62
     7
370
    35
100
AcDbSpline
210
0.0
220
0.0
230
1.0
 70
     8
 71
     3
 72
    23
 73
    19
 74
     0
 42
0.000000001
 43
0.00000001
 40
0.0
 40
0.0
 40
0.0
 40
0.0
 40
0.0758439660679467
 40
0.094804960270368
 40
0.1128914331399191
 40
0.1336676990140676
 40
0.1567718620890216
 40
0.2022013490153511
 40
0.242481649213576
 40
0.2818986539202567
 40
0.3206021965523919
 40
0.3951163874576668
 40
0.4632081965660383
 40
0.5251873557219752
 40
0.5924928539452661
 40
0.7259812624013888
 40
0.8620428776425312
 40
1.0
 40
1.0
 40
1.0
 40
1.0
 10
957.5685517879823
 20
899.1958136760227
 30
0.0
 10
957.5845559805091
 20
898.0920436641522
 30
0.0
 10
957.6045612217343
 20
896.7123311102326
 30
0.0
 10
957.5390513982948
 20
895.1129876240614
 30
0.0
 10
957.684300967694
 20
894.2065555044449
 30
0.0
 10
958.5937739583331
 20
893.8403946480981
 30
0.0
 10
959.5901935644348
 20
893.0467418121755
 30
0.0
 10
960.5866642904246
 20
891.7701082086174
 30
0.0
 10
961.1689605864244
 20
890.0503853731987
 30
0.0
 10
961.7915443468316
 20
888.4583654960454
 30
0.0
 10
962.540733687614
 20
886.3830880630187
 30
0.0
 10
963.3998152194189
 20
883.9090519791613
 30
0.0
 10
964.3086076466059
 20
881.0920187118054
 30
0.0
 10
964.8536711344408
 20
878.286176990035
 30
0.0
 10
965.1950553180905
 20
874.4971398458887
 30
0.0
 10
964.8068358979838
 20
869.61144791732
 30
0.0
 10
963.1274444514122
 20
863.8905645128793
 30
0.0
 10
960.980359871903
 20
860.5432132516022
 30
0.0
 10
959.899391421924
 20
858.857960076683
 30
0.0
  0
SPLINE
  5
127
330
1F
100
AcDbEntity
  8
0
  6
Continuous
 62
     7
370
    35
100
AcDbSpline
210
0.0
220
0.0
230
1.0
 70
     8
 71
     3
 72
    12
 73
     8
 74
     0
 42
0.000000001
 43
0.00000001
 40
0.0
 40
0.0
 40
0.0
 40
0.0
 40
0.1772877871638871
 40
0.359729595415787
 40
0.5370132406625255
 40
0.7194068630844038
 40
1.0
 40
1.0
 40
1.0
 40
1.0
 10
959.899391421924
 20
858.857960076683
 30
0.0
 10
959.3725785803929
 20
858.2118421405789
 30
0.0
 10
958.3036376602346
 20
856.900822653767
 30
0.0
 10
956.3198909465334
 20
855.3151659216802
 30
0.0
 10
954.1001506198511
 20
854.0619058210029
 30
0.0
 10
951.2602466927634
 20
853.0035724789603
 30
0.0
 10
949.0809148002453
 20
852.8430796419126
 30
0.0
 10
947.7601306530336
 20
852.7458129540614
 30
0.0
  0
SPLINE
  5
128
330
1F
100
AcDbEntity
  8
0
  6
Continuous
 62
     7
370
    35
100
AcDbSpline
210
0.0
220
0.0
230
1.0
 70
    24
 71
     3
 72
    19
 73
    15
 74
     0
 42
0.000000001
 43
0.00000001
 40
0.0
 40
0.0
 40
0.0
 40
0.0
 40
0.0382184364077148
 40
0.0907526804867143
 40
0.1448883159648797
 40
0.1924047697379459
 40
0.2410289220576366
 40
0.2852702833271147
 40
0.3305792248733065
 40
0.3733296367526699
 40
0.4174095626729357
 40
0.6721476080506361
 40
0.9271619557518548
 40
1.0
 40
1.0
 40
1.0
 40
1.0
 10
947.7601306530336
 20
852.7458129540614
 30
0.0
 10
947.5942624433754
 20
852.7458129540614
 30
0.0
 10
947.2003953454799
 20
852.7458129540614
 30
0.0
 10
945.8385807487582
 20
852.7458129540614
 30
0.0
 10
943.7611824109684
 20
852.7458129540614
 30
0.0
 10
941.1693718402931
 20
852.7458129540614
 30
0.0
 10
938.3145745689148
 20
852.7458129540614
 30
0.0
 10
935.142833573357
 20
852.7458129540614
 30
0.0
 10
931.8152088705889
 20
852.7458129540614
 30
0.0
 10
928.2698847535752
 20
852.7458129540614
 30
0.0
 10
918.7707767106896
 20
852.7458129540614
 30
0.0
 10
903.3905832718857
 20
852.7458129540614
 30
0.0
 10
887.1994189060052
 20
852.7458129540614
 30
0.0
 10
878.0919346992008
 20
852.7458129540614
 30
0.0
 10
876.0685505362848
 20
852.7458129540614
 30
0.0
  0
SPLINE
  5
129
330
1F
100
AcDbEntity
  8
0
  6
Continuous
 62
     7
370
    35
100
AcDbSpline
210
0.0
220
0.0
230
1.0
 70
    24
 71
     3
 72
    13
 73
     9
 74
     0
 42
0.000000001
 43
0.00000001
 40
0.0
 40
0.0
 40
0.0
 40
0.0
 40
0.1657072897029691
 40
0.3362194549089196
 40
0.5019268488394273
 40
0.6724410048655526
 40
0.8339976659308266
 40
1.0
 40
1.0
 40
1.0
 40
1.0
 10
876.0685505362848
 20
852.7458129540614
 30
0.0
 10
876.0685505362848
 20
852.7858771228797
 30
0.0
 10
876.0685505362848
 20
852.8671671676666
 30
0.0
 10
876.0685505362848
 20
853.5217469541954
 30
0.0
 10
876.0685505362848
 20
854.5562314152726
 30
0.0
 10
876.0685505362848
 20
855.9552000714681
 30
0.0
 10
876.0685505362848
 20
857.6625934758749
 30
0.0
 10
876.0685505362848
 20
859.0068546578647
 30
0.0
 10
876.0685505362848
 20
859.6881074920826
 30
0.0
  0
SPLINE
  5
12A
330
1F
100
AcDbEntity
  8
0
  6
Continuous
 62
     7
370
    35
100
AcDbSpline
210
0.0
220
0.0
230
1.0
 70
    24
 71
     3
 72
    19
 73
    15
 74
     0
 42
0.000000001
 43
0.00000001
 40
0.0
 40
0.0
 40
0.0
 40
0.0
 40
0.0382207503307351
 40
0.0915494404916921
 40
0.1448915703147604
 40
0.1929664581785597
 40
0.2410362564356872
 40
0.2858279824724462
 40
0.3305900149900004
 40
0.3739481351802184
 40
0.4173762821662899
 40
0.6722423303438956
 40
0.9271575457957382
 40
1.0
 40
1.0
 40
1.0
 40
1.0
 10
804.376970419536
 20
852.7458129540614
 30
0.0
 10
804.542645567955
 20
852.7458129540614
 30
0.0
 10
804.9394841179546
 20
852.7458129540614
 30
0.0
 10
806.3121644668126
 20
852.7458129540614
 30
0.0
 10
808.3956807533795
 20
852.7458129540614
 30
0.0
 10
810.9800848468311
 20
852.7458129540614
 30
0.0
 10
813.8454985431173
 20
852.7458129540613
 30
0.0
 10
817.009578116275
 20
852.7458129540614
 30
0.0
 10
820.3488205897652
 20
852.7458129540614
 30
0.0
 10
823.8926082054127
 20
852.7458129540614
 30
0.0
 10
833.376918797598
 20
852.7458129540614
 30
0.0
 10
848.7542582217868
 20
852.7458129540614
 30
0.0
 10
864.9406027282993
 20
852.7458129540614
 30
0.0
 10
874.0451187390616
 20
852.7458129540614
 30
0.0
 10
876.0685505362848
 20
852.7458129540614
 30
0.0
  0
LINE
  5
12B
330
1F
100
AcDbEntity
  8
0
  6
Continuous
 62
     7
370
    35
100
AcDbLine
 10
787.5685499998
 20
872.745812507
 30
0.0
 11
787.5685499998
 21
892.7458139226
 31
0.0
  0
LINE
  5
12C
330
1F
100
AcDbEntity
  8
0
  6
Continuous
 62
     7
370
    35
100
AcDbLine
 10
787.5685499998
 20
852.7458129541
 30
0.0
 11
787.5685499998
 21
872.745812507
 31
0.0
  0
SPLINE
  5
12D
330
1F
100
AcDbEntity
  8
0
  6
Continuous
 62
     7
370
    35
100
AcDbSpline
210
0.0
220
0.0
230
1.0
 70
     8
 71
     3
 72
    10
 73
     6
 74
     0
 42
0.000000001
 43
0.00000001
 40
0.0
 40
0.0
 40
0.0
 40
0.0
 40
0.4996656336305701
 40
0.9790558290172884
 40
1.0
 40
1.0
 40
1.0
 40
1.0
 10
793.0919187160829
 20
893.4604615063004
 30
0.0
 10
792.8005146528409
 20
893.2596246169236
 30
0.0
 10
792.2295311240292
 20
892.8661003999442
 30
0.0
 10
791.5133004698023
 20
892.7476592869458
 30
0.0
 10
791.1624151442575
 20
892.7458880665405
 30
0.0
 10
791.1477269622186
 20
892.7458139226369
 30
0.0
  0
LINE
  5
12E
330
1F
100
AcDbEntity
  8
0
  6
Continuous
 62
     7
370
    35
100
AcDbLine
 10
336.0685290786
 20
921.1954144851
 30
0.0
 11
336.0685290786
 21
911.1954137773
 31
0.0
  0
LINE
  5
12F
330
1F
100
AcDbEntity
  8
0
  6
Continuous
 62
     7
370
    35
100
AcDbLine
 10
334.0685548278
 20
921.1954144851
 30
0.0
 11
334.0685548278
 21
910.195414079
 31
0.0
  0
ARC
  5
130
330
1F
100
AcDbEntity
  8
0
  6
Continuous
 62
     7
370
    35
100
AcDbCircle
 10
335.0685505363
 20
921.195413895
 30
0.0
 40
1.000000000000114
100
AcDbArc
 50
0.0
 51
90.0
  0
ARC
  5
131
330
1F
100
AcDbEntity
  8
0
  6
Continuous
 62
     7
370
    35
100
AcDbCircle
 10
335.0685505363
 20
921.195413895
 30
0.0
 40
1.000000000000114
100
AcDbArc
 50
90.0
 51
180.0
  0
LINE
  5
132
330
1F
100
AcDbEntity
  8
0
  6
Continuous
 62
     7
370
    35
100
AcDbLine
 10
334.0685548278
 20
909.1954139151
 30
0.0
 11
334.0685548278
 21
903.4695543672
 31
0.0
  0
LINE
  5
133
330
1F
100
AcDbEntity
  8
0
  6
Continuous
 62
     7
370
    35
100
AcDbLine
 10
336.0685290786
 20
907.0973981727
 30
0.0
 11
336.0685290786
 21
903.4695543672
 31
0.0
  0
LINE
  5
134
330
1F
100
AcDbEntity
  8
0
  6
Continuous
 62
     7
370
    35
100
AcDbLine
 10
334.0685548278
 20
901.6569388189
 30
0.0
 11
334.0685548278
 21
903.4695543672
 31
0.0
  0
LINE
  5
135
330
1F
100
AcDbEntity
  8
0
  6
Continuous
 62
     7
370
    35
100
AcDbLine
 10
336.0685290786
 20
903.4695543672
 30
0.0
 11
336.0685290786
 21
901.6569388189
 31
0.0
  0
LINE
  5
136
330
1F
100
AcDbEntity
  8
0
  6
Continuous
 62
     7
370
    35
100
AcDbLine
 10
334.0685548278
 20
901.6569388189
 30
0.0
 11
334.0685548278
 21
894.3986395464
 31
0.0
  0
LINE
  5
137
330
1F
100
AcDbEntity
  8
0
  6
Continuous
 62
     7
370
    35
100
AcDbLine
 10
336.0685290786
 20
901.6569388189
 30
0.0
 11
336.0685290786
 21
894.3986395464
 31
0.0
  0
LINE
  5
138
330
1F
100
AcDbEntity
  8
0
  6
Continuous
 62
     7
370
    35
100
AcDbLine
 10
334.0685548278
 20
892.5860241145
 30
0.0
 11
334.0685548278
 21
894.3986395464
 31
0.0
  0
LINE
  5
139
330
1F
100
AcDbEntity
  8
0
  6
Continuous
 62
     7
370
    35
100
AcDbLine
 10
336.0685290786
 20
894.3986395464
 30
0.0
 11
336.0685290786
 21
892.5860241145
 31
0.0
  0
LINE
  5
13A
330
1F
100
AcDbEntity
  8
0
  6
Continuous
 62
     7
370
    35
100
AcDbLine
 10
334.0685548278
 20
892.5860241145
 30
0.0
 11
334.0685548278
 21
858.2954151646
 31
0.0
  0
LINE
  5
13B
330
1F
100
AcDbEntity
  8
0
  6
Continuous
 62
     7
370
    35
100
AcDbLine
 10
336.0685290786
 20
892.5860241145
 30
0.0
 11
336.0685290786
 21
858.2954151646
 31
0.0
  0
LINE
  5
13C
330
1F
100
AcDbEntity
  8
0
  6
Continuous
 62
     7
370
    35
100
AcDbLine
 10
336.0685290786
 20
856.2954148368
 30
0.0
 11
334.0685548278
 21
856.2954148368
 31
0.0
  0
LINE
  5
13D
330
1F
100
AcDbEntity
  8
0
  6
Continuous
 62
     7
370
    35
100
AcDbLine
 10
334.0685548278
 20
856.2954148368
 30
0.0
 11
334.0685548278
 21
858.2954151646
 31
0.0
  0
LINE
  5
13E
330
1F
100
AcDbEntity
  8
0
  6
Continuous
 62
     7
370
    35
100
AcDbLine
 10
336.0685290786
 20
858.2954151646
 30
0.0
 11
336.0685290786
 21
856.2954148368
 31
0.0
  0
ARC
  5
13F
330
1F
100
AcDbEntity
  8
0
  6
Continuous
 62
     7
370
    35
100
AcDbCircle
 10
1417.0685505363
 20
921.195413895
 30
0.0
 40
1.000000000000227
100
AcDbArc
 50
90.0
 51
180.0
  0
ARC
  5
140
330
1F
100
AcDbEntity
  8
0
  6
Continuous
 62
     7
370
    35
100
AcDbCircle
 10
1417.0685505363
 20
921.195413895
 30
0.0
 40
1.0
100
AcDbArc
 50
0.0
 51
90.0
  0
LINE
  5
141
330
1F
100
AcDbEntity
  8
0
  6
Continuous
 62
     7
370
    35
100
AcDbLine
 10
1416.068571994
 20
921.1954144851
 30
0.0
 11
1416.068571994
 21
911.1954137773
 31
0.0
  0
LINE
  5
142
330
1F
100
AcDbEntity
  8
0
  6
Continuous
 62
     7
370
    35
100
AcDbLine
 10
1418.0685462448
 20
921.1954144851
 30
0.0
 11
1418.0685462448
 21
910.195414079
 31
0.0
  0
LINE
  5
143
330
1F
100
AcDbEntity
  8
0
  6
Continuous
 62
     7
370
    35
100
AcDbLine
 10
1416.068571994
 20
907.0973981727
 30
0.0
 11
1416.068571994
 21
903.4695543672
 31
0.0
  0
LINE
  5
144
330
1F
100
AcDbEntity
  8
0
  6
Continuous
 62
     7
370
    35
100
AcDbLine
 10
1418.0685462448
 20
909.1954139151
 30
0.0
 11
1418.0685462448
 21
903.4695543672
 31
0.0
  0
LINE
  5
145
330
1F
100
AcDbEntity
  8
0
  6
Continuous
 62
     7
370
    35
100
AcDbLine
 10
1416.068571994
 20
901.6569388189
 30
0.0
 11
1416.068571994
 21
903.4695543672
 31
0.0
  0
LINE
  5
146
330
1F
100
AcDbEntity
  8
0
  6
Continuous
 62
     7
370
    35
100
AcDbLine
 10
1418.0685462448
 20
903.4695543672
 30
0.0
 11
1418.0685462448
 21
901.6569388189
 31
0.0
  0
LINE
  5
147
330
1F
100
AcDbEntity
  8
0
  6
Continuous
 62
     7
370
    35
100
AcDbLine
 10
1416.068571994
 20
901.6569388189
 30
0.0
 11
1416.068571994
 21
894.3986395464
 31
0.0
  0
LINE
  5
148
330
1F
100
AcDbEntity
  8
0
  6
Continuous
 62
     7
370
    35
100
AcDbLine
 10
1418.0685462448
 20
901.6569388189
 30
0.0
 11
1418.0685462448
 21
894.3986395464
 31
0.0
  0
LINE
  5
149
330
1F
100
AcDbEntity
  8
0
  6
Continuous
 62
     7
370
    35
100
AcDbLine
 10
1416.068571994
 20
892.5860241145
 30
0.0
 11
1416.068571994
 21
894.3986395464
 31
0.0
  0
LINE
  5
14A
330
1F
100
AcDbEntity
  8
0
  6
Continuous
 62
     7
370
    35
100
AcDbLine
 10
1418.0685462448
 20
894.3986395464
 30
0.0
 11
1418.0685462448
 21
892.5860241145
 31
0.0
  0
LINE
  5
14B
330
1F
100
AcDbEntity
  8
0
  6
Continuous
 62
     7
370
    35
100
AcDbLine
 10
1416.068571994
 20
892.5860241145
 30
0.0
 11
1416.068571994
 21
858.2954151646
 31
0.0
  0
LINE
  5
14C
330
1F
100
AcDbEntity
  8
0
  6
Continuous
 62
     7
370
    35
100
AcDbLine
 10
1418.0685462448
 20
892.5860241145
 30
0.0
 11
1418.0685462448
 21
858.2954151646
 31
0.0
  0
LINE
  5
14D
330
1F
100
AcDbEntity
  8
0
  6
Continuous
 62
     7
370
    35
100
AcDbLine
 10
1418.0685462448
 20
856.2954148368
 30
0.0
 11
1416.068571994
 21
856.2954148368
 31
0.0
  0
LINE
  5
14E
330
1F
100
AcDbEntity
  8
0
  6
Continuous
 62
     7
370
    35
100
AcDbLine
 10
1416.068571994
 20
856.2954148368
 30
0.0
 11
1416.068571994
 21
858.2954151646
 31
0.0
  0
LINE
  5
14F
330
1F
100
AcDbEntity
  8
0
  6
Continuous
 62
     7
370
    35
100
AcDbLine
 10
1418.0685462448
 20
858.2954151646
 30
0.0
 11
1418.0685462448
 21
856.2954148368
 31
0.0
  0
LINE
  5
150
330
1F
100
AcDbEntity
  8
0
  6
Continuous
 62
     7
370
    35
100
AcDbLine
 10
336.0685290786
 20
910.195414079
 30
0.0
 11
313.5685505363
 21
910.195414079
 31
0.0
  0
LINE
  5
151
330
1F
100
AcDbEntity
  8
0
  6
Continuous
 62
     7
370
    35
100
AcDbLine
 10
336.0685290786
 20
909.1954139151
 30
0.0
 11
313.5685505363
 21
909.1954139151
 31
0.0
  0
LINE
  5
152
330
1F
100
AcDbEntity
  8
0
  6
Continuous
 62
     7
370
    35
100
AcDbLine
 10
303.568560073
 20
909.1954139151
 30
0.0
 11
303.568560073
 21
910.195414079
 31
0.0
  0
LINE
  5
153
330
1F
100
AcDbEntity
  8
0
  6
Continuous
 62
     7
370
    35
100
AcDbLine
 10
303.568560073
 20
910.195414079
 30
0.0
 11
313.5685505363
 21
910.195414079
 31
0.0
  0
LINE
  5
154
330
1F
100
AcDbEntity
  8
0
  6
Continuous
 62
     7
370
    35
100
AcDbLine
 10
313.5685505363
 20
909.1954139151
 30
0.0
 11
303.568560073
 21
909.1954139151
 31
0.0
  0
LINE
  5
155
330
1F
100
AcDbEntity
  8
0
  6
Continuous
 62
     7
370
    35
100
AcDbLine
 10
333.9685382339
 20
910.195414079
 30
0.0
 11
333.9685382339
 21
911.1954137773
 31
0.0
  0
LINE
  5
156
330
1F
100
AcDbEntity
  8
0
  6
Continuous
 62
     7
370
    35
100
AcDbLine
 10
303.568560073
 20
911.1954137773
 30
0.0
 11
303.568560073
 21
910.195414079
 31
0.0
  0
LINE
  5
157
330
1F
100
AcDbEntity
  8
0
  6
Continuous
 62
     7
370
    35
100
AcDbLine
 10
303.568560073
 20
942.9954147056
 30
0.0
 11
303.568560073
 21
911.1954137773
 31
0.0
  0
ARC
  5
158
330
1F
100
AcDbEntity
  8
0
  6
Continuous
 62
     7
370
    35
100
AcDbCircle
 10
313.5685505363
 20
942.995413895
 30
0.0
 40
10.0
100
AcDbArc
 50
90.0
 51
180.0
  0
LINE
  5
159
330
1F
100
AcDbEntity
  8
0
  6
Continuous
 62
     7
370
    35
100
AcDbLine
 10
336.0685290786
 20
952.9954126195
 30
0.0
 11
313.5685505363
 21
952.9954126195
 31
0.0
  0
LINE
  5
15A
330
1F
100
AcDbEntity
  8
0
  6
Continuous
 62
     7
370
    35
100
AcDbLine
 10
336.0685290786
 20
952.6954149917
 30
0.0
 11
336.0685290786
 21
952.9954126195
 31
0.0
  0
LINE
  5
15B
330
1F
100
AcDbEntity
  8
0
  6
Continuous
 62
     7
370
    35
100
AcDbLine
 10
333.9685382339
 20
922.5454131231
 30
0.0
 11
336.0685290786
 21
922.5454131231
 31
0.0
  0
LINE
  5
15C
330
1F
100
AcDbEntity
  8
0
  6
Continuous
 62
     7
370
    35
100
AcDbLine
 10
333.9685382339
 20
911.1954137773
 30
0.0
 11
333.9685382339
 21
922.5454131231
 31
0.0
  0
LINE
  5
15D
330
1F
100
AcDbEntity
  8
0
  6
Continuous
 62
     7
370
    35
100
AcDbLine
 10
1416.068571994
 20
909.1954139151
 30
0.0
 11
1438.5685505363
 21
909.1954139151
 31
0.0
  0
LINE
  5
15E
330
1F
100
AcDbEntity
  8
0
  6
Continuous
 62
     7
370
    35
100
AcDbLine
 10
1416.068571994
 20
910.195414079
 30
0.0
 11
1438.5685505363
 21
910.195414079
 31
0.0
  0
LINE
  5
15F
330
1F
100
AcDbEntity
  8
0
  6
Continuous
 62
     7
370
    35
100
AcDbLine
 10
1448.5685409995
 20
910.195414079
 30
0.0
 11
1448.5685409995
 21
909.1954139151
 31
0.0
  0
LINE
  5
160
330
1F
100
AcDbEntity
  8
0
  6
Continuous
 62
     7
370
    35
100
AcDbLine
 10
1448.5685409995
 20
909.1954139151
 30
0.0
 11
1438.5685505363
 21
909.1954139151
 31
0.0
  0
LINE
  5
161
330
1F
100
AcDbEntity
  8
0
  6
Continuous
 62
     7
370
    35
100
AcDbLine
 10
1438.5685505363
 20
910.195414079
 30
0.0
 11
1448.5685409995
 21
910.195414079
 31
0.0
  0
LINE
  5
162
330
1F
100
AcDbEntity
  8
0
  6
Continuous
 62
     7
370
    35
100
AcDbLine
 10
1448.5685409995
 20
910.195414079
 30
0.0
 11
1448.5685409995
 21
911.1954137773
 31
0.0
  0
LINE
  5
163
330
1F
100
AcDbEntity
  8
0
  6
Continuous
 62
     7
370
    35
100
AcDbLine
 10
1418.1685628387
 20
910.195414079
 30
0.0
 11
1418.1685628387
 21
911.1954137773
 31
0.0
  0
LINE
  5
164
330
1F
100
AcDbEntity
  8
0
  6
Continuous
 62
     7
370
    35
100
AcDbLine
 10
1416.068571994
 20
952.6954149917
 30
0.0
 11
1416.068571994
 21
952.9954126195
 31
0.0
  0
LINE
  5
165
330
1F
100
AcDbEntity
  8
0
  6
Continuous
 62
     7
370
    35
100
AcDbLine
 10
1416.068571994
 20
952.9954126195
 30
0.0
 11
1438.5685505363
 21
952.9954126195
 31
0.0
  0
ARC
  5
166
330
1F
100
AcDbEntity
  8
0
  6
Continuous
 62
     7
370
    35
100
AcDbCircle
 10
1438.5685505363
 20
942.995413895
 30
0.0
 40
10.0
100
AcDbArc
 50
360.0
 51
90.0
  0
LINE
  5
167
330
1F
100
AcDbEntity
  8
0
  6
Continuous
 62
     7
370
    35
100
AcDbLine
 10
1448.5685409995
 20
942.9954147056
 30
0.0
 11
1448.5685409995
 21
911.1954137773
 31
0.0
  0
LINE
  5
168
330
1F
100
AcDbEntity
  8
0
  6
Continuous
 62
     7
370
    35
100
AcDbLine
 10
1418.1685628387
 20
922.5454131231
 30
0.0
 11
1418.1685628387
 21
911.1954137773
 31
0.0
  0
LINE
  5
169
330
1F
100
AcDbEntity
  8
0
  6
Continuous
 62
     7
370
    35
100
AcDbLine
 10
1418.1685628387
 20
922.5454131231
 30
0.0
 11
1416.068571994
 21
922.5454131231
 31
0.0
  0
LINE
  5
16A
330
1F
100
AcDbEntity
  8
0
  6
Continuous
 62
     8
370
    18
100
AcDbLine
 10
1416.068571994
 20
911.1954137773
 30
0.0
 11
336.0685290786
 21
911.1954137773
 31
0.0
  0
LINE
  5
16B
330
1F
100
AcDbEntity
  8
0
  6
Continuous
 62
     8
370
    18
100
AcDbLine
 10
336.0685290786
 20
920.6954134718
 30
0.0
 11
1416.068571994
 21
920.6954134718
 31
0.0
  0
LINE
  5
16C
330
1F
100
AcDbEntity
  8
0
  6
Continuous
 62
     8
370
    18
100
AcDbLine
 10
336.0685290786
 20
905.8605490575
 30
0.0
 11
1416.068571994
 21
905.8605490575
 31
0.0
  0
LINE
  5
16D
330
1F
100
AcDbEntity
  8
0
  6
Continuous
 62
     8
370
    18
100
AcDbLine
 10
336.0685290786
 20
907.8573324808
 30
0.0
 11
1416.068571994
 21
907.8573324808
 31
0.0
  0
LINE
  5
16E
330
1F
100
AcDbEntity
  8
0
  6
Continuous
 62
     8
370
    18
100
AcDbLine
 10
336.0685290786
 20
904.1002414745
 30
0.0
 11
793.1093754264
 21
904.1002414745
 31
0.0
  0
LINE
  5
16F
330
1F
100
AcDbEntity
  8
0
  6
Continuous
 62
     8
370
    18
100
AcDbLine
 10
959.0277256461
 20
904.1002414745
 30
0.0
 11
1416.068571994
 21
904.1002414745
 31
0.0
  0
SPLINE
  5
170
330
1F
100
AcDbEntity
  8
0
  6
Continuous
 62
     8
370
    18
100
AcDbSpline
210
0.0
220
0.0
230
1.0
 70
     8
 71
     3
 72
    10
 73
     6
 74
     0
 42
0.000000001
 43
0.00000001
 40
0.0
 40
0.0
 40
0.0
 40
0.0
 40
0.5
 40
0.5
 40
1.0
 40
1.0
 40
1.0
 40
1.0
 10
935.3846626433801
 20
903.7505974717769
 30
0.0
 10
934.3456189606218
 20
903.7652346077203
 30
0.0
 10
933.3000066399175
 20
903.7997045848728
 30
0.0
 10
931.194880205091
 20
903.8527281912691
 30
0.0
 10
930.1353627936296
 20
903.8711808078307
 30
0.0
 10
929.0685505362853
 20
903.8711808078307
 30
0.0
  0
LINE
  5
171
330
1F
100
AcDbEntity
  8
0
  6
Continuous
 62
     8
370
    18
100
AcDbLine
 10
929.0685499104
 20
903.8711808246
 30
0.0
 11
929.0685499104
 21
905.7599862429
 31
0.0
  0
ARC
  5
172
330
1F
100
AcDbEntity
  8
0
  6
Continuous
 62
     8
370
    18
100
AcDbCircle
 10
938.3487402691
 20
904.1395430708
 30
0.0
 40
2.989485916018205
100
AcDbArc
 50
147.5231259254
 51
187.4756313101
  0
SPLINE
  5
173
330
1F
100
AcDbEntity
  8
0
  6
Continuous
 62
     8
370
    18
100
AcDbSpline
210
0.0
220
0.0
230
1.0
 70
     8
 71
     3
 72
    10
 73
     6
 74
     0
 42
0.000000001
 43
0.00000001
 40
0.0
 40
0.0
 40
0.0
 40
0.0
 40
0.5
 40
0.5
 40
1.0
 40
1.0
 40
1.0
 40
1.0
 10
823.0685505362848
 20
903.87118080779
 30
0.0
 10
822.0017382789407
 20
903.87118080779
 30
0.0
 10
820.9422208674788
 20
903.8527281912691
 30
0.0
 10
818.8370944326521
 20
903.7997045848728
 30
0.0
 10
817.7914821119476
 20
903.7652346077523
 30
0.0
 10
816.7524384291894
 20
903.7505974718088
 30
0.0
  0
ARC
  5
174
330
1F
100
AcDbEntity
  8
0
  6
Continuous
 62
     8
370
    18
100
AcDbCircle
 10
813.7883608035
 20
904.1395430708
 30
0.0
 40
2.989485916018529
100
AcDbArc
 50
352.5243686899
 51
32.4768740746
  0
LINE
  5
175
330
1F
100
AcDbEntity
  8
0
  6
Continuous
 62
     8
370
    18
100
AcDbLine
 10
823.0685511621
 20
903.8711808246
 30
0.0
 11
823.0685511621
 21
905.7599862429
 31
0.0
  0
LINE
  5
176
330
1F
100
AcDbEntity
  8
0
  6
Continuous
 62
     8
370
    18
100
AcDbLine
 10
929.0685499104
 20
903.8711808246
 30
0.0
 11
823.0685511621
 21
903.8711808246
 31
0.0
  0
ELLIPSE
  5
177
330
1F
100
AcDbEntity
  8
0
  6
Continuous
 62
     8
370
    18
100
AcDbEllipse
 10
929.0685505363
 20
902.090981134
 30
0.0
 11
27.99999999999989
 21
0.0
 31
0.0
210
0.0
220
0.0
230
1.0
 40
0.0608401234
 41
0.0075591103181333
 42
1.343262674821349
  0
ARC
  5
178
330
1F
100
AcDbEntity
  8
0
  6
Continuous
 62
     8
370
    18
100
AcDbCircle
 10
959.0670496993
 20
902.1013145091
 30
0.0
 40
1.999297754847294
100
AcDbArc
 50
91.1268059521
 51
179.9271038471
  0
ELLIPSE
  5
179
330
1F
100
AcDbEntity
  8
0
  6
Continuous
 62
     8
370
    18
100
AcDbEllipse
 10
823.0685505363
 20
902.090981134
 30
0.0
 11
28.0
 21
0.0
 31
0.0
210
0.0
220
0.0
230
1.0
 40
0.0608401234
 41
1.798329978768443
 42
3.134033543271658
  0
ARC
  5
17A
330
1F
100
AcDbEntity
  8
0
  6
Continuous
 62
     8
370
    18
100
AcDbCircle
 10
793.0700513733
 20
902.1013145091
 30
0.0
 40
1.999297754847521
100
AcDbArc
 50
0.0728961529
 51
88.8731940479
  0
LINE
  5
17B
330
1F
100
AcDbEntity
  8
0
  6
Continuous
 62
     8
370
    18
100
AcDbLine
 10
823.0685511621
 20
903.8711808246
 30
0.0
 11
823.0685511621
 21
899.195813676
 31
0.0
  0
LINE
  5
17C
330
1F
100
AcDbEntity
  8
0
  6
Continuous
 62
     8
370
    18
100
AcDbLine
 10
929.0685499104
 20
903.8711808246
 30
0.0
 11
929.0685499104
 21
899.195813676
 31
0.0
  0
LINE
  5
17D
330
1F
100
AcDbEntity
  8
0
  6
Continuous
 62
     8
370
    18
100
AcDbLine
 10
1416.068571994
 20
923.1954148129
 30
0.0
 11
336.0685290786
 21
923.1954148129
 31
0.0
  0
LINE
  5
17E
330
1F
100
AcDbEntity
  8
0
  6
Continuous
 62
     8
370
    18
100
AcDbLine
 10
747.8746058437
 20
872.745812507
 30
0.0
 11
747.8746058437
 21
852.7458129541
 31
0.0
  0
LINE
  5
17F
330
1F
100
AcDbEntity
  8
0
  6
Continuous
 62
     8
370
    18
100
AcDbLine
 10
747.8746058437
 20
892.7458139226
 30
0.0
 11
747.8746058437
 21
872.745812507
 31
0.0
  0
LINE
  5
180
330
1F
100
AcDbEntity
  8
0
  6
Continuous
 62
     8
370
    18
100
AcDbLine
 10
747.2687991353
 20
872.745812507
 30
0.0
 11
747.2687991353
 21
892.6840122879
 31
0.0
  0
LINE
  5
181
330
1F
100
AcDbEntity
  8
0
  6
Continuous
 62
     8
370
    18
100
AcDbLine
 10
747.2687991353
 20
852.8076155201
 30
0.0
 11
747.2687991353
 21
872.745812507
 31
0.0
  0
SPLINE
  5
182
330
1F
100
AcDbEntity
  8
0
  6
Continuous
 62
     8
370
    18
100
AcDbSpline
210
0.0
220
0.0
230
1.0
 70
     8
 71
     3
 72
    12
 73
     8
 74
     0
 42
0.000000001
 43
0.00000001
 40
0.0
 40
0.0
 40
0.0
 40
0.0
 40
0.2150212744340184
 40
0.4366585257730577
 40
0.7089915765306104
 40
0.8534445665566025
 40
0.9999999999999999
 40
0.9999999999999999
 40
0.9999999999999999
 40
0.9999999999999999
 10
911.6249712201454
 20
884.720577494853
 30
0.0
 10
911.6233533597498
 20
883.3614929706252
 30
0.0
 10
911.6200678591076
 20
880.6015063306417
 30
0.0
 10
911.6167007528292
 20
875.7669517500282
 30
0.0
 10
911.607078981075
 20
871.3258026120673
 30
0.0
 10
911.6068474055945
 20
867.4496391328395
 30
0.0
 10
911.6075115761533
 20
865.5155160838127
 30
0.0
 10
911.6078460606435
 20
864.5414678469829
 30
0.0
  0
ARC
  5
183
330
1F
100
AcDbEntity
  8
0
  6
Continuous
 62
     8
370
    18
100
AcDbCircle
 10
909.894540181
 20
856.6530943049
 30
0.0
 40
8.072289277326695
100
AcDbArc
 50
77.746031847
 51
91.6006314788
  0
SPLINE
  5
184
330
1F
100
AcDbEntity
  8
0
  6
Continuous
 62
     8
370
    18
100
AcDbSpline
210
0.0
220
0.0
230
1.0
 70
     8
 71
     3
 72
    12
 73
     8
 74
     0
 42
0.000000001
 43
0.00000001
 40
0.0
 40
0.0
 40
0.0
 40
0.0
 40
0.1437327751781156
 40
0.2897157030848425
 40
0.5626262667577495
 40
0.778645460942475
 40
1.0
 40
1.0
 40
1.0
 40
1.0
 10
909.6690597030023
 20
864.7222338334254
 30
0.0
 10
909.6499622178972
 20
865.6549651155673
 30
0.0
 10
909.6114682744142
 20
867.5350296927671
 30
0.0
 10
909.526112054906
 20
871.3086006381982
 30
0.0
 10
909.4553670557962
 20
875.594799615036
 30
0.0
 10
909.485694738179
 20
880.3061444903074
 30
0.0
 10
909.5403921911021
 20
883.0153633998086
 30
0.0
 10
909.5680745335916
 20
884.3864971861772
 30
0.0
  0
ARC
  5
185
330
1F
100
AcDbEntity
  8
0
  6
Continuous
 62
     8
370
    18
100
AcDbCircle
 10
909.7421359095
 20
889.813906409
 30
0.0
 40
5.430199649654397
100
AcDbArc
 50
268.1631078984
 51
290.2876867983
  0
SPLINE
  5
186
330
1F
100
AcDbEntity
  8
0
  6
Continuous
 62
     8
370
    18
100
AcDbSpline
210
0.0
220
0.0
230
1.0
 70
     8
 71
     3
 72
    12
 73
     8
 74
     0
 42
0.000000001
 43
0.00000001
 40
0.0
 40
0.0
 40
0.0
 40
0.0
 40
0.2027536321449871
 40
0.4113762653609578
 40
0.6141328818955514
 40
0.8227630182497764
 40
1.0
 40
1.0
 40
1.0
 40
1.0
 10
912.992041000972
 20
884.9855667070084
 30
0.0
 10
913.0072769445638
 20
883.6834894388799
 30
0.0
 10
913.0381898584668
 20
881.0416443675617
 30
0.0
 10
913.0608128625647
 20
876.7724941890317
 30
0.0
 10
913.0085570680485
 20
872.3817624366221
 30
0.0
 10
912.9426124611908
 20
868.2018512094661
 30
0.0
 10
912.9066272195159
 20
865.5795085218679
 30
0.0
 10
912.8900984319546
 20
864.3750107005767
 30
0.0
  0
ARC
  5
187
330
1F
100
AcDbEntity
  8
0
  6
Continuous
 62
     8
370
    18
100
AcDbCircle
 10
912.894768712
 20
869.4329373715
 30
0.0
 40
5.057928827052161
100
AcDbArc
 50
255.2597912457
 51
269.9470954644
  0
ARC
  5
188
330
1F
100
AcDbEntity
  8
0
  6
Continuous
 62
     8
370
    18
100
AcDbCircle
 10
912.9640538415
 20
881.4711250186
 30
0.0
 40
3.514553124130265
100
AcDbArc
 50
89.5437362851
 51
112.396306654
  0
SPLINE
  5
189
330
1F
100
AcDbEntity
  8
0
  6
Continuous
 62
     8
370
    18
100
AcDbSpline
210
0.0
220
0.0
230
1.0
 70
     8
 71
     3
 72
    12
 73
     8
 74
     0
 42
0.000000001
 43
0.00000001
 40
0.0
 40
0.0
 40
0.0
 40
0.0
 40
0.1437327751781156
 40
0.2897157030848425
 40
0.5626262667577495
 40
0.778645460942475
 40
1.0
 40
1.0
 40
1.0
 40
1.0
 10
842.4680413695672
 20
864.7222338334254
 30
0.0
 10
842.4871388546723
 20
865.6549651155673
 30
0.0
 10
842.5256327981554
 20
867.5350296927671
 30
0.0
 10
842.6109890176635
 20
871.3086006381982
 30
0.0
 10
842.6817340167734
 20
875.594799615036
 30
0.0
 10
842.6514063343906
 20
880.3061444903074
 30
0.0
 10
842.5967088814673
 20
883.0153633998086
 30
0.0
 10
842.5690265389779
 20
884.3864971861772
 30
0.0
  0
ARC
  5
18A
330
1F
100
AcDbEntity
  8
0
  6
Continuous
 62
     8
370
    18
100
AcDbCircle
 10
842.2425608916
 20
856.6530943049
 30
0.0
 40
8.072289277324996
100
AcDbArc
 50
88.3993685212
 51
102.253968153
  0
SPLINE
  5
18B
330
1F
100
AcDbEntity
  8
0
  6
Continuous
 62
     8
370
    18
100
AcDbSpline
210
0.0
220
0.0
230
1.0
 70
     8
 71
     3
 72
    12
 73
     8
 74
     0
 42
0.000000001
 43
0.00000001
 40
0.0
 40
0.0
 40
0.0
 40
0.0
 40
0.2150212744340184
 40
0.4366585257730577
 40
0.7089915765306104
 40
0.8534445665566025
 40
0.9999999999999999
 40
0.9999999999999999
 40
0.9999999999999999
 40
0.9999999999999999
 10
840.512129852424
 20
884.720577494853
 30
0.0
 10
840.5137477128196
 20
883.3614929706252
 30
0.0
 10
840.5170332134619
 20
880.6015063306417
 30
0.0
 10
840.5204003197402
 20
875.7669517500282
 30
0.0
 10
840.5300220914945
 20
871.3258026120673
 30
0.0
 10
840.530253666975
 20
867.4496391328395
 30
0.0
 10
840.5295894964162
 20
865.5155160838127
 30
0.0
 10
840.529255011926
 20
864.5414678469829
 30
0.0
  0
ARC
  5
18C
330
1F
100
AcDbEntity
  8
0
  6
Continuous
 62
     8
370
    18
100
AcDbCircle
 10
842.394965163
 20
889.813906409
 30
0.0
 40
5.430199649654628
100
AcDbArc
 50
249.7123132017
 51
271.8368921016
  0
ARC
  5
18D
330
1F
100
AcDbEntity
  8
0
  6
Continuous
 62
     8
370
    18
100
AcDbCircle
 10
839.2423323605
 20
869.4329373715
 30
0.0
 40
5.057928827052729
100
AcDbArc
 50
270.0529045356
 51
284.7402087543
  0
SPLINE
  5
18E
330
1F
100
AcDbEntity
  8
0
  6
Continuous
 62
     8
370
    18
100
AcDbSpline
210
0.0
220
0.0
230
1.0
 70
     8
 71
     3
 72
    12
 73
     8
 74
     0
 42
0.000000001
 43
0.00000001
 40
0.0
 40
0.0
 40
0.0
 40
0.0
 40
0.2027536321449871
 40
0.4113762653609578
 40
0.6141328818955514
 40
0.8227630182497764
 40
1.0
 40
1.0
 40
1.0
 40
1.0
 10
839.1450600715974
 20
884.9855667070084
 30
0.0
 10
839.1298241280057
 20
883.6834894388799
 30
0.0
 10
839.0989112141027
 20
881.0416443675617
 30
0.0
 10
839.0762882100047
 20
876.7724941890317
 30
0.0
 10
839.128544004521
 20
872.3817624366221
 30
0.0
 10
839.1944886113786
 20
868.2018512094661
 30
0.0
 10
839.2304738530536
 20
865.5795085218679
 30
0.0
 10
839.2470026406148
 20
864.3750107005767
 30
0.0
  0
ARC
  5
18F
330
1F
100
AcDbEntity
  8
0
  6
Continuous
 62
     8
370
    18
100
AcDbCircle
 10
839.173047231
 20
881.4711250186
 30
0.0
 40
3.51455312412986
100
AcDbArc
 50
67.603693346
 51
90.4562637149
  0
SPLINE
  5
190
330
1F
100
AcDbEntity
  8
0
  6
Continuous
 62
     8
370
    18
100
AcDbSpline
210
0.0
220
0.0
230
1.0
 70
     8
 71
     3
 72
    12
 73
     8
 74
     0
 42
0.000000001
 43
0.00000001
 40
0.0
 40
0.0
 40
0.0
 40
0.0
 40
0.1720195528584108
 40
0.4559851246039152
 40
0.6711971093338257
 40
0.8863141192577368
 40
1.0
 40
1.0
 40
1.0
 40
1.0
 10
922.578878143678
 20
884.3317782596283
 30
0.0
 10
922.5971788687211
 20
883.28406894995
 30
0.0
 10
922.6456899725486
 20
880.5068273388437
 30
0.0
 10
922.6773453324499
 20
876.0641900695614
 30
0.0
 10
922.6175760043685
 20
871.2746178590784
 30
0.0
 10
922.5580130117611
 20
867.6336179700861
 30
0.0
 10
922.5273746914982
 20
865.5229242736103
 30
0.0
 10
922.516781279693
 20
864.7931372836761
 30
0.0
  0
ARC
  5
191
330
1F
100
AcDbEntity
  8
0
  6
Continuous
 62
     8
370
    18
100
AcDbCircle
 10
922.4129294998
 20
857.2996420701
 30
0.0
 40
7.49421481594998
100
AcDbArc
 50
89.2059929845
 51
104.4632538659
  0
SPLINE
  5
192
330
1F
100
AcDbEntity
  8
0
  6
Continuous
 62
     8
370
    18
100
AcDbSpline
210
0.0
220
0.0
230
1.0
 70
     8
 71
     3
 72
    12
 73
     8
 74
     0
 42
0.000000001
 43
0.00000001
 40
0.0
 40
0.0
 40
0.0
 40
0.0
 40
0.113918588465627
 40
0.3290870115341278
 40
0.5442936757008793
 40
0.8274287419879962
 40
0.9999999999999999
 40
0.9999999999999999
 40
0.9999999999999999
 40
0.9999999999999999
 10
920.5411816033223
 20
864.5563503817252
 30
0.0
 10
920.5408121704736
 20
865.3098045788896
 30
0.0
 10
920.5397449561253
 20
867.4863764045443
 30
0.0
 10
920.5332240143351
 20
871.2433254719755
 30
0.0
 10
920.519906389018
 20
876.1879388938837
 30
0.0
 10
920.5181324493606
 20
880.7740686324012
 30
0.0
 10
920.5137205671989
 20
883.6300111101716
 30
0.0
 10
920.5120498331884
 20
884.7115269020728
 30
0.0
  0
ARC
  5
193
330
1F
100
AcDbEntity
  8
0
  6
Continuous
 62
     8
370
    18
100
AcDbCircle
 10
922.4752203414
 20
889.5819649491
 30
0.0
 40
5.251209881044373
100
AcDbArc
 50
248.046679374
 51
271.1310803592
  0
SPLINE
  5
194
330
1F
100
AcDbEntity
  8
0
  6
Continuous
 62
     8
370
    18
100
AcDbSpline
210
0.0
220
0.0
230
1.0
 70
     8
 71
     3
 72
    12
 73
     8
 74
     0
 42
0.000000001
 43
0.00000001
 40
0.0
 40
0.0
 40
0.0
 40
0.0
 40
0.113918588465627
 40
0.3290870115341278
 40
0.5442936757008793
 40
0.8274287419879962
 40
0.9999999999999999
 40
0.9999999999999999
 40
0.9999999999999999
 40
0.9999999999999999
 10
831.5959194692471
 20
864.5563503817252
 30
0.0
 10
831.5962889020958
 20
865.3098045788896
 30
0.0
 10
831.5973561164442
 20
867.4863764045443
 30
0.0
 10
831.6038770582343
 20
871.2433254719755
 30
0.0
 10
831.6171946835514
 20
876.1879388938837
 30
0.0
 10
831.618968623209
 20
880.7740686324012
 30
0.0
 10
831.6233805053706
 20
883.6300111101716
 30
0.0
 10
831.625051239381
 20
884.7115269020728
 30
0.0
  0
ARC
  5
195
330
1F
100
AcDbEntity
  8
0
  6
Continuous
 62
     8
370
    18
100
AcDbCircle
 10
832.9766629342
 20
881.5193783232
 30
0.0
 40
3.466506414660124
100
AcDbArc
 50
89.2238787154
 51
112.9486513761
  0
SPLINE
  5
196
330
1F
100
AcDbEntity
  8
0
  6
Continuous
 62
     8
370
    18
100
AcDbSpline
210
0.0
220
0.0
230
1.0
 70
     8
 71
     3
 72
    12
 73
     8
 74
     0
 42
0.000000001
 43
0.00000001
 40
0.0
 40
0.0
 40
0.0
 40
0.0
 40
0.2029701313510044
 40
0.4118245959795095
 40
0.6147965189107867
 40
0.8236619041297082
 40
1.0
 40
1.0
 40
1.0
 40
1.0
 10
832.9553188773492
 20
864.3750107005767
 30
0.0
 10
832.9652845741034
 20
865.757575356364
 30
0.0
 10
832.9855048844128
 20
868.562786778337
 30
0.0
 10
833.0252739076969
 20
872.9375781600561
 30
0.0
 10
833.0538856619846
 20
877.3258916971781
 30
0.0
 10
833.0399091883793
 20
881.3915669383262
 30
0.0
 10
833.0287340803662
 20
883.8569609157876
 30
0.0
 10
833.0236183496811
 20
884.9855667070084
 30
0.0
  0
ARC
  5
197
330
1F
100
AcDbEntity
  8
0
  6
Continuous
 62
     8
370
    18
100
AcDbCircle
 10
832.9162817774
 20
869.2683600171
 30
0.0
 40
4.893505024846983
100
AcDbArc
 50
254.3464830381
 51
270.4570721361
  0
SPLINE
  5
198
330
1F
100
AcDbEntity
  8
0
  6
Continuous
 62
     8
370
    18
100
AcDbSpline
210
0.0
220
0.0
230
1.0
 70
     8
 71
     3
 72
    12
 73
     8
 74
     0
 42
0.000000001
 43
0.00000001
 40
0.0
 40
0.0
 40
0.0
 40
0.0
 40
0.2029701313510044
 40
0.4118245959795095
 40
0.6147965189107867
 40
0.8236619041297082
 40
1.0
 40
1.0
 40
1.0
 40
1.0
 10
919.1817821952203
 20
864.3750107005767
 30
0.0
 10
919.1718164984661
 20
865.757575356364
 30
0.0
 10
919.1515961881568
 20
868.562786778337
 30
0.0
 10
919.1118271648726
 20
872.9375781600561
 30
0.0
 10
919.0832154105849
 20
877.3258916971781
 30
0.0
 10
919.0971918841901
 20
881.3915669383262
 30
0.0
 10
919.1083669922033
 20
883.8569609157876
 30
0.0
 10
919.1134827228883
 20
884.9855667070084
 30
0.0
  0
ARC
  5
199
330
1F
100
AcDbEntity
  8
0
  6
Continuous
 62
     8
370
    18
100
AcDbCircle
 10
919.1604381384
 20
881.5193783232
 30
0.0
 40
3.466506414659332
100
AcDbArc
 50
67.0513486239
 51
90.7761212846
  0
ARC
  5
19A
330
1F
100
AcDbEntity
  8
0
  6
Continuous
 62
     8
370
    18
100
AcDbCircle
 10
919.2208192952
 20
869.268360017
 30
0.0
 40
4.893505024845281
100
AcDbArc
 50
269.5429278639
 51
285.6535169619
  0
ARC
  5
19B
330
1F
100
AcDbEntity
  8
0
  6
Continuous
 62
     8
370
    18
100
AcDbCircle
 10
829.7241715727
 20
857.2996420701
 30
0.0
 40
7.494214815948728
100
AcDbArc
 50
75.5367461341
 51
90.7940070155
  0
SPLINE
  5
19C
330
1F
100
AcDbEntity
  8
0
  6
Continuous
 62
     8
370
    18
100
AcDbSpline
210
0.0
220
0.0
230
1.0
 70
     8
 71
     3
 72
    12
 73
     8
 74
     0
 42
0.000000001
 43
0.00000001
 40
0.0
 40
0.0
 40
0.0
 40
0.0
 40
0.1720195528584108
 40
0.4559851246039152
 40
0.6711971093338257
 40
0.8863141192577368
 40
1.0
 40
1.0
 40
1.0
 40
1.0
 10
829.5582229288914
 20
884.3317782596283
 30
0.0
 10
829.5399222038484
 20
883.28406894995
 30
0.0
 10
829.491411100021
 20
880.5068273388437
 30
0.0
 10
829.4597557401196
 20
876.0641900695614
 30
0.0
 10
829.519525068201
 20
871.2746178590784
 30
0.0
 10
829.5790880608084
 20
867.6336179700861
 30
0.0
 10
829.6097263810713
 20
865.5229242736103
 30
0.0
 10
829.6203197928766
 20
864.7931372836761
 30
0.0
  0
ARC
  5
19D
330
1F
100
AcDbEntity
  8
0
  6
Continuous
 62
     8
370
    18
100
AcDbCircle
 10
829.6618807312
 20
889.5819649491
 30
0.0
 40
5.251209881043633
100
AcDbArc
 50
268.8689196407
 51
291.953320626
  0
LINE
  5
19E
330
1F
100
AcDbEntity
  8
0
  6
Continuous
 62
     8
370
    18
100
AcDbLine
 10
912.992041001
 20
884.985566707
 30
0.0
 11
919.1134827229
 21
884.985566707
 31
0.0
  0
LINE
  5
19F
330
1F
100
AcDbEntity
  8
0
  6
Continuous
 62
     8
370
    18
100
AcDbLine
 10
912.890098432
 20
864.3750107006
 30
0.0
 11
919.1817821952
 21
864.3750107006
 31
0.0
  0
LINE
  5
1A0
330
1F
100
AcDbEntity
  8
0
  6
Continuous
 62
     8
370
    18
100
AcDbLine
 10
839.1450600716
 20
884.985566707
 30
0.0
 11
833.0236183497
 21
884.985566707
 31
0.0
  0
LINE
  5
1A1
330
1F
100
AcDbEntity
  8
0
  6
Continuous
 62
     8
370
    18
100
AcDbLine
 10
839.2470026406
 20
864.3750107006
 30
0.0
 11
832.9553188773
 21
864.3750107006
 31
0.0
  0
SPLINE
  5
1A2
330
1F
100
AcDbEntity
  8
0
  6
Continuous
 62
     8
370
    18
100
AcDbSpline
210
0.0
220
0.0
230
1.0
 70
     8
 71
     3
 72
    10
 73
     6
 74
     0
 42
0.000000001
 43
0.00000001
 40
0.0
 40
0.0
 40
0.0
 40
0.0
 40
0.1695571330484844
 40
0.5847475072220433
 40
1.0
 40
1.0
 40
1.0
 40
1.0
 10
876.0685505362848
 20
859.6881074920826
 30
0.0
 10
874.1441333898156
 20
859.6860326994525
 30
0.0
 10
867.5074433902774
 20
859.6788774132282
 30
0.0
 10
856.1569710440517
 20
859.6835257061233
 30
0.0
 10
846.7289084457261
 20
859.7247932290164
 30
0.0
 10
842.0145245286325
 20
859.7454285339049
 30
0.0
  0
SPLINE
  5
1A3
330
1F
100
AcDbEntity
  8
0
  6
Continuous
 62
     8
370
    18
100
AcDbSpline
210
0.0
220
0.0
230
1.0
 70
     8
 71
     3
 72
     9
 73
     5
 74
     0
 42
0.000000001
 43
0.00000001
 40
0.0
 40
0.0
 40
0.0
 40
0.0
 40
0.49415007166596
 40
1.0
 40
1.0
 40
1.0
 40
1.0
 10
842.0145245286325
 20
859.7454285339049
 30
0.0
 10
842.1397994027383
 20
860.5245194053924
 30
0.0
 10
842.3933152500264
 20
862.1011474707511
 30
0.0
 10
842.4429391322836
 20
863.8417501120608
 30
0.0
 10
842.4680413695672
 20
864.7222338334254
 30
0.0
  0
SPLINE
  5
1A4
330
1F
100
AcDbEntity
  8
0
  6
Continuous
 62
     8
370
    18
100
AcDbSpline
210
0.0
220
0.0
230
1.0
 70
     8
 71
     3
 72
     9
 73
     5
 74
     0
 42
0.000000001
 43
0.00000001
 40
0.0
 40
0.0
 40
0.0
 40
0.0
 40
0.1229326613085841
 40
1.0
 40
1.0
 40
1.0
 40
1.0
 10
842.5690265389779
 20
884.3864971861772
 30
0.0
 10
842.5675660325488
 20
884.4984014528411
 30
0.0
 10
842.5556854923118
 20
885.4086905938452
 30
0.0
 10
842.5440896967546
 20
886.3117772189348
 30
0.0
 10
842.5339194032052
 20
887.10384500181
 30
0.0
  0
SPLINE
  5
1A5
330
1F
100
AcDbEntity
  8
0
  6
Continuous
 62
     8
370
    18
100
AcDbSpline
210
0.0
220
0.0
230
1.0
 70
     8
 71
     3
 72
    13
 73
     9
 74
     0
 42
0.000000001
 43
0.00000001
 40
0.0
 40
0.0
 40
0.0
 40
0.0
 40
0.2367907857406472
 40
0.4727250789361653
 40
0.6779784410252052
 40
0.8068813586262182
 40
0.9029810843397651
 40
0.9999999999999999
 40
0.9999999999999999
 40
0.9999999999999999
 40
0.9999999999999999
 10
842.5339194032052
 20
887.10384500181
 30
0.0
 10
842.5174384905089
 20
887.588268930408
 30
0.0
 10
842.4845362779886
 20
888.5553645847801
 30
0.0
 10
842.1984985220301
 20
889.9065345711756
 30
0.0
 10
841.687642983705
 20
890.9770224130566
 30
0.0
 10
841.0071355624598
 20
891.6160124757051
 30
0.0
 10
840.3415114118853
 20
891.9358680559557
 30
0.0
 10
839.8916637802029
 20
891.9751378336399
 30
0.0
 10
839.6656693908075
 20
891.9948661789826
 30
0.0
  0
LINE
  5
1A6
330
1F
100
AcDbEntity
  8
0
  6
Continuous
 62
     8
370
    18
100
AcDbLine
 10
839.6656693908
 20
891.994866179
 30
0.0
 11
832.5564855727
 21
892.0850144789
 31
0.0
  0
SPLINE
  5
1A7
330
1F
100
AcDbEntity
  8
0
  6
Continuous
 62
     8
370
    18
100
AcDbSpline
210
0.0
220
0.0
230
1.0
 70
     8
 71
     3
 72
     9
 73
     5
 74
     0
 42
0.000000001
 43
0.00000001
 40
0.0
 40
0.0
 40
0.0
 40
0.0
 40
0.9998130646088067
 40
1.0
 40
1.0
 40
1.0
 40
1.0
 10
832.5564855727055
 20
892.0850144789151
 30
0.0
 10
832.4494990486087
 20
892.084361643256
 30
0.0
 10
832.3424925212047
 20
892.083708685536
 30
0.0
 10
832.2362087063407
 20
892.0754047822385
 30
0.0
 10
832.2361888381341
 20
892.0754032299451
 30
0.0
  0
SPLINE
  5
1A8
330
1F
100
AcDbEntity
  8
0
  6
Continuous
 62
     8
370
    18
100
AcDbSpline
210
0.0
220
0.0
230
1.0
 70
     8
 71
     3
 72
    14
 73
    10
 74
     0
 42
0.000000001
 43
0.00000001
 40
0.0
 40
0.0
 40
0.0
 40
0.0
 40
0.0000086960517354
 40
0.0546557246072297
 40
0.1545956561534361
 40
0.2815116778855903
 40
0.4757794370636632
 40
0.737221503709837
 40
1.0
 40
1.0
 40
1.0
 40
1.0
 10
832.2361888381341
 20
892.0754032299451
 30
0.0
 10
832.2361689699117
 20
892.0754010569343
 30
0.0
 10
832.1112948164365
 20
892.0617434243502
 30
0.0
 10
831.7606315781759
 20
891.9978998221333
 30
0.0
 10
831.1705545876819
 20
891.7415454303583
 30
0.0
 10
830.4884883953378
 20
891.1257701378117
 30
0.0
 10
829.9377911125748
 20
890.0500231736036
 30
0.0
 10
829.6303414765046
 20
888.6292356831507
 30
0.0
 10
829.6003431772821
 20
887.5702174118807
 30
0.0
 10
829.5853057893612
 20
887.0393583640985
 30
0.0
  0
LINE
  5
1A9
330
1F
100
AcDbEntity
  8
0
  6
Continuous
 62
     8
370
    18
100
AcDbLine
 10
829.5853057894
 20
887.0393583641
 30
0.0
 11
829.5582229289
 21
884.3317782596
 31
0.0
  0
SPLINE
  5
1AA
330
1F
100
AcDbEntity
  8
0
  6
Continuous
 62
     8
370
    18
100
AcDbSpline
210
0.0
220
0.0
230
1.0
 70
     8
 71
     3
 72
     9
 73
     5
 74
     0
 42
0.000000001
 43
0.00000001
 40
0.0
 40
0.0
 40
0.0
 40
0.0
 40
0.4953960888450356
 40
1.0
 40
1.0
 40
1.0
 40
1.0
 10
829.6203197928766
 20
864.7931372836761
 30
0.0
 10
829.6398578425237
 20
863.9187859770567
 30
0.0
 10
829.6792970914141
 20
862.1538319810373
 30
0.0
 10
829.9069744818644
 20
860.5444620352554
 30
0.0
 10
830.0218613835672
 20
859.7323676661185
 30
0.0
  0
SPLINE
  5
1AB
330
1F
100
AcDbEntity
  8
0
  6
Continuous
 62
     8
370
    18
100
AcDbSpline
210
0.0
220
0.0
230
1.0
 70
     8
 71
     3
 72
    15
 73
    11
 74
     0
 42
0.000000001
 43
0.00000001
 40
0.0
 40
0.0
 40
0.0
 40
0.0
 40
0.074104286913936
 40
0.2157453918496976
 40
0.3576180203176027
 40
0.4992302588279255
 40
0.6408865847964965
 40
0.7875091172898239
 40
0.9341451715582788
 40
1.0
 40
1.0
 40
1.0
 40
1.0
 10
830.0218613835672
 20
859.7323676661185
 30
0.0
 10
829.033232337255
 20
859.7377897009503
 30
0.0
 10
826.1549621335579
 20
859.7535752793309
 30
0.0
 10
821.3916176100108
 20
859.6299754803696
 30
0.0
 10
815.9562242098498
 20
859.3641845961314
 30
0.0
 10
810.8494833864268
 20
859.2789327562776
 30
0.0
 10
806.133086309985
 20
859.1778806515993
 30
0.0
 10
801.9334719053478
 20
859.0929557424043
 30
0.0
 10
798.9651156710687
 20
859.0321052009623
 30
0.0
 10
797.5151869784622
 20
859.003723756233
 30
0.0
 10
797.0658274384836
 20
858.9949278250865
 30
0.0
  0
SPLINE
  5
1AC
330
1F
100
AcDbEntity
  8
0
  6
Continuous
 62
     8
370
    18
100
AcDbSpline
210
0.0
220
0.0
230
1.0
 70
     8
 71
     3
 72
    16
 73
    12
 74
     0
 42
0.000000001
 43
0.00000001
 40
0.0
 40
0.0
 40
0.0
 40
0.0
 40
0.0000023014190869
 40
0.1840378194671974
 40
0.3092571412904566
 40
0.4344268590116858
 40
0.5468039489341681
 40
0.6592680726267427
 40
0.7892125159476495
 40
0.9191832665767025
 40
1.0
 40
1.0
 40
1.0
 40
1.0
 10
793.8723521324495
 20
883.3566667601995
 30
0.0
 10
793.8723496489196
 20
883.356649375517
 30
0.0
 10
793.6737489611503
 20
881.9664466615684
 30
0.0
 10
793.4352827075592
 20
879.4513182300781
 30
0.0
 10
793.4074745526366
 20
875.664344837784
 30
0.0
 10
793.7009344395466
 20
872.4303977882962
 30
0.0
 10
794.2427511059402
 20
869.3675792068565
 30
0.0
 10
794.9340870841546
 20
866.3748974200666
 30
0.0
 10
795.7418111522275
 20
863.4174386857961
 30
0.0
 10
796.4880057366995
 20
860.9114611448919
 30
0.0
 10
796.9056868793259
 20
859.5260859946919
 30
0.0
 10
797.0658274384836
 20
858.9949278250865
 30
0.0
  0
SPLINE
  5
1AD
330
1F
100
AcDbEntity
  8
0
  6
Continuous
 62
     8
370
    18
100
AcDbSpline
210
0.0
220
0.0
230
1.0
 70
     8
 71
     3
 72
    13
 73
     9
 74
     0
 42
0.000000001
 43
0.00000001
 40
0.0
 40
0.0
 40
0.0
 40
0.0
 40
0.0000053390569604
 40
0.232976287171827
 40
0.5561395779773508
 40
0.8792686837014644
 40
0.9999947225319643
 40
1.0
 40
1.0
 40
1.0
 40
1.0
 10
793.8407393189767
 20
891.3778724238805
 30
0.0
 10
793.8407418025118
 20
891.377861558457
 30
0.0
 10
793.949113899009
 20
890.9037355004973
 30
0.0
 10
794.095047778222
 20
889.6830517936584
 30
0.0
 10
794.2244669731132
 20
887.4000261197426
 30
0.0
 10
794.0836616097846
 20
885.1383652252729
 30
0.0
 10
793.9291698544451
 20
883.7401849754164
 30
0.0
 10
793.8723546159858
 20
883.3566835240078
 30
0.0
 10
793.8723521324495
 20
883.3566667601995
 30
0.0
  0
SPLINE
  5
1AE
330
1F
100
AcDbEntity
  8
0
  6
Continuous
 62
     8
370
    18
100
AcDbSpline
210
0.0
220
0.0
230
1.0
 70
     8
 71
     3
 72
    10
 73
     6
 74
     0
 42
0.000000001
 43
0.00000001
 40
0.0
 40
0.0
 40
0.0
 40
0.0
 40
0.4638003038210508
 40
0.999992349012933
 40
1.0
 40
1.0
 40
1.0
 40
1.0
 10
793.13132483686
 20
893.2920746595197
 30
0.0
 10
793.182967228524
 20
893.1404838046018
 30
0.0
 10
793.2943125556471
 20
892.8136412090943
 30
0.0
 10
793.4926300512229
 20
891.9435485861035
 30
0.0
 10
793.8407343519066
 20
891.3778804953496
 30
0.0
 10
793.8407393189767
 20
891.3778724238805
 30
0.0
  0
LINE
  5
1AF
330
1F
100
AcDbEntity
  8
0
  6
Continuous
 62
     8
370
    18
100
AcDbLine
 10
922.5517952832
 20
887.0393583641
 30
0.0
 11
922.5788781437
 21
884.3317782596
 31
0.0
  0
SPLINE
  5
1B0
330
1F
100
AcDbEntity
  8
0
  6
Continuous
 62
     8
370
    18
100
AcDbSpline
210
0.0
220
0.0
230
1.0
 70
     8
 71
     3
 72
    14
 73
    10
 74
     0
 42
0.000000001
 43
0.00000001
 40
0.0
 40
0.0
 40
0.0
 40
0.0
 40
0.0000086960517354
 40
0.0546557246072297
 40
0.1545956561534361
 40
0.2815116778855903
 40
0.4757794370636632
 40
0.737221503709837
 40
1.0
 40
1.0
 40
1.0
 40
1.0
 10
919.9009122344354
 20
892.0754032299451
 30
0.0
 10
919.9009321026579
 20
892.0754010569343
 30
0.0
 10
920.025806256133
 20
892.0617434243502
 30
0.0
 10
920.3764694943936
 20
891.9978998221333
 30
0.0
 10
920.9665464848877
 20
891.7415454303583
 30
0.0
 10
921.6486126772318
 20
891.1257701378117
 30
0.0
 10
922.1993099599947
 20
890.0500231736036
 30
0.0
 10
922.506759596065
 20
888.6292356831507
 30
0.0
 10
922.5367578952875
 20
887.5702174118807
 30
0.0
 10
922.5517952832082
 20
887.0393583640985
 30
0.0
  0
SPLINE
  5
1B1
330
1F
100
AcDbEntity
  8
0
  6
Continuous
 62
     8
370
    18
100
AcDbSpline
210
0.0
220
0.0
230
1.0
 70
     8
 71
     3
 72
     9
 73
     5
 74
     0
 42
0.000000001
 43
0.00000001
 40
0.0
 40
0.0
 40
0.0
 40
0.0
 40
0.9998130646088067
 40
1.0
 40
1.0
 40
1.0
 40
1.0
 10
919.5806154998639
 20
892.0850144789151
 30
0.0
 10
919.6876020239608
 20
892.084361643256
 30
0.0
 10
919.7946085513647
 20
892.083708685536
 30
0.0
 10
919.9008923662288
 20
892.0754047822385
 30
0.0
 10
919.9009122344354
 20
892.0754032299451
 30
0.0
  0
LINE
  5
1B2
330
1F
100
AcDbEntity
  8
0
  6
Continuous
 62
     8
370
    18
100
AcDbLine
 10
912.4714316818
 20
891.994866179
 30
0.0
 11
919.5806154999
 21
892.0850144789
 31
0.0
  0
SPLINE
  5
1B3
330
1F
100
AcDbEntity
  8
0
  6
Continuous
 62
     8
370
    18
100
AcDbSpline
210
0.0
220
0.0
230
1.0
 70
     8
 71
     3
 72
    13
 73
     9
 74
     0
 42
0.000000001
 43
0.00000001
 40
0.0
 40
0.0
 40
0.0
 40
0.0
 40
0.2367907857406472
 40
0.4727250789361653
 40
0.6779784410252052
 40
0.8068813586262182
 40
0.9029810843397651
 40
0.9999999999999999
 40
0.9999999999999999
 40
0.9999999999999999
 40
0.9999999999999999
 10
909.6031816693642
 20
887.10384500181
 30
0.0
 10
909.6196625820606
 20
887.588268930408
 30
0.0
 10
909.6525647945809
 20
888.5553645847801
 30
0.0
 10
909.9386025505394
 20
889.9065345711756
 30
0.0
 10
910.4494580888645
 20
890.9770224130566
 30
0.0
 10
911.1299655101097
 20
891.6160124757051
 30
0.0
 10
911.7955896606842
 20
891.9358680559557
 30
0.0
 10
912.2454372923667
 20
891.9751378336399
 30
0.0
 10
912.4714316817619
 20
891.9948661789826
 30
0.0
  0
SPLINE
  5
1B4
330
1F
100
AcDbEntity
  8
0
  6
Continuous
 62
     8
370
    18
100
AcDbSpline
210
0.0
220
0.0
230
1.0
 70
     8
 71
     3
 72
     9
 73
     5
 74
     0
 42
0.000000001
 43
0.00000001
 40
0.0
 40
0.0
 40
0.0
 40
0.0
 40
0.1229326613085841
 40
1.0
 40
1.0
 40
1.0
 40
1.0
 10
909.5680745335916
 20
884.3864971861772
 30
0.0
 10
909.5695350400207
 20
884.4984014528411
 30
0.0
 10
909.5814155802577
 20
885.4086905938452
 30
0.0
 10
909.593011375815
 20
886.3117772189348
 30
0.0
 10
909.6031816693642
 20
887.10384500181
 30
0.0
  0
SPLINE
  5
1B5
330
1F
100
AcDbEntity
  8
0
  6
Continuous
 62
     8
370
    18
100
AcDbSpline
210
0.0
220
0.0
230
1.0
 70
     8
 71
     3
 72
     9
 73
     5
 74
     0
 42
0.000000001
 43
0.00000001
 40
0.0
 40
0.0
 40
0.0
 40
0.0
 40
0.49415007166596
 40
1.0
 40
1.0
 40
1.0
 40
1.0
 10
910.122576543937
 20
859.7454285339049
 30
0.0
 10
909.9973016698312
 20
860.5245194053924
 30
0.0
 10
909.743785822543
 20
862.1011474707511
 30
0.0
 10
909.6941619402858
 20
863.8417501120608
 30
0.0
 10
909.6690597030023
 20
864.7222338334254
 30
0.0
  0
SPLINE
  5
1B6
330
1F
100
AcDbEntity
  8
0
  6
Continuous
 62
     8
370
    18
100
AcDbSpline
210
0.0
220
0.0
230
1.0
 70
     8
 71
     3
 72
    10
 73
     6
 74
     0
 42
0.000000001
 43
0.00000001
 40
0.0
 40
0.0
 40
0.0
 40
0.0
 40
0.1695571330484829
 40
0.5847475072220425
 40
1.0
 40
1.0
 40
1.0
 40
1.0
 10
876.0685505362848
 20
859.6881074920826
 30
0.0
 10
877.992967682754
 20
859.6860326994525
 30
0.0
 10
884.6296576822921
 20
859.6788774132281
 30
0.0
 10
895.9801300285178
 20
859.6835257061233
 30
0.0
 10
905.4081926268434
 20
859.7247932290164
 30
0.0
 10
910.122576543937
 20
859.7454285339049
 30
0.0
  0
SPLINE
  5
1B7
330
1F
100
AcDbEntity
  8
0
  6
Continuous
 62
     8
370
    18
100
AcDbSpline
210
0.0
220
0.0
230
1.0
 70
     8
 71
     3
 72
    18
 73
    14
 74
     0
 42
0.000000001
 43
0.00000001
 40
0.0
 40
0.0
 40
0.0
 40
0.0
 40
0.0523729810903386
 40
0.1524774044556251
 40
0.2527454563783931
 40
0.3528294784846349
 40
0.4529446592689143
 40
0.556569691523917
 40
0.6602042802526752
 40
0.7756279848715634
 40
0.8910143339916204
 40
0.9999989353828715
 40
1.0
 40
1.0
 40
1.0
 40
1.0
 10
922.1152396890022
 20
859.7323676661185
 30
0.0
 10
923.1038679810799
 20
859.7377897123349
 30
0.0
 10
925.9821359889173
 20
859.7535753238602
 30
0.0
 10
930.7455086634574
 20
859.629975099982
 30
0.0
 10
936.1807842370541
 20
859.3641859942425
 30
0.0
 10
941.2879622839357
 20
859.2789275548469
 30
0.0
 10
946.0027092330569
 20
859.1779003575333
 30
0.0
 10
950.2086921478249
 20
859.0928793207227
 30
0.0
 10
953.9578029053117
 20
859.0158892043335
 30
0.0
 10
956.976749503077
 20
858.9589168842921
 30
0.0
 10
959.1392000504919
 20
858.9245054930794
 30
0.0
 10
959.6451483748627
 20
858.8579599710412
 30
0.0
 10
959.8993889383968
 20
858.857960076682
 30
0.0
 10
959.899391421924
 20
858.857960076683
 30
0.0
  0
SPLINE
  5
1B8
330
1F
100
AcDbEntity
  8
0
  6
Continuous
 62
     8
370
    18
100
AcDbSpline
210
0.0
220
0.0
230
1.0
 70
     8
 71
     3
 72
     9
 73
     5
 74
     0
 42
0.000000001
 43
0.00000001
 40
0.0
 40
0.0
 40
0.0
 40
0.0
 40
0.4953960888450356
 40
1.0
 40
1.0
 40
1.0
 40
1.0
 10
922.516781279693
 20
864.7931372836761
 30
0.0
 10
922.4972432300457
 20
863.9187859770567
 30
0.0
 10
922.4578039811554
 20
862.1538319810373
 30
0.0
 10
922.2301265907051
 20
860.5444620352554
 30
0.0
 10
922.1152396890022
 20
859.7323676661185
 30
0.0
  0
SPLINE
  5
1B9
330
1F
100
AcDbEntity
  8
0
  6
Continuous
 62
     8
370
    18
100
AcDbSpline
210
0.0
220
0.0
230
1.0
 70
     8
 71
     3
 72
    11
 73
     7
 74
     0
 42
0.000000001
 43
0.00000001
 40
0.0
 40
0.0
 40
0.0
 40
0.0
 40
0.248026478737322
 40
0.5029881509063284
 40
0.6792998541916802
 40
1.0
 40
1.0
 40
1.0
 40
1.0
 10
912.8900984319546
 20
864.3750107005767
 30
0.0
 10
912.8753636938012
 20
863.6269692876858
 30
0.0
 10
912.8454822120515
 20
862.1099700987816
 30
0.0
 10
912.7148300698384
 20
860.2701065379187
 30
0.0
 10
912.5185499171525
 20
858.4163835421425
 30
0.0
 10
912.2435572127889
 20
857.4518395783144
 30
0.0
 10
912.0661163719991
 20
856.8294612780742
 30
0.0
  0
SPLINE
  5
1BA
330
1F
100
AcDbEntity
  8
0
  6
Continuous
 62
     8
370
    18
100
AcDbSpline
210
0.0
220
0.0
230
1.0
 70
     8
 71
     3
 72
    17
 73
    13
 74
     0
 42
0.000000001
 43
0.00000001
 40
0.0
 40
0.0
 40
0.0
 40
0.0
 40
0.3465953216310348
 40
0.579799687059412
 40
0.7338944439635725
 40
0.8810223253023188
 40
0.9331891318555741
 40
0.9524590460900881
 40
0.9753918874736139
 40
0.9867247408693608
 40
0.9980980998231679
 40
1.0
 40
1.0
 40
1.0
 40
1.0
 10
911.6314085217813
 20
859.7268281594447
 30
0.0
 10
911.6414254182802
 20
859.3461672741513
 30
0.0
 10
911.6581821172109
 20
858.7093812346563
 30
0.0
 10
911.6759789936496
 20
857.9751206212355
 30
0.0
 10
911.7110672895249
 20
857.4668102402621
 30
0.0
 10
911.7597704241118
 20
857.1464673042634
 30
0.0
 10
911.8421266559308
 20
856.959169932009
 30
0.0
 10
911.9021622888265
 20
856.8856186809646
 30
0.0
 10
911.951534163518
 20
856.8485628472694
 30
0.0
 10
912.0098439220294
 20
856.8304294638536
 30
0.0
 10
912.0450182629404
 20
856.8281525100589
 30
0.0
 10
912.0634724979685
 20
856.8292972720129
 30
0.0
 10
912.0661163719991
 20
856.8294612780742
 30
0.0
  0
SPLINE
  5
1BB
330
1F
100
AcDbEntity
  8
0
  6
Continuous
 62
     8
370
    18
100
AcDbSpline
210
0.0
220
0.0
230
1.0
 70
     8
 71
     3
 72
     9
 73
     5
 74
     0
 42
0.000000001
 43
0.00000001
 40
0.0
 40
0.0
 40
0.0
 40
0.0
 40
0.7397746542802817
 40
1.0
 40
1.0
 40
1.0
 40
1.0
 10
911.6078460606435
 20
864.5414678469829
 30
0.0
 10
911.605342281536
 20
863.286734979886
 30
0.0
 10
911.6019577655984
 20
861.5906335254267
 30
0.0
 10
911.6253272020908
 20
860.1116874208175
 30
0.0
 10
911.6314085217813
 20
859.7268281594447
 30
0.0
  0
SPLINE
  5
1BC
330
1F
100
AcDbEntity
  8
0
  6
Continuous
 62
     8
370
    18
100
AcDbSpline
210
0.0
220
0.0
230
1.0
 70
     8
 71
     3
 72
     9
 73
     5
 74
     0
 42
0.000000001
 43
0.00000001
 40
0.0
 40
0.0
 40
0.0
 40
0.0
 40
0.7397746542802817
 40
1.0
 40
1.0
 40
1.0
 40
1.0
 10
840.529255011926
 20
864.5414678469829
 30
0.0
 10
840.5317587910336
 20
863.286734979886
 30
0.0
 10
840.535143306971
 20
861.5906335254267
 30
0.0
 10
840.5117738704787
 20
860.1116874208175
 30
0.0
 10
840.5056925507882
 20
859.7268281594447
 30
0.0
  0
SPLINE
  5
1BD
330
1F
100
AcDbEntity
  8
0
  6
Continuous
 62
     8
370
    18
100
AcDbSpline
210
0.0
220
0.0
230
1.0
 70
     8
 71
     3
 72
    17
 73
    13
 74
     0
 42
0.000000001
 43
0.00000001
 40
0.0
 40
0.0
 40
0.0
 40
0.0
 40
0.3465953216310348
 40
0.579799687059412
 40
0.7338944439635725
 40
0.8810223253023188
 40
0.9331891318555741
 40
0.9524590460900881
 40
0.9753918874736139
 40
0.9867247408693608
 40
0.9980980998231679
 40
1.0
 40
1.0
 40
1.0
 40
1.0
 10
840.5056925507882
 20
859.7268281594447
 30
0.0
 10
840.4956756542894
 20
859.3461672741513
 30
0.0
 10
840.4789189553585
 20
858.7093812346563
 30
0.0
 10
840.4611220789199
 20
857.9751206212355
 30
0.0
 10
840.4260337830447
 20
857.4668102402621
 30
0.0
 10
840.3773306484577
 20
857.1464673042634
 30
0.0
 10
840.2949744166386
 20
856.959169932009
 30
0.0
 10
840.2349387837429
 20
856.8856186809646
 30
0.0
 10
840.1855669090514
 20
856.8485628472694
 30
0.0
 10
840.1272571505401
 20
856.8304294638536
 30
0.0
 10
840.0920828096291
 20
856.8281525100589
 30
0.0
 10
840.0736285746009
 20
856.8292972720129
 30
0.0
 10
840.0709847005704
 20
856.8294612780742
 30
0.0
  0
SPLINE
  5
1BE
330
1F
100
AcDbEntity
  8
0
  6
Continuous
 62
     8
370
    18
100
AcDbSpline
210
0.0
220
0.0
230
1.0
 70
     8
 71
     3
 72
    11
 73
     7
 74
     0
 42
0.000000001
 43
0.00000001
 40
0.0
 40
0.0
 40
0.0
 40
0.0
 40
0.248026478737322
 40
0.5029881509063284
 40
0.6792998541916802
 40
1.0
 40
1.0
 40
1.0
 40
1.0
 10
839.2470026406148
 20
864.3750107005767
 30
0.0
 10
839.2617373787682
 20
863.6269692876858
 30
0.0
 10
839.291618860518
 20
862.1099700987816
 30
0.0
 10
839.422271002731
 20
860.2701065379187
 30
0.0
 10
839.6185511554169
 20
858.4163835421425
 30
0.0
 10
839.8935438597806
 20
857.4518395783144
 30
0.0
 10
840.0709847005704
 20
856.8294612780742
 30
0.0
  0
SPLINE
  5
1BF
330
1F
100
AcDbEntity
  8
0
  6
Continuous
 62
     8
370
    18
100
AcDbSpline
210
0.0
220
0.0
230
1.0
 70
     8
 71
     3
 72
     9
 73
     5
 74
     0
 42
0.000000001
 43
0.00000001
 40
0.0
 40
0.0
 40
0.0
 40
0.0
 40
0.7243182591847459
 40
1.0
 40
1.0
 40
1.0
 40
1.0
 10
920.5386968346932
 20
859.6554739490681
 30
0.0
 10
920.5406438707457
 20
860.7788337538484
 30
0.0
 10
920.5433319654167
 20
862.3297539336667
 30
0.0
 10
920.54164630823
 20
864.0751708169056
 30
0.0
 10
920.5411816033223
 20
864.5563503817252
 30
0.0
  0
SPLINE
  5
1C0
330
1F
100
AcDbEntity
  8
0
  6
Continuous
 62
     8
370
    18
100
AcDbSpline
210
0.0
220
0.0
230
1.0
 70
     8
 71
     3
 72
    16
 73
    12
 74
     0
 42
0.000000001
 43
0.00000001
 40
0.0
 40
0.0
 40
0.0
 40
0.0
 40
0.0117735912526317
 40
0.0227118290019858
 40
0.0341086532372965
 40
0.0448725007369351
 40
0.084398414444051
 40
0.1801731666126313
 40
0.6004758071522766
 40
0.7301085039694403
 40
1.0
 40
1.0
 40
1.0
 40
1.0
 10
920.1008411141732
 20
856.5221918836764
 30
0.0
 10
920.1181026718356
 20
856.5188377380425
 30
0.0
 10
920.1514010544211
 20
856.5123674283086
 30
0.0
 10
920.2059296029922
 20
856.5144362275229
 30
0.0
 10
920.2543397886448
 20
856.5280761131197
 30
0.0
 10
920.3262914796584
 20
856.568648215642
 30
0.0
 10
920.4202989700959
 20
856.6993225692459
 30
0.0
 10
920.5454086099501
 20
857.2266945808507
 30
0.0
 10
920.5249762434257
 20
857.9077787724684
 30
0.0
 10
920.5280807772543
 20
858.8383460437237
 30
0.0
 10
920.5344167085
 20
859.3260286186319
 30
0.0
 10
920.5386968346932
 20
859.6554739490681
 30
0.0
  0
SPLINE
  5
1C1
330
1F
100
AcDbEntity
  8
0
  6
Continuous
 62
     8
370
    18
100
AcDbSpline
210
0.0
220
0.0
230
1.0
 70
     8
 71
     3
 72
    12
 73
     8
 74
     0
 42
0.000000001
 43
0.00000001
 40
0.0
 40
0.0
 40
0.0
 40
0.0
 40
0.054209998609012
 40
0.361206074115777
 40
0.5267650352088027
 40
0.7633784261202475
 40
1.0
 40
1.0
 40
1.0
 40
1.0
 10
920.1008411141732
 20
856.5221918836764
 30
0.0
 10
920.0621100485121
 20
856.619955164144
 30
0.0
 10
919.8040414904464
 20
857.2713606545785
 30
0.0
 10
919.5365574610929
 20
858.4344623502304
 30
0.0
 10
919.335377585857
 20
860.2703117064151
 30
0.0
 10
919.2143467493829
 20
862.1093876320137
 30
0.0
 10
919.1926371717386
 20
863.6197943052957
 30
0.0
 10
919.1817821952203
 20
864.3750107005767
 30
0.0
  0
SPLINE
  5
1C2
330
1F
100
AcDbEntity
  8
0
  6
Continuous
 62
     8
370
    18
100
AcDbSpline
210
0.0
220
0.0
230
1.0
 70
     8
 71
     3
 72
    16
 73
    12
 74
     0
 42
0.000000001
 43
0.00000001
 40
0.0
 40
0.0
 40
0.0
 40
0.0
 40
0.0117735912526317
 40
0.0227118290019858
 40
0.0341086532372965
 40
0.0448725007369351
 40
0.084398414444051
 40
0.1801731666126313
 40
0.6004758071522766
 40
0.7301085039694403
 40
1.0
 40
1.0
 40
1.0
 40
1.0
 10
832.0362599583963
 20
856.5221918836764
 30
0.0
 10
832.018998400734
 20
856.5188377380425
 30
0.0
 10
831.9857000181483
 20
856.5123674283086
 30
0.0
 10
831.9311714695772
 20
856.5144362275229
 30
0.0
 10
831.8827612839247
 20
856.5280761131197
 30
0.0
 10
831.8108095929111
 20
856.568648215642
 30
0.0
 10
831.7168021024736
 20
856.6993225692459
 30
0.0
 10
831.5916924626194
 20
857.2266945808507
 30
0.0
 10
831.6121248291437
 20
857.9077787724684
 30
0.0
 10
831.6090202953151
 20
858.8383460437237
 30
0.0
 10
831.6026843640694
 20
859.3260286186319
 30
0.0
 10
831.5984042378763
 20
859.6554739490681
 30
0.0
  0
SPLINE
  5
1C3
330
1F
100
AcDbEntity
  8
0
  6
Continuous
 62
     8
370
    18
100
AcDbSpline
210
0.0
220
0.0
230
1.0
 70
     8
 71
     3
 72
     9
 73
     5
 74
     0
 42
0.000000001
 43
0.00000001
 40
0.0
 40
0.0
 40
0.0
 40
0.0
 40
0.7243182591847459
 40
1.0
 40
1.0
 40
1.0
 40
1.0
 10
831.5984042378763
 20
859.6554739490681
 30
0.0
 10
831.5964572018238
 20
860.7788337538484
 30
0.0
 10
831.5937691071529
 20
862.3297539336667
 30
0.0
 10
831.5954547643395
 20
864.0751708169056
 30
0.0
 10
831.5959194692471
 20
864.5563503817252
 30
0.0
  0
SPLINE
  5
1C4
330
1F
100
AcDbEntity
  8
0
  6
Continuous
 62
     8
370
    18
100
AcDbSpline
210
0.0
220
0.0
230
1.0
 70
     8
 71
     3
 72
    12
 73
     8
 74
     0
 42
0.000000001
 43
0.00000001
 40
0.0
 40
0.0
 40
0.0
 40
0.0
 40
0.054209998609012
 40
0.361206074115777
 40
0.5267650352088027
 40
0.7633784261202475
 40
1.0
 40
1.0
 40
1.0
 40
1.0
 10
832.0362599583963
 20
856.5221918836764
 30
0.0
 10
832.0749910240575
 20
856.619955164144
 30
0.0
 10
832.333059582123
 20
857.2713606545785
 30
0.0
 10
832.6005436114765
 20
858.4344623502304
 30
0.0
 10
832.8017234867125
 20
860.2703117064151
 30
0.0
 10
832.9227543231865
 20
862.1093876320137
 30
0.0
 10
832.9444639008309
 20
863.6197943052957
 30
0.0
 10
832.9553188773492
 20
864.3750107005767
 30
0.0
  0
LINE
  5
1C5
330
1F
100
AcDbEntity
  8
0
  6
Continuous
 62
     8
370
    18
100
AcDbLine
 10
912.066116372
 20
856.8294612781
 30
0.0
 11
920.1008411142
 21
856.5221918837
 31
0.0
  0
LINE
  5
1C6
330
1F
100
AcDbEntity
  8
0
  6
Continuous
 62
     8
370
    18
100
AcDbLine
 10
840.0709847006
 20
856.8294612781
 30
0.0
 11
832.0362599584
 21
856.5221918837
 31
0.0
  0
ARC
  5
1C7
330
1F
100
AcDbEntity
  8
0
  6
Continuous
 62
     8
370
    18
100
AcDbCircle
 10
910.8176076026
 20
854.9189198569
 30
0.0
 40
4.876295128681104
100
AcDbArc
 50
80.393001322
 51
98.194423934
  0
ARC
  5
1C8
330
1F
100
AcDbEntity
  8
0
  6
Continuous
 62
     8
370
    18
100
AcDbCircle
 10
841.31949347
 20
854.9189198569
 30
0.0
 40
4.876295128680749
100
AcDbArc
 50
81.805576066
 51
99.606998678
  0
ARC
  5
1C9
330
1F
100
AcDbEntity
  8
0
  6
Continuous
 62
     8
370
    18
100
AcDbCircle
 10
830.5826831865
 20
855.0305478614
 30
0.0
 40
4.73514842117199
100
AcDbArc
 50
77.6134120332
 51
96.801967275
  0
ARC
  5
1CA
330
1F
100
AcDbEntity
  8
0
  6
Continuous
 62
     8
370
    18
100
AcDbCircle
 10
921.5544178861
 20
855.0305478614
 30
0.0
 40
4.735148421172545
100
AcDbArc
 50
83.198032725
 51
102.3865879668
  0
SPLINE
  5
1CB
330
1F
100
AcDbEntity
  8
0
  6
Continuous
 62
     8
370
    18
100
AcDbSpline
210
0.0
220
0.0
230
1.0
 70
     8
 71
     3
 72
    13
 73
     9
 74
     0
 42
0.000000001
 43
0.00000001
 40
0.0
 40
0.0
 40
0.0
 40
0.0
 40
0.3455603187339861
 40
0.7377946807459649
 40
0.8482877742986666
 40
0.9091434220767162
 40
0.9540194509265767
 40
1.0
 40
1.0
 40
1.0
 40
1.0
 10
922.1152396890022
 20
859.7323676661185
 30
0.0
 10
922.0052521963257
 20
859.231196025243
 30
0.0
 10
921.7704214514569
 20
858.1611606342198
 30
0.0
 10
921.4205966758946
 20
857.0740661353093
 30
0.0
 10
920.866644175347
 20
856.4938773275201
 30
0.0
 10
920.5572864516128
 20
856.3345641911376
 30
0.0
 10
920.2984850932339
 20
856.2697605993559
 30
0.0
 10
920.1354721726505
 20
856.2697049626295
 30
0.0
 10
920.0529748591282
 20
856.2696768060855
 30
0.0
  0
SPLINE
  5
1CC
330
1F
100
AcDbEntity
  8
0
  6
Continuous
 62
     8
370
    18
100
AcDbSpline
210
0.0
220
0.0
230
1.0
 70
     8
 71
     3
 72
    14
 73
    10
 74
     0
 42
0.000000001
 43
0.00000001
 40
0.0
 40
0.0
 40
0.0
 40
0.0
 40
0.0519065967431033
 40
0.1222359769504303
 40
0.18846070083783
 40
0.3425806066589446
 40
0.4883354264494947
 40
0.6976958067053319
 40
1.0
 40
1.0
 40
1.0
 40
1.0
 10
912.0445059629777
 20
856.5769424751929
 30
0.0
 10
911.9610566791929
 20
856.584127800801
 30
0.0
 10
911.7645401404623
 20
856.6010486808149
 30
0.0
 10
911.5020148283767
 20
856.714685318202
 30
0.0
 10
911.1872610203644
 20
856.9506273472853
 30
0.0
 10
910.9156905108366
 20
857.323459121453
 30
0.0
 10
910.6447772930093
 20
857.8906931039222
 30
0.0
 10
910.377865373034
 20
858.6777376693267
 30
0.0
 10
910.2173896211468
 20
859.3488931401018
 30
0.0
 10
910.122576543937
 20
859.7454285339049
 30
0.0
  0
LINE
  5
1CD
330
1F
100
AcDbEntity
  8
0
  6
Continuous
 62
     8
370
    18
100
AcDbLine
 10
920.0529748591
 20
856.2696768061
 30
0.0
 11
912.044505963
 21
856.5769424752
 31
0.0
  0
SPLINE
  5
1CE
330
1F
100
AcDbEntity
  8
0
  6
Continuous
 62
     8
370
    18
100
AcDbSpline
210
0.0
220
0.0
230
1.0
 70
     8
 71
     3
 72
    13
 73
     9
 74
     0
 42
0.000000001
 43
0.00000001
 40
0.0
 40
0.0
 40
0.0
 40
0.0
 40
0.3455603187339861
 40
0.7377946807459649
 40
0.8482877742986666
 40
0.9091434220767162
 40
0.9540194509265767
 40
1.0
 40
1.0
 40
1.0
 40
1.0
 10
830.0218613835672
 20
859.7323676661185
 30
0.0
 10
830.1318488762438
 20
859.231196025243
 30
0.0
 10
830.3666796211126
 20
858.1611606342198
 30
0.0
 10
830.716504396675
 20
857.0740661353093
 30
0.0
 10
831.2704568972225
 20
856.4938773275201
 30
0.0
 10
831.5798146209568
 20
856.3345641911376
 30
0.0
 10
831.8386159793356
 20
856.2697605993559
 30
0.0
 10
832.0016288999191
 20
856.2697049626295
 30
0.0
 10
832.0841262134412
 20
856.2696768060855
 30
0.0
  0
LINE
  5
1CF
330
1F
100
AcDbEntity
  8
0
  6
Continuous
 62
     8
370
    18
100
AcDbLine
 10
832.0841262134
 20
856.2696768061
 30
0.0
 11
840.0925951096
 21
856.5769424752
 31
0.0
  0
SPLINE
  5
1D0
330
1F
100
AcDbEntity
  8
0
  6
Continuous
 62
     8
370
    18
100
AcDbSpline
210
0.0
220
0.0
230
1.0
 70
     8
 71
     3
 72
    14
 73
    10
 74
     0
 42
0.000000001
 43
0.00000001
 40
0.0
 40
0.0
 40
0.0
 40
0.0
 40
0.0519065967431033
 40
0.1222359769504303
 40
0.18846070083783
 40
0.3425806066589446
 40
0.4883354264494947
 40
0.6976958067053319
 40
1.0
 40
1.0
 40
1.0
 40
1.0
 10
840.0925951095918
 20
856.5769424751929
 30
0.0
 10
840.1760443933766
 20
856.584127800801
 30
0.0
 10
840.3725609321073
 20
856.6010486808149
 30
0.0
 10
840.6350862441927
 20
856.714685318202
 30
0.0
 10
840.949840052205
 20
856.9506273472853
 30
0.0
 10
841.2214105617329
 20
857.323459121453
 30
0.0
 10
841.4923237795601
 20
857.8906931039222
 30
0.0
 10
841.7592356995356
 20
858.6777376693267
 30
0.0
 10
841.9197114514226
 20
859.3488931401018
 30
0.0
 10
842.0145245286325
 20
859.7454285339049
 30
0.0
  0
SPLINE
  5
1D1
330
1F
100
AcDbEntity
  8
0
  6
Continuous
 62
     8
370
    18
100
AcDbSpline
210
0.0
220
0.0
230
1.0
 70
     8
 71
     3
 72
    13
 73
     9
 74
     0
 42
0.000000001
 43
0.00000001
 40
0.0
 40
0.0
 40
0.0
 40
0.0
 40
0.1696337485742979
 40
0.3394137122125856
 40
0.5119338575173658
 40
0.6845770180908886
 40
0.9983955648817787
 40
1.0
 40
1.0
 40
1.0
 40
1.0
 10
797.0658274384836
 20
858.9949278250865
 30
0.0
 10
797.2919857254224
 20
858.2810993971952
 30
0.0
 10
797.7444972354413
 20
856.8528272601367
 30
0.0
 10
798.754431103042
 20
855.2332459387038
 30
0.0
 10
799.9662556179699
 20
854.0183236334213
 30
0.0
 10
801.7560193566277
 20
852.9979119502475
 30
0.0
 10
803.2991972398578
 20
852.7465187406847
 30
0.0
 10
804.3715159476319
 20
852.745816525957
 30
0.0
 10
804.376970419536
 20
852.7458129540614
 30
0.0
  0
LINE
  5
1D2
330
1F
100
AcDbEntity
  8
0
  6
Continuous
 62
     8
370
    18
100
AcDbLine
 10
912.9606628808
 20
887.707096161
 30
0.0
 11
912.992041001
 21
884.985566707
 31
0.0
  0
SPLINE
  5
1D3
330
1F
100
AcDbEntity
  8
0
  6
Continuous
 62
     8
370
    18
100
AcDbSpline
210
0.0
220
0.0
230
1.0
 70
     8
 71
     3
 72
     9
 73
     5
 74
     0
 42
0.000000001
 43
0.00000001
 40
0.0
 40
0.0
 40
0.0
 40
0.0
 40
0.8741208594578708
 40
1.0
 40
1.0
 40
1.0
 40
1.0
 10
911.6212533804277
 20
887.4457111672097
 30
0.0
 10
911.622362357834
 20
886.6541090738574
 30
0.0
 10
911.6236310352649
 20
885.7485110838458
 30
0.0
 10
911.6248213805092
 20
884.835505813584
 30
0.0
 10
911.6249712201454
 20
884.720577494853
 30
0.0
  0
ARC
  5
1D4
330
1F
100
AcDbEntity
  8
0
  6
Continuous
 62
     8
370
    18
100
AcDbCircle
 10
912.9354491037
 20
884.2738524359
 30
0.0
 40
3.433336308962811
100
AcDbArc
 50
89.5792267732
 51
112.5056863652
  0
SPLINE
  5
1D5
330
1F
100
AcDbEntity
  8
0
  6
Continuous
 62
     8
370
    18
100
AcDbSpline
210
0.0
220
0.0
230
1.0
 70
     8
 71
     3
 72
     9
 73
     5
 74
     0
 42
0.000000001
 43
0.00000001
 40
0.0
 40
0.0
 40
0.0
 40
0.0
 40
0.8741208594578708
 40
1.0
 40
1.0
 40
1.0
 40
1.0
 10
840.5158476921417
 20
887.4457111672097
 30
0.0
 10
840.5147387147355
 20
886.6541090738574
 30
0.0
 10
840.5134700373046
 20
885.7485110838458
 30
0.0
 10
840.5122796920602
 20
884.835505813584
 30
0.0
 10
840.512129852424
 20
884.720577494853
 30
0.0
  0
LINE
  5
1D6
330
1F
100
AcDbEntity
  8
0
  6
Continuous
 62
     8
370
    18
100
AcDbLine
 10
839.1764381918
 20
887.707096161
 30
0.0
 11
839.1450600716
 21
884.985566707
 31
0.0
  0
ARC
  5
1D7
330
1F
100
AcDbEntity
  8
0
  6
Continuous
 62
     8
370
    18
100
AcDbCircle
 10
839.2016519689
 20
884.2738524359
 30
0.0
 40
3.433336308962242
100
AcDbArc
 50
67.4943136348
 51
90.4207732268
  0
LINE
  5
1D8
330
1F
100
AcDbEntity
  8
0
  6
Continuous
 62
     8
370
    18
100
AcDbLine
 10
831.6250512394
 20
884.7115269021
 30
0.0
 11
831.6206479462
 21
887.4296980069
 31
0.0
  0
ARC
  5
1D9
330
1F
100
AcDbEntity
  8
0
  6
Continuous
 62
     8
370
    18
100
AcDbCircle
 10
832.9606444896
 20
884.3356005042
 30
0.0
 40
3.371799236689819
100
AcDbArc
 50
89.2311413504
 51
113.4165462374
  0
LINE
  5
1DA
330
1F
100
AcDbEntity
  8
0
  6
Continuous
 62
     8
370
    18
100
AcDbLine
 10
833.0236183497
 20
884.985566707
 30
0.0
 11
833.0058896932
 21
887.707096161
 31
0.0
  0
LINE
  5
1DB
330
1F
100
AcDbEntity
  8
0
  6
Continuous
 62
     8
370
    18
100
AcDbLine
 10
919.1134827229
 20
884.985566707
 30
0.0
 11
919.1312113794
 21
887.707096161
 31
0.0
  0
ARC
  5
1DC
330
1F
100
AcDbEntity
  8
0
  6
Continuous
 62
     8
370
    18
100
AcDbCircle
 10
919.1764565829
 20
884.3356005042
 30
0.0
 40
3.371799236690387
100
AcDbArc
 50
66.5834537626
 51
90.7688586496
  0
LINE
  5
1DD
330
1F
100
AcDbEntity
  8
0
  6
Continuous
 62
     8
370
    18
100
AcDbLine
 10
920.5120498332
 20
884.7115269021
 30
0.0
 11
920.5164531263
 21
887.4296980069
 31
0.0
  0
LINE
  5
1DE
330
1F
100
AcDbEntity
  8
0
  6
Continuous
 62
     8
370
    18
100
AcDbLine
 10
839.1764381918
 20
887.707096161
 30
0.0
 11
833.0058896932
 21
887.707096161
 31
0.0
  0
LINE
  5
1DF
330
1F
100
AcDbEntity
  8
0
  6
Continuous
 62
     8
370
    18
100
AcDbLine
 10
912.9606628808
 20
887.707096161
 30
0.0
 11
919.1312113794
 21
887.707096161
 31
0.0
  0
ARC
  5
1E0
330
1F
100
AcDbEntity
  8
0
  6
Continuous
 62
     8
370
    18
100
AcDbCircle
 10
909.749791669
 20
892.3657680649
 30
0.0
 40
5.263965122806511
100
AcDbArc
 50
268.4040128663
 51
290.8255133407
  0
ARC
  5
1E1
330
1F
100
AcDbEntity
  8
0
  6
Continuous
 62
     8
370
    18
100
AcDbCircle
 10
842.3873094036
 20
892.3657680649
 30
0.0
 40
5.263965122806735
100
AcDbArc
 50
249.1744866593
 51
271.5959871337
  0
ARC
  5
1E2
330
1F
100
AcDbEntity
  8
0
  6
Continuous
 62
     8
370
    18
100
AcDbCircle
 10
829.665551008
 20
892.1225338155
 30
0.0
 40
5.083808804897463
100
AcDbArc
 50
269.0955790293
 51
292.6172504381
  0
ARC
  5
1E3
330
1F
100
AcDbEntity
  8
0
  6
Continuous
 62
     8
370
    18
100
AcDbCircle
 10
922.4715500646
 20
892.1225338155
 30
0.0
 40
5.08380880489727
100
AcDbArc
 50
247.382749562
 51
270.9044209707
  0
ARC
  5
1E4
330
1F
100
AcDbEntity
  8
0
  6
Continuous
 62
     8
370
    18
100
AcDbCircle
 10
824.1212637512
 20
855.3373095373
 30
0.0
 40
16.01936687820614
100
AcDbArc
 50
4.438178715
 51
5.3446626065
  0
ARC
  5
1E5
330
1F
100
AcDbEntity
  8
0
  6
Continuous
 62
     8
370
    18
100
AcDbCircle
 10
928.0158373184
 20
855.3373095376
 30
0.0
 40
16.01936687530826
100
AcDbArc
 50
174.6553373934
 51
175.561821285
  0
ARC
  5
1E6
330
1F
100
AcDbEntity
  8
0
  6
Continuous
 62
     8
370
    18
100
AcDbCircle
 10
926.6435070116
 20
855.1511829157
 30
0.0
 40
6.684769452729078
100
AcDbArc
 50
168.1649731654
 51
170.3679804861
  0
ARC
  5
1E7
330
1F
100
AcDbEntity
  8
0
  6
Continuous
 62
     8
370
    18
100
AcDbCircle
 10
825.493594061
 20
855.1511829158
 30
0.0
 40
6.684769452621443
100
AcDbArc
 50
9.6320195139
 51
11.8350268346
  0
SPLINE
  5
1E8
330
1F
100
AcDbEntity
  8
0
  6
Continuous
 62
     8
370
    18
100
AcDbSpline
210
0.0
220
0.0
230
1.0
 70
     8
 71
     3
 72
    15
 73
    11
 74
     0
 42
0.000000001
 43
0.00000001
 40
0.0
 40
0.0
 40
0.0
 40
0.0
 40
0.0357297692731541
 40
0.0559029640219956
 40
0.0935773465416866
 40
0.1154710131743464
 40
0.2166997171776935
 40
0.4238828467152485
 40
0.9068297512147657
 40
1.0
 40
1.0
 40
1.0
 40
1.0
 10
839.648551681886
 20
891.1098387182287
 30
0.0
 10
839.7079225335661
 20
891.1117323937505
 30
0.0
 10
839.8008144456314
 20
891.1146952473238
 30
0.0
 10
839.9489090320701
 20
891.0737789754569
 30
0.0
 10
840.0569221628062
 20
891.0120276991298
 30
0.0
 10
840.2261561506177
 20
890.8560983613572
 30
0.0
 10
840.4190060082365
 20
890.4620612826111
 30
0.0
 10
840.5401214097432
 20
889.4680773165034
 30
0.0
 10
840.5158046730895
 20
888.4080538211084
 30
0.0
 10
840.51584170354
 20
887.5796770900748
 30
0.0
 10
840.5158476921417
 20
887.4457111672097
 30
0.0
  0
SPLINE
  5
1E9
330
1F
100
AcDbEntity
  8
0
  6
Continuous
 62
     8
370
    18
100
AcDbSpline
210
0.0
220
0.0
230
1.0
 70
     8
 71
     3
 72
     9
 73
     5
 74
     0
 42
0.000000001
 43
0.00000001
 40
0.0
 40
0.0
 40
0.0
 40
0.0
 40
0.3394286934808424
 40
1.0
 40
1.0
 40
1.0
 40
1.0
 10
839.648551681886
 20
891.1098387182287
 30
0.0
 10
839.5551516155623
 20
890.7989716567718
 30
0.0
 10
839.2799831689414
 20
889.8831178488066
 30
0.0
 10
839.2176281368187
 20
888.5727124002343
 30
0.0
 10
839.1764381917812
 20
887.7070961610012
 30
0.0
  0
SPLINE
  5
1EA
330
1F
100
AcDbEntity
  8
0
  6
Continuous
 62
     8
370
    18
100
AcDbSpline
210
0.0
220
0.0
230
1.0
 70
     8
 71
     3
 72
    15
 73
    11
 74
     0
 42
0.000000001
 43
0.00000001
 40
0.0
 40
0.0
 40
0.0
 40
0.0
 40
0.0357297692731541
 40
0.0559029640219956
 40
0.0935773465416866
 40
0.1154710131743464
 40
0.2166997171776935
 40
0.4238828467152485
 40
0.9068297512147657
 40
1.0
 40
1.0
 40
1.0
 40
1.0
 10
912.4885493906834
 20
891.1098387182287
 30
0.0
 10
912.4291785390034
 20
891.1117323937505
 30
0.0
 10
912.336286626938
 20
891.1146952473238
 30
0.0
 10
912.1881920404994
 20
891.0737789754569
 30
0.0
 10
912.0801789097633
 20
891.0120276991298
 30
0.0
 10
911.9109449219517
 20
890.8560983613572
 30
0.0
 10
911.718095064333
 20
890.4620612826111
 30
0.0
 10
911.5969796628264
 20
889.4680773165034
 30
0.0
 10
911.6212963994799
 20
888.4080538211084
 30
0.0
 10
911.6212593690295
 20
887.5796770900748
 30
0.0
 10
911.6212533804277
 20
887.4457111672097
 30
0.0
  0
SPLINE
  5
1EB
330
1F
100
AcDbEntity
  8
0
  6
Continuous
 62
     8
370
    18
100
AcDbSpline
210
0.0
220
0.0
230
1.0
 70
     8
 71
     3
 72
     9
 73
     5
 74
     0
 42
0.000000001
 43
0.00000001
 40
0.0
 40
0.0
 40
0.0
 40
0.0
 40
0.3394286934808424
 40
1.0
 40
1.0
 40
1.0
 40
1.0
 10
912.4885493906834
 20
891.1098387182287
 30
0.0
 10
912.5819494570071
 20
890.7989716567718
 30
0.0
 10
912.8571179036281
 20
889.8831178488066
 30
0.0
 10
912.9194729357508
 20
888.5727124002343
 30
0.0
 10
912.9606628807882
 20
887.7070961610012
 30
0.0
  0
SPLINE
  5
1EC
330
1F
100
AcDbEntity
  8
0
  6
Continuous
 62
     8
370
    18
100
AcDbSpline
210
0.0
220
0.0
230
1.0
 70
     8
 71
     3
 72
    14
 73
    10
 74
     0
 42
0.000000001
 43
0.00000001
 40
0.0
 40
0.0
 40
0.0
 40
0.0
 40
0.6113159483015327
 40
0.7934074853708425
 40
0.8854170069185602
 40
0.9194199709987732
 40
0.9434499663004732
 40
0.974989656164973
 40
1.0
 40
1.0
 40
1.0
 40
1.0
 10
831.6206479462484
 20
887.4296980068616
 30
0.0
 10
831.5938386453129
 20
888.3120229331404
 30
0.0
 10
831.5590437080978
 20
889.4571643333995
 30
0.0
 10
831.7156532317359
 20
890.5928137990647
 30
0.0
 10
831.9207396938084
 20
890.9705663637224
 30
0.0
 10
832.106717832755
 20
891.1116036255346
 30
0.0
 10
832.2436757769079
 20
891.1688110938815
 30
0.0
 10
832.3825565973793
 20
891.1911474338308
 30
0.0
 10
832.4771817181104
 20
891.1817632576582
 30
0.0
 10
832.5190315040448
 20
891.1776129246286
 30
0.0
  0
SPLINE
  5
1ED
330
1F
100
AcDbEntity
  8
0
  6
Continuous
 62
     8
370
    18
100
AcDbSpline
210
0.0
220
0.0
230
1.0
 70
     8
 71
     3
 72
     9
 73
     5
 74
     0
 42
0.000000001
 43
0.00000001
 40
0.0
 40
0.0
 40
0.0
 40
0.0
 40
0.6416100982166775
 40
1.0
 40
1.0
 40
1.0
 40
1.0
 10
833.0058896931508
 20
887.707096161001
 30
0.0
 10
832.967855488382
 20
888.5703648717347
 30
0.0
 10
832.9085761770458
 20
889.9158373216432
 30
0.0
 10
832.6218067653405
 20
890.8447131925025
 30
0.0
 10
832.5190315040448
 20
891.1776129246286
 30
0.0
  0
SPLINE
  5
1EE
330
1F
100
AcDbEntity
  8
0
  6
Continuous
 62
     8
370
    18
100
AcDbSpline
210
0.0
220
0.0
230
1.0
 70
     8
 71
     3
 72
     9
 73
     5
 74
     0
 42
0.000000001
 43
0.00000001
 40
0.0
 40
0.0
 40
0.0
 40
0.0
 40
0.6416100982166775
 40
1.0
 40
1.0
 40
1.0
 40
1.0
 10
919.1312113794187
 20
887.707096161001
 30
0.0
 10
919.1692455841874
 20
888.5703648717347
 30
0.0
 10
919.2285248955237
 20
889.9158373216432
 30
0.0
 10
919.515294307229
 20
890.8447131925025
 30
0.0
 10
919.6180695685247
 20
891.1776129246286
 30
0.0
  0
SPLINE
  5
1EF
330
1F
100
AcDbEntity
  8
0
  6
Continuous
 62
     8
370
    18
100
AcDbSpline
210
0.0
220
0.0
230
1.0
 70
     8
 71
     3
 72
    14
 73
    10
 74
     0
 42
0.000000001
 43
0.00000001
 40
0.0
 40
0.0
 40
0.0
 40
0.0
 40
0.6113159483015327
 40
0.7934074853708425
 40
0.8854170069185602
 40
0.9194199709987732
 40
0.9434499663004732
 40
0.974989656164973
 40
1.0
 40
1.0
 40
1.0
 40
1.0
 10
920.5164531263212
 20
887.4296980068616
 30
0.0
 10
920.5432624272566
 20
888.3120229331404
 30
0.0
 10
920.5780573644718
 20
889.4571643333995
 30
0.0
 10
920.4214478408336
 20
890.5928137990647
 30
0.0
 10
920.216361378761
 20
890.9705663637224
 30
0.0
 10
920.0303832398145
 20
891.1116036255346
 30
0.0
 10
919.8934252956616
 20
891.1688110938815
 30
0.0
 10
919.7545444751902
 20
891.1911474338308
 30
0.0
 10
919.6599193544591
 20
891.1817632576582
 30
0.0
 10
919.6180695685247
 20
891.1776129246286
 30
0.0
  0
LINE
  5
1F0
330
1F
100
AcDbEntity
  8
0
  6
Continuous
 62
     8
370
    18
100
AcDbLine
 10
919.6180695685
 20
891.1776129246
 30
0.0
 11
912.4885493907
 21
891.1098387182
 31
0.0
  0
LINE
  5
1F1
330
1F
100
AcDbEntity
  8
0
  6
Continuous
 62
     8
370
    18
100
AcDbLine
 10
832.519031504
 20
891.1776129246
 30
0.0
 11
839.6485516819
 21
891.1098387182
 31
0.0
  0
ARC
  5
1F2
330
1F
100
AcDbEntity
  8
0
  6
Continuous
 62
     8
370
    18
100
AcDbCircle
 10
789.7064079331
 20
893.3992281811
 30
0.0
 40
42.87022639752822
100
AcDbArc
 50
357.0294950551
 51
358.2432866877
  0
ARC
  5
1F3
330
1F
100
AcDbEntity
  8
0
  6
Continuous
 62
     8
370
    18
100
AcDbCircle
 10
962.4306931398
 20
893.3992281811
 30
0.0
 40
42.87022639790749
100
AcDbArc
 50
181.7567133123
 51
182.9705049449
  0
ARC
  5
1F4
330
1F
100
AcDbEntity
  8
0
  6
Continuous
 62
     8
370
    18
100
AcDbCircle
 10
1005.8180172918
 20
893.3576446504
 30
0.0
 40
93.35653276668997
100
AcDbArc
 50
180.8364088278
 51
181.3796810621
  0
ARC
  5
1F5
330
1F
100
AcDbEntity
  8
0
  6
Continuous
 62
     8
370
    18
100
AcDbCircle
 10
746.3190837842
 20
893.3576446504
 30
0.0
 40
93.35653276327477
100
AcDbArc
 50
358.6203189379
 51
359.1635911722
  0
ARC
  5
1F6
330
1F
100
AcDbEntity
  8
0
  6
Continuous
 62
     8
370
    18
100
AcDbCircle
 10
795.7988391546
 20
856.6180323022
 30
0.0
 40
2.693490604823561
100
AcDbArc
 50
61.9404513176
 51
83.0404301421
  0
SPLINE
  5
1F7
330
1F
100
AcDbEntity
  8
0
  6
Continuous
 62
     8
370
    18
100
AcDbSpline
210
0.0
220
0.0
230
1.0
 70
     8
 71
     3
 72
    21
 73
    17
 74
     0
 42
0.000000001
 43
0.00000001
 40
0.0
 40
0.0
 40
0.0
 40
0.0
 40
0.0622037357845098
 40
0.1243457679287099
 40
0.182752684740399
 40
0.2412337711902532
 40
0.307183638898932
 40
0.3731298292431788
 40
0.4427011673775352
 40
0.5122206296686732
 40
0.5654442073350336
 40
0.6186449859627852
 40
0.717937779294035
 40
0.8186749740290468
 40
0.9093335892921528
 40
1.0
 40
1.0
 40
1.0
 40
1.0
 10
793.13132483686
 20
893.2920746595197
 30
0.0
 10
793.1027150145287
 20
893.1269625061
 30
0.0
 10
793.0455237496758
 20
892.7969019839722
 30
0.0
 10
793.022984755273
 20
891.8508089989971
 30
0.0
 10
793.2591959811066
 20
890.5830070913128
 30
0.0
 10
793.5384986726081
 20
888.9847392473703
 30
0.0
 10
793.6489741387571
 20
887.0456268220343
 30
0.0
 10
793.5997840945492
 20
884.73389492628
 30
0.0
 10
793.3234473832962
 20
882.1547807017657
 30
0.0
 10
793.0560689609065
 20
879.5318513441338
 30
0.0
 10
792.9583238015539
 20
876.9960019584291
 30
0.0
 10
793.0275263850033
 20
873.9517187205381
 30
0.0
 10
793.5111599603964
 20
870.161259017873
 30
0.0
 10
794.3765459622182
 20
866.0433170767973
 30
0.0
 10
795.3081729197517
 20
862.34425655692
 30
0.0
 10
795.8528541938745
 20
860.3092326817076
 30
0.0
 10
796.1252065392831
 20
859.2916769996814
 30
0.0
  0
ARC
  5
1F8
330
1F
100
AcDbEntity
  8
0
  6
Continuous
 62
     8
370
    18
100
AcDbCircle
 10
795.6237708015
 20
855.3697551566
 30
0.0
 40
3.953847334179593
100
AcDbArc
 50
82.7140005095
 51
99.7384589618
  0
SPLINE
  5
1F9
330
1F
100
AcDbEntity
  8
0
  6
Continuous
 62
     8
370
    18
100
AcDbSpline
210
0.0
220
0.0
230
1.0
 70
     8
 71
     3
 72
    22
 73
    18
 74
     0
 42
0.000000001
 43
0.00000001
 40
0.0
 40
0.0
 40
0.0
 40
0.0
 40
0.0696937935203707
 40
0.139399979881467
 40
0.2210335684093502
 40
0.3025956591835583
 40
0.3679834279485314
 40
0.4333305471129327
 40
0.4600468018735789
 40
0.5272157757395088
 40
0.5944340076410423
 40
0.6691783184822035
 40
0.7439282420271924
 40
0.8115428212159207
 40
0.8791006329917705
 40
0.9395274004382287
 40
1.0
 40
1.0
 40
1.0
 40
1.0
 10
794.9549736472467
 20
859.2666281477146
 30
0.0
 10
794.689809915858
 20
860.0226708110549
 30
0.0
 10
794.1594353020831
 20
861.5348905760528
 30
0.0
 10
793.2358073545519
 20
864.2500022608341
 30
0.0
 10
792.291559252191
 20
867.3224389925209
 30
0.0
 10
791.5108065933237
 20
870.5350872191378
 30
0.0
 10
791.0435822347549
 20
873.6147003369181
 30
0.0
 10
790.9122512488049
 20
875.9108606451633
 30
0.0
 10
790.9555297380248
 20
878.184922783222
 30
0.0
 10
791.1357256833614
 20
880.4247211501312
 30
0.0
 10
791.5500532083266
 20
883.1419225211121
 30
0.0
 10
791.8066072054272
 20
885.7221119313239
 30
0.0
 10
791.7140830048256
 20
887.9866494335414
 30
0.0
 10
791.3071405348364
 20
889.7847470341648
 30
0.0
 10
790.9826714274024
 20
891.1079903593344
 30
0.0
 10
791.0198514389415
 20
892.0565523482113
 30
0.0
 10
791.090330798024
 20
892.3779645371587
 30
0.0
 10
791.1255838366845
 20
892.5387315542034
 30
0.0
  0
ARC
  5
1FA
330
1F
100
AcDbEntity
  8
0
  6
Continuous
 62
     8
370
    18
100
AcDbCircle
 10
791.1418919979
 20
895.5420794756
 30
0.0
 40
3.00339219771094
100
AcDbArc
 50
269.6888873183
 51
311.4828079043
  0
LINE
  5
1FB
330
1F
100
AcDbEntity
  8
0
  6
Continuous
 62
     8
370
    18
100
AcDbLine
 10
791.1255838367
 20
892.5387315542
 30
0.0
 11
791.1477269622
 21
892.7458139226
 31
0.0
  0
SPLINE
  5
1FC
330
1F
100
AcDbEntity
  8
0
  6
Continuous
 62
     8
370
    18
100
AcDbSpline
210
0.0
220
0.0
230
1.0
 70
     8
 71
     3
 72
    12
 73
     8
 74
     0
 42
0.000000001
 43
0.00000001
 40
0.0
 40
0.0
 40
0.0
 40
0.0
 40
0.0030953882819005
 40
0.2800606028622677
 40
0.5639382371359372
 40
0.7795824886053064
 40
1.0
 40
1.0
 40
1.0
 40
1.0
 10
800.3185497614243
 20
853.4172853544883
 30
0.0
 10
800.3112045344767
 20
853.420071254032
 30
0.0
 10
799.6466324356633
 20
853.672130328588
 30
0.0
 10
798.379541332141
 20
854.3330374818868
 30
0.0
 10
796.8848496997599
 20
855.7127607892419
 30
0.0
 10
795.7224513610273
 20
857.3660605523497
 30
0.0
 10
795.2126596616505
 20
858.6284992744447
 30
0.0
 10
794.9549736472467
 20
859.2666281477146
 30
0.0
  0
SPLINE
  5
1FD
330
1F
100
AcDbEntity
  8
0
  6
Continuous
 62
     8
370
    18
100
AcDbSpline
210
0.0
220
0.0
230
1.0
 70
     8
 71
     3
 72
    11
 73
     7
 74
     0
 42
0.000000001
 43
0.00000001
 40
0.0
 40
0.0
 40
0.0
 40
0.0
 40
0.0043126691185475
 40
0.4567220754529031
 40
0.9144256983704436
 40
1.0
 40
1.0
 40
1.0
 40
1.0
 10
804.376970419536
 20
852.7458129540614
 30
0.0
 10
804.3706740502687
 20
852.7458153920566
 30
0.0
 10
803.7038733381117
 20
852.7460735816304
 30
0.0
 10
802.4111882761123
 20
852.8333081733042
 30
0.0
 10
801.0998935301989
 20
853.1324321244806
 30
0.0
 10
800.4248751341627
 20
853.3785224858681
 30
0.0
 10
800.3185497614243
 20
853.4172853544883
 30
0.0
  0
SPLINE
  5
1FE
330
1F
100
AcDbEntity
  8
0
  6
Continuous
 62
     8
370
    18
100
AcDbSpline
210
0.0
220
0.0
230
1.0
 70
     8
 71
     3
 72
    11
 73
     7
 74
     0
 42
0.000000001
 43
0.00000001
 40
0.0
 40
0.0
 40
0.0
 40
0.0
 40
0.2982283467662397
 40
0.5745531470552652
 40
0.8583270817571319
 40
0.9999999999999999
 40
0.9999999999999999
 40
0.9999999999999999
 40
0.9999999999999999
 10
796.1252065392831
 20
859.2916769996814
 30
0.0
 10
796.4103689702469
 20
858.4486688549382
 30
0.0
 10
796.9597499191364
 20
856.8245677666034
 30
0.0
 10
798.1610969531057
 20
855.0725446103429
 30
0.0
 10
799.2966923597348
 20
854.0048321519075
 30
0.0
 10
800.0632782518061
 20
853.5640611743831
 30
0.0
 10
800.3185497614243
 20
853.4172853544883
 30
0.0
  0
LINE
  5
1FF
330
1F
100
AcDbEntity
  8
0
  6
Continuous
 62
     8
370
    18
100
AcDbLine
 10
334.0685548278
 20
903.4695543672
 30
0.0
 11
336.0685290786
 21
903.4695543672
 31
0.0
  0
LINE
  5
200
330
1F
100
AcDbEntity
  8
0
  6
Continuous
 62
     8
370
    18
100
AcDbLine
 10
336.0685290786
 20
901.6569388189
 30
0.0
 11
334.0685548278
 21
901.6569388189
 31
0.0
  0
LINE
  5
201
330
1F
100
AcDbEntity
  8
0
  6
Continuous
 62
     8
370
    18
100
AcDbLine
 10
334.0685548278
 20
894.3986395464
 30
0.0
 11
336.0685290786
 21
894.3986395464
 31
0.0
  0
LINE
  5
202
330
1F
100
AcDbEntity
  8
0
  6
Continuous
 62
     8
370
    18
100
AcDbLine
 10
336.0685290786
 20
892.5860241145
 30
0.0
 11
334.0685548278
 21
892.5860241145
 31
0.0
  0
LINE
  5
203
330
1F
100
AcDbEntity
  8
0
  6
Continuous
 62
     8
370
    18
100
AcDbLine
 10
334.0685548278
 20
858.2954151646
 30
0.0
 11
336.0685290786
 21
858.2954151646
 31
0.0
  0
LINE
  5
204
330
1F
100
AcDbEntity
  8
0
  6
Continuous
 62
     8
370
    18
100
AcDbLine
 10
1416.068571994
 20
903.4695543672
 30
0.0
 11
1418.0685462448
 21
903.4695543672
 31
0.0
  0
LINE
  5
205
330
1F
100
AcDbEntity
  8
0
  6
Continuous
 62
     8
370
    18
100
AcDbLine
 10
1418.0685462448
 20
901.6569388189
 30
0.0
 11
1416.068571994
 21
901.6569388189
 31
0.0
  0
LINE
  5
206
330
1F
100
AcDbEntity
  8
0
  6
Continuous
 62
     8
370
    18
100
AcDbLine
 10
1416.068571994
 20
894.3986395464
 30
0.0
 11
1418.0685462448
 21
894.3986395464
 31
0.0
  0
LINE
  5
207
330
1F
100
AcDbEntity
  8
0
  6
Continuous
 62
     8
370
    18
100
AcDbLine
 10
1418.0685462448
 20
892.5860241145
 30
0.0
 11
1416.068571994
 21
892.5860241145
 31
0.0
  0
LINE
  5
208
330
1F
100
AcDbEntity
  8
0
  6
Continuous
 62
     8
370
    18
100
AcDbLine
 10
1416.068571994
 20
858.2954151646
 30
0.0
 11
1418.0685462448
 21
858.2954151646
 31
0.0
  0
LINE
  5
209
330
1F
100
AcDbEntity
  8
0
  6
Continuous
 62
     8
370
    18
100
AcDbLine
 10
313.5685505363
 20
910.195414079
 30
0.0
 11
313.5685505363
 21
909.1954139151
 31
0.0
  0
LINE
  5
20A
330
1F
100
AcDbEntity
  8
0
  6
Continuous
 62
     8
370
    18
100
AcDbLine
 10
333.9685382339
 20
911.1954137773
 30
0.0
 11
303.568560073
 21
911.1954137773
 31
0.0
  0
LINE
  5
20B
330
1F
100
AcDbEntity
  8
0
  6
Continuous
 62
     8
370
    18
100
AcDbLine
 10
1438.5685505363
 20
909.1954139151
 30
0.0
 11
1438.5685505363
 21
910.195414079
 31
0.0
  0
LINE
  5
20C
330
1F
100
AcDbEntity
  8
0
  6
Continuous
 62
     8
370
    18
100
AcDbLine
 10
1448.5685409995
 20
911.1954137773
 30
0.0
 11
1418.1685628387
 21
911.1954137773
 31
0.0
  0
LINE
  5
20D
330
1F
100
AcDbEntity
  8
0
  6
Continuous
 62
     7
370
    35
100
AcDbLine
 10
336.0685290786
 20
648.6910102147
 30
0.0
 11
1416.068571994
 21
648.6910102147
 31
0.0
  0
LINE
  5
20E
330
1F
100
AcDbEntity
  8
0
  6
Continuous
 62
     7
370
    35
100
AcDbLine
 10
336.0685290786
 20
648.7160106379
 30
0.0
 11
336.0685290786
 21
648.6910102147
 31
0.0
  0
LINE
  5
20F
330
1F
100
AcDbEntity
  8
0
  6
Continuous
 62
     7
370
    35
100
AcDbLine
 10
1416.068571994
 20
648.7160106379
 30
0.0
 11
1416.068571994
 21
648.6910102147
 31
0.0
  0
LINE
  5
210
330
1F
100
AcDbEntity
  8
0
  6
Continuous
 62
     7
370
    35
100
AcDbLine
 10
336.0685290786
 20
649.6910122413
 30
0.0
 11
1416.068571994
 21
649.6910122413
 31
0.0
  0
LINE
  5
211
330
1F
100
AcDbEntity
  8
0
  6
Continuous
 62
     7
370
    35
100
AcDbLine
 10
336.0685290786
 20
648.6910102147
 30
0.0
 11
336.0685290786
 21
647.6910119134
 31
0.0
  0
LINE
  5
212
330
1F
100
AcDbEntity
  8
0
  6
Continuous
 62
     7
370
    35
100
AcDbLine
 10
1416.068571994
 20
647.6910119134
 30
0.0
 11
1416.068571994
 21
648.6910102147
 31
0.0
  0
LINE
  5
213
330
1F
100
AcDbEntity
  8
0
  6
Continuous
 62
     7
370
    35
100
AcDbLine
 10
1416.068571994
 20
633.1910123307
 30
0.0
 11
1416.068571994
 21
647.6910119134
 31
0.0
  0
LINE
  5
214
330
1F
100
AcDbEntity
  8
0
  6
Continuous
 62
     7
370
    35
100
AcDbLine
 10
336.0685290786
 20
647.6910119134
 30
0.0
 11
336.0685290786
 21
633.1910123307
 31
0.0
  0
LINE
  5
215
330
1F
100
AcDbEntity
  8
0
  6
Continuous
 62
     7
370
    35
100
AcDbLine
 10
1416.068571994
 20
631.1910120029
 30
0.0
 11
336.0685290786
 21
631.1910120029
 31
0.0
  0
LINE
  5
216
330
1F
100
AcDbEntity
  8
0
  6
Continuous
 62
     7
370
    35
100
AcDbLine
 10
336.0685290786
 20
631.4589609581
 30
0.0
 11
336.0685290786
 21
633.1910123307
 31
0.0
  0
LINE
  5
217
330
1F
100
AcDbEntity
  8
0
  6
Continuous
 62
     7
370
    35
100
AcDbLine
 10
1416.068571994
 20
633.1910123307
 30
0.0
 11
1416.068571994
 21
631.4589609581
 31
0.0
  0
LINE
  5
218
330
1F
100
AcDbEntity
  8
0
  6
Continuous
 62
     7
370
    35
100
AcDbLine
 10
336.0685290786
 20
564.1910103339
 30
0.0
 11
1416.068571994
 21
564.1910103339
 31
0.0
  0
LINE
  5
219
330
1F
100
AcDbEntity
  8
0
  6
Continuous
 62
     7
370
    35
100
AcDbLine
 10
336.0685290786
 20
564.2767963189
 30
0.0
 11
336.0685290786
 21
567.105222978
 31
0.0
  0
LINE
  5
21A
330
1F
100
AcDbEntity
  8
0
  6
Continuous
 62
     7
370
    35
100
AcDbLine
 10
336.0685290786
 20
567.191008963
 30
0.0
 11
1416.068571994
 21
567.191008963
 31
0.0
  0
LINE
  5
21B
330
1F
100
AcDbEntity
  8
0
  6
Continuous
 62
     7
370
    35
100
AcDbLine
 10
1416.068571994
 20
567.105222978
 30
0.0
 11
1416.068571994
 21
564.2767963189
 31
0.0
  0
LINE
  5
21C
330
1F
100
AcDbEntity
  8
0
  6
Continuous
 62
     7
370
    35
100
AcDbLine
 10
336.0685290786
 20
564.1910103339
 30
0.0
 11
336.0685290786
 21
563.1910120327
 31
0.0
  0
LINE
  5
21D
330
1F
100
AcDbEntity
  8
0
  6
Continuous
 62
     7
370
    35
100
AcDbLine
 10
1416.068571994
 20
563.1910120327
 30
0.0
 11
1416.068571994
 21
564.1910103339
 31
0.0
  0
LINE
  5
21E
330
1F
100
AcDbEntity
  8
0
  6
Continuous
 62
     7
370
    35
100
AcDbLine
 10
1416.068571994
 20
533.6910118538
 30
0.0
 11
336.0685290786
 21
533.6910118538
 31
0.0
  0
LINE
  5
21F
330
1F
100
AcDbEntity
  8
0
  6
Continuous
 62
     7
370
    35
100
AcDbLine
 10
336.0685290786
 20
533.6910118538
 30
0.0
 11
336.0685290786
 21
563.1910120327
 31
0.0
  0
LINE
  5
220
330
1F
100
AcDbEntity
  8
0
  6
Continuous
 62
     7
370
    35
100
AcDbLine
 10
1416.068571994
 20
563.1910120327
 30
0.0
 11
1416.068571994
 21
533.6910118538
 31
0.0
  0
LINE
  5
221
330
1F
100
AcDbEntity
  8
0
  6
Continuous
 62
     7
370
    35
100
AcDbLine
 10
823.0685511621
 20
628.4459908682
 30
0.0
 11
929.0685499104
 21
628.4459908682
 31
0.0
  0
SPLINE
  5
222
330
1F
100
AcDbEntity
  8
0
  6
Continuous
 62
     7
370
    35
100
AcDbSpline
210
0.0
220
0.0
230
1.0
 70
     8
 71
     3
 72
     8
 73
     4
 74
     0
 42
0.000000001
 43
0.00000001
 40
0.0
 40
0.0
 40
0.0
 40
0.0
 40
1.0
 40
1.0
 40
1.0
 40
1.0
 10
816.301287564397
 20
628.2477259111379
 30
0.0
 10
818.5546145555064
 20
628.3782136919388
 30
0.0
 10
820.8114320040042
 20
628.4459901808891
 30
0.0
 10
823.0685505362848
 20
628.4459901808891
 30
0.0
  0
SPLINE
  5
223
330
1F
100
AcDbEntity
  8
0
  6
Continuous
 62
     7
370
    35
100
AcDbSpline
210
0.0
220
0.0
230
1.0
 70
     8
 71
     3
 72
     8
 73
     4
 74
     0
 42
0.000000001
 43
0.00000001
 40
0.0
 40
0.0
 40
0.0
 40
0.0
 40
1.0
 40
1.0
 40
1.0
 40
1.0
 10
929.0685505362848
 20
628.4459901808891
 30
0.0
 10
931.3256642060303
 20
628.4459901808891
 30
0.0
 10
933.5824862108024
 20
628.3782137096981
 30
0.0
 10
935.8358135081725
 20
628.2477259111379
 30
0.0
  0
SPLINE
  5
224
330
1F
100
AcDbEntity
  8
0
  6
Continuous
 62
     7
370
    35
100
AcDbSpline
210
0.0
220
0.0
230
1.0
 70
     8
 71
     3
 72
     8
 73
     4
 74
     0
 42
0.000000001
 43
0.00000001
 40
0.0
 40
0.0
 40
0.0
 40
0.0
 40
1.0
 40
1.0
 40
1.0
 40
1.0
 10
823.0685505362848
 20
569.9360307849745
 30
0.0
 10
820.8114368665392
 20
569.9360307849745
 30
0.0
 10
818.554614861767
 20
570.0038072561654
 30
0.0
 10
816.3012875643968
 20
570.1342950547256
 30
0.0
  0
LINE
  5
225
330
1F
100
AcDbEntity
  8
0
  6
Continuous
 62
     7
370
    35
100
AcDbLine
 10
929.0685499104
 20
569.9360300976
 30
0.0
 11
823.0685511621
 21
569.9360300976
 31
0.0
  0
SPLINE
  5
226
330
1F
100
AcDbEntity
  8
0
  6
Continuous
 62
     7
370
    35
100
AcDbSpline
210
0.0
220
0.0
230
1.0
 70
     8
 71
     3
 72
     8
 73
     4
 74
     0
 42
0.000000001
 43
0.00000001
 40
0.0
 40
0.0
 40
0.0
 40
0.0
 40
1.0
 40
1.0
 40
1.0
 40
1.0
 10
935.8358135081726
 20
570.1342950547257
 30
0.0
 10
933.5824865170632
 20
570.0038072739248
 30
0.0
 10
931.3256690685652
 20
569.9360307849746
 30
0.0
 10
929.0685505362848
 20
569.9360307849746
 30
0.0
  0
SPLINE
  5
227
330
1F
100
AcDbEntity
  8
0
  6
Continuous
 62
     7
370
    35
100
AcDbSpline
210
0.0
220
0.0
230
1.0
 70
     8
 71
     3
 72
    10
 73
     6
 74
     0
 42
0.000000001
 43
0.00000001
 40
0.0
 40
0.0
 40
0.0
 40
0.0
 40
0.5
 40
0.5
 40
1.0
 40
1.0
 40
1.0
 40
1.0
 10
929.0685505362848
 20
628.4410104829317
 30
0.0
 10
930.2115106842421
 20
628.4410104829317
 30
0.0
 10
931.3467041619855
 20
628.4247364641034
 30
0.0
 10
933.6022304943564
 20
628.3603020720942
 30
0.0
 10
934.7225664404124
 20
628.3121444947883
 30
0.0
 10
935.8358135081726
 20
628.2477032704953
 30
0.0
  0
SPLINE
  5
228
330
1F
100
AcDbEntity
  8
0
  6
Continuous
 62
     7
370
    35
100
AcDbSpline
210
0.0
220
0.0
230
1.0
 70
     8
 71
     3
 72
    10
 73
     6
 74
     0
 42
0.000000001
 43
0.00000001
 40
0.0
 40
0.0
 40
0.0
 40
0.0
 40
0.5
 40
0.5
 40
1.0
 40
1.0
 40
1.0
 40
1.0
 10
816.3012875643968
 20
628.2477032704953
 30
0.0
 10
817.414534632157
 20
628.3121444947883
 30
0.0
 10
818.534870578213
 20
628.3603020720943
 30
0.0
 10
820.7903969105839
 20
628.4247364641034
 30
0.0
 10
821.9255903883275
 20
628.4410104829317
 30
0.0
 10
823.0685505362848
 20
628.4410104829317
 30
0.0
  0
SPLINE
  5
229
330
1F
100
AcDbEntity
  8
0
  6
Continuous
 62
     7
370
    35
100
AcDbSpline
210
0.0
220
0.0
230
1.0
 70
     8
 71
     3
 72
    10
 73
     6
 74
     0
 42
0.000000001
 43
0.00000001
 40
0.0
 40
0.0
 40
0.0
 40
0.0
 40
0.5
 40
0.5
 40
1.0
 40
1.0
 40
1.0
 40
1.0
 10
816.9780138615856
 20
625.4951045181604
 30
0.0
 10
817.9799562274874
 20
625.7270975576197
 30
0.0
 10
818.9882057442533
 20
625.9004542719074
 30
0.0
 10
821.0181313269001
 20
626.1324169459227
 30
0.0
 10
822.0398108031959
 20
626.1910104829317
 30
0.0
 10
823.0685505362848
 20
626.1910104829317
 30
0.0
  0
SPLINE
  5
22A
330
1F
100
AcDbEntity
  8
0
  6
Continuous
 62
     7
370
    35
100
AcDbSpline
210
0.0
220
0.0
230
1.0
 70
     8
 71
     3
 72
    10
 73
     6
 74
     0
 42
0.000000001
 43
0.00000001
 40
0.0
 40
0.0
 40
0.0
 40
0.0
 40
0.5
 40
0.5
 40
1.0
 40
1.0
 40
1.0
 40
1.0
 10
929.0685505362848
 20
626.1910104829317
 30
0.0
 10
930.0972902693735
 20
626.1910104829317
 30
0.0
 10
931.1189697456695
 20
626.1324169459227
 30
0.0
 10
933.1488953283161
 20
625.9004542719074
 30
0.0
 10
934.157144845082
 20
625.7270975576197
 30
0.0
 10
935.1590872109839
 20
625.4951045181604
 30
0.0
  0
SPLINE
  5
22B
330
1F
100
AcDbEntity
  8
0
  6
Continuous
 62
     7
370
    35
100
AcDbSpline
210
0.0
220
0.0
230
1.0
 70
     8
 71
     3
 72
    10
 73
     6
 74
     0
 42
0.000000001
 43
0.00000001
 40
0.0
 40
0.0
 40
0.0
 40
0.0
 40
0.5
 40
0.5
 40
1.0
 40
1.0
 40
1.0
 40
1.0
 10
823.0685505362848
 20
569.9410104829317
 30
0.0
 10
821.9255903883275
 20
569.9410104829317
 30
0.0
 10
820.7903969105839
 20
569.9572845017601
 30
0.0
 10
818.5348705782129
 20
570.0217188937693
 30
0.0
 10
817.414534632157
 20
570.0698764710752
 30
0.0
 10
816.3012875643967
 20
570.1343176953683
 30
0.0
  0
SPLINE
  5
22C
330
1F
100
AcDbEntity
  8
0
  6
Continuous
 62
     7
370
    35
100
AcDbSpline
210
0.0
220
0.0
230
1.0
 70
     8
 71
     3
 72
    10
 73
     6
 74
     0
 42
0.000000001
 43
0.00000001
 40
0.0
 40
0.0
 40
0.0
 40
0.0
 40
0.5
 40
0.5
 40
1.0
 40
1.0
 40
1.0
 40
1.0
 10
823.0685505362848
 20
572.1910104829317
 30
0.0
 10
822.0398108031959
 20
572.1910104829318
 30
0.0
 10
821.0181313269001
 20
572.2496040199408
 30
0.0
 10
818.9882057442533
 20
572.4815666939562
 30
0.0
 10
817.9799562274873
 20
572.6549234082438
 30
0.0
 10
816.9780138615856
 20
572.8869164477032
 30
0.0
  0
SPLINE
  5
22D
330
1F
100
AcDbEntity
  8
0
  6
Continuous
 62
     7
370
    35
100
AcDbSpline
210
0.0
220
0.0
230
1.0
 70
     8
 71
     3
 72
    10
 73
     6
 74
     0
 42
0.000000001
 43
0.00000001
 40
0.0
 40
0.0
 40
0.0
 40
0.0
 40
0.5
 40
0.5
 40
1.0
 40
1.0
 40
1.0
 40
1.0
 10
935.8358135081728
 20
570.1343176953683
 30
0.0
 10
934.7225664404124
 20
570.0698764710752
 30
0.0
 10
933.6022304943566
 20
570.0217188937693
 30
0.0
 10
931.3467041619855
 20
569.9572845017601
 30
0.0
 10
930.2115106842421
 20
569.9410104829317
 30
0.0
 10
929.0685505362848
 20
569.9410104829317
 30
0.0
  0
SPLINE
  5
22E
330
1F
100
AcDbEntity
  8
0
  6
Continuous
 62
     7
370
    35
100
AcDbSpline
210
0.0
220
0.0
230
1.0
 70
     8
 71
     3
 72
    10
 73
     6
 74
     0
 42
0.000000001
 43
0.00000001
 40
0.0
 40
0.0
 40
0.0
 40
0.0
 40
0.5
 40
0.5
 40
1.0
 40
1.0
 40
1.0
 40
1.0
 10
935.1590872109839
 20
572.8869164477032
 30
0.0
 10
934.157144845082
 20
572.6549234082438
 30
0.0
 10
933.1488953283163
 20
572.4815666939562
 30
0.0
 10
931.1189697456695
 20
572.2496040199408
 30
0.0
 10
930.0972902693735
 20
572.1910104829317
 30
0.0
 10
929.0685505362848
 20
572.1910104829318
 30
0.0
  0
LINE
  5
22F
330
1F
100
AcDbEntity
  8
0
  6
Continuous
 62
     7
370
    35
100
AcDbLine
 10
929.0685499104
 20
628.4410101551
 30
0.0
 11
823.0685511621
 21
628.4410101551
 31
0.0
  0
LINE
  5
230
330
1F
100
AcDbEntity
  8
0
  6
Continuous
 62
     7
370
    35
100
AcDbLine
 10
823.0685511621
 20
626.1910111833
 30
0.0
 11
929.0685499104
 21
626.1910111833
 31
0.0
  0
LINE
  5
231
330
1F
100
AcDbEntity
  8
0
  6
Continuous
 62
     7
370
    35
100
AcDbLine
 10
823.0685511621
 20
569.9410108108
 30
0.0
 11
929.0685499104
 21
569.9410108108
 31
0.0
  0
LINE
  5
232
330
1F
100
AcDbEntity
  8
0
  6
Continuous
 62
     7
370
    35
100
AcDbLine
 10
929.0685499104
 20
572.1910097826
 30
0.0
 11
823.0685511621
 21
572.1910097826
 31
0.0
  0
ARC
  5
233
330
1F
100
AcDbEntity
  8
0
  6
Continuous
 62
     7
370
    35
100
AcDbCircle
 10
929.0685505363
 20
599.1910104829
 30
0.0
 40
27.0000000000001
100
AcDbArc
 50
0.4331051188
 51
76.9632820449
  0
ARC
  5
234
330
1F
100
AcDbEntity
  8
0
  6
Continuous
 62
     7
370
    35
100
AcDbCircle
 10
823.0685505363
 20
599.1910104829
 30
0.0
 40
27.00000000000015
100
AcDbArc
 50
103.0367179551
 51
179.5668948812
  0
ARC
  5
235
330
1F
100
AcDbEntity
  8
0
  6
Continuous
 62
     7
370
    35
100
AcDbCircle
 10
823.0685505363
 20
599.1910104829
 30
0.0
 40
27.0000000000001
100
AcDbArc
 50
180.4331051188
 51
256.9632820449
  0
ARC
  5
236
330
1F
100
AcDbEntity
  8
0
  6
Continuous
 62
     7
370
    35
100
AcDbCircle
 10
929.0685505363
 20
599.1910104829
 30
0.0
 40
27.0000000000001
100
AcDbArc
 50
283.0367179551
 51
359.5668948812
  0
LINE
  5
237
330
1F
100
AcDbEntity
  8
0
  6
Continuous
 62
     7
370
    35
100
AcDbLine
 10
919.0685519966
 20
604.1241851825
 30
0.0
 11
919.4881500694
 21
606.9905338998
 31
0.0
  0
SPLINE
  5
238
330
1F
100
AcDbEntity
  8
0
  6
Continuous
 62
     7
370
    35
100
AcDbSpline
210
0.0
220
0.0
230
1.0
 70
     8
 71
     3
 72
    11
 73
     7
 74
     0
 42
0.000000001
 43
0.00000001
 40
0.0
 40
0.0
 40
0.0
 40
0.0
 40
0.2606216833960294
 40
0.4632003976181061
 40
0.6713668256872465
 40
0.9999999999999999
 40
0.9999999999999999
 40
0.9999999999999999
 40
0.9999999999999999
 10
919.4881500693658
 20
606.9905338998383
 30
0.0
 10
919.8550320316667
 20
607.9922520294073
 30
0.0
 10
920.5070877954171
 20
609.772595974207
 30
0.0
 10
922.0444506946828
 20
612.0275977853148
 30
0.0
 10
924.0592209797416
 20
614.2422287142236
 30
0.0
 10
925.9045484097849
 20
615.3626923162459
 30
0.0
 10
927.0342731865743
 20
616.048649438048
 30
0.0
  0
SPLINE
  5
239
330
1F
100
AcDbEntity
  8
0
  6
Continuous
 62
     7
370
    35
100
AcDbSpline
210
0.0
220
0.0
230
1.0
 70
     8
 71
     3
 72
    16
 73
    12
 74
     0
 42
0.000000001
 43
0.00000001
 40
0.0
 40
0.0
 40
0.0
 40
0.0
 40
0.609364106389936
 40
0.7233746177770897
 40
0.817221155385207
 40
0.8496360657976215
 40
0.8823610523514913
 40
0.9067809249566723
 40
0.9311419978322631
 40
0.970639254737866
 40
1.0
 40
1.0
 40
1.0
 40
1.0
 10
927.0342731865743
 20
616.048649438048
 30
0.0
 10
927.611109649528
 20
616.3463026036785
 30
0.0
 10
928.295870782541
 20
616.6996459375904
 30
0.0
 10
928.9631065212037
 20
617.2253892333675
 30
0.0
 10
929.1333658720833
 20
617.4105386862223
 30
0.0
 10
929.2016332103073
 20
617.5591978145818
 30
0.0
 10
929.2132720691318
 20
617.6527976588193
 30
0.0
 10
929.1887500709607
 20
617.7367617288818
 30
0.0
 10
929.1324849128207
 20
617.8148984616132
 30
0.0
 10
929.0494142877873
 20
617.877097765947
 30
0.0
 10
928.9809926292264
 20
617.9089867561974
 30
0.0
 10
928.9518179389336
 20
617.9225840795285
 30
0.0
  0
SPLINE
  5
23A
330
1F
100
AcDbEntity
  8
0
  6
Continuous
 62
     7
370
    35
100
AcDbSpline
210
0.0
220
0.0
230
1.0
 70
     8
 71
     3
 72
    13
 73
     9
 74
     0
 42
0.000000001
 43
0.00000001
 40
0.0
 40
0.0
 40
0.0
 40
0.0
 40
0.1585115211647967
 40
0.3188133074652433
 40
0.4791709016038929
 40
0.6513500774441334
 40
0.8235909939454287
 40
1.0
 40
1.0
 40
1.0
 40
1.0
 10
941.59616101707
 20
603.512163292939
 30
0.0
 10
941.3037526806598
 20
604.5225857433063
 30
0.0
 10
940.7156334816495
 20
606.5548425847744
 30
0.0
 10
939.213320953699
 20
609.3724455453852
 30
0.0
 10
937.2797758240706
 20
612.0136526457524
 30
0.0
 10
934.8845304575292
 20
614.3623933529957
 30
0.0
 10
932.0929161512628
 20
616.4179848004194
 30
0.0
 10
930.0071623647932
 20
617.4170696527183
 30
0.0
 10
928.9518179389336
 20
617.9225840795285
 30
0.0
  0
SPLINE
  5
23B
330
1F
100
AcDbEntity
  8
0
  6
Continuous
 62
     7
370
    35
100
AcDbSpline
210
0.0
220
0.0
230
1.0
 70
     8
 71
     3
 72
     9
 73
     5
 74
     0
 42
0.000000001
 43
0.00000001
 40
0.0
 40
0.0
 40
0.0
 40
0.0
 40
0.4781757437432673
 40
1.0
 40
1.0
 40
1.0
 40
1.0
 10
941.59616101707
 20
603.512163292939
 30
0.0
 10
941.842888481069
 20
602.1359171757233
 30
0.0
 10
942.3588650173684
 20
599.2577993807005
 30
0.0
 10
941.8576875672375
 20
596.3744561235959
 30
0.0
 10
941.59616101707
 20
594.8698576729244
 30
0.0
  0
SPLINE
  5
23C
330
1F
100
AcDbEntity
  8
0
  6
Continuous
 62
     7
370
    35
100
AcDbSpline
210
0.0
220
0.0
230
1.0
 70
     8
 71
     3
 72
    13
 73
     9
 74
     0
 42
0.000000001
 43
0.00000001
 40
0.0
 40
0.0
 40
0.0
 40
0.0
 40
0.1585115211647967
 40
0.3188133074652433
 40
0.4791709016038929
 40
0.6513500774441334
 40
0.8235909939454287
 40
1.0
 40
1.0
 40
1.0
 40
1.0
 10
941.59616101707
 20
594.8698576729244
 30
0.0
 10
941.3037526806598
 20
593.8594352225572
 30
0.0
 10
940.7156334816495
 20
591.8271783810891
 30
0.0
 10
939.213320953699
 20
589.0095754204783
 30
0.0
 10
937.2797758240706
 20
586.3683683201111
 30
0.0
 10
934.8845304575292
 20
584.0196276128678
 30
0.0
 10
932.0929161512628
 20
581.9640361654441
 30
0.0
 10
930.0071623647932
 20
580.9649513131452
 30
0.0
 10
928.9518179389336
 20
580.459436886335
 30
0.0
  0
SPLINE
  5
23D
330
1F
100
AcDbEntity
  8
0
  6
Continuous
 62
     7
370
    35
100
AcDbSpline
210
0.0
220
0.0
230
1.0
 70
     8
 71
     3
 72
    16
 73
    12
 74
     0
 42
0.000000001
 43
0.00000001
 40
0.0
 40
0.0
 40
0.0
 40
0.0
 40
0.609364106389936
 40
0.7233746177770897
 40
0.817221155385207
 40
0.8496360657976215
 40
0.8823610523514913
 40
0.9067809249566723
 40
0.9311419978322631
 40
0.970639254737866
 40
1.0
 40
1.0
 40
1.0
 40
1.0
 10
927.0342731865743
 20
582.3333715278155
 30
0.0
 10
927.611109649528
 20
582.035718362185
 30
0.0
 10
928.295870782541
 20
581.6823750282731
 30
0.0
 10
928.9631065212037
 20
581.156631732496
 30
0.0
 10
929.1333658720833
 20
580.9714822796412
 30
0.0
 10
929.2016332103073
 20
580.8228231512817
 30
0.0
 10
929.2132720691318
 20
580.7292233070442
 30
0.0
 10
929.1887500709607
 20
580.6452592369817
 30
0.0
 10
929.1324849128207
 20
580.5671225042503
 30
0.0
 10
929.0494142877873
 20
580.5049231999164
 30
0.0
 10
928.9809926292264
 20
580.4730342096661
 30
0.0
 10
928.9518179389336
 20
580.459436886335
 30
0.0
  0
SPLINE
  5
23E
330
1F
100
AcDbEntity
  8
0
  6
Continuous
 62
     7
370
    35
100
AcDbSpline
210
0.0
220
0.0
230
1.0
 70
     8
 71
     3
 72
    11
 73
     7
 74
     0
 42
0.000000001
 43
0.00000001
 40
0.0
 40
0.0
 40
0.0
 40
0.0
 40
0.2606216833960294
 40
0.4632003976181061
 40
0.6713668256872465
 40
0.9999999999999999
 40
0.9999999999999999
 40
0.9999999999999999
 40
0.9999999999999999
 10
919.4881500693658
 20
591.3914870660252
 30
0.0
 10
919.8550320316667
 20
590.3897689364561
 30
0.0
 10
920.5070877954171
 20
588.6094249916565
 30
0.0
 10
922.0444506946828
 20
586.3544231805487
 30
0.0
 10
924.0592209797416
 20
584.1397922516398
 30
0.0
 10
925.9045484097849
 20
583.0193286496176
 30
0.0
 10
927.0342731865743
 20
582.3333715278155
 30
0.0
  0
LINE
  5
23F
330
1F
100
AcDbEntity
  8
0
  6
Continuous
 62
     7
370
    35
100
AcDbLine
 10
919.0685519966
 20
594.2578357834
 30
0.0
 11
919.4881500694
 21
591.391487066
 31
0.0
  0
LINE
  5
240
330
1F
100
AcDbEntity
  8
0
  6
Continuous
 62
     7
370
    35
100
AcDbLine
 10
919.0685519966
 20
604.1241851825
 30
0.0
 11
919.0685519966
 21
594.2578357834
 31
0.0
  0
LINE
  5
241
330
1F
100
AcDbEntity
  8
0
  6
Continuous
 62
     7
370
    35
100
AcDbLine
 10
833.068549076
 20
594.2578357834
 30
0.0
 11
832.6489510032
 21
591.391487066
 31
0.0
  0
SPLINE
  5
242
330
1F
100
AcDbEntity
  8
0
  6
Continuous
 62
     7
370
    35
100
AcDbSpline
210
0.0
220
0.0
230
1.0
 70
     8
 71
     3
 72
    11
 73
     7
 74
     0
 42
0.000000001
 43
0.00000001
 40
0.0
 40
0.0
 40
0.0
 40
0.0
 40
0.2606216833960294
 40
0.4632003976181061
 40
0.6713668256872465
 40
0.9999999999999999
 40
0.9999999999999999
 40
0.9999999999999999
 40
0.9999999999999999
 10
832.6489510032037
 20
591.3914870660252
 30
0.0
 10
832.2820690409027
 20
590.3897689364561
 30
0.0
 10
831.6300132771524
 20
588.6094249916565
 30
0.0
 10
830.0926503778866
 20
586.3544231805487
 30
0.0
 10
828.0778800928279
 20
584.1397922516398
 30
0.0
 10
826.2325526627847
 20
583.0193286496176
 30
0.0
 10
825.1028278859952
 20
582.3333715278155
 30
0.0
  0
SPLINE
  5
243
330
1F
100
AcDbEntity
  8
0
  6
Continuous
 62
     7
370
    35
100
AcDbSpline
210
0.0
220
0.0
230
1.0
 70
     8
 71
     3
 72
    16
 73
    12
 74
     0
 42
0.000000001
 43
0.00000001
 40
0.0
 40
0.0
 40
0.0
 40
0.0
 40
0.609364106389936
 40
0.7233746177770897
 40
0.817221155385207
 40
0.8496360657976215
 40
0.8823610523514913
 40
0.9067809249566723
 40
0.9311419978322631
 40
0.970639254737866
 40
1.0
 40
1.0
 40
1.0
 40
1.0
 10
825.1028278859952
 20
582.3333715278155
 30
0.0
 10
824.5259914230415
 20
582.035718362185
 30
0.0
 10
823.8412302900284
 20
581.6823750282731
 30
0.0
 10
823.1739945513658
 20
581.156631732496
 30
0.0
 10
823.0037352004861
 20
580.9714822796412
 30
0.0
 10
822.9354678622622
 20
580.8228231512817
 30
0.0
 10
822.9238290034377
 20
580.7292233070442
 30
0.0
 10
822.9483510016088
 20
580.6452592369817
 30
0.0
 10
823.0046161597487
 20
580.5671225042503
 30
0.0
 10
823.0876867847822
 20
580.5049231999164
 30
0.0
 10
823.1561084433431
 20
580.4730342096661
 30
0.0
 10
823.1852831336358
 20
580.459436886335
 30
0.0
  0
SPLINE
  5
244
330
1F
100
AcDbEntity
  8
0
  6
Continuous
 62
     7
370
    35
100
AcDbSpline
210
0.0
220
0.0
230
1.0
 70
     8
 71
     3
 72
    13
 73
     9
 74
     0
 42
0.000000001
 43
0.00000001
 40
0.0
 40
0.0
 40
0.0
 40
0.0
 40
0.1585115211647967
 40
0.3188133074652433
 40
0.4791709016038929
 40
0.6513500774441334
 40
0.8235909939454287
 40
1.0
 40
1.0
 40
1.0
 40
1.0
 10
810.5409400554994
 20
594.8698576729244
 30
0.0
 10
810.8333483919096
 20
593.8594352225572
 30
0.0
 10
811.42146759092
 20
591.8271783810891
 30
0.0
 10
812.9237801188705
 20
589.0095754204783
 30
0.0
 10
814.8573252484989
 20
586.3683683201111
 30
0.0
 10
817.2525706150403
 20
584.0196276128678
 30
0.0
 10
820.0441849213066
 20
581.9640361654441
 30
0.0
 10
822.1299387077763
 20
580.9649513131452
 30
0.0
 10
823.1852831336358
 20
580.459436886335
 30
0.0
  0
SPLINE
  5
245
330
1F
100
AcDbEntity
  8
0
  6
Continuous
 62
     7
370
    35
100
AcDbSpline
210
0.0
220
0.0
230
1.0
 70
     8
 71
     3
 72
     9
 73
     5
 74
     0
 42
0.000000001
 43
0.00000001
 40
0.0
 40
0.0
 40
0.0
 40
0.0
 40
0.4781757437432673
 40
1.0
 40
1.0
 40
1.0
 40
1.0
 10
810.5409400554994
 20
603.512163292939
 30
0.0
 10
810.2942125915004
 20
602.1359171757233
 30
0.0
 10
809.7782360552011
 20
599.2577993807005
 30
0.0
 10
810.2794135053321
 20
596.3744561235959
 30
0.0
 10
810.5409400554994
 20
594.8698576729244
 30
0.0
  0
SPLINE
  5
246
330
1F
100
AcDbEntity
  8
0
  6
Continuous
 62
     7
370
    35
100
AcDbSpline
210
0.0
220
0.0
230
1.0
 70
     8
 71
     3
 72
    13
 73
     9
 74
     0
 42
0.000000001
 43
0.00000001
 40
0.0
 40
0.0
 40
0.0
 40
0.0
 40
0.1585115211647967
 40
0.3188133074652433
 40
0.4791709016038929
 40
0.6513500774441334
 40
0.8235909939454287
 40
1.0
 40
1.0
 40
1.0
 40
1.0
 10
810.5409400554994
 20
603.512163292939
 30
0.0
 10
810.8333483919096
 20
604.5225857433063
 30
0.0
 10
811.42146759092
 20
606.5548425847744
 30
0.0
 10
812.9237801188705
 20
609.3724455453852
 30
0.0
 10
814.8573252484989
 20
612.0136526457524
 30
0.0
 10
817.2525706150403
 20
614.3623933529957
 30
0.0
 10
820.0441849213066
 20
616.4179848004194
 30
0.0
 10
822.1299387077763
 20
617.4170696527183
 30
0.0
 10
823.1852831336358
 20
617.9225840795285
 30
0.0
  0
SPLINE
  5
247
330
1F
100
AcDbEntity
  8
0
  6
Continuous
 62
     7
370
    35
100
AcDbSpline
210
0.0
220
0.0
230
1.0
 70
     8
 71
     3
 72
    16
 73
    12
 74
     0
 42
0.000000001
 43
0.00000001
 40
0.0
 40
0.0
 40
0.0
 40
0.0
 40
0.609364106389936
 40
0.7233746177770897
 40
0.817221155385207
 40
0.8496360657976215
 40
0.8823610523514913
 40
0.9067809249566723
 40
0.9311419978322631
 40
0.970639254737866
 40
1.0
 40
1.0
 40
1.0
 40
1.0
 10
825.1028278859952
 20
616.048649438048
 30
0.0
 10
824.5259914230415
 20
616.3463026036785
 30
0.0
 10
823.8412302900284
 20
616.6996459375904
 30
0.0
 10
823.1739945513658
 20
617.2253892333675
 30
0.0
 10
823.0037352004861
 20
617.4105386862223
 30
0.0
 10
822.9354678622622
 20
617.5591978145818
 30
0.0
 10
822.9238290034377
 20
617.6527976588193
 30
0.0
 10
822.9483510016088
 20
617.7367617288818
 30
0.0
 10
823.0046161597487
 20
617.8148984616132
 30
0.0
 10
823.0876867847822
 20
617.877097765947
 30
0.0
 10
823.1561084433431
 20
617.9089867561974
 30
0.0
 10
823.1852831336358
 20
617.9225840795285
 30
0.0
  0
SPLINE
  5
248
330
1F
100
AcDbEntity
  8
0
  6
Continuous
 62
     7
370
    35
100
AcDbSpline
210
0.0
220
0.0
230
1.0
 70
     8
 71
     3
 72
    11
 73
     7
 74
     0
 42
0.000000001
 43
0.00000001
 40
0.0
 40
0.0
 40
0.0
 40
0.0
 40
0.2606216833960294
 40
0.4632003976181061
 40
0.6713668256872465
 40
0.9999999999999999
 40
0.9999999999999999
 40
0.9999999999999999
 40
0.9999999999999999
 10
832.6489510032037
 20
606.9905338998383
 30
0.0
 10
832.2820690409027
 20
607.9922520294073
 30
0.0
 10
831.6300132771524
 20
609.772595974207
 30
0.0
 10
830.0926503778866
 20
612.0275977853148
 30
0.0
 10
828.0778800928279
 20
614.2422287142236
 30
0.0
 10
826.2325526627847
 20
615.3626923162459
 30
0.0
 10
825.1028278859952
 20
616.048649438048
 30
0.0
  0
LINE
  5
249
330
1F
100
AcDbEntity
  8
0
  6
Continuous
 62
     7
370
    35
100
AcDbLine
 10
833.068549076
 20
604.1241851825
 30
0.0
 11
832.6489510032
 21
606.9905338998
 31
0.0
  0
LINE
  5
24A
330
1F
100
AcDbEntity
  8
0
  6
Continuous
 62
     7
370
    35
100
AcDbLine
 10
833.068549076
 20
604.1241851825
 30
0.0
 11
833.068549076
 21
594.2578357834
 31
0.0
  0
SPLINE
  5
24B
330
1F
100
AcDbEntity
  8
0
  6
Continuous
 62
     7
370
    35
100
AcDbSpline
210
0.0
220
0.0
230
1.0
 70
     8
 71
     3
 72
    17
 73
    13
 74
     0
 42
0.000000001
 43
0.00000001
 40
0.0
 40
0.0
 40
0.0
 40
0.0
 40
0.0352141069938642
 40
0.1768684702124212
 40
0.2823152372088443
 40
0.3877837976225626
 40
0.4930422146028734
 40
0.5965411704287867
 40
0.7000041149560159
 40
0.8049238667247004
 40
0.9098460606019528
 40
1.0
 40
1.0
 40
1.0
 40
1.0
 10
929.0744544955589
 20
620.9282824027783
 30
0.0
 10
929.4746245517257
 20
620.9208485155011
 30
0.0
 10
931.4845424994207
 20
620.8835106306962
 30
0.0
 10
934.6796235682989
 20
620.3280727714891
 30
0.0
 10
938.4432905546207
 20
618.909577681897
 30
0.0
 10
941.5622706757057
 20
617.0912655423389
 30
0.0
 10
944.3321711293569
 20
614.8111439551519
 30
0.0
 10
946.6634528755718
 20
612.1148069966176
 30
0.0
 10
948.5332667354132
 20
609.0841268203056
 30
0.0
 10
949.8817550909877
 20
605.7746884252268
 30
0.0
 10
950.6772594910327
 20
602.4356887304565
 30
0.0
 10
950.7659929445488
 20
600.2165703874391
 30
0.0
 10
950.807000884662
 20
599.1910104829317
 30
0.0
  0
SPLINE
  5
24C
330
1F
100
AcDbEntity
  8
0
  6
Continuous
 62
     7
370
    35
100
AcDbSpline
210
0.0
220
0.0
230
1.0
 70
     8
 71
     3
 72
    17
 73
    13
 74
     0
 42
0.000000001
 43
0.00000001
 40
0.0
 40
0.0
 40
0.0
 40
0.0
 40
0.0352141069938642
 40
0.1768684702124212
 40
0.2823152372088444
 40
0.3877837976225628
 40
0.4930422146028736
 40
0.596541170428787
 40
0.7000041149560161
 40
0.8049238667247007
 40
0.9098460606019532
 40
1.0
 40
1.0
 40
1.0
 40
1.0
 10
823.0626465770105
 20
620.9282824027783
 30
0.0
 10
822.6624765208437
 20
620.9208485155011
 30
0.0
 10
820.6525585731488
 20
620.8835106306962
 30
0.0
 10
817.4574775042706
 20
620.3280727714891
 30
0.0
 10
813.6938105179487
 20
618.9095776818971
 30
0.0
 10
810.574830396864
 20
617.0912655423389
 30
0.0
 10
807.8049299432126
 20
614.8111439551519
 30
0.0
 10
805.4736481969975
 20
612.1148069966176
 30
0.0
 10
803.6038343371563
 20
609.0841268203056
 30
0.0
 10
802.2553459815817
 20
605.7746884252268
 30
0.0
 10
801.4598415815367
 20
602.4356887304565
 30
0.0
 10
801.3711081280208
 20
600.2165703874392
 30
0.0
 10
801.3301001879075
 20
599.1910104829318
 30
0.0
  0
SPLINE
  5
24D
330
1F
100
AcDbEntity
  8
0
  6
Continuous
 62
     7
370
    35
100
AcDbSpline
210
0.0
220
0.0
230
1.0
 70
     8
 71
     3
 72
    17
 73
    13
 74
     0
 42
0.000000001
 43
0.00000001
 40
0.0
 40
0.0
 40
0.0
 40
0.0
 40
0.0352141069938642
 40
0.1768684702124212
 40
0.2823152372088443
 40
0.3877837976225626
 40
0.4930422146028734
 40
0.5965411704287867
 40
0.7000041149560159
 40
0.8049238667247004
 40
0.9098460606019528
 40
1.0
 40
1.0
 40
1.0
 40
1.0
 10
929.0744544955589
 20
577.4537385630852
 30
0.0
 10
929.4746245517257
 20
577.4611724503624
 30
0.0
 10
931.4845424994207
 20
577.4985103351673
 30
0.0
 10
934.6796235682989
 20
578.0539481943744
 30
0.0
 10
938.4432905546207
 20
579.4724432839665
 30
0.0
 10
941.5622706757057
 20
581.2907554235246
 30
0.0
 10
944.3321711293569
 20
583.5708770107116
 30
0.0
 10
946.6634528755718
 20
586.2672139692459
 30
0.0
 10
948.5332667354132
 20
589.2978941455578
 30
0.0
 10
949.8817550909877
 20
592.6073325406367
 30
0.0
 10
950.6772594910327
 20
595.9463322354069
 30
0.0
 10
950.7659929445488
 20
598.1654505784244
 30
0.0
 10
950.807000884662
 20
599.1910104829317
 30
0.0
  0
SPLINE
  5
24E
330
1F
100
AcDbEntity
  8
0
  6
Continuous
 62
     7
370
    35
100
AcDbSpline
210
0.0
220
0.0
230
1.0
 70
     8
 71
     3
 72
    17
 73
    13
 74
     0
 42
0.000000001
 43
0.00000001
 40
0.0
 40
0.0
 40
0.0
 40
0.0
 40
0.0352141069938642
 40
0.1768684702124211
 40
0.2823152372088442
 40
0.3877837976225624
 40
0.4930422146028732
 40
0.5965411704287864
 40
0.7000041149560154
 40
0.8049238667247
 40
0.9098460606019524
 40
0.9999999999999999
 40
0.9999999999999999
 40
0.9999999999999999
 40
0.9999999999999999
 10
823.0626465770105
 20
577.4537385630852
 30
0.0
 10
822.6624765208437
 20
577.4611724503624
 30
0.0
 10
820.6525585731488
 20
577.4985103351673
 30
0.0
 10
817.4574775042707
 20
578.0539481943744
 30
0.0
 10
813.6938105179488
 20
579.4724432839664
 30
0.0
 10
810.574830396864
 20
581.2907554235246
 30
0.0
 10
807.8049299432126
 20
583.5708770107116
 30
0.0
 10
805.4736481969976
 20
586.2672139692459
 30
0.0
 10
803.6038343371563
 20
589.2978941455578
 30
0.0
 10
802.2553459815817
 20
592.6073325406367
 30
0.0
 10
801.4598415815367
 20
595.9463322354069
 30
0.0
 10
801.3711081280208
 20
598.1654505784244
 30
0.0
 10
801.3301001879075
 20
599.1910104829318
 30
0.0
  0
LINE
  5
24F
330
1F
100
AcDbEntity
  8
0
  6
Continuous
 62
     7
370
    35
100
AcDbLine
 10
876.0685505363
 20
620.9322833646
 30
0.0
 11
929.0744544956
 21
620.9282824028
 31
0.0
  0
LINE
  5
250
330
1F
100
AcDbEntity
  8
0
  6
Continuous
 62
     7
370
    35
100
AcDbLine
 10
876.0685505363
 20
620.9322833646
 30
0.0
 11
823.062646577
 21
620.9282824028
 31
0.0
  0
LINE
  5
251
330
1F
100
AcDbEntity
  8
0
  6
Continuous
 62
     7
370
    35
100
AcDbLine
 10
876.0685505363
 20
577.4497376013
 30
0.0
 11
929.0744544956
 21
577.4537385631
 31
0.0
  0
LINE
  5
252
330
1F
100
AcDbEntity
  8
0
  6
Continuous
 62
     7
370
    35
100
AcDbLine
 10
876.0685505363
 20
577.4497376013
 30
0.0
 11
823.062646577
 21
577.4537385631
 31
0.0
  0
LINE
  5
253
330
1F
100
AcDbEntity
  8
0
  6
Continuous
 62
     7
370
    35
100
AcDbLine
 10
919.2247198912
 20
605.1910105351
 30
0.0
 11
832.9123811814
 21
605.1910105351
 31
0.0
  0
LINE
  5
254
330
1F
100
AcDbEntity
  8
0
  6
Continuous
 62
     7
370
    35
100
AcDbLine
 10
919.2247198912
 20
593.1910104308
 30
0.0
 11
832.9123811814
 21
593.1910104308
 31
0.0
  0
ARC
  5
255
330
1F
100
AcDbEntity
  8
0
  6
Continuous
 62
     7
370
    35
100
AcDbCircle
 10
929.0685505363
 20
599.1910104829
 30
0.0
 40
21.75
100
AcDbArc
 50
270.0
 51
90.0
  0
LINE
  5
256
330
1F
100
AcDbEntity
  8
0
  6
Continuous
 62
     7
370
    35
100
AcDbLine
 10
823.0685511621
 20
620.9410098571
 30
0.0
 11
929.0685499104
 21
620.9410098571
 31
0.0
  0
ARC
  5
257
330
1F
100
AcDbEntity
  8
0
  6
Continuous
 62
     7
370
    35
100
AcDbCircle
 10
823.0685505363
 20
599.1910104829
 30
0.0
 40
21.75
100
AcDbArc
 50
90.0
 51
270.0
  0
LINE
  5
258
330
1F
100
AcDbEntity
  8
0
  6
Continuous
 62
     7
370
    35
100
AcDbLine
 10
823.0685511621
 20
577.4410111088
 30
0.0
 11
929.0685499104
 21
577.4410111088
 31
0.0
  0
LINE
  5
259
330
1F
100
AcDbEntity
  8
0
  6
Continuous
 62
     7
370
    35
100
AcDbLine
 10
336.0685290786
 20
564.1910103339
 30
0.0
 11
335.0685419532
 21
564.1910103339
 31
0.0
  0
LINE
  5
25A
330
1F
100
AcDbEntity
  8
0
  6
Continuous
 62
     7
370
    35
100
AcDbLine
 10
336.0685290786
 20
631.4589609581
 30
0.0
 11
336.0685290786
 21
567.105222978
 31
0.0
  0
LINE
  5
25B
330
1F
100
AcDbEntity
  8
0
  6
Continuous
 62
     7
370
    35
100
AcDbLine
 10
336.0685290786
 20
564.2767963189
 30
0.0
 11
336.0685290786
 21
564.1910103339
 31
0.0
  0
LINE
  5
25C
330
1F
100
AcDbEntity
  8
0
  6
Continuous
 62
     7
370
    35
100
AcDbLine
 10
335.0685419532
 20
564.1910103339
 30
0.0
 11
334.0685548278
 21
564.1910103339
 31
0.0
  0
LINE
  5
25D
330
1F
100
AcDbEntity
  8
0
  6
Continuous
 62
     7
370
    35
100
AcDbLine
 10
334.0685548278
 20
564.1910103339
 30
0.0
 11
334.0685548278
 21
648.7160106379
 31
0.0
  0
LINE
  5
25E
330
1F
100
AcDbEntity
  8
0
  6
Continuous
 62
     7
370
    35
100
AcDbLine
 10
1418.0685462448
 20
564.1910103339
 30
0.0
 11
1417.0685591194
 21
564.1910103339
 31
0.0
  0
LINE
  5
25F
330
1F
100
AcDbEntity
  8
0
  6
Continuous
 62
     7
370
    35
100
AcDbLine
 10
1418.0685462448
 20
648.7160106379
 30
0.0
 11
1418.0685462448
 21
564.1910103339
 31
0.0
  0
LINE
  5
260
330
1F
100
AcDbEntity
  8
0
  6
Continuous
 62
     7
370
    35
100
AcDbLine
 10
1417.0685591194
 20
564.1910103339
 30
0.0
 11
1416.068571994
 21
564.1910103339
 31
0.0
  0
LINE
  5
261
330
1F
100
AcDbEntity
  8
0
  6
Continuous
 62
     7
370
    35
100
AcDbLine
 10
1416.068571994
 20
564.1910103339
 30
0.0
 11
1416.068571994
 21
564.2767963189
 31
0.0
  0
LINE
  5
262
330
1F
100
AcDbEntity
  8
0
  6
Continuous
 62
     7
370
    35
100
AcDbLine
 10
1416.068571994
 20
567.105222978
 30
0.0
 11
1416.068571994
 21
631.4589609581
 31
0.0
  0
LINE
  5
263
330
1F
100
AcDbEntity
  8
0
  6
Continuous
 62
     7
370
    35
100
AcDbLine
 10
336.0685290786
 20
648.7160106379
 30
0.0
 11
313.5685505363
 21
648.7160106379
 31
0.0
  0
LINE
  5
264
330
1F
100
AcDbEntity
  8
0
  6
Continuous
 62
     7
370
    35
100
AcDbLine
 10
336.0685290786
 20
649.7160089392
 30
0.0
 11
313.5685505363
 21
649.7160089392
 31
0.0
  0
LINE
  5
265
330
1F
100
AcDbEntity
  8
0
  6
Continuous
 62
     7
370
    35
100
AcDbLine
 10
336.0685290786
 20
649.7160089392
 30
0.0
 11
336.0685290786
 21
648.7160106379
 31
0.0
  0
LINE
  5
266
330
1F
100
AcDbEntity
  8
0
  6
Continuous
 62
     7
370
    35
100
AcDbLine
 10
303.568560073
 20
648.7160106379
 30
0.0
 11
303.568560073
 21
649.7160089392
 31
0.0
  0
LINE
  5
267
330
1F
100
AcDbEntity
  8
0
  6
Continuous
 62
     7
370
    35
100
AcDbLine
 10
303.568560073
 20
649.7160089392
 30
0.0
 11
313.5685505363
 21
649.7160089392
 31
0.0
  0
LINE
  5
268
330
1F
100
AcDbEntity
  8
0
  6
Continuous
 62
     7
370
    35
100
AcDbLine
 10
313.5685505363
 20
648.7160106379
 30
0.0
 11
303.568560073
 21
648.7160106379
 31
0.0
  0
LINE
  5
269
330
1F
100
AcDbEntity
  8
0
  6
Continuous
 62
     7
370
    35
100
AcDbLine
 10
303.568560073
 20
648.7160106379
 30
0.0
 11
303.568560073
 21
647.7160123366
 31
0.0
  0
LINE
  5
26A
330
1F
100
AcDbEntity
  8
0
  6
Continuous
 62
     7
370
    35
100
AcDbLine
 10
333.9685382339
 20
647.7160123366
 30
0.0
 11
333.9685382339
 21
648.7160106379
 31
0.0
  0
LINE
  5
26B
330
1F
100
AcDbEntity
  8
0
  6
Continuous
 62
     7
370
    35
100
AcDbLine
 10
336.0685290786
 20
563.1910120327
 30
0.0
 11
336.0685290786
 21
533.7160085517
 31
0.0
  0
LINE
  5
26C
330
1F
100
AcDbEntity
  8
0
  6
Continuous
 62
     7
370
    35
100
AcDbLine
 10
336.0685290786
 20
533.7160085517
 30
0.0
 11
313.5685505363
 21
533.7160085517
 31
0.0
  0
ARC
  5
26D
330
1F
100
AcDbEntity
  8
0
  6
Continuous
 62
     7
370
    35
100
AcDbCircle
 10
313.5685505363
 20
543.7160104829
 30
0.0
 40
10.0
100
AcDbArc
 50
180.0
 51
270.0
  0
LINE
  5
26E
330
1F
100
AcDbEntity
  8
0
  6
Continuous
 62
     7
370
    35
100
AcDbLine
 10
333.9685382339
 20
646.0960102457
 30
0.0
 11
333.9685382339
 21
647.7160123366
 31
0.0
  0
LINE
  5
26F
330
1F
100
AcDbEntity
  8
0
  6
Continuous
 62
     7
370
    35
100
AcDbLine
 10
334.0685548278
 20
646.0960102457
 30
0.0
 11
333.9685382339
 21
646.0960102457
 31
0.0
  0
LINE
  5
270
330
1F
100
AcDbEntity
  8
0
  6
Continuous
 62
     7
370
    35
100
AcDbLine
 10
303.568560073
 20
543.7160101909
 30
0.0
 11
303.568560073
 21
647.7160123366
 31
0.0
  0
LINE
  5
271
330
1F
100
AcDbEntity
  8
0
  6
Continuous
 62
     7
370
    35
100
AcDbLine
 10
1448.5685409995
 20
649.7160089392
 30
0.0
 11
1448.5685409995
 21
648.7160106379
 31
0.0
  0
LINE
  5
272
330
1F
100
AcDbEntity
  8
0
  6
Continuous
 62
     7
370
    35
100
AcDbLine
 10
1448.5685409995
 20
648.7160106379
 30
0.0
 11
1438.5685505363
 21
648.7160106379
 31
0.0
  0
LINE
  5
273
330
1F
100
AcDbEntity
  8
0
  6
Continuous
 62
     7
370
    35
100
AcDbLine
 10
1438.5685505363
 20
649.7160089392
 30
0.0
 11
1448.5685409995
 21
649.7160089392
 31
0.0
  0
LINE
  5
274
330
1F
100
AcDbEntity
  8
0
  6
Continuous
 62
     7
370
    35
100
AcDbLine
 10
1416.068571994
 20
649.7160089392
 30
0.0
 11
1438.5685505363
 21
649.7160089392
 31
0.0
  0
LINE
  5
275
330
1F
100
AcDbEntity
  8
0
  6
Continuous
 62
     7
370
    35
100
AcDbLine
 10
1416.068571994
 20
649.7160089392
 30
0.0
 11
1416.068571994
 21
648.7160106379
 31
0.0
  0
LINE
  5
276
330
1F
100
AcDbEntity
  8
0
  6
Continuous
 62
     7
370
    35
100
AcDbLine
 10
1416.068571994
 20
648.7160106379
 30
0.0
 11
1438.5685505363
 21
648.7160106379
 31
0.0
  0
LINE
  5
277
330
1F
100
AcDbEntity
  8
0
  6
Continuous
 62
     7
370
    35
100
AcDbLine
 10
1448.5685409995
 20
647.7160123366
 30
0.0
 11
1448.5685409995
 21
648.7160106379
 31
0.0
  0
LINE
  5
278
330
1F
100
AcDbEntity
  8
0
  6
Continuous
 62
     7
370
    35
100
AcDbLine
 10
1418.1685628387
 20
647.7160123366
 30
0.0
 11
1418.1685628387
 21
648.7160106379
 31
0.0
  0
ARC
  5
279
330
1F
100
AcDbEntity
  8
0
  6
Continuous
 62
     7
370
    35
100
AcDbCircle
 10
1438.5685505363
 20
543.7160104829
 30
0.0
 40
10.0
100
AcDbArc
 50
270.0
 51
0.0
  0
LINE
  5
27A
330
1F
100
AcDbEntity
  8
0
  6
Continuous
 62
     7
370
    35
100
AcDbLine
 10
1416.068571994
 20
533.7160085517
 30
0.0
 11
1438.5685505363
 21
533.7160085517
 31
0.0
  0
LINE
  5
27B
330
1F
100
AcDbEntity
  8
0
  6
Continuous
 62
     7
370
    35
100
AcDbLine
 10
1416.068571994
 20
563.1910120327
 30
0.0
 11
1416.068571994
 21
533.7160085517
 31
0.0
  0
LINE
  5
27C
330
1F
100
AcDbEntity
  8
0
  6
Continuous
 62
     7
370
    35
100
AcDbLine
 10
1418.0685462448
 20
646.0960102457
 30
0.0
 11
1418.1685628387
 21
646.0960102457
 31
0.0
  0
LINE
  5
27D
330
1F
100
AcDbEntity
  8
0
  6
Continuous
 62
     7
370
    35
100
AcDbLine
 10
1448.5685409995
 20
543.7160101909
 30
0.0
 11
1448.5685409995
 21
647.7160123366
 31
0.0
  0
LINE
  5
27E
330
1F
100
AcDbEntity
  8
0
  6
Continuous
 62
     7
370
    35
100
AcDbLine
 10
1418.1685628387
 20
647.7160123366
 30
0.0
 11
1418.1685628387
 21
646.0960102457
 31
0.0
  0
LINE
  5
27F
330
1F
100
AcDbEntity
  8
0
  6
Continuous
 62
     8
370
    18
100
AcDbLine
 10
336.0685290786
 20
647.6910119134
 30
0.0
 11
1416.068571994
 21
647.6910119134
 31
0.0
  0
LINE
  5
280
330
1F
100
AcDbEntity
  8
0
  6
Continuous
 62
     8
370
    18
100
AcDbLine
 10
1416.068571994
 20
633.1910123307
 30
0.0
 11
336.0685290786
 21
633.1910123307
 31
0.0
  0
LINE
  5
281
330
1F
100
AcDbEntity
  8
0
  6
Continuous
 62
     8
370
    18
100
AcDbLine
 10
336.0685290786
 20
563.1910120327
 30
0.0
 11
1416.068571994
 21
563.1910120327
 31
0.0
  0
LINE
  5
282
330
1F
100
AcDbEntity
  8
0
  6
Continuous
 62
     8
370
    18
100
AcDbLine
 10
336.0685290786
 20
630.2477033067
 30
0.0
 11
1416.068571994
 21
630.2477033067
 31
0.0
  0
LINE
  5
283
330
1F
100
AcDbEntity
  8
0
  6
Continuous
 62
     8
370
    18
100
AcDbLine
 10
336.0685290786
 20
568.1343176592
 30
0.0
 11
1416.068571994
 21
568.1343176592
 31
0.0
  0
SPLINE
  5
284
330
1F
100
AcDbEntity
  8
0
  6
Continuous
 62
     8
370
    18
100
AcDbSpline
210
0.0
220
0.0
230
1.0
 70
     8
 71
     3
 72
    14
 73
    10
 74
     0
 42
0.000000001
 43
0.00000001
 40
0.0
 40
0.0
 40
0.0
 40
0.0
 40
0.2500000000000001
 40
0.2500000000000001
 40
0.5000000000000001
 40
0.5000000000000001
 40
0.7500000000000001
 40
0.7500000000000001
 40
1.0
 40
1.0
 40
1.0
 40
1.0
 10
793.0694076344381
 20
599.2477032704951
 30
0.0
 10
793.0946492205813
 20
602.5868667793104
 30
0.0
 10
793.6825251637691
 20
605.9210888490512
 30
0.0
 10
795.9190720648648
 20
612.2139783494554
 30
0.0
 10
797.5672820021672
 20
615.1713486234494
 30
0.0
 10
801.7428118964201
 20
620.383598656525
 30
0.0
 10
804.2692711491667
 20
622.6374040117272
 30
0.0
 10
809.9224957007482
 20
626.1931954109084
 30
0.0
 10
813.0480956973915
 20
627.4944484977098
 30
0.0
 10
816.301287564397
 20
628.2477032704951
 30
0.0
  0
LINE
  5
285
330
1F
100
AcDbEntity
  8
0
  6
Continuous
 62
     8
370
    18
100
AcDbLine
 10
336.0685290786
 20
599.2477032713
 30
0.0
 11
793.0694105121
 21
599.2477032713
 31
0.0
  0
LINE
  5
286
330
1F
100
AcDbEntity
  8
0
  6
Continuous
 62
     8
370
    18
100
AcDbLine
 10
959.0676905605
 20
599.2477032713
 30
0.0
 11
1416.068571994
 21
599.2477032713
 31
0.0
  0
SPLINE
  5
287
330
1F
100
AcDbEntity
  8
0
  6
Continuous
 62
     8
370
    18
100
AcDbSpline
210
0.0
220
0.0
230
1.0
 70
     8
 71
     3
 72
    14
 73
    10
 74
     0
 42
0.000000001
 43
0.00000001
 40
0.0
 40
0.0
 40
0.0
 40
0.0
 40
0.25
 40
0.25
 40
0.5
 40
0.5
 40
0.75
 40
0.75
 40
1.0
 40
1.0
 40
1.0
 40
1.0
 10
935.8358135081725
 20
628.2477032704951
 30
0.0
 10
939.089005375178
 20
627.4944484977098
 30
0.0
 10
942.2146053718212
 20
626.1931954109084
 30
0.0
 10
947.8678299234028
 20
622.6374040117272
 30
0.0
 10
950.3942891761494
 20
620.383598656525
 30
0.0
 10
954.5698190704023
 20
615.1713486234494
 30
0.0
 10
956.2180290077047
 20
612.2139783494554
 30
0.0
 10
958.4545759088004
 20
605.9210888490512
 30
0.0
 10
959.0424518519882
 20
602.5868667793104
 30
0.0
 10
959.0676934381313
 20
599.2477032704951
 30
0.0
  0
LINE
  5
288
330
1F
100
AcDbEntity
  8
0
  6
Continuous
 62
     8
370
    18
100
AcDbLine
 10
336.0685290786
 20
599.1343176946
 30
0.0
 11
793.0694105121
 21
599.1343176946
 31
0.0
  0
SPLINE
  5
289
330
1F
100
AcDbEntity
  8
0
  6
Continuous
 62
     8
370
    18
100
AcDbSpline
210
0.0
220
0.0
230
1.0
 70
     8
 71
     3
 72
    14
 73
    10
 74
     0
 42
0.000000001
 43
0.00000001
 40
0.0
 40
0.0
 40
0.0
 40
0.0
 40
0.2500000000000002
 40
0.2500000000000002
 40
0.5000000000000003
 40
0.5000000000000003
 40
0.7500000000000002
 40
0.7500000000000002
 40
1.0
 40
1.0
 40
1.0
 40
1.0
 10
816.3012875643968
 20
570.1343176953683
 30
0.0
 10
813.0480956973913
 20
570.8875724681536
 30
0.0
 10
809.9224957007482
 20
572.1888255549551
 30
0.0
 10
804.2692711491666
 20
575.7446169541363
 30
0.0
 10
801.7428118964201
 20
577.9984223093385
 30
0.0
 10
797.5672820021672
 20
583.2106723424141
 30
0.0
 10
795.9190720648648
 20
586.1680426164081
 30
0.0
 10
793.6825251637691
 20
592.4609321168123
 30
0.0
 10
793.0946492205813
 20
595.7951541865531
 30
0.0
 10
793.0694076344381
 20
599.1343176953684
 30
0.0
  0
SPLINE
  5
28A
330
1F
100
AcDbEntity
  8
0
  6
Continuous
 62
     8
370
    18
100
AcDbSpline
210
0.0
220
0.0
230
1.0
 70
     8
 71
     3
 72
    14
 73
    10
 74
     0
 42
0.000000001
 43
0.00000001
 40
0.0
 40
0.0
 40
0.0
 40
0.0
 40
0.25
 40
0.25
 40
0.5
 40
0.5
 40
0.75
 40
0.75
 40
1.0
 40
1.0
 40
1.0
 40
1.0
 10
959.0676934381313
 20
599.1343176953684
 30
0.0
 10
959.0424518519882
 20
595.7951541865532
 30
0.0
 10
958.4545759088004
 20
592.4609321168123
 30
0.0
 10
956.2180290077047
 20
586.1680426164081
 30
0.0
 10
954.5698190704023
 20
583.2106723424141
 30
0.0
 10
950.3942891761494
 20
577.9984223093385
 30
0.0
 10
947.867829923403
 20
575.7446169541363
 30
0.0
 10
942.2146053718212
 20
572.1888255549551
 30
0.0
 10
939.089005375178
 20
570.8875724681536
 30
0.0
 10
935.8358135081726
 20
570.1343176953683
 30
0.0
  0
LINE
  5
28B
330
1F
100
AcDbEntity
  8
0
  6
Continuous
 62
     8
370
    18
100
AcDbLine
 10
959.0676905605
 20
599.1343176946
 30
0.0
 11
1416.068571994
 21
599.1343176946
 31
0.0
  0
LINE
  5
28C
330
1F
100
AcDbEntity
  8
0
  6
Continuous
 62
     8
370
    18
100
AcDbLine
 10
929.0685499104
 20
628.4459908682
 30
0.0
 11
929.0685499104
 21
628.4410101551
 31
0.0
  0
LINE
  5
28D
330
1F
100
AcDbEntity
  8
0
  6
Continuous
 62
     8
370
    18
100
AcDbLine
 10
823.0685511621
 20
628.4410101551
 30
0.0
 11
823.0685511621
 21
626.1910111833
 31
0.0
  0
ARC
  5
28E
330
1F
100
AcDbEntity
  8
0
  6
Continuous
 62
     8
370
    18
100
AcDbCircle
 10
869.3124523549
 20
639.8209878443
 30
0.0
 40
54.25978549159389
100
AcDbArc
 50
192.3154572883
 51
195.3089642031
  0
LINE
  5
28F
330
1F
100
AcDbEntity
  8
0
  6
Continuous
 62
     8
370
    18
100
AcDbLine
 10
823.0685511621
 20
628.4459908682
 30
0.0
 11
823.0685511621
 21
628.4410101551
 31
0.0
  0
ARC
  5
290
330
1F
100
AcDbEntity
  8
0
  6
Continuous
 62
     8
370
    18
100
AcDbCircle
 10
882.8246487177
 20
639.8209878443
 30
0.0
 40
54.25978549159389
100
AcDbArc
 50
344.6910357969
 51
347.6845427117
  0
LINE
  5
291
330
1F
100
AcDbEntity
  8
0
  6
Continuous
 62
     8
370
    18
100
AcDbLine
 10
929.0685499104
 20
628.4410101551
 30
0.0
 11
929.0685499104
 21
626.1910111833
 31
0.0
  0
ARC
  5
292
330
1F
100
AcDbEntity
  8
0
  6
Continuous
 62
     8
370
    18
100
AcDbCircle
 10
869.3124523549
 20
558.5610331215
 30
0.0
 40
54.25978549159402
100
AcDbArc
 50
164.6910357969
 51
167.6845427117
  0
LINE
  5
293
330
1F
100
AcDbEntity
  8
0
  6
Continuous
 62
     8
370
    18
100
AcDbLine
 10
823.0685511621
 20
572.1910097826
 30
0.0
 11
823.0685511621
 21
569.9410108108
 31
0.0
  0
LINE
  5
294
330
1F
100
AcDbEntity
  8
0
  6
Continuous
 62
     8
370
    18
100
AcDbLine
 10
929.0685499104
 20
572.1910097826
 30
0.0
 11
929.0685499104
 21
569.9410108108
 31
0.0
  0
ARC
  5
295
330
1F
100
AcDbEntity
  8
0
  6
Continuous
 62
     8
370
    18
100
AcDbCircle
 10
882.8246487177
 20
558.5610331215
 30
0.0
 40
54.25978549159402
100
AcDbArc
 50
12.3154572883
 51
15.3089642031
  0
LINE
  5
296
330
1F
100
AcDbEntity
  8
0
  6
Continuous
 62
     8
370
    18
100
AcDbLine
 10
823.0685511621
 20
569.9360300976
 30
0.0
 11
823.0685511621
 21
569.9410108108
 31
0.0
  0
LINE
  5
297
330
1F
100
AcDbEntity
  8
0
  6
Continuous
 62
     8
370
    18
100
AcDbLine
 10
929.0685499104
 20
569.9360300976
 30
0.0
 11
929.0685499104
 21
569.9410108108
 31
0.0
  0
ARC
  5
298
330
1F
100
AcDbEntity
  8
0
  6
Continuous
 62
     8
370
    18
100
AcDbCircle
 10
958.2358551641
 20
613.645609676
 30
0.0
 40
14.42191592563817
100
AcDbArc
 50
261.367611863
 51
273.3065733933
  0
ARC
  5
299
330
1F
100
AcDbEntity
  8
0
  6
Continuous
 62
     8
370
    18
100
AcDbCircle
 10
793.9012459085
 20
613.645609676
 30
0.0
 40
14.42191592564065
100
AcDbArc
 50
266.6934266067
 51
278.632388137
  0
ARC
  5
29A
330
1F
100
AcDbEntity
  8
0
  6
Continuous
 62
     8
370
    18
100
AcDbCircle
 10
793.9012459085
 20
584.7364112899
 30
0.0
 40
14.42191592562756
100
AcDbArc
 50
81.367611863
 51
93.3065733933
  0
ARC
  5
29B
330
1F
100
AcDbEntity
  8
0
  6
Continuous
 62
     8
370
    18
100
AcDbCircle
 10
958.2358551641
 20
584.7364112899
 30
0.0
 40
14.42191592562484
100
AcDbArc
 50
86.6934266067
 51
98.632388137
  0
SPLINE
  5
29C
330
1F
100
AcDbEntity
  8
0
  6
Continuous
 62
     8
370
    18
100
AcDbSpline
210
0.0
220
0.0
230
1.0
 70
     8
 71
     3
 72
     8
 73
     4
 74
     0
 42
0.000000001
 43
0.00000001
 40
0.0
 40
0.0
 40
0.0
 40
0.0
 40
1.0
 40
1.0
 40
1.0
 40
1.0
 10
959.0676934381313
 20
599.2477032704951
 30
0.0
 10
959.0688362519944
 20
599.2099080787862
 30
0.0
 10
959.0688362519944
 20
599.1721128870773
 30
0.0
 10
959.0676934381313
 20
599.1343176953683
 30
0.0
  0
SPLINE
  5
29D
330
1F
100
AcDbEntity
  8
0
  6
Continuous
 62
     8
370
    18
100
AcDbSpline
210
0.0
220
0.0
230
1.0
 70
     8
 71
     3
 72
     8
 73
     4
 74
     0
 42
0.000000001
 43
0.00000001
 40
0.0
 40
0.0
 40
0.0
 40
0.0
 40
1.0
 40
1.0
 40
1.0
 40
1.0
 10
793.0694076344381
 20
599.1343176953683
 30
0.0
 10
793.068264820575
 20
599.1721128870773
 30
0.0
 10
793.068264820575
 20
599.2099080787862
 30
0.0
 10
793.0694076344381
 20
599.2477032704951
 30
0.0
  0
SPLINE
  5
29E
330
1F
100
AcDbEntity
  8
0
  6
Continuous
 62
     8
370
    18
100
AcDbSpline
210
0.0
220
0.0
230
1.0
 70
     8
 71
     3
 72
    17
 73
    13
 74
     0
 42
0.000000001
 43
0.00000001
 40
0.0
 40
0.0
 40
0.0
 40
0.0
 40
0.0000017483096275
 40
0.1251046410651357
 40
0.2502123207971987
 40
0.3526172814278835
 40
0.4578090864608259
 40
0.4930461876940522
 40
0.6348562253002155
 40
0.741553987355604
 40
0.8461680643249907
 40
1.0
 40
1.0
 40
1.0
 40
1.0
 10
929.0744544955589
 20
620.932722948814
 30
0.0
 10
929.0744743637738
 20
620.9327229488234
 30
0.0
 10
930.4961938538937
 20
620.932723624039
 30
0.0
 10
933.345807359821
 20
620.6428286382159
 30
0.0
 10
937.2084287283743
 20
619.4830217132952
 30
0.0
 10
940.5816864026826
 20
617.7402410538832
 30
0.0
 10
942.813023403396
 20
616.0934913063262
 30
0.0
 10
945.1735176983126
 20
613.9215356861924
 30
0.0
 10
947.2283018705723
 20
611.391883595281
 30
0.0
 10
949.1190363847699
 20
607.8401511656377
 30
0.0
 10
950.4926814956508
 20
603.8894214061984
 30
0.0
 10
950.6925035684526
 20
600.9441133347068
 30
0.0
 10
950.8114414306978
 20
599.1910104829318
 30
0.0
  0
LINE
  5
29F
330
1F
100
AcDbEntity
  8
0
  6
Continuous
 62
     8
370
    18
100
AcDbLine
 10
929.0744544956
 20
620.9327229488
 30
0.0
 11
929.0744544956
 21
620.9410098571
 31
0.0
  0
LINE
  5
2A0
330
1F
100
AcDbEntity
  8
0
  6
Continuous
 62
     8
370
    18
100
AcDbLine
 10
950.8070008847
 20
599.1910104829
 30
0.0
 11
950.8114414307
 21
599.1910104829
 31
0.0
  0
LINE
  5
2A1
330
1F
100
AcDbEntity
  8
0
  6
Continuous
 62
     8
370
    18
100
AcDbLine
 10
929.0744544956
 20
620.9282824028
 30
0.0
 11
929.0744544956
 21
620.9327229488
 31
0.0
  0
SPLINE
  5
2A2
330
1F
100
AcDbEntity
  8
0
  6
Continuous
 62
     8
370
    18
100
AcDbSpline
210
0.0
220
0.0
230
1.0
 70
     8
 71
     3
 72
    17
 73
    13
 74
     0
 42
0.000000001
 43
0.00000001
 40
0.0
 40
0.0
 40
0.0
 40
0.0
 40
0.0000017483096275
 40
0.1251046410651357
 40
0.2502123207971989
 40
0.3526172814278836
 40
0.4578090864608261
 40
0.4930461876940524
 40
0.6348562253002158
 40
0.7415539873556043
 40
0.8461680643249911
 40
1.0
 40
1.0
 40
1.0
 40
1.0
 10
823.0626465770105
 20
620.932722948814
 30
0.0
 10
823.0626267087956
 20
620.9327229488234
 30
0.0
 10
821.6409072188413
 20
620.932723624039
 30
0.0
 10
818.791293712671
 20
620.6428286382159
 30
0.0
 10
814.9286723442119
 20
619.4830217132952
 30
0.0
 10
811.5554146698826
 20
617.7402410538832
 30
0.0
 10
809.3240776691739
 20
616.0934913063262
 30
0.0
 10
806.9635833742568
 20
613.9215356861924
 30
0.0
 10
804.9087992019973
 20
611.391883595281
 30
0.0
 10
803.0180646877997
 20
607.8401511656377
 30
0.0
 10
801.6444195769187
 20
603.8894214061984
 30
0.0
 10
801.4445975041169
 20
600.9441133347068
 30
0.0
 10
801.3256596418718
 20
599.1910104829318
 30
0.0
  0
LINE
  5
2A3
330
1F
100
AcDbEntity
  8
0
  6
Continuous
 62
     8
370
    18
100
AcDbLine
 10
823.062646577
 20
620.9327229488
 30
0.0
 11
823.062646577
 21
620.9410098571
 31
0.0
  0
LINE
  5
2A4
330
1F
100
AcDbEntity
  8
0
  6
Continuous
 62
     8
370
    18
100
AcDbLine
 10
801.3301001879
 20
599.1910104829
 30
0.0
 11
801.3256596419
 21
599.1910104829
 31
0.0
  0
LINE
  5
2A5
330
1F
100
AcDbEntity
  8
0
  6
Continuous
 62
     8
370
    18
100
AcDbLine
 10
823.062646577
 20
620.9282824028
 30
0.0
 11
823.062646577
 21
620.9327229488
 31
0.0
  0
SPLINE
  5
2A6
330
1F
100
AcDbEntity
  8
0
  6
Continuous
 62
     8
370
    18
100
AcDbSpline
210
0.0
220
0.0
230
1.0
 70
     8
 71
     3
 72
    17
 73
    13
 74
     0
 42
0.000000001
 43
0.00000001
 40
0.0
 40
0.0
 40
0.0
 40
0.0
 40
0.0000017483096275
 40
0.1251046410651357
 40
0.2502123207971987
 40
0.3526172814278835
 40
0.4578090864608259
 40
0.4930461876940522
 40
0.6348562253002155
 40
0.741553987355604
 40
0.8461680643249907
 40
1.0
 40
1.0
 40
1.0
 40
1.0
 10
929.0744544955589
 20
577.4492980170495
 30
0.0
 10
929.0744743637738
 20
577.4492980170401
 30
0.0
 10
930.4961938538937
 20
577.4492973418245
 30
0.0
 10
933.345807359821
 20
577.7391923276476
 30
0.0
 10
937.2084287283743
 20
578.8989992525683
 30
0.0
 10
940.5816864026826
 20
580.6417799119803
 30
0.0
 10
942.813023403396
 20
582.2885296595373
 30
0.0
 10
945.1735176983126
 20
584.460485279671
 30
0.0
 10
947.2283018705723
 20
586.9901373705824
 30
0.0
 10
949.1190363847699
 20
590.5418698002258
 30
0.0
 10
950.4926814956508
 20
594.4925995596651
 30
0.0
 10
950.6925035684526
 20
597.4379076311567
 30
0.0
 10
950.8114414306978
 20
599.1910104829317
 30
0.0
  0
LINE
  5
2A7
330
1F
100
AcDbEntity
  8
0
  6
Continuous
 62
     8
370
    18
100
AcDbLine
 10
929.0744544956
 20
577.449298017
 30
0.0
 11
929.0744544956
 21
577.4410111088
 31
0.0
  0
LINE
  5
2A8
330
1F
100
AcDbEntity
  8
0
  6
Continuous
 62
     8
370
    18
100
AcDbLine
 10
929.0744544956
 20
577.4537385631
 30
0.0
 11
929.0744544956
 21
577.449298017
 31
0.0
  0
SPLINE
  5
2A9
330
1F
100
AcDbEntity
  8
0
  6
Continuous
 62
     8
370
    18
100
AcDbSpline
210
0.0
220
0.0
230
1.0
 70
     8
 71
     3
 72
    17
 73
    13
 74
     0
 42
0.000000001
 43
0.00000001
 40
0.0
 40
0.0
 40
0.0
 40
0.0
 40
0.0000017483096275
 40
0.1251046410651356
 40
0.2502123207971987
 40
0.3526172814278833
 40
0.4578090864608257
 40
0.493046187694052
 40
0.6348562253002152
 40
0.7415539873556037
 40
0.8461680643249904
 40
1.0
 40
1.0
 40
1.0
 40
1.0
 10
823.0626465770105
 20
577.4492980170495
 30
0.0
 10
823.0626267087956
 20
577.4492980170401
 30
0.0
 10
821.6409072188413
 20
577.4492973418245
 30
0.0
 10
818.791293712671
 20
577.7391923276476
 30
0.0
 10
814.9286723442119
 20
578.8989992525683
 30
0.0
 10
811.5554146698826
 20
580.6417799119803
 30
0.0
 10
809.3240776691739
 20
582.2885296595373
 30
0.0
 10
806.9635833742568
 20
584.460485279671
 30
0.0
 10
804.9087992019973
 20
586.9901373705824
 30
0.0
 10
803.0180646877997
 20
590.5418698002258
 30
0.0
 10
801.6444195769187
 20
594.4925995596651
 30
0.0
 10
801.4445975041169
 20
597.4379076311567
 30
0.0
 10
801.3256596418718
 20
599.1910104829318
 30
0.0
  0
LINE
  5
2AA
330
1F
100
AcDbEntity
  8
0
  6
Continuous
 62
     8
370
    18
100
AcDbLine
 10
823.062646577
 20
577.449298017
 30
0.0
 11
823.062646577
 21
577.4410111088
 31
0.0
  0
LINE
  5
2AB
330
1F
100
AcDbEntity
  8
0
  6
Continuous
 62
     8
370
    18
100
AcDbLine
 10
823.062646577
 20
577.4537385631
 30
0.0
 11
823.062646577
 21
577.449298017
 31
0.0
  0
ARC
  5
2AC
330
1F
100
AcDbEntity
  8
0
  6
Continuous
 62
     8
370
    18
100
AcDbCircle
 10
923.053239246
 20
614.427514786
 30
0.0
 40
2.052502423957079
100
AcDbArc
 50
11.64668659
 51
44.8014125004
  0
SPLINE
  5
2AD
330
1F
100
AcDbEntity
  8
0
  6
Continuous
 62
     8
370
    18
100
AcDbSpline
210
0.0
220
0.0
230
1.0
 70
     8
 71
     3
 72
     9
 73
     5
 74
     0
 42
0.000000001
 43
0.00000001
 40
0.0
 40
0.0
 40
0.0
 40
0.0
 40
0.1546890932399494
 40
1.0
 40
1.0
 40
1.0
 40
1.0
 10
928.9518179389336
 20
617.9225840795285
 30
0.0
 10
928.7087664439169
 20
617.8499091805007
 30
0.0
 10
927.1375406391362
 20
617.380096490378
 30
0.0
 10
925.713422144152
 20
616.5638208313011
 30
0.0
 10
924.5095992478231
 20
615.8738141137607
 30
0.0
  0
SPLINE
  5
2AE
330
1F
100
AcDbEntity
  8
0
  6
Continuous
 62
     8
370
    18
100
AcDbSpline
210
0.0
220
0.0
230
1.0
 70
     8
 71
     3
 72
     9
 73
     5
 74
     0
 42
0.000000001
 43
0.00000001
 40
0.0
 40
0.0
 40
0.0
 40
0.0
 40
0.1546890932399494
 40
1.0
 40
1.0
 40
1.0
 40
1.0
 10
823.1852831336358
 20
617.9225840795285
 30
0.0
 10
823.4283346286525
 20
617.8499091805007
 30
0.0
 10
824.9995604334333
 20
617.380096490378
 30
0.0
 10
826.4236789284175
 20
616.5638208313011
 30
0.0
 10
827.6275018247464
 20
615.8738141137607
 30
0.0
  0
ARC
  5
2AF
330
1F
100
AcDbEntity
  8
0
  6
Continuous
 62
     8
370
    18
100
AcDbCircle
 10
829.0838618266
 20
614.427514786
 30
0.0
 40
2.05250242395724
100
AcDbArc
 50
135.1985874996
 51
168.35331341
  0
SPLINE
  5
2B0
330
1F
100
AcDbEntity
  8
0
  6
Continuous
 62
     8
370
    18
100
AcDbSpline
210
0.0
220
0.0
230
1.0
 70
     8
 71
     3
 72
     9
 73
     5
 74
     0
 42
0.000000001
 43
0.00000001
 40
0.0
 40
0.0
 40
0.0
 40
0.0
 40
0.1546890932399494
 40
1.0
 40
1.0
 40
1.0
 40
1.0
 10
928.9518179389336
 20
580.459436886335
 30
0.0
 10
928.7087664439169
 20
580.5321117853626
 30
0.0
 10
927.1375406391362
 20
581.0019244754855
 30
0.0
 10
925.713422144152
 20
581.8182001345624
 30
0.0
 10
924.5095992478231
 20
582.5082068521028
 30
0.0
  0
ARC
  5
2B1
330
1F
100
AcDbEntity
  8
0
  6
Continuous
 62
     8
370
    18
100
AcDbCircle
 10
923.053239246
 20
583.9545061798
 30
0.0
 40
2.052502423957042
100
AcDbArc
 50
315.1985874996
 51
348.35331341
  0
ARC
  5
2B2
330
1F
100
AcDbEntity
  8
0
  6
Continuous
 62
     8
370
    18
100
AcDbCircle
 10
829.0838618266
 20
583.9545061798
 30
0.0
 40
2.05250242395716
100
AcDbArc
 50
191.64668659
 51
224.8014125004
  0
SPLINE
  5
2B3
330
1F
100
AcDbEntity
  8
0
  6
Continuous
 62
     8
370
    18
100
AcDbSpline
210
0.0
220
0.0
230
1.0
 70
     8
 71
     3
 72
     9
 73
     5
 74
     0
 42
0.000000001
 43
0.00000001
 40
0.0
 40
0.0
 40
0.0
 40
0.0
 40
0.1546890932399494
 40
1.0
 40
1.0
 40
1.0
 40
1.0
 10
823.1852831336358
 20
580.459436886335
 30
0.0
 10
823.4283346286525
 20
580.5321117853626
 30
0.0
 10
824.9995604334333
 20
581.0019244754855
 30
0.0
 10
826.4236789284175
 20
581.8182001345624
 30
0.0
 10
827.6275018247464
 20
582.5082068521028
 30
0.0
  0
ARC
  5
2B4
330
1F
100
AcDbEntity
  8
0
  6
Continuous
 62
     8
370
    18
100
AcDbCircle
 10
922.0685505363
 20
599.1910104829
 30
0.0
 40
20.0
100
AcDbArc
 50
270.0
 51
347.5224163015
  0
LINE
  5
2B5
330
1F
100
AcDbEntity
  8
0
  6
Continuous
 62
     8
370
    18
100
AcDbLine
 10
922.0685506257
 20
586.4783595506
 30
0.0
 11
922.0685506257
 21
579.19101093
 31
0.0
  0
LINE
  5
2B6
330
1F
100
AcDbEntity
  8
0
  6
Continuous
 62
     8
370
    18
100
AcDbLine
 10
922.0685506257
 20
611.9036614153
 30
0.0
 11
922.0685506257
 21
619.1910100359
 31
0.0
  0
ARC
  5
2B7
330
1F
100
AcDbEntity
  8
0
  6
Continuous
 62
     8
370
    18
100
AcDbCircle
 10
922.0685505363
 20
599.1910104829
 30
0.0
 40
20.0
100
AcDbArc
 50
12.4775836985
 51
90.0
  0
SPLINE
  5
2B8
330
1F
100
AcDbEntity
  8
0
  6
Continuous
 62
     8
370
    18
100
AcDbSpline
210
0.0
220
0.0
230
1.0
 70
     8
 71
     3
 72
    14
 73
    10
 74
     0
 42
0.000000001
 43
0.00000001
 40
0.0
 40
0.0
 40
0.0
 40
0.0
 40
0.111428517666819
 40
0.495878450524899
 40
0.7046557672676621
 40
0.8301764016971556
 40
0.9121021737271335
 40
0.9942801179564417
 40
1.0
 40
1.0
 40
1.0
 40
1.0
 10
924.5095992478231
 20
615.8738141137607
 30
0.0
 10
924.3902087604259
 20
615.7914820034036
 30
0.0
 10
923.858898004997
 20
615.4250881917735
 30
0.0
 10
923.1846090635264
 20
614.7923165035501
 30
0.0
 10
922.7267400513149
 20
614.0013328059016
 30
0.0
 10
922.6422862251263
 20
613.491137861383
 30
0.0
 10
922.7247486444479
 20
613.1468077290168
 30
0.0
 10
922.8444623579409
 20
612.9691140482565
 30
0.0
 10
922.9251670908435
 20
612.8937267248782
 30
0.0
 10
922.9304188879827
 20
612.8888209539896
 30
0.0
  0
SPLINE
  5
2B9
330
1F
100
AcDbEntity
  8
0
  6
Continuous
 62
     8
370
    18
100
AcDbSpline
210
0.0
220
0.0
230
1.0
 70
     8
 71
     3
 72
    14
 73
    10
 74
     0
 42
0.000000001
 43
0.00000001
 40
0.0
 40
0.0
 40
0.0
 40
0.0
 40
0.111428517666819
 40
0.495878450524899
 40
0.7046557672676621
 40
0.8301764016971556
 40
0.9121021737271335
 40
0.9942801179564417
 40
1.0
 40
1.0
 40
1.0
 40
1.0
 10
924.5095992478231
 20
582.5082068521028
 30
0.0
 10
924.3902087604259
 20
582.5905389624598
 30
0.0
 10
923.858898004997
 20
582.95693277409
 30
0.0
 10
923.1846090635264
 20
583.5897044623134
 30
0.0
 10
922.7267400513149
 20
584.3806881599618
 30
0.0
 10
922.6422862251263
 20
584.8908831044805
 30
0.0
 10
922.7247486444479
 20
585.2352132368467
 30
0.0
 10
922.8444623579409
 20
585.412906917607
 30
0.0
 10
922.9251670908435
 20
585.4882942409853
 30
0.0
 10
922.9304188879827
 20
585.4932000118739
 30
0.0
  0
SPLINE
  5
2BA
330
1F
100
AcDbEntity
  8
0
  6
Continuous
 62
     8
370
    18
100
AcDbSpline
210
0.0
220
0.0
230
1.0
 70
     8
 71
     3
 72
    14
 73
    10
 74
     0
 42
0.000000001
 43
0.00000001
 40
0.0
 40
0.0
 40
0.0
 40
0.0
 40
0.111428517666819
 40
0.495878450524899
 40
0.7046557672676621
 40
0.8301764016971556
 40
0.9121021737271335
 40
0.9942801179564417
 40
1.0
 40
1.0
 40
1.0
 40
1.0
 10
827.6275018247464
 20
582.5082068521028
 30
0.0
 10
827.7468923121435
 20
582.5905389624598
 30
0.0
 10
828.2782030675726
 20
582.95693277409
 30
0.0
 10
828.9524920090431
 20
583.5897044623134
 30
0.0
 10
829.4103610212545
 20
584.3806881599618
 30
0.0
 10
829.4948148474432
 20
584.8908831044805
 30
0.0
 10
829.4123524281216
 20
585.2352132368467
 30
0.0
 10
829.2926387146287
 20
585.412906917607
 30
0.0
 10
829.2119339817259
 20
585.4882942409853
 30
0.0
 10
829.2066821845868
 20
585.4932000118739
 30
0.0
  0
SPLINE
  5
2BB
330
1F
100
AcDbEntity
  8
0
  6
Continuous
 62
     8
370
    18
100
AcDbSpline
210
0.0
220
0.0
230
1.0
 70
     8
 71
     3
 72
    14
 73
    10
 74
     0
 42
0.000000001
 43
0.00000001
 40
0.0
 40
0.0
 40
0.0
 40
0.0
 40
0.111428517666819
 40
0.495878450524899
 40
0.7046557672676621
 40
0.8301764016971556
 40
0.9121021737271335
 40
0.9942801179564417
 40
1.0
 40
1.0
 40
1.0
 40
1.0
 10
827.6275018247464
 20
615.8738141137607
 30
0.0
 10
827.7468923121435
 20
615.7914820034036
 30
0.0
 10
828.2782030675726
 20
615.4250881917735
 30
0.0
 10
828.9524920090431
 20
614.7923165035501
 30
0.0
 10
829.4103610212545
 20
614.0013328059016
 30
0.0
 10
829.4948148474432
 20
613.491137861383
 30
0.0
 10
829.4123524281216
 20
613.1468077290168
 30
0.0
 10
829.2926387146287
 20
612.9691140482565
 30
0.0
 10
829.2119339817259
 20
612.8937267248782
 30
0.0
 10
829.2066821845868
 20
612.8888209539896
 30
0.0
  0
ARC
  5
2BC
330
1F
100
AcDbEntity
  8
0
  6
Continuous
 62
     8
370
    18
100
AcDbCircle
 10
830.0685505363
 20
599.1910104829
 30
0.0
 40
19.99999999999989
100
AcDbArc
 50
90.0
 51
167.5224163015
  0
LINE
  5
2BD
330
1F
100
AcDbEntity
  8
0
  6
Continuous
 62
     8
370
    18
100
AcDbLine
 10
830.0685504469
 20
611.9036614153
 30
0.0
 11
830.0685504469
 21
619.1910100359
 31
0.0
  0
LINE
  5
2BE
330
1F
100
AcDbEntity
  8
0
  6
Continuous
 62
     8
370
    18
100
AcDbLine
 10
830.0685504469
 20
586.4783595506
 30
0.0
 11
830.0685504469
 21
579.19101093
 31
0.0
  0
ARC
  5
2BF
330
1F
100
AcDbEntity
  8
0
  6
Continuous
 62
     8
370
    18
100
AcDbCircle
 10
830.0685505363
 20
599.1910104829
 30
0.0
 40
20.0
100
AcDbArc
 50
192.4775836985
 51
270.0
  0
LINE
  5
2C0
330
1F
100
AcDbEntity
  8
0
  6
Continuous
 62
     8
370
    18
100
AcDbLine
 10
876.0685505363
 20
620.9367220479
 30
0.0
 11
929.0744358691
 21
620.9327229488
 31
0.0
  0
LINE
  5
2C1
330
1F
100
AcDbEntity
  8
0
  6
Continuous
 62
     8
370
    18
100
AcDbLine
 10
876.0685505363
 20
620.9367220479
 30
0.0
 11
876.0685505363
 21
620.9322833646
 31
0.0
  0
LINE
  5
2C2
330
1F
100
AcDbEntity
  8
0
  6
Continuous
 62
     8
370
    18
100
AcDbLine
 10
876.0685505363
 20
620.9367220479
 30
0.0
 11
823.0626652035
 21
620.9327229488
 31
0.0
  0
LINE
  5
2C3
330
1F
100
AcDbEntity
  8
0
  6
Continuous
 62
     8
370
    18
100
AcDbLine
 10
876.0685505363
 20
577.4452989179
 30
0.0
 11
929.0744358691
 21
577.449298017
 31
0.0
  0
LINE
  5
2C4
330
1F
100
AcDbEntity
  8
0
  6
Continuous
 62
     8
370
    18
100
AcDbLine
 10
876.0685505363
 20
577.4452989179
 30
0.0
 11
876.0685505363
 21
577.4497376013
 31
0.0
  0
LINE
  5
2C5
330
1F
100
AcDbEntity
  8
0
  6
Continuous
 62
     8
370
    18
100
AcDbLine
 10
876.0685505363
 20
577.4452989179
 30
0.0
 11
823.0626652035
 21
577.449298017
 31
0.0
  0
LINE
  5
2C6
330
1F
100
AcDbEntity
  8
0
  6
Continuous
 62
     8
370
    18
100
AcDbLine
 10
830.0685504469
 20
619.1910100359
 30
0.0
 11
922.0685506257
 21
619.1910100359
 31
0.0
  0
LINE
  5
2C7
330
1F
100
AcDbEntity
  8
0
  6
Continuous
 62
     8
370
    18
100
AcDbLine
 10
830.0685504469
 20
579.19101093
 30
0.0
 11
922.0685506257
 21
579.19101093
 31
0.0
  0
LINE
  5
2C8
330
1F
100
AcDbEntity
  8
0
  6
Continuous
 62
     8
370
    18
100
AcDbLine
 10
929.0744358691
 20
620.9327229488
 30
0.0
 11
929.0744358691
 21
620.9410098571
 31
0.0
  0
LINE
  5
2C9
330
1F
100
AcDbEntity
  8
0
  6
Continuous
 62
     8
370
    18
100
AcDbLine
 10
823.0626652035
 20
620.9327229488
 30
0.0
 11
823.0626652035
 21
620.9410098571
 31
0.0
  0
LINE
  5
2CA
330
1F
100
AcDbEntity
  8
0
  6
Continuous
 62
     8
370
    18
100
AcDbLine
 10
929.0744358691
 20
577.449298017
 30
0.0
 11
929.0744358691
 21
577.4410111088
 31
0.0
  0
LINE
  5
2CB
330
1F
100
AcDbEntity
  8
0
  6
Continuous
 62
     8
370
    18
100
AcDbLine
 10
823.0626652035
 20
577.449298017
 30
0.0
 11
823.0626652035
 21
577.4410111088
 31
0.0
  0
LINE
  5
2CC
330
1F
100
AcDbEntity
  8
0
  6
Continuous
 62
     8
370
    18
100
AcDbLine
 10
929.0685499104
 20
572.9410113025
 30
0.0
 11
929.0685499104
 21
572.1910097826
 31
0.0
  0
ARC
  5
2CD
330
1F
100
AcDbEntity
  8
0
  6
Continuous
 62
     8
370
    18
100
AcDbCircle
 10
929.0685505363
 20
599.1910104829
 30
0.0
 40
26.25000000000011
100
AcDbArc
 50
270.0
 51
90.0
  0
LINE
  5
2CE
330
1F
100
AcDbEntity
  8
0
  6
Continuous
 62
     8
370
    18
100
AcDbLine
 10
929.0685499104
 20
625.4410096634
 30
0.0
 11
929.0685499104
 21
626.1910111833
 31
0.0
  0
LINE
  5
2CF
330
1F
100
AcDbEntity
  8
0
  6
Continuous
 62
     8
370
    18
100
AcDbLine
 10
929.0685499104
 20
577.4410111088
 30
0.0
 11
929.0685499104
 21
572.9410113025
 31
0.0
  0
LINE
  5
2D0
330
1F
100
AcDbEntity
  8
0
  6
Continuous
 62
     8
370
    18
100
AcDbLine
 10
929.0685499104
 20
620.9410098571
 30
0.0
 11
929.0685499104
 21
625.4410096634
 31
0.0
  0
LINE
  5
2D1
330
1F
100
AcDbEntity
  8
0
  6
Continuous
 62
     8
370
    18
100
AcDbLine
 10
823.0685511621
 20
625.4410096634
 30
0.0
 11
929.0685499104
 21
625.4410096634
 31
0.0
  0
LINE
  5
2D2
330
1F
100
AcDbEntity
  8
0
  6
Continuous
 62
     8
370
    18
100
AcDbLine
 10
823.0685511621
 20
625.4410096634
 30
0.0
 11
823.0685511621
 21
626.1910111833
 31
0.0
  0
LINE
  5
2D3
330
1F
100
AcDbEntity
  8
0
  6
Continuous
 62
     8
370
    18
100
AcDbLine
 10
823.0685511621
 20
620.9410098571
 30
0.0
 11
823.0685511621
 21
625.4410096634
 31
0.0
  0
ARC
  5
2D4
330
1F
100
AcDbEntity
  8
0
  6
Continuous
 62
     8
370
    18
100
AcDbCircle
 10
823.0685505363
 20
599.1910104829
 30
0.0
 40
26.25000000000011
100
AcDbArc
 50
90.0
 51
270.0
  0
LINE
  5
2D5
330
1F
100
AcDbEntity
  8
0
  6
Continuous
 62
     8
370
    18
100
AcDbLine
 10
823.0685511621
 20
572.9410113025
 30
0.0
 11
823.0685511621
 21
572.1910097826
 31
0.0
  0
LINE
  5
2D6
330
1F
100
AcDbEntity
  8
0
  6
Continuous
 62
     8
370
    18
100
AcDbLine
 10
823.0685511621
 20
577.4410111088
 30
0.0
 11
823.0685511621
 21
572.9410113025
 31
0.0
  0
LINE
  5
2D7
330
1F
100
AcDbEntity
  8
0
  6
Continuous
 62
     8
370
    18
100
AcDbLine
 10
823.0685511621
 20
572.9410113025
 30
0.0
 11
929.0685499104
 21
572.9410113025
 31
0.0
  0
CIRCLE
  5
2D8
330
1F
100
AcDbEntity
  8
0
  6
Continuous
 62
     8
370
    18
100
AcDbCircle
 10
876.0685505363
 20
599.1910104829
 30
0.0
 40
3.548336454629634
  0
CIRCLE
  5
2D9
330
1F
100
AcDbEntity
  8
0
  6
Continuous
 62
     8
370
    18
100
AcDbCircle
 10
876.0685505363
 20
599.1910104829
 30
0.0
 40
5.614709433546636
  0
ARC
  5
2DA
330
1F
100
AcDbEntity
  8
0
  6
Continuous
 62
     8
370
    18
100
AcDbCircle
 10
876.0685505363
 20
599.1910104829
 30
0.0
 40
7.463480267439933
100
AcDbArc
 50
126.4944476701
 51
233.50555233
  0
ARC
  5
2DB
330
1F
100
AcDbEntity
  8
0
  6
Continuous
 62
     8
370
    18
100
AcDbCircle
 10
876.0685505363
 20
599.1910104829
 30
0.0
 40
7.463480267439841
100
AcDbArc
 50
306.4944476701
 51
53.5055523299
  0
ARC
  5
2DC
330
1F
100
AcDbEntity
  8
0
  6
Continuous
 62
     8
370
    18
100
AcDbCircle
 10
876.0685505363
 20
599.1910104829
 30
0.0
 40
8.28496890136704
100
AcDbArc
 50
133.5974061618
 51
226.4025938382
  0
ARC
  5
2DD
330
1F
100
AcDbEntity
  8
0
  6
Continuous
 62
     8
370
    18
100
AcDbCircle
 10
876.0685505363
 20
599.1910104829
 30
0.0
 40
8.28496890136704
100
AcDbArc
 50
313.5974061618
 51
46.4025938382
  0
LINE
  5
2DE
330
1F
100
AcDbEntity
  8
0
  6
Continuous
 62
     8
370
    18
100
AcDbLine
 10
335.0685419532
 20
564.1910103339
 30
0.0
 11
335.0685419532
 21
648.7160106379
 31
0.0
  0
LINE
  5
2DF
330
1F
100
AcDbEntity
  8
0
  6
Continuous
 62
     8
370
    18
100
AcDbLine
 10
1417.0685591194
 20
564.1910103339
 30
0.0
 11
1417.0685591194
 21
648.7160106379
 31
0.0
  0
LINE
  5
2E0
330
1F
100
AcDbEntity
  8
0
  6
Continuous
 62
     8
370
    18
100
AcDbLine
 10
313.5685505363
 20
649.7160089392
 30
0.0
 11
313.5685505363
 21
648.7160106379
 31
0.0
  0
LINE
  5
2E1
330
1F
100
AcDbEntity
  8
0
  6
Continuous
 62
     8
370
    18
100
AcDbLine
 10
303.568560073
 20
647.7160123366
 30
0.0
 11
333.9685382339
 21
647.7160123366
 31
0.0
  0
LINE
  5
2E2
330
1F
100
AcDbEntity
  8
0
  6
Continuous
 62
     8
370
    18
100
AcDbLine
 10
1438.5685505363
 20
648.7160106379
 30
0.0
 11
1438.5685505363
 21
649.7160089392
 31
0.0
  0
LINE
  5
2E3
330
1F
100
AcDbEntity
  8
0
  6
Continuous
 62
     8
370
    18
100
AcDbLine
 10
1418.1685628387
 20
647.7160123366
 30
0.0
 11
1448.5685409995
 21
647.7160123366
 31
0.0
  0
SPLINE
  5
2E4
330
1F
100
AcDbEntity
  8
0
  6
Continuous
 62
     7
370
    35
100
AcDbSpline
210
0.0
220
0.0
230
1.0
 70
     8
 71
     3
 72
    17
 73
    13
 74
     0
 42
0.000000001
 43
0.00000001
 40
0.0
 40
0.0
 40
0.0
 40
0.0
 40
0.1861886056624336
 40
0.3656619918627809
 40
0.5275321381514286
 40
0.6028112163443975
 40
0.6751800169967268
 40
0.7104921474971242
 40
0.7447572358223385
 40
0.8079758363759996
 40
0.9175813497340265
 40
1.0
 40
1.0
 40
1.0
 40
1.0
 10
1662.116030731854
 20
897.1300689593487
 30
0.0
 10
1662.116374562107
 20
897.1141824289206
 30
0.0
 10
1662.117049821768
 20
897.0829823437197
 30
0.0
 10
1662.112263591428
 20
896.701588010027
 30
0.0
 10
1662.12578793463
 20
896.094295389293
 30
0.0
 10
1662.100590716173
 20
895.3997545420267
 30
0.0
 10
1662.160346580863
 20
894.8836090843301
 30
0.0
 10
1661.984061820567
 20
894.4197628710012
 30
0.0
 10
1661.61870347401
 20
894.0593240128812
 30
0.0
 10
1660.806750143807
 20
893.7603141965099
 30
0.0
 10
1659.796768940523
 20
893.0710695096834
 30
0.0
 10
1659.250063386082
 20
892.2403888126754
 30
0.0
 10
1659.0154120118
 20
891.8838525280885
 30
0.0
  0
SPLINE
  5
2E5
330
1F
100
AcDbEntity
  8
0
  6
Continuous
 62
     7
370
    35
100
AcDbSpline
210
0.0
220
0.0
230
1.0
 70
     8
 71
     3
 72
    17
 73
    13
 74
     0
 42
0.000000001
 43
0.00000001
 40
0.0
 40
0.0
 40
0.0
 40
0.0
 40
0.0926143310255511
 40
0.2010019656374462
 40
0.2635181143926925
 40
0.2974024671004449
 40
0.3323222278021024
 40
0.4038869044510193
 40
0.4783295211690974
 40
0.6384010516330626
 40
0.815880224076701
 40
1.0
 40
1.0
 40
1.0
 40
1.0
 10
1722.31798482841
 20
891.7458696380787
 30
0.0
 10
1722.052342543215
 20
892.152477503007
 30
0.0
 10
1721.47581598529
 20
893.0349433070489
 30
0.0
 10
1720.425953227464
 20
893.7612379425558
 30
0.0
 10
1719.613304999172
 20
894.0592299890844
 30
0.0
 10
1719.248023684859
 20
894.4197816710791
 30
0.0
 10
1719.071718400049
 20
894.8835978235523
 30
0.0
 10
1719.131484627839
 20
895.3997584593747
 30
0.0
 10
1719.10628304073
 20
896.0942929081758
 30
0.0
 10
1719.119809730039
 20
896.7015889650917
 30
0.0
 10
1719.115022670235
 20
897.0829820839253
 30
0.0
 10
1719.11569804743
 20
897.1141823412687
 30
0.0
 10
1719.116041937528
 20
897.1300689593487
 30
0.0
  0
ARC
  5
2E6
330
1F
100
AcDbEntity
  8
0
  6
Continuous
 62
     7
370
    35
100
AcDbCircle
 10
1668.1258617165
 20
867.745285454
 30
0.0
 40
14.99947051376659
100
AcDbArc
 50
226.5814766918
 51
269.9248122975
  0
ARC
  5
2E7
330
1F
100
AcDbEntity
  8
0
  6
Continuous
 62
     7
370
    35
100
AcDbCircle
 10
1713.1060575719
 20
867.7456770991
 30
0.0
 40
14.99986236057103
100
AcDbArc
 50
270.0757716166
 51
312.1690315302
  0
SPLINE
  5
2E8
330
1F
100
AcDbEntity
  8
0
  6
Continuous
 62
     7
370
    35
100
AcDbSpline
210
0.0
220
0.0
230
1.0
 70
     8
 71
     3
 72
    14
 73
    10
 74
     0
 42
0.000000001
 43
0.00000001
 40
0.0
 40
0.0
 40
0.0
 40
0.0
 40
0.3118518767475216
 40
0.5835256030760484
 40
0.7472375509424288
 40
0.8165070766131968
 40
0.8691914425470519
 40
0.9293803828287562
 40
1.0
 40
1.0
 40
1.0
 40
1.0
 10
1722.995928058085
 20
891.1227934152416
 30
0.0
 10
1722.88598940755
 20
891.2032410668683
 30
0.0
 10
1722.680276304189
 20
891.3537717127667
 30
0.0
 10
1722.456322024205
 20
891.58843289086
 30
0.0
 10
1722.318182749268
 20
891.7602916956284
 30
0.0
 10
1722.25865915462
 20
891.8424878172068
 30
0.0
 10
1722.235413268199
 20
891.8758745149167
 30
0.0
 10
1722.223198497911
 20
891.8939236137703
 30
0.0
 10
1722.222929992728
 20
891.8943501556544
 30
0.0
 10
1722.222785034833
 20
891.8945804328255
 30
0.0
  0
SPLINE
  5
2E9
330
1F
100
AcDbEntity
  8
0
  6
Continuous
 62
     7
370
    35
100
AcDbSpline
210
0.0
220
0.0
230
1.0
 70
     8
 71
     3
 72
    12
 73
     8
 74
     0
 42
0.000000001
 43
0.00000001
 40
0.0
 40
0.0
 40
0.0
 40
0.0
 40
0.1249106104831214
 40
0.2370755828552273
 40
0.3308210102393027
 40
0.4814592075539717
 40
0.9999999999999999
 40
0.9999999999999999
 40
0.9999999999999999
 40
0.9999999999999999
 10
1659.008114168105
 20
891.8928295463852
 30
0.0
 10
1659.008236126492
 20
891.8929954828315
 30
0.0
 10
1659.008467598867
 20
891.8933104238887
 30
0.0
 10
1658.989292993999
 20
891.8650267107748
 30
0.0
 10
1658.948232713709
 20
891.8073258957064
 30
0.0
 10
1658.821850651594
 20
891.6388677391152
 30
0.0
 10
1658.683502152926
 20
891.5000955210073
 30
0.0
 10
1658.576297143159
 20
891.3925621748499
 30
0.0
  0
SPLINE
  5
2EA
330
1F
100
AcDbEntity
  8
0
  6
Continuous
 62
     7
370
    35
100
AcDbSpline
210
0.0
220
0.0
230
1.0
 70
     8
 71
     3
 72
    12
 73
     8
 74
     0
 42
0.000000001
 43
0.00000001
 40
0.0
 40
0.0
 40
0.0
 40
0.0
 40
0.0910372187946343
 40
0.2353620736014321
 40
0.3547498543451847
 40
0.5766248463031615
 40
0.9999999999999999
 40
0.9999999999999999
 40
0.9999999999999999
 40
0.9999999999999999
 10
1723.161949345527
 20
856.6402053550415
 30
0.0
 10
1723.160984022629
 20
856.6393661879309
 30
0.0
 10
1723.158488335679
 20
856.6371966564598
 30
0.0
 10
1723.172905610745
 20
856.6495687114123
 30
0.0
 10
1723.208394649832
 20
856.6788271485129
 30
0.0
 10
1723.28685784743
 20
856.7423717231726
 30
0.0
 10
1723.361184393398
 20
856.7903553218877
 30
0.0
 10
1723.409953096566
 20
856.8218393341235
 30
0.0
  0
SPLINE
  5
2EB
330
1F
100
AcDbEntity
  8
0
  6
Continuous
 62
     7
370
    35
100
AcDbSpline
210
0.0
220
0.0
230
1.0
 70
     8
 71
     3
 72
    13
 73
     9
 74
     0
 42
0.000000001
 43
0.00000001
 40
0.0
 40
0.0
 40
0.0
 40
0.0
 40
0.3192542177609783
 40
0.6030601114855746
 40
0.7318302002754877
 40
0.8311131496434144
 40
0.9399941727130549
 40
1.0
 40
1.0
 40
1.0
 40
1.0
 10
1657.82280130094
 20
856.823355527275
 30
0.0
 10
1657.859465031313
 20
856.7995883509145
 30
0.0
 10
1657.92872154257
 20
856.7546929815561
 30
0.0
 10
1658.00662787413
 20
856.6926758046942
 30
0.0
 10
1658.049808057377
 20
856.6573556886199
 30
0.0
 10
1658.066606878877
 20
856.6431937241884
 30
0.0
 10
1658.073550937403
 20
856.6372284811883
 30
0.0
 10
1658.072574900639
 20
856.6380780937834
 30
0.0
 10
1658.072228112874
 20
856.6383799627953
 30
0.0
  0
SPLINE
  5
2EC
330
1F
100
AcDbEntity
  8
0
  6
Continuous
 62
     7
370
    35
100
AcDbSpline
210
0.0
220
0.0
230
1.0
 70
     8
 71
     3
 72
    10
 73
     6
 74
     0
 42
0.000000001
 43
0.00000001
 40
0.0
 40
0.0
 40
0.0
 40
0.0
 40
0.0679247590322837
 40
0.6959740719332085
 40
1.0
 40
1.0
 40
1.0
 40
1.0
 10
1659.906777122674
 20
893.0047076285414
 30
0.0
 10
1659.886852450978
 20
892.9952689717867
 30
0.0
 10
1659.682699280777
 20
892.8985581336661
 30
0.0
 10
1659.270211956342
 20
892.761713751149
 30
0.0
 10
1658.902772433958
 20
892.771765662865
 30
0.0
 10
1658.782920369563
 20
892.7750444129638
 30
0.0
  0
ARC
  5
2ED
330
1F
100
AcDbEntity
  8
0
  6
Continuous
 62
     7
370
    35
100
AcDbCircle
 10
1659.1160363347
 20
863.745813895
 30
0.0
 40
11.00000000000011
100
AcDbArc
 50
180.0
 51
270.0
  0
LINE
  5
2EE
330
1F
100
AcDbEntity
  8
0
  6
Continuous
 62
     7
370
    35
100
AcDbLine
 10
1659.1160358281
 20
852.7458129541
 30
0.0
 11
1668.6028917671
 21
852.7458129541
 31
0.0
  0
LINE
  5
2EF
330
1F
100
AcDbEntity
  8
0
  6
Continuous
 62
     7
370
    35
100
AcDbLine
 10
1659.9969831646
 20
893.0709255949
 30
0.0
 11
1659.681043157
 21
892.9301543251
 31
0.0
  0
SPLINE
  5
2F0
330
1F
100
AcDbEntity
  8
0
  6
Continuous
 62
     7
370
    35
100
AcDbSpline
210
0.0
220
0.0
230
1.0
 70
     8
 71
     3
 72
     9
 73
     5
 74
     0
 42
0.000000001
 43
0.00000001
 40
0.0
 40
0.0
 40
0.0
 40
0.0
 40
0.65930747123483
 40
1.0
 40
1.0
 40
1.0
 40
1.0
 10
1659.029542037902
 20
892.7783226684264
 30
0.0
 10
1658.975740911146
 20
892.7628580062512
 30
0.0
 10
1658.894138428082
 20
892.7394020879581
 30
0.0
 10
1658.8106881531
 20
892.7512916119151
 30
0.0
 10
1658.78225726789
 20
892.7553422838978
 30
0.0
  0
SPLINE
  5
2F1
330
1F
100
AcDbEntity
  8
0
  6
Continuous
 62
     7
370
    35
100
AcDbSpline
210
0.0
220
0.0
230
1.0
 70
     8
 71
     3
 72
    12
 73
     8
 74
     0
 42
0.000000001
 43
0.00000001
 40
0.0
 40
0.0
 40
0.0
 40
0.0
 40
0.0693614920526264
 40
0.1753513837582082
 40
0.4243953720263179
 40
0.7065019732741928
 40
0.9999999999999999
 40
0.9999999999999999
 40
0.9999999999999999
 40
0.9999999999999999
 10
1719.124714413342
 20
895.0567158029012
 30
0.0
 10
1719.121229120033
 20
895.2580055710056
 30
0.0
 10
1719.112418020582
 20
895.7668821584168
 30
0.0
 10
1719.118938460421
 20
896.7102342112172
 30
0.0
 10
1719.114884864859
 20
897.7111966707515
 30
0.0
 10
1719.11636363347
 20
898.4670303422994
 30
0.0
 10
1719.116149341384
 20
898.7178912551403
 30
0.0
 10
1719.116040074882
 20
898.8458040260307
 30
0.0
  0
LINE
  5
2F2
330
1F
100
AcDbEntity
  8
0
  6
Continuous
 62
     7
370
    35
100
AcDbLine
 10
1723.6160361559
 20
907.8573324808
 30
0.0
 11
1723.6160361559
 21
909.1954139151
 31
0.0
  0
LINE
  5
2F3
330
1F
100
AcDbEntity
  8
0
  6
Continuous
 62
     7
370
    35
100
AcDbLine
 10
1756.1160349638
 20
910.195414079
 30
0.0
 11
1756.0910382659
 21
910.195414079
 31
0.0
  0
LINE
  5
2F4
330
1F
100
AcDbEntity
  8
0
  6
Continuous
 62
     7
370
    35
100
AcDbLine
 10
1756.1160349638
 20
909.1954139151
 30
0.0
 11
1756.1160349638
 21
910.195414079
 31
0.0
  0
LINE
  5
2F5
330
1F
100
AcDbEntity
  8
0
  6
Continuous
 62
     7
370
    35
100
AcDbLine
 10
1756.1160349638
 20
909.1954139151
 30
0.0
 11
1756.0910382659
 21
909.1954139151
 31
0.0
  0
LINE
  5
2F6
330
1F
100
AcDbEntity
  8
0
  6
Continuous
 62
     7
370
    35
100
AcDbLine
 10
1641.0910361797
 20
952.6954149917
 30
0.0
 11
1641.1160366029
 21
952.6954149917
 31
0.0
  0
LINE
  5
2F7
330
1F
100
AcDbEntity
  8
0
  6
Continuous
 62
     7
370
    35
100
AcDbLine
 10
1641.1160366029
 20
923.1954148129
 30
0.0
 11
1641.1160366029
 21
952.6954149917
 31
0.0
  0
ARC
  5
2F8
330
1F
100
AcDbEntity
  8
0
  6
Continuous
 62
     7
370
    35
100
AcDbCircle
 10
1642.1160363347
 20
923.195413895
 30
0.0
 40
1.000000000000227
100
AcDbArc
 50
180.0
 51
270.0
  0
LINE
  5
2F9
330
1F
100
AcDbEntity
  8
0
  6
Continuous
 62
     7
370
    35
100
AcDbLine
 10
1657.6160365135
 20
909.1954139151
 30
0.0
 11
1657.6160365135
 21
907.8573324808
 31
0.0
  0
LWPOLYLINE
  5
2FA
330
1F
100
AcDbEntity
  8
0
  6
Continuous
 62
     7
370
    35
100
AcDbPolyline
 90
        3
 70
   128
 43
0.0
 10
1657.6160365135
 20
907.8573324808
 10
1657.6517471463
 20
907.4810697787
 10
1657.716034481
 20
907.2328324985
  0
ARC
  5
2FB
330
1F
100
AcDbEntity
  8
0
  6
Continuous
 62
     7
370
    35
100
AcDbCircle
 10
1721.6160363347
 20
907.8573323843
 30
0.0
 40
2.000000000000156
100
AcDbArc
 50
337.6683549908
 51
0.0
  0
ARC
  5
2FC
330
1F
100
AcDbEntity
  8
0
  6
Continuous
 62
     7
370
    35
100
AcDbCircle
 10
1726.6160363347
 20
911.195413895
 30
0.0
 40
1.000000000000114
100
AcDbArc
 50
180.0
 51
270.0
  0
LINE
  5
2FD
330
1F
100
AcDbEntity
  8
0
  6
Continuous
 62
     7
370
    35
100
AcDbLine
 10
1718.616037199
 20
899.9338216238
 30
0.0
 11
1718.616037199
 21
899.195813676
 31
0.0
  0
LINE
  5
2FE
330
1F
100
AcDbEntity
  8
0
  6
Continuous
 62
     7
370
    35
100
AcDbLine
 10
1662.6160354704
 20
899.9105064288
 30
0.0
 11
1662.6160354704
 21
899.195813676
 31
0.0
  0
LINE
  5
2FF
330
1F
100
AcDbEntity
  8
0
  6
Continuous
 62
     7
370
    35
100
AcDbLine
 10
1662.6160354704
 20
899.195813676
 30
0.0
 11
1664.148699993
 21
899.195813676
 31
0.0
  0
LINE
  5
300
330
1F
100
AcDbEntity
  8
0
  6
Continuous
 62
     7
370
    35
100
AcDbLine
 10
1717.0333736927
 20
899.195813676
 30
0.0
 11
1718.6147817761
 21
899.195813676
 31
0.0
  0
ARC
  5
301
330
1F
100
AcDbEntity
  8
0
  6
Continuous
 62
     7
370
    35
100
AcDbCircle
 10
1690.6160363347
 20
872.745813895
 30
0.0
 40
18.9690990859192
100
AcDbArc
 50
142.3801000557
 51
180.0
  0
ARC
  5
302
330
1F
100
AcDbEntity
  8
0
  6
Continuous
 62
     7
370
    35
100
AcDbCircle
 10
1690.6160363347
 20
872.745813895
 30
0.0
 40
18.96909908591913
100
AcDbArc
 50
100.6010145456
 51
137.6769568468
  0
ARC
  5
303
330
1F
100
AcDbEntity
  8
0
  6
Continuous
 62
     7
370
    35
100
AcDbCircle
 10
1690.6160363347
 20
872.745813895
 30
0.0
 40
18.96909908591919
100
AcDbArc
 50
42.546864516
 51
79.5233318229
  0
ARC
  5
304
330
1F
100
AcDbEntity
  8
0
  6
Continuous
 62
     7
370
    35
100
AcDbCircle
 10
1690.6160363347
 20
872.745813895
 30
0.0
 40
18.96909908591917
100
AcDbArc
 50
322.1333787429
 51
37.8666212571
  0
ARC
  5
305
330
1F
100
AcDbEntity
  8
0
  6
Continuous
 62
     7
370
    35
100
AcDbCircle
 10
1690.6160363347
 20
872.745813895
 30
0.0
 40
18.96909908591921
100
AcDbArc
 50
240.1372837206
 51
299.8627162794
  0
ARC
  5
306
330
1F
100
AcDbEntity
  8
0
  6
Continuous
 62
     7
370
    35
100
AcDbCircle
 10
1690.6160363347
 20
872.745813895
 30
0.0
 40
18.9690990859192
100
AcDbArc
 50
180.0
 51
217.6198999443
  0
ARC
  5
307
330
1F
100
AcDbEntity
  8
0
  6
Continuous
 62
     7
370
    35
100
AcDbCircle
 10
1690.6160363347
 20
872.745813895
 30
0.0
 40
17.5
100
AcDbArc
 50
149.1565593902
 51
180.0
  0
ARC
  5
308
330
1F
100
AcDbEntity
  8
0
  6
Continuous
 62
     7
370
    35
100
AcDbCircle
 10
1690.6160363347
 20
872.745813895
 30
0.0
 40
17.50000000000007
100
AcDbArc
 50
97.3213750067
 51
143.2667382341
  0
ARC
  5
309
330
1F
100
AcDbEntity
  8
0
  6
Continuous
 62
     7
370
    35
100
AcDbCircle
 10
1690.6160363347
 20
872.745813895
 30
0.0
 40
17.50000000000008
100
AcDbArc
 50
37.0061004438
 51
82.7482724566
  0
ARC
  5
30A
330
1F
100
AcDbEntity
  8
0
  6
Continuous
 62
     7
370
    35
100
AcDbCircle
 10
1690.6160363347
 20
872.745813895
 30
0.0
 40
17.49999999999988
100
AcDbArc
 50
329.2028843283
 51
31.1612642039
  0
ARC
  5
30B
330
1F
100
AcDbEntity
  8
0
  6
Continuous
 62
     7
370
    35
100
AcDbCircle
 10
1690.6160363347
 20
872.745813895
 30
0.0
 40
17.50000000000006
100
AcDbArc
 50
250.0553953233
 51
289.9446046767
  0
ARC
  5
30C
330
1F
100
AcDbEntity
  8
0
  6
Continuous
 62
     7
370
    35
100
AcDbCircle
 10
1690.6160363347
 20
872.745813895
 30
0.0
 40
17.5
100
AcDbArc
 50
180.0
 51
210.8434406098
  0
ARC
  5
30D
330
1F
100
AcDbEntity
  8
0
  6
Continuous
 62
     7
370
    35
100
AcDbCircle
 10
1690.6160363347
 20
872.745813895
 30
0.0
 40
20.00000000000023
100
AcDbArc
 50
318.4822147462
 51
0.0
  0
ARC
  5
30E
330
1F
100
AcDbEntity
  8
0
  6
Continuous
 62
     7
370
    35
100
AcDbCircle
 10
1690.6160363347
 20
872.745813895
 30
0.0
 40
19.99999999999997
100
AcDbArc
 50
235.3378568788
 51
304.6621431212
  0
ARC
  5
30F
330
1F
100
AcDbEntity
  8
0
  6
Continuous
 62
     7
370
    35
100
AcDbCircle
 10
1690.6160363347
 20
872.745813895
 30
0.0
 40
19.99999999999989
100
AcDbArc
 50
138.6987730634
 51
221.3019833554
  0
ARC
  5
310
330
1F
100
AcDbEntity
  8
0
  6
Continuous
 62
     7
370
    35
100
AcDbCircle
 10
1690.6160363347
 20
872.745813895
 30
0.0
 40
19.99999999999997
100
AcDbArc
 50
103.7401839857
 51
134.3525074316
  0
ARC
  5
311
330
1F
100
AcDbEntity
  8
0
  6
Continuous
 62
     7
370
    35
100
AcDbCircle
 10
1690.6160363347
 20
872.745813895
 30
0.0
 40
19.99999999999996
100
AcDbArc
 50
45.8740620829
 51
76.3569329068
  0
ARC
  5
312
330
1F
100
AcDbEntity
  8
0
  6
Continuous
 62
     7
370
    35
100
AcDbCircle
 10
1690.6160363347
 20
872.745813895
 30
0.0
 40
20.00000000000023
100
AcDbArc
 50
0.0
 51
41.5177852538
  0
SPLINE
  5
313
330
1F
100
AcDbEntity
  8
0
  6
Continuous
 62
     7
370
    35
100
AcDbSpline
210
0.0
220
0.0
230
1.0
 70
     8
 71
     3
 72
    12
 73
     8
 74
     0
 42
0.000000001
 43
0.00000001
 40
0.0
 40
0.0
 40
0.0
 40
0.0
 40
0.1720195528584108
 40
0.4559851246039152
 40
0.6711971093338257
 40
0.8863141192577368
 40
1.0
 40
1.0
 40
1.0
 40
1.0
 10
1654.90409968203
 20
884.3317782596283
 30
0.0
 10
1654.42232375584
 20
883.28406894995
 30
0.0
 10
1653.145244190846
 20
880.5068273388437
 30
0.0
 10
1652.178948878142
 20
876.0641900695614
 30
0.0
 10
1651.989675905802
 20
871.2746178590784
 30
0.0
 10
1652.448621362794
 20
867.6336179700861
 30
0.0
 10
1653.078476447691
 20
865.5229242736103
 30
0.0
 10
1653.296253213344
 20
864.7931372836761
 30
0.0
  0
SPLINE
  5
314
330
1F
100
AcDbEntity
  8
0
  6
Continuous
 62
     7
370
    35
100
AcDbSpline
210
0.0
220
0.0
230
1.0
 70
     8
 71
     3
 72
    14
 73
    10
 74
     0
 42
0.000000001
 43
0.00000001
 40
0.0
 40
0.0
 40
0.0
 40
0.0
 40
0.0000086960517354
 40
0.0546557246072297
 40
0.1545956561534361
 40
0.2815116778855903
 40
0.4757794370636632
 40
0.737221503709837
 40
1.0
 40
1.0
 40
1.0
 40
1.0
 10
1659.206739196238
 20
892.0754032299451
 30
0.0
 10
1659.206737954505
 20
892.0754010569343
 30
0.0
 10
1659.198933512353
 20
892.0617434243502
 30
0.0
 10
1659.166753585422
 20
891.9978998221333
 30
0.0
 10
1659.015913093361
 20
891.7415454303583
 30
0.0
 10
1658.652051685369
 20
891.1257701378117
 30
0.0
 10
1658.021348357897
 20
890.0500231736036
 30
0.0
 10
1657.210281847817
 20
888.6292356831507
 30
0.0
 10
1656.629178222261
 20
887.5702174118807
 30
0.0
 10
1656.337885686812
 20
887.0393583640985
 30
0.0
  0
SPLINE
  5
315
330
1F
100
AcDbEntity
  8
0
  6
Continuous
 62
     7
370
    35
100
AcDbSpline
210
0.0
220
0.0
230
1.0
 70
    24
 71
     3
 72
    13
 73
     9
 74
     0
 42
0.000000001
 43
0.00000001
 40
0.0
 40
0.0
 40
0.0
 40
0.0
 40
0.3699055140726539
 40
0.749687851147034
 40
0.8278613268384495
 40
0.9058135743957847
 40
0.9827830787863484
 40
1.0
 40
1.0
 40
1.0
 40
1.0
 10
1662.11603631979
 20
899.1958136760227
 30
0.0
 10
1662.104176243564
 20
899.1958136760227
 30
0.0
 10
1662.080139415992
 20
899.1958136760227
 30
0.0
 10
1662.214922767918
 20
899.1958136760227
 30
0.0
 10
1662.050086845466
 20
899.1958136760227
 30
0.0
 10
1662.367150290359
 20
899.1958136760227
 30
0.0
 10
1663.152553763367
 20
899.1958136760227
 30
0.0
 10
1663.994749760379
 20
899.1958136760227
 30
0.0
 10
1664.148699992952
 20
899.1958136760227
 30
0.0
  0
LINE
  5
316
330
1F
100
AcDbEntity
  8
0
  6
Continuous
 62
     7
370
    35
100
AcDbLine
 10
1727.5885590703
 20
881.2895646409
 30
0.0
 11
1727.1978208215
 21
882.2947466836
 31
0.0
  0
SPLINE
  5
317
330
1F
100
AcDbEntity
  8
0
  6
Continuous
 62
     7
370
    35
100
AcDbSpline
210
0.0
220
0.0
230
1.0
 70
     8
 71
     3
 72
     9
 73
     5
 74
     0
 42
0.000000001
 43
0.00000001
 40
0.0
 40
0.0
 40
0.0
 40
0.0
 40
0.1686363734912275
 40
0.9999999999999999
 40
0.9999999999999999
 40
0.9999999999999999
 40
0.9999999999999999
 10
1722.256562241969
 20
891.842139521294
 30
0.0
 10
1722.244313535869
 20
891.861476307681
 30
0.0
 10
1722.171679703403
 20
891.9761418806332
 30
0.0
 10
1722.163228742681
 20
891.9863661190524
 30
0.0
 10
1722.156202921328
 20
891.9948661789826
 30
0.0
  0
SPLINE
  5
318
330
1F
100
AcDbEntity
  8
0
  6
Continuous
 62
     7
370
    35
100
AcDbSpline
210
0.0
220
0.0
230
1.0
 70
     8
 71
     3
 72
    14
 73
    10
 74
     0
 42
0.000000001
 43
0.00000001
 40
0.0
 40
0.0
 40
0.0
 40
0.0
 40
0.0000086960517354
 40
0.0546557246072297
 40
0.1545956561534361
 40
0.2815116778855903
 40
0.4757794370636632
 40
0.737221503709837
 40
1.0
 40
1.0
 40
1.0
 40
1.0
 10
1722.025333473143
 20
892.0754032299451
 30
0.0
 10
1722.025334714877
 20
892.0754010569343
 30
0.0
 10
1722.033139157029
 20
892.0617434243502
 30
0.0
 10
1722.065319083959
 20
891.9978998221333
 30
0.0
 10
1722.216159576021
 20
891.7415454303583
 30
0.0
 10
1722.580020984013
 20
891.1257701378117
 30
0.0
 10
1723.210724311484
 20
890.0500231736036
 30
0.0
 10
1724.021790821565
 20
888.6292356831507
 30
0.0
 10
1724.602894447121
 20
887.5702174118807
 30
0.0
 10
1724.89418698257
 20
887.0393583640985
 30
0.0
  0
SPLINE
  5
319
330
1F
100
AcDbEntity
  8
0
  6
Continuous
 62
     7
370
    35
100
AcDbSpline
210
0.0
220
0.0
230
1.0
 70
     8
 71
     3
 72
    12
 73
     8
 74
     0
 42
0.000000001
 43
0.00000001
 40
0.0
 40
0.0
 40
0.0
 40
0.0
 40
0.1720195528584108
 40
0.4559851246039152
 40
0.6711971093338257
 40
0.8863141192577368
 40
1.0
 40
1.0
 40
1.0
 40
1.0
 10
1726.327972987351
 20
884.3317782596283
 30
0.0
 10
1726.809748913541
 20
883.28406894995
 30
0.0
 10
1728.086828478536
 20
880.5068273388437
 30
0.0
 10
1729.05312379124
 20
876.0641900695614
 30
0.0
 10
1729.24239676358
 20
871.2746178590784
 30
0.0
 10
1728.783451306587
 20
867.6336179700861
 30
0.0
 10
1728.153596221691
 20
865.5229242736103
 30
0.0
 10
1727.935819456038
 20
864.7931372836761
 30
0.0
  0
SPLINE
  5
31A
330
1F
100
AcDbEntity
  8
0
  6
Continuous
 62
     7
370
    35
100
AcDbSpline
210
0.0
220
0.0
230
1.0
 70
    24
 71
     3
 72
    13
 73
     9
 74
     0
 42
0.000000001
 43
0.00000001
 40
0.0
 40
0.0
 40
0.0
 40
0.0
 40
0.369196222406509
 40
0.7482503290642349
 40
0.8262739075718777
 40
0.9040766821490972
 40
0.9808985979638367
 40
1.0
 40
1.0
 40
1.0
 40
1.0
 10
1719.116036349592
 20
899.1958136760227
 30
0.0
 10
1719.127818636027
 20
899.1958136760227
 30
0.0
 10
1719.151697806957
 20
899.1958136760227
 30
0.0
 10
1719.017798881833
 20
899.1958136760227
 30
0.0
 10
1719.181554790075
 20
899.1958136760227
 30
0.0
 10
1718.866591093253
 20
899.1958136760227
 30
0.0
 10
1718.066545498071
 20
899.1958136760227
 30
0.0
 10
1717.204945769078
 20
899.1958136760227
 30
0.0
 10
1717.033373692689
 20
899.1958136760227
 30
0.0
  0
SPLINE
  5
31B
330
1F
100
AcDbEntity
  8
0
  6
Continuous
 62
     7
370
    35
100
AcDbSpline
210
0.0
220
0.0
230
1.0
 70
    24
 71
     3
 72
    17
 73
    13
 74
     0
 42
0.000000001
 43
0.00000001
 40
0.0
 40
0.0
 40
0.0
 40
0.0
 40
0.0569795678811198
 40
0.1353024614356743
 40
0.216012856900553
 40
0.2868547661390545
 40
0.3593481344758794
 40
0.4253072339197999
 40
0.4928579804472542
 40
0.5565942351082255
 40
0.622312651852814
 40
1.0
 40
1.0
 40
1.0
 40
1.0
 10
1690.616036334691
 20
852.7458129540614
 30
0.0
 10
1689.565655803569
 20
852.7458129540614
 30
0.0
 10
1687.071444692642
 20
852.7458129540614
 30
0.0
 10
1683.252582080624
 20
852.7458129540613
 30
0.0
 10
1679.485214148501
 20
852.7458129540614
 30
0.0
 10
1676.190172594426
 20
852.7458129540614
 30
0.0
 10
1673.509655058943
 20
852.7458129540614
 30
0.0
 10
1671.319386870271
 20
852.7458129540614
 30
0.0
 10
1669.725486054348
 20
852.7458129540614
 30
0.0
 10
1668.673391361386
 20
852.7458129540614
 30
0.0
 10
1668.01808280913
 20
852.7458129540613
 30
0.0
 10
1668.077506125575
 20
852.7458129540614
 30
0.0
 10
1668.128122144994
 20
852.7458129540614
 30
0.0
  0
SPLINE
  5
31C
330
1F
100
AcDbEntity
  8
0
  6
Continuous
 62
     7
370
    35
100
AcDbSpline
210
0.0
220
0.0
230
1.0
 70
    24
 71
     3
 72
    17
 73
    13
 74
     0
 42
0.000000001
 43
0.00000001
 40
0.0
 40
0.0
 40
0.0
 40
0.0
 40
0.0569845495473121
 40
0.136494013921343
 40
0.2160235159211363
 40
0.2876999169794683
 40
0.359368729779039
 40
0.4261501589651319
 40
0.4928873171256244
 40
0.5575313371115678
 40
0.6222797623062897
 40
0.9999999999999999
 40
0.9999999999999999
 40
0.9999999999999999
 40
0.9999999999999999
 10
1690.616036334691
 20
852.7458129540614
 30
0.0
 10
1691.666491426194
 20
852.7458129540614
 30
0.0
 10
1694.182626642186
 20
852.7458129540614
 30
0.0
 10
1697.998172676318
 20
852.7458129540614
 30
0.0
 10
1701.778732842831
 20
852.7458129540614
 30
0.0
 10
1705.051924756343
 20
852.7458129540614
 30
0.0
 10
1707.743311795197
 20
852.7458129540614
 30
0.0
 10
1709.915858561218
 20
852.7458129540614
 30
0.0
 10
1711.529452359718
 20
852.7458129540614
 30
0.0
 10
1712.522886394912
 20
852.7458129540614
 30
0.0
 10
1713.281399718667
 20
852.7458129540613
 30
0.0
 10
1713.18260512847
 20
852.7458129540613
 30
0.0
 10
1713.098267594037
 20
852.7458129540614
 30
0.0
  0
SPLINE
  5
31D
330
1F
100
AcDbEntity
  8
0
  6
Continuous
 62
     7
370
    35
100
AcDbSpline
210
0.0
220
0.0
230
1.0
 70
     8
 71
     3
 72
    12
 73
     8
 74
     0
 42
0.000000001
 43
0.00000001
 40
0.0
 40
0.0
 40
0.0
 40
0.0
 40
0.2029701313510044
 40
0.4118245959795095
 40
0.6147965189107867
 40
0.8236619041297082
 40
1.0
 40
1.0
 40
1.0
 40
1.0
 10
1729.200279840884
 20
864.3750107005767
 30
0.0
 10
1729.603152779175
 20
865.757575356364
 30
0.0
 10
1730.420578397115
 20
868.562786778337
 30
0.0
 10
1730.732909655421
 20
872.9375781600561
 30
0.0
 10
1730.343496531956
 20
877.3258916971781
 30
0.0
 10
1729.308618799942
 20
881.3915669383262
 30
0.0
 10
1728.132958223218
 20
883.8569609157876
 30
0.0
 10
1727.594765403924
 20
884.9855667070084
 30
0.0
  0
SPLINE
  5
31E
330
1F
100
AcDbEntity
  8
0
  6
Continuous
 62
     7
370
    35
100
AcDbSpline
210
0.0
220
0.0
230
1.0
 70
     8
 71
     3
 72
    12
 73
     8
 74
     0
 42
0.000000001
 43
0.00000001
 40
0.0
 40
0.0
 40
0.0
 40
0.0
 40
0.2029701313510044
 40
0.4118245959795095
 40
0.6147965189107867
 40
0.8236619041297082
 40
1.0
 40
1.0
 40
1.0
 40
1.0
 10
1652.031792828498
 20
864.3750107005767
 30
0.0
 10
1651.628919890207
 20
865.757575356364
 30
0.0
 10
1650.811494272267
 20
868.562786778337
 30
0.0
 10
1650.499163013961
 20
872.9375781600561
 30
0.0
 10
1650.888576137426
 20
877.3258916971781
 30
0.0
 10
1651.923453869439
 20
881.3915669383262
 30
0.0
 10
1653.099114446164
 20
883.8569609157876
 30
0.0
 10
1653.637307265458
 20
884.9855667070084
 30
0.0
  0
SPLINE
  5
31F
330
1F
100
AcDbEntity
  8
0
  6
Continuous
 62
     7
370
    35
100
AcDbSpline
210
0.0
220
0.0
230
1.0
 70
     8
 71
     3
 72
    12
 73
     8
 74
     0
 42
0.000000001
 43
0.00000001
 40
0.0
 40
0.0
 40
0.0
 40
0.0
 40
0.054209998609012
 40
0.361206074115777
 40
0.5267650352088027
 40
0.7633784261202475
 40
1.0
 40
1.0
 40
1.0
 40
1.0
 10
1722.938227036653
 20
856.5221918836764
 30
0.0
 10
1723.091508769118
 20
856.619955164144
 30
0.0
 10
1724.112838675748
 20
857.2713606545785
 30
0.0
 10
1725.497433585235
 20
858.4344623502304
 30
0.0
 10
1727.082229187181
 20
860.2703117064151
 30
0.0
 10
1728.296347689011
 20
862.1093876320137
 30
0.0
 10
1728.898965650192
 20
863.6197943052957
 30
0.0
 10
1729.200279840884
 20
864.3750107005767
 30
0.0
  0
SPLINE
  5
320
330
1F
100
AcDbEntity
  8
0
  6
Continuous
 62
     7
370
    35
100
AcDbSpline
210
0.0
220
0.0
230
1.0
 70
     8
 71
     3
 72
    12
 73
     8
 74
     0
 42
0.000000001
 43
0.00000001
 40
0.0
 40
0.0
 40
0.0
 40
0.0
 40
0.054209998609012
 40
0.361206074115777
 40
0.5267650352088027
 40
0.7633784261202475
 40
1.0
 40
1.0
 40
1.0
 40
1.0
 10
1658.293845632729
 20
856.5221918836764
 30
0.0
 10
1658.140563900263
 20
856.619955164144
 30
0.0
 10
1657.119233993634
 20
857.2713606545785
 30
0.0
 10
1655.734639084147
 20
858.4344623502304
 30
0.0
 10
1654.149843482201
 20
860.2703117064151
 30
0.0
 10
1652.935724980371
 20
862.1093876320137
 30
0.0
 10
1652.333107019189
 20
863.6197943052957
 30
0.0
 10
1652.031792828498
 20
864.3750107005767
 30
0.0
  0
SPLINE
  5
321
330
1F
100
AcDbEntity
  8
0
  6
Continuous
 62
     7
370
    35
100
AcDbSpline
210
0.0
220
0.0
230
1.0
 70
     8
 71
     3
 72
     9
 73
     5
 74
     0
 42
0.000000001
 43
0.00000001
 40
0.0
 40
0.0
 40
0.0
 40
0.0
 40
0.6416100982166775
 40
1.0
 40
1.0
 40
1.0
 40
1.0
 10
1726.116868236718
 20
887.707096161001
 30
0.0
 10
1725.541816246741
 20
888.5703648717347
 30
0.0
 10
1724.645552313902
 20
889.9158373216432
 30
0.0
 10
1723.366129806563
 20
890.8447131925025
 30
0.0
 10
1722.907597699818
 20
891.1776129246286
 30
0.0
  0
SPLINE
  5
322
330
1F
100
AcDbEntity
  8
0
  6
Continuous
 62
     7
370
    35
100
AcDbSpline
210
0.0
220
0.0
230
1.0
 70
     8
 71
     3
 72
     9
 73
     5
 74
     0
 42
0.000000001
 43
0.00000001
 40
0.0
 40
0.0
 40
0.0
 40
0.0
 40
0.6416100982166775
 40
1.0
 40
1.0
 40
1.0
 40
1.0
 10
1655.115204432664
 20
887.707096161001
 30
0.0
 10
1655.690256422641
 20
888.5703648717347
 30
0.0
 10
1656.58652035548
 20
889.9158373216432
 30
0.0
 10
1657.865942862819
 20
890.8447131925025
 30
0.0
 10
1658.324474969563
 20
891.1776129246286
 30
0.0
  0
LINE
  5
323
330
1F
100
AcDbEntity
  8
0
  6
Continuous
 62
     7
370
    35
100
AcDbLine
 10
1727.5947654039
 20
884.985566707
 30
0.0
 11
1726.1168682367
 21
887.707096161
 31
0.0
  0
LINE
  5
324
330
1F
100
AcDbEntity
  8
0
  6
Continuous
 62
     7
370
    35
100
AcDbLine
 10
1653.6373072655
 20
884.985566707
 30
0.0
 11
1655.1152044327
 21
887.707096161
 31
0.0
  0
LINE
  5
325
330
1F
100
AcDbEntity
  8
0
  6
Continuous
 62
     7
370
    35
100
AcDbLine
 10
1657.8197689146
 20
856.8294612781
 30
0.0
 11
1657.8334221036
 21
856.8206099883
 31
0.0
  0
LINE
  5
326
330
1F
100
AcDbEntity
  8
0
  6
Continuous
 62
     7
370
    35
100
AcDbLine
 10
1722.9075976998
 20
891.1776129246
 30
0.0
 11
1723.0083928794
 21
891.1098387182
 31
0.0
  0
ARC
  5
327
330
1F
100
AcDbEntity
  8
0
  6
Continuous
 62
     7
370
    35
100
AcDbCircle
 10
1656.5350609918
 20
893.5885654878
 30
0.0
 40
2.999253214351437
100
AcDbArc
 50
304.264429685
 51
312.8942458029
  0
LINE
  5
328
330
1F
100
AcDbEntity
  8
0
  6
Continuous
 62
     7
370
    35
100
AcDbLine
 10
1658.3244749696
 20
891.1776129246
 30
0.0
 11
1658.22367979
 21
891.1098387182
 31
0.0
  0
LINE
  5
329
330
1F
100
AcDbEntity
  8
0
  6
Continuous
 62
     7
370
    35
100
AcDbLine
 10
1659.7544183374
 20
892.9507011638
 30
0.0
 11
1660.212981084
 21
893.207979025
 31
0.0
  0
SPLINE
  5
32A
330
1F
100
AcDbEntity
  8
0
  6
Continuous
 62
     7
370
    35
100
AcDbSpline
210
0.0
220
0.0
230
1.0
 70
    24
 71
     3
 72
    17
 73
    13
 74
     0
 42
0.000000001
 43
0.00000001
 40
0.0
 40
0.0
 40
0.0
 40
0.0
 40
0.0789144070064089
 40
0.1571593206224121
 40
0.2135614140566514
 40
0.2600874767437338
 40
0.3261379234656737
 40
0.4287696975770029
 40
0.5974697979629571
 40
0.7661237321415967
 40
0.9416481721817073
 40
1.0
 40
1.0
 40
1.0
 40
1.0
 10
1648.116035887656
 20
868.224982740038
 30
0.0
 10
1648.116035887656
 20
868.5869277337813
 30
0.0
 10
1648.116035887656
 20
869.3077470553378
 30
0.0
 10
1648.116035887656
 20
870.5260475080881
 30
0.0
 10
1648.116035887656
 20
871.8019611190495
 30
0.0
 10
1648.116035887656
 20
873.1037496631304
 30
0.0
 10
1648.116035887656
 20
874.6519977023611
 30
0.0
 10
1648.116035887656
 20
876.642296956311
 30
0.0
 10
1648.116035887656
 20
878.7408412940052
 30
0.0
 10
1648.116035887656
 20
880.7091028844233
 30
0.0
 10
1648.116035887656
 20
881.6606305317034
 30
0.0
 10
1648.116035887656
 20
881.7338954200738
 30
0.0
 10
1648.116035887656
 20
881.7521749154262
 30
0.0
  0
ARC
  5
32B
330
1F
100
AcDbEntity
  8
0
  6
Continuous
 62
     7
370
    35
100
AcDbCircle
 10
1659.1160441928
 20
881.7521717311
 30
0.0
 40
11.00000830519009
100
AcDbArc
 50
91.7278957351
 51
179.9999834137
  0
SPLINE
  5
32C
330
1F
100
AcDbEntity
  8
0
  6
Continuous
 62
     7
370
    35
100
AcDbSpline
210
0.0
220
0.0
230
1.0
 70
    24
 71
     3
 72
     9
 73
     5
 74
     0
 42
0.000000001
 43
0.00000001
 40
0.0
 40
0.0
 40
0.0
 40
0.0
 40
0.4992621876985116
 40
1.0
 40
1.0
 40
1.0
 40
1.0
 10
1648.116035887656
 20
864.7440975621871
 30
0.0
 10
1648.116035887656
 20
865.2704300298067
 30
0.0
 10
1648.116035887656
 20
866.3246505988546
 30
0.0
 10
1648.116035887656
 20
867.5909158489245
 30
0.0
 10
1648.116035887656
 20
868.224982740038
 30
0.0
  0
LINE
  5
32D
330
1F
100
AcDbEntity
  8
0
  6
Continuous
 62
     7
370
    35
100
AcDbLine
 10
1648.1160358877
 20
863.7458128945
 30
0.0
 11
1648.1160358877
 21
864.7440975622
 31
0.0
  0
LINE
  5
32E
330
1F
100
AcDbEntity
  8
0
  6
Continuous
 62
     7
370
    35
100
AcDbLine
 10
1641.2192569465
 20
909.395414041
 30
0.0
 11
1640.1160345764
 21
909.395414041
 31
0.0
  0
LINE
  5
32F
330
1F
100
AcDbEntity
  8
0
  6
Continuous
 62
     7
370
    35
100
AcDbLine
 10
1640.1160345764
 20
909.395414041
 30
0.0
 11
1640.1160345764
 21
910.8801759869
 31
0.0
  0
LINE
  5
330
330
1F
100
AcDbEntity
  8
0
  6
Continuous
 62
     7
370
    35
100
AcDbLine
 10
1725.6160364837
 20
921.1954144851
 30
0.0
 11
1725.6160364837
 21
910.195414079
 31
0.0
  0
LINE
  5
331
330
1F
100
AcDbEntity
  8
0
  6
Continuous
 62
     7
370
    35
100
AcDbLine
 10
1723.466037342
 20
909.1954139151
 30
0.0
 11
1723.466037342
 21
903.4695543672
 31
0.0
  0
ARC
  5
332
330
1F
100
AcDbEntity
  8
0
  6
Continuous
 62
     7
370
    35
100
AcDbCircle
 10
1721.4660363347
 20
903.4695544166
 30
0.0
 40
2.000000000000123
100
AcDbArc
 50
295.0
 51
0.0
  0
ARC
  5
333
330
1F
100
AcDbEntity
  8
0
  6
Continuous
 62
     7
370
    35
100
AcDbCircle
 10
1707.5910363347
 20
892.5860239839
 30
0.0
 40
1.999999999999931
100
AcDbArc
 50
115.0
 51
180.0
  0
LINE
  5
334
330
1F
100
AcDbEntity
  8
0
  6
Continuous
 62
     7
370
    35
100
AcDbLine
 10
1705.5910365075
 20
892.5860241145
 30
0.0
 11
1705.5910365075
 21
858.2954151646
 31
0.0
  0
ARC
  5
335
330
1F
100
AcDbEntity
  8
0
  6
Continuous
 62
     7
370
    35
100
AcDbCircle
 10
1703.5910363347
 20
858.295413895
 30
0.0
 40
2.0
100
AcDbArc
 50
270.0
 51
0.0
  0
LINE
  5
336
330
1F
100
AcDbEntity
  8
0
  6
Continuous
 62
     7
370
    35
100
AcDbLine
 10
1703.5910361797
 20
856.2954148368
 30
0.0
 11
1677.5910365746
 21
856.2954148368
 31
0.0
  0
ARC
  5
337
330
1F
100
AcDbEntity
  8
0
  6
Continuous
 62
     7
370
    35
100
AcDbCircle
 10
1677.5910363347
 20
858.295413895
 30
0.0
 40
2.0
100
AcDbArc
 50
180.0
 51
270.0
  0
LINE
  5
338
330
1F
100
AcDbEntity
  8
0
  6
Continuous
 62
     7
370
    35
100
AcDbLine
 10
1675.5910362468
 20
858.2954151646
 30
0.0
 11
1675.5910362468
 21
892.5860241145
 31
0.0
  0
ARC
  5
339
330
1F
100
AcDbEntity
  8
0
  6
Continuous
 62
     7
370
    35
100
AcDbCircle
 10
1673.5910363347
 20
892.5860239839
 30
0.0
 40
2.0
100
AcDbArc
 50
0.0
 51
65.0
  0
LINE
  5
33A
330
1F
100
AcDbEntity
  8
0
  6
Continuous
 62
     7
370
    35
100
AcDbLine
 10
1674.436273554
 20
894.3986395464
 30
0.0
 11
1658.8707999677
 21
901.6569388189
 31
0.0
  0
ARC
  5
33B
330
1F
100
AcDbEntity
  8
0
  6
Continuous
 62
     7
370
    35
100
AcDbCircle
 10
1659.7160363347
 20
903.4695544166
 30
0.0
 40
1.999999999999828
100
AcDbArc
 50
180.0
 51
245.0
  0
LINE
  5
33C
330
1F
100
AcDbEntity
  8
0
  6
Continuous
 62
     7
370
    35
100
AcDbLine
 10
1657.716034481
 20
903.4695543672
 30
0.0
 11
1657.716034481
 21
909.1954139151
 31
0.0
  0
LINE
  5
33D
330
1F
100
AcDbEntity
  8
0
  6
Continuous
 62
     7
370
    35
100
AcDbLine
 10
1676.5910364107
 20
876.2954143897
 30
0.0
 11
1676.5910364107
 21
886.2954141662
 31
0.0
  0
ARC
  5
33E
330
1F
100
AcDbEntity
  8
0
  6
Continuous
 62
     7
370
    35
100
AcDbCircle
 10
1683.0910363347
 20
876.295413895
 30
0.0
 40
6.5
100
AcDbArc
 50
180.0
 51
0.0
  0
LINE
  5
33F
330
1F
100
AcDbEntity
  8
0
  6
Continuous
 62
     7
370
    35
100
AcDbLine
 10
1689.5910363297
 20
886.2954141662
 30
0.0
 11
1689.5910363297
 21
876.2954143897
 31
0.0
  0
ARC
  5
340
330
1F
100
AcDbEntity
  8
0
  6
Continuous
 62
     7
370
    35
100
AcDbCircle
 10
1683.0910363347
 20
886.295413895
 30
0.0
 40
6.5
100
AcDbArc
 50
0.0
 51
180.0
  0
LINE
  5
341
330
1F
100
AcDbEntity
  8
0
  6
Continuous
 62
     7
370
    35
100
AcDbLine
 10
1704.5910363436
 20
886.2954141662
 30
0.0
 11
1704.5910363436
 21
876.2954143897
 31
0.0
  0
CIRCLE
  5
342
330
1F
100
AcDbEntity
  8
0
  6
Continuous
 62
     7
370
    35
100
AcDbCircle
 10
1690.5910363347
 20
864.295413895
 30
0.0
 40
4.25
  0
LINE
  5
343
330
1F
100
AcDbEntity
  8
0
  6
Continuous
 62
     7
370
    35
100
AcDbLine
 10
1722.3112718553
 20
901.6569388189
 30
0.0
 11
1706.7458001316
 21
894.3986395464
 31
0.0
  0
ARC
  5
344
330
1F
100
AcDbEntity
  8
0
  6
Continuous
 62
     7
370
    35
100
AcDbCircle
 10
1698.0910363347
 20
876.295413895
 30
0.0
 40
6.5
100
AcDbArc
 50
180.0
 51
0.0
  0
LINE
  5
345
330
1F
100
AcDbEntity
  8
0
  6
Continuous
 62
     7
370
    35
100
AcDbLine
 10
1691.5910363082
 20
876.2954143897
 30
0.0
 11
1691.5910363082
 21
886.2954141662
 31
0.0
  0
ARC
  5
346
330
1F
100
AcDbEntity
  8
0
  6
Continuous
 62
     7
370
    35
100
AcDbCircle
 10
1698.0910363347
 20
886.295413895
 30
0.0
 40
6.5
100
AcDbArc
 50
0.0
 51
180.0
  0
LINE
  5
347
330
1F
100
AcDbEntity
  8
0
  6
Continuous
 62
     7
370
    35
100
AcDbLine
 10
1725.6160364837
 20
922.195414649
 30
0.0
 11
1641.0910361797
 21
922.195414649
 31
0.0
  0
LINE
  5
348
330
1F
100
AcDbEntity
  8
0
  6
Continuous
 62
     7
370
    35
100
AcDbLine
 10
1725.6160364837
 20
922.195414649
 30
0.0
 11
1725.6160364837
 21
921.1954144851
 31
0.0
  0
LINE
  5
349
330
1F
100
AcDbEntity
  8
0
  6
Continuous
 62
     7
370
    35
100
AcDbLine
 10
1640.0910378785
 20
942.9954147056
 30
0.0
 11
1640.0910378785
 21
911.1954137773
 31
0.0
  0
LINE
  5
34A
330
1F
100
AcDbEntity
  8
0
  6
Continuous
 62
     7
370
    35
100
AcDbLine
 10
1641.0910361797
 20
942.9954147056
 30
0.0
 11
1641.0910361797
 21
911.1954137773
 31
0.0
  0
LINE
  5
34B
330
1F
100
AcDbEntity
  8
0
  6
Continuous
 62
     7
370
    35
100
AcDbLine
 10
1640.0910378785
 20
952.9954126195
 30
0.0
 11
1641.0910361797
 21
952.9954126195
 31
0.0
  0
LINE
  5
34C
330
1F
100
AcDbEntity
  8
0
  6
Continuous
 62
     7
370
    35
100
AcDbLine
 10
1641.0910361797
 20
952.9954126195
 30
0.0
 11
1641.0910361797
 21
942.9954147056
 31
0.0
  0
LINE
  5
34D
330
1F
100
AcDbEntity
  8
0
  6
Continuous
 62
     7
370
    35
100
AcDbLine
 10
1640.0910378785
 20
942.9954147056
 30
0.0
 11
1640.0910378785
 21
952.9954126195
 31
0.0
  0
ARC
  5
34E
330
1F
100
AcDbEntity
  8
0
  6
Continuous
 62
     7
370
    35
100
AcDbCircle
 10
1642.0910363347
 20
911.195413895
 30
0.0
 40
2.000000000000114
100
AcDbArc
 50
180.0
 51
270.0
  0
ARC
  5
34F
330
1F
100
AcDbEntity
  8
0
  6
Continuous
 62
     7
370
    35
100
AcDbCircle
 10
1642.0910363347
 20
911.195413895
 30
0.0
 40
1.000000000000114
100
AcDbArc
 50
180.0
 51
270.0
  0
LINE
  5
350
330
1F
100
AcDbEntity
  8
0
  6
Continuous
 62
     7
370
    35
100
AcDbLine
 10
1756.0910382659
 20
910.195414079
 30
0.0
 11
1756.0910382659
 21
909.1954139151
 31
0.0
  0
LINE
  5
351
330
1F
100
AcDbEntity
  8
0
  6
Continuous
 62
     7
370
    35
100
AcDbLine
 10
1756.0910382659
 20
909.1954139151
 30
0.0
 11
1746.0910366268
 21
909.1954139151
 31
0.0
  0
LINE
  5
352
330
1F
100
AcDbEntity
  8
0
  6
Continuous
 62
     7
370
    35
100
AcDbLine
 10
1746.0910366268
 20
910.195414079
 30
0.0
 11
1756.0910382659
 21
910.195414079
 31
0.0
  0
LINE
  5
353
330
1F
100
AcDbEntity
  8
0
  6
Continuous
 62
     7
370
    35
100
AcDbLine
 10
1746.0910366268
 20
909.1954139151
 30
0.0
 11
1642.091034481
 21
909.1954139151
 31
0.0
  0
LINE
  5
354
330
1F
100
AcDbEntity
  8
0
  6
Continuous
 62
     7
370
    35
100
AcDbLine
 10
1746.0910366268
 20
910.195414079
 30
0.0
 11
1642.091034481
 21
910.195414079
 31
0.0
  0
LINE
  5
355
330
1F
100
AcDbEntity
  8
0
  6
Continuous
 62
     8
370
    18
100
AcDbLine
 10
1723.6160361559
 20
907.8573324808
 30
0.0
 11
1723.466037342
 21
907.8573324808
 31
0.0
  0
LINE
  5
356
330
1F
100
AcDbEntity
  8
0
  6
Continuous
 62
     8
370
    18
100
AcDbLine
 10
1641.0910361797
 20
923.1954148129
 30
0.0
 11
1641.1160366029
 21
923.1954148129
 31
0.0
  0
LINE
  5
357
330
1F
100
AcDbEntity
  8
0
  6
Continuous
 62
     8
370
    18
100
AcDbLine
 10
1657.6160365135
 20
907.8573324808
 30
0.0
 11
1657.716034481
 21
907.8573324808
 31
0.0
  0
LINE
  5
358
330
1F
100
AcDbEntity
  8
0
  6
Continuous
 62
     8
370
    18
100
AcDbLine
 10
1690.6160363347
 20
868.5244662777
 30
0.0
 11
1690.6160363347
 21
863.3742561654
 31
0.0
  0
SPLINE
  5
359
330
1F
100
AcDbEntity
  8
0
  6
Continuous
 62
     8
370
    18
100
AcDbSpline
210
0.0
220
0.0
230
1.0
 70
     8
 71
     3
 72
     9
 73
     5
 74
     0
 42
0.000000001
 43
0.00000001
 40
0.0
 40
0.0
 40
0.0
 40
0.0
 40
0.2182744787272177
 40
1.0
 40
1.0
 40
1.0
 40
1.0
 10
1686.46325081369
 20
863.4060999468497
 30
0.0
 10
1686.759242307367
 20
863.4009963985559
 30
0.0
 10
1688.11529407944
 20
863.3776150654581
 30
0.0
 10
1689.518844865121
 20
863.3757298704382
 30
0.0
 10
1690.616036334691
 20
863.3742561653785
 30
0.0
  0
SPLINE
  5
35A
330
1F
100
AcDbEntity
  8
0
  6
Continuous
 62
     8
370
    18
100
AcDbSpline
210
0.0
220
0.0
230
1.0
 70
     8
 71
     3
 72
     9
 73
     5
 74
     0
 42
0.000000001
 43
0.00000001
 40
0.0
 40
0.0
 40
0.0
 40
0.0
 40
0.1977936623149983
 40
1.0
 40
1.0
 40
1.0
 40
1.0
 10
1694.664695335237
 20
863.4044272915057
 30
0.0
 10
1694.403261926093
 20
863.3999495647176
 30
0.0
 10
1693.081513766504
 20
863.3773111912949
 30
0.0
 10
1691.713480939042
 20
863.3756160325039
 30
0.0
 10
1690.616036334691
 20
863.3742561653785
 30
0.0
  0
LINE
  5
35B
330
1F
100
AcDbEntity
  8
0
  6
Continuous
 62
     8
370
    18
100
AcDbLine
 10
1690.6160363347
 20
863.3742561654
 30
0.0
 11
1690.6160363347
 21
860.0454857663
 31
0.0
  0
LINE
  5
35C
330
1F
100
AcDbEntity
  8
0
  6
Continuous
 62
     8
370
    18
100
AcDbLine
 10
1690.6160363347
 20
856.2954148368
 30
0.0
 11
1690.6160363347
 21
855.2458142952
 31
0.0
  0
ARC
  5
35D
330
1F
100
AcDbEntity
  8
0
  6
Continuous
 62
     8
370
    18
100
AcDbCircle
 10
1690.6160363347
 20
872.745813895
 30
0.0
 40
19.93819817183817
100
AcDbArc
 50
0.0
 51
41.3167740475
  0
ARC
  5
35E
330
1F
100
AcDbEntity
  8
0
  6
Continuous
 62
     8
370
    18
100
AcDbCircle
 10
1690.6160363347
 20
872.745813895
 30
0.0
 40
19.93819817183821
100
AcDbArc
 50
45.6556207997
 51
76.57537419
  0
ARC
  5
35F
330
1F
100
AcDbEntity
  8
0
  6
Continuous
 62
     8
370
    18
100
AcDbCircle
 10
1690.6160363347
 20
872.745813895
 30
0.0
 40
19.93819817183809
100
AcDbArc
 50
103.5237720472
 51
134.5689193701
  0
ARC
  5
360
330
1F
100
AcDbEntity
  8
0
  6
Continuous
 62
     8
370
    18
100
AcDbCircle
 10
1690.6160363347
 20
872.745813895
 30
0.0
 40
19.93819817183805
100
AcDbArc
 50
138.9013278357
 51
221.0986721643
  0
ARC
  5
361
330
1F
100
AcDbEntity
  8
0
  6
Continuous
 62
     8
370
    18
100
AcDbCircle
 10
1690.6160363347
 20
872.745813895
 30
0.0
 40
19.93819817183817
100
AcDbArc
 50
235.5955422818
 51
304.4044577182
  0
ARC
  5
362
330
1F
100
AcDbEntity
  8
0
  6
Continuous
 62
     8
370
    18
100
AcDbCircle
 10
1690.6160363347
 20
872.745813895
 30
0.0
 40
19.93819817183817
100
AcDbArc
 50
318.6832259525
 51
0.0
  0
SPLINE
  5
363
330
1F
100
AcDbEntity
  8
0
  6
Continuous
 62
     8
370
    18
100
AcDbSpline
210
0.0
220
0.0
230
1.0
 70
     8
 71
     3
 72
    11
 73
     7
 74
     0
 42
0.000000001
 43
0.00000001
 40
0.0
 40
0.0
 40
0.0
 40
0.0
 40
0.0000107620697119
 40
0.1848805505440448
 40
0.8735572436667496
 40
1.0
 40
1.0
 40
1.0
 40
1.0
 10
1672.289157787023
 20
883.3566667601995
 30
0.0
 10
1672.289167721123
 20
883.3566835240089
 30
0.0
 10
1672.459824670962
 20
883.6446673797296
 30
0.0
 10
1673.294821679334
 20
884.9921482676704
 30
0.0
 10
1674.343133332891
 20
886.5138324844824
 30
0.0
 10
1675.423454877112
 20
887.5369063553886
 30
0.0
 10
1675.591036246774
 20
887.6956073657207
 30
0.0
  0
LWPOLYLINE
  5
364
330
1F
100
AcDbEntity
  8
0
  6
Continuous
 62
     8
370
    18
100
AcDbPolyline
 90
        5
 70
   128
 43
0.0
 10
1677.7806100786
 20
889.8148337469
 10
1677.8026246816
 20
889.8361405448
 10
1679.8976394699
 20
891.3778398276
 10
1679.89768883
 20
891.3778724239
 10
1679.89768883
 20
891.3778724239
  0
SPLINE
  5
365
330
1F
100
AcDbEntity
  8
0
  6
Continuous
 62
     8
370
    18
100
AcDbSpline
210
0.0
220
0.0
230
1.0
 70
     8
 71
     3
 72
    16
 73
    12
 74
     0
 42
0.000000001
 43
0.00000001
 40
0.0
 40
0.0
 40
0.0
 40
0.0
 40
0.1413878775906749
 40
0.2827744750985528
 40
0.4197421716259264
 40
0.5565426565443455
 40
0.6823118180281046
 40
0.808112742401677
 40
0.9040275957046168
 40
0.9999976987903693
 40
1.0
 40
1.0
 40
1.0
 40
1.0
 10
1674.841404461918
 20
858.9949278250865
 30
0.0
 10
1674.057475066336
 20
859.9410504571272
 30
0.0
 10
1672.489623372631
 20
861.8332871553021
 30
0.0
 10
1670.810920508956
 20
865.070604011062
 30
0.0
 10
1669.687834387955
 20
868.5006088257421
 30
0.0
 10
1669.193754638273
 20
871.9857122484084
 30
0.0
 10
1669.352840370535
 20
875.4461365856163
 30
0.0
 10
1670.025273255371
 20
878.4875794125069
 30
0.0
 10
1671.047657867632
 20
881.1242763531292
 30
0.0
 10
1671.848948998648
 20
882.631617740895
 30
0.0
 10
1672.289147232026
 20
883.356649375517
 30
0.0
 10
1672.289157787023
 20
883.3566667601995
 30
0.0
  0
SPLINE
  5
366
330
1F
100
AcDbEntity
  8
0
  6
Continuous
 62
     8
370
    18
100
AcDbSpline
210
0.0
220
0.0
230
1.0
 70
     8
 71
     3
 72
    15
 73
    11
 74
     0
 42
0.000000001
 43
0.00000001
 40
0.0
 40
0.0
 40
0.0
 40
0.0
 40
0.074104286913936
 40
0.2157453918496976
 40
0.3576180203176027
 40
0.4992302588279255
 40
0.6408865847964965
 40
0.7875091172898239
 40
0.9341451715582788
 40
1.0
 40
1.0
 40
1.0
 40
1.0
 10
1655.67333860105
 20
859.7323676661185
 30
0.0
 10
1655.690882590018
 20
859.7377897009503
 30
0.0
 10
1655.741959726472
 20
859.7535752793309
 30
0.0
 10
1656.297461208527
 20
859.6299754803696
 30
0.0
 10
1658.002754623703
 20
859.3641845961314
 30
0.0
 10
1660.519804931911
 20
859.2789327562776
 30
0.0
 10
1663.825097962409
 20
859.1778806515993
 30
0.0
 10
1667.857367176156
 20
859.0929557424043
 30
0.0
 10
1671.64837690883
 20
859.0321052009623
 30
0.0
 10
1674.085954410799
 20
859.003723756233
 30
0.0
 10
1674.841404461918
 20
858.9949278250865
 30
0.0
  0
SPLINE
  5
367
330
1F
100
AcDbEntity
  8
0
  6
Continuous
 62
     8
370
    18
100
AcDbSpline
210
0.0
220
0.0
230
1.0
 70
     8
 71
     3
 72
     9
 73
     5
 74
     0
 42
0.000000001
 43
0.00000001
 40
0.0
 40
0.0
 40
0.0
 40
0.0
 40
0.4953960888450356
 40
1.0
 40
1.0
 40
1.0
 40
1.0
 10
1653.296253213344
 20
864.7931372836761
 30
0.0
 10
1653.61424427595
 20
863.9187859770567
 30
0.0
 10
1654.256136833779
 20
862.1538319810373
 30
0.0
 10
1655.198047031383
 20
860.5444620352554
 30
0.0
 10
1655.67333860105
 20
859.7323676661185
 30
0.0
  0
LINE
  5
368
330
1F
100
AcDbEntity
  8
0
  6
Continuous
 62
     8
370
    18
100
AcDbLine
 10
1656.3378856868
 20
887.0393583641
 30
0.0
 11
1654.904099682
 21
884.3317782596
 31
0.0
  0
SPLINE
  5
369
330
1F
100
AcDbEntity
  8
0
  6
Continuous
 62
     8
370
    18
100
AcDbSpline
210
0.0
220
0.0
230
1.0
 70
     8
 71
     3
 72
     9
 73
     5
 74
     0
 42
0.000000001
 43
0.00000001
 40
0.0
 40
0.0
 40
0.0
 40
0.0
 40
0.9998130646088067
 40
1.0
 40
1.0
 40
1.0
 40
1.0
 10
1659.207964816746
 20
892.0850144789151
 30
0.0
 10
1659.210674036185
 20
892.084361643256
 30
0.0
 10
1659.213383762168
 20
892.083708685536
 30
0.0
 10
1659.206740438111
 20
892.0754047822385
 30
0.0
 10
1659.206739196238
 20
892.0754032299451
 30
0.0
  0
LINE
  5
36A
330
1F
100
AcDbEntity
  8
0
  6
Continuous
 62
     8
370
    18
100
AcDbLine
 10
1659.0758697481
 20
891.994866179
 30
0.0
 11
1659.2079648167
 21
892.0850144789
 31
0.0
  0
SPLINE
  5
36B
330
1F
100
AcDbEntity
  8
0
  6
Continuous
 62
     8
370
    18
100
AcDbSpline
210
0.0
220
0.0
230
1.0
 70
     8
 71
     3
 72
     9
 73
     5
 74
     0
 42
0.000000001
 43
0.00000001
 40
0.0
 40
0.0
 40
0.0
 40
0.0
 40
0.0487886857165094
 40
0.9999999999999999
 40
0.9999999999999999
 40
0.9999999999999999
 40
0.9999999999999999
 10
1659.001602360663
 20
891.8832630008989
 30
0.0
 10
1659.004589839567
 20
891.8879743398192
 30
0.0
 10
1659.065822866449
 20
891.9845405590403
 30
0.0
 10
1659.070971914905
 20
891.9898324614943
 30
0.0
 10
1659.075869748053
 20
891.9948661789826
 30
0.0
  0
SPLINE
  5
36C
330
1F
100
AcDbEntity
  8
0
  6
Continuous
 62
     8
370
    18
100
AcDbSpline
210
0.0
220
0.0
230
1.0
 70
     8
 71
     3
 72
    10
 73
     6
 74
     0
 42
0.000000001
 43
0.00000001
 40
0.0
 40
0.0
 40
0.0
 40
0.0
 40
0.0000145789917237
 40
0.855297885018165
 40
1.0
 40
1.0
 40
1.0
 40
1.0
 10
1679.897688829956
 20
891.3778724238805
 30
0.0
 10
1679.897706835519
 20
891.3778804953439
 30
0.0
 10
1680.954029549419
 20
891.8514047038975
 30
0.0
 10
1682.268739802492
 20
892.3927524969567
 30
0.0
 10
1683.642116117164
 20
892.6295288706093
 30
0.0
 10
1683.840849471894
 20
892.6637914121679
 30
0.0
  0
LINE
  5
36D
330
1F
100
AcDbEntity
  8
0
  6
Continuous
 62
     8
370
    18
100
AcDbLine
 10
1722.1562029213
 20
891.994866179
 30
0.0
 11
1722.0241078526
 21
892.0850144789
 31
0.0
  0
SPLINE
  5
36E
330
1F
100
AcDbEntity
  8
0
  6
Continuous
 62
     8
370
    18
100
AcDbSpline
210
0.0
220
0.0
230
1.0
 70
     8
 71
     3
 72
     9
 73
     5
 74
     0
 42
0.000000001
 43
0.00000001
 40
0.0
 40
0.0
 40
0.0
 40
0.0
 40
0.9998130646088067
 40
1.0
 40
1.0
 40
1.0
 40
1.0
 10
1722.024107852635
 20
892.0850144789151
 30
0.0
 10
1722.021398633196
 20
892.084361643256
 30
0.0
 10
1722.018688907214
 20
892.083708685536
 30
0.0
 10
1722.025332231271
 20
892.0754047822385
 30
0.0
 10
1722.025333473143
 20
892.0754032299451
 30
0.0
  0
LINE
  5
36F
330
1F
100
AcDbEntity
  8
0
  6
Continuous
 62
     8
370
    18
100
AcDbLine
 10
1724.8941869826
 20
887.0393583641
 30
0.0
 11
1726.3279729874
 21
884.3317782596
 31
0.0
  0
SPLINE
  5
370
330
1F
100
AcDbEntity
  8
0
  6
Continuous
 62
     8
370
    18
100
AcDbSpline
210
0.0
220
0.0
230
1.0
 70
     8
 71
     3
 72
     9
 73
     5
 74
     0
 42
0.000000001
 43
0.00000001
 40
0.0
 40
0.0
 40
0.0
 40
0.0
 40
0.4953960888450356
 40
1.0
 40
1.0
 40
1.0
 40
1.0
 10
1727.935819456038
 20
864.7931372836761
 30
0.0
 10
1727.617828393432
 20
863.9187859770567
 30
0.0
 10
1726.975935835603
 20
862.1538319810373
 30
0.0
 10
1726.034025637999
 20
860.5444620352554
 30
0.0
 10
1725.558734068331
 20
859.7323676661185
 30
0.0
  0
SPLINE
  5
371
330
1F
100
AcDbEntity
  8
0
  6
Continuous
 62
     8
370
    18
100
AcDbSpline
210
0.0
220
0.0
230
1.0
 70
     8
 71
     3
 72
    15
 73
    11
 74
     0
 42
0.000000001
 43
0.00000001
 40
0.0
 40
0.0
 40
0.0
 40
0.0
 40
0.074104286913936
 40
0.2157453918496976
 40
0.3576180203176027
 40
0.4992302588279255
 40
0.6408865847964965
 40
0.7875091172898239
 40
0.9341451715582788
 40
1.0
 40
1.0
 40
1.0
 40
1.0
 10
1725.558734068331
 20
859.7323676661185
 30
0.0
 10
1725.541190079364
 20
859.7377897009503
 30
0.0
 10
1725.49011294291
 20
859.7535752793309
 30
0.0
 10
1724.934611460855
 20
859.6299754803696
 30
0.0
 10
1723.229318045679
 20
859.3641845961314
 30
0.0
 10
1720.712267737471
 20
859.2789327562776
 30
0.0
 10
1717.406974706973
 20
859.1778806515993
 30
0.0
 10
1713.374705493226
 20
859.0929557424043
 30
0.0
 10
1709.583695760552
 20
859.0321052009623
 30
0.0
 10
1707.146118258582
 20
859.003723756233
 30
0.0
 10
1706.390668207464
 20
858.9949278250865
 30
0.0
  0
SPLINE
  5
372
330
1F
100
AcDbEntity
  8
0
  6
Continuous
 62
     8
370
    18
100
AcDbSpline
210
0.0
220
0.0
230
1.0
 70
     8
 71
     3
 72
    16
 73
    12
 74
     0
 42
0.000000001
 43
0.00000001
 40
0.0
 40
0.0
 40
0.0
 40
0.0
 40
0.0000023014190869
 40
0.1840378194671974
 40
0.3092571412904566
 40
0.4344268590116858
 40
0.5468039489341681
 40
0.6592680726267427
 40
0.7892125159476495
 40
0.9191832665767025
 40
1.0
 40
1.0
 40
1.0
 40
1.0
 10
1708.942914882359
 20
883.3566667601995
 30
0.0
 10
1708.942925437356
 20
883.356649375517
 30
0.0
 10
1709.786977944795
 20
881.9664466615684
 30
0.0
 10
1710.967451691252
 20
879.4513182300781
 30
0.0
 10
1711.848032050305
 20
875.664344837784
 30
0.0
 10
1712.03624465891
 20
872.4303977882962
 30
0.0
 10
1711.690718769888
 20
869.3675792068565
 30
0.0
 10
1710.90766627724
 20
866.3748974200666
 30
0.0
 10
1709.615503440324
 20
863.4174386857961
 30
0.0
 10
1708.046587827949
 20
860.9114611448919
 30
0.0
 10
1706.849598519575
 20
859.5260859946919
 30
0.0
 10
1706.390668207464
 20
858.9949278250865
 30
0.0
  0
SPLINE
  5
373
330
1F
100
AcDbEntity
  8
0
  6
Continuous
 62
     8
370
    18
100
AcDbSpline
210
0.0
220
0.0
230
1.0
 70
     8
 71
     3
 72
     9
 73
     5
 74
     0
 42
0.000000001
 43
0.00000001
 40
0.0
 40
0.0
 40
0.0
 40
0.0
 40
0.0000235087923453
 40
0.9999999999999999
 40
0.9999999999999999
 40
0.9999999999999999
 40
0.9999999999999999
 10
1701.334383839426
 20
891.3778724238805
 30
0.0
 10
1701.334400292797
 20
891.3778615584607
 30
0.0
 10
1702.034281900575
 20
890.9156761909735
 30
0.0
 10
1702.702137992898
 20
890.3980859219744
 30
0.0
 10
1703.369978384731
 20
889.8805078208975
 30
0.0
  0
LWPOLYLINE
  5
374
330
1F
100
AcDbEntity
  8
0
  6
Continuous
 62
     8
370
    18
100
AcDbPolyline
 90
        6
 70
   128
 43
0.0
 10
1705.5910365075
 20
887.7587044702
 10
1706.0237336323
 20
887.3430384413
 10
1708.2320941032
 20
884.494172977
 10
1708.94288508
 20
883.3567170516
 10
1708.9429148824
 20
883.3566667602
 10
1708.9429148824
 20
883.3566667602
  0
LWPOLYLINE
  5
375
330
1F
100
AcDbEntity
  8
0
  6
Continuous
 62
     8
370
    18
100
AcDbPolyline
 90
        4
 70
   128
 43
0.0
 10
1697.5001250744
 20
892.6563808784
 10
1701.3343298227
 20
891.3778966383
 10
1701.3343838394
 20
891.3778724239
 10
1701.3343838394
 20
891.3778724239
  0
SPLINE
  5
376
330
1F
100
AcDbEntity
  8
0
  6
Continuous
 62
     8
370
    18
100
AcDbSpline
210
0.0
220
0.0
230
1.0
 70
     8
 71
     3
 72
    11
 73
     7
 74
     0
 42
0.000000001
 43
0.00000001
 40
0.0
 40
0.0
 40
0.0
 40
0.0
 40
0.2618559782296713
 40
0.5598989837410377
 40
0.8636265849099167
 40
1.0
 40
1.0
 40
1.0
 40
1.0
 10
1696.852217463461
 20
892.5461942419938
 30
0.0
 10
1697.574662335913
 20
892.3082828529449
 30
0.0
 10
1699.119389909556
 20
891.7995820554705
 30
0.0
 10
1701.30438829719
 20
890.5777126927933
 30
0.0
 10
1703.060497297441
 20
889.3611224434702
 30
0.0
 10
1703.981059063663
 20
888.4783723247456
 30
0.0
 10
1704.266312101541
 20
888.2048359230689
 30
0.0
  0
SPLINE
  5
377
330
1F
100
AcDbEntity
  8
0
  6
Continuous
 62
     8
370
    18
100
AcDbSpline
210
0.0
220
0.0
230
1.0
 70
     8
 71
     3
 72
    16
 73
    12
 74
     0
 42
0.000000001
 43
0.00000001
 40
0.0
 40
0.0
 40
0.0
 40
0.0
 40
0.0936099524202734
 40
0.1930593544118298
 40
0.2947340583300865
 40
0.3709305306687662
 40
0.4486128724891369
 40
0.5921742623468274
 40
0.7378240240397697
 40
0.8666885950128637
 40
1.0
 40
1.0
 40
1.0
 40
1.0
 10
1705.591036507544
 20
886.9611589327983
 30
0.0
 10
1706.230479204824
 20
886.2355871280384
 30
0.0
 10
1707.549253449747
 20
884.739181878547
 30
0.0
 10
1709.171919983126
 20
882.166448182924
 30
0.0
 10
1710.328427777356
 20
879.5502106061442
 30
0.0
 10
1711.034596707679
 20
877.0041899505495
 30
0.0
 10
1711.476907792282
 20
873.9594330783349
 30
0.0
 10
1711.322861385872
 20
870.1612742172518
 30
0.0
 10
1710.171820581204
 20
866.0651571604814
 30
0.0
 10
1708.327705254812
 20
862.3629268781089
 30
0.0
 10
1706.620762795088
 20
860.3269379361466
 30
0.0
 10
1705.752815620658
 20
859.2916769996814
 30
0.0
  0
ARC
  5
378
330
1F
100
AcDbEntity
  8
0
  6
Continuous
 62
     8
370
    18
100
AcDbCircle
 10
1705.5195774168
 20
858.5064790479
 30
0.0
 40
0.8191067593399557
100
AcDbArc
 50
73.4562730035
 51
84.995138713
  0
SPLINE
  5
379
330
1F
100
AcDbEntity
  8
0
  6
Continuous
 62
     8
370
    18
100
AcDbSpline
210
0.0
220
0.0
230
1.0
 70
     8
 71
     3
 72
    16
 73
    12
 74
     0
 42
0.000000001
 43
0.00000001
 40
0.0
 40
0.0
 40
0.0
 40
0.0
 40
0.0381459276161531
 40
0.1656406652493143
 40
0.2973927719066626
 40
0.4378492665258787
 40
0.5804351488794913
 40
0.7191244205695112
 40
0.8254404601666182
 40
0.9345735703324862
 40
0.9999999999999999
 40
0.9999999999999999
 40
0.9999999999999999
 40
0.9999999999999999
 10
1675.479257048724
 20
859.2916769996814
 30
0.0
 10
1675.221178851768
 20
859.5768970281617
 30
0.0
 10
1674.100528577897
 20
860.8154049951272
 30
0.0
 10
1672.39417201453
 20
863.288926562959
 30
0.0
 10
1670.727987681537
 20
866.9581939722922
 30
0.0
 10
1669.795342655359
 20
871.075594674389
 30
0.0
 10
1669.815219591494
 20
875.4354098523961
 30
0.0
 10
1670.768321058781
 20
879.3496232335757
 30
0.0
 10
1672.314994368056
 20
882.6377921180673
 30
0.0
 10
1673.91429322877
 20
885.0518324000305
 30
0.0
 10
1675.133912401717
 20
886.3701195557401
 30
0.0
 10
1675.591036246774
 20
886.8642250165872
 30
0.0
  0
SPLINE
  5
37A
330
1F
100
AcDbEntity
  8
0
  6
Continuous
 62
     8
370
    18
100
AcDbSpline
210
0.0
220
0.0
230
1.0
 70
     8
 71
     3
 72
    11
 73
     7
 74
     0
 42
0.000000001
 43
0.00000001
 40
0.0
 40
0.0
 40
0.0
 40
0.0
 40
0.1989730095924745
 40
0.5054589946256938
 40
0.8180345911097362
 40
1.0
 40
1.0
 40
1.0
 40
1.0
 10
1676.982162089703
 20
888.2215829656056
 30
0.0
 10
1677.412887341255
 20
888.6175264606159
 30
0.0
 10
1678.50707570909
 20
889.623357358617
 30
0.0
 10
1680.511545570862
 20
890.9277461167409
 30
0.0
 10
1682.60281687814
 20
892.0549607639288
 30
0.0
 10
1684.023737775183
 20
892.3780295832587
 30
0.0
 10
1684.546562878099
 20
892.4969021320873
 30
0.0
  0
LWPOLYLINE
  5
37B
330
1F
100
AcDbEntity
  8
0
  6
Continuous
 62
     8
370
    18
100
AcDbPolyline
 90
        3
 70
   128
 43
0.0
 10
1675.4792570487
 20
859.2916769997
 10
1675.5431392581
 20
859.3076920227
 10
1675.5910362468
 20
859.3166438953
  0
ARC
  5
37C
330
1F
100
AcDbEntity
  8
0
  6
Continuous
 62
     8
370
    18
100
AcDbCircle
 10
1676.3711001746
 20
856.5407933838
 30
0.0
 40
2.891841079480499
100
AcDbArc
 50
107.96281968
 51
121.9358541017
  0
ARC
  5
37D
330
1F
100
AcDbEntity
  8
0
  6
Continuous
 62
     8
370
    18
100
AcDbCircle
 10
1704.8609724948
 20
856.5407933838
 30
0.0
 40
2.891841079493024
100
AcDbArc
 50
58.0641458984
 51
72.0371803199
  0
SPLINE
  5
37E
330
1F
100
AcDbEntity
  8
0
  6
Continuous
 62
     8
370
    18
100
AcDbSpline
210
0.0
220
0.0
230
1.0
 70
     8
 71
     3
 72
     9
 73
     5
 74
     0
 42
0.000000001
 43
0.00000001
 40
0.0
 40
0.0
 40
0.0
 40
0.0
 40
0.1149087346401985
 40
1.0
 40
1.0
 40
1.0
 40
1.0
 10
1690.616036334691
 20
852.7458129540614
 30
0.0
 10
1690.607481916611
 20
852.7457735799047
 30
0.0
 10
1690.533036591752
 20
852.7454309239979
 30
0.0
 10
1690.456243861793
 20
852.7551627498356
 30
0.0
 10
1690.388275287264
 20
852.7637763038806
 30
0.0
  0
SPLINE
  5
37F
330
1F
100
AcDbEntity
  8
0
  6
Continuous
 62
     8
370
    18
100
AcDbSpline
210
0.0
220
0.0
230
1.0
 70
     8
 71
     3
 72
    11
 73
     7
 74
     0
 42
0.000000001
 43
0.00000001
 40
0.0
 40
0.0
 40
0.0
 40
0.0
 40
0.3144888459033582
 40
0.5518351714002474
 40
0.793436981058805
 40
1.0
 40
1.0
 40
1.0
 40
1.0
 10
1689.840623794739
 20
852.8124211445979
 30
0.0
 10
1688.61692723112
 20
852.8713309602725
 30
0.0
 10
1686.469700670548
 20
852.9747003123291
 30
0.0
 10
1683.321651811605
 20
853.789922668492
 30
0.0
 10
1680.628435231958
 20
854.790854092551
 30
0.0
 10
1678.983828955712
 20
855.8207342337084
 30
0.0
 10
1678.225815796909
 20
856.2954148367576
 30
0.0
  0
LINE
  5
380
330
1F
100
AcDbEntity
  8
0
  6
Continuous
 62
     8
370
    18
100
AcDbLine
 10
1675.6560677082
 20
858.3053281621
 30
0.0
 11
1674.8414044619
 21
858.9949278251
 31
0.0
  0
LINE
  5
381
330
1F
100
AcDbEntity
  8
0
  6
Continuous
 62
     8
370
    18
100
AcDbLine
 10
1706.3906682075
 20
858.9949278251
 30
0.0
 11
1705.5910365075
 21
858.3000978545
 31
0.0
  0
SPLINE
  5
382
330
1F
100
AcDbEntity
  8
0
  6
Continuous
 62
     8
370
    18
100
AcDbSpline
210
0.0
220
0.0
230
1.0
 70
     8
 71
     3
 72
    11
 73
     7
 74
     0
 42
0.000000001
 43
0.00000001
 40
0.0
 40
0.0
 40
0.0
 40
0.0
 40
0.1600645098475991
 40
0.4269668595025621
 40
0.6993946548375689
 40
1.0
 40
1.0
 40
1.0
 40
1.0
 10
1702.988268376944
 20
856.2954148367576
 30
0.0
 10
1702.470485452188
 20
855.9523140179729
 30
0.0
 10
1701.089316387931
 20
855.0371037741234
 30
0.0
 10
1698.650077442276
 20
854.0453543730102
 30
0.0
 10
1695.678119301889
 20
853.13647687837
 30
0.0
 10
1693.679919984398
 20
853.0157763683288
 30
0.0
 10
1692.631691962165
 20
852.9524585322074
 30
0.0
  0
SPLINE
  5
383
330
1F
100
AcDbEntity
  8
0
  6
Continuous
 62
     8
370
    18
100
AcDbSpline
210
0.0
220
0.0
230
1.0
 70
     8
 71
     3
 72
     9
 73
     5
 74
     0
 42
0.000000001
 43
0.00000001
 40
0.0
 40
0.0
 40
0.0
 40
0.0
 40
0.9584736924050592
 40
1.0
 40
1.0
 40
1.0
 40
1.0
 10
1691.248596797382
 20
852.8088411406211
 30
0.0
 10
1691.044101308624
 20
852.7778255582873
 30
0.0
 10
1690.830745960033
 20
852.7454662117766
 30
0.0
 10
1690.624596942215
 20
852.7457991292289
 30
0.0
 10
1690.616036334691
 20
852.7458129540614
 30
0.0
  0
LINE
  5
384
330
1F
100
AcDbEntity
  8
0
  6
Continuous
 62
     8
370
    18
100
AcDbLine
 10
1658.6410911173
 20
856.2696768061
 30
0.0
 11
1658.1434184105
 21
856.5769424752
 31
0.0
  0
SPLINE
  5
385
330
1F
100
AcDbEntity
  8
0
  6
Continuous
 62
     8
370
    18
100
AcDbSpline
210
0.0
220
0.0
230
1.0
 70
     8
 71
     3
 72
    13
 73
     9
 74
     0
 42
0.000000001
 43
0.00000001
 40
0.0
 40
0.0
 40
0.0
 40
0.0
 40
0.3455603187339861
 40
0.7377946807459649
 40
0.8482877742986666
 40
0.9091434220767162
 40
0.9540194509265767
 40
1.0
 40
1.0
 40
1.0
 40
1.0
 10
1655.67333860105
 20
859.7323676661185
 30
0.0
 10
1656.011780561246
 20
859.231196025243
 30
0.0
 10
1656.734377064481
 20
858.1611606342198
 30
0.0
 10
1657.769530153885
 20
857.0740661353093
 30
0.0
 10
1658.399438021412
 20
856.4938773275201
 30
0.0
 10
1658.576870140029
 20
856.3345641911376
 30
0.0
 10
1658.647071955088
 20
856.2697605993559
 30
0.0
 10
1658.643100821927
 20
856.2697049626295
 30
0.0
 10
1658.64109111732
 20
856.2696768060855
 30
0.0
  0
SPLINE
  5
386
330
1F
100
AcDbEntity
  8
0
  6
Continuous
 62
     8
370
    18
100
AcDbSpline
210
0.0
220
0.0
230
1.0
 70
     8
 71
     3
 72
    13
 73
     9
 74
     0
 42
0.000000001
 43
0.00000001
 40
0.0
 40
0.0
 40
0.0
 40
0.0
 40
0.3455603187339861
 40
0.7377946807459649
 40
0.8482877742986666
 40
0.9091434220767162
 40
0.9540194509265767
 40
1.0
 40
1.0
 40
1.0
 40
1.0
 10
1725.558734068331
 20
859.7323676661185
 30
0.0
 10
1725.220292108135
 20
859.231196025243
 30
0.0
 10
1724.497695604901
 20
858.1611606342198
 30
0.0
 10
1723.462542515497
 20
857.0740661353093
 30
0.0
 10
1722.83263464797
 20
856.4938773275201
 30
0.0
 10
1722.655202529353
 20
856.3345641911376
 30
0.0
 10
1722.585000714294
 20
856.2697605993559
 30
0.0
 10
1722.588971847455
 20
856.2697049626295
 30
0.0
 10
1722.590981552062
 20
856.2696768060855
 30
0.0
  0
LINE
  5
387
330
1F
100
AcDbEntity
  8
0
  6
Continuous
 62
     8
370
    18
100
AcDbLine
 10
1722.5909815521
 20
856.2696768061
 30
0.0
 11
1723.0886542589
 21
856.5769424752
 31
0.0
  0
SPLINE
  5
388
330
1F
100
AcDbEntity
  8
0
  6
Continuous
 62
     8
370
    18
100
AcDbSpline
210
0.0
220
0.0
230
1.0
 70
     8
 71
     3
 72
     9
 73
     5
 74
     0
 42
0.000000001
 43
0.00000001
 40
0.0
 40
0.0
 40
0.0
 40
0.0
 40
0.7340357830723616
 40
1.0
 40
1.0
 40
1.0
 40
1.0
 10
1723.088654258904
 20
856.5769424751929
 30
0.0
 10
1723.094206286208
 20
856.580958098615
 30
0.0
 10
1723.101769987368
 20
856.5864287085152
 30
0.0
 10
1723.148853200823
 20
856.6285514523394
 30
0.0
 10
1723.161375650821
 20
856.6397545949153
 30
0.0
  0
SPLINE
  5
389
330
1F
100
AcDbEntity
  8
0
  6
Continuous
 62
     8
370
    18
100
AcDbSpline
210
0.0
220
0.0
230
1.0
 70
     8
 71
     3
 72
    12
 73
     8
 74
     0
 42
0.000000001
 43
0.00000001
 40
0.0
 40
0.0
 40
0.0
 40
0.0
 40
0.1139159462135714
 40
0.3258009691519806
 40
0.544304245450631
 40
0.8274327446425882
 40
1.0
 40
1.0
 40
1.0
 40
1.0
 10
1728.69896752542
 20
864.5563503817252
 30
0.0
 10
1728.930211102722
 20
865.3098221895336
 30
0.0
 10
1729.591570500589
 20
867.4647605750029
 30
0.0
 10
1730.114606954325
 20
871.2196676895406
 30
0.0
 10
1729.963467389509
 20
876.1655458646966
 30
0.0
 10
1728.944150309834
 20
880.7740412345344
 30
0.0
 10
1727.602563521914
 20
883.6300035847013
 30
0.0
 10
1727.094518521485
 20
884.7115269020728
 30
0.0
  0
ARC
  5
38A
330
1F
100
AcDbEntity
  8
0
  6
Continuous
 62
     8
370
    18
100
AcDbCircle
 10
1723.3177490702
 20
848.5612301387
 30
0.0
 40
16.87605948239985
100
AcDbArc
 50
71.4055803285
 51
74.1186442815
  0
ARC
  5
38B
330
1F
100
AcDbEntity
  8
0
  6
Continuous
 62
     8
370
    18
100
AcDbCircle
 10
1717.6112210563
 20
902.890601178
 30
0.0
 40
20.50394284868256
100
AcDbArc
 50
295.1586165972
 51
297.5492516254
  0
ARC
  5
38C
330
1F
100
AcDbEntity
  8
0
  6
Continuous
 62
     8
370
    18
100
AcDbCircle
 10
1657.9143235992
 20
848.5612301387
 30
0.0
 40
16.87605948237949
100
AcDbArc
 50
105.8813557185
 51
108.5944196714
  0
SPLINE
  5
38D
330
1F
100
AcDbEntity
  8
0
  6
Continuous
 62
     8
370
    18
100
AcDbSpline
210
0.0
220
0.0
230
1.0
 70
     8
 71
     3
 72
    12
 73
     8
 74
     0
 42
0.000000001
 43
0.00000001
 40
0.0
 40
0.0
 40
0.0
 40
0.0
 40
0.113918588465627
 40
0.3290870115341278
 40
0.5442936757008793
 40
0.8274287419879962
 40
0.9999999999999999
 40
0.9999999999999999
 40
0.9999999999999999
 40
0.9999999999999999
 10
1652.533105143962
 20
864.5563503817252
 30
0.0
 10
1652.301732001823
 20
865.3098045788896
 30
0.0
 10
1651.633343313717
 20
867.4863764045443
 30
0.0
 10
1651.120929936558
 20
871.2433254719755
 30
0.0
 10
1651.271918827412
 20
876.1879388938837
 30
0.0
 10
1652.288184903391
 20
880.7740686324012
 30
0.0
 10
1653.629581261328
 20
883.6300111101716
 30
0.0
 10
1654.137554147897
 20
884.7115269020728
 30
0.0
  0
ARC
  5
38E
330
1F
100
AcDbEntity
  8
0
  6
Continuous
 62
     8
370
    18
100
AcDbCircle
 10
1663.6208516132
 20
902.890601178
 30
0.0
 40
20.50394284876794
100
AcDbArc
 50
242.4507483746
 51
244.8413834028
  0
SPLINE
  5
38F
330
1F
100
AcDbEntity
  8
0
  6
Continuous
 62
     8
370
    18
100
AcDbSpline
210
0.0
220
0.0
230
1.0
 70
     8
 71
     3
 72
     9
 73
     5
 74
     0
 42
0.000000001
 43
0.00000001
 40
0.0
 40
0.0
 40
0.0
 40
0.0
 40
0.7243182591847459
 40
1.0
 40
1.0
 40
1.0
 40
1.0
 10
1726.104023435769
 20
859.6554739490681
 30
0.0
 10
1726.854293272112
 20
860.7788337538484
 30
0.0
 10
1727.890122242083
 20
862.3297539336667
 30
0.0
 10
1728.524171674209
 20
864.0751708169056
 30
0.0
 10
1728.69896752542
 20
864.5563503817252
 30
0.0
  0
ARC
  5
390
330
1F
100
AcDbEntity
  8
0
  6
Continuous
 62
     8
370
    18
100
AcDbCircle
 10
1725.742056146
 20
859.0604923663
 30
0.0
 40
0.6964362157850931
100
AcDbArc
 50
58.6850397439
 51
105.2617350422
  0
ARC
  5
391
330
1F
100
AcDbEntity
  8
0
  6
Continuous
 62
     8
370
    18
100
AcDbCircle
 10
1655.4900165234
 20
859.0604923663
 30
0.0
 40
0.6964362157850931
100
AcDbArc
 50
74.7382649578
 51
121.3149602561
  0
SPLINE
  5
392
330
1F
100
AcDbEntity
  8
0
  6
Continuous
 62
     8
370
    18
100
AcDbSpline
210
0.0
220
0.0
230
1.0
 70
     8
 71
     3
 72
     9
 73
     5
 74
     0
 42
0.000000001
 43
0.00000001
 40
0.0
 40
0.0
 40
0.0
 40
0.0
 40
0.7243182591847459
 40
1.0
 40
1.0
 40
1.0
 40
1.0
 10
1655.128049233613
 20
859.6554739490681
 30
0.0
 10
1654.37777939727
 20
860.7788337538484
 30
0.0
 10
1653.341950427299
 20
862.3297539336667
 30
0.0
 10
1652.707900995173
 20
864.0751708169056
 30
0.0
 10
1652.533105143962
 20
864.5563503817252
 30
0.0
  0
ARC
  5
393
330
1F
100
AcDbEntity
  8
0
  6
Continuous
 62
     8
370
    18
100
AcDbCircle
 10
1724.565005591
 20
893.6751499623
 30
0.0
 40
2.997447609572999
100
AcDbArc
 50
212.0390078679
 51
236.4310741344
  0
SPLINE
  5
394
330
1F
100
AcDbEntity
  8
0
  6
Continuous
 62
     8
370
    18
100
AcDbSpline
210
0.0
220
0.0
230
1.0
 70
     8
 71
     3
 72
    14
 73
    10
 74
     0
 42
0.000000001
 43
0.00000001
 40
0.0
 40
0.0
 40
0.0
 40
0.0
 40
0.6113159483015327
 40
0.7934074853708425
 40
0.8854170069185602
 40
0.9194199709987732
 40
0.9434499663004732
 40
0.974989656164973
 40
1.0
 40
1.0
 40
1.0
 40
1.0
 10
1725.633325555978
 20
887.4296980068616
 30
0.0
 10
1725.076870226726
 20
888.3120229331404
 30
0.0
 10
1724.354664590295
 20
889.4571643333995
 30
0.0
 10
1723.36998076335
 20
890.5928137990647
 30
0.0
 10
1723.044946709468
 20
890.9705663637224
 30
0.0
 10
1722.931889332097
 20
891.1116036255346
 30
0.0
 10
1722.891519777254
 20
891.1688110938815
 30
0.0
 10
1722.883407995322
 20
891.1911474338308
 30
0.0
 10
1722.900179970217
 20
891.1817632576582
 30
0.0
 10
1722.907597699818
 20
891.1776129246286
 30
0.0
  0
ARC
  5
395
330
1F
100
AcDbEntity
  8
0
  6
Continuous
 62
     8
370
    18
100
AcDbCircle
 10
1713.0027391386
 20
910.4517209008
 30
0.0
 40
26.25919365431441
100
AcDbArc
 50
296.9266160214
 51
298.7505206146
  0
ARC
  5
396
330
1F
100
AcDbEntity
  8
0
  6
Continuous
 62
     8
370
    18
100
AcDbCircle
 10
1668.2293335308
 20
910.4517209009
 30
0.0
 40
26.25919365437086
100
AcDbArc
 50
241.2494793854
 51
243.0733839786
  0
SPLINE
  5
397
330
1F
100
AcDbEntity
  8
0
  6
Continuous
 62
     8
370
    18
100
AcDbSpline
210
0.0
220
0.0
230
1.0
 70
     8
 71
     3
 72
    14
 73
    10
 74
     0
 42
0.000000001
 43
0.00000001
 40
0.0
 40
0.0
 40
0.0
 40
0.0
 40
0.6113159483015327
 40
0.7934074853708425
 40
0.8854170069185602
 40
0.9194199709987732
 40
0.9434499663004732
 40
0.974989656164973
 40
1.0
 40
1.0
 40
1.0
 40
1.0
 10
1655.598747113404
 20
887.4296980068616
 30
0.0
 10
1656.155202442656
 20
888.3120229331404
 30
0.0
 10
1656.877408079087
 20
889.4571643333995
 30
0.0
 10
1657.862091906031
 20
890.5928137990647
 30
0.0
 10
1658.187125959914
 20
890.9705663637224
 30
0.0
 10
1658.300183337284
 20
891.1116036255346
 30
0.0
 10
1658.340552892128
 20
891.1688110938815
 30
0.0
 10
1658.34866467406
 20
891.1911474338308
 30
0.0
 10
1658.331892699164
 20
891.1817632576582
 30
0.0
 10
1658.324474969563
 20
891.1776129246286
 30
0.0
  0
ARC
  5
398
330
1F
100
AcDbEntity
  8
0
  6
Continuous
 62
     8
370
    18
100
AcDbCircle
 10
1656.6670670784
 20
893.6751499623
 30
0.0
 40
2.997447609570385
100
AcDbArc
 50
303.5689258656
 51
327.9609921321
  0
LINE
  5
399
330
1F
100
AcDbEntity
  8
0
  6
Continuous
 62
     8
370
    18
100
AcDbLine
 10
1727.0945185215
 20
884.7115269021
 30
0.0
 11
1725.633325556
 21
887.4296980069
 31
0.0
  0
LINE
  5
39A
330
1F
100
AcDbEntity
  8
0
  6
Continuous
 62
     8
370
    18
100
AcDbLine
 10
1654.1375541479
 20
884.7115269021
 30
0.0
 11
1655.5987471134
 21
887.4296980069
 31
0.0
  0
ARC
  5
39B
330
1F
100
AcDbEntity
  8
0
  6
Continuous
 62
     8
370
    18
100
AcDbCircle
 10
1656.7287719526
 20
854.0049702586
 30
0.0
 40
2.964095196557365
100
AcDbArc
 50
49.8222384771
 51
58.1288626966
  0
SPLINE
  5
39C
330
1F
100
AcDbEntity
  8
0
  6
Continuous
 62
     8
370
    18
100
AcDbSpline
210
0.0
220
0.0
230
1.0
 70
     8
 71
     3
 72
    16
 73
    12
 74
     0
 42
0.000000001
 43
0.00000001
 40
0.0
 40
0.0
 40
0.0
 40
0.0
 40
0.0117735912526317
 40
0.0227118290019858
 40
0.0341086532372965
 40
0.0448725007369351
 40
0.084398414444051
 40
0.1801731666126313
 40
0.6004758071522766
 40
0.7301085039694403
 40
1.0
 40
1.0
 40
1.0
 40
1.0
 10
1658.293845632729
 20
856.5221918836764
 30
0.0
 10
1658.299418180549
 20
856.5188377380425
 30
0.0
 10
1658.310167895779
 20
856.5123674283086
 30
0.0
 10
1658.310497582855
 20
856.5144362275229
 30
0.0
 10
1658.294640878526
 20
856.5280761131197
 30
0.0
 10
1658.243521884327
 20
856.568648215642
 30
0.0
 10
1658.073016157588
 20
856.6993225692459
 30
0.0
 10
1657.398757532562
 20
857.2266945808507
 30
0.0
 10
1656.648610365973
 20
857.9077787724684
 30
0.0
 10
1655.77576828728
 20
858.8383460437237
 30
0.0
 10
1655.389193194392
 20
859.3260286186319
 30
0.0
 10
1655.128049233613
 20
859.6554739490681
 30
0.0
  0
SPLINE
  5
39D
330
1F
100
AcDbEntity
  8
0
  6
Continuous
 62
     8
370
    18
100
AcDbSpline
210
0.0
220
0.0
230
1.0
 70
     8
 71
     3
 72
    16
 73
    12
 74
     0
 42
0.000000001
 43
0.00000001
 40
0.0
 40
0.0
 40
0.0
 40
0.0
 40
0.0117735912526317
 40
0.0227118290019858
 40
0.0341086532372965
 40
0.0448725007369351
 40
0.084398414444051
 40
0.1801731666126313
 40
0.6004758071522766
 40
0.7301085039694403
 40
1.0
 40
1.0
 40
1.0
 40
1.0
 10
1722.938227036653
 20
856.5221918836764
 30
0.0
 10
1722.932654488832
 20
856.5188377380425
 30
0.0
 10
1722.921904773603
 20
856.5123674283086
 30
0.0
 10
1722.921575086527
 20
856.5144362275229
 30
0.0
 10
1722.937431790856
 20
856.5280761131197
 30
0.0
 10
1722.988550785055
 20
856.568648215642
 30
0.0
 10
1723.159056511794
 20
856.6993225692459
 30
0.0
 10
1723.83331513682
 20
857.2266945808507
 30
0.0
 10
1724.583462303408
 20
857.9077787724684
 30
0.0
 10
1725.456304382102
 20
858.8383460437237
 30
0.0
 10
1725.842879474989
 20
859.3260286186319
 30
0.0
 10
1726.104023435769
 20
859.6554739490681
 30
0.0
  0
ARC
  5
39E
330
1F
100
AcDbEntity
  8
0
  6
Continuous
 62
     8
370
    18
100
AcDbCircle
 10
1724.5033007168
 20
854.0049702586
 30
0.0
 40
2.964095196570288
100
AcDbArc
 50
121.8711373034
 51
130.1777615228
  0
ARC
  5
39F
330
1F
100
AcDbEntity
  8
0
  6
Continuous
 62
     8
370
    18
100
AcDbCircle
 10
1720.3007603547
 20
897.7068241467
 30
0.0
 40
14.66400015360727
100
AcDbArc
 50
297.5999340269
 51
299.8287256421
  0
ARC
  5
3A0
330
1F
100
AcDbEntity
  8
0
  6
Continuous
 62
     8
370
    18
100
AcDbCircle
 10
1724.6877998077
 20
852.6838974169
 30
0.0
 40
12.53174392742433
100
AcDbArc
 50
68.8946473515
 51
71.3322026189
  0
ARC
  5
3A1
330
1F
100
AcDbEntity
  8
0
  6
Continuous
 62
     8
370
    18
100
AcDbCircle
 10
1660.9313123144
 20
897.7068241463
 30
0.0
 40
14.66400015313797
100
AcDbArc
 50
240.1712743578
 51
242.4000659732
  0
ARC
  5
3A2
330
1F
100
AcDbEntity
  8
0
  6
Continuous
 62
     8
370
    18
100
AcDbCircle
 10
1656.5442728619
 20
852.6838974165
 30
0.0
 40
12.53174392787366
100
AcDbArc
 50
108.6677973812
 51
111.1053526485
  0
ARC
  5
3A3
330
1F
100
AcDbEntity
  8
0
  6
Continuous
 62
     8
370
    18
100
AcDbCircle
 10
1718.3131887061
 20
900.7498307138
 30
0.0
 40
15.19902427238532
100
AcDbArc
 50
298.7911862476
 51
300.8927671055
  0
ARC
  5
3A4
330
1F
100
AcDbEntity
  8
0
  6
Continuous
 62
     8
370
    18
100
AcDbCircle
 10
1662.9188839633
 20
900.7498307138
 30
0.0
 40
15.19902427238543
100
AcDbArc
 50
239.1072328945
 51
241.2088137524
  0
ARC
  5
3A5
330
1F
100
AcDbEntity
  8
0
  6
Continuous
 62
     8
370
    18
100
AcDbCircle
 10
1725.0859008765
 20
854.3507696776
 30
0.0
 40
2.990792432790899
100
AcDbArc
 50
124.0269763341
 51
131.897376391
  0
ARC
  5
3A6
330
1F
100
AcDbEntity
  8
0
  6
Continuous
 62
     8
370
    18
100
AcDbCircle
 10
1656.1461717929
 20
854.3507696776
 30
0.0
 40
2.990792432809786
100
AcDbArc
 50
48.102623609
 51
55.9730236659
  0
ARC
  5
3A7
330
1F
100
AcDbEntity
  8
0
  6
Continuous
 62
     8
370
    18
100
AcDbCircle
 10
1724.6971516168
 20
893.5887379619
 30
0.0
 40
2.999474542851553
100
AcDbArc
 50
212.0989914138
 51
235.7352160268
  0
ARC
  5
3A8
330
1F
100
AcDbEntity
  8
0
  6
Continuous
 62
     8
370
    18
100
AcDbCircle
 10
1656.5347286584
 20
893.5888957608
 30
0.0
 40
2.999721377910223
100
AcDbArc
 50
312.8946024397
 51
327.900408047
  0
SPLINE
  5
3A9
330
1F
100
AcDbEntity
  8
0
  6
Continuous
 62
     8
370
    18
100
AcDbSpline
210
0.0
220
0.0
230
1.0
 70
     8
 71
     3
 72
    12
 73
     8
 74
     0
 42
0.000000001
 43
0.00000001
 40
0.0
 40
0.0
 40
0.0
 40
0.0
 40
0.2177945941159342
 40
0.5130794175226299
 40
0.8182676274041479
 40
0.9499018063174466
 40
0.9999999999999999
 40
0.9999999999999999
 40
0.9999999999999999
 40
0.9999999999999999
 10
1658.784362056908
 20
892.7471783102087
 30
0.0
 10
1658.734452812252
 20
892.7102892220709
 30
0.0
 10
1658.616876862853
 20
892.6233860923974
 30
0.0
 10
1657.813784349571
 20
891.8692452319808
 30
0.0
 10
1657.09597468423
 20
890.6992222639251
 30
0.0
 10
1656.579449316796
 20
889.7765029573834
 30
0.0
 10
1656.354933072877
 20
889.340152666136
 30
0.0
 10
1656.293040642199
 20
889.2198639080457
 30
0.0
  0
ARC
  5
3AA
330
1F
100
AcDbEntity
  8
0
  6
Continuous
 62
     8
370
    18
100
AcDbCircle
 10
1657.0320741184
 20
868.7680953007
 30
0.0
 40
8.932564524613971
100
AcDbArc
 50
183.4858144427
 51
252.4602264952
  0
SPLINE
  5
3AB
330
1F
100
AcDbEntity
  8
0
  6
Continuous
 62
     8
370
    18
100
AcDbSpline
210
0.0
220
0.0
230
1.0
 70
     8
 71
     3
 72
    10
 73
     6
 74
     0
 42
0.000000001
 43
0.00000001
 40
0.0
 40
0.0
 40
0.0
 40
0.0
 40
0.2176040310116394
 40
0.60574085638394
 40
1.0
 40
1.0
 40
1.0
 40
1.0
 10
1667.77421211606
 20
852.7974343017272
 30
0.0
 10
1667.130776911581
 20
852.825692843412
 30
0.0
 10
1665.339656636939
 20
852.9043556933631
 30
0.0
 10
1662.404715801413
 20
853.525175281413
 30
0.0
 10
1660.217966322413
 20
854.4820423048722
 30
0.0
 10
1659.116035828051
 20
854.9642196015052
 30
0.0
  0
SPLINE
  5
3AC
330
1F
100
AcDbEntity
  8
0
  6
Continuous
 62
     8
370
    18
100
AcDbSpline
210
0.0
220
0.0
230
1.0
 70
     8
 71
     3
 72
     9
 73
     5
 74
     0
 42
0.000000001
 43
0.00000001
 40
0.0
 40
0.0
 40
0.0
 40
0.0
 40
0.3897579789585661
 40
1.0
 40
1.0
 40
1.0
 40
1.0
 10
1655.112805345711
 20
859.2026388362578
 30
0.0
 10
1655.583439219103
 20
858.5237208312999
 30
0.0
 10
1656.790942076771
 20
856.7818244709686
 30
0.0
 10
1658.234882627879
 20
855.6530470289987
 30
0.0
 10
1659.116035828052
 20
854.9642196015052
 30
0.0
  0
LWPOLYLINE
  5
3AD
330
1F
100
AcDbEntity
  8
0
  6
Continuous
 62
     8
370
    18
100
AcDbPolyline
 90
        9
 70
   128
 43
0.0
 10
1648.1160358877
 20
864.7440975622
 10
1648.3273976833
 20
862.8361379818
 10
1648.9533619375
 20
861.001499565
 10
1649.9698707253
 20
859.3106871561
 10
1651.3378606529
 20
857.8286809937
 10
1653.0047641487
 20
856.6124258653
 10
1654.9065173954
 20
855.7086704389
 10
1656.9700413734
 20
855.1521381453
 10
1659.1160358281
 20
854.9642196015
  0
LINE
  5
3AE
330
1F
100
AcDbEntity
  8
0
  6
Continuous
 62
     8
370
    18
100
AcDbLine
 10
1659.1160358281
 20
854.9642196015
 30
0.0
 11
1659.1160358281
 21
852.7458129541
 31
0.0
  0
LINE
  5
3AF
330
1F
100
AcDbEntity
  8
0
  6
Continuous
 62
     8
370
    18
100
AcDbLine
 10
1725.6160364837
 20
921.1954144851
 30
0.0
 11
1641.0910361797
 21
921.1954144851
 31
0.0
  0
LINE
  5
3B0
330
1F
100
AcDbEntity
  8
0
  6
Continuous
 62
     8
370
    18
100
AcDbLine
 10
1641.0910361797
 20
911.1954137773
 30
0.0
 11
1640.0910378785
 21
911.1954137773
 31
0.0
  0
LINE
  5
3B1
330
1F
100
AcDbEntity
  8
0
  6
Continuous
 62
     8
370
    18
100
AcDbLine
 10
1641.0910361797
 20
942.9954147056
 30
0.0
 11
1640.0910378785
 21
942.9954147056
 31
0.0
  0
LINE
  5
3B2
330
1F
100
AcDbEntity
  8
0
  6
Continuous
 62
     8
370
    18
100
AcDbLine
 10
1642.091034481
 20
910.195414079
 30
0.0
 11
1642.091034481
 21
909.1954139151
 31
0.0
  0
LINE
  5
3B3
330
1F
100
AcDbEntity
  8
0
  6
Continuous
 62
     8
370
    18
100
AcDbLine
 10
1746.0910366268
 20
909.1954139151
 30
0.0
 11
1746.0910366268
 21
910.195414079
 31
0.0
  0
ENDSEC
  0
SECTION
  2
OBJECTS
  0
DICTIONARY
  5
C
330
0
100
AcDbDictionary
281
     1
  3
ACAD_GROUP
350
D
  3
ACAD_LAYOUT
350
1A
  3
ACAD_MLINESTYLE
350
17
  3
ACAD_PLOTSETTINGS
350
19
  3
ACAD_PLOTSTYLENAME
350
E
  3
ACAD_SCALELIST
350
47
  0
DICTIONARY
  5
D
102
{ACAD_REACTORS
330
C
102
}
330
C
100
AcDbDictionary
281
     1
  0
DICTIONARY
  5
1A
102
{ACAD_REACTORS
330
C
102
}
330
C
100
AcDbDictionary
281
     1
  3
Layout1
350
1E
  3
Layout2
350
26
  3
Model
350
22
  0
DICTIONARY
  5
17
102
{ACAD_REACTORS
330
C
102
}
330
C
100
AcDbDictionary
281
     1
  3
Standard
350
18
  0
DICTIONARY
  5
19
102
{ACAD_REACTORS
330
C
102
}
330
C
100
AcDbDictionary
281
     1
  0
ACDBDICTIONARYWDFLT
  5
E
102
{ACAD_REACTORS
330
C
102
}
330
C
100
AcDbDictionary
281
     1
  3
Normal
350
F
100
AcDbDictionaryWithDefault
340
F
  0
DICTIONARY
  5
47
102
{ACAD_REACTORS
330
C
102
}
330
C
100
AcDbDictionary
281
     1
  3
A0
350
48
  3
A1
350
49
  3
A2
350
4A
  3
A3
350
4B
  3
A4
350
4C
  3
A5
350
4D
  3
A6
350
4E
  3
A7
350
4F
  3
A8
350
50
  3
A9
350
51
  3
B0
350
52
  3
B1
350
53
  3
B2
350
54
  3
B3
350
55
  3
B4
350
56
  3
B5
350
57
  3
B6
350
58
  3
B7
350
59
  3
B8
350
5A
  3
B9
350
5B
  3
C0
350
5C
  3
C1
350
5D
  3
C2
350
5E
  3
C3
350
5F
  3
C4
350
60
  3
C5
350
61
  3
C6
350
62
  3
C7
350
63
  3
C8
350
64
  3
C9
350
65
  3
D0
350
66
  3
D1
350
67
  3
D2
350
68
  0
LAYOUT
  5
1E
102
{ACAD_REACTORS
330
1A
102
}
330
1A
100
AcDbPlotSettings
  1

  2
none_device
  4

  6

 40
0.0
 41
0.0
 42
0.0
 43
0.0
 44
0.0
 45
0.0
 46
0.0
 47
0.0
 48
0.0
 49
0.0
140
0.0
141
0.0
142
1.0
143
1.0
 70
   688
 72
     1
 73
     0
 74
     5
  7

 75
    16
147
1.0
148
0.0
149
0.0
100
AcDbLayout
  1
Layout1
 70
     1
 71
     1
 10
0.0
 20
0.0
 11
420.0
 21
297.0
 12
0.0
 22
0.0
 32
0.0
 14
1.0000000000E+20
 24
1.0000000000E+20
 34
1.0000000000E+20
 15
-1.0000000000E+20
 25
-1.0000000000E+20
 35
-1.0000000000E+20
146
0.0
 13
0.0
 23
0.0
 33
0.0
 16
1.0
 26
0.0
 36
0.0
 17
0.0
 27
1.0
 37
0.0
 76
     0
330
1B
  0
LAYOUT
  5
26
102
{ACAD_REACTORS
330
1A
102
}
330
1A
100
AcDbPlotSettings
  1

  2
none_device
  4

  6

 40
0.0
 41
0.0
 42
0.0
 43
0.0
 44
0.0
 45
0.0
 46
0.0
 47
0.0
 48
0.0
 49
0.0
140
0.0
141
0.0
142
1.0
143
1.0
 70
   688
 72
     1
 73
     0
 74
     5
  7

 75
    16
147
1.0
148
0.0
149
0.0
100
AcDbLayout
  1
Layout2
 70
     1
 71
     2
 10
0.0
 20
0.0
 11
0.0
 21
0.0
 12
0.0
 22
0.0
 32
0.0
 14
0.0
 24
0.0
 34
0.0
 15
0.0
 25
0.0
 35
0.0
146
0.0
 13
0.0
 23
0.0
 33
0.0
 16
1.0
 26
0.0
 36
0.0
 17
0.0
 27
1.0
 37
0.0
 76
     0
330
23
  0
LAYOUT
  5
22
102
{ACAD_REACTORS
330
1A
102
}
330
1A
100
AcDbPlotSettings
  1

  2
none_device
  4
Letter_(8.50_x_11.00_Inches)
  6

 40
6.35
 41
6.35
 42
6.35000508
 43
6.35000508
 44
215.9
 45
279.4
 46
0.0
 47
0.0
 48
0.0
 49
0.0
140
0.0
141
0.0
142
1.0
143
1.0
 70
  1712
 72
     1
 73
     0
 74
     0
  7

 75
     0
147
1.0
148
0.0
149
0.0
100
AcDbLayout
  1
Model
 70
     1
 71
     0
 10
0.0
 20
0.0
 11
2100.0
 21
1485.0
 12
0.0
 22
0.0
 32
0.0
 14
0.0
 24
0.0
 34
0.0
 15
2100.0
 25
1485.0
 35
0.0
146
0.0
 13
0.0
 23
0.0
 33
0.0
 16
1.0
 26
0.0
 36
0.0
 17
0.0
 27
1.0
 37
0.0
 76
     0
330
1F
331
29
  0
MLINESTYLE
  5
18
102
{ACAD_REACTORS
330
17
102
}
330
17
100
AcDbMlineStyle
  2
Standard
 70
     0
  3

 62
   256
 51
90.0
 52
90.0
 71
     2
 49
0.5
 62
   256
  6
BYLAYER
 49
-0.5
 62
   256
  6
BYLAYER
  0
ACDBPLACEHOLDER
  5
F
102
{ACAD_REACTORS
330
E
102
}
330
E
  0
SCALE
  5
48
102
{ACAD_REACTORS
330
47
102
}
330
47
100
AcDbScale
 70
     0
300
1:1
140
1.0
141
1.0
290
     1
  0
SCALE
  5
49
102
{ACAD_REACTORS
330
47
102
}
330
47
100
AcDbScale
 70
     0
300
1:2
140
1.0
141
2.0
290
     0
  0
SCALE
  5
4A
102
{ACAD_REACTORS
330
47
102
}
330
47
100
AcDbScale
 70
     0
300
1:4
140
1.0
141
4.0
290
     0
  0
SCALE
  5
4B
102
{ACAD_REACTORS
330
47
102
}
330
47
100
AcDbScale
 70
     0
300
1:5
140
1.0
141
5.0
290
     0
  0
SCALE
  5
4C
102
{ACAD_REACTORS
330
47
102
}
330
47
100
AcDbScale
 70
     0
300
1:8
140
1.0
141
8.0
290
     0
  0
SCALE
  5
4D
102
{ACAD_REACTORS
330
47
102
}
330
47
100
AcDbScale
 70
     0
300
1:10
140
1.0
141
10.0
290
     0
  0
SCALE
  5
4E
102
{ACAD_REACTORS
330
47
102
}
330
47
100
AcDbScale
 70
     0
300
1:16
140
1.0
141
16.0
290
     0
  0
SCALE
  5
4F
102
{ACAD_REACTORS
330
47
102
}
330
47
100
AcDbScale
 70
     0
300
1:20
140
1.0
141
20.0
290
     0
  0
SCALE
  5
50
102
{ACAD_REACTORS
330
47
102
}
330
47
100
AcDbScale
 70
     0
300
1:30
140
1.0
141
30.0
290
     0
  0
SCALE
  5
51
102
{ACAD_REACTORS
330
47
102
}
330
47
100
AcDbScale
 70
     0
300
1:40
140
1.0
141
40.0
290
     0
  0
SCALE
  5
52
102
{ACAD_REACTORS
330
47
102
}
330
47
100
AcDbScale
 70
     0
300
1:50
140
1.0
141
50.0
290
     0
  0
SCALE
  5
53
102
{ACAD_REACTORS
330
47
102
}
330
47
100
AcDbScale
 70
     0
300
1:100
140
1.0
141
100.0
290
     0
  0
SCALE
  5
54
102
{ACAD_REACTORS
330
47
102
}
330
47
100
AcDbScale
 70
     0
300
2:1
140
2.0
141
1.0
290
     0
  0
SCALE
  5
55
102
{ACAD_REACTORS
330
47
102
}
330
47
100
AcDbScale
 70
     0
300
4:1
140
4.0
141
1.0
290
     0
  0
SCALE
  5
56
102
{ACAD_REACTORS
330
47
102
}
330
47
100
AcDbScale
 70
     0
300
8:1
140
8.0
141
1.0
290
     0
  0
SCALE
  5
57
102
{ACAD_REACTORS
330
47
102
}
330
47
100
AcDbScale
 70
     0
300
10:1
140
10.0
141
1.0
290
     0
  0
SCALE
  5
58
102
{ACAD_REACTORS
330
47
102
}
330
47
100
AcDbScale
 70
     0
300
100:1
140
100.0
141
1.0
290
     0
  0
SCALE
  5
59
102
{ACAD_REACTORS
330
47
102
}
330
47
100
AcDbScale
 70
     0
300
1/128" = 1'-0"
140
0.0078125
141
12.0
290
     0
  0
SCALE
  5
5A
102
{ACAD_REACTORS
330
47
102
}
330
47
100
AcDbScale
 70
     0
300
1/64" = 1'-0"
140
0.015625
141
12.0
290
     0
  0
SCALE
  5
5B
102
{ACAD_REACTORS
330
47
102
}
330
47
100
AcDbScale
 70
     0
300
1/32" = 1'-0"
140
0.03125
141
12.0
290
     0
  0
SCALE
  5
5C
102
{ACAD_REACTORS
330
47
102
}
330
47
100
AcDbScale
 70
     0
300
1/16" = 1'-0"
140
0.0625
141
12.0
290
     0
  0
SCALE
  5
5D
102
{ACAD_REACTORS
330
47
102
}
330
47
100
AcDbScale
 70
     0
300
3/32" = 1'-0"
140
0.09375
141
12.0
290
     0
  0
SCALE
  5
5E
102
{ACAD_REACTORS
330
47
102
}
330
47
100
AcDbScale
 70
     0
300
1/8" = 1'-0"
140
0.125
141
12.0
290
     0
  0
SCALE
  5
5F
102
{ACAD_REACTORS
330
47
102
}
330
47
100
AcDbScale
 70
     0
300
3/16" = 1'-0"
140
0.1875
141
12.0
290
     0
  0
SCALE
  5
60
102
{ACAD_REACTORS
330
47
102
}
330
47
100
AcDbScale
 70
     0
300
1/4" = 1'-0"
140
0.25
141
12.0
290
     0
  0
SCALE
  5
61
102
{ACAD_REACTORS
330
47
102
}
330
47
100
AcDbScale
 70
     0
300
3/8" = 1'-0"
140
0.375
141
12.0
290
     0
  0
SCALE
  5
62
102
{ACAD_REACTORS
330
47
102
}
330
47
100
AcDbScale
 70
     0
300
1/2" = 1'-0"
140
0.5
141
12.0
290
     0
  0
SCALE
  5
63
102
{ACAD_REACTORS
330
47
102
}
330
47
100
AcDbScale
 70
     0
300
3/4" = 1'-0"
140
0.75
141
12.0
290
     0
  0
SCALE
  5
64
102
{ACAD_REACTORS
330
47
102
}
330
47
100
AcDbScale
 70
     0
300
1" = 1'-0"
140
1.0
141
12.0
290
     0
  0
SCALE
  5
65
102
{ACAD_REACTORS
330
47
102
}
330
47
100
AcDbScale
 70
     0
300
1-1/2" = 1'-0"
140
1.5
141
12.0
290
     0
  0
SCALE
  5
66
102
{ACAD_REACTORS
330
47
102
}
330
47
100
AcDbScale
 70
     0
300
3" = 1'-0"
140
3.0
141
12.0
290
     0
  0
SCALE
  5
67
102
{ACAD_REACTORS
330
47
102
}
330
47
100
AcDbScale
 70
     0
300
6" = 1'-0"
140
6.0
141
12.0
290
     0
  0
SCALE
  5
68
102
{ACAD_REACTORS
330
47
102
}
330
47
100
AcDbScale
 70
     0
300
1'-0" = 1'-0"
140
12.0
141
12.0
290
     0
  0
ENDSEC
  0
EOF
