  0
SECTION
  2
HEADER
  9
$ACADVER
  1
AC1015
  9
$ACADMAINTVER
 70
    20
  9
$DWGCODEPAGE
  3
ANSI_1252
  9
$INSBASE
 10
0.0
 20
0.0
 30
0.0
  9
$EXTMIN
 10
-1.666666115546307
 20
-0.0000000876683854
 30
0.0
  9
$EXTMAX
 10
137.6807680256537
 20
235.7388365379316
 30
0.0
  9
$LIMMIN
 10
0.0
 20
0.0
  9
$LIMMAX
 10
420.0
 20
297.0
  9
$ORTHOMODE
 70
     1
  9
$REGENMODE
 70
     1
  9
$FILLMODE
 70
     1
  9
$QTEXTMODE
 70
     0
  9
$MIRRTEXT
 70
     1
  9
$LTSCALE
 40
1.0
  9
$ATTMODE
 70
     1
  9
$TEXTSIZE
 40
2.5
  9
$TRACEWID
 40
1.0
  9
$TEXTSTYLE
  7
STANDARD
  9
$CLAYER
  8
0
  9
$CELTYPE
  6
ByLayer
  9
$CECOLOR
 62
   256
  9
$CELTSCALE
 40
1.0
  9
$DISPSILH
 70
     0
  9
$DIMSCALE
 40
1.0
  9
$DIMASZ
 40
2.5
  9
$DIMEXO
 40
1.0
  9
$DIMDLI
 40
10.0
  9
$DIMRND
 40
0.0
  9
$DIMDLE
 40
0.0
  9
$DIMEXE
 40
1.0
  9
$DIMTP
 40
0.1
  9
$DIMTM
 40
0.1
  9
$DIMTXT
 40
3.5
  9
$DIMCEN
 40
0.0
  9
$DIMTSZ
 40
0.0
  9
$DIMTOL
 70
     0
  9
$DIMLIM
 70
     0
  9
$DIMTIH
 70
     0
  9
$DIMTOH
 70
     0
  9
$DIMSE1
 70
     0
  9
$DIMSE2
 70
     0
  9
$DIMTAD
 70
     1
  9
$DIMZIN
 70
     8
  9
$DIMBLK
  1

  9
$DIMASO
 70
     1
  9
$DIMSHO
 70
     1
  9
$DIMPOST
  1

  9
$DIMAPOST
  1
"
  9
$DIMALT
 70
     0
  9
$DIMALTD
 70
     2
  9
$DIMALTF
 40
0.0393701
  9
$DIMLFAC
 40
1.0
  9
$DIMTOFL
 70
     1
  9
$DIMTVP
 40
0.0
  9
$DIMTIX
 70
     0
  9
$DIMSOXD
 70
     0
  9
$DIMSAH
 70
     0
  9
$DIMBLK1
  1

  9
$DIMBLK2
  1

  9
$DIMSTYLE
  2
AM_DIN
  9
$DIMCLRD
 70
   256
  9
$DIMCLRE
 70
   256
  9
$DIMCLRT
 70
     2
  9
$DIMTFAC
 40
0.71
  9
$DIMGAP
 40
1.5
  9
$DIMJUST
 70
     0
  9
$DIMSD1
 70
     0
  9
$DIMSD2
 70
     0
  9
$DIMTOLJ
 70
     0
  9
$DIMTZIN
 70
     8
  9
$DIMALTZ
 70
     0
  9
$DIMALTTZ
 70
     0
  9
$DIMUPT
 70
     0
  9
$DIMDEC
 70
     2
  9
$DIMTDEC
 70
     3
  9
$DIMALTU
 70
     2
  9
$DIMALTTD
 70
     4
  9
$DIMTXSTY
  7
STANDARD
  9
$DIMAUNIT
 70
     0
  9
$DIMADEC
 70
     0
  9
$DIMALTRND
 40
0.0
  9
$DIMAZIN
 70
     2
  9
$DIMDSEP
 70
    46
  9
$DIMATFIT
 70
     3
  9
$DIMFRAC
 70
     0
  9
$DIMLDRBLK
  1

  9
$DIMLUNIT
 70
     2
  9
$DIMLWD
 70
    -1
  9
$DIMLWE
 70
    -1
  9
$DIMTMOVE
 70
     0
  9
$LUNITS
 70
     2
  9
$LUPREC
 70
     2
  9
$SKETCHINC
 40
1.0
  9
$FILLETRAD
 40
0.0
  9
$AUNITS
 70
     0
  9
$AUPREC
 70
     0
  9
$MENU
  1
.
  9
$ELEVATION
 40
0.0
  9
$PELEVATION
 40
0.0
  9
$THICKNESS
 40
0.0
  9
$LIMCHECK
 70
     0
  9
$CHAMFERA
 40
2.5
  9
$CHAMFERB
 40
2.5
  9
$CHAMFERC
 40
20.0
  9
$CHAMFERD
 40
0.0
  9
$SKPOLY
 70
     0
  9
$TDCREATE
 40
2456367.437390012
  9
$TDUCREATE
 40
2456367.395723345
  9
$TDUPDATE
 40
2456367.438428125
  9
$TDUUPDATE
 40
2456367.396761458
  9
$TDINDWG
 40
0.0010388194
  9
$TDUSRTIMER
 40
0.0010386458
  9
$USRTIMER
 70
     1
  9
$ANGBASE
 50
0.0
  9
$ANGDIR
 70
     0
  9
$PDMODE
 70
     0
  9
$PDSIZE
 40
0.0
  9
$PLINEWID
 40
0.0
  9
$SPLFRAME
 70
     0
  9
$SPLINETYPE
 70
     6
  9
$SPLINESEGS
 70
     8
  9
$HANDSEED
  5
A35
  9
$SURFTAB1
 70
     6
  9
$SURFTAB2
 70
     6
  9
$SURFTYPE
 70
     6
  9
$SURFU
 70
     6
  9
$SURFV
 70
     6
  9
$UCSBASE
  2

  9
$UCSNAME
  2

  9
$UCSORG
 10
0.0
 20
0.0
 30
0.0
  9
$UCSXDIR
 10
1.0
 20
0.0
 30
0.0
  9
$UCSYDIR
 10
0.0
 20
1.0
 30
0.0
  9
$UCSORTHOREF
  2

  9
$UCSORTHOVIEW
 70
     0
  9
$UCSORGTOP
 10
0.0
 20
0.0
 30
0.0
  9
$UCSORGBOTTOM
 10
0.0
 20
0.0
 30
0.0
  9
$UCSORGLEFT
 10
0.0
 20
0.0
 30
0.0
  9
$UCSORGRIGHT
 10
0.0
 20
0.0
 30
0.0
  9
$UCSORGFRONT
 10
0.0
 20
0.0
 30
0.0
  9
$UCSORGBACK
 10
0.0
 20
0.0
 30
0.0
  9
$PUCSBASE
  2

  9
$PUCSNAME
  2

  9
$PUCSORG
 10
0.0
 20
0.0
 30
0.0
  9
$PUCSXDIR
 10
1.0
 20
0.0
 30
0.0
  9
$PUCSYDIR
 10
0.0
 20
1.0
 30
0.0
  9
$PUCSORTHOREF
  2

  9
$PUCSORTHOVIEW
 70
     0
  9
$PUCSORGTOP
 10
0.0
 20
0.0
 30
0.0
  9
$PUCSORGBOTTOM
 10
0.0
 20
0.0
 30
0.0
  9
$PUCSORGLEFT
 10
0.0
 20
0.0
 30
0.0
  9
$PUCSORGRIGHT
 10
0.0
 20
0.0
 30
0.0
  9
$PUCSORGFRONT
 10
0.0
 20
0.0
 30
0.0
  9
$PUCSORGBACK
 10
0.0
 20
0.0
 30
0.0
  9
$USERI1
 70
     0
  9
$USERI2
 70
     0
  9
$USERI3
 70
     0
  9
$USERI4
 70
     0
  9
$USERI5
 70
     0
  9
$USERR1
 40
0.0
  9
$USERR2
 40
0.0
  9
$USERR3
 40
0.0
  9
$USERR4
 40
0.0
  9
$USERR5
 40
0.0
  9
$WORLDVIEW
 70
     1
  9
$SHADEDGE
 70
     3
  9
$SHADEDIF
 70
    70
  9
$TILEMODE
 70
     1
  9
$MAXACTVP
 70
    64
  9
$PINSBASE
 10
0.0
 20
0.0
 30
0.0
  9
$PLIMCHECK
 70
     0
  9
$PEXTMIN
 10
1.000000000000000E+20
 20
1.000000000000000E+20
 30
1.000000000000000E+20
  9
$PEXTMAX
 10
-1.000000000000000E+20
 20
-1.000000000000000E+20
 30
-1.000000000000000E+20
  9
$PLIMMIN
 10
0.0
 20
0.0
  9
$PLIMMAX
 10
420.0
 20
297.0
  9
$UNITMODE
 70
     0
  9
$VISRETAIN
 70
     1
  9
$PLINEGEN
 70
     0
  9
$PSLTSCALE
 70
     1
  9
$TREEDEPTH
 70
  3020
  9
$CMLSTYLE
  2
Standard
  9
$CMLJUST
 70
     0
  9
$CMLSCALE
 40
20.0
  9
$PROXYGRAPHICS
 70
     1
  9
$MEASUREMENT
 70
     1
  9
$CELWEIGHT
370
    -1
  9
$ENDCAPS
280
     0
  9
$JOINSTYLE
280
     0
  9
$LWDISPLAY
290
     0
  9
$INSUNITS
 70
     4
  9
$HYPERLINKBASE
  1

  9
$STYLESHEET
  1

  9
$XEDIT
290
     1
  9
$CEPSNTYPE
380
     0
  9
$PSTYLEMODE
290
     1
  9
$FINGERPRINTGUID
  2
{8695674A-0702-496A-8094-013D578A679B}
  9
$VERSIONGUID
  2
{75B1E967-6B56-466B-8552-0D48EA2B9313}
  9
$EXTNAMES
290
     1
  9
$PSVPSCALE
 40
0.0
  9
$OLESTARTUP
290
     0
  0
ENDSEC
  0
SECTION
  2
CLASSES
  0
CLASS
  1
ACDBDICTIONARYWDFLT
  2
AcDbDictionaryWithDefault
  3
ObjectDBX Classes
 90
        0
280
     0
281
     0
  0
CLASS
  1
ACDBPLACEHOLDER
  2
AcDbPlaceHolder
  3
ObjectDBX Classes
 90
        0
280
     0
281
     0
  0
CLASS
  1
LAYOUT
  2
AcDbLayout
  3
ObjectDBX Classes
 90
        0
280
     0
281
     0
  0
CLASS
  1
ACME_DOCUMENT
  2
AcMeDbDoc
  3
AcMeServices
 90
     1024
280
     0
281
     0
  0
CLASS
  1
AMGSETTINGSOBJ
  2
AmgSettingsObj
  3
"AcadM|Product Description: AutoCAD Mechanical|Company: Autodesk, Inc."
 90
     1024
280
     0
281
     0
  0
CLASS
  1
ACMESCOPE
  2
AcMeScope
  3
AcMeServices
 90
     1024
280
     0
281
     0
  0
CLASS
  1
ACMECOMMANDHISTORY
  2
AcMeCommandHistory
  3
AcMeServices
 90
     1024
280
     0
281
     0
  0
CLASS
  1
ACIMSYSVARMAN
  2
AcImSysVarManager
  3
AcMeServices
 90
     1024
280
     0
281
     0
  0
CLASS
  1
ACIMREALSYSVAR
  2
AcImRealSysVar
  3
AcMeServices
 90
     1024
280
     0
281
     0
  0
CLASS
  1
ACIMINTSYSVAR
  2
AcImIntSysVar
  3
AcMeServices
 90
     1024
280
     0
281
     0
  0
CLASS
  1
ACMEDRAWINGMAN
  2
AcMeDrawingMan
  3
AcMeServices
 90
     1024
280
     0
281
     0
  0
CLASS
  1
ACMEVIEW
  2
AcMeView
  3
AcMeServices
 90
     1024
280
     0
281
     0
  0
CLASS
  1
ACDBENTITYCACHE
  2
AcMeEntityCache
  3
AcMeServices
 90
     1024
280
     0
281
     0
  0
CLASS
  1
GSMANAGER
  2
AcMeGSManager
  3
AcMeServices
 90
    33792
280
     0
281
     0
  0
CLASS
  1
AMDTINTERNALREACTOR
  2
AmdtInternalReactor
  3
AcMeServices
 90
     1024
280
     0
281
     0
  0
CLASS
  1
ACMESTATEMGR
  2
AcMeStateMgr
  3
AcMeServices
 90
     1024
280
     0
281
     0
  0
CLASS
  1
ACGREFMASTER
  2
AcGrefMaster
  3
AcAttribServices
 90
     1024
280
     0
281
     0
  0
CLASS
  1
ACME_DATABASE
  2
AcMeDbDatabase
  3
AcMeServices
 90
     1024
280
     0
281
     0
  0
CLASS
  1
ACRFINSADJUSTERMGR
  2
AcRfInsAdjusterMgr
  3
AcMeServices
 90
     1024
280
     0
281
     0
  0
CLASS
  1
ACGREFACADMASTER
  2
AcGrefacadMaster
  3
AcGrefServices
 90
     1024
280
     0
281
     0
  0
CLASS
  1
AMIMASTER
  2
AmiMaster
  3
AmiServices
 90
     1024
280
     0
281
     0
  0
CLASS
  1
ACMDATADICTIONARY
  2
AcmDataDictionary
  3
"AcmSymBB|Product Description: AutoCAD Mechanical|Company: Autodesk, Inc."
 90
     1024
280
     0
281
     0
  0
CLASS
  1
ACMDATAENTRYBLOCK
  2
AcmDataEntryBlock
  3
AcmSymBB|Product Description: AutoCAD Mechanical|Company: Autodesk, Inc.
 90
     1024
280
     0
281
     0
  0
CLASS
  1
ACIMSTRSYSVAR
  2
AcImStrSysVar
  3
AcMeServices
 90
     1024
280
     0
281
     0
  0
CLASS
  1
ACMSTANDARDISO
  2
AcmStandardISO
  3
"Amdt_StdImp|Product Description: AutoCAD Mechanical|Company: Autodesk, Inc."
 90
     1024
280
     0
281
     0
  0
CLASS
  1
AMGOBJPROPCFG
  2
AmgObjPropCfg
  3
"AmgLay|Product Description: AutoCAD Mechanical|Company: Autodesk, Inc."
 90
     1025
280
     0
281
     0
  0
CLASS
  1
AMDTEDGESTANDARDISO
  2
AmdtEdgeStdISO
  3
"Amdt_StdImp|Product Description: AutoCAD Mechanical|Company: Autodesk, Inc."
 90
     1024
280
     0
281
     0
  0
CLASS
  1
ACMSURFSTANDARDISO
  2
AcmSurfTextStdISO
  3
"Amdt_StdImp|Product Description: AutoCAD Mechanical|Company: Autodesk, Inc."
 90
     1024
280
     0
281
     0
  0
CLASS
  1
ACMFCFSTANDARDISO
  2
AcmFCFStdISO
  3
"Amdt_StdImp|Product Description: AutoCAD Mechanical|Company: Autodesk, Inc."
 90
     1024
280
     0
281
     0
  0
CLASS
  1
ACMWELDSTANDARDISO
  2
AcmWeldingStdISO
  3
"Amdt_StdImp|Product Description: AutoCAD Mechanical|Company: Autodesk, Inc."
 90
     1024
280
     0
281
     0
  0
CLASS
  1
ACMIDSTANDARDISO
  2
AcmIdStdISO
  3
"Amdt_StdImp|Product Description: AutoCAD Mechanical|Company: Autodesk, Inc."
 90
     1024
280
     0
281
     0
  0
CLASS
  1
ACMDATUMSTANDARDISO
  2
AcmDatumStdISO
  3
"Amdt_StdImp|Product Description: AutoCAD Mechanical|Company: Autodesk, Inc."
 90
     1024
280
     0
281
     0
  0
CLASS
  1
ACMBOMSTANDARDISO
  2
AcmBOMStdISO
  3
"Amdt_StdImp|Product Description: AutoCAD Mechanical|Company: Autodesk, Inc."
 90
     1024
280
     0
281
     0
  0
CLASS
  1
ACMDETAILSTANDARDISO
  2
AmdtDetailSymStdISO
  3
"Amdt_StdImp|Product Description: AutoCAD Mechanical|Company: Autodesk, Inc."
 90
     1024
280
     0
281
     0
  0
CLASS
  1
ACMSECTIONSTANDARDISO
  2
AmdtSectionSymStdISO
  3
"Amdt_StdImp|Product Description: AutoCAD Mechanical|Company: Autodesk, Inc."
 90
     1024
280
     0
281
     0
  0
CLASS
  1
ACMCENTERLINESTANDARDISO
  2
AmdtCenterLineStdISO
  3
"Amdt_StdImp|Product Description: AutoCAD Mechanical|Company: Autodesk, Inc."
 90
     1024
280
     0
281
     0
  0
CLASS
  1
ACMNOTESTANDARDISO
  2
AmdtNoteStdISO
  3
"Amdt_StdImp|Product Description: AutoCAD Mechanical|Company: Autodesk, Inc."
 90
     1024
280
     0
281
     0
  0
CLASS
  1
ACAMGLAYSTD
  2
AcAmgLayStd
  3
"AmgLay|Product Description: AutoCAD Mechanical|Company: Autodesk, Inc."
 90
     1024
280
     0
281
     0
  0
CLASS
  1
ACAMGDIMSTD
  2
AcAmgDimStd
  3
"AmgDim|Product Description: AutoCAD Mechanical|Company: Autodesk, Inc."
 90
     1024
280
     0
281
     0
  0
CLASS
  1
ACAMGHOLECHARTSTDISO
  2
AcAmgHoleChartStdISO
  3
AmgDim|Product Description: AutoCAD Mechanical|Company: Autodesk, Inc.
 90
     1024
280
     0
281
     0
  0
CLASS
  1
ACAMGTITLESTD
  2
AcAmgTitleStd
  3
"AmgTitle|Product Description: AutoCAD Mechanical|Company: Autodesk, Inc."
 90
     4095
280
     0
281
     0
  0
CLASS
  1
LAYER_INDEX
  2
AcDbLayerIndex
  3
ObjectDBX Classes
 90
    32768
280
     0
281
     0
  0
CLASS
  1
IDBUFFER
  2
AcDbIdBuffer
  3
ObjectDBX Classes
 90
    32768
280
     0
281
     0
  0
CLASS
  1
DICTIONARYVAR
  2
AcDbDictionaryVar
  3
ObjectDBX Classes
 90
        0
280
     0
281
     0
  0
CLASS
  1
AM_DRAWING_MGR
  2
AcDmDwgMgr
  3
AcMechDwgViewMgmt
 90
     1024
280
     0
281
     0
  0
CLASS
  1
AM_DWG_DOCUMENT
  2
AcDmDwgDocument
  3
AcMechDwgViewMgmt
 90
     1024
280
     0
281
     0
  0
CLASS
  1
AM_DWG_SHEET
  2
AcDmSheet
  3
AcMechDwgViewMgmt
 90
     1024
280
     0
281
     0
  0
CLASS
  1
AM_VIEWDIMPARMAP
  2
AcDmViewDimParMap
  3
AcMechDwgViewMgmt
 90
     1024
280
     0
281
     0
  0
CLASS
  1
AM_DWGMGR_NAME
  2
AcDmDwgMgrName
  3
AcMechDwgViewMgmt
 90
     1024
280
     0
281
     0
  0
CLASS
  1
AMDTMENUSTATEMGR
  2
AmdtMenuStateMgr
  3
McadcomServices
 90
     1024
280
     0
281
     0
  0
CLASS
  1
AMDTMCOMMENUSTATE
  2
AmdtMcomMenuState
  3
McadcomServices
 90
     1024
280
     0
281
     0
  0
CLASS
  1
MAPIAMMOUDLE
  2
MApiAmModule
  3
MApiAmServices
 90
     1024
280
     0
281
     0
  0
CLASS
  1
AMDTADMENUSTATE
  2
AmdtAdMenuState
  3
DesignerServices
 90
     1024
280
     0
281
     0
  0
CLASS
  1
ADAPPL
  2
AcAdAppl
  3
DesignerServices
 90
     1024
280
     0
281
     0
  0
CLASS
  1
DEPMGR
  2
AcAdDepMgr
  3
DesignerServices
 90
     1024
280
     0
281
     0
  0
CLASS
  1
PARAMMGR
  2
AcAdParamMgr
  3
DesignerServices
 90
     1024
280
     0
281
     0
  0
CLASS
  1
PARAMSCOPE
  2
AcAdParamScope
  3
DesignerServices
 90
     1024
280
     0
281
     0
  0
CLASS
  1
NAMEDAPPL
  2
AcAdNamedAppl
  3
DesignerServices
 90
     1024
280
     0
281
     0
  0
CLASS
  1
AMDTDMMENUSTATE
  2
AmdtDmMenuState
  3
AcMechDwgViewMgmt
 90
     1024
280
     0
281
     0
  0
CLASS
  1
AMDTAMMENUSTATE
  2
AmdtAmMenuState
  3
DesignerAssemblies
 90
     1024
280
     0
281
     0
  0
CLASS
  1
ACAMPROJECT
  2
AcAmProject
  3
DesignerAssemblies
 90
     1024
280
     0
281
     0
  0
CLASS
  1
ACAMGRCOMPDEF
  2
AcAmGrCompDef
  3
DesignerAssemblies
 90
     1024
280
     0
281
     0
  0
CLASS
  1
ACCMCONTEXT
  2
AcCmContext
  3
DesignerAssemblies
 90
     1024
280
     0
281
     0
  0
CLASS
  1
ACAMCOMPDEF
  2
AcAmCompDef
  3
DesignerAssemblies
 90
     1024
280
     0
281
     0
  0
CLASS
  1
ACAMCOMPDEFMGR
  2
AcAmCompDefMgr
  3
DesignerAssemblies
 90
     1024
280
     0
281
     0
  0
CLASS
  1
AMCONTEXTMGR
  2
AcAmContextMgr
  3
DesignerAssemblies
 90
     1024
280
     0
281
     0
  0
CLASS
  1
ACAMCONTEXTMODELER
  2
AcAmContextModeler
  3
DesignerAssemblies
 90
     1024
280
     0
281
     0
  0
CLASS
  1
ACMTHREADLINESTANDARDISO
  2
AmdtThreadLineStdISO
  3
"Amdt_StdImp|Product Description: AutoCAD Mechanical|Company: Autodesk, Inc."
 90
     1024
280
     0
281
     0
  0
CLASS
  1
CATALOGSTATE
  2
AcAmCatalogState
  3
DesignerAssemblies
 90
     1024
280
     0
281
     0
  0
CLASS
  1
ACAMGRCOMPDEFSET
  2
AcAmGrCompDefSet
  3
DesignerAssemblies
 90
     1024
280
     0
281
     0
  0
CLASS
  1
AMDTBROWSERDBTAB
  2
AmdtBrowserDbTab
  3
McadcomServices
 90
     1024
280
     0
281
     0
  0
CLASS
  1
CBROWSERAPPOBJECT
  2
CBrowserAppObject
  3
McadcomServices
 90
     1024
280
     0
281
     0
  0
CLASS
  1
DM_PLACEHOLDER
  2
AcDmSelsetPlaceholder
  3
AcMechDwgViewMgmt
 90
     1024
280
     0
281
     0
  0
CLASS
  1
TABLESTYLE
  2
AcDbTableStyle
  3
ObjectDBX Classes
 90
     4095
280
     0
281
     0
  0
CLASS
  1
VAACXREFPANELOBJECT
  2
VaAcXREFPanelObject
  3
VAAC_ADDIN
 90
    32768
280
     0
281
     0
  0
CLASS
  1
VAACIMAGEINVENTORY
  2
VaAcImageInventory
  3
VAAC_ADDIN
 90
    32768
280
     0
281
     0
  0
CLASS
  1
AMDTNOTETEMPLATEDB
  2
AmdtNoteTemplateDB
  3
AcmSymBB|Product Description: AutoCAD Mechanical|Company: Autodesk, Inc.
 90
     1024
280
     0
281
     0
  0
CLASS
  1
ACAMGFILTERDAT
  2
AcAmgFilterDat
  3
"AcadM|Product Description: AutoCAD Mechanical|Company: Autodesk, Inc."
 90
     1024
280
     0
281
     0
  0
CLASS
  1
ACMBOM
  2
AcmBom
  3
"AcmSymBB|Product Description: AutoCAD Mechanical|Company: Autodesk, Inc."
 90
    33792
280
     0
281
     0
  0
CLASS
  1
AMDTFORMULAUPDATEDISPATCHER
  2
AmdtFormulaUpdateDispatcher
  3
AcMeServices
 90
    33792
280
     0
281
     0
  0
CLASS
  1
ACMSTANDARDDIN
  2
AcmStandardDIN
  3
"Amdt_StdImp|Product Description: AutoCAD Mechanical|Company: Autodesk, Inc."
 90
     1024
280
     0
281
     0
  0
CLASS
  1
AMDTEDGESTANDARDDIN13715
  2
AmdtEdgeStdDIN13715
  3
"Amdt_StdImp|Product Description: AutoCAD Mechanical|Company: Autodesk, Inc."
 90
     1024
280
     0
281
     0
  0
CLASS
  1
ACMSURFSTANDARDDIN
  2
AcmSurfTextStdDIN
  3
"Amdt_StdImp|Product Description: AutoCAD Mechanical|Company: Autodesk, Inc."
 90
     1024
280
     0
281
     0
  0
CLASS
  1
ACMFCFSTANDARDDIN
  2
AcmFCFStdDIN
  3
"Amdt_StdImp|Product Description: AutoCAD Mechanical|Company: Autodesk, Inc."
 90
     1024
280
     0
281
     0
  0
CLASS
  1
ACMWELDSTANDARDDIN
  2
AcmWeldingStdDIN
  3
"Amdt_StdImp|Product Description: AutoCAD Mechanical|Company: Autodesk, Inc."
 90
     1024
280
     0
281
     0
  0
CLASS
  1
ACMIDSTANDARDDIN
  2
AcmIdStdDIN
  3
"Amdt_StdImp|Product Description: AutoCAD Mechanical|Company: Autodesk, Inc."
 90
     1024
280
     0
281
     0
  0
CLASS
  1
ACMDATUMSTANDARDDIN
  2
AcmDatumStdDIN
  3
"Amdt_StdImp|Product Description: AutoCAD Mechanical|Company: Autodesk, Inc."
 90
     1024
280
     0
281
     0
  0
CLASS
  1
ACMBOMSTANDARDDIN
  2
AcmBOMStdDIN
  3
"Amdt_StdImp|Product Description: AutoCAD Mechanical|Company: Autodesk, Inc."
 90
     1024
280
     0
281
     0
  0
CLASS
  1
ACMDETAILSTANDARDDIN
  2
AmdtDetailSymStdDIN
  3
"Amdt_StdImp|Product Description: AutoCAD Mechanical|Company: Autodesk, Inc."
 90
     1024
280
     0
281
     0
  0
CLASS
  1
ACMSECTIONSTANDARDDIN
  2
AmdtSectionSymStdDIN
  3
"Amdt_StdImp|Product Description: AutoCAD Mechanical|Company: Autodesk, Inc."
 90
     1024
280
     0
281
     0
  0
CLASS
  1
ACMCENTERLINESTANDARDDIN
  2
AmdtCenterLineStdDIN
  3
"Amdt_StdImp|Product Description: AutoCAD Mechanical|Company: Autodesk, Inc."
 90
     1024
280
     0
281
     0
  0
CLASS
  1
ACMTHREADLINESTANDARDDIN
  2
AmdtThreadLineStdDIN
  3
"Amdt_StdImp|Product Description: AutoCAD Mechanical|Company: Autodesk, Inc."
 90
     1024
280
     0
281
     0
  0
CLASS
  1
ACMNOTESTANDARDDIN
  2
AmdtNoteStdDIN
  3
"Amdt_StdImp|Product Description: AutoCAD Mechanical|Company: Autodesk, Inc."
 90
     1024
280
     0
281
     0
  0
CLASS
  1
ACAMGHOLECHARTSTDDIN
  2
AcAmgHoleChartStdDIN
  3
AmgDim|Product Description: AutoCAD Mechanical|Company: Autodesk, Inc.
 90
     1024
280
     0
281
     0
  0
CLASS
  1
MATERIAL
  2
AcDbMaterial
  3
ObjectDBX Classes
 90
     1153
280
     0
281
     0
  0
CLASS
  1
VISUALSTYLE
  2
AcDbVisualStyle
  3
ObjectDBX Classes
 90
     4095
280
     0
281
     0
  0
CLASS
  1
SCALE
  2
AcDbScale
  3
ObjectDBX Classes
 90
     1153
280
     0
281
     0
  0
CLASS
  1
MLEADERSTYLE
  2
AcDbMLeaderStyle
  3
ACDB_MLEADERSTYLE_CLASS
 90
     4095
280
     0
281
     0
  0
CLASS
  1
ACRFATTGENMGR
  2
AcRfAttGeneralMgr
  3
AcAttribServices
 90
     1024
280
     0
281
     0
  0
CLASS
  1
ACRFOBJATTMGR
  2
AcRfObjAttGroupMgr
  3
AcAttribServices
 90
     1024
280
     0
281
     0
  0
CLASS
  1
ACRFMCADAPIATTHOLDER
  2
AcRfMCADAPIAttHolder
  3
AcAttribServices
 90
     1024
280
     0
281
     0
  0
CLASS
  1
AMDTSYSATTR
  2
AmdtSystemAttribute
  3
AcAttribServices
 90
     1024
280
     0
281
     0
  0
CLASS
  1
ACMTAPERSTANDARDISO
  2
AcmTaperStdISO
  3
"Amdt_StdImp|Product Description: AutoCAD Mechanical|Company: Autodesk, Inc."
 90
     1024
280
     0
281
     0
  0
CLASS
  1
ACMANOOTATIONVIEWSTANDARDISO
  2
AmdtAnViewStdISO
  3
"Amdt_StdImp|Product Description: AutoCAD Mechanical|Company: Autodesk, Inc."
 90
     1024
280
     0
281
     0
  0
CLASS
  1
ACMTAPERSTANDARDDIN
  2
AcmTaperStdDIN
  3
"Amdt_StdImp|Product Description: AutoCAD Mechanical|Company: Autodesk, Inc."
 90
     1024
280
     0
281
     0
  0
CLASS
  1
ACMANOOTATIONVIEWSTANDARDDIN
  2
AmdtAnViewStdDIN
  3
"Amdt_StdImp|Product Description: AutoCAD Mechanical|Company: Autodesk, Inc."
 90
     1024
280
     0
281
     0
  0
CLASS
  1
EXACXREFPANELOBJECT
  2
ExAcXREFPanelObject
  3
EXAC_ESW
 90
     1025
280
     0
281
     0
  0
CLASS
  1
NPOCOLLECTION
  2
AcDbImpNonPersistentObjectsCollection
  3
ObjectDBX Classes
 90
     1153
280
     0
281
     0
  0
CLASS
  1
CAMSSTRUCTBTNSTATE
  2
StructBtnState
  3
DesignerAssemblies
 90
     1024
280
     0
281
     0
  0
CLASS
  1
CELLSTYLEMAP
  2
AcDbCellStyleMap
  3
ObjectDBX Classes
 90
     1152
280
     0
281
     0
  0
CLASS
  1
AEC_REFEDIT_STATUS_TRACKER
  2
AecDbRefEditStatusTracker
  3
AecArchBase60|Product Desc: Autodesk Architectural Desktop 2007 |Company: Autodesk,Inc. |WEB Address: www.autodesk.com
 90
    32897
280
     0
281
     0
  0
CLASS
  1
IMAGE
  2
AcDbRasterImage
  3
ISM
 90
    34943
280
     0
281
     1
  0
CLASS
  1
IMAGEDEF_REACTOR
  2
AcDbRasterImageDefReactor
  3
ISM
 90
    32769
280
     0
281
     0
  0
CLASS
  1
IMAGEDEF
  2
AcDbRasterImageDef
  3
ISM
 90
    32768
280
     0
281
     0
  0
CLASS
  1
RASTERVARIABLES
  2
AcDbRasterVariables
  3
ISM
 90
    32768
280
     0
281
     0
  0
ENDSEC
  0
SECTION
  2
TABLES
  0
TABLE
  2
VPORT
  5
8
330
0
100
AcDbSymbolTable
 70
     1
  0
VPORT
  5
3B2
330
8
100
AcDbSymbolTableRecord
100
AcDbViewportTableRecord
  2
*Active
 70
     0
 10
0.0
 20
0.0
 11
1.0
 21
1.0
 12
89.28286121423335
 22
199.1915591762115
 13
0.0
 23
0.0
 14
2.5
 24
2.5
 15
10.0
 25
10.0
 16
0.0
 26
0.0
 36
1.0
 17
0.0
 27
0.0
 37
0.0
 40
62.43296609728247
 41
1.850235849056603
 42
50.0
 43
0.0
 44
0.0
 50
0.0
 51
0.0
 71
     0
 72
   100
 73
     1
 74
     3
 75
     0
 76
     0
 77
     0
 78
     0
281
     0
 65
     1
110
0.0
120
0.0
130
0.0
111
1.0
121
0.0
131
0.0
112
0.0
122
1.0
132
0.0
 79
     0
146
0.0
  0
ENDTAB
  0
TABLE
  2
LTYPE
  5
5
330
0
100
AcDbSymbolTable
 70
    23
  0
LTYPE
  5
14
330
5
100
AcDbSymbolTableRecord
100
AcDbLinetypeTableRecord
  2
ByBlock
 70
     0
  3

 72
    65
 73
     0
 40
0.0
  0
LTYPE
  5
15
330
5
100
AcDbSymbolTableRecord
100
AcDbLinetypeTableRecord
  2
ByLayer
 70
     0
  3

 72
    65
 73
     0
 40
0.0
  0
LTYPE
  5
16
330
5
100
AcDbSymbolTableRecord
100
AcDbLinetypeTableRecord
  2
Continuous
 70
     0
  3
Solid line
 72
    65
 73
     0
 40
0.0
  0
LTYPE
  5
64
330
5
100
AcDbSymbolTableRecord
100
AcDbLinetypeTableRecord
  2
AM_ISO02W050
 70
     0
  3
__ __ __ __ __ __ __ __ __ __ __ __ __ __ __
 72
    65
 73
     2
 40
7.5
 49
6.0
 74
     0
 49
-1.5
 74
     0
  0
LTYPE
  5
65
330
5
100
AcDbSymbolTableRecord
100
AcDbLinetypeTableRecord
  2
AM_ISO08W050
 70
     0
  3
____ . ____ . ____ . ____ . ____ . ____ . ____
 72
    65
 73
     4
 40
18.0
 49
12.0
 74
     0
 49
-1.5
 74
     0
 49
3.0
 74
     0
 49
-1.5
 74
     0
  0
LTYPE
  5
66
330
5
100
AcDbSymbolTableRecord
100
AcDbLinetypeTableRecord
  2
AM_ISO09W050
 70
     0
  3
_____ . . _____ . . _____ . . ____ .. ____
 72
    65
 73
     6
 40
22.5
 49
12.0
 74
     0
 49
-1.5
 74
     0
 49
3.0
 74
     0
 49
-1.5
 74
     0
 49
3.0
 74
     0
 49
-1.5
 74
     0
  0
LTYPE
  5
67
330
5
100
AcDbSymbolTableRecord
100
AcDbLinetypeTableRecord
  2
Amconstr
 70
     0
  3
_______________________
 72
    65
 73
     2
 40
9999.0
 49
9999.0
 74
     0
 49
0.0
 74
     0
  0
LTYPE
  5
68
330
5
100
AcDbSymbolTableRecord
100
AcDbLinetypeTableRecord
  2
AM_ISO08W050x2
 70
     0
  3
__ . __ . __ . __ . __ . __
 72
    65
 73
     4
 40
9.0
 49
6.0
 74
     0
 49
-0.75
 74
     0
 49
1.5
 74
     0
 49
-0.75
 74
     0
  0
LTYPE
  5
69
330
5
100
AcDbSymbolTableRecord
100
AcDbLinetypeTableRecord
  2
AM_ISO02W050x2
 70
     0
  3
 _ _ _ _ _ _ _ _ _ _ _ _
 72
    65
 73
     2
 40
3.75
 49
3.0
 74
     0
 49
-0.75
 74
     0
  0
LTYPE
  5
6C
330
5
100
AcDbSymbolTableRecord
100
AcDbLinetypeTableRecord
  2
Amzigzag
 70
     0
  3
/\/-/\/-/\/-/\/-/\/-/\/
 72
    65
 73
     2
 40
11.0001
 49
0.0001
 74
     4
 75
   136
340
22C
 46
0.04
 50
0.0
 44
0.0
 45
0.0
 49
-11.0
 74
     0
  0
LTYPE
  5
7A
330
5
100
AcDbSymbolTableRecord
100
AcDbLinetypeTableRecord
  2
ACISOWELD
 70
     0
  3
_ _ _ _ _
 72
    65
 73
     2
 40
2.0
 49
2.0
 74
     0
 49
-1.0
 74
     0
  0
LTYPE
  5
7B
330
5
100
AcDbSymbolTableRecord
100
AcDbLinetypeTableRecord
  2
ACISOTGB
 70
     0
  3
__ . . __ . .
 72
    65
 73
     6
 40
9.0
 49
4.0
 74
     0
 49
-1.0
 74
     0
 49
1.0
 74
     0
 49
-1.0
 74
     0
 49
1.0
 74
     0
 49
-1.0
 74
     0
  0
LTYPE
  5
7C
330
5
100
AcDbSymbolTableRecord
100
AcDbLinetypeTableRecord
  2
ACISOTGL
 70
     0
  3
_ _ _ _ _
 72
    65
 73
     2
 40
3.0
 49
2.0
 74
     0
 49
-1.0
 74
     0
  0
LTYPE
  5
7E
330
5
100
AcDbSymbolTableRecord
100
AcDbLinetypeTableRecord
  2
CENTER
 70
     0
  3
__ . __
 72
    65
 73
     4
 40
7.0
 49
4.0
 74
     0
 49
-1.0
 74
     0
 49
1.0
 74
     0
 49
-1.0
 74
     0
  0
LTYPE
  5
D8
330
5
100
AcDbSymbolTableRecord
100
AcDbLinetypeTableRecord
  2
HIDDEN
 70
     0
  3
Hidden __ __ __ __ __ __ __ __ __ __ __ __ __ _
 72
    65
 73
     2
 40
9.524999999999998
 49
6.349999999999999
 74
     0
 49
-3.174999999999999
 74
     0
  0
LTYPE
  5
D9
330
5
100
AcDbSymbolTableRecord
100
AcDbLinetypeTableRecord
  2
PHANTOM2
 70
     0
  3
Phantom (.5x) ___ _ _ ___ _ _ ___ _ _ ___ _ _
 72
    65
 73
     6
 40
31.75
 49
15.875
 74
     0
 49
-3.174999999999999
 74
     0
 49
3.174999999999999
 74
     0
 49
-3.174999999999999
 74
     0
 49
3.174999999999999
 74
     0
 49
-3.174999999999999
 74
     0
  0
LTYPE
  5
2E5
330
5
100
AcDbSymbolTableRecord
100
AcDbLinetypeTableRecord
  2
ACDINWELD
 70
     0
  3
_ _ _ _ _
 72
    65
 73
     2
 40
2.0
 49
2.0
 74
     0
 49
-1.0
 74
     0
  0
LTYPE
  5
2E6
330
5
100
AcDbSymbolTableRecord
100
AcDbLinetypeTableRecord
  2
ACDINTGB
 70
     0
  3
__ . . __ . .
 72
    65
 73
     6
 40
9.0
 49
4.0
 74
     0
 49
-1.0
 74
     0
 49
1.0
 74
     0
 49
-1.0
 74
     0
 49
1.0
 74
     0
 49
-1.0
 74
     0
  0
LTYPE
  5
2E7
330
5
100
AcDbSymbolTableRecord
100
AcDbLinetypeTableRecord
  2
ACDINTGL
 70
     0
  3
_ _ _ _ _
 72
    65
 73
     2
 40
3.0
 49
2.0
 74
     0
 49
-1.0
 74
     0
  0
LTYPE
  5
321
330
5
100
AcDbSymbolTableRecord
100
AcDbLinetypeTableRecord
  2
AM_DIN_F_W050
 70
     0
  3
__ __ __ __ __ __ __ __ __ __ __ __ __ __ __
 72
    65
 73
     2
 40
6.25
 49
4.75
 74
     0
 49
-1.5
 74
     0
  0
LTYPE
  5
322
330
5
100
AcDbSymbolTableRecord
100
AcDbLinetypeTableRecord
  2
AM_DIN_G_W050
 70
     0
  3
____ . ____ . ____ . ____ . ____ . ____ . ____
 72
    65
 73
     4
 40
13.75
 49
9.75
 74
     0
 49
-1.5
 74
     0
 49
1.0
 74
     0
 49
-1.5
 74
     0
  0
LTYPE
  5
323
330
5
100
AcDbSymbolTableRecord
100
AcDbLinetypeTableRecord
  2
AM_DIN_K_W050
 70
     0
  3
_____ . . _____ . . _____ . . ____ .. ____
 72
    65
 73
     6
 40
16.25
 49
9.75
 74
     0
 49
-1.5
 74
     0
 49
1.0
 74
     0
 49
-1.5
 74
     0
 49
1.0
 74
     0
 49
-1.5
 74
     0
  0
LTYPE
  5
324
330
5
100
AcDbSymbolTableRecord
100
AcDbLinetypeTableRecord
  2
AM_DIN_G_W050x2
 70
     0
  3
__ . __ . __ . __ . __ . __
 72
    65
 73
     4
 40
6.875
 49
4.75
 74
     0
 49
-0.875
 74
     0
 49
0.375
 74
     0
 49
-0.875
 74
     0
  0
LTYPE
  5
325
330
5
100
AcDbSymbolTableRecord
100
AcDbLinetypeTableRecord
  2
AM_DIN_F_W050x2
 70
     0
  3
 _ _ _ _ _ _ _ _ _ _ _ _
 72
    65
 73
     2
 40
3.125
 49
2.25
 74
     0
 49
-0.875
 74
     0
  0
ENDTAB
  0
TABLE
  2
LAYER
  5
2
330
0
100
AcDbSymbolTable
 70
     4
  0
LAYER
  5
10
102
{ACAD_XDICTIONARY
360
9F6
102
}
330
2
100
AcDbSymbolTableRecord
100
AcDbLayerTableRecord
  2
0
 70
     0
 62
     7
  6
Continuous
370
    -3
390
F
  0
LAYER
  5
604
102
{ACAD_XDICTIONARY
360
9F8
102
}
330
2
100
AcDbSymbolTableRecord
100
AcDbLayerTableRecord
  2
BEZUGSACHSEN
 70
     0
 62
     7
  6
Continuous
370
    -3
390
F
  0
LAYER
  5
605
102
{ACAD_XDICTIONARY
360
9FA
102
}
330
2
100
AcDbSymbolTableRecord
100
AcDbLayerTableRecord
  2
KURVEN
 70
     0
 62
     7
  6
Continuous
370
    -3
390
F
  0
LAYER
  5
606
102
{ACAD_XDICTIONARY
360
9FC
102
}
330
2
100
AcDbSymbolTableRecord
100
AcDbLayerTableRecord
  2
RUNDUNGEN
 70
     0
 62
     7
  6
Continuous
370
    -3
390
F
  0
ENDTAB
  0
TABLE
  2
STYLE
  5
3
330
0
100
AcDbSymbolTable
 70
    10
  0
STYLE
  5
11
330
3
100
AcDbSymbolTableRecord
100
AcDbTextStyleTableRecord
  2
STANDARD
 70
     0
 40
0.0
 41
1.0
 50
0.0
 71
     0
 42
2.5
  3
ISOCP.SHX
  4

  0
STYLE
  5
6B
330
3
100
AcDbSymbolTableRecord
100
AcDbTextStyleTableRecord
  2

 70
     1
 40
0.0
 41
1.0
 50
0.0
 71
     0
 42
2.5
  3
ltypeshp.shx
  4

  0
STYLE
  5
6D
330
3
100
AcDbSymbolTableRecord
100
AcDbTextStyleTableRecord
  2
ACISOTS
 70
     0
 40
1.0
 41
1.0
 50
0.0
 71
     0
 42
2.5
  3
isocp.shx
  4
bigfont.shx
  0
STYLE
  5
79
330
3
100
AcDbSymbolTableRecord
100
AcDbTextStyleTableRecord
  2
ACISOGDT
 70
     0
 40
0.0
 41
1.0
 50
0.0
 71
     0
 42
2.5
  3
AMGDT
  4
bigfont.shx
  0
STYLE
  5
1ED
330
3
100
AcDbSymbolTableRecord
100
AcDbTextStyleTableRecord
  2
USER1
 70
     0
 40
0.0
 41
1.0
 50
0.0
 71
     0
 42
2.5
  3
TXT.SHX
  4
bigfont.shx
  0
STYLE
  5
1EE
330
3
100
AcDbSymbolTableRecord
100
AcDbTextStyleTableRecord
  2
USER2
 70
     0
 40
0.0
 41
1.0
 50
0.0
 71
     0
 42
2.5
  3
SIMPLEX.SHX
  4
bigfont.shx
  0
STYLE
  5
1EF
330
3
100
AcDbSymbolTableRecord
100
AcDbTextStyleTableRecord
  2
USER3
 70
     0
 40
0.0
 41
1.0
 50
0.0
 71
     0
 42
2.5
  3
ITALIC.SHX
  4
bigfont.shx
  0
STYLE
  5
22C
330
3
100
AcDbSymbolTableRecord
100
AcDbTextStyleTableRecord
  2

 70
     1
 40
0.0
 41
1.0
 50
0.0
 71
     0
 42
2.5
  3
genltshp.shx
  4

  0
STYLE
  5
2D7
330
3
100
AcDbSymbolTableRecord
100
AcDbTextStyleTableRecord
  2
ACDINTS
 70
     0
 40
1.0
 41
1.0
 50
0.0
 71
     0
 42
2.5
  3
isocp.shx
  4

  0
STYLE
  5
2E4
330
3
100
AcDbSymbolTableRecord
100
AcDbTextStyleTableRecord
  2
ACDINGDT
 70
     0
 40
0.0
 41
1.0
 50
0.0
 71
     0
 42
2.5
  3
AMGDT
  4

  0
ENDTAB
  0
TABLE
  2
VIEW
  5
6
330
0
100
AcDbSymbolTable
 70
     0
  0
ENDTAB
  0
TABLE
  2
UCS
  5
7
330
0
100
AcDbSymbolTable
 70
     0
  0
ENDTAB
  0
TABLE
  2
APPID
  5
9
330
0
100
AcDbSymbolTable
 70
    14
  0
APPID
  5
12
330
9
100
AcDbSymbolTableRecord
100
AcDbRegAppTableRecord
  2
ACAD
 70
     0
  0
APPID
  5
46
330
9
100
AcDbSymbolTableRecord
100
AcDbRegAppTableRecord
  2
MCAD_NO_VIS
 70
     0
  0
APPID
  5
47
330
9
100
AcDbSymbolTableRecord
100
AcDbRegAppTableRecord
  2
ACAD_TEMP_GRAPHIC
 70
     0
  0
APPID
  5
58
330
9
100
AcDbSymbolTableRecord
100
AcDbRegAppTableRecord
  2
ACATTRIBSERVICES
 70
     0
  0
APPID
  5
EE
330
9
100
AcDbSymbolTableRecord
100
AcDbRegAppTableRecord
  2
AD_DRAW
 70
     0
  0
APPID
  5
10C
330
9
100
AcDbSymbolTableRecord
100
AcDbRegAppTableRecord
  2
DESIGNERASSEMBLIES
 70
     0
  0
APPID
  5
111
330
9
100
AcDbSymbolTableRecord
100
AcDbRegAppTableRecord
  2
ACADM_DIM_EDIT
 70
     0
  0
APPID
  5
112
330
9
100
AcDbSymbolTableRecord
100
AcDbRegAppTableRecord
  2
AMDT_DM_ADJ
 70
     0
  0
APPID
  5
1A3
330
9
100
AcDbSymbolTableRecord
100
AcDbRegAppTableRecord
  2
ACAD_DSTYLE_DIMARC_LENGTH_SYMBOL
 70
     0
  0
APPID
  5
1A4
330
9
100
AcDbSymbolTableRecord
100
AcDbRegAppTableRecord
  2
ACAD_DSTYLE_DIMJOGGED_JOGANGLE_SYMBOL
 70
     0
  0
APPID
  5
3F1
330
9
100
AcDbSymbolTableRecord
100
AcDbRegAppTableRecord
  2
ACAD_MLEADERVER
 70
     0
  0
APPID
  5
608
330
9
100
AcDbSymbolTableRecord
100
AcDbRegAppTableRecord
  2
ACAD_DSTYLE_DIMJAG
 70
     0
  0
APPID
  5
609
330
9
100
AcDbSymbolTableRecord
100
AcDbRegAppTableRecord
  2
ACAD_DSTYLE_DIMBREAK
 70
     0
  0
APPID
  5
9EE
330
9
100
AcDbSymbolTableRecord
100
AcDbRegAppTableRecord
  2
ACAD_EXEMPT_FROM_CAD_STANDARDS
 70
     0
  0
ENDTAB
  0
TABLE
  2
DIMSTYLE
  5
A
330
0
100
AcDbSymbolTable
 70
    17
100
AcDbDimStyleTable
 71
     2
340
2F0
340
81
  0
DIMSTYLE
105
27
330
A
100
AcDbSymbolTableRecord
100
AcDbDimStyleTableRecord
  2
ISO-25
 70
     0
 41
2.5
 42
0.625
 43
3.75
 44
1.25
 73
     0
 74
     0
 77
     1
 78
     8
140
2.5
141
2.5
143
0.03937007874016
147
0.625
171
     3
172
     1
271
     2
272
     2
274
     3
278
    44
283
     0
284
     8
340
11
  0
DIMSTYLE
105
81
330
A
100
AcDbSymbolTableRecord
100
AcDbDimStyleTableRecord
  2
AM_ISO
 70
     0
  4
"
 41
2.5
 42
1.0
 43
10.0
 44
1.0
 47
0.1
 48
0.1
 73
     0
 74
     0
 77
     1
 78
     8
 79
     2
140
3.5
141
0.0
143
0.0393701
146
0.71
147
1.5
172
     1
176
   256
177
   256
178
     2
271
     2
272
     3
274
     4
283
     0
284
     8
340
11
371
    -1
372
    -1
1001
ACAD_DSTYLE_DIMJOGGED_JOGANGLE_SYMBOL
1070
   384
1040
0.7853981633974483
1001
ACAD_DSTYLE_DIMARC_LENGTH_SYMBOL
1070
   379
1070
     1
  0
DIMSTYLE
105
82
330
A
100
AcDbSymbolTableRecord
100
AcDbDimStyleTableRecord
  2
AM_ISO$3
 70
     0
  4
"
 41
2.5
 42
1.0
 43
10.0
 44
1.0
 47
0.1
 48
0.1
 73
     0
 77
     1
 78
     8
 79
     2
140
3.5
141
0.0
143
0.0393701
146
0.71
147
1.5
176
   256
177
   256
178
     2
271
     2
272
     3
274
     4
283
     0
284
     8
288
     1
289
     0
340
11
371
    -1
372
    -1
1001
ACAD_DSTYLE_DIMJOGGED_JOGANGLE_SYMBOL
1070
   384
1040
0.7853981633974483
1001
ACAD_DSTYLE_DIMARC_LENGTH_SYMBOL
1070
   379
1070
     1
  0
DIMSTYLE
105
83
330
A
100
AcDbSymbolTableRecord
100
AcDbDimStyleTableRecord
  2
AM_ISO$4
 70
     0
  4
"
 41
2.5
 42
1.0
 43
10.0
 44
1.0
 47
0.1
 48
0.1
 73
     0
 77
     1
 78
     8
 79
     2
140
3.5
141
0.0
143
0.0393701
146
0.71
147
1.5
176
   256
177
   256
178
     2
271
     2
272
     3
274
     4
283
     0
284
     8
288
     1
289
     0
340
11
371
    -1
372
    -1
1001
ACAD_DSTYLE_DIMJOGGED_JOGANGLE_SYMBOL
1070
   384
1040
0.7853981633974483
1001
ACAD_DSTYLE_DIMARC_LENGTH_SYMBOL
1070
   379
1070
     1
  0
DIMSTYLE
105
84
330
A
100
AcDbSymbolTableRecord
100
AcDbDimStyleTableRecord
  2
AM_ISO$6
 70
     0
  4
"
 41
2.5
 42
1.0
 43
10.0
 44
1.0
 47
0.1
 48
0.1
 73
     0
 74
     0
 78
     8
 79
     2
140
3.5
141
0.0
143
0.0393701
146
0.71
147
1.5
172
     1
176
   256
177
   256
178
     2
271
     2
272
     3
274
     4
283
     0
284
     8
340
11
371
    -1
372
    -1
1001
ACAD_DSTYLE_DIMJOGGED_JOGANGLE_SYMBOL
1070
   384
1040
0.7853981633974483
1001
ACAD_DSTYLE_DIMARC_LENGTH_SYMBOL
1070
   379
1070
     1
  0
DIMSTYLE
105
85
330
A
100
AcDbSymbolTableRecord
100
AcDbDimStyleTableRecord
  2
AM_ISO$7
 70
     0
  4
"
 41
2.5
 42
1.0
 43
10.0
 44
1.0
 47
0.1
 48
0.1
 73
     0
 74
     0
 77
     1
 78
     8
 79
     2
140
5.0
141
0.0
143
0.0393701
146
0.71
147
1.5
172
     1
176
   256
177
   256
178
     2
271
     2
272
     3
274
     4
283
     0
284
     8
340
11
371
    -1
372
    -1
1001
ACAD_DSTYLE_DIMJOGGED_JOGANGLE_SYMBOL
1070
   384
1040
0.7853981633974483
1001
ACAD_DSTYLE_DIMARC_LENGTH_SYMBOL
1070
   379
1070
     1
  0
DIMSTYLE
105
86
330
A
100
AcDbSymbolTableRecord
100
AcDbDimStyleTableRecord
  2
AM_ISO$SF
 70
     0
  4
"
 41
2.5
 42
1.0
 43
10.0
 44
1.0
 47
0.1
 48
0.1
 73
     0
 74
     0
 75
     1
 76
     1
 77
     1
 78
     8
 79
     2
140
3.5
141
0.0
143
0.0393701
146
0.71
147
1.5
172
     1
176
   256
177
   256
178
     2
271
     2
272
     3
274
     4
283
     0
284
     8
340
11
371
    -1
372
    -1
1001
ACAD_DSTYLE_DIMJOGGED_JOGANGLE_SYMBOL
1070
   384
1040
0.7853981633974483
1001
ACAD_DSTYLE_DIMARC_LENGTH_SYMBOL
1070
   379
1070
     1
  0
DIMSTYLE
105
8B
330
A
100
AcDbSymbolTableRecord
100
AcDbDimStyleTableRecord
  2
AM_ISO$SH
 70
     0
  4
"
 41
2.5
 42
1.0
 43
10.0
 44
1.0
 47
0.1
 48
0.1
 73
     0
 74
     0
 75
     1
 76
     1
 77
     1
 78
     8
 79
     2
140
3.5
141
0.0
143
0.0393701
144
2.0
146
0.71
147
1.5
172
     1
173
     1
176
   256
177
   256
178
     2
271
     2
272
     3
274
     4
283
     0
284
     8
340
11
343
87
371
    -1
372
    -1
1001
ACAD_DSTYLE_DIMJOGGED_JOGANGLE_SYMBOL
1070
   384
1040
0.7853981633974483
1001
ACAD_DSTYLE_DIMARC_LENGTH_SYMBOL
1070
   379
1070
     1
  0
DIMSTYLE
105
2F0
330
A
100
AcDbSymbolTableRecord
100
AcDbDimStyleTableRecord
  2
AM_DIN
 70
     0
  4
"
 41
2.5
 42
1.0
 43
10.0
 44
1.0
 47
0.1
 48
0.1
 73
     0
 74
     0
 77
     1
 78
     8
 79
     2
140
3.5
141
0.0
143
0.0393701
146
0.71
147
1.5
172
     1
176
   256
177
   256
178
     2
271
     2
272
     3
274
     4
283
     0
284
     8
340
11
371
    -1
372
    -1
1001
ACAD_DSTYLE_DIMJOGGED_JOGANGLE_SYMBOL
1070
   384
1040
1.570796326794896
  0
DIMSTYLE
105
301
330
A
100
AcDbSymbolTableRecord
100
AcDbDimStyleTableRecord
  2
AM_DIN$3
 70
     0
  4
"
 41
2.5
 42
1.0
 43
10.0
 44
1.0
 47
0.1
 48
0.1
 73
     0
 77
     1
 78
     8
 79
     2
140
3.5
141
0.0
143
0.0393701
146
0.71
147
1.5
176
   256
177
   256
178
     2
271
     2
272
     3
274
     4
283
     0
284
     8
288
     1
289
     0
340
11
371
    -1
372
    -1
1001
ACAD_DSTYLE_DIMJOGGED_JOGANGLE_SYMBOL
1070
   384
1040
1.570796326794896
  0
DIMSTYLE
105
306
330
A
100
AcDbSymbolTableRecord
100
AcDbDimStyleTableRecord
  2
AM_DIN$4
 70
     0
  4
"
 41
2.5
 42
1.0
 43
10.0
 44
1.0
 47
0.1
 48
0.1
 73
     0
 77
     1
 78
     8
 79
     2
140
3.5
141
0.0
143
0.0393701
146
0.71
147
1.5
176
   256
177
   256
178
     2
271
     2
272
     3
274
     4
283
     0
284
     8
288
     1
289
     0
340
11
371
    -1
372
    -1
1001
ACAD_DSTYLE_DIMJOGGED_JOGANGLE_SYMBOL
1070
   384
1040
1.570796326794896
  0
DIMSTYLE
105
30B
330
A
100
AcDbSymbolTableRecord
100
AcDbDimStyleTableRecord
  2
AM_DIN$6
 70
     0
  4
"
 41
2.5
 42
1.0
 43
10.0
 44
1.0
 47
0.1
 48
0.1
 73
     0
 74
     0
 78
     8
 79
     2
140
3.5
141
0.0
143
0.0393701
146
0.71
147
1.5
172
     1
176
   256
177
   256
178
     2
271
     2
272
     3
274
     4
283
     0
284
     8
340
11
371
    -1
372
    -1
1001
ACAD_DSTYLE_DIMJOGGED_JOGANGLE_SYMBOL
1070
   384
1040
1.570796326794896
  0
DIMSTYLE
105
310
330
A
100
AcDbSymbolTableRecord
100
AcDbDimStyleTableRecord
  2
AM_DIN$7
 70
     0
  4
"
 41
2.5
 42
1.0
 43
10.0
 44
1.0
 47
0.1
 48
0.1
 73
     0
 74
     0
 77
     1
 78
     8
 79
     2
140
5.0
141
0.0
143
0.0393701
146
0.71
147
1.5
172
     1
176
   256
177
   256
178
     2
271
     2
272
     3
274
     4
283
     0
284
     8
340
11
371
    -1
372
    -1
1001
ACAD_DSTYLE_DIMJOGGED_JOGANGLE_SYMBOL
1070
   384
1040
1.570796326794896
  0
DIMSTYLE
105
315
330
A
100
AcDbSymbolTableRecord
100
AcDbDimStyleTableRecord
  2
AM_DIN$SF
 70
     0
  4
"
 41
2.5
 42
1.0
 43
10.0
 44
1.0
 47
0.1
 48
0.1
 73
     0
 74
     0
 75
     1
 76
     1
 77
     1
 78
     8
 79
     2
140
3.5
141
0.0
143
0.0393701
146
0.71
147
1.5
172
     1
176
   256
177
   256
178
     2
271
     2
272
     3
274
     4
283
     0
284
     8
340
11
371
    -1
372
    -1
1001
ACAD_DSTYLE_DIMJOGGED_JOGANGLE_SYMBOL
1070
   384
1040
1.570796326794896
  0
DIMSTYLE
105
31A
330
A
100
AcDbSymbolTableRecord
100
AcDbDimStyleTableRecord
  2
AM_DIN$SH
 70
     0
  4
"
 41
2.5
 42
1.0
 43
10.0
 44
1.0
 47
0.1
 48
0.1
 73
     0
 74
     0
 75
     1
 76
     1
 77
     1
 78
     8
 79
     2
140
3.5
141
0.0
143
0.0393701
144
2.0
146
0.71
147
1.5
172
     1
173
     1
176
   256
177
   256
178
     2
271
     2
272
     3
274
     4
283
     0
284
     8
340
11
343
87
371
    -1
372
    -1
1001
ACAD_DSTYLE_DIMJOGGED_JOGANGLE_SYMBOL
1070
   384
1040
1.570796326794896
  0
DIMSTYLE
105
607
330
A
100
AcDbSymbolTableRecord
100
AcDbDimStyleTableRecord
  2
STANDARD
 70
     0
 41
3.5
 47
0.005
 48
0.005
 71
     1
 73
     0
 74
     0
 77
     1
 78
     8
140
3.5
178
     5
271
     3
272
     3
284
     8
340
11
341
5DD
342
5DD
343
5DD
344
5DD
  0
ENDTAB
  0
TABLE
  2
BLOCK_RECORD
  5
1
330
0
100
AcDbSymbolTable
 70
    13
  0
BLOCK_RECORD
  5
1F
102
{ACAD_XDICTIONARY
360
8F
102
}
330
1
100
AcDbSymbolTableRecord
100
AcDbBlockTableRecord
  2
*Model_Space
340
22
  0
BLOCK_RECORD
  5
1B
330
1
100
AcDbSymbolTableRecord
100
AcDbBlockTableRecord
  2
*Paper_Space
340
1E
  0
BLOCK_RECORD
  5
23
330
1
100
AcDbSymbolTableRecord
100
AcDbBlockTableRecord
  2
*Paper_Space0
340
26
  0
BLOCK_RECORD
  5
87
330
1
100
AcDbSymbolTableRecord
100
AcDbBlockTableRecord
  2
GENAXEH
340
0
  0
BLOCK_RECORD
  5
5DD
330
1
100
AcDbSymbolTableRecord
100
AcDbBlockTableRecord
  2
_FILLED
340
0
  0
BLOCK_RECORD
  5
5E1
330
1
100
AcDbSymbolTableRecord
100
AcDbBlockTableRecord
  2
BALLOON_BL7
340
0
102
{BLKREFS
331
621
102
}
  0
BLOCK_RECORD
  5
5E6
330
1
100
AcDbSymbolTableRecord
100
AcDbBlockTableRecord
  2
BALLOON_BL6
340
0
102
{BLKREFS
331
61F
102
}
  0
BLOCK_RECORD
  5
5EB
330
1
100
AcDbSymbolTableRecord
100
AcDbBlockTableRecord
  2
BALLOON_BL5
340
0
102
{BLKREFS
331
61D
102
}
  0
BLOCK_RECORD
  5
5F0
330
1
100
AcDbSymbolTableRecord
100
AcDbBlockTableRecord
  2
BALLOON_BL4
340
0
102
{BLKREFS
331
61B
102
}
  0
BLOCK_RECORD
  5
5F5
330
1
100
AcDbSymbolTableRecord
100
AcDbBlockTableRecord
  2
BALLOON_BL3
340
0
102
{BLKREFS
331
619
102
}
  0
BLOCK_RECORD
  5
5FA
330
1
100
AcDbSymbolTableRecord
100
AcDbBlockTableRecord
  2
BALLOON_BL2
340
0
102
{BLKREFS
331
617
102
}
  0
BLOCK_RECORD
  5
5FF
330
1
100
AcDbSymbolTableRecord
100
AcDbBlockTableRecord
  2
BALLOON_BL1
340
0
102
{BLKREFS
331
615
102
}
  0
ENDTAB
  0
ENDSEC
  0
SECTION
  2
BLOCKS
  0
BLOCK
  5
20
330
1F
100
AcDbEntity
  8
0
100
AcDbBlockBegin
  2
*Model_Space
 70
     0
 10
0.0
 20
0.0
 30
0.0
  3
*Model_Space
  1

  0
ENDBLK
  5
21
330
1F
100
AcDbEntity
  8
0
100
AcDbBlockEnd
  0
BLOCK
  5
1C
330
1B
100
AcDbEntity
 67
     1
  8
0
100
AcDbBlockBegin
  2
*Paper_Space
 70
     0
 10
0.0
 20
0.0
 30
0.0
  3
*Paper_Space
  1

  0
ENDBLK
  5
1D
330
1B
100
AcDbEntity
 67
     1
  8
0
100
AcDbBlockEnd
  0
BLOCK
  5
24
330
23
100
AcDbEntity
 67
     1
  8
0
100
AcDbBlockBegin
  2
*Paper_Space0
 70
     0
 10
0.0
 20
0.0
 30
0.0
  3
*Paper_Space0
  1

  0
ENDBLK
  5
25
330
23
100
AcDbEntity
 67
     1
  8
0
100
AcDbBlockEnd
  0
BLOCK
  5
89
330
87
100
AcDbEntity
  8
0
100
AcDbBlockBegin
  2
GENAXEH
 70
     0
 10
0.0
 20
0.0
 30
0.0
  3
GENAXEH
  1

  0
LINE
  5
88
330
87
100
AcDbEntity
  8
0
100
AcDbLine
 10
-1.0
 20
0.0
 30
0.0
 11
1.0
 21
0.0
 31
0.0
  0
ENDBLK
  5
8A
330
87
100
AcDbEntity
  8
0
100
AcDbBlockEnd
  0
BLOCK
  5
5DE
330
5DD
100
AcDbEntity
  8
0
100
AcDbBlockBegin
  2
_FILLED
 70
     0
 10
0.0
 20
0.0
 30
0.0
  3
_FILLED
  1

  0
SOLID
  5
5DF
330
5DD
100
AcDbEntity
  8
0
  6
ByBlock
 62
     0
100
AcDbTrace
 10
0.0
 20
0.0
 30
0.0
 11
-1.0
 21
0.125
 31
0.0
 12
-1.0
 22
-0.125
 32
0.0
 13
-1.0
 23
-0.125
 33
0.0
  0
ENDBLK
  5
5E0
330
5DD
100
AcDbEntity
  8
0
  6
ByBlock
 62
     0
100
AcDbBlockEnd
  0
BLOCK
  5
5E2
330
5E1
100
AcDbEntity
  8
0
  6
Continuous
 62
     2
100
AcDbBlockBegin
  2
BALLOON_BL7
 70
     0
 10
161.8080171009
 20
93.0320015112
 30
0.0
  3
BALLOON_BL7
  1

  0
CIRCLE
  5
5E3
330
5E1
100
AcDbEntity
  8
0
  6
Continuous
 62
     2
100
AcDbCircle
 10
161.8080171009
 20
93.0320015112
 30
0.0
 40
4.1955884318
  0
MTEXT
  5
5E4
330
5E1
100
AcDbEntity
  8
0
  6
Continuous
 62
     5
100
AcDbMText
 10
160.0996837676
 20
94.78200151120001
 30
0.0
 40
3.5
 41
3.4166666667
 71
     1
 72
     1
  1
7
 73
     1
 44
0.9
1001
ACAD
1000
MTEXTBEGIN
1070
    73
1070
     1
1070
    44
1040
0.9
1070
    74
1070
     0
1000
MTEXTEND
  0
ENDBLK
  5
5E5
330
5E1
100
AcDbEntity
  8
0
  6
ByBlock
 62
     0
100
AcDbBlockEnd
  0
BLOCK
  5
5E7
330
5E6
100
AcDbEntity
  8
0
  6
Continuous
 62
     2
100
AcDbBlockBegin
  2
BALLOON_BL6
 70
     0
 10
146.0565642433
 20
39.7755424351
 30
0.0
  3
BALLOON_BL6
  1

  0
CIRCLE
  5
5E8
330
5E6
100
AcDbEntity
  8
0
  6
Continuous
 62
     2
100
AcDbCircle
 10
146.0565642433
 20
39.7755424351
 30
0.0
 40
4.1955884318
  0
MTEXT
  5
5E9
330
5E6
100
AcDbEntity
  8
0
  6
Continuous
 62
     5
100
AcDbMText
 10
144.34823091
 20
41.5255424351
 30
0.0
 40
3.5
 41
3.4166666667
 71
     1
 72
     1
  1
6
 73
     1
 44
0.9
1001
ACAD
1000
MTEXTBEGIN
1070
    73
1070
     1
1070
    44
1040
0.9
1070
    74
1070
     0
1000
MTEXTEND
  0
ENDBLK
  5
5EA
330
5E6
100
AcDbEntity
  8
0
  6
ByBlock
 62
     0
100
AcDbBlockEnd
  0
BLOCK
  5
5EC
330
5EB
100
AcDbEntity
  8
0
  6
Continuous
 62
     2
100
AcDbBlockBegin
  2
BALLOON_BL5
 70
     0
 10
166.6354407859
 20
136.4388470006
 30
0.0
  3
BALLOON_BL5
  1

  0
CIRCLE
  5
5ED
330
5EB
100
AcDbEntity
  8
0
  6
Continuous
 62
     2
100
AcDbCircle
 10
166.6354407859
 20
136.4388470006
 30
0.0
 40
4.1099670431
  0
MTEXT
  5
5EE
330
5EB
100
AcDbEntity
  8
0
  6
Continuous
 62
     5
100
AcDbMText
 10
165.0521074526
 20
138.1888470006
 30
0.0
 40
3.5
 41
3.1666666667
 71
     1
 72
     1
  1
5
 73
     1
 44
0.9
1001
ACAD
1000
MTEXTBEGIN
1070
    73
1070
     1
1070
    44
1040
0.9
1070
    74
1070
     0
1000
MTEXTEND
  0
ENDBLK
  5
5EF
330
5EB
100
AcDbEntity
  8
0
  6
ByBlock
 62
     0
100
AcDbBlockEnd
  0
BLOCK
  5
5F1
330
5F0
100
AcDbEntity
  8
0
  6
Continuous
 62
     2
100
AcDbBlockBegin
  2
BALLOON_BL4
 70
     0
 10
82.23341870749999
 20
267.1232021971
 30
0.0
  3
BALLOON_BL4
  1

  0
CIRCLE
  5
5F2
330
5F0
100
AcDbEntity
  8
0
  6
Continuous
 62
     2
100
AcDbCircle
 10
82.23341870749999
 20
267.1232021971
 30
0.0
 40
4.1955884318
  0
MTEXT
  5
5F3
330
5F0
100
AcDbEntity
  8
0
  6
Continuous
 62
     5
100
AcDbMText
 10
80.5250853741
 20
268.8732021971
 30
0.0
 40
3.5
 41
3.4166666667
 71
     1
 72
     1
  1
4
 73
     1
 44
0.9
1001
ACAD
1000
MTEXTBEGIN
1070
    73
1070
     1
1070
    44
1040
0.9
1070
    74
1070
     0
1000
MTEXTEND
  0
ENDBLK
  5
5F4
330
5F0
100
AcDbEntity
  8
0
  6
ByBlock
 62
     0
100
AcDbBlockEnd
  0
BLOCK
  5
5F6
330
5F5
100
AcDbEntity
  8
0
  6
Continuous
 62
     2
100
AcDbBlockBegin
  2
BALLOON_BL3
 70
     0
 10
170.6813272325
 20
265.2151256202
 30
0.0
  3
BALLOON_BL3
  1

  0
CIRCLE
  5
5F7
330
5F5
100
AcDbEntity
  8
0
  6
Continuous
 62
     2
100
AcDbCircle
 10
170.6813272325
 20
265.2151256202
 30
0.0
 40
4.1099670431
  0
MTEXT
  5
5F8
330
5F5
100
AcDbEntity
  8
0
  6
Continuous
 62
     5
100
AcDbMText
 10
169.0979938992
 20
266.9651256202
 30
0.0
 40
3.5
 41
3.1666666667
 71
     1
 72
     1
  1
3
 73
     1
 44
0.9
1001
ACAD
1000
MTEXTBEGIN
1070
    73
1070
     1
1070
    44
1040
0.9
1070
    74
1070
     0
1000
MTEXTEND
  0
ENDBLK
  5
5F9
330
5F5
100
AcDbEntity
  8
0
  6
ByBlock
 62
     0
100
AcDbBlockEnd
  0
BLOCK
  5
5FB
330
5FA
100
AcDbEntity
  8
0
  6
Continuous
 62
     2
100
AcDbBlockBegin
  2
BALLOON_BL2
 70
     0
 10
70.80603282289999
 20
120.7125618161
 30
0.0
  3
BALLOON_BL2
  1

  0
CIRCLE
  5
5FC
330
5FA
100
AcDbEntity
  8
0
  6
Continuous
 62
     2
100
AcDbCircle
 10
70.80603282289999
 20
120.7125618161
 30
0.0
 40
4.1955884318
  0
MTEXT
  5
5FD
330
5FA
100
AcDbEntity
  8
0
  6
Continuous
 62
     5
100
AcDbMText
 10
69.09769948960001
 20
122.4625618161
 30
0.0
 40
3.5
 41
3.4166666667
 71
     1
 72
     1
  1
2
 73
     1
 44
0.9
1001
ACAD
1000
MTEXTBEGIN
1070
    73
1070
     1
1070
    44
1040
0.9
1070
    74
1070
     0
1000
MTEXTEND
  0
ENDBLK
  5
5FE
330
5FA
100
AcDbEntity
  8
0
  6
ByBlock
 62
     0
100
AcDbBlockEnd
  0
BLOCK
  5
600
330
5FF
100
AcDbEntity
  8
0
  6
Continuous
 62
     2
100
AcDbBlockBegin
  2
BALLOON_BL1
 70
     0
 10
180.872868899
 20
211.5835769012
 30
0.0
  3
BALLOON_BL1
  1

  0
CIRCLE
  5
601
330
5FF
100
AcDbEntity
  8
0
  6
Continuous
 62
     2
100
AcDbCircle
 10
180.872868899
 20
211.5835769012
 30
0.0
 40
3.9500631304
  0
MTEXT
  5
602
330
5FF
100
AcDbEntity
  8
0
  6
Continuous
 62
     5
100
AcDbMText
 10
179.5395355656
 20
213.3335769012
 30
0.0
 40
3.5
 41
2.666666666699999
 71
     1
 72
     1
  1
1
 73
     1
 44
0.9
1001
ACAD
1000
MTEXTBEGIN
1070
    73
1070
     1
1070
    44
1040
0.9
1070
    74
1070
     0
1000
MTEXTEND
  0
ENDBLK
  5
603
330
5FF
100
AcDbEntity
  8
0
  6
ByBlock
 62
     0
100
AcDbBlockEnd
  0
ENDSEC
  0
SECTION
  2
ENTITIES
  0
HATCH
  5
7FE
330
1F
100
AcDbEntity
  8
0
  6
Continuous
 62
     1
100
AcDbHatch
 10
0.0
 20
0.0
 30
0.0
210
0.0
220
0.0
230
1.0
  2
DEFAULT__1
 70
     0
 71
     0
 91
        2
 92
        1
 93
        4
 72
     1
 10
43.40273187775369
 20
19.13609788953162
 11
51.75273187775369
 21
19.13609788953162
 72
     1
 10
43.40273187775369
 20
19.13609788953162
 11
43.40273187775369
 21
19.93609788953161
 72
     1
 10
43.40273187775369
 20
19.93609788953161
 11
51.75273187775369
 21
19.93609788953161
 72
     1
 10
51.75273187775369
 20
19.13609788953162
 11
51.75273187775369
 21
19.93609788953161
 97
        0
 92
        1
 93
        4
 72
     1
 10
91.0527318777537
 20
19.13609788953162
 11
99.40273187775369
 21
19.13609788953162
 72
     1
 10
91.0527318777537
 20
19.13609788953162
 11
91.0527318777537
 21
19.93609788953161
 72
     1
 10
91.0527318777537
 20
19.93609788953161
 11
99.40273187775369
 21
19.93609788953161
 72
     1
 10
99.40273187775369
 20
19.13609788953162
 11
99.40273187775369
 21
19.93609788953161
 97
        0
 75
     0
 76
     0
 52
135.0
 41
2.216360089
 77
     0
 78
     1
 53
45.0
 43
-47.1421640037463
 44
-35.57995409096839
 45
-0.3712310600999999
 46
0.3712310600999999
 79
     0
 98
        1
 10
-47.1421640037463
 20
-35.57995409096839
1001
ACAD
1010
0.0
1020
0.0
1030
0.0
  0
HATCH
  5
7FF
330
1F
100
AcDbEntity
  8
0
  6
Continuous
 62
     1
100
AcDbHatch
 10
0.0
 20
0.0
 30
0.0
210
0.0
220
0.0
230
1.0
  2
DEFAULT__2
 70
     0
 71
     0
 91
        1
 92
        1
 93
       30
 72
     1
 10
119.3608454932537
 20
133.0080847838316
 11
113.3937758532537
 21
133.0080847838316
 72
     4
 94
        3
 73
     1
 74
     0
 95
        8
 96
        4
 40
0.0
 40
0.0
 40
0.0
 40
0.0
 40
1.0
 40
1.0
 40
1.0
 40
1.0
 10
112.8938520056537
 20
133.4993585806316
 42
1.0
 10
112.8988932373537
 20
133.2105466074316
 42
0.8088336328
 10
113.1049198858537
 20
133.0080847838316
 42
0.8088336328
 10
113.3937758532537
 20
133.0080847838316
 42
1.0
 72
     1
 10
112.8938520056537
 20
133.4993585806316
 11
111.7339966748537
 21
199.9474259800316
 72
     4
 94
        3
 73
     1
 74
     0
 95
        8
 96
        4
 40
0.0
 40
0.0
 40
0.0
 40
0.0
 40
1.0
 40
1.0
 40
1.0
 40
1.0
 10
111.7339966748537
 20
199.9474259800316
 42
1.0
 10
111.6883411884536
 20
202.5630270443316
 42
0.8363117215999999
 10
109.9371790320537
 20
204.5064478564316
 42
0.8363117215999999
 10
107.3404443616537
 20
204.8233427953316
 42
1.0
 72
     4
 94
        3
 73
     1
 74
     0
 95
        8
 96
        4
 40
0.0
 40
0.0
 40
0.0
 40
0.0
 40
1.0
 40
1.0
 40
1.0
 40
1.0
 10
107.3404443616537
 20
204.8233427953316
 42
1.0
 10
95.4128189062537
 20
206.2789416994316
 42
0.9987714963
 10
83.41884677295368
 20
207.0080847838316
 42
0.9987714963
 10
71.4027318777537
 20
207.0080847838316
 42
1.0
 72
     4
 94
        3
 73
     1
 74
     0
 95
        8
 96
        4
 40
0.0
 40
0.0
 40
0.0
 40
0.0
 40
1.0
 40
1.0
 40
1.0
 40
1.0
 10
35.4650193938537
 20
204.8233427953316
 42
1.0
 10
47.39264484925368
 20
206.2789416994316
 42
0.9987714963
 10
59.38661698265369
 20
207.0080847838316
 42
0.9987714963
 10
71.4027318777537
 20
207.0080847838316
 42
1.0
 72
     4
 94
        3
 73
     1
 74
     0
 95
        8
 96
        4
 40
0.0
 40
0.0
 40
0.0
 40
0.0
 40
1.0
 40
1.0
 40
1.0
 40
1.0
 10
31.07146708065369
 20
199.9474259800316
 42
1.0
 10
31.1171225670537
 20
202.5630270443316
 42
0.8363117215999999
 10
32.8682847234537
 20
204.5064478564316
 42
0.8363117215999999
 10
35.4650193938537
 20
204.8233427953316
 42
1.0
 72
     1
 10
29.91161174985369
 20
133.4993585806316
 11
31.07146708065369
 21
199.9474259800316
 72
     4
 94
        3
 73
     1
 74
     0
 95
        8
 96
        4
 40
0.0
 40
0.0
 40
0.0
 40
0.0
 40
1.0
 40
1.0
 40
1.0
 40
1.0
 10
29.91161174985369
 20
133.4993585806316
 42
1.0
 10
29.9065705181537
 20
133.2105466074316
 42
0.8088336328
 10
29.7005438696537
 20
133.0080847838316
 42
0.8088336328
 10
29.41168790225371
 20
133.0080847838316
 42
1.0
 72
     1
 10
29.41168790225371
 20
133.0080847838316
 11
23.4446182622537
 21
133.0080847838316
 72
     2
 10
23.4434330354537
 20
134.0090746750316
 40
1.00087969
 50
179.0546681249
 51
270.0678413067
 73
     1
 72
     1
 10
22.4427949550537
 20
134.0255858546316
 11
22.4983068779537
 21
137.1913405144316
 72
     2
 10
23.50200487225371
 20
137.1724872722316
 40
1.003975280199999
 50
89.96569629299999
 51
178.9238952588
 73
     1
 72
     1
 10
26.8743353493537
 20
138.1765400661316
 11
23.50260601135371
 21
138.1765400661316
 72
     2
 10
26.87460839075369
 20
141.6577776871316
 40
3.4812376317
 50
269.9955061613
 51
273.1289308167
 73
     1
 72
     4
 94
        3
 73
     1
 74
     0
 95
        8
 96
        4
 40
0.0
 40
0.0
 40
0.0
 40
0.0
 40
1.0
 40
1.0
 40
1.0
 40
1.0
 10
27.0641176909537
 20
138.1817052507316
 42
1.0
 10
27.5818665883537
 20
138.2098046697316
 42
0.8367464662999999
 10
27.95440736795369
 20
138.5704525112316
 42
0.8367464662999999
 10
27.9992842337537
 20
139.0870176717316
 42
1.0
 72
     2
 10
24.01546823455369
 20
139.4324611674316
 40
3.998765421799999
 50
355.0441810055001
 51
359.0055755868
 73
     1
 72
     1
 10
28.01365841225371
 20
139.3630616868316
 11
29.13214003895371
 21
203.4408311683316
 72
     4
 94
        3
 73
     1
 74
     0
 95
        8
 96
        4
 40
0.0
 40
0.0
 40
0.0
 40
0.0
 40
1.0
 40
1.0
 40
1.0
 40
1.0
 10
29.13214003895371
 20
203.4408311682316
 42
1.0
 10
29.15926410685369
 20
204.9947679779316
 42
0.8388799791
 10
30.19281707885371
 20
206.1554675848316
 42
0.8388799791
 10
31.73322072565369
 20
206.3618941542316
 42
1.0
 72
     4
 94
        3
 73
     1
 74
     0
 95
        8
 96
        4
 40
0.0
 40
0.0
 40
0.0
 40
0.0
 40
1.0
 40
1.0
 40
1.0
 40
1.0
 10
71.4027318777537
 20
209.0080847838316
 42
1.0
 10
58.1305545406537
 20
209.0080847838316
 42
0.9985217056999998
 10
44.88780747935369
 20
208.1247153606316
 42
0.9985217056999998
 10
31.73322072565369
 20
206.3618941542316
 42
1.0
 72
     4
 94
        3
 73
     1
 74
     0
 95
        8
 96
        4
 40
0.0
 40
0.0
 40
0.0
 40
0.0
 40
1.0
 40
1.0
 40
1.0
 40
1.0
 10
71.4027318777537
 20
209.0080847838316
 42
1.0
 10
84.67490921485369
 20
209.0080847838316
 42
0.9985217056999998
 10
97.91765627615371
 20
208.1247153606316
 42
0.9985217056999998
 10
111.0722430299537
 20
206.3618941542316
 42
1.0
 72
     4
 94
        3
 73
     1
 74
     0
 95
        8
 96
        4
 40
0.0
 40
0.0
 40
0.0
 40
0.0
 40
1.0
 40
1.0
 40
1.0
 40
1.0
 10
113.6733237165537
 20
203.4408311682316
 42
1.0
 10
113.6461996486537
 20
204.9947679779316
 42
0.8388799791
 10
112.6126466766537
 20
206.1554675848316
 42
0.8388799791
 10
111.0722430299537
 20
206.3618941542316
 42
1.0
 72
     1
 10
114.7918077249537
 20
139.3629252403316
 11
113.6733237165537
 21
203.4408311683316
 72
     2
 10
118.7891100926537
 20
139.4323098587316
 40
3.997877307899999
 50
180.9944322674
 51
184.9543582008
 73
     1
 72
     4
 94
        3
 73
     1
 74
     0
 95
        8
 96
        4
 40
0.0
 40
0.0
 40
0.0
 40
0.0
 40
1.0
 40
1.0
 40
1.0
 40
1.0
 10
114.8061700862537
 20
139.0870446328316
 42
1.0
 10
114.8510363874537
 20
138.5704469496316
 42
0.8367326044
 10
115.2236019502537
 20
138.2097794395316
 42
0.8367326044
 10
115.7413833471537
 20
138.1816978378316
 42
1.0
 72
     2
 10
115.9307513796537
 20
141.6575950254316
 40
3.48105497
 50
266.8732372934
 51
270.0044858074
 73
     1
 72
     1
 10
115.9310239187537
 20
138.1765400661316
 11
119.3028577441537
 21
138.1765400661316
 72
     2
 10
119.3034590989537
 20
137.1724872448316
 40
1.003975175599999
 50
1.076106538999999
 51
90.0343160136
 73
     1
 72
     1
 10
120.3071568776536
 20
137.1913405144316
 11
120.3626688004537
 21
134.0255858546316
 72
     2
 10
119.3620304670537
 20
134.0090747274316
 40
1.0008798639
 50
269.9321731787
 51
360.9453286374
 73
     1
 97
        0
 75
     0
 76
     0
 52
135.0
 41
2.216360089
 77
     0
 78
     1
 53
135.0
 43
-47.1421640037463
 44
-35.57995409096839
 45
-1.5672032484
 46
-1.5672032484
 79
     0
 98
        1
 10
-47.1421640037463
 20
-35.57995409096839
  0
HATCH
  5
800
330
1F
100
AcDbEntity
  8
0
  6
Continuous
 62
     1
100
AcDbHatch
 10
0.0
 20
0.0
 30
0.0
210
0.0
220
0.0
230
1.0
  2
DEFAULT__3
 70
     0
 71
     0
 91
        2
 92
        1
 93
       12
 72
     1
 10
42.40273187775369
 20
19.13609788953162
 11
43.20273187775369
 21
19.13609788953162
 72
     1
 10
42.40273187775369
 20
19.13609788953162
 11
42.40273187775369
 21
88.13609788953161
 72
     4
 94
        3
 73
     1
 74
     0
 95
        8
 96
        4
 40
0.0
 40
0.0
 40
0.0
 40
0.0
 40
1.0
 40
1.0
 40
1.0
 40
1.0
 10
42.40273187775369
 20
88.13609788953161
 42
1.0
 10
42.40273187775369
 20
88.72188432713159
 42
0.8047378541
 10
42.81694544015366
 20
89.13609788953161
 42
0.8047378541
 10
43.4027318778537
 20
89.13609788953161
 42
1.0
 72
     1
 10
43.40273187775369
 20
89.13609788953161
 11
46.4340658437537
 21
89.13609788953161
 72
     4
 94
        3
 73
     1
 74
     0
 95
        8
 96
        4
 40
0.0
 40
0.0
 40
0.0
 40
0.0
 40
1.0
 40
1.0
 40
1.0
 40
1.0
 10
52.4339835972537
 20
83.16751367253161
 42
1.0
 10
52.41565696805371
 20
86.66761003563159
 42
0.8059703714000001
 10
49.93421018605369
 20
89.13609788953161
 42
0.8059703714000001
 10
46.4340658437537
 20
89.13609788953161
 42
1.0
 72
     1
 10
52.4339835972537
 20
83.16751367253161
 11
52.76925437015369
 21
19.13609788953161
 72
     1
 10
51.9650655416537
 20
19.13609788953162
 11
52.76925437015369
 21
19.13609788953162
 72
     1
 10
51.6339835972537
 20
82.36751367253161
 11
51.9650655416537
 21
19.13609788953162
 72
     4
 94
        3
 73
     1
 74
     0
 95
        8
 96
        4
 40
0.0
 40
0.0
 40
0.0
 40
0.0
 40
1.0
 40
1.0
 40
1.0
 40
1.0
 10
51.6339835972537
 20
82.36751367253161
 42
1.0
 10
51.61565696805371
 20
85.86761003563161
 42
0.8059703714000001
 10
49.13421018605369
 20
88.33609788953159
 42
0.8059703714000001
 10
45.6340658437537
 20
88.33609788953159
 42
1.0
 72
     1
 10
44.20273187775369
 20
88.33609788953159
 11
45.6340658437537
 21
88.33609788953159
 72
     4
 94
        3
 73
     1
 74
     0
 95
        8
 96
        4
 40
0.0
 40
0.0
 40
0.0
 40
0.0
 40
1.0
 40
1.0
 40
1.0
 40
1.0
 10
43.20273187775369
 20
87.3360978895316
 42
1.0
 10
43.20273187775369
 20
87.92188432713158
 42
0.8047378541
 10
43.61694544015366
 20
88.33609788953159
 42
0.8047378541
 10
44.20273187785369
 20
88.33609788953159
 42
1.0
 72
     1
 10
43.20273187775369
 20
19.13609788953162
 11
43.20273187775369
 21
87.3360978895316
 97
        0
 92
        1
 93
       12
 72
     1
 10
90.03620938535368
 20
19.13609788953162
 11
90.84039821385369
 21
19.13609788953162
 72
     1
 10
90.37148015825371
 20
83.16751367253161
 11
90.03620938535368
 21
19.13609788953161
 72
     4
 94
        3
 73
     1
 74
     0
 95
        8
 96
        4
 40
0.0
 40
0.0
 40
0.0
 40
0.0
 40
1.0
 40
1.0
 40
1.0
 40
1.0
 10
90.37148015825371
 20
83.16751367253161
 42
1.0
 10
90.38980678745371
 20
86.66761003563159
 42
0.8059703714000001
 10
92.87125356955369
 20
89.13609788953161
 42
0.8059703714000001
 10
96.3713979117537
 20
89.13609788953161
 42
1.0
 72
     1
 10
96.3713979117537
 20
89.13609788953161
 11
99.40273187775369
 21
89.13609788953161
 72
     4
 94
        3
 73
     1
 74
     0
 95
        8
 96
        4
 40
0.0
 40
0.0
 40
0.0
 40
0.0
 40
1.0
 40
1.0
 40
1.0
 40
1.0
 10
100.4027318777537
 20
88.13609788953161
 42
1.0
 10
100.4027318777537
 20
88.72188432713159
 42
0.8047378541
 10
99.9885183153537
 20
89.13609788953161
 42
0.8047378541
 10
99.40273187775369
 20
89.13609788953161
 42
1.0
 72
     1
 10
100.4027318777537
 20
19.13609788953162
 11
100.4027318777537
 21
88.13609788953161
 72
     1
 10
99.60273187775369
 20
19.13609788953162
 11
100.4027318777537
 21
19.13609788953162
 72
     1
 10
99.60273187775369
 20
19.13609788953162
 11
99.60273187775369
 21
87.3360978895316
 72
     4
 94
        3
 73
     1
 74
     0
 95
        8
 96
        4
 40
0.0
 40
0.0
 40
0.0
 40
0.0
 40
1.0
 40
1.0
 40
1.0
 40
1.0
 10
99.60273187775369
 20
87.3360978895316
 42
1.0
 10
99.60273187775369
 20
87.92188432713158
 42
0.8047378541
 10
99.1885183153537
 20
88.33609788953159
 42
0.8047378541
 10
98.60273187775369
 20
88.33609788953159
 42
1.0
 72
     1
 10
97.1713979117537
 20
88.33609788953159
 11
98.60273187775369
 21
88.33609788953159
 72
     4
 94
        3
 73
     1
 74
     0
 95
        8
 96
        4
 40
0.0
 40
0.0
 40
0.0
 40
0.0
 40
1.0
 40
1.0
 40
1.0
 40
1.0
 10
91.17148015825369
 20
82.36751367253161
 42
1.0
 10
91.18980678745371
 20
85.86761003563161
 42
0.8059703714000001
 10
93.67125356955371
 20
88.33609788953159
 42
0.8059703714000001
 10
97.1713979117537
 20
88.33609788953159
 42
1.0
 72
     1
 10
91.17148015825369
 20
82.36751367253161
 11
90.84039821385369
 21
19.13609788953162
 97
        0
 75
     0
 76
     0
 52
135.0
 41
2.216360089
 77
     0
 78
     1
 53
135.0
 43
-47.1421640037463
 44
-35.57995409096839
 45
-0.7424621201999999
 46
-0.7424621201999999
 79
     0
 98
        1
 10
-47.1421640037463
 20
-35.57995409096839
1001
ACAD
1010
0.0
1020
0.0
1030
0.0
  0
HATCH
  5
801
330
1F
100
AcDbEntity
  8
0
  6
Continuous
 62
     1
100
AcDbHatch
 10
0.0
 20
0.0
 30
0.0
210
0.0
220
0.0
230
1.0
  2
DEFAULT__4
 70
     0
 71
     0
 91
        2
 92
        1
 93
        6
 72
     1
 10
43.20273187775369
 20
19.93609788953161
 11
51.90273187775369
 21
19.93609788953161
 72
     1
 10
43.20273187775369
 20
19.93609788953161
 11
43.20273187775369
 21
87.13609788953162
 72
     4
 94
        3
 73
     1
 74
     0
 95
        8
 96
        4
 40
0.0
 40
0.0
 40
0.0
 40
0.0
 40
1.0
 40
1.0
 40
1.0
 40
1.0
 10
43.20273187775369
 20
87.13609788953162
 42
1.0
 10
43.20273187775369
 20
87.72188432713161
 42
0.8047378541
 10
43.61694544015366
 20
88.1360978895316
 42
0.8047378541
 10
44.20273187775369
 20
88.13609788953161
 42
1.0
 72
     1
 10
44.20273187775369
 20
88.13609788953161
 11
45.6312743404537
 21
88.13609788953161
 72
     4
 94
        3
 73
     1
 74
     0
 95
        8
 96
        4
 40
0.0
 40
0.0
 40
0.0
 40
0.0
 40
1.0
 40
1.0
 40
1.0
 40
1.0
 10
45.6312743404537
 20
88.13609788953161
 42
1.0
 10
49.13384532495371
 20
88.13609788953161
 42
0.8057651765999999
 10
51.61593442435369
 20
85.66481538773162
 42
0.8057651765999999
 10
51.6312172248537
 20
82.16227774523161
 42
1.0
 72
     1
 10
51.90273187775369
 20
19.93609788953161
 11
51.6312172248537
 21
82.16227774523161
 97
        0
 92
        1
 93
        6
 72
     1
 10
90.9027318777537
 20
19.93609788953161
 11
99.60273187775369
 21
19.93609788953161
 72
     1
 10
90.9027318777537
 20
19.93609788953161
 11
91.17424653075369
 21
82.16227774523161
 72
     4
 94
        3
 73
     1
 74
     0
 95
        8
 96
        4
 40
0.0
 40
0.0
 40
0.0
 40
0.0
 40
1.0
 40
1.0
 40
1.0
 40
1.0
 10
97.1741894150537
 20
88.13609788953161
 42
1.0
 10
93.6716184305537
 20
88.13609788953161
 42
0.8057651765999999
 10
91.1895293311537
 20
85.66481538773162
 42
0.8057651765999999
 10
91.17424653075369
 20
82.16227774523161
 42
1.0
 72
     1
 10
97.1741894150537
 20
88.13609788953161
 11
98.60273187775369
 21
88.13609788953161
 72
     4
 94
        3
 73
     1
 74
     0
 95
        8
 96
        4
 40
0.0
 40
0.0
 40
0.0
 40
0.0
 40
1.0
 40
1.0
 40
1.0
 40
1.0
 10
99.60273187775369
 20
87.13609788953162
 42
1.0
 10
99.60273187775369
 20
87.72188432713161
 42
0.8047378541
 10
99.1885183153537
 20
88.1360978895316
 42
0.8047378541
 10
98.60273187775369
 20
88.13609788953161
 42
1.0
 72
     1
 10
99.60273187775369
 20
19.93609788953161
 11
99.60273187775369
 21
87.13609788953162
 97
        0
 75
     0
 76
     0
 52
135.0
 41
2.216360089
 77
     0
 78
     1
 53
45.0
 43
-47.1421640037463
 44
-35.57995409096839
 45
-3.374901323
 46
3.374901323
 79
     0
 98
        1
 10
-47.1421640037463
 20
-35.57995409096839
1001
ACAD
1010
0.0
1020
0.0
1030
0.0
  0
HATCH
  5
802
330
1F
100
AcDbEntity
  8
0
  6
Continuous
 62
     1
100
AcDbHatch
 10
0.0
 20
0.0
 30
0.0
210
0.0
220
0.0
230
1.0
  2
DEFAULT__5
 70
     0
 71
     0
 91
        1
 92
        1
 93
       42
 72
     4
 94
        3
 73
     1
 74
     0
 95
        8
 96
        4
 40
0.0
 40
0.0
 40
0.0
 40
0.0
 40
1.0
 40
1.0
 40
1.0
 40
1.0
 10
71.4027318777537
 20
219.0434851683316
 42
1.0
 10
70.16427913185369
 20
219.0434851683316
 42
0.9999872101999999
 10
68.92585014525369
 20
219.0358138605316
 42
0.9999872101999999
 10
67.68749243565371
 20
219.0204715394316
 42
1.0
 72
     4
 94
        3
 73
     1
 74
     0
 95
        8
 96
        4
 40
0.0
 40
0.0
 40
0.0
 40
0.0
 40
1.0
 40
1.0
 40
1.0
 40
1.0
 10
71.4027318777537
 20
219.0434851683316
 42
1.0
 10
72.65482714545369
 20
219.0434851683316
 42
0.9999869268999999
 10
73.9068978599537
 20
219.0356439210316
 42
0.9999869268999999
 10
75.1588949160537
 20
219.0199617340316
 42
1.0
 72
     2
 10
75.1601499895537
 20
219.1199565652316
 40
0.1000023156
 50
269.2806519081
 51
359.9984409128
 73
     1
 72
     1
 10
75.26015540265369
 20
219.1199536918316
 11
75.26015540245371
 21
219.2173907524316
 72
     2
 10
75.36015455235371
 20
219.2173854868316
 40
0.1000049051
 50
89.2427939419
 51
179.996983172
 73
     1
 72
     4
 94
        3
 73
     1
 74
     0
 95
        8
 96
        4
 40
0.0
 40
0.0
 40
0.0
 40
0.0
 40
1.0
 40
1.0
 40
1.0
 40
1.0
 10
76.86750460255369
 20
219.2937411581316
 42
1.0
 10
76.3655154161537
 20
219.3028807969316
 42
0.9999979021999999
 10
75.86350488095368
 20
219.3107610709316
 42
0.9999979021999999
 10
75.36147615615369
 20
219.3173819304316
 42
1.0
 72
     2
 10
76.8656866539537
 20
219.1937563518316
 40
0.1000012261
 50
0.0006512264
 51
88.95834867239999
 73
     1
 72
     1
 10
76.96569387135369
 20
219.0900317530316
 11
76.96569387115369
 21
219.1937574884316
 72
     2
 10
77.06569603585369
 20
219.0900342278316
 40
0.1000026042
 50
180.0015033550999
 51
268.9195597126
 73
     1
 72
     4
 94
        3
 73
     1
 74
     0
 95
        8
 96
        4
 40
0.0
 40
0.0
 40
0.0
 40
0.0
 40
1.0
 40
1.0
 40
1.0
 40
1.0
 10
77.06380988385369
 20
218.9900494323316
 42
1.0
 10
80.33069262925369
 20
218.9283707772316
 42
0.9999109805999999
 10
83.5961312374537
 20
218.8133150319316
 42
0.9999109805999999
 10
86.85925364685369
 20
218.6449129229316
 42
1.0
 72
     1
 10
86.85925364685369
 20
218.6449129229316
 11
86.85925364685369
 21
218.9453117601317
 72
     4
 94
        3
 73
     1
 74
     0
 95
        8
 96
        4
 40
0.0
 40
0.0
 40
0.0
 40
0.0
 40
1.0
 40
1.0
 40
1.0
 40
1.0
 10
88.4027318777537
 20
218.8617514528316
 42
1.0
 10
87.88831141195371
 20
218.8909294336316
 42
0.9999977905999999
 10
87.3738175315537
 20
218.9187829309316
 42
0.9999977905999999
 10
86.85925364685369
 20
218.9453117601317
 42
1.0
 72
     1
 10
88.4027318777537
 20
218.5612687813316
 11
88.4027318777537
 21
218.8617514528316
 72
     1
 10
88.4027318777537
 20
218.5612687813316
 11
88.66197531305369
 21
218.5464371134316
 72
     1
 10
88.66197531305369
 20
218.5464371134316
 11
88.66197531305369
 21
218.8469346551316
 72
     4
 94
        3
 73
     1
 74
     0
 95
        8
 96
        4
 40
0.0
 40
0.0
 40
0.0
 40
0.0
 40
1.0
 40
1.0
 40
1.0
 40
1.0
 10
91.76139211255369
 20
218.6523560322316
 42
1.0
 10
90.72859327075368
 20
218.7225591717316
 42
0.9999910819
 10
89.69544512385368
 20
218.7874192911316
 42
0.9999910819
 10
88.66197531305369
 20
218.8469346551316
 42
1.0
 72
     1
 10
91.76139211255369
 20
218.3516630729316
 11
91.76139211255369
 21
218.6523560322316
 72
     4
 94
        3
 73
     1
 74
     0
 95
        8
 96
        4
 40
0.0
 40
0.0
 40
0.0
 40
0.0
 40
1.0
 40
1.0
 40
1.0
 40
1.0
 10
91.76139211255369
 20
218.3516630729316
 42
1.0
 10
94.14037559005368
 20
218.1897922965316
 42
0.9999525895999997
 10
96.5172594352537
 20
217.9995615937316
 42
0.9999525895999997
 10
98.8917055809537
 20
217.7809980212316
 42
1.0
 72
     1
 10
98.8917055809537
 20
217.7809980212316
 11
98.8917055809537
 21
218.0822649965316
 72
     4
 94
        3
 73
     1
 74
     0
 95
        8
 96
        4
 40
0.0
 40
0.0
 40
0.0
 40
0.0
 40
1.0
 40
1.0
 40
1.0
 40
1.0
 10
100.6091652486537
 20
217.9193572211316
 42
1.0
 10
100.0368355126536
 20
217.9753047107316
 42
0.9999972479
 10
99.46434738115369
 20
218.0296074519316
 42
0.9999972479
 10
98.8917055809537
 20
218.0822649965316
 42
1.0
 72
     1
 10
100.6091652486537
 20
217.6179258134316
 11
100.6091652486537
 21
217.9193572211316
 72
     4
 94
        3
 73
     1
 74
     0
 95
        8
 96
        4
 40
0.0
 40
0.0
 40
0.0
 40
0.0
 40
1.0
 40
1.0
 40
1.0
 40
1.0
 10
100.6091652486537
 20
217.6179258134316
 42
1.0
 10
103.8544722858537
 20
217.3003638624316
 42
0.9999113429999999
 10
107.0941689202537
 20
216.9299194331316
 42
0.9999113429999999
 10
110.3273934867537
 20
216.5066910530316
 42
1.0
 72
     4
 94
        3
 73
     1
 74
     0
 95
        8
 96
        4
 40
0.0
 40
0.0
 40
0.0
 40
0.0
 40
1.0
 40
1.0
 40
1.0
 40
1.0
 10
110.3273934867537
 20
216.5066910530316
 42
1.0
 10
110.8274009828537
 20
216.4412401825316
 42
0.8457367984000001
 10
111.1698388886537
 20
216.0710677993316
 42
0.8457367984000001
 10
111.1962305011537
 20
215.5674858343316
 42
1.0
 72
     1
 10
111.1962305011537
 20
215.5674858343316
 11
111.6805336130537
 21
206.3264319582316
 72
     4
 94
        3
 73
     1
 74
     0
 95
        8
 96
        4
 40
0.0
 40
0.0
 40
0.0
 40
0.0
 40
1.0
 40
1.0
 40
1.0
 40
1.0
 10
110.4704228580537
 20
206.4879335503316
 42
1.0
 10
110.8739024057537
 20
206.4349207517316
 42
0.9999986190000001
 10
111.2772732144537
 20
206.3810868133316
 42
0.9999986190000001
 10
111.6805336130537
 20
206.3264319582316
 42
1.0
 72
     1
 10
110.0283974253537
 20
214.9222812504316
 11
110.4704228580537
 21
206.4879335503316
 72
     4
 94
        3
 73
     1
 74
     0
 95
        8
 96
        4
 40
0.0
 40
0.0
 40
0.0
 40
0.0
 40
1.0
 40
1.0
 40
1.0
 40
1.0
 10
109.5930103311537
 20
215.3920096854316
 42
1.0
 10
109.8434943095537
 20
215.3597189540316
 42
0.8453199979
 10
110.0151796260536
 20
215.1744918856316
 42
0.8453199979
 10
110.0283974253537
 20
214.9222812504316
 42
1.0
 72
     4
 94
        3
 73
     1
 74
     0
 95
        8
 96
        4
 40
0.0
 40
0.0
 40
0.0
 40
0.0
 40
1.0
 40
1.0
 40
1.0
 40
1.0
 10
71.4027318777537
 20
217.8434851683316
 42
1.0
 10
84.17651561885369
 20
217.8434851683316
 42
0.9986307315999999
 10
96.9240632514537
 20
217.0252062305316
 42
0.9986307315999999
 10
109.5930103311537
 20
215.3920096854316
 42
1.0
 72
     4
 94
        3
 73
     1
 74
     0
 95
        8
 96
        4
 40
0.0
 40
0.0
 40
0.0
 40
0.0
 40
1.0
 40
1.0
 40
1.0
 40
1.0
 10
71.4027318777537
 20
217.8434851683316
 42
1.0
 10
58.6289481366537
 20
217.8434851683316
 42
0.9986307315999999
 10
45.8814005040537
 20
217.0252062305316
 42
0.9986307315999999
 10
33.2124534243537
 20
215.3920096854316
 42
1.0
 72
     4
 94
        3
 73
     1
 74
     0
 95
        8
 96
        4
 40
0.0
 40
0.0
 40
0.0
 40
0.0
 40
1.0
 40
1.0
 40
1.0
 40
1.0
 10
33.2124534243537
 20
215.3920096854316
 42
1.0
 10
32.9619694459537
 20
215.3597189540316
 42
0.8453199979
 10
32.7902841294537
 20
215.1744918856316
 42
0.8453199979
 10
32.7770663301537
 20
214.9222812504316
 42
1.0
 72
     1
 10
32.7770663301537
 20
214.9222812504316
 11
32.3350408974537
 21
206.4879335503316
 72
     4
 94
        3
 73
     1
 74
     0
 95
        8
 96
        4
 40
0.0
 40
0.0
 40
0.0
 40
0.0
 40
1.0
 40
1.0
 40
1.0
 40
1.0
 10
32.3350408974537
 20
206.4879335503316
 42
1.0
 10
31.93156134975371
 20
206.4349207517316
 42
0.9999986190000001
 10
31.52819054105369
 20
206.3810868133316
 42
0.9999986190000001
 10
31.12493014245369
 20
206.3264319582316
 42
1.0
 72
     1
 10
31.6092332543537
 20
215.5674858343316
 11
31.12493014245369
 21
206.3264319582316
 72
     4
 94
        3
 73
     1
 74
     0
 95
        8
 96
        4
 40
0.0
 40
0.0
 40
0.0
 40
0.0
 40
1.0
 40
1.0
 40
1.0
 40
1.0
 10
32.4780702688537
 20
216.5066910530316
 42
1.0
 10
31.97806277265369
 20
216.4412401825316
 42
0.8457367984000001
 10
31.63562486685371
 20
216.0710677993316
 42
0.8457367984000001
 10
31.6092332543537
 20
215.5674858343316
 42
1.0
 72
     4
 94
        3
 73
     1
 74
     0
 95
        8
 96
        4
 40
0.0
 40
0.0
 40
0.0
 40
0.0
 40
1.0
 40
1.0
 40
1.0
 40
1.0
 10
65.7825774678537
 20
218.9908192750316
 42
1.0
 10
54.6406683062537
 20
218.7819815492316
 42
0.9989657611
 10
43.52767241345368
 20
217.9530815279316
 42
0.9989657611
 10
32.4780702688537
 20
216.5066910530316
 42
1.0
 72
     2
 10
65.7807062231537
 20
219.0908032307316
 40
0.1000012568
 50
271.0719108118
 51
359.9991248694
 73
     1
 72
     1
 10
65.88070712605369
 20
219.0908018513316
 11
65.88070712615369
 21
219.1945000316316
 72
     2
 10
65.9807118469537
 20
219.1944975583316
 40
0.1000026063
 50
91.03445226979999
 51
179.998582955
 73
     1
 72
     4
 94
        3
 73
     1
 74
     0
 95
        8
 96
        4
 40
0.0
 40
0.0
 40
0.0
 40
0.0
 40
1.0
 40
1.0
 40
1.0
 40
1.0
 10
65.97890643785369
 20
219.2944838849316
 42
1.0
 10
66.48089522175368
 20
219.3035550111316
 42
0.9999979021999999
 10
66.98290518255369
 20
219.3113667778316
 42
0.9999979021999999
 10
67.48493316095369
 20
219.3179191360316
 42
1.0
 72
     2
 10
67.4862433839537
 20
219.2179249553316
 40
0.1000023298
 50
0.0016569573
 51
90.75070321410001
 73
     1
 72
     1
 10
67.5862455945537
 20
219.1204636672316
 11
67.5862455945537
 21
219.2179278473316
 72
     2
 10
67.68625053755369
 20
219.1204690258316
 40
0.1000052829
 50
180.0029830979
 51
270.7117835357
 73
     1
 97
        0
 75
     0
 76
     0
 52
135.0
 41
2.216360089
 77
     0
 78
     1
 53
135.0
 43
-47.1421640037463
 44
-35.57995409096839
 45
-0.7326972757
 46
-0.7326972757
 79
     0
 98
        1
 10
-47.1421640037463
 20
-35.57995409096839
1001
ACAD
1010
0.0
1020
0.0
1030
0.0
  0
HATCH
  5
803
330
1F
100
AcDbEntity
  8
0
  6
Continuous
 62
     1
100
AcDbHatch
 10
0.0
 20
0.0
 30
0.0
210
0.0
220
0.0
230
1.0
  2
DEFAULT__6
 70
     0
 71
     0
 91
        1
 92
        1
 93
        6
 72
     4
 94
        3
 73
     1
 74
     0
 95
        8
 96
        4
 40
0.0
 40
0.0
 40
0.0
 40
0.0
 40
1.0
 40
1.0
 40
1.0
 40
1.0
 10
71.4027318777537
 20
217.0080847838316
 42
1.0
 10
58.4665977692537
 20
217.0080847838316
 42
0.9985954873
 10
45.55771710855369
 20
216.1688197715316
 42
0.9985954873
 10
32.7304819577537
 20
214.4938260221316
 42
1.0
 72
     4
 94
        3
 73
     1
 74
     0
 95
        8
 96
        4
 40
0.0
 40
0.0
 40
0.0
 40
0.0
 40
1.0
 40
1.0
 40
1.0
 40
1.0
 10
71.4027318777537
 20
217.0080847838316
 42
1.0
 10
84.33886598625369
 20
217.0080847838316
 42
0.9985954873
 10
97.24774664695368
 20
216.1688197715316
 42
0.9985954873
 10
110.0749817977537
 20
214.4938260221316
 42
1.0
 72
     1
 10
110.0749817977537
 20
214.4938260221316
 11
110.4971491598537
 21
206.4383928811316
 72
     4
 94
        3
 73
     1
 74
     0
 95
        8
 96
        4
 40
0.0
 40
0.0
 40
0.0
 40
0.0
 40
1.0
 40
1.0
 40
1.0
 40
1.0
 10
71.4027318777537
 20
209.0080847838316
 42
1.0
 10
84.48109926785368
 20
209.0080847838316
 42
0.9985644878
 10
97.53130542485372
 20
208.1502894406316
 42
0.9985644878
 10
110.4971491598537
 20
206.4383928811316
 42
1.0
 72
     4
 94
        3
 73
     1
 74
     0
 95
        8
 96
        4
 40
0.0
 40
0.0
 40
0.0
 40
0.0
 40
1.0
 40
1.0
 40
1.0
 40
1.0
 10
71.4027318777537
 20
209.0080847838316
 42
1.0
 10
58.3243644876537
 20
209.0080847838316
 42
0.9985644878
 10
45.2741583306537
 20
208.1502894406316
 42
0.9985644878
 10
32.3083145957537
 20
206.4383928811316
 42
1.0
 72
     1
 10
32.7304819577537
 20
214.4938260221316
 11
32.3083145957537
 21
206.4383928811316
 97
        0
 75
     0
 76
     0
 52
135.0
 41
2.216360089
 77
     0
 78
     1
 53
205.0
 43
-47.1421640037463
 44
-35.57995409096839
 45
1.2009658423
 46
-2.575479559999999
 79
     0
 98
        1
 10
-47.1421640037463
 20
-35.57995409096839
1001
ACAD
1010
0.0
1020
0.0
1030
0.0
  0
HATCH
  5
804
330
1F
100
AcDbEntity
  8
0
  6
Continuous
 62
     1
100
AcDbHatch
 10
0.0
 20
0.0
 30
0.0
210
0.0
220
0.0
230
1.0
  2
DEFAULT__7
 70
     0
 71
     0
 91
        2
 92
        1
 93
       20
 72
     1
 10
37.90273187775369
 20
114.1360978895316
 11
37.90273187775369
 21
110.6360978895316
 72
     4
 94
        3
 73
     1
 74
     0
 95
        8
 96
        4
 40
0.0
 40
0.0
 40
0.0
 40
0.0
 40
1.0
 40
1.0
 40
1.0
 40
1.0
 10
37.90273187775369
 20
110.6360978895316
 42
1.0
 10
34.9027318777537
 20
110.6360978895316
 42
0.3333333333
 10
34.9027318777537
 20
107.6360978895316
 42
0.3333333333
 10
37.90273187775369
 20
107.6360978895316
 42
1.0
 72
     1
 10
37.90273187775369
 20
107.6360978895316
 11
37.90273187775369
 21
104.1360978895316
 72
     1
 10
37.90273187775369
 20
104.1360978895316
 11
36.73998613615369
 21
104.1360978895316
 72
     4
 94
        3
 73
     1
 74
     0
 95
        8
 96
        4
 40
0.0
 40
0.0
 40
0.0
 40
0.0
 40
1.0
 40
1.0
 40
1.0
 40
1.0
 10
36.2763942089537
 20
104.4487945928316
 42
1.0
 10
36.35520211955368
 20
104.2537381691316
 42
0.8860250484000001
 10
36.52961100645371
 20
104.1360978895316
 42
0.8860250484000001
 10
36.73998613615369
 20
104.1360978895316
 42
1.0
 72
     1
 10
36.1102302517537
 20
104.8600648187316
 11
36.2763942088537
 21
104.4487945928316
 72
     4
 94
        3
 73
     1
 74
     0
 95
        8
 96
        4
 40
0.0
 40
0.0
 40
0.0
 40
0.0
 40
1.0
 40
1.0
 40
1.0
 40
1.0
 10
36.1102302517537
 20
104.8600648187316
 42
1.0
 10
36.07183760915371
 20
104.9550899436316
 42
0.953611712
 10
36.0012895951537
 20
105.0294320386316
 42
0.953611712
 10
35.9084040145537
 20
105.0727452961316
 42
1.0
 72
     1
 10
32.5403359879537
 20
106.6433012101316
 11
35.9084040146537
 21
105.0727452961316
 72
     4
 94
        3
 73
     1
 74
     0
 95
        8
 96
        4
 40
0.0
 40
0.0
 40
0.0
 40
0.0
 40
1.0
 40
1.0
 40
1.0
 40
1.0
 10
32.5564556127537
 20
107.0125012921316
 42
1.0
 10
32.3597457264537
 20
106.9409047499316
 42
0.5884556182000001
 10
32.3506146930537
 20
106.7317697016316
 42
0.5884556182000001
 10
32.5403359889537
 20
106.6433012097316
 42
1.0
 72
     1
 10
35.33953993505369
 20
108.0254611449316
 11
32.5564556116537
 21
107.0125012917316
 72
     4
 94
        3
 73
     1
 74
     0
 95
        8
 96
        4
 40
0.0
 40
0.0
 40
0.0
 40
0.0
 40
1.0
 40
1.0
 40
1.0
 40
1.0
 10
35.3395399344537
 20
108.0254611446316
 42
1.0
 10
35.50297387625369
 20
108.0849462344316
 42
0.8794346959
 10
35.60273187775369
 20
108.2274154252316
 42
0.8794346959
 10
35.6027318777537
 20
108.4013381932316
 42
1.0
 72
     1
 10
35.6027318777537
 20
109.8664270736316
 11
35.6027318777537
 21
108.4013381932316
 72
     4
 94
        3
 73
     1
 74
     0
 95
        8
 96
        4
 40
0.0
 40
0.0
 40
0.0
 40
0.0
 40
1.0
 40
1.0
 40
1.0
 40
1.0
 10
35.6027318777537
 20
109.8664270736316
 42
1.0
 10
35.6027318777537
 20
110.0264101107316
 42
0.895594297
 10
35.5167730545537
 20
110.1613384356316
 42
0.895594297
 10
35.3717791820537
 20
110.2289501885316
 42
1.0
 72
     1
 10
32.34033598795369
 20
111.6425353652316
 11
35.37177918245369
 21
110.2289501884316
 72
     4
 94
        3
 73
     1
 74
     0
 95
        8
 96
        4
 40
0.0
 40
0.0
 40
0.0
 40
0.0
 40
1.0
 40
1.0
 40
1.0
 40
1.0
 10
32.35645561275369
 20
112.0117354472316
 42
1.0
 10
32.15974572645371
 20
111.9401389050316
 42
0.5884556182000001
 10
32.1506146930537
 20
111.7310038567316
 42
0.5884556182000001
 10
32.3403359889537
 20
111.6425353648316
 42
1.0
 72
     1
 10
35.8470496112537
 20
113.2822077626316
 11
32.3564556116537
 21
112.0117354468316
 72
     4
 94
        3
 73
     1
 74
     0
 95
        8
 96
        4
 40
0.0
 40
0.0
 40
0.0
 40
0.0
 40
1.0
 40
1.0
 40
1.0
 40
1.0
 10
35.8470496112537
 20
113.2822077625316
 42
1.0
 10
35.94335673335368
 20
113.3172606883316
 42
0.953611712
 10
36.0201156313537
 20
113.3851712246316
 42
0.953611712
 10
36.06664416365369
 20
113.4764886110316
 42
1.0
 72
     1
 10
36.2636290097537
 20
113.8630931394316
 11
36.06664416365369
 21
113.4764886110316
 72
     4
 94
        3
 73
     1
 74
     0
 95
        8
 96
        4
 40
0.0
 40
0.0
 40
0.0
 40
0.0
 40
1.0
 40
1.0
 40
1.0
 40
1.0
 10
36.70913227185371
 20
114.1360978895316
 42
1.0
 10
36.51599200495372
 20
114.1360978895316
 42
0.9017601095999999
 10
36.3513128560537
 20
114.0351823772316
 42
0.9017601095999999
 10
36.2636290097537
 20
113.8630931394316
 42
1.0
 72
     1
 10
37.90273187775369
 20
114.1360978895316
 11
36.70913227185371
 21
114.1360978895316
 97
        0
 92
        1
 93
       20
 72
     1
 10
104.9027318777537
 20
114.1360978895316
 11
104.9027318777537
 21
110.6360978895316
 72
     1
 10
106.0963314836537
 20
114.1360978895316
 11
104.9027318777537
 21
114.1360978895316
 72
     4
 94
        3
 73
     1
 74
     0
 95
        8
 96
        4
 40
0.0
 40
0.0
 40
0.0
 40
0.0
 40
1.0
 40
1.0
 40
1.0
 40
1.0
 10
106.0963314836537
 20
114.1360978895316
 42
1.0
 10
106.2894717505537
 20
114.1360978895316
 42
0.9017601095999999
 10
106.4541508994537
 20
114.0351823772316
 42
0.9017601095999999
 10
106.5418347457537
 20
113.8630931394316
 42
1.0
 72
     1
 10
106.5418347457537
 20
113.8630931394316
 11
106.7388195918537
 21
113.4764886110316
 72
     4
 94
        3
 73
     1
 74
     0
 95
        8
 96
        4
 40
0.0
 40
0.0
 40
0.0
 40
0.0
 40
1.0
 40
1.0
 40
1.0
 40
1.0
 10
106.9584141442537
 20
113.2822077625316
 42
1.0
 10
106.8621070221537
 20
113.3172606883316
 42
0.953611712
 10
106.7853481241537
 20
113.3851712246316
 42
0.953611712
 10
106.7388195918537
 20
113.4764886110316
 42
1.0
 72
     1
 10
106.9584141442537
 20
113.2822077626316
 11
110.4490081438537
 21
112.0117354468316
 72
     4
 94
        3
 73
     1
 74
     0
 95
        8
 96
        4
 40
0.0
 40
0.0
 40
0.0
 40
0.0
 40
1.0
 40
1.0
 40
1.0
 40
1.0
 10
110.4490081427537
 20
112.0117354472316
 42
1.0
 10
110.6457180290537
 20
111.9401389050316
 42
0.5884556182000001
 10
110.6548490624537
 20
111.7310038567316
 42
0.5884556182000001
 10
110.4651277665537
 20
111.6425353648316
 42
1.0
 72
     1
 10
110.4651277675537
 20
111.6425353652316
 11
107.4336845730537
 21
110.2289501884316
 72
     4
 94
        3
 73
     1
 74
     0
 95
        8
 96
        4
 40
0.0
 40
0.0
 40
0.0
 40
0.0
 40
1.0
 40
1.0
 40
1.0
 40
1.0
 10
107.2027318777537
 20
109.8664270736316
 42
1.0
 10
107.2027318777537
 20
110.0264101107316
 42
0.895594297
 10
107.2886907010537
 20
110.1613384356316
 42
0.895594297
 10
107.4336845734537
 20
110.2289501885316
 42
1.0
 72
     1
 10
107.2027318777537
 20
109.8664270736316
 11
107.2027318777537
 21
108.4013381932316
 72
     4
 94
        3
 73
     1
 74
     0
 95
        8
 96
        4
 40
0.0
 40
0.0
 40
0.0
 40
0.0
 40
1.0
 40
1.0
 40
1.0
 40
1.0
 10
107.4659238210537
 20
108.0254611446316
 42
1.0
 10
107.3024898793537
 20
108.0849462344316
 42
0.8794346959
 10
107.2027318777537
 20
108.2274154252316
 42
0.8794346959
 10
107.2027318777537
 20
108.4013381932316
 42
1.0
 72
     1
 10
107.4659238204537
 20
108.0254611449316
 11
110.2490081438537
 21
107.0125012917316
 72
     4
 94
        3
 73
     1
 74
     0
 95
        8
 96
        4
 40
0.0
 40
0.0
 40
0.0
 40
0.0
 40
1.0
 40
1.0
 40
1.0
 40
1.0
 10
110.2490081428536
 20
107.0125012921316
 42
1.0
 10
110.4457180290537
 20
106.9409047499316
 42
0.5884556182000001
 10
110.4548490624537
 20
106.7317697016316
 42
0.5884556182000001
 10
110.2651277665537
 20
106.6433012097316
 42
1.0
 72
     1
 10
110.2651277675537
 20
106.6433012101316
 11
106.8970597409537
 21
105.0727452961316
 72
     4
 94
        3
 73
     1
 74
     0
 95
        8
 96
        4
 40
0.0
 40
0.0
 40
0.0
 40
0.0
 40
1.0
 40
1.0
 40
1.0
 40
1.0
 10
106.6952335037537
 20
104.8600648187316
 42
1.0
 10
106.7336261463537
 20
104.9550899436316
 42
0.953611712
 10
106.8041741603537
 20
105.0294320386316
 42
0.953611712
 10
106.8970597409537
 20
105.0727452961316
 42
1.0
 72
     1
 10
106.6952335037537
 20
104.8600648187316
 11
106.5290695466537
 21
104.4487945928316
 72
     4
 94
        3
 73
     1
 74
     0
 95
        8
 96
        4
 40
0.0
 40
0.0
 40
0.0
 40
0.0
 40
1.0
 40
1.0
 40
1.0
 40
1.0
 10
106.5290695466537
 20
104.4487945928316
 42
1.0
 10
106.4502616359537
 20
104.2537381691316
 42
0.8860250484000001
 10
106.2758527490537
 20
104.1360978895316
 42
0.8860250484000001
 10
106.0654776193537
 20
104.1360978895316
 42
1.0
 72
     1
 10
106.0654776193537
 20
104.1360978895316
 11
104.9027318777537
 21
104.1360978895316
 72
     1
 10
104.9027318777537
 20
107.6360978895316
 11
104.9027318777537
 21
104.1360978895316
 72
     4
 94
        3
 73
     1
 74
     0
 95
        8
 96
        4
 40
0.0
 40
0.0
 40
0.0
 40
0.0
 40
1.0
 40
1.0
 40
1.0
 40
1.0
 10
104.9027318777537
 20
110.6360978895316
 42
1.0
 10
107.9027318777537
 20
110.6360978895316
 42
0.3333333333
 10
107.9027318777537
 20
107.6360978895316
 42
0.3333333333
 10
104.9027318777537
 20
107.6360978895316
 42
1.0
 97
        0
 75
     0
 76
     0
 52
135.0
 41
2.216360089
 77
     0
 78
     1
 53
135.0
 43
-47.1421640037463
 44
-35.57995409096839
 45
-0.3759206915
 46
-0.3759206915
 79
     0
 98
        1
 10
-47.1421640037463
 20
-35.57995409096839
1001
ACAD
1010
0.0
1020
0.0
1030
0.0
  0
HATCH
  5
805
330
1F
100
AcDbEntity
  8
0
  6
Continuous
 62
     1
100
AcDbHatch
 10
0.0
 20
0.0
 30
0.0
210
0.0
220
0.0
230
1.0
  2
DEFAULT__8
 70
     0
 71
     0
 91
        2
 92
        1
 93
       25
 72
     1
 10
43.9027318777537
 20
188.6315789031316
 11
43.9027318777537
 21
179.1360978895316
 72
     4
 94
        3
 73
     1
 74
     0
 95
        8
 96
        4
 40
0.0
 40
0.0
 40
0.0
 40
0.0
 40
1.0
 40
1.0
 40
1.0
 40
1.0
 10
44.42813173485371
 20
189.1309333336316
 42
1.0
 10
44.1236900853537
 20
189.1464188763316
 42
0.7926081931
 10
43.9027318777537
 20
188.9364141372316
 42
0.7926081931
 10
43.9027318777537
 20
188.6315789031316
 42
1.0
 72
     4
 94
        3
 73
     1
 74
     0
 95
        8
 96
        4
 40
0.0
 40
0.0
 40
0.0
 40
0.0
 40
1.0
 40
1.0
 40
1.0
 40
1.0
 10
46.83111628775368
 20
188.1705349118316
 42
1.0
 10
46.1524142479537
 20
188.7534509461316
 42
0.9641578604999999
 10
45.32164276965369
 20
189.0854845480316
 42
0.9641578604999999
 10
44.4281317346537
 20
189.1309333336316
 42
1.0
 72
     4
 94
        3
 73
     1
 74
     0
 95
        8
 96
        4
 40
0.0
 40
0.0
 40
0.0
 40
0.0
 40
1.0
 40
1.0
 40
1.0
 40
1.0
 10
49.44423682025369
 20
182.5464145112316
 42
1.0
 10
49.42505330005369
 20
184.7446281950316
 42
0.9403554039000001
 10
48.4987650330537
 20
186.7382433669316
 42
0.9403554039000001
 10
46.83111628775368
 20
188.1705349119316
 42
1.0
 72
     1
 10
49.44423682025369
 20
182.5464145112316
 11
49.90273187775369
 21
130.0080847838316
 72
     4
 94
        3
 73
     1
 74
     0
 95
        8
 96
        4
 40
0.0
 40
0.0
 40
0.0
 40
0.0
 40
1.0
 40
1.0
 40
1.0
 40
1.0
 10
45.7096896410537
 20
117.5883732698316
 42
1.0
 10
48.45431817805369
 20
121.1898324748316
 42
0.9649734367
 10
49.90273187775369
 20
125.4800063601316
 42
0.9649734367
 10
49.90273187775369
 20
130.0080847838316
 42
1.0
 72
     4
 94
        3
 73
     1
 74
     0
 95
        8
 96
        4
 40
0.0
 40
0.0
 40
0.0
 40
0.0
 40
1.0
 40
1.0
 40
1.0
 40
1.0
 10
45.70969286165371
 20
117.5883708161316
 42
1.0
 10
45.50876677425368
 20
117.3247221690316
 42
0.9649734635999999
 10
45.40273157005368
 20
117.0106546011315
 42
0.9649734635999999
 10
45.4027293870537
 20
116.6791702098316
 42
1.0
 72
     1
 10
45.40273187775369
 20
116.6791603312316
 11
45.40273187775369
 21
104.6360978895316
 72
     4
 94
        3
 73
     1
 74
     0
 95
        8
 96
        4
 40
0.0
 40
0.0
 40
0.0
 40
0.0
 40
1.0
 40
1.0
 40
1.0
 40
1.0
 10
45.40273187775369
 20
104.6360978895316
 42
1.0
 10
45.40273187775368
 20
104.3432046707316
 42
0.8047378541
 10
45.19562509655371
 20
104.1360978895316
 42
0.8047378541
 10
44.90273187775369
 20
104.1360978895316
 42
1.0
 72
     1
 10
44.90273187775369
 20
104.1360978895316
 11
40.7740205356537
 21
104.1360978895316
 72
     1
 10
40.7740205356537
 20
104.1360978895316
 11
40.7740205356537
 21
103.9360978895316
 72
     1
 10
40.7740205356537
 20
103.9360978895316
 11
40.4615901039537
 21
103.9360978895316
 72
     1
 10
40.4615901039537
 20
104.1360978895316
 11
40.4615901039537
 21
103.9360978895316
 72
     1
 10
40.4615901039537
 20
104.1360978895316
 11
39.16459638935369
 21
104.1360978895316
 72
     1
 10
39.16459638935369
 20
104.1360978895316
 11
39.16459638935369
 21
103.9360978895316
 72
     1
 10
39.16459638935369
 20
103.9360978895316
 11
38.84156859155371
 21
103.9360978895316
 72
     1
 10
38.84156859155371
 20
104.1360978895316
 11
38.84156859155371
 21
103.9360978895316
 72
     1
 10
38.84156859155371
 20
104.1360978895316
 11
37.90273187775369
 21
104.1360978895316
 72
     1
 10
37.90273187775369
 20
107.6360978895316
 11
37.90273187775369
 21
104.1360978895316
 72
     4
 94
        3
 73
     1
 74
     0
 95
        8
 96
        4
 40
0.0
 40
0.0
 40
0.0
 40
0.0
 40
1.0
 40
1.0
 40
1.0
 40
1.0
 10
37.90273187775369
 20
110.6360978895316
 42
1.0
 10
34.9027318777537
 20
110.6360978895316
 42
0.3333333333
 10
34.9027318777537
 20
107.6360978895316
 42
0.3333333333
 10
37.90273187775369
 20
107.6360978895316
 42
1.0
 72
     1
 10
37.90273187775369
 20
114.1360978895316
 11
37.90273187775369
 21
110.6360978895316
 72
     4
 94
        3
 73
     1
 74
     0
 95
        8
 96
        4
 40
0.0
 40
0.0
 40
0.0
 40
0.0
 40
1.0
 40
1.0
 40
1.0
 40
1.0
 10
37.90273187775369
 20
114.1360978895316
 42
1.0
 10
43.9107645106537
 20
117.3498211203316
 42
0.9052048115999999
 10
47.4127358809537
 20
123.1945340853316
 42
0.9052048115999999
 10
47.41273588095369
 20
130.0080847838316
 42
1.0
 72
     1
 10
47.41273588095369
 20
169.1360978895316
 11
47.41273588095369
 21
130.0080847838316
 72
     4
 94
        3
 73
     1
 74
     0
 95
        8
 96
        4
 40
0.0
 40
0.0
 40
0.0
 40
0.0
 40
1.0
 40
1.0
 40
1.0
 40
1.0
 10
47.41273588095369
 20
169.1360978895316
 42
1.0
 10
47.41273588095369
 20
171.4303591764316
 42
0.9623757713999999
 10
46.6528966832537
 20
173.5951407464316
 42
0.9623757713999999
 10
45.21898337895371
 20
175.3860978895316
 42
1.0
 72
     4
 94
        3
 73
     1
 74
     0
 95
        8
 96
        4
 40
0.0
 40
0.0
 40
0.0
 40
0.0
 40
1.0
 40
1.0
 40
1.0
 40
1.0
 10
43.9027318777537
 20
179.1360978895316
 42
1.0
 10
43.9027318777537
 20
177.7595411174316
 42
0.9623757713999999
 10
44.3586353963537
 20
176.4606721753316
 42
0.9623757713999999
 10
45.21898337895371
 20
175.3860978895316
 42
1.0
 97
        0
 92
        1
 93
       17
 72
     1
 10
98.9027318777537
 20
188.6315789031316
 11
98.9027318777537
 21
179.1360978895316
 72
     4
 94
        3
 73
     1
 74
     0
 95
        8
 96
        4
 40
0.0
 40
0.0
 40
0.0
 40
0.0
 40
1.0
 40
1.0
 40
1.0
 40
1.0
 10
98.9027318777537
 20
179.1360978895316
 42
1.0
 10
98.9027318777537
 20
177.7595411174316
 42
0.9623757713999999
 10
98.44682835915371
 20
176.4606721753316
 42
0.9623757713999999
 10
97.58648037655371
 20
175.3860978895316
 42
1.0
 72
     4
 94
        3
 73
     1
 74
     0
 95
        8
 96
        4
 40
0.0
 40
0.0
 40
0.0
 40
0.0
 40
1.0
 40
1.0
 40
1.0
 40
1.0
 10
95.39272787455368
 20
169.1360978895316
 42
1.0
 10
95.39272787455368
 20
171.4303591764316
 42
0.9623757713999999
 10
96.1525670722537
 20
173.5951407464316
 42
0.9623757713999999
 10
97.58648037655371
 20
175.3860978895316
 42
1.0
 72
     1
 10
95.39272787455368
 20
169.1360978895316
 11
95.39272787455368
 21
130.0080847838316
 72
     4
 94
        3
 73
     1
 74
     0
 95
        8
 96
        4
 40
0.0
 40
0.0
 40
0.0
 40
0.0
 40
1.0
 40
1.0
 40
1.0
 40
1.0
 10
104.9027318777537
 20
114.1360978895316
 42
1.0
 10
98.8946992449537
 20
117.3498211203316
 42
0.9052048115999999
 10
95.39272787455368
 20
123.1945340853316
 42
0.9052048115999999
 10
95.39272787455368
 20
130.0080847838316
 42
1.0
 72
     1
 10
104.9027318777537
 20
114.1360978895316
 11
104.9027318777537
 21
110.6360978895316
 72
     4
 94
        3
 73
     1
 74
     0
 95
       11
 96
        7
 40
0.0
 40
0.0
 40
0.0
 40
0.0
 40
1.0
 40
1.0
 40
1.0
 40
2.0
 40
2.0
 40
2.0
 40
2.0
 10
104.9027318777537
 20
110.6360978895316
 42
1.0
 10
105.7814115341537
 20
110.6360978895316
 42
0.8047378541
 10
106.4027318777537
 20
110.0147775459316
 42
0.8047378541
 10
106.4027318777537
 20
109.1360978895316
 42
1.0
 10
106.4027318777537
 20
108.2574182330316
 42
0.8047378541
 10
105.7814115341537
 20
107.6360978895316
 42
0.8047378541
 10
104.9027318777537
 20
107.6360978895316
 42
1.0
 72
     1
 10
104.9027318777537
 20
107.6360978895316
 11
104.9027318777537
 21
104.1360978895316
 72
     1
 10
104.9027318777537
 20
104.1360978895316
 11
97.90273187775369
 21
104.1360978895316
 72
     4
 94
        3
 73
     1
 74
     0
 95
        8
 96
        4
 40
0.0
 40
0.0
 40
0.0
 40
0.0
 40
1.0
 40
1.0
 40
1.0
 40
1.0
 10
97.4027318777537
 20
104.6360978895316
 42
1.0
 10
97.4027318777537
 20
104.3432046707316
 42
0.8047378541
 10
97.6098386589537
 20
104.1360978895316
 42
0.8047378541
 10
97.90273187775369
 20
104.1360978895316
 42
1.0
 72
     1
 10
97.4027318777537
 20
116.6791603312316
 11
97.4027318777537
 21
104.6360978895316
 72
     4
 94
        3
 73
     1
 74
     0
 95
        8
 96
        4
 40
0.0
 40
0.0
 40
0.0
 40
0.0
 40
1.0
 40
1.0
 40
1.0
 40
1.0
 10
97.40273415345368
 20
116.6791702098316
 42
1.0
 10
97.40273217895371
 20
117.0106546234316
 42
0.9649734599999998
 10
97.2966971599537
 20
117.3247222772316
 42
0.9649734599999998
 10
97.09577121595371
 20
117.5883710616316
 42
1.0
 72
     4
 94
        3
 73
     1
 74
     0
 95
        8
 96
        4
 40
0.0
 40
0.0
 40
0.0
 40
0.0
 40
1.0
 40
1.0
 40
1.0
 40
1.0
 10
97.09577411445369
 20
117.5883732698316
 42
1.0
 10
94.35114557755369
 20
121.1898324748316
 42
0.9649734367
 10
92.90273187775369
 20
125.4800063601316
 42
0.9649734367
 10
92.90273187775369
 20
130.0080847838316
 42
1.0
 72
     1
 10
93.36122693525368
 20
182.5464145112316
 11
92.90273187775369
 21
130.0080847838316
 72
     4
 94
        3
 73
     1
 74
     0
 95
        8
 96
        4
 40
0.0
 40
0.0
 40
0.0
 40
0.0
 40
1.0
 40
1.0
 40
1.0
 40
1.0
 10
93.36122693525368
 20
182.5464145112316
 42
1.0
 10
93.38041045545372
 20
184.7446281950316
 42
0.9403554039000001
 10
94.30669872255368
 20
186.7382433669316
 42
0.9403554039000001
 10
95.97434746785371
 20
188.1705349119316
 42
1.0
 72
     4
 94
        3
 73
     1
 74
     0
 95
        8
 96
        4
 40
0.0
 40
0.0
 40
0.0
 40
0.0
 40
1.0
 40
1.0
 40
1.0
 40
1.0
 10
95.97434746775368
 20
188.1705349118316
 42
1.0
 10
96.65304950765369
 20
188.7534509461316
 42
0.9641578604999999
 10
97.48382098585368
 20
189.0854845480316
 42
0.9641578604999999
 10
98.37733202085368
 20
189.1309333336316
 42
1.0
 72
     4
 94
        3
 73
     1
 74
     0
 95
        8
 96
        4
 40
0.0
 40
0.0
 40
0.0
 40
0.0
 40
1.0
 40
1.0
 40
1.0
 40
1.0
 10
98.37733202065372
 20
189.1309333336316
 42
1.0
 10
98.6817736701537
 20
189.1464188763316
 42
0.7926081931
 10
98.9027318777537
 20
188.9364141372316
 42
0.7926081931
 10
98.9027318777537
 20
188.6315789031316
 42
1.0
 97
        0
 75
     0
 76
     0
 52
135.0
 41
2.216360089
 77
     0
 78
     1
 53
45.0
 43
-47.1421640037463
 44
-35.57995409096839
 45
-2.4494591675
 46
2.4494591675
 79
     0
 98
        1
 10
-47.1421640037463
 20
-35.57995409096839
1001
ACAD
1010
0.0
1020
0.0
1030
0.0
  0
LINE
  5
815
330
1F
100
AcDbEntity
  8
0
  6
Continuous
 62
     7
100
AcDbLine
 10
42.40273187775369
 20
19.13609788953162
 30
0.0
 11
100.4027318777537
 21
19.13609788953162
 31
0.0
  0
LINE
  5
816
330
1F
100
AcDbEntity
  8
0
  6
Continuous
 62
     7
100
AcDbLine
 10
43.20273187775369
 20
19.93609788953161
 30
0.0
 11
51.96087671315371
 21
19.93609788953161
 31
0.0
  0
LINE
  5
817
330
1F
100
AcDbEntity
  8
0
  6
Continuous
 62
     7
100
AcDbLine
 10
90.84458704235371
 20
19.93609788953161
 30
0.0
 11
99.60273187775369
 21
19.93609788953161
 31
0.0
  0
LINE
  5
818
330
1F
100
AcDbEntity
  8
0
  6
Continuous
 62
     7
100
AcDbLine
 10
22.48002785035369
 20
137.1724894763316
 30
0.0
 11
22.4250413761537
 21
134.0255550949316
 31
0.0
  0
LINE
  5
819
330
1F
100
AcDbEntity
  8
0
  6
Continuous
 62
     7
100
AcDbLine
 10
28.01365841225371
 20
139.3630616868316
 30
0.0
 11
29.13214003895371
 21
203.4408311683316
 31
0.0
  0
LINE
  5
81A
330
1F
100
AcDbEntity
  8
0
  6
Continuous
 62
     7
100
AcDbLine
 10
31.6092332543537
 20
215.5674858343316
 30
0.0
 11
31.12493014245369
 21
206.3264319582316
 31
0.0
  0
LINE
  5
81B
330
1F
100
AcDbEntity
  8
0
  6
Continuous
 62
     7
100
AcDbLine
 10
32.7304819577537
 20
214.4938260221316
 30
0.0
 11
32.3083145957537
 21
206.4383928811316
 31
0.0
  0
LINE
  5
81C
330
1F
100
AcDbEntity
  8
0
  6
Continuous
 62
     7
100
AcDbLine
 10
32.7770663301537
 20
214.9222812504316
 30
0.0
 11
32.3350408974537
 21
206.4879335503316
 31
0.0
  0
LINE
  5
81D
330
1F
100
AcDbEntity
  8
0
  6
Continuous
 62
     7
100
AcDbLine
 10
22.48166862355369
 20
137.1926897438316
 30
0.0
 11
22.48002830985369
 21
137.1724619338316
 31
0.0
  0
LINE
  5
81E
330
1F
100
AcDbEntity
  8
0
  6
Continuous
 62
     7
100
AcDbLine
 10
29.91161174985369
 20
133.4993585806316
 30
0.0
 11
31.07146708065369
 21
199.9474259800316
 31
0.0
  0
LINE
  5
81F
330
1F
100
AcDbEntity
  8
0
  6
Continuous
 62
     7
100
AcDbLine
 10
36.1102302517537
 20
104.8600648187316
 30
0.0
 11
36.2763942088537
 21
104.4487945928316
 31
0.0
  0
LINE
  5
820
330
1F
100
AcDbEntity
  8
0
  6
Continuous
 62
     7
100
AcDbLine
 10
35.6027318777537
 20
109.8664270736316
 30
0.0
 11
35.6027318777537
 21
108.4013381932316
 31
0.0
  0
LINE
  5
821
330
1F
100
AcDbEntity
  8
0
  6
Continuous
 62
     7
100
AcDbLine
 10
36.3871665861537
 20
217.2932102749316
 30
0.0
 11
36.3871665861537
 21
216.9911451851316
 31
0.0
  0
LINE
  5
822
330
1F
100
AcDbEntity
  8
0
  6
Continuous
 62
     7
100
AcDbLine
 10
37.90273187775369
 20
114.1360978895316
 30
0.0
 11
37.90273187775369
 21
110.6360978895316
 31
0.0
  0
LINE
  5
823
330
1F
100
AcDbEntity
  8
0
  6
Continuous
 62
     7
100
AcDbLine
 10
37.90273187775369
 20
107.6360978895316
 30
0.0
 11
37.90273187775369
 21
104.1360978895316
 31
0.0
  0
LINE
  5
824
330
1F
100
AcDbEntity
  8
0
  6
Continuous
 62
     7
100
AcDbLine
 10
38.78520972585369
 20
104.1360978895316
 30
0.0
 11
38.78520972585369
 21
103.9360978895316
 31
0.0
  0
LINE
  5
825
330
1F
100
AcDbEntity
  8
0
  6
Continuous
 62
     7
100
AcDbLine
 10
38.80866970755369
 20
104.1360978895316
 30
0.0
 11
38.80866970755369
 21
103.9360978895316
 31
0.0
  0
LINE
  5
826
330
1F
100
AcDbEntity
  8
0
  6
Continuous
 62
     7
100
AcDbLine
 10
38.84156859155371
 20
104.1360978895316
 30
0.0
 11
38.84156859155371
 21
103.9360978895316
 31
0.0
  0
LINE
  5
827
330
1F
100
AcDbEntity
  8
0
  6
Continuous
 62
     7
100
AcDbLine
 10
39.16459638935369
 20
104.1360978895316
 30
0.0
 11
39.16459638935369
 21
103.9360978895316
 31
0.0
  0
LINE
  5
828
330
1F
100
AcDbEntity
  8
0
  6
Continuous
 62
     7
100
AcDbLine
 10
39.35358290485371
 20
104.1360978895316
 30
0.0
 11
39.35358290485371
 21
103.9360978895316
 31
0.0
  0
LINE
  5
829
330
1F
100
AcDbEntity
  8
0
  6
Continuous
 62
     7
100
AcDbLine
 10
39.63380445735371
 20
104.1360978895316
 30
0.0
 11
39.63380445735371
 21
103.9360978895316
 31
0.0
  0
LINE
  5
82A
330
1F
100
AcDbEntity
  8
0
  6
Continuous
 62
     7
100
AcDbLine
 10
39.9614354448537
 20
104.1360978895316
 30
0.0
 11
39.9614354448537
 21
103.9360978895316
 31
0.0
  0
LINE
  5
82B
330
1F
100
AcDbEntity
  8
0
  6
Continuous
 62
     7
100
AcDbLine
 10
40.24286707925369
 20
104.1360978895316
 30
0.0
 11
40.24286707925369
 21
103.9360978895316
 31
0.0
  0
LINE
  5
82C
330
1F
100
AcDbEntity
  8
0
  6
Continuous
 62
     7
100
AcDbLine
 10
40.37954039995371
 20
217.7356139438316
 30
0.0
 11
40.37954039995371
 21
217.4339968575316
 31
0.0
  0
LINE
  5
82D
330
1F
100
AcDbEntity
  8
0
  6
Continuous
 62
     7
100
AcDbLine
 10
40.40525742295369
 20
217.7371838128316
 30
0.0
 11
40.40525742295369
 21
217.4355683139316
 31
0.0
  0
LINE
  5
82E
330
1F
100
AcDbEntity
  8
0
  6
Continuous
 62
     7
100
AcDbLine
 10
40.42072950435368
 20
217.5926715376316
 30
0.0
 11
40.42072950435368
 21
217.4263176027316
 31
0.0
  0
LINE
  5
82F
330
1F
100
AcDbEntity
  8
0
  6
Continuous
 62
     7
100
AcDbLine
 10
40.4615901039537
 20
104.1360978895316
 30
0.0
 11
40.4615901039537
 21
103.9360978895316
 31
0.0
  0
LINE
  5
830
330
1F
100
AcDbEntity
  8
0
  6
Continuous
 62
     7
100
AcDbLine
 10
40.47656080335369
 20
217.5560270800316
 30
0.0
 11
40.47656080335369
 21
217.4317852218316
 31
0.0
  0
LINE
  5
831
330
1F
100
AcDbEntity
  8
0
  6
Continuous
 62
     7
100
AcDbLine
 10
40.7740205356537
 20
104.1360978895316
 30
0.0
 11
40.7740205356537
 21
103.9360978895316
 31
0.0
  0
LINE
  5
832
330
1F
100
AcDbEntity
  8
0
  6
Continuous
 62
     7
100
AcDbLine
 10
40.87559314935369
 20
217.6023529706316
 30
0.0
 11
40.87559314935369
 21
217.4708628885316
 31
0.0
  0
LINE
  5
833
330
1F
100
AcDbEntity
  8
0
  6
Continuous
 62
     7
100
AcDbLine
 10
40.91272266925369
 20
104.1360978895316
 30
0.0
 11
40.91272266925369
 21
103.9360978895316
 31
0.0
  0
LINE
  5
834
330
1F
100
AcDbEntity
  8
0
  6
Continuous
 62
     7
100
AcDbLine
 10
40.94052640275369
 20
217.5938931300316
 30
0.0
 11
40.94052640275369
 21
217.4772218719316
 31
0.0
  0
LINE
  5
835
330
1F
100
AcDbEntity
  8
0
  6
Continuous
 62
     7
100
AcDbLine
 10
40.94756380025368
 20
217.5848270529316
 30
0.0
 11
40.94756380025368
 21
217.4779110518316
 31
0.0
  0
LINE
  5
836
330
1F
100
AcDbEntity
  8
0
  6
Continuous
 62
     7
100
AcDbLine
 10
40.96948366685369
 20
104.1360978895316
 30
0.0
 11
40.96948366685369
 21
103.9360978895316
 31
0.0
  0
LINE
  5
837
330
1F
100
AcDbEntity
  8
0
  6
Continuous
 62
     7
100
AcDbLine
 10
40.9960272820537
 20
104.1360978895316
 30
0.0
 11
40.9960272820537
 21
103.9360978895316
 31
0.0
  0
LINE
  5
838
330
1F
100
AcDbEntity
  8
0
  6
Continuous
 62
     7
100
AcDbLine
 10
41.20777335205369
 20
104.1360978895316
 30
0.0
 11
41.20777335205369
 21
103.9360978895316
 31
0.0
  0
LINE
  5
839
330
1F
100
AcDbEntity
  8
0
  6
Continuous
 62
     7
100
AcDbLine
 10
41.24575972305369
 20
104.1360978895316
 30
0.0
 11
41.24575972305369
 21
103.9360978895316
 31
0.0
  0
LINE
  5
83A
330
1F
100
AcDbEntity
  8
0
  6
Continuous
 62
     7
100
AcDbLine
 10
41.2519166269537
 20
217.6031091712316
 30
0.0
 11
41.2519166269537
 21
217.5077166514316
 31
0.0
  0
LINE
  5
83B
330
1F
100
AcDbEntity
  8
0
  6
Continuous
 62
     7
100
AcDbLine
 10
41.3815117881537
 20
104.1360978895316
 30
0.0
 11
41.3815117881537
 21
103.9360978895316
 31
0.0
  0
LINE
  5
83C
330
1F
100
AcDbEntity
  8
0
  6
Continuous
 62
     7
100
AcDbLine
 10
41.39665634965369
 20
217.6023529706316
 30
0.0
 11
41.39665634965369
 21
217.5218911680316
 31
0.0
  0
LINE
  5
83D
330
1F
100
AcDbEntity
  8
0
  6
Continuous
 62
     7
100
AcDbLine
 10
41.4325464756537
 20
104.1360978895316
 30
0.0
 11
41.4325464756537
 21
103.9360978895316
 31
0.0
  0
LINE
  5
83E
330
1F
100
AcDbEntity
  8
0
  6
Continuous
 62
     7
100
AcDbLine
 10
41.4399035652537
 20
104.1360978895316
 30
0.0
 11
41.4399035652537
 21
103.9360978895316
 31
0.0
  0
LINE
  5
83F
330
1F
100
AcDbEntity
  8
0
  6
Continuous
 62
     7
100
AcDbLine
 10
41.6297817564537
 20
104.1360978895316
 30
0.0
 11
41.6297817564537
 21
103.9360978895316
 31
0.0
  0
LINE
  5
840
330
1F
100
AcDbEntity
  8
0
  6
Continuous
 62
     7
100
AcDbLine
 10
41.67133540215369
 20
217.5993136060316
 30
0.0
 11
41.67133540215369
 21
217.5487907830316
 31
0.0
  0
LINE
  5
841
330
1F
100
AcDbEntity
  8
0
  6
Continuous
 62
     7
100
AcDbLine
 10
41.73927143815371
 20
104.1360978895316
 30
0.0
 11
41.73927143815371
 21
103.9360978895316
 31
0.0
  0
LINE
  5
842
330
1F
100
AcDbEntity
  8
0
  6
Continuous
 62
     7
100
AcDbLine
 10
41.75771178475369
 20
104.1360978895316
 30
0.0
 11
41.75771178475369
 21
103.9360978895316
 31
0.0
  0
LINE
  5
843
330
1F
100
AcDbEntity
  8
0
  6
Continuous
 62
     7
100
AcDbLine
 10
41.97784100555369
 20
217.6359327632316
 30
0.0
 11
41.97784100555369
 21
217.5788072063316
 31
0.0
  0
LINE
  5
844
330
1F
100
AcDbEntity
  8
0
  6
Continuous
 62
     7
100
AcDbLine
 10
42.24398221685369
 20
217.6635581311316
 30
0.0
 11
42.24398221685369
 21
217.6048707013316
 31
0.0
  0
LINE
  5
845
330
1F
100
AcDbEntity
  8
0
  6
Continuous
 62
     7
100
AcDbLine
 10
42.40273187775369
 20
19.13609788953162
 30
0.0
 11
42.40273187775369
 21
88.13609788953161
 31
0.0
  0
LINE
  5
846
330
1F
100
AcDbEntity
  8
0
  6
Continuous
 62
     7
100
AcDbLine
 10
42.65927421845368
 20
217.7006065760316
 30
0.0
 11
42.65927421845368
 21
217.6558720639317
 31
0.0
  0
LINE
  5
847
330
1F
100
AcDbEntity
  8
0
  6
Continuous
 62
     7
100
AcDbLine
 10
36.2636290097537
 20
113.8630931394316
 30
0.0
 11
36.06664416365369
 21
113.4764886110316
 31
0.0
  0
LINE
  5
848
330
1F
100
AcDbEntity
  8
0
  6
Continuous
 62
     9
100
AcDbLine
 10
52.4339835972537
 20
83.16751367253161
 30
0.0
 11
90.37148015825371
 21
83.16751367253161
 31
0.0
  0
LINE
  5
849
330
1F
100
AcDbEntity
  8
0
  6
Continuous
 62
     9
100
AcDbLine
 10
99.60273187775369
 20
87.3360978895316
 30
0.0
 11
99.57990485925371
 21
87.3360978895316
 31
0.0
  0
LINE
  5
84A
330
1F
100
AcDbEntity
  8
0
  6
Continuous
 62
     9
100
AcDbLine
 10
43.2255588962537
 20
87.3360978895316
 30
0.0
 11
43.20273187775369
 21
87.3360978895316
 31
0.0
  0
LINE
  5
84B
330
1F
100
AcDbEntity
  8
0
  6
Continuous
 62
     7
100
AcDbLine
 10
44.20273187775369
 20
88.13609788953161
 30
0.0
 11
47.1426766099537
 21
88.13609788953161
 31
0.0
  0
LINE
  5
84C
330
1F
100
AcDbEntity
  8
0
  6
Continuous
 62
     7
100
AcDbLine
 10
95.6627871456537
 20
88.13609788953161
 30
0.0
 11
98.60273187775369
 21
88.13609788953161
 31
0.0
  0
LINE
  5
84D
330
1F
100
AcDbEntity
  8
0
  6
Continuous
 62
     7
100
AcDbLine
 10
44.20273187775369
 20
88.33609788953159
 30
0.0
 11
45.6340658437537
 21
88.33609788953159
 31
0.0
  0
LINE
  5
84E
330
1F
100
AcDbEntity
  8
0
  6
Continuous
 62
     7
100
AcDbLine
 10
97.1713979117537
 20
88.33609788953159
 30
0.0
 11
98.60273187775369
 21
88.33609788953159
 31
0.0
  0
LINE
  5
84F
330
1F
100
AcDbEntity
  8
0
  6
Continuous
 62
     7
100
AcDbLine
 10
43.40273187775369
 20
89.13609788953161
 30
0.0
 11
99.40273187775369
 21
89.13609788953161
 31
0.0
  0
LINE
  5
850
330
1F
100
AcDbEntity
  8
0
  6
Continuous
 62
     7
100
AcDbLine
 10
49.44423682025369
 20
182.5464145112316
 30
0.0
 11
49.90273187775369
 21
130.0080847838316
 31
0.0
  0
LINE
  5
851
330
1F
100
AcDbEntity
  8
0
  6
Continuous
 62
     7
100
AcDbLine
 10
43.03420204265369
 20
217.7284607930316
 30
0.0
 11
43.03420204265369
 21
217.6943630533316
 31
0.0
  0
LINE
  5
852
330
1F
100
AcDbEntity
  8
0
  6
Continuous
 62
     7
100
AcDbLine
 10
43.20273187775369
 20
19.13609788953162
 30
0.0
 11
43.20273187775369
 21
87.3360978895316
 31
0.0
  0
LINE
  5
853
330
1F
100
AcDbEntity
  8
0
  6
Continuous
 62
     7
100
AcDbLine
 10
43.40273187775369
 20
19.13609788953162
 30
0.0
 11
43.40273187775369
 21
19.93609788953161
 31
0.0
  0
LINE
  5
854
330
1F
100
AcDbEntity
  8
0
  6
Continuous
 62
     7
100
AcDbLine
 10
43.9027318777537
 20
188.6315789031316
 30
0.0
 11
43.9027318777537
 21
179.1360978895316
 31
0.0
  0
LINE
  5
855
330
1F
100
AcDbEntity
  8
0
  6
Continuous
 62
     7
100
AcDbLine
 10
45.40273187775369
 20
116.6791603312316
 30
0.0
 11
45.40273187775369
 21
104.6360978895316
 31
0.0
  0
LINE
  5
856
330
1F
100
AcDbEntity
  8
0
  6
Continuous
 62
     7
100
AcDbLine
 10
46.4027318777537
 20
218.2874771999316
 30
0.0
 11
46.4027318777537
 21
217.9864171020316
 31
0.0
  0
LINE
  5
857
330
1F
100
AcDbEntity
  8
0
  6
Continuous
 62
     7
100
AcDbLine
 10
47.41273588095369
 20
169.1360978895316
 30
0.0
 11
47.41273588095369
 21
130.0080847838316
 31
0.0
  0
LINE
  5
858
330
1F
100
AcDbEntity
  8
0
  6
Continuous
 62
     7
100
AcDbLine
 10
47.74315742865368
 20
218.4049347639316
 30
0.0
 11
47.74315742865368
 21
218.1039929488316
 31
0.0
  0
LINE
  5
859
330
1F
100
AcDbEntity
  8
0
  6
Continuous
 62
     7
100
AcDbLine
 10
47.80698720835369
 20
218.4115732655317
 30
0.0
 11
47.80698720835369
 21
218.1106381328316
 31
0.0
  0
LINE
  5
85A
330
1F
100
AcDbEntity
  8
0
  6
Continuous
 62
     7
100
AcDbLine
 10
47.9984765471537
 20
218.4276537793316
 30
0.0
 11
47.9984765471537
 21
218.1267348321316
 31
0.0
  0
LINE
  5
85B
330
1F
100
AcDbEntity
  8
0
  6
Continuous
 62
     7
100
AcDbLine
 10
48.2537956656537
 20
218.4481564585316
 30
0.0
 11
48.2537956656537
 21
218.1472581454316
 31
0.0
  0
LINE
  5
85C
330
1F
100
AcDbEntity
  8
0
  6
Continuous
 62
     7
100
AcDbLine
 10
48.44528500455369
 20
218.4630943571316
 30
0.0
 11
48.44528500455369
 21
218.1622110759316
 31
0.0
  0
LINE
  5
85D
330
1F
100
AcDbEntity
  8
0
  6
Continuous
 62
     7
100
AcDbLine
 10
48.70060430185368
 20
218.4825675648316
 30
0.0
 11
48.70060430185368
 21
218.1817038770316
 31
0.0
  0
LINE
  5
85E
330
1F
100
AcDbEntity
  8
0
  6
Continuous
 62
     7
100
AcDbLine
 10
48.89209364075369
 20
218.4968395115316
 30
0.0
 11
48.89209364075369
 21
218.1959901821316
 31
0.0
  0
LINE
  5
85F
330
1F
100
AcDbEntity
  8
0
  6
Continuous
 62
     7
100
AcDbLine
 10
49.14741275925369
 20
218.5152835650316
 30
0.0
 11
49.14741275925369
 21
218.2144527894316
 31
0.0
  0
LINE
  5
860
330
1F
100
AcDbEntity
  8
0
  6
Continuous
 62
     7
100
AcDbLine
 10
49.33890209815371
 20
218.5284135511316
 30
0.0
 11
49.33890209815371
 21
218.2275959822316
 31
0.0
  0
LINE
  5
861
330
1F
100
AcDbEntity
  8
0
  6
Continuous
 62
     7
100
AcDbLine
 10
49.40273187775369
 20
218.5315124872316
 30
0.0
 11
49.40273187775369
 21
218.2306980352316
 31
0.0
  0
LINE
  5
862
330
1F
100
AcDbEntity
  8
0
  6
Continuous
 62
     7
100
AcDbLine
 10
32.5403359879537
 20
106.6433012101316
 30
0.0
 11
35.9084040146537
 21
105.0727452961316
 31
0.0
  0
LINE
  5
863
330
1F
100
AcDbEntity
  8
0
  6
Continuous
 62
     7
100
AcDbLine
 10
32.34033598795369
 20
111.6425353652316
 30
0.0
 11
35.37177918245369
 21
110.2289501884316
 31
0.0
  0
LINE
  5
864
330
1F
100
AcDbEntity
  8
0
  6
Continuous
 62
     7
100
AcDbLine
 10
51.6339835972537
 20
82.36751367253161
 30
0.0
 11
51.9650655416537
 21
19.13609788953162
 31
0.0
  0
LINE
  5
865
330
1F
100
AcDbEntity
  8
0
  6
Continuous
 62
     7
100
AcDbLine
 10
52.4339835972537
 20
83.16751367253161
 30
0.0
 11
52.76925437015369
 21
19.13609788953162
 31
0.0
  0
LINE
  5
866
330
1F
100
AcDbEntity
  8
0
  6
Continuous
 62
     7
100
AcDbLine
 10
51.90273187775369
 20
19.93609788953161
 30
0.0
 11
51.6312172248537
 21
82.16227774523161
 31
0.0
  0
LINE
  5
867
330
1F
100
AcDbEntity
  8
0
  6
Continuous
 62
     7
100
AcDbLine
 10
51.4027318777537
 20
218.6764610812316
 30
0.0
 11
51.4027318777537
 21
218.3757923446316
 31
0.0
  0
LINE
  5
868
330
1F
100
AcDbEntity
  8
0
  6
Continuous
 62
     7
100
AcDbLine
 10
51.7218808205537
 20
218.6976001432316
 30
0.0
 11
51.7218808205537
 21
218.3969526457316
 31
0.0
  0
LINE
  5
869
330
1F
100
AcDbEntity
  8
0
  6
Continuous
 62
     7
100
AcDbLine
 10
51.75273187775369
 20
19.13609788953162
 30
0.0
 11
51.75273187775369
 21
19.93609788953161
 31
0.0
  0
LINE
  5
86A
330
1F
100
AcDbEntity
  8
0
  6
Continuous
 62
     7
100
AcDbLine
 10
51.91337015945369
 20
218.7082940931316
 30
0.0
 11
51.91337015945369
 21
218.4076573390316
 31
0.0
  0
LINE
  5
86B
330
1F
100
AcDbEntity
  8
0
  6
Continuous
 62
     7
100
AcDbLine
 10
52.1048595430537
 20
218.7209059093316
 30
0.0
 11
52.1048595430537
 21
218.4202818244316
 31
0.0
  0
LINE
  5
86C
330
1F
100
AcDbEntity
  8
0
  6
Continuous
 62
     7
100
AcDbLine
 10
52.3601786615537
 20
218.7372435988316
 30
0.0
 11
52.3601786615537
 21
218.4366359242316
 31
0.0
  0
LINE
  5
86D
330
1F
100
AcDbEntity
  8
0
  6
Continuous
 62
     7
100
AcDbLine
 10
52.61549786945369
 20
218.7531477032316
 30
0.0
 11
52.61549786945369
 21
218.4525560019316
 31
0.0
  0
LINE
  5
86E
330
1F
100
AcDbEntity
  8
0
  6
Continuous
 62
     7
100
AcDbLine
 10
52.80698720835369
 20
218.7646244360316
 30
0.0
 11
52.80698720835369
 21
218.4640442601316
 31
0.0
  0
LINE
  5
86F
330
1F
100
AcDbEntity
  8
0
  6
Continuous
 62
     7
100
AcDbLine
 10
52.93464676755369
 20
218.7711187659316
 30
0.0
 11
52.93464676755369
 21
218.4705451115316
 31
0.0
  0
LINE
  5
870
330
1F
100
AcDbEntity
  8
0
  6
Continuous
 62
     7
100
AcDbLine
 10
53.1261361064537
 20
218.7840073847316
 30
0.0
 11
53.1261361064537
 21
218.4834466722316
 31
0.0
  0
LINE
  5
871
330
1F
100
AcDbEntity
  8
0
  6
Continuous
 62
     7
100
AcDbLine
 10
53.3176254453537
 20
218.7961212786316
 30
0.0
 11
53.3176254453537
 21
218.4955727288316
 31
0.0
  0
LINE
  5
872
330
1F
100
AcDbEntity
  8
0
  6
Continuous
 62
     7
100
AcDbLine
 10
53.57294456385369
 20
218.8116497007316
 30
0.0
 11
53.57294456385369
 21
218.5111167407316
 31
0.0
  0
LINE
  5
873
330
1F
100
AcDbEntity
  8
0
  6
Continuous
 62
     7
100
AcDbLine
 10
53.70060430185368
 20
218.8192179906316
 30
0.0
 11
53.70060430185368
 21
218.5186926282316
 31
0.0
  0
LINE
  5
874
330
1F
100
AcDbEntity
  8
0
  6
Continuous
 62
     7
100
AcDbLine
 10
53.9559234203537
 20
218.8339627353316
 30
0.0
 11
53.9559234203537
 21
218.5334521736316
 31
0.0
  0
LINE
  5
875
330
1F
100
AcDbEntity
  8
0
  6
Continuous
 62
     7
100
AcDbLine
 10
54.2112425388537
 20
218.8476746433316
 30
0.0
 11
54.2112425388537
 21
218.5471778443316
 31
0.0
  0
LINE
  5
876
330
1F
100
AcDbEntity
  8
0
  6
Continuous
 62
     7
100
AcDbLine
 10
54.33890209815371
 20
218.8537189264316
 30
0.0
 11
54.33890209815371
 21
218.5532281936316
 31
0.0
  0
LINE
  5
877
330
1F
100
AcDbEntity
  8
0
  6
Continuous
 62
     7
100
AcDbLine
 10
54.40273187775369
 20
218.8546548379316
 30
0.0
 11
54.40273187775369
 21
218.5541650444316
 31
0.0
  0
LINE
  5
878
330
1F
100
AcDbEntity
  8
BEZUGSACHSEN
  6
Continuous
 62
     7
100
AcDbLine
 10
73.4027318777537
 20
103.9360978895316
 30
0.0
 11
71.4756485940537
 21
103.9360978895316
 31
0.0
  0
LINE
  5
879
330
1F
100
AcDbEntity
  8
BEZUGSACHSEN
  6
Continuous
 62
     7
100
AcDbLine
 10
71.0589818777537
 20
103.9360978895316
 30
0.0
 11
69.13189844505369
 21
103.9360978895316
 31
0.0
  0
LINE
  5
87A
330
1F
100
AcDbEntity
  8
0
  6
Continuous
 62
     7
100
AcDbLine
 10
41.75771178475369
 20
103.9360978895316
 30
0.0
 11
41.4399035652537
 21
103.9360978895316
 31
0.0
  0
LINE
  5
87B
330
1F
100
AcDbEntity
  8
0
  6
Continuous
 62
     7
100
AcDbLine
 10
41.4325464756537
 20
103.9360978895316
 30
0.0
 11
38.78520972585369
 21
103.9360978895316
 31
0.0
  0
LINE
  5
87C
330
1F
100
AcDbEntity
  8
0
  6
Continuous
 62
     7
100
AcDbLine
 10
106.0654776193537
 20
104.1360978895316
 30
0.0
 11
97.90273187775369
 21
104.1360978895316
 31
0.0
  0
LINE
  5
87D
330
1F
100
AcDbEntity
  8
0
  6
Continuous
 62
     7
100
AcDbLine
 10
44.90273187775369
 20
104.1360978895316
 30
0.0
 11
40.7740205356537
 21
104.1360978895316
 31
0.0
  0
LINE
  5
87E
330
1F
100
AcDbEntity
  8
0
  6
Continuous
 62
     7
100
AcDbLine
 10
40.4615901039537
 20
104.1360978895316
 30
0.0
 11
39.16459638935369
 21
104.1360978895316
 31
0.0
  0
LINE
  5
87F
330
1F
100
AcDbEntity
  8
0
  6
Continuous
 62
     7
100
AcDbLine
 10
38.84156859155371
 20
104.1360978895316
 30
0.0
 11
36.73998613615369
 21
104.1360978895316
 31
0.0
  0
LINE
  5
880
330
1F
100
AcDbEntity
  8
RUNDUNGEN
  6
Continuous
 62
     7
100
AcDbLine
 10
44.90273187775369
 20
104.1360978895316
 30
0.0
 11
97.90273187775369
 21
104.1360978895316
 31
0.0
  0
LINE
  5
881
330
1F
100
AcDbEntity
  8
RUNDUNGEN
  6
Continuous
 62
     9
100
AcDbLine
 10
45.40273187775369
 20
104.6360978895316
 30
0.0
 11
97.4027318777537
 21
104.6360978895316
 31
0.0
  0
LINE
  5
882
330
1F
100
AcDbEntity
  8
RUNDUNGEN
  6
Continuous
 62
     9
100
AcDbLine
 10
61.87285648455369
 20
109.7079574424316
 30
0.0
 11
61.87285648455369
 21
104.6360978895316
 31
0.0
  0
LINE
  5
883
330
1F
100
AcDbEntity
  8
RUNDUNGEN
  6
Continuous
 62
     9
100
AcDbLine
 10
63.12535439345369
 20
109.7083327670316
 30
0.0
 11
63.12535439345369
 21
104.6360978895316
 31
0.0
  0
LINE
  5
884
330
1F
100
AcDbEntity
  8
0
  6
Continuous
 62
     7
100
AcDbLine
 10
35.8470496112537
 20
113.2822077626316
 30
0.0
 11
32.3564556116537
 21
112.0117354468316
 31
0.0
  0
LINE
  5
885
330
1F
100
AcDbEntity
  8
RUNDUNGEN
  6
Continuous
 62
     9
100
AcDbLine
 10
97.4027318777537
 20
109.7083327670316
 30
0.0
 11
79.6801093621537
 21
109.7083327670316
 31
0.0
  0
LINE
  5
886
330
1F
100
AcDbEntity
  8
RUNDUNGEN
  6
Continuous
 62
     9
100
AcDbLine
 10
45.40273187775369
 20
109.7083327670316
 30
0.0
 11
63.12535439345369
 21
109.7083327670316
 31
0.0
  0
LINE
  5
887
330
1F
100
AcDbEntity
  8
RUNDUNGEN
  6
Continuous
 62
     7
100
AcDbLine
 10
65.8059005605537
 20
219.0159255172316
 30
0.0
 11
65.8059005605537
 21
218.9908192619316
 31
0.0
  0
LINE
  5
888
330
1F
100
AcDbEntity
  8
0
  6
Continuous
 62
     7
100
AcDbLine
 10
65.88070712605369
 20
219.0908018513316
 30
0.0
 11
65.88070712615369
 21
219.1945000316316
 31
0.0
  0
LINE
  5
889
330
1F
100
AcDbEntity
  8
0
  6
Continuous
 62
     7
100
AcDbLine
 10
67.5862455945537
 20
219.1204636672316
 30
0.0
 11
67.5862455945537
 21
219.2179278473316
 31
0.0
  0
LINE
  5
88A
330
1F
100
AcDbEntity
  8
BEZUGSACHSEN
  6
Continuous
 62
     7
100
AcDbLine
 10
69.13189844505369
 20
104.1360978895316
 30
0.0
 11
69.13189844505369
 21
103.9360978895316
 31
0.0
  0
LINE
  5
88B
330
1F
100
AcDbEntity
  8
BEZUGSACHSEN
  6
Continuous
 62
     7
100
AcDbLine
 10
69.1839818777537
 20
104.1360978895316
 30
0.0
 11
69.1839818777537
 21
103.9360978895316
 31
0.0
  0
LINE
  5
88C
330
1F
100
AcDbEntity
  8
BEZUGSACHSEN
  6
Continuous
 62
     7
100
AcDbLine
 10
69.3402318777537
 20
104.1360978895316
 30
0.0
 11
69.3402318777537
 21
103.9360978895316
 31
0.0
  0
LINE
  5
88D
330
1F
100
AcDbEntity
  8
BEZUGSACHSEN
  6
Continuous
 62
     7
100
AcDbLine
 10
69.54856531045369
 20
104.1360978895316
 30
0.0
 11
69.54856531045369
 21
103.9360978895316
 31
0.0
  0
LINE
  5
88E
330
1F
100
AcDbEntity
  8
BEZUGSACHSEN
  6
Continuous
 62
     7
100
AcDbLine
 10
69.8089818777537
 20
104.1360978895316
 30
0.0
 11
69.8089818777537
 21
103.9360978895316
 31
0.0
  0
LINE
  5
88F
330
1F
100
AcDbEntity
  8
RUNDUNGEN
  6
Continuous
 62
     9
100
AcDbLine
 10
70.60709223655371
 20
189.9285311459316
 30
0.0
 11
70.60709223655371
 21
205.8297994715316
 31
0.0
  0
LINE
  5
890
330
1F
100
AcDbEntity
  8
BEZUGSACHSEN
  6
Continuous
 62
     7
100
AcDbLine
 10
70.7464818777537
 20
104.1360978895316
 30
0.0
 11
70.7464818777537
 21
103.9360978895316
 31
0.0
  0
LINE
  5
891
330
1F
100
AcDbEntity
  8
RUNDUNGEN
  6
Continuous
 62
     9
100
AcDbLine
 10
70.91343346345368
 20
189.9285312400316
 30
0.0
 11
70.91343346345368
 21
205.8754528674316
 31
0.0
  0
LINE
  5
892
330
1F
100
AcDbEntity
  8
BEZUGSACHSEN
  6
Continuous
 62
     7
100
AcDbLine
 10
71.0589818777537
 20
104.1360978895316
 30
0.0
 11
71.0589818777537
 21
103.9360978895316
 31
0.0
  0
LINE
  5
893
330
1F
100
AcDbEntity
  8
BEZUGSACHSEN
  6
Continuous
 62
     7
100
AcDbLine
 10
71.4756485940537
 20
104.1360978895316
 30
0.0
 11
71.4756485940537
 21
103.9360978895316
 31
0.0
  0
LINE
  5
894
330
1F
100
AcDbEntity
  8
BEZUGSACHSEN
  6
Continuous
 62
     7
100
AcDbLine
 10
71.5277318777537
 20
104.1360978895316
 30
0.0
 11
71.5277318777537
 21
103.9360978895316
 31
0.0
  0
LINE
  5
895
330
1F
100
AcDbEntity
  8
BEZUGSACHSEN
  6
Continuous
 62
     7
100
AcDbLine
 10
71.6839818777537
 20
104.1360978895316
 30
0.0
 11
71.6839818777537
 21
103.9360978895316
 31
0.0
  0
LINE
  5
896
330
1F
100
AcDbEntity
  8
RUNDUNGEN
  6
Continuous
 62
     9
100
AcDbLine
 10
71.8920302920537
 20
205.8754528674316
 30
0.0
 11
71.8920302920537
 21
189.9285312400316
 31
0.0
  0
LINE
  5
897
330
1F
100
AcDbEntity
  8
BEZUGSACHSEN
  6
Continuous
 62
     7
100
AcDbLine
 10
71.89231516145371
 20
104.1360978895316
 30
0.0
 11
71.89231516145371
 21
103.9360978895316
 31
0.0
  0
LINE
  5
898
330
1F
100
AcDbEntity
  8
BEZUGSACHSEN
  6
Continuous
 62
     7
100
AcDbLine
 10
72.1527318777537
 20
104.1360978895316
 30
0.0
 11
72.1527318777537
 21
103.9360978895316
 31
0.0
  0
LINE
  5
899
330
1F
100
AcDbEntity
  8
RUNDUNGEN
  6
Continuous
 62
     9
100
AcDbLine
 10
72.19837151905371
 20
205.8297393255316
 30
0.0
 11
72.19837151905371
 21
189.9285311459316
 31
0.0
  0
LINE
  5
89A
330
1F
100
AcDbEntity
  8
RUNDUNGEN
  6
Continuous
 62
     9
100
AcDbLine
 10
69.69316678425369
 20
199.9474259800316
 30
0.0
 11
69.68658830855369
 21
189.1315789031316
 31
0.0
  0
LINE
  5
89B
330
1F
100
AcDbEntity
  8
0
  6
Continuous
 62
     7
100
AcDbLine
 10
35.33953993505369
 20
108.0254611449316
 30
0.0
 11
32.5564556116537
 21
107.0125012917316
 31
0.0
  0
LINE
  5
89C
330
1F
100
AcDbEntity
  8
0
  6
Continuous
 62
     7
100
AcDbLine
 10
106.0963314836537
 20
114.1360978895316
 30
0.0
 11
104.9027318777537
 21
114.1360978895316
 31
0.0
  0
LINE
  5
89D
330
1F
100
AcDbEntity
  8
0
  6
Continuous
 62
     7
100
AcDbLine
 10
37.90273187775369
 20
114.1360978895316
 30
0.0
 11
36.70913227185371
 21
114.1360978895316
 31
0.0
  0
LINE
  5
89E
330
1F
100
AcDbEntity
  8
RUNDUNGEN
  6
Continuous
 62
     9
100
AcDbLine
 10
45.40273187775369
 20
115.4085029707316
 30
0.0
 11
64.6432981630537
 21
115.4085096344316
 31
0.0
  0
LINE
  5
89F
330
1F
100
AcDbEntity
  8
RUNDUNGEN
  6
Continuous
 62
     9
100
AcDbLine
 10
78.1621655924537
 20
115.4085096344316
 30
0.0
 11
97.4027318777537
 21
115.4085030579316
 31
0.0
  0
LINE
  5
8A0
330
1F
100
AcDbEntity
  8
RUNDUNGEN
  6
Continuous
 62
     9
100
AcDbLine
 10
73.1188754470537
 20
189.1315789031316
 30
0.0
 11
73.1122969713537
 21
199.9474259800316
 31
0.0
  0
LINE
  5
8A1
330
1F
100
AcDbEntity
  8
BEZUGSACHSEN
  6
Continuous
 62
     7
100
AcDbLine
 10
73.0902318777537
 20
104.1360978895316
 30
0.0
 11
73.0902318777537
 21
103.9360978895316
 31
0.0
  0
LINE
  5
8A2
330
1F
100
AcDbEntity
  8
BEZUGSACHSEN
  6
Continuous
 62
     7
100
AcDbLine
 10
73.4027318777537
 20
104.1360978895316
 30
0.0
 11
73.4027318777537
 21
103.9360978895316
 31
0.0
  0
LINE
  5
8A3
330
1F
100
AcDbEntity
  8
0
  6
Continuous
 62
     7
100
AcDbLine
 10
75.26015540265369
 20
219.1199536918316
 30
0.0
 11
75.26015540245371
 21
219.2173907524316
 31
0.0
  0
LINE
  5
8A4
330
1F
100
AcDbEntity
  8
0
  6
Continuous
 62
     7
100
AcDbLine
 10
76.96569387135369
 20
219.0900317530316
 30
0.0
 11
76.96569387115369
 21
219.1937574884316
 31
0.0
  0
LINE
  5
8A5
330
1F
100
AcDbEntity
  8
RUNDUNGEN
  6
Continuous
 62
     9
100
AcDbLine
 10
79.6801093621537
 20
104.6360978895316
 30
0.0
 11
79.6801093621537
 21
109.7083327670316
 31
0.0
  0
LINE
  5
8A6
330
1F
100
AcDbEntity
  8
0
  6
Continuous
 62
     7
100
AcDbLine
 10
107.4659238204537
 20
108.0254611449316
 30
0.0
 11
110.2490081438537
 21
107.0125012917316
 31
0.0
  0
LINE
  5
8A7
330
1F
100
AcDbEntity
  8
0
  6
Continuous
 62
     7
100
AcDbLine
 10
106.9584141442537
 20
113.2822077626316
 30
0.0
 11
110.4490081438537
 21
112.0117354468316
 31
0.0
  0
LINE
  5
8A8
330
1F
100
AcDbEntity
  8
RUNDUNGEN
  6
Continuous
 62
     9
100
AcDbLine
 10
80.93260727095369
 20
104.6360978895316
 30
0.0
 11
80.93260727095369
 21
109.7083327670316
 31
0.0
  0
LINE
  5
8A9
330
1F
100
AcDbEntity
  8
0
  6
Continuous
 62
     7
100
AcDbLine
 10
86.85925364685369
 20
218.6449129229316
 30
0.0
 11
86.85925364685369
 21
218.9453117601317
 31
0.0
  0
LINE
  5
8AA
330
1F
100
AcDbEntity
  8
0
  6
Continuous
 62
     7
100
AcDbLine
 10
49.90273187775369
 20
130.0080847838316
 30
0.0
 11
92.90273187775369
 21
130.0080847838316
 31
0.0
  0
LINE
  5
8AB
330
1F
100
AcDbEntity
  8
0
  6
Continuous
 62
     7
100
AcDbLine
 10
119.3608454932537
 20
133.0080847838316
 30
0.0
 11
95.39272787455368
 21
133.0080847838316
 31
0.0
  0
LINE
  5
8AC
330
1F
100
AcDbEntity
  8
0
  6
Continuous
 62
     7
100
AcDbLine
 10
47.41273588095369
 20
133.0080847838316
 30
0.0
 11
23.4446182622537
 21
133.0080847838316
 31
0.0
  0
LINE
  5
8AE
330
1F
100
AcDbEntity
  8
0
  6
Continuous
 62
     9
100
AcDbLine
 10
112.8938520056537
 20
133.4993585806316
 30
0.0
 11
95.39272787455368
 21
133.4993585806316
 31
0.0
  0
LINE
  5
8AF
330
1F
100
AcDbEntity
  8
0
  6
Continuous
 62
     9
100
AcDbLine
 10
47.41273588095369
 20
133.4993585806316
 30
0.0
 11
29.91161174985369
 21
133.4993585806316
 31
0.0
  0
LINE
  5
8B0
330
1F
100
AcDbEntity
  8
0
  6
Continuous
 62
     7
100
AcDbLine
 10
88.4027318777537
 20
218.5612687813316
 30
0.0
 11
88.4027318777537
 21
218.8617514528316
 31
0.0
  0
LINE
  5
8B1
330
1F
100
AcDbEntity
  8
0
  6
Continuous
 62
     7
100
AcDbLine
 10
88.66197531305369
 20
218.5464371134316
 30
0.0
 11
88.66197531305369
 21
218.8469346551316
 31
0.0
  0
LINE
  5
8B2
330
1F
100
AcDbEntity
  8
0
  6
Continuous
 62
     7
100
AcDbLine
 10
91.0527318777537
 20
19.13609788953162
 30
0.0
 11
91.0527318777537
 21
19.93609788953161
 31
0.0
  0
LINE
  5
8B3
330
1F
100
AcDbEntity
  8
0
  6
Continuous
 62
     7
100
AcDbLine
 10
91.76139211255369
 20
218.3516630729316
 30
0.0
 11
91.76139211255369
 21
218.6523560322316
 31
0.0
  0
LINE
  5
8B4
330
1F
100
AcDbEntity
  8
0
  6
Continuous
 62
     7
100
AcDbLine
 10
92.89685893825369
 20
218.5721300074316
 30
0.0
 11
92.89685893825369
 21
218.2713564020316
 31
0.0
  0
LINE
  5
8B5
330
1F
100
AcDbEntity
  8
0
  6
Continuous
 62
     7
100
AcDbLine
 10
93.1891773375537
 20
218.5369334483316
 30
0.0
 11
93.1891773375537
 21
218.2502330443316
 31
0.0
  0
LINE
  5
8B6
330
1F
100
AcDbEntity
  8
0
  6
Continuous
 62
     7
100
AcDbLine
 10
93.20002734095368
 20
218.5361480523317
 30
0.0
 11
93.20002734095368
 21
218.2494622588316
 31
0.0
  0
LINE
  5
8B7
330
1F
100
AcDbEntity
  8
0
  6
Continuous
 62
     7
100
AcDbLine
 10
90.9027318777537
 20
19.93609788953161
 30
0.0
 11
91.17424653075369
 21
82.16227774523161
 31
0.0
  0
LINE
  5
8B8
330
1F
100
AcDbEntity
  8
0
  6
Continuous
 62
     7
100
AcDbLine
 10
90.37148015825371
 20
83.16751367253161
 30
0.0
 11
90.03620938535368
 21
19.13609788953162
 31
0.0
  0
LINE
  5
8B9
330
1F
100
AcDbEntity
  8
0
  6
Continuous
 62
     7
100
AcDbLine
 10
91.17148015825369
 20
82.36751367253161
 30
0.0
 11
90.84039821385369
 21
19.13609788953162
 31
0.0
  0
LINE
  5
8BA
330
1F
100
AcDbEntity
  8
0
  6
Continuous
 62
     7
100
AcDbLine
 10
93.36122693525368
 20
182.5464145112316
 30
0.0
 11
92.90273187775369
 21
130.0080847838316
 31
0.0
  0
LINE
  5
8BB
330
1F
100
AcDbEntity
  8
0
  6
Continuous
 62
     7
100
AcDbLine
 10
26.8743353493537
 20
138.1765400661316
 30
0.0
 11
23.50260601135371
 21
138.1765400661316
 31
0.0
  0
LINE
  5
8BC
330
1F
100
AcDbEntity
  8
0
  6
Continuous
 62
     7
100
AcDbLine
 10
115.9310239187537
 20
138.1765400661316
 30
0.0
 11
119.3028577441537
 21
138.1765400661316
 31
0.0
  0
LINE
  5
8BD
330
1F
100
AcDbEntity
  8
0
  6
Continuous
 62
     7
100
AcDbLine
 10
94.83214132715369
 20
218.4213492322316
 30
0.0
 11
94.83214132715369
 21
218.1204239395316
 31
0.0
  0
LINE
  5
8BE
330
1F
100
AcDbEntity
  8
0
  6
Continuous
 62
     7
100
AcDbLine
 10
95.39272787455368
 20
169.1360978895316
 30
0.0
 11
95.39272787455368
 21
130.0080847838316
 31
0.0
  0
LINE
  5
8BF
330
1F
100
AcDbEntity
  8
0
  6
Continuous
 62
     7
100
AcDbLine
 10
96.9728375342537
 20
218.2516897645316
 30
0.0
 11
96.9728375342537
 21
217.9505936092316
 31
0.0
  0
LINE
  5
8C0
330
1F
100
AcDbEntity
  8
0
  6
Continuous
 62
     7
100
AcDbLine
 10
97.4027318777537
 20
116.6791603312316
 30
0.0
 11
97.4027318777537
 21
104.6360978895316
 31
0.0
  0
LINE
  5
8C1
330
1F
100
AcDbEntity
  8
0
  6
Continuous
 62
     7
100
AcDbLine
 10
98.8917055809537
 20
217.7809980212316
 30
0.0
 11
98.8917055809537
 21
218.0822649965316
 31
0.0
  0
LINE
  5
8C2
330
1F
100
AcDbEntity
  8
0
  6
Continuous
 62
     7
100
AcDbLine
 10
98.9027318777537
 20
188.6315789031316
 30
0.0
 11
98.9027318777537
 21
179.1360978895316
 31
0.0
  0
LINE
  5
8C3
330
1F
100
AcDbEntity
  8
0
  6
Continuous
 62
     7
100
AcDbLine
 10
99.40273187775369
 20
19.13609788953162
 30
0.0
 11
99.40273187775369
 21
19.93609788953161
 31
0.0
  0
LINE
  5
8C4
330
1F
100
AcDbEntity
  8
0
  6
Continuous
 62
     7
100
AcDbLine
 10
99.60273187775369
 20
19.13609788953162
 30
0.0
 11
99.60273187775369
 21
87.3360978895316
 31
0.0
  0
LINE
  5
8C5
330
1F
100
AcDbEntity
  8
0
  6
Continuous
 62
     7
100
AcDbLine
 10
100.4027318777537
 20
19.13609788953162
 30
0.0
 11
100.4027318777537
 21
88.13609788953161
 31
0.0
  0
LINE
  5
8C6
330
1F
100
AcDbEntity
  8
0
  6
Continuous
 62
     7
100
AcDbLine
 10
100.6091652486537
 20
217.6179258134316
 30
0.0
 11
100.6091652486537
 21
217.9193572211316
 31
0.0
  0
LINE
  5
8C7
330
1F
100
AcDbEntity
  8
0
  6
Continuous
 62
     7
100
AcDbLine
 10
110.4651277675537
 20
111.6425353652316
 30
0.0
 11
107.4336845730537
 21
110.2289501884316
 31
0.0
  0
LINE
  5
8C8
330
1F
100
AcDbEntity
  8
0
  6
Continuous
 62
     7
100
AcDbLine
 10
110.2651277675537
 20
106.6433012101316
 30
0.0
 11
106.8970597409537
 21
105.0727452961316
 31
0.0
  0
LINE
  5
8C9
330
1F
100
AcDbEntity
  8
RUNDUNGEN
  6
Continuous
 62
     7
100
AcDbLine
 10
119.2135122174537
 20
138.2298925764316
 30
0.0
 11
119.2137058877537
 21
138.2298524420316
 31
0.0
  0
LINE
  5
8CA
330
1F
100
AcDbEntity
  8
0
  6
Continuous
 62
     7
100
AcDbLine
 10
119.2350703680537
 20
138.2253878019316
 30
0.0
 11
119.2137044829537
 21
138.2298495041316
 31
0.0
  0
LWPOLYLINE
  5
8CB
330
1F
100
AcDbEntity
  8
0
  6
Continuous
 62
     7
100
AcDbPolyline
 90
        3
 70
     0
 43
0.0
 10
119.4253770179537
 20
138.1824568290316
 10
119.3298195445537
 20
138.2047823436316
 10
119.2350703680537
 20
138.2253878019316
  0
LINE
  5
8CC
330
1F
100
AcDbEntity
  8
0
  6
Continuous
 62
     7
100
AcDbLine
 10
119.4939630556537
 20
138.1653023796316
 30
0.0
 11
119.4253770179537
 21
138.1824568290316
 31
0.0
  0
LINE
  5
8CD
330
1F
100
AcDbEntity
  8
0
  6
Continuous
 62
     7
100
AcDbLine
 10
106.5418347457537
 20
113.8630931394316
 30
0.0
 11
106.7388195918537
 21
113.4764886110316
 31
0.0
  0
LINE
  5
8CE
330
1F
100
AcDbEntity
  8
0
  6
Continuous
 62
     7
100
AcDbLine
 10
104.2771569147537
 20
217.5241761814316
 30
0.0
 11
104.2771569147537
 21
217.2337173443316
 31
0.0
  0
LINE
  5
8CF
330
1F
100
AcDbEntity
  8
0
  6
Continuous
 62
     7
100
AcDbLine
 10
104.9027318777537
 20
114.1360978895316
 30
0.0
 11
104.9027318777537
 21
110.6360978895316
 31
0.0
  0
LINE
  5
8D0
330
1F
100
AcDbEntity
  8
0
  6
Continuous
 62
     7
100
AcDbLine
 10
104.9027318777537
 20
107.6360978895316
 30
0.0
 11
104.9027318777537
 21
104.1360978895316
 31
0.0
  0
LINE
  5
8D1
330
1F
100
AcDbEntity
  8
0
  6
Continuous
 62
     7
100
AcDbLine
 10
106.7676436600537
 20
217.2370715798316
 30
0.0
 11
106.7676436600537
 21
216.9485194307316
 31
0.0
  0
LINE
  5
8D2
330
1F
100
AcDbEntity
  8
0
  6
Continuous
 62
     7
100
AcDbLine
 10
107.2027318777537
 20
109.8664270736316
 30
0.0
 11
107.2027318777537
 21
108.4013381932316
 31
0.0
  0
LINE
  5
8D3
330
1F
100
AcDbEntity
  8
0
  6
Continuous
 62
     7
100
AcDbLine
 10
106.6952335037537
 20
104.8600648187316
 30
0.0
 11
106.5290695466537
 21
104.4487945928316
 31
0.0
  0
LINE
  5
8D4
330
1F
100
AcDbEntity
  8
0
  6
Continuous
 62
     7
100
AcDbLine
 10
110.0283974253537
 20
214.9222812504316
 30
0.0
 11
110.4704228580537
 21
206.4879335503316
 31
0.0
  0
LINE
  5
8D5
330
1F
100
AcDbEntity
  8
0
  6
Continuous
 62
     7
100
AcDbLine
 10
110.0749817977537
 20
214.4938260221316
 30
0.0
 11
110.4971491598537
 21
206.4383928811316
 31
0.0
  0
LINE
  5
8D6
330
1F
100
AcDbEntity
  8
0
  6
Continuous
 62
     7
100
AcDbLine
 10
111.1962305011537
 20
215.5674858343316
 30
0.0
 11
111.6805336130537
 21
206.3264319582316
 31
0.0
  0
LINE
  5
8D7
330
1F
100
AcDbEntity
  8
0
  6
Continuous
 62
     7
100
AcDbLine
 10
112.8938520056537
 20
133.4993585806316
 30
0.0
 11
111.7339966748537
 21
199.9474259800316
 31
0.0
  0
LINE
  5
8D8
330
1F
100
AcDbEntity
  8
0
  6
Continuous
 62
     7
100
AcDbLine
 10
114.7918077249537
 20
139.3629252403316
 30
0.0
 11
113.6733237165537
 21
203.4408311683316
 31
0.0
  0
LINE
  5
8D9
330
1F
100
AcDbEntity
  8
0
  6
Continuous
 62
     7
100
AcDbLine
 10
120.3071568776536
 20
137.1913405144316
 30
0.0
 11
120.3626688004537
 21
134.0255858546316
 31
0.0
  0
LWPOLYLINE
  5
8DA
330
1F
100
AcDbEntity
  8
0
  6
Continuous
 62
     7
100
AcDbPolyline
 90
        7
 70
     0
 43
0.0
 10
119.7139670209537
 20
138.0885396024316
 10
119.1197350889537
 20
142.5222037938316
 10
118.2717720621537
 20
147.6235307669316
 10
117.2799334068537
 20
152.5658928936316
 10
116.1494210718537
 20
157.3471186796316
 10
114.8847838237537
 20
161.9644947714316
 10
114.3685265302537
 20
163.6126886440316
  0
LINE
  5
8DB
330
1F
100
AcDbEntity
  8
0
  6
Continuous
 62
     9
100
AcDbLine
 10
49.44423682025369
 20
182.5464145112316
 30
0.0
 11
93.36122693525368
 21
182.5464145112316
 31
0.0
  0
LINE
  5
8DC
330
1F
100
AcDbEntity
  8
0
  6
Continuous
 62
     7
100
AcDbLine
 10
98.37733202065372
 20
189.1309333336316
 30
0.0
 11
98.4034053340537
 21
189.1314388616316
 31
0.0
  0
LINE
  5
8DD
330
1F
100
AcDbEntity
  8
0
  6
Continuous
 62
     9
100
AcDbLine
 10
46.83111628775368
 20
188.1705349119316
 30
0.0
 11
95.97434746785371
 21
188.1705349119316
 31
0.0
  0
LINE
  5
8DE
330
1F
100
AcDbEntity
  8
0
  6
Continuous
 62
     7
100
AcDbLine
 10
44.4656751096537
 20
189.1315789031316
 30
0.0
 11
98.33978864595369
 21
189.1315789031316
 31
0.0
  0
LINE
  5
8DF
330
1F
100
AcDbEntity
  8
RUNDUNGEN
  6
Continuous
 62
     9
100
AcDbLine
 10
70.75210679345369
 20
189.2401476274316
 30
0.0
 11
72.0533569621537
 21
189.2401476274316
 31
0.0
  0
LINE
  5
8E0
330
1F
100
AcDbEntity
  8
RUNDUNGEN
  6
Continuous
 62
     9
100
AcDbLine
 10
71.8979272388537
 20
189.6296728306316
 30
0.0
 11
70.90753651675369
 21
189.6296728306316
 31
0.0
  0
LINE
  5
8E1
330
1F
100
AcDbEntity
  8
RUNDUNGEN
  6
Continuous
 62
     9
100
AcDbLine
 10
70.60709223655371
 20
189.9285312400316
 30
0.0
 11
72.19837151905371
 21
189.9285312400316
 31
0.0
  0
LINE
  5
8E2
330
1F
100
AcDbEntity
  8
0
  6
Continuous
 62
     7
100
AcDbLine
 10
44.42813173485371
 20
189.1309333336316
 30
0.0
 11
44.4020584215537
 21
189.1314388616316
 31
0.0
  0
LINE
  5
8E3
330
1F
100
AcDbEntity
  8
0
  6
Continuous
 62
     9
100
AcDbLine
 10
111.7339966748537
 20
199.9474259800316
 30
0.0
 11
73.1122969713537
 21
199.9474259800316
 31
0.0
  0
LINE
  5
8E4
330
1F
100
AcDbEntity
  8
0
  6
Continuous
 62
     9
100
AcDbLine
 10
69.69316678425369
 20
199.9474259800316
 30
0.0
 11
31.07146708065369
 21
199.9474259800316
 31
0.0
  0
LINE
  5
8E5
330
1F
100
AcDbEntity
  8
0
  6
Continuous
 62
     9
100
AcDbLine
 10
107.3404443616537
 20
204.8233427953316
 30
0.0
 11
72.9570169049537
 21
204.8233427953316
 31
0.0
  0
LINE
  5
8E6
330
1F
100
AcDbEntity
  8
0
  6
Continuous
 62
     9
100
AcDbLine
 10
69.8484468505537
 20
204.8233427953316
 30
0.0
 11
35.4650193938537
 21
204.8233427953316
 31
0.0
  0
LINE
  5
8E7
330
1F
100
AcDbEntity
  8
RUNDUNGEN
  6
Continuous
 62
     9
100
AcDbLine
 10
71.8920302920537
 20
205.8754528674316
 30
0.0
 11
70.91343346345368
 21
205.8754528674316
 31
0.0
  0
LINE
  5
8E8
330
1F
100
AcDbEntity
  8
RUNDUNGEN
  6
Continuous
 62
     9
100
AcDbLine
 10
71.88599500175368
 20
206.1746100356316
 30
0.0
 11
70.91946875385371
 21
206.1746100356316
 31
0.0
  0
LINE
  5
8E9
330
1F
100
AcDbEntity
  8
0
  6
Continuous
 62
     7
100
AcDbLine
 10
31.12493014245369
 20
206.3264319582316
 30
0.0
 11
31.5432831937537
 21
206.3264319582316
 31
0.0
  0
LINE
  5
8EA
330
1F
100
AcDbEntity
  8
0
  6
Continuous
 62
     7
100
AcDbLine
 10
111.2621805617537
 20
206.3264319582316
 30
0.0
 11
111.6805336130537
 21
206.3264319582316
 31
0.0
  0
LINE
  5
8EB
330
1F
100
AcDbEntity
  8
0
  6
Continuous
 62
     9
100
AcDbLine
 10
110.0283974253537
 20
214.9222812504316
 30
0.0
 11
106.4921214663537
 21
214.9222812504316
 31
0.0
  0
LINE
  5
8EC
330
1F
100
AcDbEntity
  8
0
  6
Continuous
 62
     9
100
AcDbLine
 10
36.3133422891537
 20
214.9222812504316
 30
0.0
 11
32.7770663301537
 21
214.9222812504316
 31
0.0
  0
LINE
  5
8ED
330
1F
100
AcDbEntity
  8
0
  6
Continuous
 62
     9
100
AcDbLine
 10
109.5930103311537
 20
215.3920096854316
 30
0.0
 11
102.3195195909537
 21
215.3920096854316
 31
0.0
  0
LINE
  5
8EE
330
1F
100
AcDbEntity
  8
0
  6
Continuous
 62
     9
100
AcDbLine
 10
40.4859441645537
 20
215.3920096854316
 30
0.0
 11
33.2124534243537
 21
215.3920096854316
 31
0.0
  0
LINE
  5
8EF
330
1F
100
AcDbEntity
  8
0
  6
Continuous
 62
     9
100
AcDbLine
 10
65.88049987505368
 20
219.1944924879316
 30
0.0
 11
65.88070712615369
 21
219.1945000316316
 31
0.0
  0
LINE
  5
8F0
330
1F
100
AcDbEntity
  8
0
  6
Continuous
 62
     9
100
AcDbLine
 10
65.8805003115537
 20
219.0907944314316
 30
0.0
 11
65.88070712605369
 21
219.0908018513316
 31
0.0
  0
LINE
  5
8F1
330
1F
100
AcDbEntity
  8
0
  6
Continuous
 62
     7
100
AcDbLine
 10
67.48493316095369
 20
219.3179191360316
 30
0.0
 11
67.4846359390537
 21
219.3179114641316
 31
0.0
  0
LINE
  5
8F2
330
1F
100
AcDbEntity
  8
0
  6
Continuous
 62
     7
100
AcDbLine
 10
67.68749243565371
 20
219.0204715394316
 30
0.0
 11
67.6871855598537
 21
219.0204639151316
 31
0.0
  0
LINE
  5
8F3
330
1F
100
AcDbEntity
  8
0
  6
Continuous
 62
     7
100
AcDbLine
 10
75.36045396895371
 20
219.3173824762316
 30
0.0
 11
75.3611499061537
 21
219.3173851954316
 31
0.0
  0
LINE
  5
8F4
330
1F
100
AcDbEntity
  8
0
  6
Continuous
 62
     7
100
AcDbLine
 10
104.2771569147537
 20
217.5241761814316
 30
0.0
 11
101.5285783362537
 21
217.5241761814316
 31
0.0
  0
LINE
  5
8F5
330
1F
100
AcDbEntity
  8
RUNDUNGEN
  6
Continuous
 62
     9
100
AcDbLine
 10
65.84677092545369
 20
219.0159168080316
 30
0.0
 11
65.8059005605537
 21
219.0159168080316
 31
0.0
  0
LINE
  5
8F6
330
1F
100
AcDbEntity
  8
0
  6
Continuous
 62
     9
100
AcDbLine
 10
67.58624753055371
 20
219.1204510296316
 30
0.0
 11
75.2604547806537
 21
219.1199461182316
 31
0.0
  0
LINE
  5
8F7
330
1F
100
AcDbEntity
  8
0
  6
Continuous
 62
     7
100
AcDbLine
 10
75.1592107516537
 20
219.0199540520316
 30
0.0
 11
75.1588949160537
 21
219.0199617340316
 31
0.0
  0
LINE
  5
8F8
330
1F
100
AcDbEntity
  8
0
  6
Continuous
 62
     7
100
AcDbLine
 10
75.3617774721537
 20
219.3173741791316
 30
0.0
 11
75.36147615615369
 21
219.3173819304316
 31
0.0
  0
LINE
  5
8F9
330
1F
100
AcDbEntity
  8
0
  6
Continuous
 62
     9
100
AcDbLine
 10
76.96569387115369
 20
219.1937574884316
 30
0.0
 11
76.96590112385369
 21
219.1937499818316
 31
0.0
  0
LINE
  5
8FA
330
1F
100
AcDbEntity
  8
0
  6
Continuous
 62
     9
100
AcDbLine
 10
76.9657011524537
 20
219.0900316144317
 30
0.0
 11
76.96590074685369
 21
219.0900242369316
 31
0.0
  0
ARC
  5
8FB
330
1F
100
AcDbEntity
  8
RUNDUNGEN
  6
Continuous
 62
     9
100
AcDbCircle
 10
-13.2103338078463
 20
136.7275104348316
 30
0.0
 40
128.5515148844
100
AcDbArc
 50
0.8896134791999037
 51
6.114355778099896
  0
ARC
  5
8FC
330
1F
100
AcDbEntity
  8
0
  6
Continuous
 62
     7
100
AcDbCircle
 10
35.20273187775369
 20
109.8664270736316
 30
0.0
 40
0.4
100
AcDbArc
 50
0.0
 51
65.00000005679992
  0
ARC
  5
8FD
330
1F
100
AcDbEntity
  8
0
  6
Continuous
 62
     7
100
AcDbCircle
 10
35.20273187775369
 20
108.4013381932316
 30
0.0
 40
0.4
100
AcDbArc
 50
289.9999999080001
 51
0.0
  0
ARC
  5
8FE
330
1F
100
AcDbEntity
  8
0
  6
Continuous
 62
     7
100
AcDbCircle
 10
32.62485964035369
 20
106.8245627675316
 30
0.0
 40
0.2
100
AcDbArc
 50
109.9999996817998
 51
245.000000309
  0
ARC
  5
8FF
330
1F
100
AcDbEntity
  8
0
  6
Continuous
 62
     7
100
AcDbCircle
 10
32.4248596403537
 20
111.8237969226316
 30
0.0
 40
0.2
100
AcDbArc
 50
109.9999996783
 51
245.0000003122998
  0
ARC
  5
900
330
1F
100
AcDbEntity
  8
0
  6
Continuous
 62
     7
100
AcDbCircle
 10
29.4127358809537
 20
130.0080847838316
 30
0.0
 40
20.4899959968
100
AcDbArc
 50
322.6894126914
 51
0.0
  0
ARC
  5
901
330
1F
100
AcDbEntity
  8
0
  6
Continuous
 62
     7
100
AcDbCircle
 10
29.4127358809537
 20
130.0080847838316
 30
0.0
 40
18.0
100
AcDbArc
 50
298.1425235160998
 51
0.0
  0
ARC
  5
902
330
1F
100
AcDbEntity
  8
0
  6
Continuous
 62
     9
100
AcDbCircle
 10
29.8629029733537
 20
123.9963175517316
 30
0.0
 40
17.0933192326
100
AcDbArc
 50
336.5156486447003
 51
337.4973191113002
  0
ARC
  5
903
330
1F
100
AcDbEntity
  8
0
  6
Continuous
 62
     9
100
AcDbCircle
 10
30.3726457631537
 20
123.7743557263316
 30
0.0
 40
16.5373475074
100
AcDbArc
 50
335.5224900699999
 51
336.5171894086
  0
ARC
  5
904
330
1F
100
AcDbEntity
  8
0
  6
Continuous
 62
     7
100
AcDbCircle
 10
24.01804089605369
 20
139.4323274600316
 30
0.0
 40
3.996190828299999
100
AcDbArc
 50
355.0429044087002
 51
359.0068521837002
  0
ARC
  5
905
330
1F
100
AcDbEntity
  8
0
  6
Continuous
 62
     7
100
AcDbCircle
 10
26.8746348526537
 20
141.6568074136316
 30
0.0
 40
3.480267360299999
100
AcDbArc
 50
269.9950692652002
 51
273.1293677127999
  0
ARC
  5
906
330
1F
100
AcDbEntity
  8
0
  6
Continuous
 62
     7
100
AcDbCircle
 10
23.5010857163537
 20
137.1730737619316
 30
0.0
 40
1.002945430699999
100
AcDbArc
 50
90.00287951329999
 51
178.9564079020999
  0
ARC
  5
907
330
1F
100
AcDbEntity
  8
0
  6
Continuous
 62
     7
100
AcDbCircle
 10
23.4434804808537
 20
134.0090453763316
 30
0.0
 40
1.0008909387
100
AcDbArc
 50
179.0530358536998
 51
270.0651274815
  0
ARC
  5
908
330
1F
100
AcDbEntity
  8
0
  6
Continuous
 62
     7
100
AcDbCircle
 10
23.4248895877537
 20
134.0080847838316
 30
0.0
 40
1.0
100
AcDbArc
 50
178.9989749083001
 51
270.0
  0
ARC
  5
909
330
1F
100
AcDbEntity
  8
0
  6
Continuous
 62
     7
100
AcDbCircle
 10
27.0103214176537
 20
139.1729343283316
 30
0.0
 40
0.9926878278
100
AcDbArc
 50
273.1065255581998
 51
355.0348656622002
  0
ARC
  5
90A
330
1F
100
AcDbEntity
  8
0
  6
Continuous
 62
     7
100
AcDbCircle
 10
29.41168790225371
 20
133.5080847838316
 30
0.0
 40
0.5
100
AcDbArc
 50
270.0000000001002
 51
359.0000000001
  0
ARC
  5
90B
330
1F
100
AcDbEntity
  8
0
  6
Continuous
 62
     7
100
AcDbCircle
 10
47.3310739888537
 20
107.7902587340316
 30
0.0
 40
110.0221404103
100
AcDbArc
 50
92.10381211250004
 51
92.23823363589978
  0
ARC
  5
90C
330
1F
100
AcDbEntity
  8
0
  6
Continuous
 62
     7
100
AcDbCircle
 10
45.6312743404537
 20
82.13609788953162
 30
0.0
 40
6.0
100
AcDbArc
 50
0.2500000000001164
 51
90.0
  0
ARC
  5
90D
330
1F
100
AcDbEntity
  8
0
  6
Continuous
 62
     7
100
AcDbCircle
 10
45.6340658437537
 20
82.3360978895316
 30
0.0
 40
6.0
100
AcDbArc
 50
0.2999999999998646
 51
90.0
  0
ARC
  5
90E
330
1F
100
AcDbEntity
  8
0
  6
Continuous
 62
     7
100
AcDbCircle
 10
46.4340658437537
 20
83.13609788953161
 30
0.0
 40
6.0
100
AcDbArc
 50
0.2999999999998646
 51
90.0
  0
ARC
  5
90F
330
1F
100
AcDbEntity
  8
0
  6
Continuous
 62
     7
100
AcDbCircle
 10
37.90273187775369
 20
109.1360978895316
 30
0.0
 40
1.5
100
AcDbArc
 50
90.0
 51
270.0
  0
ARC
  5
910
330
1F
100
AcDbEntity
  8
0
  6
Continuous
 62
     7
100
AcDbCircle
 10
44.20273187775369
 20
87.13609788953162
 30
0.0
 40
1.0
100
AcDbArc
 50
90.0
 51
180.0
  0
ARC
  5
911
330
1F
100
AcDbEntity
  8
0
  6
Continuous
 62
     7
100
AcDbCircle
 10
44.20273187775369
 20
87.3360978895316
 30
0.0
 40
1.0
100
AcDbArc
 50
90.00000000010013
 51
180.0
  0
ARC
  5
912
330
1F
100
AcDbEntity
  8
0
  6
Continuous
 62
     7
100
AcDbCircle
 10
43.40273187775369
 20
88.13609788953161
 30
0.0
 40
1.0
100
AcDbArc
 50
90.00000000010013
 51
180.0
  0
ARC
  5
913
330
1F
100
AcDbEntity
  8
0
  6
Continuous
 62
     7
100
AcDbCircle
 10
36.73998613615369
 20
104.6360978895316
 30
0.0
 40
0.5
100
AcDbArc
 50
202.0000000012001
 51
270.0
  0
ARC
  5
914
330
1F
100
AcDbEntity
  8
0
  6
Continuous
 62
     7
100
AcDbCircle
 10
44.90273187775369
 20
104.6360978895316
 30
0.0
 40
0.5
100
AcDbArc
 50
270.0
 51
0.0
  0
ARC
  5
915
330
1F
100
AcDbEntity
  8
0
  6
Continuous
 62
     7
100
AcDbCircle
 10
35.7393567099537
 20
104.7102221813316
 30
0.0
 40
0.4
100
AcDbArc
 50
21.99999999940025
 51
65.00000000589998
  0
ARC
  5
916
330
1F
100
AcDbEntity
  8
0
  6
Continuous
 62
     7
100
AcDbCircle
 10
46.90272915345369
 20
116.6791603312316
 30
0.0
 40
1.4999997665
100
AcDbArc
 50
142.6890498061
 51
179.9996226651001
  0
ARC
  5
917
330
1F
100
AcDbEntity
  8
0
  6
Continuous
 62
     7
100
AcDbCircle
 10
36.70913227185371
 20
113.6360978895316
 30
0.0
 40
0.5
100
AcDbArc
 50
90.0
 51
152.9999999993
  0
ARC
  5
918
330
1F
100
AcDbEntity
  8
0
  6
Continuous
 62
     7
100
AcDbCircle
 10
35.71024155395371
 20
113.6580848109316
 30
0.0
 40
0.4
100
AcDbArc
 50
289.9999999936999
 51
333.0000000009998
  0
ARC
  5
919
330
1F
100
AcDbEntity
  8
0
  6
Continuous
 62
     7
100
AcDbCircle
 10
41.13612004335368
 20
181.5869452990316
 30
0.0
 40
36.0163500222
100
AcDbArc
 50
89.58552821300001
 51
89.81578735899992
  0
ARC
  5
91A
330
1F
100
AcDbEntity
  8
0
  6
Continuous
 62
     7
100
AcDbCircle
 10
49.0345251757537
 20
206.2985035435316
 30
0.0
 40
12.1751101659
100
AcDbArc
 50
95.7865967652002
 51
96.08859873639991
  0
ARC
  5
91B
330
1F
100
AcDbEntity
  8
0
  6
Continuous
 62
     7
100
AcDbCircle
 10
49.9542597714537
 20
206.5126050748316
 30
0.0
 40
12.0315551117
100
AcDbArc
 50
92.62736593779996
 51
92.93168976660016
  0
ARC
  5
91C
330
1F
100
AcDbEntity
  8
0
  6
Continuous
 62
     7
100
AcDbCircle
 10
37.41273588095371
 20
169.1360978895316
 30
0.0
 40
10.0
100
AcDbArc
 50
0.0
 51
38.68218745349991
  0
ARC
  5
91D
330
1F
100
AcDbEntity
  8
0
  6
Continuous
 62
     7
100
AcDbCircle
 10
41.94452239735371
 20
182.4809654949316
 30
0.0
 40
7.5
100
AcDbArc
 50
0.5000000000000993
 51
49.34174586059987
  0
ARC
  5
91E
330
1F
100
AcDbEntity
  8
0
  6
Continuous
 62
     7
100
AcDbCircle
 10
39.9865109545537
 20
210.5248026452316
 30
0.0
 40
7.133175012399999
100
AcDbArc
 50
82.31403392449978
 51
82.84000688100007
  0
ARC
  5
91F
330
1F
100
AcDbEntity
  8
0
  6
Continuous
 62
     7
100
AcDbCircle
 10
49.90273187775369
 20
179.1360978895316
 30
0.0
 40
6.0
100
AcDbArc
 50
180.0
 51
218.6821874534999
  0
ARC
  5
920
330
1F
100
AcDbEntity
  8
0
  6
Continuous
 62
     7
100
AcDbCircle
 10
36.0707055564537
 20
199.8601639478316
 30
0.0
 40
5.0
100
AcDbArc
 50
96.95774003230006
 51
178.9999999999998
  0
ARC
  5
921
330
1F
100
AcDbEntity
  8
0
  6
Continuous
 62
     7
100
AcDbCircle
 10
44.22493287945369
 20
185.1360978895316
 30
0.0
 40
4.0
100
AcDbArc
 50
49.34174586040009
 51
87.08813748540004
  0
ARC
  5
922
330
1F
100
AcDbEntity
  8
0
  6
Continuous
 62
     7
100
AcDbCircle
 10
32.1316831244537
 20
203.3884739490316
 30
0.0
 40
3.0
100
AcDbArc
 50
97.63262610690006
 51
179.0000000004001
  0
ARC
  5
923
330
1F
100
AcDbEntity
  8
0
  6
Continuous
 62
     7
100
AcDbCircle
 10
40.46209475245371
 20
216.5946669371316
 30
0.0
 40
1.143929758899999
100
AcDbArc
 50
92.84797249630011
 51
94.13848083560004
  0
ARC
  5
924
330
1F
100
AcDbEntity
  8
0
  6
Continuous
 62
     7
100
AcDbCircle
 10
32.6078627891537
 20
215.5151498781316
 30
0.0
 40
1.0
100
AcDbArc
 50
97.45760302839993
 51
177.0000000000001
  0
ARC
  5
925
330
1F
100
AcDbEntity
  8
0
  6
Continuous
 62
     7
100
AcDbCircle
 10
40.21880374085369
 20
217.0264030711316
 30
0.0
 40
0.9181114134999999
100
AcDbArc
 50
37.4617148423998
 51
38.17794700920006
  0
ARC
  5
926
330
1F
100
AcDbEntity
  8
0
  6
Continuous
 62
     7
100
AcDbCircle
 10
33.27638109755369
 20
214.8961132723316
 30
0.0
 40
0.5
100
AcDbArc
 50
97.34567850669989
 51
177.0000000000001
  0
ARC
  5
927
330
1F
100
AcDbEntity
  8
0
  6
Continuous
 62
     7
100
AcDbCircle
 10
44.40273187775369
 20
188.6315789031316
 30
0.0
 40
0.5
100
AcDbArc
 50
90.07719397630012
 51
180.0
  0
ARC
  5
928
330
1F
100
AcDbEntity
  8
0
  6
Continuous
 62
     7
100
AcDbCircle
 10
71.4027318777537
 20
-80.85562698656838
 30
0.0
 40
300.1991121549
100
AcDbArc
 50
90.74776938010016
 51
91.03524362179987
  0
ARC
  5
929
330
1F
100
AcDbEntity
  8
0
  6
Continuous
 62
     7
100
AcDbCircle
 10
71.4027318777537
 20
-80.85562698656838
 30
0.0
 40
300.1991121549
100
AcDbArc
 50
88.95693992429983
 51
89.24441510790007
  0
ARC
  5
92A
330
1F
100
AcDbEntity
  8
0
  6
Continuous
 62
     7
100
AcDbCircle
 10
71.4027318777537
 20
-80.85562698656838
 30
0.0
 40
300.1991121549
100
AcDbArc
 50
86.75365595970012
 51
87.04867477890008
  0
ARC
  5
92B
330
1F
100
AcDbEntity
  8
0
  6
Continuous
 62
     7
100
AcDbCircle
 10
71.4027318777537
 20
-80.85562698656838
 30
0.0
 40
300.1991121549
100
AcDbArc
 50
86.11137659880011
 51
86.70409620110008
  0
ARC
  5
92C
330
1F
100
AcDbEntity
  8
0
  6
Continuous
 62
     7
100
AcDbCircle
 10
71.4027318777537
 20
-80.85562698656838
 30
0.0
 40
300.1991121549
100
AcDbArc
 50
84.41685031279979
 51
84.74611516069979
  0
ARC
  5
92D
330
1F
100
AcDbEntity
  8
0
  6
Continuous
 62
     7
100
AcDbCircle
 10
71.4027318777537
 20
-80.85562698656838
 30
0.0
 40
300.1990535998
100
AcDbArc
 50
93.75896932170013
 51
93.82001533719993
  0
ARC
  5
92E
330
1F
100
AcDbEntity
  8
0
  6
Continuous
 62
     7
100
AcDbCircle
 10
71.4027318777537
 20
-80.85562698656838
 30
0.0
 40
300.1978369572
100
AcDbArc
 50
94.33707025730015
 51
94.38594204649998
  0
ARC
  5
92F
330
1F
100
AcDbEntity
  8
0
  6
Continuous
 62
     7
100
AcDbCircle
 10
71.4027318777537
 20
-80.85562698656838
 30
0.0
 40
300.197446589
100
AcDbArc
 50
93.63690954309987
 51
93.68573949650008
  0
ARC
  5
930
330
1F
100
AcDbEntity
  8
0
  6
Continuous
 62
     7
100
AcDbCircle
 10
71.4027318777537
 20
-80.85562698656838
 30
0.0
 40
300.1972318874
100
AcDbArc
 50
93.38059721719975
 51
93.40500519330012
  0
ARC
  5
931
330
1F
100
AcDbEntity
  8
0
  6
Continuous
 62
     7
100
AcDbCircle
 10
71.4027318777537
 20
-80.85562698656838
 30
0.0
 40
300.1881070344
100
AcDbArc
 50
86.70397523730011
 51
86.75353681880002
  0
ARC
  5
932
330
1F
100
AcDbEntity
  8
0
  6
Continuous
 62
     7
100
AcDbCircle
 10
71.4027318777537
 20
-80.85562698656838
 30
0.0
 40
300.1859370163
100
AcDbArc
 50
94.52053553669978
 51
94.77722408439985
  0
ARC
  5
933
330
1F
100
AcDbEntity
  8
0
  6
Continuous
 62
     7
100
AcDbCircle
 10
71.4027318777537
 20
-80.85562698656838
 30
0.0
 40
299.8991121549
100
AcDbArc
 50
84.74084470579994
 51
86.10748067459992
  0
ARC
  5
934
330
1F
100
AcDbEntity
  8
0
  6
Continuous
 62
     7
100
AcDbCircle
 10
71.4027318777537
 20
-80.85562698656838
 30
0.0
 40
299.8991121549
100
AcDbArc
 50
86.70079554160016
 51
86.7504050388
  0
ARC
  5
935
330
1F
100
AcDbEntity
  8
0
  6
Continuous
 62
     7
100
AcDbCircle
 10
71.4027318777537
 20
-80.85562698656838
 30
0.0
 40
299.8991121549
100
AcDbArc
 50
89.28236561020009
 51
90.70981532270018
  0
ARC
  5
936
330
1F
100
AcDbEntity
  8
0
  6
Continuous
 62
     7
100
AcDbCircle
 10
71.4027318777537
 20
-80.85562698656838
 30
0.0
 40
299.8991121549
100
AcDbArc
 50
82.54239697160004
 51
84.41124751339989
  0
ARC
  5
937
330
1F
100
AcDbEntity
  8
0
  6
Continuous
 62
     7
100
AcDbCircle
 10
71.4027318777537
 20
-80.85562698656838
 30
0.0
 40
299.8991121549
100
AcDbArc
 50
87.04571984300011
 51
88.91838578389991
  0
ARC
  5
938
330
1F
100
AcDbEntity
  8
0
  6
Continuous
 62
     7
100
AcDbCircle
 10
71.4027318777537
 20
-80.85562698656838
 30
0.0
 40
299.8991121549
100
AcDbArc
 50
91.07379437229999
 51
97.45760302839993
  0
ARC
  5
939
330
1F
100
AcDbEntity
  8
0
  6
Continuous
 62
     7
100
AcDbCircle
 10
71.4027318777537
 20
-90.85562698656838
 30
0.0
 40
299.8991121549
100
AcDbArc
 50
97.48516280020002
 51
97.71840470259986
  0
ARC
  5
93A
330
1F
100
AcDbEntity
  8
0
  6
Continuous
 62
     7
100
AcDbCircle
 10
71.4027318777537
 20
-90.85562698656838
 30
0.0
 40
299.8991121549
100
AcDbArc
 50
82.28159529740015
 51
82.51483719979995
  0
ARC
  5
93B
330
1F
100
AcDbEntity
  8
0
  6
Continuous
 62
     7
100
AcDbCircle
 10
71.32233093085369
 20
-79.73608603636839
 30
0.0
 40
299.0766934667
100
AcDbArc
 50
95.93850864990006
 51
96.70803715400008
  0
ARC
  5
93C
330
1F
100
AcDbEntity
  8
0
  6
Continuous
 62
     7
100
AcDbCircle
 10
71.2805239913537
 20
-79.7117561994684
 30
0.0
 40
299.0661135052
100
AcDbArc
 50
85.89479397849993
 51
86.07320993869992
  0
ARC
  5
93D
330
1F
100
AcDbEntity
  8
0
  6
Continuous
 62
     7
100
AcDbCircle
 10
71.4027318777537
 20
-80.85562698656838
 30
0.0
 40
298.6991121549
100
AcDbArc
 50
82.6543214933001
 51
97.34567850669989
  0
ARC
  5
93E
330
1F
100
AcDbEntity
  8
0
  6
Continuous
 62
     7
100
AcDbCircle
 10
71.4027318777537
 20
-81.66133498046837
 30
0.0
 40
298.6694197643
100
AcDbArc
 50
82.56035224770021
 51
97.43964775229976
  0
ARC
  5
93F
330
1F
100
AcDbEntity
  8
0
  6
Continuous
 62
     7
100
AcDbCircle
 10
71.4027318777537
 20
-89.66133498046838
 30
0.0
 40
298.6694197643
100
AcDbArc
 50
82.36737389309991
 51
97.63262610690006
  0
ARC
  5
940
330
1F
100
AcDbEntity
  8
0
  6
Continuous
 62
     7
100
AcDbCircle
 10
71.39918137495371
 20
-78.62098640486839
 30
0.0
 40
297.9646264220999
100
AcDbArc
 50
83.18290633140017
 51
83.66497647119985
  0
ARC
  5
941
330
1F
100
AcDbEntity
  8
0
  6
Continuous
 62
     7
100
AcDbCircle
 10
71.4027318777537
 20
-89.66133498046838
 30
0.0
 40
296.6694197643
100
AcDbArc
 50
83.04225996769991
 51
96.95774003230006
  0
ARC
  5
942
330
1F
100
AcDbEntity
  8
0
  6
Continuous
 62
     7
100
AcDbCircle
 10
72.82151377015368
 20
-65.39946328576839
 30
0.0
 40
284.6774720035
100
AcDbArc
 50
84.75162654969986
 51
85.13331970329995
  0
ARC
  5
943
330
1F
100
AcDbEntity
  8
0
  6
Continuous
 62
     7
100
AcDbCircle
 10
77.2682271998537
 20
-7.399716546768384
 30
0.0
 40
226.497125738
100
AcDbArc
 50
85.56136937920017
 51
85.8468404170998
  0
ARC
  5
944
330
1F
100
AcDbEntity
  8
0
  6
Continuous
 62
     7
100
AcDbCircle
 10
78.63532838165371
 20
4.487063804631617
 30
0.0
 40
214.5465339525
100
AcDbArc
 50
85.10369697919992
 51
85.67043678589991
  0
ARC
  5
945
330
1F
100
AcDbEntity
  8
0
  6
Continuous
 62
     7
100
AcDbCircle
 10
57.21513442635369
 20
156.7544930313316
 30
0.0
 40
62.16579903109999
100
AcDbArc
 50
92.65185725210008
 51
92.76964788890001
  0
ARC
  5
946
330
1F
100
AcDbEntity
  8
0
  6
Continuous
 62
     7
100
AcDbCircle
 10
55.05555034605369
 20
175.8223944488316
 30
0.0
 40
43.0010598992
100
AcDbArc
 50
92.82709652589995
 51
92.99741361300005
  0
ARC
  5
947
330
1F
100
AcDbEntity
  8
0
  6
Continuous
 62
     7
100
AcDbCircle
 10
54.46242827875369
 20
212.6062368051316
 30
0.0
 40
6.248703191299999
100
AcDbArc
 50
90.54737819250012
 51
91.13271340280002
  0
ARC
  5
948
330
1F
100
AcDbEntity
  8
0
  6
Continuous
 62
     7
100
AcDbCircle
 10
67.68621793745371
 20
219.1204356699316
 30
0.0
 40
0.0999722561
100
AcDbArc
 50
179.9838672737001
 51
270.7307032207001
  0
ARC
  5
949
330
1F
100
AcDbEntity
  8
0
  6
Continuous
 62
     7
100
AcDbCircle
 10
75.1601802247537
 20
219.1199256014316
 30
0.0
 40
0.0999721659
100
AcDbArc
 50
269.2631021592001
 51
0.0161862876998182
  0
ARC
  5
94A
330
1F
100
AcDbEntity
  8
0
  6
Continuous
 62
     7
100
AcDbCircle
 10
67.48627364965369
 20
219.2179559583316
 30
0.0
 40
0.0999721499
100
AcDbArc
 50
359.9838890823999
 51
90.76828031890011
  0
ARC
  5
94B
330
1F
100
AcDbEntity
  8
0
  6
Continuous
 62
     7
100
AcDbCircle
 10
75.36012198175369
 20
219.2174188277316
 30
0.0
 40
0.0999719193
100
AcDbArc
 50
89.22387623900007
 51
180.0160904995
  0
ARC
  5
94C
330
1F
100
AcDbEntity
  8
0
  6
Continuous
 62
     7
100
AcDbCircle
 10
65.98068007605369
 20
219.1945289439316
 30
0.0
 40
0.0999706312
100
AcDbArc
 50
91.02316288669985
 51
180.0165704171001
  0
ARC
  5
94D
330
1F
100
AcDbEntity
  8
0
  6
Continuous
 62
     7
100
AcDbCircle
 10
76.8657172840537
 20
219.1937864276316
 30
0.0
 40
0.0999706002
100
AcDbArc
 50
359.9834141693999
 51
88.97081121129991
  0
ARC
  5
94E
330
1F
100
AcDbEntity
  8
0
  6
Continuous
 62
     7
100
AcDbCircle
 10
77.0654206834537
 20
219.0897545645316
 30
0.0
 40
0.099622861
100
AcDbArc
 50
194.9515665015
 51
238.7902703948998
  0
ARC
  5
94F
330
1F
100
AcDbEntity
  8
0
  6
Continuous
 62
     7
100
AcDbCircle
 10
65.78101183005369
 20
219.0904993320316
 30
0.0
 40
0.099582707
100
AcDbArc
 50
300.0826383140999
 51
329.5239889627002
  0
ARC
  5
950
330
1F
100
AcDbEntity
  8
0
  6
Continuous
 62
     7
100
AcDbCircle
 10
97.1741894150537
 20
82.13609788953162
 30
0.0
 40
6.0
100
AcDbArc
 50
90.0
 51
179.7499999999999
  0
ARC
  5
951
330
1F
100
AcDbEntity
  8
0
  6
Continuous
 62
     7
100
AcDbCircle
 10
96.3713979117537
 20
83.13609788953161
 30
0.0
 40
6.0
100
AcDbArc
 50
90.0
 51
179.7000000000001
  0
ARC
  5
952
330
1F
100
AcDbEntity
  8
0
  6
Continuous
 62
     7
100
AcDbCircle
 10
97.1713979117537
 20
82.3360978895316
 30
0.0
 40
6.0
100
AcDbArc
 50
90.0
 51
179.7000000000001
  0
ARC
  5
953
330
1F
100
AcDbEntity
  8
0
  6
Continuous
 62
     7
100
AcDbCircle
 10
98.60273187775369
 20
87.13609788953162
 30
0.0
 40
1.0
100
AcDbArc
 50
0.0
 51
90.0
  0
ARC
  5
954
330
1F
100
AcDbEntity
  8
0
  6
Continuous
 62
     7
100
AcDbCircle
 10
98.60273187775369
 20
87.3360978895316
 30
0.0
 40
1.0
100
AcDbArc
 50
0.0
 51
89.99999999989986
  0
ARC
  5
955
330
1F
100
AcDbEntity
  8
0
  6
Continuous
 62
     7
100
AcDbCircle
 10
99.40273187775369
 20
88.13609788953161
 30
0.0
 40
1.0
100
AcDbArc
 50
0.0
 51
89.99999999989986
  0
ARC
  5
956
330
1F
100
AcDbEntity
  8
0
  6
Continuous
 62
     7
100
AcDbCircle
 10
97.90273187775369
 20
104.6360978895316
 30
0.0
 40
0.5
100
AcDbArc
 50
180.0
 51
270.0
  0
ARC
  5
957
330
1F
100
AcDbEntity
  8
0
  6
Continuous
 62
     7
100
AcDbCircle
 10
104.9027318777537
 20
109.1360978895316
 30
0.0
 40
1.5
100
AcDbArc
 50
270.0
 51
90.0
  0
ARC
  5
958
330
1F
100
AcDbEntity
  8
0
  6
Continuous
 62
     7
100
AcDbCircle
 10
106.0654776193537
 20
104.6360978895316
 30
0.0
 40
0.5
100
AcDbArc
 50
270.0
 51
337.9999999993001
  0
ARC
  5
959
330
1F
100
AcDbEntity
  8
0
  6
Continuous
 62
     7
100
AcDbCircle
 10
107.6027318777537
 20
109.8664270736316
 30
0.0
 40
0.4
100
AcDbArc
 50
114.9999999432001
 51
180.0
  0
ARC
  5
95A
330
1F
100
AcDbEntity
  8
0
  6
Continuous
 62
     7
100
AcDbCircle
 10
107.6027318777537
 20
108.4013381932316
 30
0.0
 40
0.4
100
AcDbArc
 50
180.0
 51
250.0000000918001
  0
ARC
  5
95B
330
1F
100
AcDbEntity
  8
0
  6
Continuous
 62
     7
100
AcDbCircle
 10
107.0661070456537
 20
104.7102221813316
 30
0.0
 40
0.4
100
AcDbArc
 50
114.9999999950999
 51
158.0000000015
  0
ARC
  5
95C
330
1F
100
AcDbEntity
  8
0
  6
Continuous
 62
     7
100
AcDbCircle
 10
95.90273436685368
 20
116.6791612747316
 30
0.0
 40
1.499999786599999
100
AcDbArc
 50
0.000341294499824
 51
37.31091608440002
  0
ARC
  5
95D
330
1F
100
AcDbEntity
  8
0
  6
Continuous
 62
     7
100
AcDbCircle
 10
106.0963314836537
 20
113.6360978895316
 30
0.0
 40
0.5
100
AcDbArc
 50
27.00000000090011
 51
90.0
  0
ARC
  5
95E
330
1F
100
AcDbEntity
  8
0
  6
Continuous
 62
     7
100
AcDbCircle
 10
107.0952222015537
 20
113.6580848109316
 30
0.0
 40
0.4
100
AcDbArc
 50
206.9999999988001
 51
250.0000000061
  0
ARC
  5
95F
330
1F
100
AcDbEntity
  8
0
  6
Continuous
 62
     7
100
AcDbCircle
 10
110.1806041151537
 20
106.8245627675316
 30
0.0
 40
0.2
100
AcDbArc
 50
294.9999996908001
 51
70.00000031829983
  0
ARC
  5
960
330
1F
100
AcDbEntity
  8
0
  6
Continuous
 62
     7
100
AcDbCircle
 10
110.3806041151537
 20
111.8237969226316
 30
0.0
 40
0.2
100
AcDbArc
 50
294.9999996872999
 51
70.00000032190012
  0
ARC
  5
961
330
1F
100
AcDbEntity
  8
0
  6
Continuous
 62
     7
100
AcDbCircle
 10
113.3927278745537
 20
130.0080847838316
 30
0.0
 40
20.4899959968
100
AcDbArc
 50
180.0
 51
217.3105873085999
  0
ARC
  5
962
330
1F
100
AcDbEntity
  8
0
  6
Continuous
 62
     7
100
AcDbCircle
 10
113.3927278745537
 20
130.0080847838316
 30
0.0
 40
18.0
100
AcDbArc
 50
180.0
 51
241.8574764839002
  0
ARC
  5
963
330
1F
100
AcDbEntity
  8
0
  6
Continuous
 62
     9
100
AcDbCircle
 10
112.5070889552537
 20
123.8073857717316
 30
0.0
 40
16.6186288507
100
AcDbArc
 50
203.4900138096
 51
204.4752504553999
  0
ARC
  5
964
330
1F
100
AcDbEntity
  8
RUNDUNGEN
  6
Continuous
 62
     9
100
AcDbCircle
 10
117.9012984227536
 20
132.8624417370316
 30
0.0
 40
5.5006355983
100
AcDbArc
 50
76.93668758259993
 51
78.10611114929997
  0
ARC
  5
965
330
1F
100
AcDbEntity
  8
RUNDUNGEN
  6
Continuous
 62
     9
100
AcDbCircle
 10
118.2059747376537
 20
134.1634708336316
 30
0.0
 40
4.164411600299999
100
AcDbArc
 50
75.56428140360015
 51
76.97415281160009
  0
ARC
  5
966
330
1F
100
AcDbEntity
  8
0
  6
Continuous
 62
     7
100
AcDbCircle
 10
118.8136062442537
 20
139.4331116345316
 30
0.0
 40
4.022383702599999
100
AcDbArc
 50
180.9997954819998
 51
181.9875091134999
  0
ARC
  5
967
330
1F
100
AcDbEntity
  8
0
  6
Continuous
 62
     7
100
AcDbCircle
 10
118.7766801195537
 20
139.4315013227316
 30
0.0
 40
3.9854239576
100
AcDbArc
 50
181.982783827
 51
184.9582105405001
  0
ARC
  5
968
330
1F
100
AcDbEntity
  8
0
  6
Continuous
 62
     7
100
AcDbCircle
 10
115.9307249774537
 20
141.6566262725316
 30
0.0
 40
3.4800862192
100
AcDbArc
 50
266.8728013624001
 51
270.0049217385
  0
ARC
  5
969
330
1F
100
AcDbEntity
  8
RUNDUNGEN
  6
Continuous
 62
     9
100
AcDbCircle
 10
118.1849074967536
 20
137.5077562740316
 30
0.0
 40
1.586410044399999
100
AcDbArc
 50
22.5725065360001
 51
24.24848715179995
  0
ARC
  5
96A
330
1F
100
AcDbEntity
  8
RUNDUNGEN
  6
Continuous
 62
     9
100
AcDbCircle
 10
118.2478977800537
 20
137.5363101909316
 30
0.0
 40
1.517250276299999
100
AcDbArc
 50
24.24225978969988
 51
26.82703453020007
  0
ARC
  5
96B
330
1F
100
AcDbEntity
  8
RUNDUNGEN
  6
Continuous
 62
     9
100
AcDbCircle
 10
118.3208813114537
 20
137.5732904857316
 30
0.0
 40
1.435432589399999
100
AcDbArc
 50
26.82452598799982
 51
29.82366286229997
  0
ARC
  5
96C
330
1F
100
AcDbEntity
  8
0
  6
Continuous
 62
     7
100
AcDbCircle
 10
119.3043800807537
 20
137.1730745869316
 30
0.0
 40
1.0029433744
100
AcDbArc
 50
1.043547098299949
 51
89.98920802669994
  0
ARC
  5
96D
330
1F
100
AcDbEntity
  8
0
  6
Continuous
 62
     7
100
AcDbCircle
 10
119.3619832698537
 20
134.0090453749316
 30
0.0
 40
1.000890940699999
100
AcDbArc
 50
269.9348727944001
 51
0.9469642207998345
  0
ARC
  5
96E
330
1F
100
AcDbEntity
  8
0
  6
Continuous
 62
     7
100
AcDbCircle
 10
115.7951426548537
 20
139.1729365032316
 30
0.0
 40
0.9926953989000001
100
AcDbArc
 50
184.9636603858001
 51
266.8956348521998
  0
ARC
  5
96F
330
1F
100
AcDbEntity
  8
RUNDUNGEN
  6
Continuous
 62
     9
100
AcDbCircle
 10
119.2477906951537
 20
137.2086716173316
 30
0.0
 40
0.9877689768000001
100
AcDbArc
 50
75.62833579329981
 51
81.25919332899995
  0
ARC
  5
970
330
1F
100
AcDbEntity
  8
RUNDUNGEN
  6
Continuous
 62
     9
100
AcDbCircle
 10
119.2483608829537
 20
137.2137074923316
 30
0.0
 40
0.9827049611999999
100
AcDbArc
 50
81.24743279029994
 51
90.24632028629993
  0
ARC
  5
971
330
1F
100
AcDbEntity
  8
RUNDUNGEN
  6
Continuous
 62
     7
100
AcDbCircle
 10
119.0500360541537
 20
137.4420417696316
 30
0.0
 40
0.8046192356
100
AcDbArc
 50
75.50098201330001
 51
78.26210557929998
  0
ARC
  5
972
330
1F
100
AcDbEntity
  8
RUNDUNGEN
  6
Continuous
 62
     7
100
AcDbCircle
 10
119.0555552505537
 20
137.4685924020316
 30
0.0
 40
0.7775009942000001
100
AcDbArc
 50
78.27686895500002
 51
80.89885657360023
  0
ARC
  5
973
330
1F
100
AcDbEntity
  8
0
  6
Continuous
 62
     7
100
AcDbCircle
 10
113.3937758532537
 20
133.5080847838316
 30
0.0
 40
0.5
100
AcDbArc
 50
181.0000000000001
 51
269.9999999998998
  0
ARC
  5
974
330
1F
100
AcDbEntity
  8
0
  6
Continuous
 62
     7
100
AcDbCircle
 10
105.3927278745537
 20
169.1360978895316
 30
0.0
 40
10.0
100
AcDbArc
 50
141.3178125465001
 51
180.0
  0
ARC
  5
975
330
1F
100
AcDbEntity
  8
0
  6
Continuous
 62
     7
100
AcDbCircle
 10
100.8609413582537
 20
182.4809654949316
 30
0.0
 40
7.5
100
AcDbArc
 50
130.6582541394001
 51
179.4999999999999
  0
ARC
  5
976
330
1F
100
AcDbEntity
  8
0
  6
Continuous
 62
     7
100
AcDbCircle
 10
92.90273187775369
 20
179.1360978895316
 30
0.0
 40
6.0
100
AcDbArc
 50
321.3178125465001
 51
0.0
  0
ARC
  5
977
330
1F
100
AcDbEntity
  8
0
  6
Continuous
 62
     7
100
AcDbCircle
 10
106.7347581990537
 20
199.8601639478316
 30
0.0
 40
5.0
100
AcDbArc
 50
1.000000000000147
 51
83.04225996769991
  0
ARC
  5
978
330
1F
100
AcDbEntity
  8
0
  6
Continuous
 62
     7
100
AcDbCircle
 10
98.5805308760537
 20
185.1360978895316
 30
0.0
 40
4.0
100
AcDbArc
 50
92.91186251459995
 51
130.6582541395999
  0
ARC
  5
979
330
1F
100
AcDbEntity
  8
0
  6
Continuous
 62
     7
100
AcDbCircle
 10
110.6737806310537
 20
203.3884739490316
 30
0.0
 40
3.0
100
AcDbArc
 50
1.000000000000147
 51
82.36737389309991
  0
ARC
  5
97A
330
1F
100
AcDbEntity
  8
0
  6
Continuous
 62
     7
100
AcDbCircle
 10
110.1976009663537
 20
215.5151498781316
 30
0.0
 40
1.0
100
AcDbArc
 50
2.999999999999903
 51
82.54239697160004
  0
ARC
  5
97B
330
1F
100
AcDbEntity
  8
0
  6
Continuous
 62
     7
100
AcDbCircle
 10
109.5290826579537
 20
214.8961132723316
 30
0.0
 40
0.5
100
AcDbArc
 50
2.999999999999903
 51
82.6543214933001
  0
ARC
  5
97C
330
1F
100
AcDbEntity
  8
0
  6
Continuous
 62
     7
100
AcDbCircle
 10
98.4027318777537
 20
188.6315789031316
 30
0.0
 40
0.5
100
AcDbArc
 50
0.0
 51
89.92280602369985
  0
LINE
  5
97D
330
1F
100
AcDbEntity
  8
0
  6
Continuous
 62
     7
100
AcDbLine
 10
67.4846437630537
 20
219.3179115147316
 30
0.0
 11
67.6333626287537
 21
219.3177301232316
 31
0.0
  0
LINE
  5
97E
330
1F
100
AcDbEntity
  8
0
  6
Continuous
 62
     7
100
AcDbLine
 10
67.6333626287537
 20
219.3177301232316
 30
0.0
 11
67.7612914194537
 21
219.3176610222316
 31
0.0
  0
LINE
  5
97F
330
1F
100
AcDbEntity
  8
0
  6
Continuous
 62
     7
100
AcDbLine
 10
67.7612914194537
 20
219.3176610222316
 30
0.0
 11
75.07804583065371
 21
219.3171590738316
 31
0.0
  0
LINE
  5
980
330
1F
100
AcDbEntity
  8
0
  6
Continuous
 62
     7
100
AcDbLine
 10
75.07804583065371
 20
219.3171590738316
 30
0.0
 11
75.34832758395371
 21
219.3173231543316
 31
0.0
  0
SPLINE
  5
981
330
1F
100
AcDbEntity
  8
RUNDUNGEN
  6
Continuous
 62
     7
100
AcDbSpline
210
0.0
220
0.0
230
1.0
 70
     8
 71
     3
 72
     8
 73
     4
 74
     0
 42
0.0000000001
 43
0.0000000001
 40
0.0
 40
0.0
 40
0.0
 40
0.0
 40
1.0
 40
1.0
 40
1.0
 40
1.0
 10
65.8059005605537
 20
219.0159168080316
 30
0.0
 10
65.8059005605537
 20
219.0245635164316
 30
0.0
 10
65.80708587195369
 20
219.0332770959316
 30
0.0
 10
65.80931720115369
 20
219.0416309415316
 30
0.0
  0
SPLINE
  5
982
330
1F
100
AcDbEntity
  8
RUNDUNGEN
  6
Continuous
 62
     7
100
AcDbSpline
210
0.0
220
0.0
230
1.0
 70
     8
 71
     3
 72
     8
 73
     4
 74
     0
 42
0.0000000001
 43
0.0000000001
 40
0.0
 40
0.0
 40
0.0
 40
0.0
 40
1.0
 40
1.0
 40
1.0
 40
1.0
 10
65.80931720115369
 20
219.0416309415316
 30
0.0
 10
65.81382448835369
 20
219.0585057179316
 30
0.0
 10
65.82314967785369
 20
219.0746995054316
 30
0.0
 10
65.83557200195369
 20
219.0869779247316
 30
0.0
  0
SPLINE
  5
983
330
1F
100
AcDbEntity
  8
RUNDUNGEN
  6
Continuous
 62
     7
100
AcDbSpline
210
0.0
220
0.0
230
1.0
 70
     8
 71
     3
 72
     8
 73
     4
 74
     0
 42
0.0000000001
 43
0.0000000001
 40
0.0
 40
0.0
 40
0.0
 40
0.0
 40
1.0
 40
1.0
 40
1.0
 40
1.0
 10
65.83557200195369
 20
219.0869779247316
 30
0.0
 10
65.84745253745371
 20
219.0987208315316
 30
0.0
 10
65.8628434504537
 20
219.1076006544316
 30
0.0
 10
65.87892751285369
 20
219.1121112998316
 30
0.0
  0
LINE
  5
984
330
1F
100
AcDbEntity
  8
0
  6
Continuous
 62
     7
100
AcDbLine
 10
92.89685893825369
 20
218.5721300074316
 30
0.0
 11
92.6900909713537
 21
218.5870381139316
 31
0.0
  0
LINE
  5
985
330
1F
100
AcDbEntity
  8
0
  6
Continuous
 62
     7
100
AcDbLine
 10
98.89182877585369
 20
218.0817650521316
 30
0.0
 11
98.8619155395537
 21
218.0845054708316
 31
0.0
  0
LINE
  5
986
330
1F
100
AcDbEntity
  8
0
  6
Continuous
 62
     7
100
AcDbLine
 10
96.97284199395369
 20
218.2485027689316
 30
0.0
 11
96.94744023825371
 21
218.2506757463316
 31
0.0
  0
LINE
  5
987
330
1F
100
AcDbEntity
  8
0
  6
Continuous
 62
     7
100
AcDbLine
 10
94.83213477565371
 20
218.4153810782316
 30
0.0
 11
94.79712402255371
 21
218.4180988349316
 31
0.0
  0
LINE
  5
988
330
1F
100
AcDbEntity
  8
0
  6
Continuous
 62
     7
100
AcDbLine
 10
93.67179427045369
 20
218.5026317255316
 30
0.0
 11
93.5129020163537
 21
218.5140656954316
 31
0.0
  0
LINE
  5
989
330
1F
100
AcDbEntity
  8
0
  6
Continuous
 62
     7
100
AcDbLine
 10
93.5129020163537
 20
218.5140656954316
 30
0.0
 11
93.20002734095368
 21
218.5361480523317
 31
0.0
  0
LINE
  5
98A
330
1F
100
AcDbEntity
  8
0
  6
Continuous
 62
     7
100
AcDbLine
 10
93.20002734095368
 20
218.5361480523317
 30
0.0
 11
93.1900344477537
 21
218.5368722034316
 31
0.0
  0
LINE
  5
98B
330
1F
100
AcDbEntity
  8
0
  6
Continuous
 62
     7
100
AcDbLine
 10
93.1891083874537
 20
218.5306960677316
 30
0.0
 11
93.16226327855369
 21
218.5326091538316
 31
0.0
  0
LINE
  5
98C
330
1F
100
AcDbEntity
  8
0
  6
Continuous
 62
     7
100
AcDbLine
 10
93.16226327855369
 20
218.5326091538316
 30
0.0
 11
92.89687632185367
 21
218.5513745858316
 31
0.0
  0
LINE
  5
98D
330
1F
100
AcDbEntity
  8
0
  6
Continuous
 62
     7
100
AcDbLine
 10
40.42072950435368
 20
217.5926715376316
 30
0.0
 11
40.4052574321537
 21
217.5950365754316
 31
0.0
  0
LINE
  5
98E
330
1F
100
AcDbEntity
  8
0
  6
Continuous
 62
     7
100
AcDbLine
 10
41.2519166269537
 20
217.6031091712316
 30
0.0
 11
41.0135113422537
 21
217.5755052709316
 31
0.0
  0
LINE
  5
98F
330
1F
100
AcDbEntity
  8
0
  6
Continuous
 62
     7
100
AcDbLine
 10
41.0135113422537
 20
217.5755052709316
 30
0.0
 11
40.94756308525369
 21
217.5678307169316
 31
0.0
  0
LINE
  5
990
330
1F
100
AcDbEntity
  8
0
  6
Continuous
 62
     7
100
AcDbLine
 10
40.87559314935369
 20
217.6023529706316
 30
0.0
 11
40.47656080335369
 21
217.5560270800316
 31
0.0
  0
LINE
  5
991
330
1F
100
AcDbEntity
  8
0
  6
Continuous
 62
     7
100
AcDbLine
 10
43.03420204265369
 20
217.7284607930316
 30
0.0
 11
42.65927421845368
 21
217.7006065760316
 31
0.0
  0
LINE
  5
992
330
1F
100
AcDbEntity
  8
0
  6
Continuous
 62
     7
100
AcDbLine
 10
42.65927421845368
 20
217.7006065760316
 30
0.0
 11
42.24398221685369
 21
217.6635581311316
 31
0.0
  0
LINE
  5
993
330
1F
100
AcDbEntity
  8
0
  6
Continuous
 62
     7
100
AcDbLine
 10
42.24398221685369
 20
217.6635581311316
 30
0.0
 11
41.97784100555369
 21
217.6359327632316
 31
0.0
  0
LINE
  5
994
330
1F
100
AcDbEntity
  8
0
  6
Continuous
 62
     7
100
AcDbLine
 10
41.97784100555369
 20
217.6359327632316
 30
0.0
 11
41.67133540215369
 21
217.5993136060316
 31
0.0
  0
LINE
  5
995
330
1F
100
AcDbEntity
  8
0
  6
Continuous
 62
     7
100
AcDbLine
 10
41.67133540215369
 20
217.5993136060316
 30
0.0
 11
41.47771853025369
 21
217.5720103262317
 31
0.0
  0
LINE
  5
996
330
1F
100
AcDbEntity
  8
0
  6
Continuous
 62
     7
100
AcDbLine
 10
48.89209364075369
 20
218.4968395115316
 30
0.0
 11
48.70060430185368
 21
218.4825675648316
 31
0.0
  0
LINE
  5
997
330
1F
100
AcDbEntity
  8
0
  6
Continuous
 62
     7
100
AcDbLine
 10
49.14741275925369
 20
218.5152835650316
 30
0.0
 11
48.89209364075369
 21
218.4968395115316
 31
0.0
  0
LINE
  5
998
330
1F
100
AcDbEntity
  8
0
  6
Continuous
 62
     7
100
AcDbLine
 10
49.33890209815371
 20
218.5284135511316
 30
0.0
 11
49.14741275925369
 21
218.5152835650316
 31
0.0
  0
LINE
  5
999
330
1F
100
AcDbEntity
  8
0
  6
Continuous
 62
     7
100
AcDbLine
 10
41.47771853025369
 20
217.5720103262317
 30
0.0
 11
41.42825961505368
 21
217.5630140681316
 31
0.0
  0
LINE
  5
99A
330
1F
100
AcDbEntity
  8
0
  6
Continuous
 62
     7
100
AcDbLine
 10
41.42825961505368
 20
217.5630140681316
 30
0.0
 11
41.39665617665371
 21
217.5572458767316
 31
0.0
  0
LINE
  5
99B
330
1F
100
AcDbEntity
  8
0
  6
Continuous
 62
     7
100
AcDbLine
 10
47.9984765471537
 20
218.4276537793316
 30
0.0
 11
47.80698720835369
 21
218.4115732655317
 31
0.0
  0
LINE
  5
99C
330
1F
100
AcDbEntity
  8
0
  6
Continuous
 62
     7
100
AcDbLine
 10
48.2537956656537
 20
218.4481564585316
 30
0.0
 11
47.9984765471537
 21
218.4276537793316
 31
0.0
  0
LINE
  5
99D
330
1F
100
AcDbEntity
  8
0
  6
Continuous
 62
     7
100
AcDbLine
 10
48.44528500455369
 20
218.4630943571316
 30
0.0
 11
48.2537956656537
 21
218.4481564585316
 31
0.0
  0
LINE
  5
99E
330
1F
100
AcDbEntity
  8
0
  6
Continuous
 62
     7
100
AcDbLine
 10
54.2112425388537
 20
218.8476746433316
 30
0.0
 11
53.9559234203537
 21
218.8339627353316
 31
0.0
  0
LINE
  5
99F
330
1F
100
AcDbEntity
  8
0
  6
Continuous
 62
     7
100
AcDbLine
 10
53.9559234203537
 20
218.8339627353316
 30
0.0
 11
53.70060430185368
 21
218.8192179906316
 31
0.0
  0
LINE
  5
9A0
330
1F
100
AcDbEntity
  8
0
  6
Continuous
 62
     7
100
AcDbLine
 10
53.57294456385369
 20
218.8116497007316
 30
0.0
 11
53.3176254453537
 21
218.7961212786316
 31
0.0
  0
LINE
  5
9A1
330
1F
100
AcDbEntity
  8
0
  6
Continuous
 62
     7
100
AcDbLine
 10
53.3176254453537
 20
218.7961212786316
 30
0.0
 11
53.1261361064537
 21
218.7840073847316
 31
0.0
  0
LINE
  5
9A2
330
1F
100
AcDbEntity
  8
0
  6
Continuous
 62
     7
100
AcDbLine
 10
53.1261361064537
 20
218.7840073847316
 30
0.0
 11
52.93464676755369
 21
218.7711187659316
 31
0.0
  0
LINE
  5
9A3
330
1F
100
AcDbEntity
  8
0
  6
Continuous
 62
     7
100
AcDbLine
 10
52.80698720835369
 20
218.7646244360316
 30
0.0
 11
52.61549786945369
 21
218.7531477032316
 31
0.0
  0
LINE
  5
9A4
330
1F
100
AcDbEntity
  8
0
  6
Continuous
 62
     7
100
AcDbLine
 10
52.61549786945369
 20
218.7531477032316
 30
0.0
 11
52.3601786615537
 21
218.7372435988316
 31
0.0
  0
LINE
  5
9A5
330
1F
100
AcDbEntity
  8
0
  6
Continuous
 62
     7
100
AcDbLine
 10
52.1048595430537
 20
218.7209059093316
 30
0.0
 11
51.91337015945369
 21
218.7082940931316
 31
0.0
  0
LINE
  5
9A6
330
1F
100
AcDbEntity
  8
0
  6
Continuous
 62
     7
100
AcDbLine
 10
51.91337015945369
 20
218.7082940931316
 30
0.0
 11
51.7218808205537
 21
218.6953050500316
 31
0.0
  0
LINE
  5
9A7
330
1F
100
AcDbEntity
  8
0
  6
Continuous
 62
     9
100
AcDbLine
 10
67.5859482015537
 20
219.2179200385316
 30
0.0
 11
67.6454977505537
 21
219.2178054743316
 31
0.0
  0
LINE
  5
9A8
330
1F
100
AcDbEntity
  8
0
  6
Continuous
 62
     9
100
AcDbLine
 10
67.6454977505537
 20
219.2178054743316
 30
0.0
 11
67.73056334945369
 21
219.2177388611316
 31
0.0
  0
LINE
  5
9A9
330
1F
100
AcDbEntity
  8
0
  6
Continuous
 62
     9
100
AcDbLine
 10
67.73056334945369
 20
219.2177388611316
 30
0.0
 11
75.1115102191537
 21
219.2172197801316
 31
0.0
  0
LINE
  5
9AA
330
1F
100
AcDbEntity
  8
0
  6
Continuous
 62
     9
100
AcDbLine
 10
75.1115102191537
 20
219.2172197801316
 30
0.0
 11
75.26041539855369
 21
219.2173801950316
 31
0.0
  0
SPLINE
  5
9AB
330
1F
100
AcDbEntity
  8
0
  6
Continuous
 62
     7
100
AcDbSpline
210
0.0
220
0.0
230
1.0
 70
     8
 71
     3
 72
     8
 73
     4
 74
     0
 42
0.0000000001
 43
0.0000000001
 40
0.0
 40
0.0
 40
0.0
 40
0.0
 40
1.0
 40
1.0
 40
1.0
 40
1.0
 10
76.96569363855369
 20
219.0900316039317
 30
0.0
 10
76.96569365155371
 20
219.0813618445316
 30
0.0
 10
76.96688329125369
 20
219.0726248137316
 30
0.0
 10
76.9691233905537
 20
219.0642494520316
 30
0.0
  0
SPLINE
  5
9AC
330
1F
100
AcDbEntity
  8
0
  6
Continuous
 62
     7
100
AcDbSpline
210
0.0
220
0.0
230
1.0
 70
     8
 71
     3
 72
     8
 73
     4
 74
     0
 42
0.0000000001
 43
0.0000000001
 40
0.0
 40
0.0
 40
0.0
 40
0.0
 40
1.0
 40
1.0
 40
1.0
 40
1.0
 10
77.01380487515369
 20
219.0045463546316
 30
0.0
 10
77.0286567802537
 20
218.9955679902316
 30
0.0
 10
77.0464586351537
 20
218.9903768969316
 30
0.0
 10
77.0638103748537
 20
218.9900494241316
 30
0.0
  0
SPLINE
  5
9AD
330
1F
100
AcDbEntity
  8
0
  6
Continuous
 62
     7
100
AcDbSpline
210
0.0
220
0.0
230
1.0
 70
     8
 71
     3
 72
     8
 73
     4
 74
     0
 42
0.0000000001
 43
0.0000000001
 40
0.0
 40
0.0
 40
0.0
 40
0.0
 40
1.0
 40
1.0
 40
1.0
 40
1.0
 10
65.78257697865369
 20
218.9908192673316
 30
0.0
 10
65.79930829495371
 20
218.9911327224316
 30
0.0
 10
65.8164379649537
 20
218.9959582219316
 30
0.0
 10
65.8309275182537
 20
219.0043300822316
 30
0.0
  0
SPLINE
  5
9AE
330
1F
100
AcDbEntity
  8
0
  6
Continuous
 62
     7
100
AcDbSpline
210
0.0
220
0.0
230
1.0
 70
     8
 71
     3
 72
     8
 73
     4
 74
     0
 42
0.0000000001
 43
0.0000000001
 40
0.0
 40
0.0
 40
0.0
 40
0.0
 40
1.0
 40
1.0
 40
1.0
 40
1.0
 10
65.8668573344537
 20
219.0400212789316
 30
0.0
 10
65.8710787713537
 20
219.0472107922316
 30
0.0
 10
65.87439962755368
 20
219.0549988766316
 30
0.0
 10
65.87671752835369
 20
219.0630074325316
 30
0.0
  0
SPLINE
  5
9AF
330
1F
100
AcDbEntity
  8
0
  6
Continuous
 62
     7
100
AcDbSpline
210
0.0
220
0.0
230
1.0
 70
     8
 71
     3
 72
     8
 73
     4
 74
     0
 42
0.0000000001
 43
0.0000000001
 40
0.0
 40
0.0
 40
0.0
 40
0.0
 40
1.0
 40
1.0
 40
1.0
 40
1.0
 10
65.87671752835369
 20
219.0630074325316
 30
0.0
 10
65.87931969915371
 20
219.0719981668316
 30
0.0
 10
65.88070748675369
 20
219.0814419706316
 30
0.0
 10
65.88070750055369
 20
219.0908017033316
 30
0.0
  0
SPLINE
  5
9B0
330
1F
100
AcDbEntity
  8
RUNDUNGEN
  6
Continuous
 62
     9
100
AcDbSpline
210
0.0
220
0.0
230
1.0
 70
     8
 71
     3
 72
    15
 73
    11
 74
     0
 42
0.0000000001
 43
0.0000000001
 40
0.0
 40
0.0
 40
0.0
 40
0.0
 40
0.1227628767
 40
0.2474047771
 40
0.3733536986999999
 40
0.5000000022
 40
0.6266462869
 40
0.7525952412000001
 40
0.8772371055
 40
1.0
 40
1.0
 40
1.0
 40
1.0
 10
78.1621655924537
 20
115.4085096344316
 30
0.0
 10
77.6512571694537
 20
115.6986277390316
 30
0.0
 10
76.60607221695369
 20
116.2569915638316
 30
0.0
 10
74.96255957845369
 20
116.9659439611316
 30
0.0
 10
73.2201889138537
 20
117.4653031766316
 30
0.0
 10
71.40273193675369
 20
117.6499258887316
 30
0.0
 10
69.5852747566537
 20
117.4653033260316
 30
0.0
 10
67.84290429405371
 20
116.9659438400316
 30
0.0
 10
66.1993914090537
 20
116.2569918073316
 30
0.0
 10
65.1542068268537
 20
115.6986274879316
 30
0.0
 10
64.6432981630537
 20
115.4085096344316
 30
0.0
  0
SPLINE
  5
9B1
330
1F
100
AcDbEntity
  8
RUNDUNGEN
  6
Continuous
 62
     9
100
AcDbSpline
210
0.0
220
0.0
230
1.0
 70
     8
 71
     3
 72
    13
 73
     9
 74
     0
 42
0.0000000001
 43
0.0000000001
 40
0.0
 40
0.0
 40
0.0
 40
0.0
 40
0.3487262381
 40
0.5081611946
 40
0.6505286672000001
 40
0.7718146228000001
 40
0.8695564789
 40
1.0
 40
1.0
 40
1.0
 40
1.0
 10
61.87285648465369
 20
104.6360978895316
 30
0.0
 10
61.87285648465369
 20
104.5721827089316
 30
0.0
 10
61.86744497435369
 20
104.4788686548316
 30
0.0
 10
61.84783735565371
 20
104.3611106546316
 30
0.0
 10
61.82888244835369
 20
104.2859580370316
 30
0.0
 10
61.8051354819537
 20
104.2233978168316
 30
0.0
 10
61.77530696725369
 20
104.1683252486316
 30
0.0
 10
61.7379331543537
 20
104.1360978895316
 30
0.0
 10
61.7140252280537
 20
104.1360978895316
 30
0.0
  0
SPLINE
  5
9B2
330
1F
100
AcDbEntity
  8
RUNDUNGEN
  6
Continuous
 62
     9
100
AcDbSpline
210
0.0
220
0.0
230
1.0
 70
     8
 71
     3
 72
    13
 73
     9
 74
     0
 42
0.0000000001
 43
0.0000000001
 40
0.0
 40
0.0
 40
0.0
 40
0.0
 40
0.315678691
 40
0.5972591195
 40
0.7178885384
 40
0.8233921499999999
 40
0.9157688923
 40
1.0
 40
1.0
 40
1.0
 40
1.0
 10
63.12535439335369
 20
104.6360978895316
 30
0.0
 10
63.12535439335369
 20
104.5719730656316
 30
0.0
 10
63.1371684307537
 20
104.4503907022316
 30
0.0
 10
63.18236497335369
 20
104.3097791980316
 30
0.0
 10
63.23654834155369
 20
104.2214268545316
 30
0.0
 10
63.28117399035369
 20
104.1737697974316
 30
0.0
 10
63.3307796689537
 20
104.1433831654316
 30
0.0
 10
63.36691230505369
 20
104.1360978895316
 30
0.0
 10
63.3840224397537
 20
104.1360978895316
 30
0.0
  0
SPLINE
  5
9B3
330
1F
100
AcDbEntity
  8
RUNDUNGEN
  6
Continuous
 62
     9
100
AcDbSpline
210
0.0
220
0.0
230
1.0
 70
     8
 71
     3
 72
    13
 73
     9
 74
     0
 42
0.0000000001
 43
0.0000000001
 40
0.0
 40
0.0
 40
0.0
 40
0.0
 40
0.3156786909
 40
0.5972591195
 40
0.7178885385
 40
0.8233921501000001
 40
0.9157688923999998
 40
1.0
 40
1.0
 40
1.0
 40
1.0
 10
79.6801093621537
 20
104.6360978895316
 30
0.0
 10
79.6801093621537
 20
104.5719730656316
 30
0.0
 10
79.6682953248537
 20
104.4503907023316
 30
0.0
 10
79.6230987822537
 20
104.3097791980316
 30
0.0
 10
79.5689154139537
 20
104.2214268545316
 30
0.0
 10
79.5242897651537
 20
104.1737697974316
 30
0.0
 10
79.47468408655371
 20
104.1433831653316
 30
0.0
 10
79.4385514505537
 20
104.1360978895316
 30
0.0
 10
79.42144131575371
 20
104.1360978895316
 30
0.0
  0
SPLINE
  5
9B4
330
1F
100
AcDbEntity
  8
RUNDUNGEN
  6
Continuous
 62
     9
100
AcDbSpline
210
0.0
220
0.0
230
1.0
 70
     8
 71
     3
 72
    13
 73
     9
 74
     0
 42
0.0000000001
 43
0.0000000001
 40
0.0
 40
0.0
 40
0.0
 40
0.0
 40
0.3487262382
 40
0.5081611946
 40
0.6505286672000001
 40
0.7718146228000001
 40
0.8695564788
 40
1.0
 40
1.0
 40
1.0
 40
1.0
 10
80.93260727095369
 20
104.6360978895316
 30
0.0
 10
80.93260727095369
 20
104.5721827089316
 30
0.0
 10
80.93801878115369
 20
104.4788686548316
 30
0.0
 10
80.9576263998537
 20
104.3611106546316
 30
0.0
 10
80.97658130715371
 20
104.2859580370316
 30
0.0
 10
81.00032827355368
 20
104.2233978169316
 30
0.0
 10
81.0301567882537
 20
104.1683252486316
 30
0.0
 10
81.06753060115369
 20
104.1360978895316
 30
0.0
 10
81.0914385274537
 20
104.1360978895316
 30
0.0
  0
SPLINE
  5
9B5
330
1F
100
AcDbEntity
  8
RUNDUNGEN
  6
Continuous
 62
     9
100
AcDbSpline
210
0.0
220
0.0
230
1.0
 70
     8
 71
     3
 72
    11
 73
     7
 74
     0
 42
0.0000000001
 43
0.0000000001
 40
0.0
 40
0.0
 40
0.0
 40
0.0
 40
0.2439955817
 40
0.4910695007000001
 40
0.7435527045
 40
1.0
 40
1.0
 40
1.0
 40
1.0
 10
65.45823037685369
 20
114.3397264718316
 30
0.0
 10
65.0961137402537
 20
114.0929136732316
 30
0.0
 10
64.4236306988537
 20
113.5049590697316
 30
0.0
 10
63.6759339414537
 20
112.3803487096316
 30
0.0
 10
63.2248285069537
 20
111.0863187424316
 30
0.0
 10
63.1253831271537
 20
110.1689261355316
 30
0.0
 10
63.12535439345369
 20
109.7083327670316
 30
0.0
  0
SPLINE
  5
9B6
330
1F
100
AcDbEntity
  8
RUNDUNGEN
  6
Continuous
 62
     9
100
AcDbSpline
210
0.0
220
0.0
230
1.0
 70
     8
 71
     3
 72
    17
 73
    13
 74
     0
 42
0.0000000001
 43
0.0000000001
 40
0.0
 40
0.0
 40
0.0
 40
0.0
 40
0.1222359446
 40
0.246612264
 40
0.3726789136
 40
0.4362625694
 40
0.5000000035000002
 40
0.5637374304
 40
0.6273210674000001
 40
0.753387763
 40
0.8777640331999998
 40
1.0
 40
1.0
 40
1.0
 40
1.0
 10
77.3472333786537
 20
114.3397264718316
 30
0.0
 10
76.91073662465369
 20
114.6373116361316
 30
0.0
 10
76.01502542435369
 20
115.2165284050316
 30
0.0
 10
74.59137186125369
 20
115.9754233969316
 30
0.0
 10
73.30746848265369
 20
116.4403738995316
 30
0.0
 10
72.22900879305369
 20
116.6438641040316
 30
0.0
 10
71.40273185565369
 20
116.6966055405316
 30
0.0
 10
70.57645500535369
 20
116.6438641136316
 30
0.0
 10
69.49799519705369
 20
116.4403740337316
 30
0.0
 10
68.21409201685369
 20
115.9754232540316
 30
0.0
 10
66.79043820995371
 20
115.2165285738316
 30
0.0
 10
65.8947272339537
 20
114.6373116552316
 30
0.0
 10
65.45823037685369
 20
114.3397264718316
 30
0.0
  0
SPLINE
  5
9B7
330
1F
100
AcDbEntity
  8
RUNDUNGEN
  6
Continuous
 62
     9
100
AcDbSpline
210
0.0
220
0.0
230
1.0
 70
     8
 71
     3
 72
    11
 73
     7
 74
     0
 42
0.0000000001
 43
0.0000000001
 40
0.0
 40
0.0
 40
0.0
 40
0.0
 40
0.2563848657
 40
0.50882915
 40
0.7559029357
 40
1.0
 40
1.0
 40
1.0
 40
1.0
 10
79.6801093621537
 20
109.7083327670316
 30
0.0
 10
79.68010696335369
 20
110.1688141025316
 30
0.0
 10
79.5806519539537
 20
111.0860199022316
 30
0.0
 10
79.12974549415371
 20
112.3799118733316
 30
0.0
 10
78.3821065166537
 20
113.5047022197316
 30
0.0
 10
77.7094986088537
 20
114.0928079000316
 30
0.0
 10
77.3472333786537
 20
114.3397264718316
 30
0.0
  0
SPLINE
  5
9B8
330
1F
100
AcDbEntity
  8
RUNDUNGEN
  6
Continuous
 62
     9
100
AcDbSpline
210
0.0
220
0.0
230
1.0
 70
     8
 71
     3
 72
    10
 73
     6
 74
     0
 42
0.0000000001
 43
0.0000000001
 40
0.0
 40
0.0
 40
0.0
 40
0.0
 40
0.2197972864
 40
0.4683627413000001
 40
1.0
 40
1.0
 40
1.0
 40
1.0
 10
64.6432984556537
 20
115.4085084208316
 30
0.0
 10
64.7181822831537
 20
115.3439200917316
 30
0.0
 10
64.8678941788537
 20
115.1947860033316
 30
0.0
 10
65.15478194945369
 20
114.8477919895316
 30
0.0
 10
65.34504920345369
 20
114.5504453794316
 30
0.0
 10
65.45823085785369
 20
114.3397264718316
 30
0.0
  0
SPLINE
  5
9B9
330
1F
100
AcDbEntity
  8
RUNDUNGEN
  6
Continuous
 62
     9
100
AcDbSpline
210
0.0
220
0.0
230
1.0
 70
     8
 71
     3
 72
    10
 73
     6
 74
     0
 42
0.0000000001
 43
0.0000000001
 40
0.0
 40
0.0
 40
0.0
 40
0.0
 40
0.2197986516
 40
0.4683645860000001
 40
1.0
 40
1.0
 40
1.0
 40
1.0
 10
78.16216836135371
 20
115.4085211143316
 30
0.0
 10
78.0872841011537
 20
115.3439311643316
 30
0.0
 10
77.9375716038537
 20
115.1947941999316
 30
0.0
 10
77.65068359835369
 20
114.8477958371316
 30
0.0
 10
77.4604163551537
 20
114.5504467282316
 30
0.0
 10
77.34723501935369
 20
114.3397264717316
 30
0.0
  0
SPLINE
  5
9BA
330
1F
100
AcDbEntity
  8
RUNDUNGEN
  6
Continuous
 62
     9
100
AcDbSpline
210
0.0
220
0.0
230
1.0
 70
     8
 71
     3
 72
    11
 73
     7
 74
     0
 42
0.0000000001
 43
0.0000000001
 40
0.0
 40
0.0
 40
0.0
 40
0.0
 40
0.2412623481
 40
0.4874063392
 40
0.7410286957
 40
1.0
 40
1.0
 40
1.0
 40
1.0
 10
64.6432981630537
 20
115.4085096344316
 30
0.0
 10
64.21389231595369
 20
115.1005006344316
 30
0.0
 10
63.4178531614537
 20
114.3694505913316
 30
0.0
 10
62.5324245045537
 20
112.9889905293316
 30
0.0
 10
61.99266698515369
 20
111.4018858556316
 30
0.0
 10
61.8728697107537
 20
110.2751958462316
 30
0.0
 10
61.8728388822537
 20
109.7079574444316
 30
0.0
  0
SPLINE
  5
9BB
330
1F
100
AcDbEntity
  8
RUNDUNGEN
  6
Continuous
 62
     9
100
AcDbSpline
210
0.0
220
0.0
230
1.0
 70
     8
 71
     3
 72
    11
 73
     7
 74
     0
 42
0.0000000001
 43
0.0000000001
 40
0.0
 40
0.0
 40
0.0
 40
0.0
 40
0.2588973193
 40
0.5124794964000001
 40
0.7586317482
 40
1.0
 40
1.0
 40
1.0
 40
1.0
 10
80.93260727095369
 20
109.7083327670316
 30
0.0
 10
80.9326042816537
 20
110.2753770586316
 30
0.0
 10
80.81276121755369
 20
111.4017450020316
 30
0.0
 10
80.2732354429537
 20
112.9885619872316
 30
0.0
 10
79.3879051513537
 20
114.3691758004316
 30
0.0
 10
78.59173273975369
 20
115.1003788020316
 30
0.0
 10
78.1621655924537
 20
115.4085096344316
 30
0.0
  0
SPLINE
  5
9BC
330
1F
100
AcDbEntity
  8
0
  6
Continuous
 62
     9
100
AcDbSpline
210
0.0
220
0.0
230
1.0
 70
     8
 71
     3
 72
    11
 73
     7
 74
     0
 42
0.0000000001
 43
0.0000000001
 40
0.0
 40
0.0
 40
0.0
 40
0.0
 40
0.0656067644
 40
0.2596683966
 40
0.5747577572
 40
1.0
 40
1.0
 40
1.0
 40
1.0
 10
97.09577411385371
 20
117.5883732707316
 30
0.0
 10
97.09971541315372
 20
117.5796145678316
 30
0.0
 10
97.11318686395371
 20
117.5440384294316
 30
0.0
 10
97.14584658705371
 20
117.4665015653316
 30
0.0
 10
97.19804613965372
 20
117.3400538777316
 30
0.0
 10
97.24083843975371
 20
117.2404740096316
 30
0.0
 10
97.26565320315371
 20
117.1833793489316
 30
0.0
  0
SPLINE
  5
9BD
330
1F
100
AcDbEntity
  8
RUNDUNGEN
  6
Continuous
 62
     7
100
AcDbSpline
210
0.0
220
0.0
230
1.0
 70
     8
 71
     3
 72
     9
 73
     5
 74
     0
 42
0.0000000001
 43
0.0000000001
 40
0.0
 40
0.0
 40
0.0
 40
0.0
 40
0.2373517916
 40
1.0
 40
1.0
 40
1.0
 40
1.0
 10
119.0349666633537
 20
138.2449819034316
 30
0.0
 10
119.0463473153537
 20
138.2454488730316
 30
0.0
 10
119.0943379200537
 20
138.2462461230316
 30
0.0
 10
119.1424000161537
 20
138.2420893269316
 30
0.0
 10
119.1785386259537
 20
138.2363051642316
 30
0.0
  0
SPLINE
  5
9BE
330
1F
100
AcDbEntity
  8
RUNDUNGEN
  6
Continuous
 62
     9
100
AcDbSpline
210
0.0
220
0.0
230
1.0
 70
     8
 71
     3
 72
    13
 73
     9
 74
     0
 42
0.0000000001
 43
0.0000000001
 40
0.0
 40
0.0
 40
0.0
 40
0.0
 40
0.3794737846
 40
0.6883426006000001
 40
0.8079258457999999
 40
0.9008899042999999
 40
0.9652771903999999
 40
1.0
 40
1.0
 40
1.0
 40
1.0
 10
72.3717959431537
 20
189.1318902093316
 30
0.0
 10
72.3711924182537
 20
189.1834764349316
 30
0.0
 10
72.3695951663537
 20
189.2770369053316
 30
0.0
 10
72.36630250645371
 20
189.3868580033316
 30
0.0
 10
72.3627029061537
 20
189.4576213002316
 30
0.0
 10
72.3602539193537
 20
189.4952589519316
 30
0.0
 10
72.35734661215371
 20
189.5210877319316
 30
0.0
 10
72.35551682755368
 20
189.5346223334316
 30
0.0
 10
72.35376556995371
 20
189.5390060641316
 30
0.0
  0
LINE
  5
9BF
330
1F
100
AcDbEntity
  8
RUNDUNGEN
  6
Continuous
 62
     9
100
AcDbLine
 10
72.19837151905371
 20
189.9285311459316
 30
0.0
 11
72.35376556995371
 21
189.5390060641316
 31
0.0
  0
SPLINE
  5
9C0
330
1F
100
AcDbEntity
  8
RUNDUNGEN
  6
Continuous
 62
     9
100
AcDbSpline
210
0.0
220
0.0
230
1.0
 70
     8
 71
     3
 72
     9
 73
     5
 74
     0
 42
0.0000000001
 43
0.0000000001
 40
0.0
 40
0.0
 40
0.0
 40
0.0
 40
0.5495771319000001
 40
1.0
 40
1.0
 40
1.0
 40
1.0
 10
72.65562792255369
 20
204.5255520645316
 30
0.0
 10
72.58597015295369
 20
204.7691215981316
 30
0.0
 10
72.4496398095537
 20
205.2096587638316
 30
0.0
 10
72.2839429040537
 20
205.6405649823316
 30
0.0
 10
72.19837151905371
 20
205.8297393255316
 30
0.0
  0
SPLINE
  5
9C1
330
1F
100
AcDbEntity
  8
RUNDUNGEN
  6
Continuous
 62
     9
100
AcDbSpline
210
0.0
220
0.0
230
1.0
 70
     8
 71
     3
 72
    17
 73
    13
 74
     0
 42
0.0000000001
 43
0.0000000001
 40
0.0
 40
0.0
 40
0.0
 40
0.0
 40
0.1820159417
 40
0.3576860708
 40
0.5213903093
 40
0.6678937328
 40
0.7925202885
 40
0.8913048668000001
 40
0.9300001063999999
 40
0.9611469663999999
 40
0.9845216437000001
 40
1.0
 40
1.0
 40
1.0
 40
1.0
 10
72.79976523435369
 20
199.9421902581316
 30
0.0
 10
72.79959565095369
 20
200.2205796559316
 30
0.0
 10
72.7975781546537
 20
200.7676531789316
 30
0.0
 10
72.7895380020537
 20
201.5650739506316
 30
0.0
 10
72.7767771471537
 20
202.3081098281316
 30
0.0
 10
72.75979780005369
 20
202.9729764718316
 30
0.0
 10
72.73915165515369
 20
203.5383792619316
 30
0.0
 10
72.7185204414537
 20
203.9387824657316
 30
0.0
 10
72.69959683975369
 20
204.1959925820316
 30
0.0
 10
72.68631681425368
 20
204.3379937233316
 30
0.0
 10
72.67273725295369
 20
204.4441441051316
 30
0.0
 10
72.66213741365369
 20
204.5027907843316
 30
0.0
 10
72.65562792255369
 20
204.5255520645316
 30
0.0
  0
LINE
  5
9C2
330
1F
100
AcDbEntity
  8
RUNDUNGEN
  6
Continuous
 62
     9
100
AcDbLine
 10
71.8979272388537
 20
189.6296728306316
 30
0.0
 11
72.0533569621537
 21
189.2401476274316
 31
0.0
  0
LINE
  5
9C3
330
1F
100
AcDbEntity
  8
RUNDUNGEN
  6
Continuous
 62
     9
100
AcDbLine
 10
70.75210679345369
 20
189.2401476274316
 30
0.0
 11
70.90753651675369
 21
189.6296728306316
 31
0.0
  0
SPLINE
  5
9C4
330
1F
100
AcDbEntity
  8
RUNDUNGEN
  6
Continuous
 62
     9
100
AcDbSpline
210
0.0
220
0.0
230
1.0
 70
     8
 71
     3
 72
    11
 73
     7
 74
     0
 42
0.0000000001
 43
0.0000000001
 40
0.0
 40
0.0
 40
0.0
 40
0.0
 40
0.2502659619
 40
0.5005215684000001
 40
0.7504719031999999
 40
1.0
 40
1.0
 40
1.0
 40
1.0
 10
72.05332352785369
 20
189.2401476268316
 30
0.0
 10
72.0923123005537
 20
189.2401849141316
 30
0.0
 10
72.17111513085369
 20
189.2557985916316
 30
0.0
 10
72.27081798595368
 20
189.3222709384316
 30
0.0
 10
72.3377838415537
 20
189.4215197960316
 30
0.0
 10
72.35364688775369
 20
189.5001323785316
 30
0.0
 10
72.35376557395371
 20
189.5390060362316
 30
0.0
  0
SPLINE
  5
9C5
330
1F
100
AcDbEntity
  8
RUNDUNGEN
  6
Continuous
 62
     9
100
AcDbSpline
210
0.0
220
0.0
230
1.0
 70
     8
 71
     3
 72
    13
 73
     9
 74
     0
 42
0.0000000001
 43
0.0000000001
 40
0.0
 40
0.0
 40
0.0
 40
0.0
 40
0.031652566
 40
0.0968688659
 40
0.1936074479
 40
0.3182837333
 40
0.6338506688000001
 40
1.0
 40
1.0
 40
1.0
 40
1.0
 10
70.91946875365369
 20
206.1746100356316
 30
0.0
 10
70.9185905822537
 20
206.1715766556316
 30
0.0
 10
70.9181347123537
 20
206.1618111397316
 30
0.0
 10
70.91680342085368
 20
206.1426223357316
 30
0.0
 10
70.91598753165371
 20
206.1139919260316
 30
0.0
 10
70.91465389225369
 20
206.0604575097316
 30
0.0
 10
70.91371626125369
 20
205.9799920906316
 30
0.0
 10
70.9134334601537
 20
205.9119831529316
 30
0.0
 10
70.91343346345368
 20
205.8754528674316
 30
0.0
  0
SPLINE
  5
9C6
330
1F
100
AcDbEntity
  8
RUNDUNGEN
  6
Continuous
 62
     9
100
AcDbSpline
210
0.0
220
0.0
230
1.0
 70
     8
 71
     3
 72
    11
 73
     7
 74
     0
 42
0.0000000001
 43
0.0000000001
 40
0.0
 40
0.0
 40
0.0
 40
0.0
 40
0.2506355996
 40
0.5011030161
 40
0.7509246934
 40
1.0
 40
1.0
 40
1.0
 40
1.0
 10
69.8484468505537
 20
204.8233427953316
 30
0.0
 10
69.88748747035369
 20
204.8233820473316
 30
0.0
 10
69.96639597525369
 20
204.8079491315316
 30
0.0
 10
70.06636678235371
 20
204.7417976777316
 30
0.0
 10
70.13364472625369
 20
204.6428425271316
 30
0.0
 10
70.1496706015537
 20
204.5643493108316
 30
0.0
 10
70.1498358329537
 20
204.5255520645316
 30
0.0
  0
SPLINE
  5
9C7
330
1F
100
AcDbEntity
  8
RUNDUNGEN
  6
Continuous
 62
     9
100
AcDbSpline
210
0.0
220
0.0
230
1.0
 70
     8
 71
     3
 72
    14
 73
    10
 74
     0
 42
0.0000000001
 43
0.0000000001
 40
0.0
 40
0.0
 40
0.0
 40
0.0
 40
0.3716520122
 40
0.5418414671000001
 40
0.6924584626000002
 40
0.8177894401999999
 40
0.9131512154999999
 40
0.9745811020999999
 40
1.0
 40
1.0
 40
1.0
 40
1.0
 10
69.69316678425369
 20
199.9474259800316
 30
0.0
 10
69.73189945125369
 20
199.9474310498316
 30
0.0
 10
69.78837432195369
 20
199.9472694386316
 30
0.0
 10
69.86052550455369
 20
199.9465994984316
 30
0.0
 10
69.9070470716537
 20
199.9460507989316
 30
0.0
 10
69.9456514440537
 20
199.9450824904316
 30
0.0
 10
69.97525349205369
 20
199.9447724698316
 30
0.0
 10
69.99381578775369
 20
199.9429003369316
 30
0.0
 10
70.0033292556537
 20
199.9433752850316
 30
0.0
 10
70.00569852115368
 20
199.9421902581316
 30
0.0
  0
SPLINE
  5
9C8
330
1F
100
AcDbEntity
  8
RUNDUNGEN
  6
Continuous
 62
     9
100
AcDbSpline
210
0.0
220
0.0
230
1.0
 70
     8
 71
     3
 72
    11
 73
     7
 74
     0
 42
0.0000000001
 43
0.0000000001
 40
0.0
 40
0.0
 40
0.0
 40
0.0
 40
0.2501801756
 40
0.5003836950000001
 40
0.7503625031000001
 40
1.0
 40
1.0
 40
1.0
 40
1.0
 10
72.49929764355369
 20
206.1288806697316
 30
0.0
 10
72.46026204885371
 20
206.1289200906316
 30
0.0
 10
72.3813247706537
 20
206.1134066810316
 30
0.0
 10
72.2814279998537
 20
206.0469019521316
 30
0.0
 10
72.21434398845369
 20
205.9474839689316
 30
0.0
 10
72.1984763979537
 20
205.8687205435316
 30
0.0
 10
72.19837151905371
 20
205.8297697443316
 30
0.0
  0
SPLINE
  5
9C9
330
1F
100
AcDbEntity
  8
RUNDUNGEN
  6
Continuous
 62
     9
100
AcDbSpline
210
0.0
220
0.0
230
1.0
 70
     8
 71
     3
 72
    11
 73
     7
 74
     0
 42
0.0000000001
 43
0.0000000001
 40
0.0
 40
0.0
 40
0.0
 40
0.0
 40
0.2506355994
 40
0.5011030157000001
 40
0.7509246931
 40
1.0
 40
1.0
 40
1.0
 40
1.0
 10
72.9570169049537
 20
204.8233427953316
 30
0.0
 10
72.91797628515368
 20
204.8233820473316
 30
0.0
 10
72.8390677803537
 20
204.8079491315316
 30
0.0
 10
72.73909697325371
 20
204.7417976778316
 30
0.0
 10
72.67181902935369
 20
204.6428425272316
 30
0.0
 10
72.6557931539537
 20
204.5643493108316
 30
0.0
 10
72.65562792255369
 20
204.5255520645316
 30
0.0
  0
SPLINE
  5
9CA
330
1F
100
AcDbEntity
  8
RUNDUNGEN
  6
Continuous
 62
     9
100
AcDbSpline
210
0.0
220
0.0
230
1.0
 70
     8
 71
     3
 72
    14
 73
    10
 74
     0
 42
0.0000000001
 43
0.0000000001
 40
0.0
 40
0.0
 40
0.0
 40
0.0
 40
0.3716519586
 40
0.5418413947000001
 40
0.6924583806
 40
0.81778936
 40
0.9131511493999999
 40
0.9745810631999999
 40
1.0
 40
1.0
 40
1.0
 40
1.0
 10
73.11229696805369
 20
199.9474259787316
 30
0.0
 10
73.0735643069537
 20
199.9474310484316
 30
0.0
 10
73.01708944455369
 20
199.9472694372316
 30
0.0
 10
72.94493827105369
 20
199.9465994975316
 30
0.0
 10
72.89841670765369
 20
199.9460507974316
 30
0.0
 10
72.8598123339537
 20
199.9450824912316
 30
0.0
 10
72.8302102846537
 20
199.9447724658316
 30
0.0
 10
72.81164797525369
 20
199.9429003421316
 30
0.0
 10
72.80213450675368
 20
199.9433752802316
 30
0.0
 10
72.79976523435369
 20
199.9421902581316
 30
0.0
  0
SPLINE
  5
9CB
330
1F
100
AcDbEntity
  8
RUNDUNGEN
  6
Continuous
 62
     9
100
AcDbSpline
210
0.0
220
0.0
230
1.0
 70
     8
 71
     3
 72
    12
 73
     8
 74
     0
 42
0.0000000001
 43
0.0000000001
 40
0.0
 40
0.0
 40
0.0
 40
0.0
 40
0.0372403444
 40
0.1022129672
 40
0.3203476395
 40
0.6343235724000001
 40
1.0
 40
1.0
 40
1.0
 40
1.0
 10
72.1983706521537
 20
205.8297735023316
 30
0.0
 10
72.19751038015369
 20
205.8335812909316
 30
0.0
 10
72.1883432449537
 20
205.8412627977316
 30
0.0
 10
72.15765108415371
 20
205.8531847183316
 30
0.0
 10
72.0950960595537
 20
205.8647335724316
 30
0.0
 10
72.00174965445369
 20
205.8734180900316
 30
0.0
 10
71.93035912855369
 20
205.8754528791316
 30
0.0
 10
71.89202672095369
 20
205.8754529523316
 30
0.0
  0
SPLINE
  5
9CC
330
1F
100
AcDbEntity
  8
RUNDUNGEN
  6
Continuous
 62
     9
100
AcDbSpline
210
0.0
220
0.0
230
1.0
 70
     8
 71
     3
 72
    13
 73
     9
 74
     0
 42
0.0000000001
 43
0.0000000001
 40
0.0
 40
0.0
 40
0.0
 40
0.0
 40
0.3661493508
 40
0.6817162917
 40
0.8063925690999999
 40
0.9031311426999998
 40
0.9683474373999999
 40
1.0
 40
1.0
 40
1.0
 40
1.0
 10
71.8920302920537
 20
205.8754528674316
 30
0.0
 10
71.89203029515368
 20
205.9119831549316
 30
0.0
 10
71.8917474936537
 20
205.9799920951316
 30
0.0
 10
71.89080986235371
 20
206.0604575158316
 30
0.0
 10
71.8894762228537
 20
206.1139919310316
 30
0.0
 10
71.88866033355369
 20
206.1426223385316
 30
0.0
 10
71.88732904255369
 20
206.1618111410316
 30
0.0
 10
71.88687317265369
 20
206.1715766558316
 30
0.0
 10
71.88599500165371
 20
206.1746100356316
 30
0.0
  0
SPLINE
  5
9CD
330
1F
100
AcDbEntity
  8
RUNDUNGEN
  6
Continuous
 62
     9
100
AcDbSpline
210
0.0
220
0.0
230
1.0
 70
     8
 71
     3
 72
    11
 73
     7
 74
     0
 42
0.0000000001
 43
0.0000000001
 40
0.0
 40
0.0
 40
0.0
 40
0.0
 40
0.249637507
 40
0.4996163207000001
 40
0.7498198327
 40
1.0
 40
1.0
 40
1.0
 40
1.0
 10
70.60709223655371
 20
205.8297697443316
 30
0.0
 10
70.60698735755369
 20
205.8687205451316
 30
0.0
 10
70.5911197654537
 20
205.9474839730316
 30
0.0
 10
70.52403575155371
 20
206.0469019561316
 30
0.0
 10
70.42413898115369
 20
206.1134066823316
 30
0.0
 10
70.3452017053537
 20
206.1289200906316
 30
0.0
 10
70.3061661119537
 20
206.1288806697316
 30
0.0
  0
SPLINE
  5
9CE
330
1F
100
AcDbEntity
  8
RUNDUNGEN
  6
Continuous
 62
     9
100
AcDbSpline
210
0.0
220
0.0
230
1.0
 70
     8
 71
     3
 72
    12
 73
     8
 74
     0
 42
0.0000000001
 43
0.0000000001
 40
0.0
 40
0.0
 40
0.0
 40
0.0
 40
0.3656823655
 40
0.6796589658
 40
0.8977921701999999
 40
0.9627613665000001
 40
1.0
 40
1.0
 40
1.0
 40
1.0
 10
70.91343038415371
 20
205.8754527941316
 30
0.0
 10
70.8750980728537
 20
205.8754528536316
 30
0.0
 10
70.80370821435369
 20
205.8734177211316
 30
0.0
 10
70.7103629886537
 20
205.8647323705316
 30
0.0
 10
70.64780988355369
 20
205.8531838028316
 30
0.0
 10
70.61711875495371
 20
205.8412615672316
 30
0.0
 10
70.60795309785369
 20
205.8335799580316
 30
0.0
 10
70.6070928540537
 20
205.8297724220316
 30
0.0
  0
SPLINE
  5
9CF
330
1F
100
AcDbEntity
  8
RUNDUNGEN
  6
Continuous
 62
     9
100
AcDbSpline
210
0.0
220
0.0
230
1.0
 70
     8
 71
     3
 72
    11
 73
     7
 74
     0
 42
0.0000000001
 43
0.0000000001
 40
0.0
 40
0.0
 40
0.0
 40
0.0
 40
0.2495280811
 40
0.4994783365
 40
0.7497339249
 40
1.0
 40
1.0
 40
1.0
 40
1.0
 10
72.19837151905371
 20
189.9285312400316
 30
0.0
 10
72.1982528496537
 20
189.8896621651316
 30
0.0
 10
72.1823936262537
 20
189.8110590521316
 30
0.0
 10
72.11544308815369
 20
189.7118177520316
 30
0.0
 10
72.01576030555369
 20
189.6453420136316
 30
0.0
 10
71.9369698573537
 20
189.6297173947316
 30
0.0
 10
71.89798566865369
 20
189.6296728306316
 30
0.0
  0
SPLINE
  5
9D0
330
1F
100
AcDbEntity
  8
RUNDUNGEN
  6
Continuous
 62
     9
100
AcDbSpline
210
0.0
220
0.0
230
1.0
 70
     8
 71
     3
 72
    12
 73
     8
 74
     0
 42
0.0000000001
 43
0.0000000001
 40
0.0
 40
0.0
 40
0.0
 40
0.0
 40
0.0334992497
 40
0.0999734767
 40
0.3220854471
 40
0.6363311195
 40
1.0
 40
1.0
 40
1.0
 40
1.0
 10
71.89798566865369
 20
189.6296728306316
 30
0.0
 10
71.89718028265369
 20
189.6329129768316
 30
0.0
 10
71.89662049975369
 20
189.6429359809316
 30
0.0
 10
71.8946534280537
 20
189.6748984200316
 30
0.0
 10
71.8935359718537
 20
189.7350563314316
 30
0.0
 10
71.8922365791537
 20
189.8247077694316
 30
0.0
 10
71.8920302920537
 20
189.8922857618316
 30
0.0
 10
71.8920302920537
 20
189.9285312400316
 30
0.0
  0
SPLINE
  5
9D1
330
1F
100
AcDbEntity
  8
RUNDUNGEN
  6
Continuous
 62
     9
100
AcDbSpline
210
0.0
220
0.0
230
1.0
 70
     8
 71
     3
 72
    12
 73
     8
 74
     0
 42
0.0000000001
 43
0.0000000001
 40
0.0
 40
0.0
 40
0.0
 40
0.0
 40
0.3636551249
 40
0.677884989
 40
0.9000020317
 40
0.9664879454999999
 40
1.0
 40
1.0
 40
1.0
 40
1.0
 10
70.91343346345368
 20
189.9285312400316
 30
0.0
 10
70.91343346345368
 20
189.8922871346316
 30
0.0
 10
70.9132273040537
 20
189.8247120832316
 30
0.0
 10
70.9119276292537
 20
189.7350631234315
 30
0.0
 10
70.9108110279537
 20
189.6749050444316
 30
0.0
 10
70.90884301545369
 20
189.6429397582316
 30
0.0
 10
70.90828378075371
 20
189.6329142151316
 30
0.0
 10
70.90747808685368
 20
189.6296728306316
 30
0.0
  0
SPLINE
  5
9D2
330
1F
100
AcDbEntity
  8
RUNDUNGEN
  6
Continuous
 62
     9
100
AcDbSpline
210
0.0
220
0.0
230
1.0
 70
     8
 71
     3
 72
    11
 73
     7
 74
     0
 42
0.0000000001
 43
0.0000000001
 40
0.0
 40
0.0
 40
0.0
 40
0.0
 40
0.2502660751
 40
0.5005216635
 40
0.7504719189
 40
1.0
 40
1.0
 40
1.0
 40
1.0
 10
70.90747808685368
 20
189.6296728306316
 30
0.0
 10
70.86849419645369
 20
189.6298317117316
 30
0.0
 10
70.7897053273537
 20
189.6452889422316
 30
0.0
 10
70.6900136529537
 20
189.7118320065316
 30
0.0
 10
70.62309625655371
 20
189.8110550451316
 30
0.0
 10
70.60715470525369
 20
189.8896620342316
 30
0.0
 10
70.60709223655371
 20
189.9285312400316
 30
0.0
  0
SPLINE
  5
9D3
330
1F
100
AcDbEntity
  8
RUNDUNGEN
  6
Continuous
 62
     9
100
AcDbSpline
210
0.0
220
0.0
230
1.0
 70
     8
 71
     3
 72
    11
 73
     7
 74
     0
 42
0.0000000001
 43
0.0000000001
 40
0.0
 40
0.0
 40
0.0
 40
0.0
 40
0.2495280552
 40
0.4994783615
 40
0.7497339947000001
 40
1.0
 40
1.0
 40
1.0
 40
1.0
 10
70.45170296245371
 20
189.5390060368316
 30
0.0
 10
70.45182113085369
 20
189.5001325003316
 30
0.0
 10
70.4676829731537
 20
189.4215199568316
 30
0.0
 10
70.5346471045537
 20
189.3222703552316
 30
0.0
 10
70.6343489315537
 20
189.2557969499316
 30
0.0
 10
70.7131515690537
 20
189.2401829356316
 30
0.0
 10
70.75214023175369
 20
189.2401456479316
 30
0.0
  0
SPLINE
  5
9D4
330
1F
100
AcDbEntity
  8
RUNDUNGEN
  6
Continuous
 62
     9
100
AcDbSpline
210
0.0
220
0.0
230
1.0
 70
     8
 71
     3
 72
    11
 73
     7
 74
     0
 42
0.0000000001
 43
0.0000000001
 40
0.0
 40
0.0
 40
0.0
 40
0.0
 40
0.1044777759
 40
0.3114217516
 40
0.6137234272
 40
1.0
 40
1.0
 40
1.0
 40
1.0
 10
70.75213974825371
 20
189.2401466982316
 30
0.0
 10
70.75038104605368
 20
189.2367952999316
 30
0.0
 10
70.74900905585369
 20
189.2252706756316
 30
0.0
 10
70.74633487175368
 20
189.2034319021316
 30
0.0
 10
70.7444384671537
 20
189.1709160858316
 30
0.0
 10
70.7432751157537
 20
189.1460362819316
 30
0.0
 10
70.7427499111537
 20
189.1320528360316
 30
0.0
  0
SPLINE
  5
9D5
330
1F
100
AcDbEntity
  8
RUNDUNGEN
  6
Continuous
 62
     9
100
AcDbSpline
210
0.0
220
0.0
230
1.0
 70
     8
 71
     3
 72
    11
 73
     7
 74
     0
 42
0.0000000001
 43
0.0000000001
 40
0.0
 40
0.0
 40
0.0
 40
0.0
 40
0.386270337
 40
0.6885683449
 40
0.8955167171999999
 40
1.0
 40
1.0
 40
1.0
 40
1.0
 10
72.0627138634537
 20
189.1320534268316
 30
0.0
 10
72.06218866945369
 20
189.1460364978316
 30
0.0
 10
72.0610253216537
 20
189.1709156700316
 30
0.0
 10
72.0591290305537
 20
189.2034309704316
 30
0.0
 10
72.05645476645369
 20
189.2252696720316
 30
0.0
 10
72.0550831014537
 20
189.2367946553316
 30
0.0
 10
72.05332427945369
 20
189.2401461705316
 30
0.0
  0
SPLINE
  5
9D6
330
1F
100
AcDbEntity
  8
RUNDUNGEN
  6
Continuous
 62
     9
100
AcDbSpline
210
0.0
220
0.0
230
1.0
 70
     8
 71
     3
 72
    17
 73
    13
 74
     0
 42
0.0000000001
 43
0.0000000001
 40
0.0
 40
0.0
 40
0.0
 40
0.0
 40
0.0154783461
 40
0.0388529778
 40
0.0699997429
 40
0.1086948526
 40
0.2074790724
 40
0.3321053724
 40
0.4786088420000001
 40
0.6423134087
 40
0.8179839263999999
 40
1.0
 40
1.0
 40
1.0
 40
1.0
 10
70.1498358329537
 20
204.5255520645316
 30
0.0
 10
70.1433263488537
 20
204.5027907985316
 30
0.0
 10
70.1327265155537
 20
204.4441442058316
 30
0.0
 10
70.11914697995371
 20
204.3379940525316
 30
0.0
 10
70.10586697585369
 20
204.1959933251316
 30
0.0
 10
70.0869434228537
 20
203.9387840995316
 30
0.0
 10
70.0663122180537
 20
203.5383820352316
 30
0.0
 10
70.0456660686537
 20
202.9729801143316
 30
0.0
 10
70.02868667905371
 20
202.3081132903316
 30
0.0
 10
70.0159257798537
 20
201.5650762464316
 30
0.0
 10
70.00788560605369
 20
200.7676541769316
 30
0.0
 10
70.0058681040537
 20
200.2205798577316
 30
0.0
 10
70.00569852115368
 20
199.9421902581316
 30
0.0
  0
LINE
  5
9D7
330
1F
100
AcDbEntity
  8
0
  6
Continuous
 62
     7
100
AcDbLine
 10
22.4427949550537
 20
134.0255858546316
 30
0.0
 11
22.49797031815369
 21
137.1721473183316
 31
0.0
  0
LINE
  5
9D8
330
1F
100
AcDbEntity
  8
0
  6
Continuous
 62
     7
100
AcDbLine
 10
22.49797031815369
 20
137.1721473183316
 30
0.0
 11
22.4983068779537
 21
137.1913405144316
 31
0.0
  0
SPLINE
  5
9D9
330
1F
100
AcDbEntity
  8
RUNDUNGEN
  6
Continuous
 62
     9
100
AcDbSpline
210
0.0
220
0.0
230
1.0
 70
     8
 71
     3
 72
     9
 73
     5
 74
     0
 42
0.0000000001
 43
0.0000000001
 40
0.0
 40
0.0
 40
0.0
 40
0.0
 40
0.4504450443
 40
1.0
 40
1.0
 40
1.0
 40
1.0
 10
70.60709223655371
 20
205.8297994715316
 30
0.0
 10
70.52151317685368
 20
205.6406081618316
 30
0.0
 10
70.3558423194537
 20
205.2096715517316
 30
0.0
 10
70.21949360945369
 20
204.7691216219316
 30
0.0
 10
70.1498358329537
 20
204.5255520645316
 30
0.0
  0
LINE
  5
9DA
330
1F
100
AcDbEntity
  8
RUNDUNGEN
  6
Continuous
 62
     9
100
AcDbLine
 10
70.45169818555369
 20
189.5390060641316
 30
0.0
 11
70.60709223655371
 21
189.9285311459316
 31
0.0
  0
SPLINE
  5
9DB
330
1F
100
AcDbEntity
  8
RUNDUNGEN
  6
Continuous
 62
     9
100
AcDbSpline
210
0.0
220
0.0
230
1.0
 70
     8
 71
     3
 72
    13
 73
     9
 74
     0
 42
0.0000000001
 43
0.0000000001
 40
0.0
 40
0.0
 40
0.0
 40
0.0
 40
0.03472523
 40
0.0991132491
 40
0.1920755986
 40
0.311656999
 40
0.6205279614000001
 40
1.0
 40
1.0
 40
1.0
 40
1.0
 10
70.45169818555369
 20
189.5390060641316
 30
0.0
 10
70.4499475212537
 20
189.5346217608316
 30
0.0
 10
70.44811734445369
 20
189.5210870976316
 30
0.0
 10
70.4452098803537
 20
189.4952580370316
 30
0.0
 10
70.44276071675369
 20
189.4576210109316
 30
0.0
 10
70.4391612606537
 20
189.3868581093316
 30
0.0
 10
70.43586859445369
 20
189.2770376436316
 30
0.0
 10
70.4342714757537
 20
189.1834774493316
 30
0.0
 10
70.43366782115369
 20
189.1318916516316
 30
0.0
  0
SPLINE
  5
9DC
330
1F
100
AcDbEntity
  8
0
  6
Continuous
 62
     9
100
AcDbSpline
210
0.0
220
0.0
230
1.0
 70
     8
 71
     3
 72
    11
 73
     7
 74
     0
 42
0.0000000001
 43
0.0000000001
 40
0.0
 40
0.0
 40
0.0
 40
0.0
 40
0.3033817363
 40
0.5719966006
 40
0.8021752597
 40
1.0
 40
1.0
 40
1.0
 40
1.0
 10
115.3256911685537
 20
138.7234184904316
 30
0.0
 10
115.3455292003537
 20
138.6544090724316
 30
0.0
 10
115.3916191139537
 20
138.5264106261316
 30
0.0
 10
115.4877314673537
 20
138.3612071596316
 30
0.0
 10
115.6026331333537
 20
138.2401968416316
 30
0.0
 10
115.6956820070537
 20
138.1929673121316
 30
0.0
 10
115.7411299971537
 20
138.1817115857316
 30
0.0
  0
SPLINE
  5
9DD
330
1F
100
AcDbEntity
  8
RUNDUNGEN
  6
Continuous
 62
     9
100
AcDbSpline
210
0.0
220
0.0
230
1.0
 70
     8
 71
     3
 72
     9
 73
     5
 74
     0
 42
0.0000000001
 43
0.0000000001
 40
0.0
 40
0.0
 40
0.0
 40
0.0
 40
0.2316119268
 40
1.0
 40
1.0
 40
1.0
 40
1.0
 10
119.2924424004537
 20
138.2106739688316
 30
0.0
 10
119.2854045147537
 20
138.2142083331316
 30
0.0
 10
119.2563146335537
 20
138.2321080834316
 30
0.0
 10
119.2339779438537
 20
138.2595027169316
 30
0.0
 10
119.2206506124537
 20
138.2819755705316
 30
0.0
  0
SPLINE
  5
9DE
330
1F
100
AcDbEntity
  8
RUNDUNGEN
  6
Continuous
 62
     9
100
AcDbSpline
210
0.0
220
0.0
230
1.0
 70
     8
 71
     3
 72
     9
 73
     5
 74
     0
 42
0.0000000001
 43
0.0000000001
 40
0.0
 40
0.0
 40
0.0
 40
0.0
 40
0.4234942161000001
 40
1.0
 40
1.0
 40
1.0
 40
1.0
 10
119.2206506124537
 20
138.2819755705316
 30
0.0
 10
119.1901372258536
 20
138.3334279466316
 30
0.0
 10
119.1561078029537
 20
138.4751883542316
 30
0.0
 10
119.1570499952537
 20
138.6164646583316
 30
0.0
 10
119.1631416742537
 20
138.6976696849316
 30
0.0
  0
SPLINE
  5
9DF
330
1F
100
AcDbEntity
  8
RUNDUNGEN
  6
Continuous
 62
     9
100
AcDbSpline
210
0.0
220
0.0
230
1.0
 70
     8
 71
     3
 72
    11
 73
     7
 74
     0
 42
0.0000000001
 43
0.0000000001
 40
0.0
 40
0.0
 40
0.0
 40
0.0
 40
0.3094746676
 40
0.5789927706000001
 40
0.8055455781
 40
1.0
 40
1.0
 40
1.0
 40
1.0
 10
118.5655276665537
 20
138.7923177478316
 30
0.0
 10
118.5871768346537
 20
138.7167950727316
 30
0.0
 10
118.6387189359537
 20
138.5781528643316
 30
0.0
 10
118.7480081503537
 20
138.4032517956316
 30
0.0
 10
118.8799484219537
 20
138.2831016333316
 30
0.0
 10
118.9856767435537
 20
138.2477019112316
 30
0.0
 10
119.0349666633537
 20
138.2449819034316
 30
0.0
  0
SPLINE
  5
9E0
330
1F
100
AcDbEntity
  8
RUNDUNGEN
  6
Continuous
 62
     9
100
AcDbSpline
210
0.0
220
0.0
230
1.0
 70
     8
 71
     3
 72
     9
 73
     5
 74
     0
 42
0.0000000001
 43
0.0000000001
 40
0.0
 40
0.0
 40
0.0
 40
0.0
 40
0.5495663481000001
 40
1.0
 40
1.0
 40
1.0
 40
1.0
 10
72.9570169049537
 20
204.8233427953316
 30
0.0
 10
72.88728858825371
 20
205.0671590081316
 30
0.0
 10
72.75081101315371
 20
205.5081484221316
 30
0.0
 10
72.5849600353537
 20
205.9395062412316
 30
0.0
 10
72.4992982597537
 20
206.1288804257316
 30
0.0
  0
SPLINE
  5
9E1
330
1F
100
AcDbEntity
  8
RUNDUNGEN
  6
Continuous
 62
     9
100
AcDbSpline
210
0.0
220
0.0
230
1.0
 70
     8
 71
     3
 72
    15
 73
    11
 74
     0
 42
0.0000000001
 43
0.0000000001
 40
0.0
 40
0.0
 40
0.0
 40
0.0
 40
0.370950697
 40
0.5399854955
 40
0.6894529313
 40
0.8138874919999999
 40
0.9087050354999998
 40
0.9708225728
 40
0.9892784405
 40
1.0
 40
1.0
 40
1.0
 40
1.0
 10
71.88599500175368
 20
206.1746100356316
 30
0.0
 10
71.96241865225371
 20
206.1746099020316
 30
0.0
 10
72.0736748140537
 20
206.1730449647316
 30
0.0
 10
72.21562615825369
 20
206.1674484138316
 30
0.0
 10
72.30669176435369
 20
206.1619754329316
 30
0.0
 10
72.38247820875369
 20
206.1554382308316
 30
0.0
 10
72.4397713145537
 20
206.1480353590316
 30
0.0
 10
72.4756952322537
 20
206.1410679608316
 30
0.0
 10
72.49302056415371
 20
206.1345466642316
 30
0.0
 10
72.49838963635371
 20
206.1308937554316
 30
0.0
 10
72.4992982597537
 20
206.1288804257316
 30
0.0
  0
SPLINE
  5
9E2
330
1F
100
AcDbEntity
  8
RUNDUNGEN
  6
Continuous
 62
     9
100
AcDbSpline
210
0.0
220
0.0
230
1.0
 70
     8
 71
     3
 72
    15
 73
    11
 74
     0
 42
0.0000000001
 43
0.0000000001
 40
0.0
 40
0.0
 40
0.0
 40
0.0
 40
0.0107224231
 40
0.0291798167
 40
0.0912984492
 40
0.1861151657
 40
0.3105512664
 40
0.4600196511
 40
0.629051548
 40
1.0
 40
1.0
 40
1.0
 40
1.0
 10
70.30616728385369
 20
206.1288811335316
 30
0.0
 10
70.3070764771537
 20
206.1308943917316
 30
0.0
 10
70.31244628925368
 20
206.1345466987317
 30
0.0
 10
70.32977222855369
 20
206.1410683012316
 30
0.0
 10
70.3656962744537
 20
206.1480360233316
 30
0.0
 10
70.42298958505369
 20
206.1554387644316
 30
0.0
 10
70.4987760902537
 20
206.1619756414316
 30
0.0
 10
70.5898412693537
 20
206.1674484769316
 30
0.0
 10
70.7317911896537
 20
206.1730448750316
 30
0.0
 10
70.84304586275369
 20
206.1746109046316
 30
0.0
 10
70.91946875385371
 20
206.1746100356316
 30
0.0
  0
SPLINE
  5
9E3
330
1F
100
AcDbEntity
  8
RUNDUNGEN
  6
Continuous
 62
     9
100
AcDbSpline
210
0.0
220
0.0
230
1.0
 70
     8
 71
     3
 72
     9
 73
     5
 74
     0
 42
0.0000000001
 43
0.0000000001
 40
0.0
 40
0.0
 40
0.0
 40
0.0
 40
0.450433972
 40
1.0
 40
1.0
 40
1.0
 40
1.0
 10
70.30616728385369
 20
206.1288811335316
 30
0.0
 10
70.22050535165371
 20
205.9395066409316
 30
0.0
 10
70.0546521095537
 20
205.5081492425316
 30
0.0
 10
69.9181751929537
 20
205.0671590978316
 30
0.0
 10
69.8484468505537
 20
204.8233427953316
 30
0.0
  0
LINE
  5
9E4
330
1F
100
AcDbEntity
  8
RUNDUNGEN
  6
Continuous
 62
     9
100
AcDbLine
 10
72.80635095075371
 20
189.1315789031316
 30
0.0
 11
72.79976523435369
 21
199.9421902581316
 31
0.0
  0
LINE
  5
9E5
330
1F
100
AcDbEntity
  8
RUNDUNGEN
  6
Continuous
 62
     9
100
AcDbLine
 10
118.5655299578537
 20
138.7923220118316
 30
0.0
 11
115.3256859215537
 21
138.7234090236316
 31
0.0
  0
SPLINE
  5
9E6
330
1F
100
AcDbEntity
  8
RUNDUNGEN
  6
Continuous
 62
     9
100
AcDbSpline
210
0.0
220
0.0
230
1.0
 70
     8
 71
     3
 72
     9
 73
     5
 74
     0
 42
0.0000000001
 43
0.0000000001
 40
0.0
 40
0.0
 40
0.0
 40
0.0
 40
0.4996890217
 40
1.0
 40
1.0
 40
1.0
 40
1.0
 10
119.1632443493537
 20
138.6976223957316
 30
0.0
 10
118.6755461860537
 20
142.6598487586316
 30
0.0
 10
117.4140529358536
 20
150.5571232272316
 30
0.0
 10
115.5238331439537
 20
158.3312602059316
 30
0.0
 10
114.4023490811537
 20
162.1678027662316
 30
0.0
  0
SPLINE
  5
9E7
330
1F
100
AcDbEntity
  8
RUNDUNGEN
  6
Continuous
 62
     9
100
AcDbSpline
210
0.0
220
0.0
230
1.0
 70
     8
 71
     3
 72
     9
 73
     5
 74
     0
 42
0.0000000001
 43
0.0000000001
 40
0.0
 40
0.0
 40
0.0
 40
0.0
 40
0.2413294099
 40
1.0
 40
1.0
 40
1.0
 40
1.0
 10
118.5655299578537
 20
138.7923220118316
 30
0.0
 10
118.6143406168537
 20
138.7933611288316
 30
0.0
 10
118.8167211599537
 20
138.7887777800316
 30
0.0
 10
119.0180024937537
 20
138.7472346618316
 30
0.0
 10
119.1632443493537
 20
138.6976223957316
 30
0.0
  0
SPLINE
  5
9E8
330
1F
100
AcDbEntity
  8
0
  6
Continuous
 62
     9
100
AcDbSpline
210
0.0
220
0.0
230
1.0
 70
     8
 71
     3
 72
    10
 73
     6
 74
     0
 42
0.0000000001
 43
0.0000000001
 40
0.0
 40
0.0
 40
0.0
 40
0.0
 40
0.308863769
 40
0.5801713785000001
 40
1.0
 40
1.0
 40
1.0
 40
1.0
 10
115.3256911685537
 20
138.7234184904316
 30
0.0
 10
115.2604269068537
 20
138.7400948373316
 30
0.0
 10
115.1391950677537
 20
138.7800523343316
 30
0.0
 10
114.9472301020537
 20
138.8803839547316
 30
0.0
 10
114.8322836514537
 20
138.9992855643316
 30
0.0
 10
114.8061700827537
 20
139.0870446325316
 30
0.0
  0
SPLINE
  5
9E9
330
1F
100
AcDbEntity
  8
RUNDUNGEN
  6
Continuous
 62
     9
100
AcDbSpline
210
0.0
220
0.0
230
1.0
 70
     8
 71
     3
 72
    17
 73
    13
 74
     0
 42
0.0000000001
 43
0.0000000001
 40
0.0
 40
0.0
 40
0.0
 40
0.0
 40
0.1820104055
 40
0.3576754712
 40
0.5213754945
 40
0.6678759109
 40
0.7925011001000001
 40
0.8912866142
 40
0.9299835979999999
 40
0.961133461
 40
0.9845130781999998
 40
1.0
 40
1.0
 40
1.0
 40
1.0
 10
73.1122969713537
 20
199.9474259800316
 30
0.0
 10
73.1121145081537
 20
200.2435846112316
 30
0.0
 10
73.10994392955369
 20
200.8255775935316
 30
0.0
 10
73.10129281255369
 20
201.6738975600316
 30
0.0
 10
73.0875598553537
 20
202.4643619379316
 30
0.0
 10
73.06928237675369
 20
203.1716685787317
 30
0.0
 10
73.0470502049537
 20
203.7731632620316
 30
0.0
 10
73.0248250824537
 20
204.1991258390316
 30
0.0
 10
73.00443123655369
 20
204.4727514625316
 30
0.0
 10
72.99011444175369
 20
204.6238203256316
 30
0.0
 10
72.97547181495371
 20
204.7367502813316
 30
0.0
 10
72.96403623095369
 20
204.7991405624316
 30
0.0
 10
72.9570169049537
 20
204.8233427953316
 30
0.0
  0
SPLINE
  5
9EA
330
1F
100
AcDbEntity
  8
RUNDUNGEN
  6
Continuous
 62
     9
100
AcDbSpline
210
0.0
220
0.0
230
1.0
 70
     8
 71
     3
 72
    17
 73
    13
 74
     0
 42
0.0000000001
 43
0.0000000001
 40
0.0
 40
0.0
 40
0.0
 40
0.0
 40
0.0154869124
 40
0.0388664827
 40
0.0700162532
 40
0.1087131065
 40
0.2074982627
 40
0.3321231945
 40
0.4786236558
 40
0.6423240079000001
 40
0.8179894626000001
 40
1.0
 40
1.0
 40
1.0
 40
1.0
 10
69.8484468505537
 20
204.8233427953316
 30
0.0
 10
69.8414275302537
 20
204.7991405768316
 30
0.0
 10
69.82999195675368
 20
204.7367503875316
 30
0.0
 10
69.81534935345369
 20
204.6238206726316
 30
0.0
 10
69.80103258515369
 20
204.4727522485316
 30
0.0
 10
69.78063878915371
 20
204.1991275690316
 30
0.0
 10
69.75841367835369
 20
203.7731662067316
 30
0.0
 10
69.73618150005369
 20
203.1716724522316
 30
0.0
 10
69.71790397535369
 20
202.4643656232316
 30
0.0
 10
69.7041709709537
 20
201.6739000047316
 30
0.0
 10
69.69551983175368
 20
200.8255786557316
 30
0.0
 10
69.6933492472537
 20
200.2435848257316
 30
0.0
 10
69.69316678425369
 20
199.9474259800316
 30
0.0
  0
LINE
  5
9EB
330
1F
100
AcDbEntity
  8
0
  6
Continuous
 62
     9
100
AcDbLine
 10
119.0349784116537
 20
138.2449840423316
 30
0.0
 11
115.9310239187537
 21
138.1765400661316
 31
0.0
  0
SPLINE
  5
9EC
330
1F
100
AcDbEntity
  8
RUNDUNGEN
  6
Continuous
 62
     9
100
AcDbSpline
210
0.0
220
0.0
230
1.0
 70
     8
 71
     3
 72
     9
 73
     5
 74
     0
 42
0.0000000001
 43
0.0000000001
 40
0.0
 40
0.0
 40
0.0
 40
0.0
 40
0.500390759
 40
1.0
 40
1.0
 40
1.0
 40
1.0
 10
119.1632769063537
 20
138.6976003848316
 30
0.0
 10
119.2491450873537
 20
138.6527218788316
 30
0.0
 10
119.4041512089537
 20
138.5298879312316
 30
0.0
 10
119.5180702710537
 20
138.3711148084316
 30
0.0
 10
119.5661913057537
 20
138.2871952584316
 30
0.0
  0
LINE
  5
9ED
330
1F
100
AcDbEntity
  8
RUNDUNGEN
  6
Continuous
 62
     9
100
AcDbLine
 10
70.00569852115368
 20
199.9421902581316
 30
0.0
 11
69.9991128047537
 21
189.1315789031316
 31
0.0
  0
LINE
  5
9F5
330
1F
100
AcDbEntity
  8
0
  6
ACDINTGB
100
AcDbLine
 10
71.4027318777537
 20
19.13609788953162
 30
0.0
 11
71.4027318777537
 21
220.5908448075994
 31
0.0
  0
ENDSEC
  0
SECTION
  2
OBJECTS
  0
DICTIONARY
  5
C
330
0
100
AcDbDictionary
281
     1
  3
ACAD_2007HEADERVARS_RT
350
A03
  3
ACAD_COLOR
350
BE
  3
ACAD_GROUP
350
D
  3
ACAD_LAYOUT
350
1A
  3
ACAD_MATERIAL
350
BD
  3
ACAD_MLEADERSTYLE
350
3EF
  3
ACAD_MLINESTYLE
350
17
  3
ACAD_PLOTSETTINGS
350
19
  3
ACAD_PLOTSTYLENAME
350
E
  3
ACAD_SCALELIST
350
3DD
  3
ACAD_TABLESTYLE
350
11A
  3
ACAD_VISUALSTYLE
350
3CC
  3
ACDB_RECOMPOSE_DATA
350
A01
  3
AcDbVariableDictionary
350
94
  3
AcmDictionary
350
5B
  3
AMG
350
41
  3
AMGSNAPSETTINGS
350
26B
  3
DWGPROPS
350
A02
  0
DICTIONARY
  5
9F6
330
10
100
AcDbDictionary
280
     1
281
     1
  3
ADSK_XREC_LAYER_RECONCILED
360
9F7
  0
DICTIONARY
  5
9F8
330
604
100
AcDbDictionary
280
     1
281
     1
  3
ADSK_XREC_LAYER_RECONCILED
360
9F9
  0
DICTIONARY
  5
9FA
330
605
100
AcDbDictionary
280
     1
281
     1
  3
ADSK_XREC_LAYER_RECONCILED
360
9FB
  0
DICTIONARY
  5
9FC
330
606
100
AcDbDictionary
280
     1
281
     1
  3
ADSK_XREC_LAYER_RECONCILED
360
9FD
  0
DICTIONARY
  5
8F
330
1F
100
AcDbDictionary
280
     1
281
     1
  0
DICTIONARY
  5
A03
102
{ACAD_REACTORS
330
C
102
}
330
C
100
AcDbDictionary
281
     1
  3
DIMJOGANG
350
A04
  0
DICTIONARY
  5
BE
102
{ACAD_REACTORS
330
C
102
}
330
C
100
AcDbDictionary
281
     1
  0
DICTIONARY
  5
D
102
{ACAD_REACTORS
330
C
102
}
330
C
100
AcDbDictionary
281
     1
  0
DICTIONARY
  5
1A
102
{ACAD_REACTORS
330
C
102
}
330
C
100
AcDbDictionary
281
     1
  3
Layout1
350
1E
  3
Layout2
350
26
  3
Model
350
22
  0
DICTIONARY
  5
BD
102
{ACAD_REACTORS
330
C
102
}
330
C
100
AcDbDictionary
281
     1
  3
ByBlock
350
3BC
  3
ByLayer
350
3B4
  3
Global
350
3C4
  0
DICTIONARY
  5
3EF
102
{ACAD_REACTORS
330
C
102
}
330
C
100
AcDbDictionary
281
     1
  3
Standard
350
3F0
  0
DICTIONARY
  5
17
102
{ACAD_REACTORS
330
C
102
}
330
C
100
AcDbDictionary
281
     1
  3
Standard
350
18
  0
DICTIONARY
  5
19
102
{ACAD_REACTORS
330
C
102
}
330
C
100
AcDbDictionary
281
     1
  0
ACDBDICTIONARYWDFLT
  5
E
102
{ACAD_REACTORS
330
C
102
}
330
C
100
AcDbDictionary
281
     1
  3
Normal
350
F
100
AcDbDictionaryWithDefault
340
F
  0
DICTIONARY
  5
3DD
102
{ACAD_REACTORS
330
C
102
}
330
C
100
AcDbDictionary
281
     1
  3
A0
350
3DE
  3
A1
350
3DF
  3
A2
350
3E0
  3
A3
350
3E1
  3
A4
350
3E2
  3
A5
350
3E3
  3
A6
350
3E4
  3
A7
350
3E5
  3
A8
350
3E6
  3
A9
350
3E7
  3
B0
350
3E8
  3
B1
350
3E9
  3
B2
350
3EA
  3
B3
350
3EB
  3
B4
350
3EC
  3
B5
350
3ED
  3
B6
350
3EE
  0
DICTIONARY
  5
11A
102
{ACAD_REACTORS
330
C
102
}
330
C
100
AcDbDictionary
281
     1
  3
Standard
350
11B
  0
DICTIONARY
  5
3CC
102
{ACAD_REACTORS
330
C
102
}
330
C
100
AcDbDictionary
281
     1
  3
2dWireframe
350
3D2
  3
3D Hidden
350
3D4
  3
3dWireframe
350
3D3
  3
Basic
350
3D1
  3
Brighten
350
3D8
  3
ColorChange
350
3DC
  3
Conceptual
350
3D5
  3
Dim
350
3D7
  3
EdgeColorOff
350
5A4
  3
Facepattern
350
3DB
  3
Flat
350
3CD
  3
FlatWithEdges
350
3CE
  3
Gouraud
350
3CF
  3
GouraudWithEdges
350
3D0
  3
JitterOff
350
5A2
  3
Linepattern
350
3DA
  3
OverhangOff
350
5A3
  3
Realistic
350
3D6
  3
Thicken
350
3D9
  0
XRECORD
  5
A01
102
{ACAD_REACTORS
330
C
102
}
330
C
100
AcDbXrecord
280
     1
 90
        1
330
11B
  0
DICTIONARY
  5
94
102
{ACAD_REACTORS
330
C
102
}
330
C
100
AcDbDictionary
281
     1
  3
CANNOSCALE
350
420
  3
CMLEADERSTYLE
350
41E
  3
CTABLESTYLE
350
138
  3
DIMASSOC
350
96
  3
INDEXCTL
350
95
  3
LAYEREVAL
350
422
  3
LAYERNOTIFY
350
423
  3
LIGHTINGUNITS
350
421
  3
MSLTSCALE
350
41F
  3
SORTENTS
350
9FE
  3
XCLIPFRAME
350
9FF
  0
DICTIONARY
  5
5B
102
{ACAD_REACTORS
330
C
102
}
330
C
100
AcDbDictionary
281
     1
  3
AcmBOM
350
272
  3
AcmStdDictionary
350
61
  3
AMDTSECTSYM_ARROWCOLOR
350
123
  0
DICTIONARY
  5
41
102
{ACAD_REACTORS
330
C
102
}
330
C
100
AcDbDictionary
281
     1
  0
DICTIONARY
  5
26B
102
{ACAD_REACTORS
330
C
102
}
330
C
100
AcDbDictionary
281
     1
  0
XRECORD
  5
A02
102
{ACAD_REACTORS
330
C
102
}
330
C
100
AcDbXrecord
280
     1
  1
DWGPROPS COOKIE
  2

  3

  4

  6

  7

  8
sheim
  9

300
AmdtFileType=84
301
=
302
=
303
=
304
=
305
=
306
=
307
=
308
=
309
=
 40
0.0010386458333333
 41
2456367.437390012
 42
2456367.438428125
  1

 90
        1
  0
XRECORD
  5
9F7
102
{ACAD_REACTORS
330
9F6
102
}
330
9F6
100
AcDbXrecord
280
     1
290
     1
  0
XRECORD
  5
9F9
102
{ACAD_REACTORS
330
9F8
102
}
330
9F8
100
AcDbXrecord
280
     1
290
     1
  0
XRECORD
  5
9FB
102
{ACAD_REACTORS
330
9FA
102
}
330
9FA
100
AcDbXrecord
280
     1
290
     1
  0
XRECORD
  5
9FD
102
{ACAD_REACTORS
330
9FC
102
}
330
9FC
100
AcDbXrecord
280
     1
290
     1
  0
XRECORD
  5
A04
102
{ACAD_REACTORS
330
A03
102
}
330
A03
100
AcDbXrecord
280
     1
 40
1.570796326794896
  0
LAYOUT
  5
1E
102
{ACAD_XDICTIONARY
360
A05
102
}
102
{ACAD_REACTORS
330
1A
102
}
330
1A
100
AcDbPlotSettings
  1

  2

  4

  6

 40
0.0
 41
0.0
 42
0.0
 43
0.0
 44
0.0
 45
0.0
 46
0.0
 47
0.0
 48
0.0
 49
0.0
140
0.0
141
0.0
142
1.0
143
1.0
 70
   688
 72
     0
 73
     0
 74
     5
  7

 75
    16
147
1.0
148
0.0
149
0.0
100
AcDbLayout
  1
Layout1
 70
     1
 71
     1
 10
0.0
 20
0.0
 11
420.0
 21
297.0
 12
0.0
 22
0.0
 32
0.0
 14
1.000000000000000E+20
 24
1.000000000000000E+20
 34
1.000000000000000E+20
 15
-1.000000000000000E+20
 25
-1.000000000000000E+20
 35
-1.000000000000000E+20
146
0.0
 13
0.0
 23
0.0
 33
0.0
 16
1.0
 26
0.0
 36
0.0
 17
0.0
 27
1.0
 37
0.0
 76
     0
330
1B
  0
LAYOUT
  5
26
102
{ACAD_XDICTIONARY
360
A09
102
}
102
{ACAD_REACTORS
330
1A
102
}
330
1A
100
AcDbPlotSettings
  1

  2

  4

  6

 40
0.0
 41
0.0
 42
0.0
 43
0.0
 44
0.0
 45
0.0
 46
0.0
 47
0.0
 48
0.0
 49
0.0
140
0.0
141
0.0
142
1.0
143
1.0
 70
   688
 72
     0
 73
     0
 74
     5
  7

 75
    16
147
1.0
148
0.0
149
0.0
100
AcDbLayout
  1
Layout2
 70
     1
 71
     2
 10
0.0
 20
0.0
 11
12.0
 21
9.0
 12
0.0
 22
0.0
 32
0.0
 14
0.0
 24
0.0
 34
0.0
 15
0.0
 25
0.0
 35
0.0
146
0.0
 13
0.0
 23
0.0
 33
0.0
 16
1.0
 26
0.0
 36
0.0
 17
0.0
 27
1.0
 37
0.0
 76
     0
330
23
  0
LAYOUT
  5
22
102
{ACAD_XDICTIONARY
360
A07
102
}
102
{ACAD_REACTORS
330
1A
102
}
330
1A
100
AcDbPlotSettings
  1

  2

  4

  6

 40
0.0
 41
0.0
 42
0.0
 43
0.0
 44
0.0
 45
0.0
 46
0.0
 47
0.0
 48
0.0
 49
0.0
140
0.0
141
0.0
142
1.0
143
1.0
 70
  1712
 72
     0
 73
     0
 74
     0
  7

 75
     0
147
1.0
148
0.0
149
0.0
100
AcDbLayout
  1
Model
 70
     1
 71
     0
 10
0.0
 20
0.0
 11
12.0
 21
9.0
 12
0.0
 22
0.0
 32
0.0
 14
0.0
 24
0.0
 34
0.0
 15
0.0
 25
0.0
 35
0.0
146
0.0
 13
0.0
 23
0.0
 33
0.0
 16
1.0
 26
0.0
 36
0.0
 17
0.0
 27
1.0
 37
0.0
 76
     0
330
1F
331
3B2
  0
MATERIAL
  5
3BC
102
{ACAD_XDICTIONARY
360
3BD
102
}
102
{ACAD_REACTORS
330
BD
102
}
330
BD
100
AcDbMaterial
  1
ByBlock
 72
     0
 43
0.0008202099737533
 43
0.0
 43
0.0
 43
0.0
 43
0.0
 43
0.0008202099737533
 43
0.0
 43
0.0
 43
0.0
 43
0.0
 43
1.0
 43
0.0
 43
0.0
 43
0.0
 43
0.0
 43
1.0
 77
     0
 47
0.0008202099737533
 47
0.0
 47
0.0
 47
0.0
 47
0.0
 47
0.0008202099737533
 47
0.0
 47
0.0
 47
0.0
 47
0.0
 47
1.0
 47
0.0
 47
0.0
 47
0.0
 47
0.0
 47
1.0
171
     0
 49
0.0008202099737533
 49
0.0
 49
0.0
 49
0.0
 49
0.0
 49
0.0008202099737533
 49
0.0
 49
0.0
 49
0.0
 49
0.0
 49
1.0
 49
0.0
 49
0.0
 49
0.0
 49
0.0
 49
1.0
175
     0
142
0.0008202099737533
142
0.0
142
0.0
142
0.0
142
0.0
142
0.0008202099737533
142
0.0
142
0.0
142
0.0
142
0.0
142
1.0
142
0.0
142
0.0
142
0.0
142
0.0
142
1.0
179
     0
144
0.0008202099737533
144
0.0
144
0.0
144
0.0
144
0.0
144
0.0008202099737533
144
0.0
144
0.0
144
0.0
144
0.0
144
1.0
144
0.0
144
0.0
144
0.0
144
0.0
144
1.0
147
0.0008202099737533
147
0.0
147
0.0
147
0.0
147
0.0
147
0.0008202099737533
147
0.0
147
0.0
147
0.0
147
0.0
147
1.0
147
0.0
147
0.0
147
0.0
147
0.0
147
1.0
  0
MATERIAL
  5
3B4
102
{ACAD_XDICTIONARY
360
3B5
102
}
102
{ACAD_REACTORS
330
BD
102
}
330
BD
100
AcDbMaterial
  1
ByLayer
 72
     0
 43
0.0008202099737533
 43
0.0
 43
0.0
 43
0.0
 43
0.0
 43
0.0008202099737533
 43
0.0
 43
0.0
 43
0.0
 43
0.0
 43
1.0
 43
0.0
 43
0.0
 43
0.0
 43
0.0
 43
1.0
 77
     0
 47
0.0008202099737533
 47
0.0
 47
0.0
 47
0.0
 47
0.0
 47
0.0008202099737533
 47
0.0
 47
0.0
 47
0.0
 47
0.0
 47
1.0
 47
0.0
 47
0.0
 47
0.0
 47
0.0
 47
1.0
171
     0
 49
0.0008202099737533
 49
0.0
 49
0.0
 49
0.0
 49
0.0
 49
0.0008202099737533
 49
0.0
 49
0.0
 49
0.0
 49
0.0
 49
1.0
 49
0.0
 49
0.0
 49
0.0
 49
0.0
 49
1.0
175
     0
142
0.0008202099737533
142
0.0
142
0.0
142
0.0
142
0.0
142
0.0008202099737533
142
0.0
142
0.0
142
0.0
142
0.0
142
1.0
142
0.0
142
0.0
142
0.0
142
0.0
142
1.0
179
     0
144
0.0008202099737533
144
0.0
144
0.0
144
0.0
144
0.0
144
0.0008202099737533
144
0.0
144
0.0
144
0.0
144
0.0
144
1.0
144
0.0
144
0.0
144
0.0
144
0.0
144
1.0
147
0.0008202099737533
147
0.0
147
0.0
147
0.0
147
0.0
147
0.0008202099737533
147
0.0
147
0.0
147
0.0
147
0.0
147
1.0
147
0.0
147
0.0
147
0.0
147
0.0
147
1.0
  0
MATERIAL
  5
3C4
102
{ACAD_XDICTIONARY
360
3C5
102
}
102
{ACAD_REACTORS
330
BD
102
}
330
BD
100
AcDbMaterial
  1
Global
 72
     0
 43
0.0008202099737533
 43
0.0
 43
0.0
 43
0.0
 43
0.0
 43
0.0008202099737533
 43
0.0
 43
0.0
 43
0.0
 43
0.0
 43
1.0
 43
0.0
 43
0.0
 43
0.0
 43
0.0
 43
1.0
 77
     0
 47
0.0008202099737533
 47
0.0
 47
0.0
 47
0.0
 47
0.0
 47
0.0008202099737533
 47
0.0
 47
0.0
 47
0.0
 47
0.0
 47
1.0
 47
0.0
 47
0.0
 47
0.0
 47
0.0
 47
1.0
171
     0
 49
0.0008202099737533
 49
0.0
 49
0.0
 49
0.0
 49
0.0
 49
0.0008202099737533
 49
0.0
 49
0.0
 49
0.0
 49
0.0
 49
1.0
 49
0.0
 49
0.0
 49
0.0
 49
0.0
 49
1.0
175
     0
142
0.0008202099737533
142
0.0
142
0.0
142
0.0
142
0.0
142
0.0008202099737533
142
0.0
142
0.0
142
0.0
142
0.0
142
1.0
142
0.0
142
0.0
142
0.0
142
0.0
142
1.0
179
     0
144
0.0008202099737533
144
0.0
144
0.0
144
0.0
144
0.0
144
0.0008202099737533
144
0.0
144
0.0
144
0.0
144
0.0
144
1.0
144
0.0
144
0.0
144
0.0
144
0.0
144
1.0
147
0.0008202099737533
147
0.0
147
0.0
147
0.0
147
0.0
147
0.0008202099737533
147
0.0
147
0.0
147
0.0
147
0.0
147
1.0
147
0.0
147
0.0
147
0.0
147
0.0
147
1.0
  0
MLEADERSTYLE
  5
3F0
102
{ACAD_REACTORS
330
3EF
102
}
330
3EF
100
AcDbMLeaderStyle
170
     2
171
     1
172
     0
 90
        2
 40
0.0
 41
0.0
173
     1
 91
-1056964608
340
14
 92
       -2
290
     1
 42
2.0
291
     1
 43
0.36
  3
Standard
 44
4.0
300

342
11
174
     1
178
     6
175
     1
176
     0
 93
-1056964608
 45
4.0
292
     0
297
     0
 46
4.0
 94
-1056964608
 47
1.0
 49
1.0
140
1.0
293
     1
141
0.0
294
     1
177
     0
142
1.0
295
     0
296
     0
143
0.125
1001
ACAD_MLEADERVER
1070
     2
  0
MLINESTYLE
  5
18
102
{ACAD_REACTORS
330
17
102
}
330
17
100
AcDbMlineStyle
  2
STANDARD
 70
     0
  3

 62
   256
 51
90.0
 52
90.0
 71
     2
 49
0.5
 62
   256
  6
BYLAYER
 49
-0.5
 62
   256
  6
BYLAYER
  0
ACDBPLACEHOLDER
  5
F
102
{ACAD_REACTORS
330
E
102
}
330
E
  0
SCALE
  5
3DE
102
{ACAD_REACTORS
330
3DD
102
}
330
3DD
100
AcDbScale
 70
     0
300
1:1
140
1.0
141
1.0
290
     1
  0
SCALE
  5
3DF
102
{ACAD_REACTORS
330
3DD
102
}
330
3DD
100
AcDbScale
 70
     0
300
1:2
140
1.0
141
2.0
290
     0
  0
SCALE
  5
3E0
102
{ACAD_REACTORS
330
3DD
102
}
330
3DD
100
AcDbScale
 70
     0
300
1:4
140
1.0
141
4.0
290
     0
  0
SCALE
  5
3E1
102
{ACAD_REACTORS
330
3DD
102
}
330
3DD
100
AcDbScale
 70
     0
300
1:5
140
1.0
141
5.0
290
     0
  0
SCALE
  5
3E2
102
{ACAD_REACTORS
330
3DD
102
}
330
3DD
100
AcDbScale
 70
     0
300
1:8
140
1.0
141
8.0
290
     0
  0
SCALE
  5
3E3
102
{ACAD_REACTORS
330
3DD
102
}
330
3DD
100
AcDbScale
 70
     0
300
1:10
140
1.0
141
10.0
290
     0
  0
SCALE
  5
3E4
102
{ACAD_REACTORS
330
3DD
102
}
330
3DD
100
AcDbScale
 70
     0
300
1:16
140
1.0
141
16.0
290
     0
  0
SCALE
  5
3E5
102
{ACAD_REACTORS
330
3DD
102
}
330
3DD
100
AcDbScale
 70
     0
300
1:20
140
1.0
141
20.0
290
     0
  0
SCALE
  5
3E6
102
{ACAD_REACTORS
330
3DD
102
}
330
3DD
100
AcDbScale
 70
     0
300
1:30
140
1.0
141
30.0
290
     0
  0
SCALE
  5
3E7
102
{ACAD_REACTORS
330
3DD
102
}
330
3DD
100
AcDbScale
 70
     0
300
1:40
140
1.0
141
40.0
290
     0
  0
SCALE
  5
3E8
102
{ACAD_REACTORS
330
3DD
102
}
330
3DD
100
AcDbScale
 70
     0
300
1:50
140
1.0
141
50.0
290
     0
  0
SCALE
  5
3E9
102
{ACAD_REACTORS
330
3DD
102
}
330
3DD
100
AcDbScale
 70
     0
300
1:100
140
1.0
141
100.0
290
     0
  0
SCALE
  5
3EA
102
{ACAD_REACTORS
330
3DD
102
}
330
3DD
100
AcDbScale
 70
     0
300
2:1
140
2.0
141
1.0
290
     0
  0
SCALE
  5
3EB
102
{ACAD_REACTORS
330
3DD
102
}
330
3DD
100
AcDbScale
 70
     0
300
4:1
140
4.0
141
1.0
290
     0
  0
SCALE
  5
3EC
102
{ACAD_REACTORS
330
3DD
102
}
330
3DD
100
AcDbScale
 70
     0
300
8:1
140
8.0
141
1.0
290
     0
  0
SCALE
  5
3ED
102
{ACAD_REACTORS
330
3DD
102
}
330
3DD
100
AcDbScale
 70
     0
300
10:1
140
10.0
141
1.0
290
     0
  0
SCALE
  5
3EE
102
{ACAD_REACTORS
330
3DD
102
}
330
3DD
100
AcDbScale
 70
     0
300
100:1
140
100.0
141
1.0
290
     0
  0
TABLESTYLE
  5
11B
102
{ACAD_XDICTIONARY
360
41B
102
}
102
{ACAD_REACTORS
330
11A
102
}
330
11A
100
AcDbTableStyle
  3
Standard
 70
     0
 71
     0
 40
1.5
 41
1.5
280
     0
281
     0
  7
STANDARD
140
4.5
170
     2
 62
     0
 63
     7
283
     0
274
    -2
284
     1
 64
     0
275
    -2
285
     1
 65
     0
276
    -2
286
     1
 66
     0
277
    -2
287
     1
 67
     0
278
    -2
288
     1
 68
     0
279
    -2
289
     1
 69
     0
  7
STANDARD
140
6.0
170
     5
 62
     0
 63
     7
283
     0
274
    -2
284
     1
 64
     0
275
    -2
285
     1
 65
     0
276
    -2
286
     1
 66
     0
277
    -2
287
     1
 67
     0
278
    -2
288
     1
 68
     0
279
    -2
289
     1
 69
     0
  7
STANDARD
140
4.5
170
     5
 62
     0
 63
     7
283
     0
274
    -2
284
     1
 64
     0
275
    -2
285
     1
 65
     0
276
    -2
286
     1
 66
     0
277
    -2
287
     1
 67
     0
278
    -2
288
     1
 68
     0
279
    -2
289
     1
 69
     0
  0
VISUALSTYLE
  5
3D2
102
{ACAD_XDICTIONARY
360
A19
102
}
102
{ACAD_REACTORS
330
3CC
102
}
330
3CC
100
AcDbVisualStyle
  2
2dWireframe
 70
     4
 71
     0
 72
     2
 73
     0
 90
        0
 40
-0.6
 41
-30.0
 62
     5
 63
     7
 74
     1
 91
        4
 64
     7
 65
   257
 75
     1
175
     1
 42
1.0
 92
        0
 66
   257
 43
1.0
 76
     1
 77
     6
 78
     2
 67
     7
 79
     5
170
     0
171
     0
290
     0
174
     0
 93
        1
 44
0.0
173
     0
291
     0
 45
0.0
1001
ACAD
1000
AcDbSavedByObjectVersion
1070
     0
  0
VISUALSTYLE
  5
3D4
102
{ACAD_XDICTIONARY
360
A1D
102
}
102
{ACAD_REACTORS
330
3CC
102
}
330
3CC
100
AcDbVisualStyle
  2
3D Hidden
 70
     6
 71
     1
 72
     2
 73
     2
 90
        0
 40
-0.6
 41
-30.0
 62
     5
 63
     7
 74
     2
 91
        2
 64
     7
 65
   257
 75
     2
175
     1
 42
40.0
 92
        0
 66
   257
 43
1.0
 76
     1
 77
     6
 78
     2
 67
     7
 79
     3
170
     0
171
     0
290
     0
174
     0
 93
        1
 44
0.0
173
     0
291
     0
 45
0.0
1001
ACAD
1000
AcDbSavedByObjectVersion
1070
     0
  0
VISUALSTYLE
  5
3D3
102
{ACAD_XDICTIONARY
360
A1B
102
}
102
{ACAD_REACTORS
330
3CC
102
}
330
3CC
100
AcDbVisualStyle
  2
3dWireframe
 70
     5
 71
     0
 72
     2
 73
     0
 90
        0
 40
-0.6
 41
-30.0
 62
     5
 63
     7
 74
     1
 91
        4
 64
     7
 65
   257
 75
     1
175
     1
 42
1.0
 92
        0
 66
   257
 43
1.0
 76
     1
 77
     6
 78
     2
 67
     7
 79
     5
170
     0
171
     0
290
     0
174
     0
 93
        1
 44
0.0
173
     0
291
     0
 45
0.0
1001
ACAD
1000
AcDbSavedByObjectVersion
1070
     0
  0
VISUALSTYLE
  5
3D1
102
{ACAD_XDICTIONARY
360
A17
102
}
102
{ACAD_REACTORS
330
3CC
102
}
330
3CC
100
AcDbVisualStyle
  2
Basic
 70
     7
 71
     1
 72
     0
 73
     1
 90
        0
 40
-0.6
 41
-30.0
 62
     5
 63
     7
 74
     0
 91
        4
 64
     7
 65
   257
 75
     1
175
     1
 42
1.0
 92
        8
 66
     7
 43
1.0
 76
     1
 77
     6
 78
     2
 67
     7
 79
     5
170
     0
171
     0
290
     0
174
     0
 93
        1
 44
0.0
173
     0
291
     1
 45
0.0
1001
ACAD
1000
AcDbSavedByObjectVersion
1070
     0
  0
VISUALSTYLE
  5
3D8
102
{ACAD_XDICTIONARY
360
A25
102
}
102
{ACAD_REACTORS
330
3CC
102
}
330
3CC
100
AcDbVisualStyle
  2
Brighten
 70
    12
 71
     2
 72
     2
 73
     0
 90
        0
 40
-0.6
 41
-30.0
 62
     5
 63
     7
 74
     1
 91
        4
 64
     7
 65
   257
 75
     1
175
     1
 42
1.0
 92
        8
 66
     7
 43
1.0
 76
     1
 77
     6
 78
     2
 67
     7
 79
     5
170
     0
171
     0
290
     0
174
     0
 93
        1
 44
50.0
173
     0
291
     1
 45
0.0
1001
ACAD
1000
AcDbSavedByObjectVersion
1070
     0
  0
VISUALSTYLE
  5
3DC
102
{ACAD_XDICTIONARY
360
A2D
102
}
102
{ACAD_REACTORS
330
3CC
102
}
330
3CC
100
AcDbVisualStyle
  2
ColorChange
 70
    16
 71
     2
 72
     2
 73
     3
 90
        0
 40
-0.6
 41
-30.0
 62
     5
 63
     8
 74
     1
 91
        4
 64
     7
 65
   257
 75
     1
175
     1
 42
1.0
 92
        8
 66
     8
 43
1.0
 76
     1
 77
     6
 78
     2
 67
     7
 79
     5
170
     0
171
     0
290
     0
174
     0
 93
        1
 44
0.0
173
     0
291
     1
 45
0.0
1001
ACAD
1000
AcDbSavedByObjectVersion
1070
     0
  0
VISUALSTYLE
  5
3D5
102
{ACAD_XDICTIONARY
360
A1F
102
}
102
{ACAD_REACTORS
330
3CC
102
}
330
3CC
100
AcDbVisualStyle
  2
Conceptual
 70
     9
 71
     3
 72
     2
 73
     0
 90
        0
 40
-0.6
 41
-30.0
 62
     5
 63
     7
 74
     2
 91
        2
 64
     7
 65
   257
 75
     1
175
     1
 42
40.0
 92
        8
 66
     7
 43
1.0
 76
     1
 77
     6
 78
     2
 67
     7
 79
     3
170
     0
171
     0
290
     0
174
     0
 93
        1
 44
0.0
173
     0
291
     0
 45
0.0
1001
ACAD
1000
AcDbSavedByObjectVersion
1070
     0
  0
VISUALSTYLE
  5
3D7
102
{ACAD_XDICTIONARY
360
A23
102
}
102
{ACAD_REACTORS
330
3CC
102
}
330
3CC
100
AcDbVisualStyle
  2
Dim
 70
    11
 71
     2
 72
     2
 73
     0
 90
        0
 40
-0.6
 41
-30.0
 62
     5
 63
     7
 74
     1
 91
        4
 64
     7
 65
   257
 75
     1
175
     1
 42
1.0
 92
        8
 66
     7
 43
1.0
 76
     1
 77
     6
 78
     2
 67
     7
 79
     5
170
     0
171
     0
290
     0
174
     0
 93
        1
 44
-50.0
173
     0
291
     1
 45
0.0
1001
ACAD
1000
AcDbSavedByObjectVersion
1070
     0
  0
VISUALSTYLE
  5
5A4
102
{ACAD_XDICTIONARY
360
A33
102
}
102
{ACAD_REACTORS
330
3CC
102
}
330
3CC
100
AcDbVisualStyle
  2
EdgeColorOff
 70
    22
 71
     2
 72
     2
 73
     0
 90
        0
 40
-0.6
 41
-30.0
 62
     5
 63
     7
 74
     1
 91
        4
 64
     7
 65
   257
 75
     1
175
     1
 42
1.0
 92
        8
 66
     7
 43
1.0
 76
     1
 77
     6
 78
     2
 67
     7
 79
     5
170
     0
171
     0
290
     0
174
     0
 93
        1
 44
0.0
173
     0
291
     1
 45
0.0
1001
ACAD
1000
AcDbSavedByObjectVersion
1070
     0
  0
VISUALSTYLE
  5
3DB
102
{ACAD_XDICTIONARY
360
A2B
102
}
102
{ACAD_REACTORS
330
3CC
102
}
330
3CC
100
AcDbVisualStyle
  2
Facepattern
 70
    15
 71
     2
 72
     2
 73
     0
 90
        0
 40
-0.6
 41
-30.0
 62
     5
 63
     7
 74
     1
 91
        4
 64
     7
 65
   257
 75
     1
175
     1
 42
1.0
 92
        8
 66
     7
 43
1.0
 76
     1
 77
     6
 78
     2
 67
     7
 79
     5
170
     0
171
     0
290
     0
174
     0
 93
        1
 44
0.0
173
     0
291
     1
 45
0.0
1001
ACAD
1000
AcDbSavedByObjectVersion
1070
     0
  0
VISUALSTYLE
  5
3CD
102
{ACAD_XDICTIONARY
360
A0F
102
}
102
{ACAD_REACTORS
330
3CC
102
}
330
3CC
100
AcDbVisualStyle
  2
Flat
 70
     0
 71
     2
 72
     1
 73
     1
 90
        2
 40
-0.6
 41
30.0
 62
     5
 63
     7
 74
     0
 91
        4
 64
     7
 65
   257
 75
     1
175
     1
 42
1.0
 92
        8
 66
     7
 43
1.0
 76
     1
 77
     6
 78
     2
 67
     7
 79
     5
170
     0
171
     0
290
     0
174
     0
 93
       13
 44
0.0
173
     0
291
     1
 45
0.0
1001
ACAD
1000
AcDbSavedByObjectVersion
1070
     0
  0
VISUALSTYLE
  5
3CE
102
{ACAD_XDICTIONARY
360
A11
102
}
102
{ACAD_REACTORS
330
3CC
102
}
330
3CC
100
AcDbVisualStyle
  2
FlatWithEdges
 70
     1
 71
     2
 72
     1
 73
     1
 90
        2
 40
-0.6
 41
30.0
 62
     5
 63
     7
 74
     1
 91
        4
 64
     7
 65
   257
 75
     1
175
     1
 42
1.0
 92
        0
 66
   257
 43
1.0
 76
     1
 77
     6
 78
     2
 67
     7
 79
     5
170
     0
171
     0
290
     0
174
     0
 93
       13
 44
0.0
173
     0
291
     1
 45
0.0
1001
ACAD
1000
AcDbSavedByObjectVersion
1070
     0
  0
VISUALSTYLE
  5
3CF
102
{ACAD_XDICTIONARY
360
A13
102
}
102
{ACAD_REACTORS
330
3CC
102
}
330
3CC
100
AcDbVisualStyle
  2
Gouraud
 70
     2
 71
     2
 72
     2
 73
     1
 90
        2
 40
-0.6
 41
30.0
 62
     5
 63
     7
 74
     0
 91
        4
 64
     7
 65
   257
 75
     1
175
     1
 42
1.0
 92
        0
 66
     7
 43
1.0
 76
     1
 77
     6
 78
     2
 67
     7
 79
     5
170
     0
171
     0
290
     0
174
     0
 93
       13
 44
0.0
173
     0
291
     1
 45
0.0
1001
ACAD
1000
AcDbSavedByObjectVersion
1070
     0
  0
VISUALSTYLE
  5
3D0
102
{ACAD_XDICTIONARY
360
A15
102
}
102
{ACAD_REACTORS
330
3CC
102
}
330
3CC
100
AcDbVisualStyle
  2
GouraudWithEdges
 70
     3
 71
     2
 72
     2
 73
     1
 90
        2
 40
-0.6
 41
30.0
 62
     5
 63
     7
 74
     1
 91
        4
 64
     7
 65
   257
 75
     1
175
     1
 42
1.0
 92
        0
 66
   257
 43
1.0
 76
     1
 77
     6
 78
     2
 67
     7
 79
     5
170
     0
171
     0
290
     0
174
     0
 93
       13
 44
0.0
173
     0
291
     1
 45
0.0
1001
ACAD
1000
AcDbSavedByObjectVersion
1070
     0
  0
VISUALSTYLE
  5
5A2
102
{ACAD_XDICTIONARY
360
A2F
102
}
102
{ACAD_REACTORS
330
3CC
102
}
330
3CC
100
AcDbVisualStyle
  2
JitterOff
 70
    20
 71
     2
 72
     2
 73
     0
 90
        0
 40
-0.6
 41
-30.0
 62
     5
 63
     7
 74
     1
 91
        4
 64
     7
 65
   257
 75
     1
175
     1
 42
1.0
 92
       10
 66
     7
 43
1.0
 76
     1
 77
     6
 78
     2
 67
     7
 79
     5
170
     0
171
     0
290
     0
174
     0
 93
        1
 44
0.0
173
     0
291
     1
 45
0.0
1001
ACAD
1000
AcDbSavedByObjectVersion
1070
     0
  0
VISUALSTYLE
  5
3DA
102
{ACAD_XDICTIONARY
360
A29
102
}
102
{ACAD_REACTORS
330
3CC
102
}
330
3CC
100
AcDbVisualStyle
  2
Linepattern
 70
    14
 71
     2
 72
     2
 73
     0
 90
        0
 40
-0.6
 41
-30.0
 62
     5
 63
     7
 74
     1
 91
        4
 64
     7
 65
   257
 75
     7
175
     7
 42
1.0
 92
        8
 66
     7
 43
1.0
 76
     1
 77
     6
 78
     2
 67
     7
 79
     5
170
     0
171
     0
290
     0
174
     0
 93
        1
 44
0.0
173
     0
291
     1
 45
0.0
1001
ACAD
1000
AcDbSavedByObjectVersion
1070
     0
  0
VISUALSTYLE
  5
5A3
102
{ACAD_XDICTIONARY
360
A31
102
}
102
{ACAD_REACTORS
330
3CC
102
}
330
3CC
100
AcDbVisualStyle
  2
OverhangOff
 70
    21
 71
     2
 72
     2
 73
     0
 90
        0
 40
-0.6
 41
-30.0
 62
     5
 63
     7
 74
     1
 91
        4
 64
     7
 65
   257
 75
     1
175
     1
 42
1.0
 92
        9
 66
     7
 43
1.0
 76
     1
 77
     6
 78
     2
 67
     7
 79
     5
170
     0
171
     0
290
     0
174
     0
 93
        1
 44
0.0
173
     0
291
     1
 45
0.0
1001
ACAD
1000
AcDbSavedByObjectVersion
1070
     0
  0
VISUALSTYLE
  5
3D6
102
{ACAD_XDICTIONARY
360
A21
102
}
102
{ACAD_REACTORS
330
3CC
102
}
330
3CC
100
AcDbVisualStyle
  2
Realistic
 70
     8
 71
     2
 72
     2
 73
     0
 90
        0
 40
-0.6
 41
-30.0
 62
     5
 63
     7
 74
     1
 91
        0
 64
     7
 65
   257
 75
     1
175
     1
 42
1.0
 92
        8
 66
     8
 43
1.0
 76
     1
 77
     6
 78
     2
 67
     7
 79
     5
170
     0
171
     0
290
     0
174
     0
 93
       13
 44
0.0
173
     0
291
     0
 45
0.0
1001
ACAD
1000
AcDbSavedByObjectVersion
1070
     0
  0
VISUALSTYLE
  5
3D9
102
{ACAD_XDICTIONARY
360
A27
102
}
102
{ACAD_REACTORS
330
3CC
102
}
330
3CC
100
AcDbVisualStyle
  2
Thicken
 70
    13
 71
     2
 72
     2
 73
     0
 90
        0
 40
-0.6
 41
-30.0
 62
     5
 63
     7
 74
     1
 91
        4
 64
     7
 65
   257
 75
     1
175
     1
 42
1.0
 92
       12
 66
     7
 43
1.0
 76
     1
 77
     6
 78
     2
 67
     7
 79
     5
170
     0
171
     0
290
     0
174
     0
 93
        1
 44
0.0
173
     0
291
     1
 45
0.0
1001
ACAD
1000
AcDbSavedByObjectVersion
1070
     0
  0
DICTIONARYVAR
  5
420
102
{ACAD_REACTORS
330
94
102
}
330
94
100
DictionaryVariables
280
     0
  1
1:1
  0
DICTIONARYVAR
  5
41E
102
{ACAD_REACTORS
330
94
102
}
330
94
100
DictionaryVariables
280
     0
  1
STANDARD
  0
DICTIONARYVAR
  5
138
102
{ACAD_REACTORS
330
94
102
}
330
94
100
DictionaryVariables
280
     0
  1
STANDARD
  0
DICTIONARYVAR
  5
96
102
{ACAD_REACTORS
330
94
102
}
330
94
100
DictionaryVariables
280
     0
  1
2
  0
DICTIONARYVAR
  5
95
102
{ACAD_REACTORS
330
94
102
}
330
94
100
DictionaryVariables
280
     0
  1
0
  0
DICTIONARYVAR
  5
422
102
{ACAD_REACTORS
330
94
102
}
330
94
100
DictionaryVariables
280
     0
  1
1
  0
DICTIONARYVAR
  5
423
102
{ACAD_REACTORS
330
94
102
}
330
94
100
DictionaryVariables
280
     0
  1
15
  0
DICTIONARYVAR
  5
421
102
{ACAD_REACTORS
330
94
102
}
330
94
100
DictionaryVariables
280
     0
  1
0
  0
DICTIONARYVAR
  5
41F
102
{ACAD_REACTORS
330
94
102
}
330
94
100
DictionaryVariables
280
     0
  1
0
  0
DICTIONARYVAR
  5
9FE
102
{ACAD_REACTORS
330
94
102
}
330
94
100
DictionaryVariables
280
     0
  1
127
  0
DICTIONARYVAR
  5
9FF
102
{ACAD_REACTORS
330
94
102
}
330
94
100
DictionaryVariables
280
     0
  1
0
  0
DICTIONARY
  5
272
102
{ACAD_REACTORS
330
5B
102
}
330
5B
100
AcDbDictionary
281
     1
  0
DICTIONARY
  5
61
102
{ACAD_REACTORS
330
5B
102
}
330
5B
100
AcDbDictionary
281
     1
  0
XRECORD
  5
123
102
{ACAD_REACTORS
330
5B
102
}
330
5B
100
AcDbXrecord
280
     1
 90
-1023410169
  0
DICTIONARY
  5
A05
330
1E
100
AcDbDictionary
280
     1
281
     1
  3
ACAD_XREC_ROUNDTRIP
360
A06
  0
DICTIONARY
  5
A09
330
26
100
AcDbDictionary
280
     1
281
     1
  3
ACAD_XREC_ROUNDTRIP
360
A0A
  0
DICTIONARY
  5
A07
330
22
100
AcDbDictionary
280
     1
281
     1
  3
ACAD_XREC_ROUNDTRIP
360
A08
  0
DICTIONARY
  5
3BD
330
3BC
100
AcDbDictionary
280
     1
281
     1
  3
ACAD_XREC_ROUNDTRIP
360
A0D
  3
BUMPTILE
360
3BF
  3
DIFFUSETILE
360
3BE
  3
OPACITYTILE
360
3C2
  3
REFLECTIONTILE
360
3C1
  3
REFRACTIONTILE
360
3C3
  3
SPECULARTILE
360
3C0
  0
DICTIONARY
  5
3B5
330
3B4
100
AcDbDictionary
280
     1
281
     1
  3
ACAD_XREC_ROUNDTRIP
360
A0C
  3
BUMPTILE
360
3B7
  3
DIFFUSETILE
360
3B6
  3
OPACITYTILE
360
3BA
  3
REFLECTIONTILE
360
3B9
  3
REFRACTIONTILE
360
3BB
  3
SPECULARTILE
360
3B8
  0
DICTIONARY
  5
3C5
330
3C4
100
AcDbDictionary
280
     1
281
     1
  3
ACAD_XREC_ROUNDTRIP
360
A0E
  3
BUMPTILE
360
3C7
  3
DIFFUSETILE
360
3C6
  3
OPACITYTILE
360
3CA
  3
REFLECTIONTILE
360
3C9
  3
REFRACTIONTILE
360
3CB
  3
SPECULARTILE
360
3C8
  0
DICTIONARY
  5
41B
330
11B
100
AcDbDictionary
280
     1
281
     1
  3
ACAD_ROUNDTRIP_2008_TABLESTYLE_CELLSTYLEMAP
360
A00
  3
ACAD_XREC_ROUNDTRIP
360
A0B
  0
DICTIONARY
  5
A19
330
3D2
100
AcDbDictionary
280
     1
281
     1
  3
ACAD_XREC_ROUNDTRIP
360
A1A
  0
DICTIONARY
  5
A1D
330
3D4
100
AcDbDictionary
280
     1
281
     1
  3
ACAD_XREC_ROUNDTRIP
360
A1E
  0
DICTIONARY
  5
A1B
330
3D3
100
AcDbDictionary
280
     1
281
     1
  3
ACAD_XREC_ROUNDTRIP
360
A1C
  0
DICTIONARY
  5
A17
330
3D1
100
AcDbDictionary
280
     1
281
     1
  3
ACAD_XREC_ROUNDTRIP
360
A18
  0
DICTIONARY
  5
A25
330
3D8
100
AcDbDictionary
280
     1
281
     1
  3
ACAD_XREC_ROUNDTRIP
360
A26
  0
DICTIONARY
  5
A2D
330
3DC
100
AcDbDictionary
280
     1
281
     1
  3
ACAD_XREC_ROUNDTRIP
360
A2E
  0
DICTIONARY
  5
A1F
330
3D5
100
AcDbDictionary
280
     1
281
     1
  3
ACAD_XREC_ROUNDTRIP
360
A20
  0
DICTIONARY
  5
A23
330
3D7
100
AcDbDictionary
280
     1
281
     1
  3
ACAD_XREC_ROUNDTRIP
360
A24
  0
DICTIONARY
  5
A33
330
5A4
100
AcDbDictionary
280
     1
281
     1
  3
ACAD_XREC_ROUNDTRIP
360
A34
  0
DICTIONARY
  5
A2B
330
3DB
100
AcDbDictionary
280
     1
281
     1
  3
ACAD_XREC_ROUNDTRIP
360
A2C
  0
DICTIONARY
  5
A0F
330
3CD
100
AcDbDictionary
280
     1
281
     1
  3
ACAD_XREC_ROUNDTRIP
360
A10
  0
DICTIONARY
  5
A11
330
3CE
100
AcDbDictionary
280
     1
281
     1
  3
ACAD_XREC_ROUNDTRIP
360
A12
  0
DICTIONARY
  5
A13
330
3CF
100
AcDbDictionary
280
     1
281
     1
  3
ACAD_XREC_ROUNDTRIP
360
A14
  0
DICTIONARY
  5
A15
330
3D0
100
AcDbDictionary
280
     1
281
     1
  3
ACAD_XREC_ROUNDTRIP
360
A16
  0
DICTIONARY
  5
A2F
330
5A2
100
AcDbDictionary
280
     1
281
     1
  3
ACAD_XREC_ROUNDTRIP
360
A30
  0
DICTIONARY
  5
A29
330
3DA
100
AcDbDictionary
280
     1
281
     1
  3
ACAD_XREC_ROUNDTRIP
360
A2A
  0
DICTIONARY
  5
A31
330
5A3
100
AcDbDictionary
280
     1
281
     1
  3
ACAD_XREC_ROUNDTRIP
360
A32
  0
DICTIONARY
  5
A21
330
3D6
100
AcDbDictionary
280
     1
281
     1
  3
ACAD_XREC_ROUNDTRIP
360
A22
  0
DICTIONARY
  5
A27
330
3D9
100
AcDbDictionary
280
     1
281
     1
  3
ACAD_XREC_ROUNDTRIP
360
A28
  0
XRECORD
  5
A06
102
{ACAD_REACTORS
330
A05
102
}
330
A05
100
AcDbXrecord
280
     1
102
SHADEPLOT
 70
     0
102
SHADEPLOTRESLEVEL
 70
     2
102
SHADEPLOTCUSTOMDPI
 70
   300
  0
XRECORD
  5
A0A
102
{ACAD_REACTORS
330
A09
102
}
330
A09
100
AcDbXrecord
280
     1
102
SHADEPLOT
 70
     0
102
SHADEPLOTRESLEVEL
 70
     2
102
SHADEPLOTCUSTOMDPI
 70
   300
  0
XRECORD
  5
A08
102
{ACAD_REACTORS
330
A07
102
}
330
A07
100
AcDbXrecord
280
     1
102
SHADEPLOT
 70
     0
102
SHADEPLOTRESLEVEL
 70
     2
102
SHADEPLOTCUSTOMDPI
 70
   300
  0
XRECORD
  5
A0D
102
{ACAD_REACTORS
330
3BD
102
}
330
3BD
100
AcDbXrecord
280
     1
102
MATERIAL
148
0.0
149
0.0
149
0.0
 93
        0
 94
      127
282
     0
 72
     0
 77
     0
171
     0
175
     0
179
     0
273
     0
  0
XRECORD
  5
3BF
102
{ACAD_REACTORS
330
3BD
102
}
330
3BD
100
AcDbXrecord
280
     1
270
     1
271
     1
  0
XRECORD
  5
3BE
102
{ACAD_REACTORS
330
3BD
102
}
330
3BD
100
AcDbXrecord
280
     1
270
     1
271
     1
  0
XRECORD
  5
3C2
102
{ACAD_REACTORS
330
3BD
102
}
330
3BD
100
AcDbXrecord
280
     1
270
     1
271
     1
  0
XRECORD
  5
3C1
102
{ACAD_REACTORS
330
3BD
102
}
330
3BD
100
AcDbXrecord
280
     1
270
     1
271
     1
  0
XRECORD
  5
3C3
102
{ACAD_REACTORS
330
3BD
102
}
330
3BD
100
AcDbXrecord
280
     1
270
     1
271
     1
  0
XRECORD
  5
3C0
102
{ACAD_REACTORS
330
3BD
102
}
330
3BD
100
AcDbXrecord
280
     1
270
     1
271
     1
  0
XRECORD
  5
A0C
102
{ACAD_REACTORS
330
3B5
102
}
330
3B5
100
AcDbXrecord
280
     1
102
MATERIAL
148
0.0
149
0.0
149
0.0
 93
        0
 94
      127
282
     0
 72
     0
 77
     0
171
     0
175
     0
179
     0
273
     0
  0
XRECORD
  5
3B7
102
{ACAD_REACTORS
330
3B5
102
}
330
3B5
100
AcDbXrecord
280
     1
270
     1
271
     1
  0
XRECORD
  5
3B6
102
{ACAD_REACTORS
330
3B5
102
}
330
3B5
100
AcDbXrecord
280
     1
270
     1
271
     1
  0
XRECORD
  5
3BA
102
{ACAD_REACTORS
330
3B5
102
}
330
3B5
100
AcDbXrecord
280
     1
270
     1
271
     1
  0
XRECORD
  5
3B9
102
{ACAD_REACTORS
330
3B5
102
}
330
3B5
100
AcDbXrecord
280
     1
270
     1
271
     1
  0
XRECORD
  5
3BB
102
{ACAD_REACTORS
330
3B5
102
}
330
3B5
100
AcDbXrecord
280
     1
270
     1
271
     1
  0
XRECORD
  5
3B8
102
{ACAD_REACTORS
330
3B5
102
}
330
3B5
100
AcDbXrecord
280
     1
270
     1
271
     1
  0
XRECORD
  5
A0E
102
{ACAD_REACTORS
330
3C5
102
}
330
3C5
100
AcDbXrecord
280
     1
102
MATERIAL
148
0.0
149
0.0
149
0.0
 93
        0
 94
      127
282
     0
 72
     0
 77
     0
171
     0
175
     0
179
     0
273
     0
  0
XRECORD
  5
3C7
102
{ACAD_REACTORS
330
3C5
102
}
330
3C5
100
AcDbXrecord
280
     1
270
     1
271
     1
  0
XRECORD
  5
3C6
102
{ACAD_REACTORS
330
3C5
102
}
330
3C5
100
AcDbXrecord
280
     1
270
     1
271
     1
  0
XRECORD
  5
3CA
102
{ACAD_REACTORS
330
3C5
102
}
330
3C5
100
AcDbXrecord
280
     1
270
     1
271
     1
  0
XRECORD
  5
3C9
102
{ACAD_REACTORS
330
3C5
102
}
330
3C5
100
AcDbXrecord
280
     1
270
     1
271
     1
  0
XRECORD
  5
3CB
102
{ACAD_REACTORS
330
3C5
102
}
330
3C5
100
AcDbXrecord
280
     1
270
     1
271
     1
  0
XRECORD
  5
3C8
102
{ACAD_REACTORS
330
3C5
102
}
330
3C5
100
AcDbXrecord
280
     1
270
     1
271
     1
  0
CELLSTYLEMAP
  5
A00
102
{ACAD_REACTORS
330
41B
102
}
330
41B
100
AcDbCellStyleMap
 90
        3
300
CELLSTYLE
  1
TABLEFORMAT_BEGIN
 90
        5
170
     1
 91
        0
 92
    32768
 62
   257
 93
        1
300
CONTENTFORMAT
  1
CONTENTFORMAT_BEGIN
 90
        0
 91
        0
 92
        4
 93
        0
300

 40
0.0
140
1.0
 94
        5
 62
     0
340
11
144
6.0
309
CONTENTFORMAT_END
171
     1
301
MARGIN
  1
CELLMARGIN_BEGIN
 40
1.5
 40
1.5
 40
1.5
 40
1.5
 40
0.18
 40
0.18
309
CELLMARGIN_END
 94
        6
 95
        1
302
GRIDFORMAT
  1
GRIDFORMAT_BEGIN
 90
        0
 91
        1
 62
     0
 92
       -2
340
0
 93
        0
 40
0.045
309
GRIDFORMAT_END
 95
        2
302
GRIDFORMAT
  1
GRIDFORMAT_BEGIN
 90
        0
 91
        1
 62
     0
 92
       -2
340
0
 93
        0
 40
0.045
309
GRIDFORMAT_END
 95
        4
302
GRIDFORMAT
  1
GRIDFORMAT_BEGIN
 90
        0
 91
        1
 62
     0
 92
       -2
340
0
 93
        0
 40
0.045
309
GRIDFORMAT_END
 95
        8
302
GRIDFORMAT
  1
GRIDFORMAT_BEGIN
 90
        0
 91
        1
 62
     0
 92
       -2
340
0
 93
        0
 40
0.045
309
GRIDFORMAT_END
 95
       16
302
GRIDFORMAT
  1
GRIDFORMAT_BEGIN
 90
        0
 91
        1
 62
     0
 92
       -2
340
0
 93
        0
 40
0.045
309
GRIDFORMAT_END
 95
       32
302
GRIDFORMAT
  1
GRIDFORMAT_BEGIN
 90
        0
 91
        1
 62
     0
 92
       -2
340
0
 93
        0
 40
0.045
309
GRIDFORMAT_END
309
TABLEFORMAT_END
  1
CELLSTYLE_BEGIN
 90
        1
 91
        1
300
_TITLE
309
CELLSTYLE_END
300
CELLSTYLE
  1
TABLEFORMAT_BEGIN
 90
        5
170
     1
 91
        0
 92
        0
 62
   257
 93
        1
300
CONTENTFORMAT
  1
CONTENTFORMAT_BEGIN
 90
        0
 91
        0
 92
        4
 93
        0
300

 40
0.0
140
1.0
 94
        5
 62
     0
340
11
144
4.5
309
CONTENTFORMAT_END
171
     1
301
MARGIN
  1
CELLMARGIN_BEGIN
 40
1.5
 40
1.5
 40
1.5
 40
1.5
 40
0.18
 40
0.18
309
CELLMARGIN_END
 94
        6
 95
        1
302
GRIDFORMAT
  1
GRIDFORMAT_BEGIN
 90
        0
 91
        1
 62
     0
 92
       -2
340
0
 93
        0
 40
0.045
309
GRIDFORMAT_END
 95
        2
302
GRIDFORMAT
  1
GRIDFORMAT_BEGIN
 90
        0
 91
        1
 62
     0
 92
       -2
340
0
 93
        0
 40
0.045
309
GRIDFORMAT_END
 95
        4
302
GRIDFORMAT
  1
GRIDFORMAT_BEGIN
 90
        0
 91
        1
 62
     0
 92
       -2
340
0
 93
        0
 40
0.045
309
GRIDFORMAT_END
 95
        8
302
GRIDFORMAT
  1
GRIDFORMAT_BEGIN
 90
        0
 91
        1
 62
     0
 92
       -2
340
0
 93
        0
 40
0.045
309
GRIDFORMAT_END
 95
       16
302
GRIDFORMAT
  1
GRIDFORMAT_BEGIN
 90
        0
 91
        1
 62
     0
 92
       -2
340
0
 93
        0
 40
0.045
309
GRIDFORMAT_END
 95
       32
302
GRIDFORMAT
  1
GRIDFORMAT_BEGIN
 90
        0
 91
        1
 62
     0
 92
       -2
340
0
 93
        0
 40
0.045
309
GRIDFORMAT_END
309
TABLEFORMAT_END
  1
CELLSTYLE_BEGIN
 90
        2
 91
        1
300
_HEADER
309
CELLSTYLE_END
300
CELLSTYLE
  1
TABLEFORMAT_BEGIN
 90
        5
170
     1
 91
        0
 92
        0
 62
   257
 93
        1
300
CONTENTFORMAT
  1
CONTENTFORMAT_BEGIN
 90
        0
 91
        0
 92
        4
 93
        0
300

 40
0.0
140
1.0
 94
        2
 62
     0
340
11
144
4.5
309
CONTENTFORMAT_END
171
     1
301
MARGIN
  1
CELLMARGIN_BEGIN
 40
1.5
 40
1.5
 40
1.5
 40
1.5
 40
0.18
 40
0.18
309
CELLMARGIN_END
 94
        6
 95
        1
302
GRIDFORMAT
  1
GRIDFORMAT_BEGIN
 90
        0
 91
        1
 62
     0
 92
       -2
340
0
 93
        0
 40
0.045
309
GRIDFORMAT_END
 95
        2
302
GRIDFORMAT
  1
GRIDFORMAT_BEGIN
 90
        0
 91
        1
 62
     0
 92
       -2
340
0
 93
        0
 40
0.045
309
GRIDFORMAT_END
 95
        4
302
GRIDFORMAT
  1
GRIDFORMAT_BEGIN
 90
        0
 91
        1
 62
     0
 92
       -2
340
0
 93
        0
 40
0.045
309
GRIDFORMAT_END
 95
        8
302
GRIDFORMAT
  1
GRIDFORMAT_BEGIN
 90
        0
 91
        1
 62
     0
 92
       -2
340
0
 93
        0
 40
0.045
309
GRIDFORMAT_END
 95
       16
302
GRIDFORMAT
  1
GRIDFORMAT_BEGIN
 90
        0
 91
        1
 62
     0
 92
       -2
340
0
 93
        0
 40
0.045
309
GRIDFORMAT_END
 95
       32
302
GRIDFORMAT
  1
GRIDFORMAT_BEGIN
 90
        0
 91
        1
 62
     0
 92
       -2
340
0
 93
        0
 40
0.045
309
GRIDFORMAT_END
309
TABLEFORMAT_END
  1
CELLSTYLE_BEGIN
 90
        3
 91
        2
300
_DATA
309
CELLSTYLE_END
  0
XRECORD
  5
A0B
102
{ACAD_REACTORS
330
41B
102
}
330
41B
100
AcDbXrecord
280
     1
102
ACAD_ROUNDTRIP_PRE2007_TABLESTYLE
 90
        4
 91
        0
  1

 92
        4
 93
        0
  2

 94
        4
 95
        0
  3

  0
XRECORD
  5
A1A
102
{ACAD_REACTORS
330
A19
102
}
330
A19
100
AcDbXrecord
280
     1
102
RTVSPropertyOp0
 70
     1
102
RTVSPropertyOp1
 70
     1
102
RTVSPropertyOp2
 70
     1
102
RTVSPropertyOp3
 70
     1
102
RTVSPropertyOp4
 70
     1
102
RTVSPropertyOp5
 70
     1
102
RTVSPropertyOp6
 70
     1
102
RTVSPropertyOp7
 70
     1
102
RTVSPropertyOp8
 70
     1
102
RTVSPropertyOp9
 70
     1
102
RTVSPropertyOp10
 70
     1
102
RTVSPropertyOp11
 70
     1
102
RTVSPropertyOp12
 70
     1
102
RTVSPropertyOp13
 70
     1
102
RTVSPropertyOp14
 70
     1
102
RTVSPropertyOp15
 70
     1
102
RTVSPropertyOp16
 70
     1
102
RTVSPropertyOp17
 70
     1
102
RTVSPropertyOp18
 70
     1
102
RTVSPropertyOp19
 70
     1
102
RTVSPropertyOp20
 70
     1
102
RTVSPropertyOp21
 70
     1
102
RTVSPropertyOp22
 70
     1
102
RTVSPropertyOp23
 70
     1
102
RTVSPropertyOp24
 70
     1
102
RTVSPropertyOp25
 70
     1
102
RTVSPropertyOp26
 70
     1
102
RTVSPropertyOp27
 70
     1
  0
XRECORD
  5
A1E
102
{ACAD_REACTORS
330
A1D
102
}
330
A1D
100
AcDbXrecord
280
     1
102
RTVSPropertyOp0
 70
     1
102
RTVSPropertyOp1
 70
     1
102
RTVSPropertyOp2
 70
     1
102
RTVSPropertyOp3
 70
     1
102
RTVSPropertyOp4
 70
     1
102
RTVSPropertyOp5
 70
     1
102
RTVSPropertyOp6
 70
     1
102
RTVSPropertyOp7
 70
     1
102
RTVSPropertyOp8
 70
     1
102
RTVSPropertyOp9
 70
     1
102
RTVSPropertyOp10
 70
     1
102
RTVSPropertyOp11
 70
     1
102
RTVSPropertyOp12
 70
     1
102
RTVSPropertyOp13
 70
     1
102
RTVSPropertyOp14
 70
     1
102
RTVSPropertyOp15
 70
     1
102
RTVSPropertyOp16
 70
     1
102
RTVSPropertyOp17
 70
     1
102
RTVSPropertyOp18
 70
     1
102
RTVSPropertyOp19
 70
     1
102
RTVSPropertyOp20
 70
     1
102
RTVSPropertyOp21
 70
     1
102
RTVSPropertyOp22
 70
     1
102
RTVSPropertyOp23
 70
     1
102
RTVSPropertyOp24
 70
     1
102
RTVSPropertyOp25
 70
     1
102
RTVSPropertyOp26
 70
     1
102
RTVSPropertyOp27
 70
     1
  0
XRECORD
  5
A1C
102
{ACAD_REACTORS
330
A1B
102
}
330
A1B
100
AcDbXrecord
280
     1
102
RTVSPropertyOp0
 70
     1
102
RTVSPropertyOp1
 70
     1
102
RTVSPropertyOp2
 70
     1
102
RTVSPropertyOp3
 70
     1
102
RTVSPropertyOp4
 70
     1
102
RTVSPropertyOp5
 70
     1
102
RTVSPropertyOp6
 70
     1
102
RTVSPropertyOp7
 70
     1
102
RTVSPropertyOp8
 70
     1
102
RTVSPropertyOp9
 70
     1
102
RTVSPropertyOp10
 70
     1
102
RTVSPropertyOp11
 70
     1
102
RTVSPropertyOp12
 70
     1
102
RTVSPropertyOp13
 70
     1
102
RTVSPropertyOp14
 70
     1
102
RTVSPropertyOp15
 70
     1
102
RTVSPropertyOp16
 70
     1
102
RTVSPropertyOp17
 70
     1
102
RTVSPropertyOp18
 70
     1
102
RTVSPropertyOp19
 70
     1
102
RTVSPropertyOp20
 70
     1
102
RTVSPropertyOp21
 70
     1
102
RTVSPropertyOp22
 70
     1
102
RTVSPropertyOp23
 70
     1
102
RTVSPropertyOp24
 70
     1
102
RTVSPropertyOp25
 70
     1
102
RTVSPropertyOp26
 70
     1
102
RTVSPropertyOp27
 70
     1
  0
XRECORD
  5
A18
102
{ACAD_REACTORS
330
A17
102
}
330
A17
100
AcDbXrecord
280
     1
102
RTVSPropertyOp0
 70
     1
102
RTVSPropertyOp1
 70
     1
102
RTVSPropertyOp2
 70
     1
102
RTVSPropertyOp3
 70
     1
102
RTVSPropertyOp4
 70
     1
102
RTVSPropertyOp5
 70
     1
102
RTVSPropertyOp6
 70
     1
102
RTVSPropertyOp7
 70
     1
102
RTVSPropertyOp8
 70
     1
102
RTVSPropertyOp9
 70
     1
102
RTVSPropertyOp10
 70
     1
102
RTVSPropertyOp11
 70
     1
102
RTVSPropertyOp12
 70
     1
102
RTVSPropertyOp13
 70
     1
102
RTVSPropertyOp14
 70
     1
102
RTVSPropertyOp15
 70
     1
102
RTVSPropertyOp16
 70
     1
102
RTVSPropertyOp17
 70
     1
102
RTVSPropertyOp18
 70
     1
102
RTVSPropertyOp19
 70
     1
102
RTVSPropertyOp20
 70
     1
102
RTVSPropertyOp21
 70
     1
102
RTVSPropertyOp22
 70
     1
102
RTVSPropertyOp23
 70
     1
102
RTVSPropertyOp24
 70
     1
102
RTVSPropertyOp25
 70
     1
102
RTVSPropertyOp26
 70
     1
102
RTVSPropertyOp27
 70
     1
  0
XRECORD
  5
A26
102
{ACAD_REACTORS
330
A25
102
}
330
A25
100
AcDbXrecord
280
     1
102
RTVSPropertyOp0
 70
     1
102
RTVSPropertyOp1
 70
     1
102
RTVSPropertyOp2
 70
     1
102
RTVSPropertyOp3
 70
     1
102
RTVSPropertyOp4
 70
     1
102
RTVSPropertyOp5
 70
     1
102
RTVSPropertyOp6
 70
     1
102
RTVSPropertyOp7
 70
     1
102
RTVSPropertyOp8
 70
     1
102
RTVSPropertyOp9
 70
     1
102
RTVSPropertyOp10
 70
     1
102
RTVSPropertyOp11
 70
     1
102
RTVSPropertyOp12
 70
     1
102
RTVSPropertyOp13
 70
     1
102
RTVSPropertyOp14
 70
     1
102
RTVSPropertyOp15
 70
     1
102
RTVSPropertyOp16
 70
     1
102
RTVSPropertyOp17
 70
     1
102
RTVSPropertyOp18
 70
     1
102
RTVSPropertyOp19
 70
     1
102
RTVSPropertyOp20
 70
     1
102
RTVSPropertyOp21
 70
     1
102
RTVSPropertyOp22
 70
     1
102
RTVSPropertyOp23
 70
     1
102
RTVSPropertyOp24
 70
     1
102
RTVSPropertyOp25
 70
     1
102
RTVSPropertyOp26
 70
     1
102
RTVSPropertyOp27
 70
     1
  0
XRECORD
  5
A2E
102
{ACAD_REACTORS
330
A2D
102
}
330
A2D
100
AcDbXrecord
280
     1
102
RTVSPropertyOp0
 70
     1
102
RTVSPropertyOp1
 70
     1
102
RTVSPropertyOp2
 70
     1
102
RTVSPropertyOp3
 70
     1
102
RTVSPropertyOp4
 70
     1
102
RTVSPropertyOp5
 70
     1
102
RTVSPropertyOp6
 70
     1
102
RTVSPropertyOp7
 70
     1
102
RTVSPropertyOp8
 70
     1
102
RTVSPropertyOp9
 70
     1
102
RTVSPropertyOp10
 70
     1
102
RTVSPropertyOp11
 70
     1
102
RTVSPropertyOp12
 70
     1
102
RTVSPropertyOp13
 70
     1
102
RTVSPropertyOp14
 70
     1
102
RTVSPropertyOp15
 70
     1
102
RTVSPropertyOp16
 70
     1
102
RTVSPropertyOp17
 70
     1
102
RTVSPropertyOp18
 70
     1
102
RTVSPropertyOp19
 70
     1
102
RTVSPropertyOp20
 70
     1
102
RTVSPropertyOp21
 70
     1
102
RTVSPropertyOp22
 70
     1
102
RTVSPropertyOp23
 70
     1
102
RTVSPropertyOp24
 70
     1
102
RTVSPropertyOp25
 70
     1
102
RTVSPropertyOp26
 70
     1
102
RTVSPropertyOp27
 70
     1
  0
XRECORD
  5
A20
102
{ACAD_REACTORS
330
A1F
102
}
330
A1F
100
AcDbXrecord
280
     1
102
RTVSPropertyOp0
 70
     1
102
RTVSPropertyOp1
 70
     1
102
RTVSPropertyOp2
 70
     1
102
RTVSPropertyOp3
 70
     1
102
RTVSPropertyOp4
 70
     1
102
RTVSPropertyOp5
 70
     1
102
RTVSPropertyOp6
 70
     1
102
RTVSPropertyOp7
 70
     1
102
RTVSPropertyOp8
 70
     1
102
RTVSPropertyOp9
 70
     1
102
RTVSPropertyOp10
 70
     1
102
RTVSPropertyOp11
 70
     1
102
RTVSPropertyOp12
 70
     1
102
RTVSPropertyOp13
 70
     1
102
RTVSPropertyOp14
 70
     1
102
RTVSPropertyOp15
 70
     1
102
RTVSPropertyOp16
 70
     1
102
RTVSPropertyOp17
 70
     1
102
RTVSPropertyOp18
 70
     1
102
RTVSPropertyOp19
 70
     1
102
RTVSPropertyOp20
 70
     1
102
RTVSPropertyOp21
 70
     1
102
RTVSPropertyOp22
 70
     1
102
RTVSPropertyOp23
 70
     1
102
RTVSPropertyOp24
 70
     1
102
RTVSPropertyOp25
 70
     1
102
RTVSPropertyOp26
 70
     1
102
RTVSPropertyOp27
 70
     1
  0
XRECORD
  5
A24
102
{ACAD_REACTORS
330
A23
102
}
330
A23
100
AcDbXrecord
280
     1
102
RTVSPropertyOp0
 70
     1
102
RTVSPropertyOp1
 70
     1
102
RTVSPropertyOp2
 70
     1
102
RTVSPropertyOp3
 70
     1
102
RTVSPropertyOp4
 70
     1
102
RTVSPropertyOp5
 70
     1
102
RTVSPropertyOp6
 70
     1
102
RTVSPropertyOp7
 70
     1
102
RTVSPropertyOp8
 70
     1
102
RTVSPropertyOp9
 70
     1
102
RTVSPropertyOp10
 70
     1
102
RTVSPropertyOp11
 70
     1
102
RTVSPropertyOp12
 70
     1
102
RTVSPropertyOp13
 70
     1
102
RTVSPropertyOp14
 70
     1
102
RTVSPropertyOp15
 70
     1
102
RTVSPropertyOp16
 70
     1
102
RTVSPropertyOp17
 70
     1
102
RTVSPropertyOp18
 70
     1
102
RTVSPropertyOp19
 70
     1
102
RTVSPropertyOp20
 70
     1
102
RTVSPropertyOp21
 70
     1
102
RTVSPropertyOp22
 70
     1
102
RTVSPropertyOp23
 70
     1
102
RTVSPropertyOp24
 70
     1
102
RTVSPropertyOp25
 70
     1
102
RTVSPropertyOp26
 70
     1
102
RTVSPropertyOp27
 70
     1
  0
XRECORD
  5
A34
102
{ACAD_REACTORS
330
A33
102
}
330
A33
100
AcDbXrecord
280
     1
102
RTVSPropertyOp0
 70
     0
102
RTVSPropertyOp1
 70
     0
102
RTVSPropertyOp2
 70
     0
102
RTVSPropertyOp3
 70
     0
102
RTVSPropertyOp4
 70
     0
102
RTVSPropertyOp5
 70
     0
102
RTVSPropertyOp6
 70
     0
102
RTVSPropertyOp7
 70
     0
102
RTVSPropertyOp8
 70
     0
102
RTVSPropertyOp9
 70
     0
102
RTVSPropertyOp10
 70
     0
102
RTVSPropertyOp11
 70
     0
102
RTVSPropertyOp12
 70
     0
102
RTVSPropertyOp13
 70
     0
102
RTVSPropertyOp14
 70
     2
102
RTVSPropertyOp15
 70
     0
102
RTVSPropertyOp16
 70
     0
102
RTVSPropertyOp17
 70
     0
102
RTVSPropertyOp18
 70
     0
102
RTVSPropertyOp19
 70
     0
102
RTVSPropertyOp20
 70
     0
102
RTVSPropertyOp21
 70
     0
102
RTVSPropertyOp22
 70
     0
102
RTVSPropertyOp23
 70
     0
102
RTVSPropertyOp24
 70
     0
102
RTVSPropertyOp25
 70
     0
102
RTVSPropertyOp26
 70
     0
102
RTVSPropertyOp27
 70
     0
  0
XRECORD
  5
A2C
102
{ACAD_REACTORS
330
A2B
102
}
330
A2B
100
AcDbXrecord
280
     1
102
RTVSPropertyOp0
 70
     1
102
RTVSPropertyOp1
 70
     1
102
RTVSPropertyOp2
 70
     1
102
RTVSPropertyOp3
 70
     1
102
RTVSPropertyOp4
 70
     1
102
RTVSPropertyOp5
 70
     1
102
RTVSPropertyOp6
 70
     1
102
RTVSPropertyOp7
 70
     1
102
RTVSPropertyOp8
 70
     1
102
RTVSPropertyOp9
 70
     1
102
RTVSPropertyOp10
 70
     1
102
RTVSPropertyOp11
 70
     1
102
RTVSPropertyOp12
 70
     1
102
RTVSPropertyOp13
 70
     1
102
RTVSPropertyOp14
 70
     1
102
RTVSPropertyOp15
 70
     1
102
RTVSPropertyOp16
 70
     1
102
RTVSPropertyOp17
 70
     1
102
RTVSPropertyOp18
 70
     1
102
RTVSPropertyOp19
 70
     1
102
RTVSPropertyOp20
 70
     1
102
RTVSPropertyOp21
 70
     1
102
RTVSPropertyOp22
 70
     1
102
RTVSPropertyOp23
 70
     1
102
RTVSPropertyOp24
 70
     1
102
RTVSPropertyOp25
 70
     1
102
RTVSPropertyOp26
 70
     1
102
RTVSPropertyOp27
 70
     1
  0
XRECORD
  5
A10
102
{ACAD_REACTORS
330
A0F
102
}
330
A0F
100
AcDbXrecord
280
     1
102
RTVSPropertyOp0
 70
     1
102
RTVSPropertyOp1
 70
     1
102
RTVSPropertyOp2
 70
     1
102
RTVSPropertyOp3
 70
     1
102
RTVSPropertyOp4
 70
     1
102
RTVSPropertyOp5
 70
     1
102
RTVSPropertyOp6
 70
     1
102
RTVSPropertyOp7
 70
     1
102
RTVSPropertyOp8
 70
     1
102
RTVSPropertyOp9
 70
     1
102
RTVSPropertyOp10
 70
     1
102
RTVSPropertyOp11
 70
     1
102
RTVSPropertyOp12
 70
     1
102
RTVSPropertyOp13
 70
     1
102
RTVSPropertyOp14
 70
     1
102
RTVSPropertyOp15
 70
     1
102
RTVSPropertyOp16
 70
     1
102
RTVSPropertyOp17
 70
     1
102
RTVSPropertyOp18
 70
     1
102
RTVSPropertyOp19
 70
     1
102
RTVSPropertyOp20
 70
     1
102
RTVSPropertyOp21
 70
     1
102
RTVSPropertyOp22
 70
     1
102
RTVSPropertyOp23
 70
     1
102
RTVSPropertyOp24
 70
     1
102
RTVSPropertyOp25
 70
     1
102
RTVSPropertyOp26
 70
     1
102
RTVSPropertyOp27
 70
     1
  0
XRECORD
  5
A12
102
{ACAD_REACTORS
330
A11
102
}
330
A11
100
AcDbXrecord
280
     1
102
RTVSPropertyOp0
 70
     1
102
RTVSPropertyOp1
 70
     1
102
RTVSPropertyOp2
 70
     1
102
RTVSPropertyOp3
 70
     1
102
RTVSPropertyOp4
 70
     1
102
RTVSPropertyOp5
 70
     1
102
RTVSPropertyOp6
 70
     1
102
RTVSPropertyOp7
 70
     1
102
RTVSPropertyOp8
 70
     1
102
RTVSPropertyOp9
 70
     1
102
RTVSPropertyOp10
 70
     1
102
RTVSPropertyOp11
 70
     1
102
RTVSPropertyOp12
 70
     1
102
RTVSPropertyOp13
 70
     1
102
RTVSPropertyOp14
 70
     1
102
RTVSPropertyOp15
 70
     1
102
RTVSPropertyOp16
 70
     1
102
RTVSPropertyOp17
 70
     1
102
RTVSPropertyOp18
 70
     1
102
RTVSPropertyOp19
 70
     1
102
RTVSPropertyOp20
 70
     1
102
RTVSPropertyOp21
 70
     1
102
RTVSPropertyOp22
 70
     1
102
RTVSPropertyOp23
 70
     1
102
RTVSPropertyOp24
 70
     1
102
RTVSPropertyOp25
 70
     1
102
RTVSPropertyOp26
 70
     1
102
RTVSPropertyOp27
 70
     1
  0
XRECORD
  5
A14
102
{ACAD_REACTORS
330
A13
102
}
330
A13
100
AcDbXrecord
280
     1
102
RTVSPropertyOp0
 70
     1
102
RTVSPropertyOp1
 70
     1
102
RTVSPropertyOp2
 70
     1
102
RTVSPropertyOp3
 70
     1
102
RTVSPropertyOp4
 70
     1
102
RTVSPropertyOp5
 70
     1
102
RTVSPropertyOp6
 70
     1
102
RTVSPropertyOp7
 70
     1
102
RTVSPropertyOp8
 70
     1
102
RTVSPropertyOp9
 70
     1
102
RTVSPropertyOp10
 70
     1
102
RTVSPropertyOp11
 70
     1
102
RTVSPropertyOp12
 70
     1
102
RTVSPropertyOp13
 70
     1
102
RTVSPropertyOp14
 70
     1
102
RTVSPropertyOp15
 70
     1
102
RTVSPropertyOp16
 70
     1
102
RTVSPropertyOp17
 70
     1
102
RTVSPropertyOp18
 70
     1
102
RTVSPropertyOp19
 70
     1
102
RTVSPropertyOp20
 70
     1
102
RTVSPropertyOp21
 70
     1
102
RTVSPropertyOp22
 70
     1
102
RTVSPropertyOp23
 70
     1
102
RTVSPropertyOp24
 70
     1
102
RTVSPropertyOp25
 70
     1
102
RTVSPropertyOp26
 70
     1
102
RTVSPropertyOp27
 70
     1
  0
XRECORD
  5
A16
102
{ACAD_REACTORS
330
A15
102
}
330
A15
100
AcDbXrecord
280
     1
102
RTVSPropertyOp0
 70
     1
102
RTVSPropertyOp1
 70
     1
102
RTVSPropertyOp2
 70
     1
102
RTVSPropertyOp3
 70
     1
102
RTVSPropertyOp4
 70
     1
102
RTVSPropertyOp5
 70
     1
102
RTVSPropertyOp6
 70
     1
102
RTVSPropertyOp7
 70
     1
102
RTVSPropertyOp8
 70
     1
102
RTVSPropertyOp9
 70
     1
102
RTVSPropertyOp10
 70
     1
102
RTVSPropertyOp11
 70
     1
102
RTVSPropertyOp12
 70
     1
102
RTVSPropertyOp13
 70
     1
102
RTVSPropertyOp14
 70
     1
102
RTVSPropertyOp15
 70
     1
102
RTVSPropertyOp16
 70
     1
102
RTVSPropertyOp17
 70
     1
102
RTVSPropertyOp18
 70
     1
102
RTVSPropertyOp19
 70
     1
102
RTVSPropertyOp20
 70
     1
102
RTVSPropertyOp21
 70
     1
102
RTVSPropertyOp22
 70
     1
102
RTVSPropertyOp23
 70
     1
102
RTVSPropertyOp24
 70
     1
102
RTVSPropertyOp25
 70
     1
102
RTVSPropertyOp26
 70
     1
102
RTVSPropertyOp27
 70
     1
  0
XRECORD
  5
A30
102
{ACAD_REACTORS
330
A2F
102
}
330
A2F
100
AcDbXrecord
280
     1
102
RTVSPropertyOp0
 70
     0
102
RTVSPropertyOp1
 70
     0
102
RTVSPropertyOp2
 70
     0
102
RTVSPropertyOp3
 70
     0
102
RTVSPropertyOp4
 70
     0
102
RTVSPropertyOp5
 70
     0
102
RTVSPropertyOp6
 70
     0
102
RTVSPropertyOp7
 70
     0
102
RTVSPropertyOp8
 70
     0
102
RTVSPropertyOp9
 70
     0
102
RTVSPropertyOp10
 70
     0
102
RTVSPropertyOp11
 70
     0
102
RTVSPropertyOp12
 70
     0
102
RTVSPropertyOp13
 70
     0
102
RTVSPropertyOp14
 70
     2
102
RTVSPropertyOp15
 70
     0
102
RTVSPropertyOp16
 70
     0
102
RTVSPropertyOp17
 70
     0
102
RTVSPropertyOp18
 70
     0
102
RTVSPropertyOp19
 70
     0
102
RTVSPropertyOp20
 70
     0
102
RTVSPropertyOp21
 70
     0
102
RTVSPropertyOp22
 70
     0
102
RTVSPropertyOp23
 70
     0
102
RTVSPropertyOp24
 70
     0
102
RTVSPropertyOp25
 70
     0
102
RTVSPropertyOp26
 70
     0
102
RTVSPropertyOp27
 70
     0
  0
XRECORD
  5
A2A
102
{ACAD_REACTORS
330
A29
102
}
330
A29
100
AcDbXrecord
280
     1
102
RTVSPropertyOp0
 70
     1
102
RTVSPropertyOp1
 70
     1
102
RTVSPropertyOp2
 70
     1
102
RTVSPropertyOp3
 70
     1
102
RTVSPropertyOp4
 70
     1
102
RTVSPropertyOp5
 70
     1
102
RTVSPropertyOp6
 70
     1
102
RTVSPropertyOp7
 70
     1
102
RTVSPropertyOp8
 70
     1
102
RTVSPropertyOp9
 70
     1
102
RTVSPropertyOp10
 70
     1
102
RTVSPropertyOp11
 70
     1
102
RTVSPropertyOp12
 70
     1
102
RTVSPropertyOp13
 70
     1
102
RTVSPropertyOp14
 70
     1
102
RTVSPropertyOp15
 70
     1
102
RTVSPropertyOp16
 70
     1
102
RTVSPropertyOp17
 70
     1
102
RTVSPropertyOp18
 70
     1
102
RTVSPropertyOp19
 70
     1
102
RTVSPropertyOp20
 70
     1
102
RTVSPropertyOp21
 70
     1
102
RTVSPropertyOp22
 70
     1
102
RTVSPropertyOp23
 70
     1
102
RTVSPropertyOp24
 70
     1
102
RTVSPropertyOp25
 70
     1
102
RTVSPropertyOp26
 70
     1
102
RTVSPropertyOp27
 70
     1
  0
XRECORD
  5
A32
102
{ACAD_REACTORS
330
A31
102
}
330
A31
100
AcDbXrecord
280
     1
102
RTVSPropertyOp0
 70
     0
102
RTVSPropertyOp1
 70
     0
102
RTVSPropertyOp2
 70
     0
102
RTVSPropertyOp3
 70
     0
102
RTVSPropertyOp4
 70
     0
102
RTVSPropertyOp5
 70
     0
102
RTVSPropertyOp6
 70
     0
102
RTVSPropertyOp7
 70
     0
102
RTVSPropertyOp8
 70
     0
102
RTVSPropertyOp9
 70
     0
102
RTVSPropertyOp10
 70
     0
102
RTVSPropertyOp11
 70
     0
102
RTVSPropertyOp12
 70
     0
102
RTVSPropertyOp13
 70
     0
102
RTVSPropertyOp14
 70
     2
102
RTVSPropertyOp15
 70
     0
102
RTVSPropertyOp16
 70
     0
102
RTVSPropertyOp17
 70
     0
102
RTVSPropertyOp18
 70
     0
102
RTVSPropertyOp19
 70
     0
102
RTVSPropertyOp20
 70
     0
102
RTVSPropertyOp21
 70
     0
102
RTVSPropertyOp22
 70
     0
102
RTVSPropertyOp23
 70
     0
102
RTVSPropertyOp24
 70
     0
102
RTVSPropertyOp25
 70
     0
102
RTVSPropertyOp26
 70
     0
102
RTVSPropertyOp27
 70
     0
  0
XRECORD
  5
A22
102
{ACAD_REACTORS
330
A21
102
}
330
A21
100
AcDbXrecord
280
     1
102
RTVSPropertyOp0
 70
     1
102
RTVSPropertyOp1
 70
     1
102
RTVSPropertyOp2
 70
     1
102
RTVSPropertyOp3
 70
     1
102
RTVSPropertyOp4
 70
     1
102
RTVSPropertyOp5
 70
     1
102
RTVSPropertyOp6
 70
     1
102
RTVSPropertyOp7
 70
     1
102
RTVSPropertyOp8
 70
     1
102
RTVSPropertyOp9
 70
     1
102
RTVSPropertyOp10
 70
     1
102
RTVSPropertyOp11
 70
     1
102
RTVSPropertyOp12
 70
     1
102
RTVSPropertyOp13
 70
     1
102
RTVSPropertyOp14
 70
     1
102
RTVSPropertyOp15
 70
     1
102
RTVSPropertyOp16
 70
     1
102
RTVSPropertyOp17
 70
     1
102
RTVSPropertyOp18
 70
     1
102
RTVSPropertyOp19
 70
     1
102
RTVSPropertyOp20
 70
     1
102
RTVSPropertyOp21
 70
     1
102
RTVSPropertyOp22
 70
     1
102
RTVSPropertyOp23
 70
     1
102
RTVSPropertyOp24
 70
     1
102
RTVSPropertyOp25
 70
     1
102
RTVSPropertyOp26
 70
     1
102
RTVSPropertyOp27
 70
     1
  0
XRECORD
  5
A28
102
{ACAD_REACTORS
330
A27
102
}
330
A27
100
AcDbXrecord
280
     1
102
RTVSPropertyOp0
 70
     1
102
RTVSPropertyOp1
 70
     1
102
RTVSPropertyOp2
 70
     1
102
RTVSPropertyOp3
 70
     1
102
RTVSPropertyOp4
 70
     1
102
RTVSPropertyOp5
 70
     1
102
RTVSPropertyOp6
 70
     1
102
RTVSPropertyOp7
 70
     1
102
RTVSPropertyOp8
 70
     1
102
RTVSPropertyOp9
 70
     1
102
RTVSPropertyOp10
 70
     1
102
RTVSPropertyOp11
 70
     1
102
RTVSPropertyOp12
 70
     1
102
RTVSPropertyOp13
 70
     1
102
RTVSPropertyOp14
 70
     1
102
RTVSPropertyOp15
 70
     1
102
RTVSPropertyOp16
 70
     1
102
RTVSPropertyOp17
 70
     1
102
RTVSPropertyOp18
 70
     1
102
RTVSPropertyOp19
 70
     1
102
RTVSPropertyOp20
 70
     1
102
RTVSPropertyOp21
 70
     1
102
RTVSPropertyOp22
 70
     1
102
RTVSPropertyOp23
 70
     1
102
RTVSPropertyOp24
 70
     1
102
RTVSPropertyOp25
 70
     1
102
RTVSPropertyOp26
 70
     1
102
RTVSPropertyOp27
 70
     1
  0
ENDSEC
  0
EOF
