  0
SECTION
  2
HEADER
  9
$ACADVER
  1
AC1015
  9
$ACADMAINTVER
 70
    20
  9
$DWGCODEPAGE
  3
ANSI_1252
  9
$INSBASE
 10
0.0
 20
0.0
 30
0.0
  9
$EXTMIN
 10
1410.085399864528
 20
616.8136538070666
 30
0.0
  9
$EXTMAX
 10
2532.347705074045
 20
2404.13494287707
 30
0.0
  9
$LIMMIN
 10
0.0
 20
0.0
  9
$LIMMAX
 10
420.0
 20
297.0
  9
$ORTHOMODE
 70
     0
  9
$REGENMODE
 70
     1
  9
$FILLMODE
 70
     1
  9
$QTEXTMODE
 70
     0
  9
$MIRRTEXT
 70
     1
  9
$LTSCALE
 40
1.0
  9
$ATTMODE
 70
     1
  9
$TEXTSIZE
 40
2.5
  9
$TRACEWID
 40
1.0
  9
$TEXTSTYLE
  7
STANDARD
  9
$CLAYER
  8
0
  9
$CELTYPE
  6
ByLayer
  9
$CECOLOR
 62
   256
  9
$CELTSCALE
 40
1.0
  9
$DISPSILH
 70
     0
  9
$DIMSCALE
 40
1.0
  9
$DIMASZ
 40
2.5
  9
$DIMEXO
 40
1.0
  9
$DIMDLI
 40
10.0
  9
$DIMRND
 40
0.0
  9
$DIMDLE
 40
0.0
  9
$DIMEXE
 40
1.0
  9
$DIMTP
 40
0.1
  9
$DIMTM
 40
0.1
  9
$DIMTXT
 40
3.5
  9
$DIMCEN
 40
0.0
  9
$DIMTSZ
 40
0.0
  9
$DIMTOL
 70
     0
  9
$DIMLIM
 70
     0
  9
$DIMTIH
 70
     0
  9
$DIMTOH
 70
     0
  9
$DIMSE1
 70
     0
  9
$DIMSE2
 70
     0
  9
$DIMTAD
 70
     1
  9
$DIMZIN
 70
     8
  9
$DIMBLK
  1

  9
$DIMASO
 70
     1
  9
$DIMSHO
 70
     1
  9
$DIMPOST
  1

  9
$DIMAPOST
  1
"
  9
$DIMALT
 70
     0
  9
$DIMALTD
 70
     2
  9
$DIMALTF
 40
0.0393701
  9
$DIMLFAC
 40
1.0
  9
$DIMTOFL
 70
     1
  9
$DIMTVP
 40
0.0
  9
$DIMTIX
 70
     0
  9
$DIMSOXD
 70
     0
  9
$DIMSAH
 70
     0
  9
$DIMBLK1
  1

  9
$DIMBLK2
  1

  9
$DIMSTYLE
  2
AM_DIN
  9
$DIMCLRD
 70
   256
  9
$DIMCLRE
 70
   256
  9
$DIMCLRT
 70
     2
  9
$DIMTFAC
 40
0.71
  9
$DIMGAP
 40
1.5
  9
$DIMJUST
 70
     0
  9
$DIMSD1
 70
     0
  9
$DIMSD2
 70
     0
  9
$DIMTOLJ
 70
     0
  9
$DIMTZIN
 70
     8
  9
$DIMALTZ
 70
     0
  9
$DIMALTTZ
 70
     0
  9
$DIMUPT
 70
     0
  9
$DIMDEC
 70
     2
  9
$DIMTDEC
 70
     3
  9
$DIMALTU
 70
     2
  9
$DIMALTTD
 70
     4
  9
$DIMTXSTY
  7
STANDARD
  9
$DIMAUNIT
 70
     0
  9
$DIMADEC
 70
     0
  9
$DIMALTRND
 40
0.0
  9
$DIMAZIN
 70
     2
  9
$DIMDSEP
 70
    46
  9
$DIMATFIT
 70
     3
  9
$DIMFRAC
 70
     0
  9
$DIMLDRBLK
  1

  9
$DIMLUNIT
 70
     2
  9
$DIMLWD
 70
    -1
  9
$DIMLWE
 70
    -1
  9
$DIMTMOVE
 70
     0
  9
$LUNITS
 70
     2
  9
$LUPREC
 70
     2
  9
$SKETCHINC
 40
1.0
  9
$FILLETRAD
 40
2.5
  9
$AUNITS
 70
     0
  9
$AUPREC
 70
     0
  9
$MENU
  1
.
  9
$ELEVATION
 40
0.0
  9
$PELEVATION
 40
0.0
  9
$THICKNESS
 40
0.0
  9
$LIMCHECK
 70
     0
  9
$CHAMFERA
 40
2.5
  9
$CHAMFERB
 40
2.5
  9
$CHAMFERC
 40
20.0
  9
$CHAMFERD
 40
0.0
  9
$SKPOLY
 70
     0
  9
$TDCREATE
 40
2454055.601813507
  9
$TDUCREATE
 40
2454055.560146840
  9
$TDUPDATE
 40
2454055.602045891
  9
$TDUUPDATE
 40
2454055.560379225
  9
$TDINDWG
 40
0.0002327431
  9
$TDUSRTIMER
 40
0.0002327431
  9
$USRTIMER
 70
     1
  9
$ANGBASE
 50
0.0
  9
$ANGDIR
 70
     0
  9
$PDMODE
 70
     0
  9
$PDSIZE
 40
0.0
  9
$PLINEWID
 40
0.0
  9
$SPLFRAME
 70
     0
  9
$SPLINETYPE
 70
     6
  9
$SPLINESEGS
 70
     8
  9
$HANDSEED
  5
CA1
  9
$SURFTAB1
 70
     6
  9
$SURFTAB2
 70
     6
  9
$SURFTYPE
 70
     6
  9
$SURFU
 70
     6
  9
$SURFV
 70
     6
  9
$UCSBASE
  2

  9
$UCSNAME
  2

  9
$UCSORG
 10
0.0
 20
0.0
 30
0.0
  9
$UCSXDIR
 10
1.0
 20
0.0
 30
0.0
  9
$UCSYDIR
 10
0.0
 20
1.0
 30
0.0
  9
$UCSORTHOREF
  2

  9
$UCSORTHOVIEW
 70
     0
  9
$UCSORGTOP
 10
0.0
 20
0.0
 30
0.0
  9
$UCSORGBOTTOM
 10
0.0
 20
0.0
 30
0.0
  9
$UCSORGLEFT
 10
0.0
 20
0.0
 30
0.0
  9
$UCSORGRIGHT
 10
0.0
 20
0.0
 30
0.0
  9
$UCSORGFRONT
 10
0.0
 20
0.0
 30
0.0
  9
$UCSORGBACK
 10
0.0
 20
0.0
 30
0.0
  9
$PUCSBASE
  2

  9
$PUCSNAME
  2

  9
$PUCSORG
 10
0.0
 20
0.0
 30
0.0
  9
$PUCSXDIR
 10
1.0
 20
0.0
 30
0.0
  9
$PUCSYDIR
 10
0.0
 20
1.0
 30
0.0
  9
$PUCSORTHOREF
  2

  9
$PUCSORTHOVIEW
 70
     0
  9
$PUCSORGTOP
 10
0.0
 20
0.0
 30
0.0
  9
$PUCSORGBOTTOM
 10
0.0
 20
0.0
 30
0.0
  9
$PUCSORGLEFT
 10
0.0
 20
0.0
 30
0.0
  9
$PUCSORGRIGHT
 10
0.0
 20
0.0
 30
0.0
  9
$PUCSORGFRONT
 10
0.0
 20
0.0
 30
0.0
  9
$PUCSORGBACK
 10
0.0
 20
0.0
 30
0.0
  9
$USERI1
 70
     0
  9
$USERI2
 70
     0
  9
$USERI3
 70
     0
  9
$USERI4
 70
     0
  9
$USERI5
 70
     0
  9
$USERR1
 40
0.0
  9
$USERR2
 40
0.0
  9
$USERR3
 40
0.0
  9
$USERR4
 40
0.0
  9
$USERR5
 40
0.0
  9
$WORLDVIEW
 70
     1
  9
$SHADEDGE
 70
     3
  9
$SHADEDIF
 70
    70
  9
$TILEMODE
 70
     1
  9
$MAXACTVP
 70
    64
  9
$PINSBASE
 10
0.0
 20
0.0
 30
0.0
  9
$PLIMCHECK
 70
     0
  9
$PEXTMIN
 10
1.000000000000000E+20
 20
1.000000000000000E+20
 30
1.000000000000000E+20
  9
$PEXTMAX
 10
-1.000000000000000E+20
 20
-1.000000000000000E+20
 30
-1.000000000000000E+20
  9
$PLIMMIN
 10
0.0
 20
0.0
  9
$PLIMMAX
 10
420.0
 20
297.0
  9
$UNITMODE
 70
     0
  9
$VISRETAIN
 70
     1
  9
$PLINEGEN
 70
     0
  9
$PSLTSCALE
 70
     1
  9
$TREEDEPTH
 70
  3020
  9
$CMLSTYLE
  2
Standard
  9
$CMLJUST
 70
     0
  9
$CMLSCALE
 40
20.0
  9
$PROXYGRAPHICS
 70
     1
  9
$MEASUREMENT
 70
     1
  9
$CELWEIGHT
370
    -1
  9
$ENDCAPS
280
     0
  9
$JOINSTYLE
280
     0
  9
$LWDISPLAY
290
     0
  9
$INSUNITS
 70
     4
  9
$HYPERLINKBASE
  1

  9
$STYLESHEET
  1

  9
$XEDIT
290
     1
  9
$CEPSNTYPE
380
     0
  9
$PSTYLEMODE
290
     1
  9
$FINGERPRINTGUID
  2
{7B761951-2D3C-4BE1-94D7-979F4444BD97}
  9
$VERSIONGUID
  2
{BE240770-109B-4C37-95AC-25A922551510}
  9
$EXTNAMES
290
     1
  9
$PSVPSCALE
 40
0.0
  9
$OLESTARTUP
290
     0
  0
ENDSEC
  0
SECTION
  2
CLASSES
  0
CLASS
  1
ACDBDICTIONARYWDFLT
  2
AcDbDictionaryWithDefault
  3
ObjectDBX Classes
 90
        0
280
     0
281
     0
  0
CLASS
  1
ACDBPLACEHOLDER
  2
AcDbPlaceHolder
  3
ObjectDBX Classes
 90
        0
280
     0
281
     0
  0
CLASS
  1
LAYOUT
  2
AcDbLayout
  3
ObjectDBX Classes
 90
        0
280
     0
281
     0
  0
CLASS
  1
AMGSETTINGSOBJ
  2
AmgSettingsObj
  3
"AcadM|Product Description: AutoCAD Mechanical 2000|Company: Autodesk"
 90
        0
280
     0
281
     0
  0
CLASS
  1
ACME_DOCUMENT
  2
AcMeDbDoc
  3
AcMeServices
 90
        0
280
     0
281
     0
  0
CLASS
  1
ACMESCOPE
  2
AcMeScope
  3
AcMeServices
 90
        0
280
     0
281
     0
  0
CLASS
  1
ACMECOMMANDHISTORY
  2
AcMeCommandHistory
  3
AcMeServices
 90
        0
280
     0
281
     0
  0
CLASS
  1
DICTIONARYVAR
  2
AcDbDictionaryVar
  3
ObjectDBX Classes
 90
        0
280
     0
281
     0
  0
CLASS
  1
ACIMSYSVARMAN
  2
AcImSysVarManager
  3
AcMeServices
 90
        0
280
     0
281
     0
  0
CLASS
  1
ACIMREALSYSVAR
  2
AcImRealSysVar
  3
AcMeServices
 90
        0
280
     0
281
     0
  0
CLASS
  1
ACIMINTSYSVAR
  2
AcImIntSysVar
  3
AcMeServices
 90
        0
280
     0
281
     0
  0
CLASS
  1
ACMEDRAWINGMAN
  2
AcMeDrawingMan
  3
AcMeServices
 90
        0
280
     0
281
     0
  0
CLASS
  1
ACMEVIEW
  2
AcMeView
  3
AcMeServices
 90
        0
280
     0
281
     0
  0
CLASS
  1
ACDBENTITYCACHE
  2
AcMeEntityCache
  3
AcMeServices
 90
        0
280
     0
281
     0
  0
CLASS
  1
GSMANAGER
  2
AcMeGSManager
  3
AcMeServices
 90
        0
280
     0
281
     0
  0
CLASS
  1
AMDTINTERNALREACTOR
  2
AmdtInternalReactor
  3
AcMeServices
 90
        0
280
     0
281
     0
  0
CLASS
  1
ACMESTATEMGR
  2
AcMeStateMgr
  3
AcMeServices
 90
        0
280
     0
281
     0
  0
CLASS
  1
ACGREFMASTER
  2
AcGrefMaster
  3
AcAttribServices
 90
        0
280
     0
281
     0
  0
CLASS
  1
ACME_DATABASE
  2
AcMeDbDatabase
  3
AcMeServices
 90
        0
280
     0
281
     0
  0
CLASS
  1
ACRFINSADJUSTERMGR
  2
AcRfInsAdjusterMgr
  3
AcMeServices
 90
        0
280
     0
281
     0
  0
CLASS
  1
ACGREFACADMASTER
  2
AcGrefacadMaster
  3
AcGrefServices
 90
        0
280
     0
281
     0
  0
CLASS
  1
AMIMASTER
  2
AmiMaster
  3
AmiServices
 90
        0
280
     0
281
     0
  0
CLASS
  1
ACIMSTRSYSVAR
  2
AcImStrSysVar
  3
AcMeServices
 90
        0
280
     0
281
     0
  0
CLASS
  1
ACMSTANDARDDIN
  2
AcmStandardDIN
  3
"Amdt_StdImp|Product Description: AutoCAD Mechanical 2004 DX|Company: Autodesk"
 90
        0
280
     0
281
     0
  0
CLASS
  1
AMGOBJPROPCFG
  2
AmgObjPropCfg
  3
"AmgLay|Product Description: AutoCAD Mechanical 2000|Company: Autodesk"
 90
        1
280
     0
281
     0
  0
CLASS
  1
AMDTEDGESTANDARDDIN
  2
AmdtEdgeStdDIN
  3
"Amdt_StdImp|Product Description: AutoCAD Mechanical 2004 DX|Company: Autodesk"
 90
        0
280
     0
281
     0
  0
CLASS
  1
ACMSURFSTANDARDDIN
  2
AcmSurfTextStdDIN
  3
"Amdt_StdImp|Product Description: AutoCAD Mechanical 2004 DX|Company: Autodesk"
 90
        0
280
     0
281
     0
  0
CLASS
  1
ACMFCFSTANDARDDIN
  2
AcmFCFStdDIN
  3
"Amdt_StdImp|Product Description: AutoCAD Mechanical 2004 DX|Company: Autodesk"
 90
        0
280
     0
281
     0
  0
CLASS
  1
ACMWELDSTANDARDDIN
  2
AcmWeldingStdDIN
  3
"Amdt_StdImp|Product Description: AutoCAD Mechanical 2004 DX|Company: Autodesk"
 90
        0
280
     0
281
     0
  0
CLASS
  1
ACMIDSTANDARDDIN
  2
AcmIdStdDIN
  3
"Amdt_StdImp|Product Description: AutoCAD Mechanical 2004 DX|Company: Autodesk"
 90
        0
280
     0
281
     0
  0
CLASS
  1
ACMDATUMSTANDARDDIN
  2
AcmDatumStdDIN
  3
"Amdt_StdImp|Product Description: AutoCAD Mechanical 2004 DX|Company: Autodesk"
 90
        0
280
     0
281
     0
  0
CLASS
  1
ACMBOMSTANDARDDIN
  2
AcmBOMStdDIN
  3
"Amdt_StdImp|Product Description: AutoCAD Mechanical 2004 DX|Company: Autodesk"
 90
        0
280
     0
281
     0
  0
CLASS
  1
ACMDETAILSTANDARDDIN
  2
AmdtDetailSymStdDIN
  3
"Amdt_StdImp|Product Description: AutoCAD Mechanical 2004 DX|Company: Autodesk"
 90
        0
280
     0
281
     0
  0
CLASS
  1
ACMSECTIONSTANDARDDIN
  2
AmdtSectionSymStdDIN
  3
"Amdt_StdImp|Product Description: AutoCAD Mechanical 2004 DX|Company: Autodesk"
 90
        0
280
     0
281
     0
  0
CLASS
  1
ACMCENTERLINESTANDARDDIN
  2
AmdtCenterLineStdDIN
  3
"Amdt_StdImp|Product Description: AutoCAD Mechanical 2004 DX|Company: Autodesk"
 90
        0
280
     0
281
     0
  0
CLASS
  1
ACMTHREADLINESTANDARDDIN
  2
AmdtThreadLineStdDIN
  3
"Amdt_StdImp|Product Description: AutoCAD Mechanical 2004 DX|Company: Autodesk"
 90
        0
280
     0
281
     0
  0
CLASS
  1
ACAMGLAYSTD
  2
AcAmgLayStd
  3
"AcAmgLayStd|Product Description: AutoCAD Mechanical 2000|Company: Autodesk"
 90
        0
280
     0
281
     0
  0
CLASS
  1
ACAMGDIMSTD
  2
AcAmgDimStd
  3
"AcAmgDimStd|Product Description: AutoCAD Mechanical 2000|Company: Autodesk"
 90
        0
280
     0
281
     0
  0
CLASS
  1
ACAMGTITLESTD
  2
AcAmgTitleStd
  3
"TITLEAPP"
 90
        0
280
     0
281
     0
  0
CLASS
  1
ACMDATADICTIONARY
  2
AcmDataDictionary
  3
"AcmSymBB|Product Description: AutoCAD Mechanical 2004 DX|Company: Autodesk"
 90
        0
280
     0
281
     0
  0
CLASS
  1
ACMDATAENTRYBLOCK
  2
AcmDataEntryBlock
  3
"AcmSymBB|Product Description: AutoCAD Mechanical 2004 DX|Company: Autodesk"
 90
        0
280
     0
281
     0
  0
CLASS
  1
LAYER_INDEX
  2
AcDbLayerIndex
  3
ObjectDBX Classes
 90
    32768
280
     0
281
     0
  0
CLASS
  1
IDBUFFER
  2
AcDbIdBuffer
  3
ObjectDBX Classes
 90
    32768
280
     0
281
     0
  0
CLASS
  1
ACMNOTESTANDARDDIN
  2
AmdtNoteStdDIN
  3
"Amdt_StdImp|Product Description: AutoCAD Mechanical 2004 DX|Company: Autodesk"
 90
        0
280
     0
281
     0
  0
CLASS
  1
ACAMGHOLECHARTSTDDIN
  2
AcAmgHoleChartStdDIN
  3
ACMSYMBB_MODULE_NAME
 90
        0
280
     0
281
     0
  0
CLASS
  1
AM_DRAWING_MGR
  2
AcDmDwgMgr
  3
AcMechDwgViewMgmt
 90
        0
280
     0
281
     0
  0
CLASS
  1
AM_DWG_DOCUMENT
  2
AcDmDwgDocument
  3
AcMechDwgViewMgmt
 90
        0
280
     0
281
     0
  0
CLASS
  1
AM_DWG_SHEET
  2
AcDmSheet
  3
AcMechDwgViewMgmt
 90
        0
280
     0
281
     0
  0
CLASS
  1
AM_VIEWDIMPARMAP
  2
AcDmViewDimParMap
  3
AcMechDwgViewMgmt
 90
        0
280
     0
281
     0
  0
CLASS
  1
AM_DWGMGR_NAME
  2
AcDmDwgMgrName
  3
AcMechDwgViewMgmt
 90
        0
280
     0
281
     0
  0
CLASS
  1
AMDTMENUSTATEMGR
  2
AmdtMenuStateMgr
  3
McadcomServices
 90
        0
280
     0
281
     0
  0
CLASS
  1
AMDTMCOMMENUSTATE
  2
AmdtMcomMenuState
  3
McadcomServices
 90
        0
280
     0
281
     0
  0
CLASS
  1
MAPIAMMOUDLE
  2
MApiAmModule
  3
MApiAmServices
 90
        0
280
     0
281
     0
  0
CLASS
  1
AMDTADMENUSTATE
  2
AmdtAdMenuState
  3
DesignerServices
 90
        0
280
     0
281
     0
  0
CLASS
  1
ADAPPL
  2
AcAdAppl
  3
DesignerServices
 90
        0
280
     0
281
     0
  0
CLASS
  1
DEPMGR
  2
AcAdDepMgr
  3
DesignerServices
 90
        0
280
     0
281
     0
  0
CLASS
  1
PARAMMGR
  2
AcAdParamMgr
  3
DesignerServices
 90
        0
280
     0
281
     0
  0
CLASS
  1
PARAMSCOPE
  2
AcAdParamScope
  3
DesignerServices
 90
        0
280
     0
281
     0
  0
CLASS
  1
NAMEDAPPL
  2
AcAdNamedAppl
  3
DesignerServices
 90
        0
280
     0
281
     0
  0
CLASS
  1
AMDTDMMENUSTATE
  2
AmdtDmMenuState
  3
AcMechDwgViewMgmt
 90
        0
280
     0
281
     0
  0
CLASS
  1
AMDTAMMENUSTATE
  2
AmdtAmMenuState
  3
DesignerAssemblies
 90
        0
280
     0
281
     0
  0
CLASS
  1
ACAMPROJECT
  2
AcAmProject
  3
DesignerAssemblies
 90
        0
280
     0
281
     0
  0
CLASS
  1
ACAMGRCOMPDEF
  2
AcAmGrCompDef
  3
DesignerAssemblies
 90
        0
280
     0
281
     0
  0
CLASS
  1
ACCMCONTEXT
  2
AcCmContext
  3
DesignerAssemblies
 90
        0
280
     0
281
     0
  0
CLASS
  1
ACAMCOMPDEF
  2
AcAmCompDef
  3
DesignerAssemblies
 90
        0
280
     0
281
     0
  0
CLASS
  1
ACAMCOMPDEFMGR
  2
AcAmCompDefMgr
  3
DesignerAssemblies
 90
        0
280
     0
281
     0
  0
CLASS
  1
AMCONTEXTMGR
  2
AcAmContextMgr
  3
DesignerAssemblies
 90
        0
280
     0
281
     0
  0
CLASS
  1
ACAMCONTEXTMODELER
  2
AcAmContextModeler
  3
DesignerAssemblies
 90
        0
280
     0
281
     0
  0
CLASS
  1
CATALOGSTATE
  2
AcAmCatalogState
  3
DesignerAssemblies
 90
        0
280
     0
281
     0
  0
CLASS
  1
ACAMGRCOMPDEFSET
  2
AcAmGrCompDefSet
  3
DesignerAssemblies
 90
        0
280
     0
281
     0
  0
CLASS
  1
AMDTBROWSERDBTAB
  2
AmdtBrowserDbTab
  3
McadcomServices
 90
        0
280
     0
281
     0
  0
CLASS
  1
CBROWSERAPPOBJECT
  2
CBrowserAppObject
  3
McadcomServices
 90
        0
280
     0
281
     0
  0
CLASS
  1
DM_PLACEHOLDER
  2
AcDmSelsetPlaceholder
  3
AcMechDwgViewMgmt
 90
        0
280
     0
281
     0
  0
CLASS
  1
TABLESTYLE
  2
AcDbTableStyle
  3
ObjectDBX Classes
 90
     2047
280
     0
281
     0
  0
CLASS
  1
VAACXREFPANELOBJECT
  2
VaAcXREFPanelObject
  3
VAAC_ADDIN
 90
    32768
280
     0
281
     0
  0
CLASS
  1
VAACIMAGEINVENTORY
  2
VaAcImageInventory
  3
VAAC_ADDIN
 90
    32768
280
     0
281
     0
  0
CLASS
  1
AMDTNOTETEMPLATEDB
  2
AmdtNoteTemplateDB
  3
AMDT_STDIMP_MODULE_NAME
 90
        0
280
     0
281
     0
  0
CLASS
  1
ACAMGFILTERDAT
  2
AcAmgFilterDat
  3
"AcadM|Product Description: AutoCAD Mechanical 2000|Company: Autodesk"
 90
        0
280
     0
281
     0
  0
CLASS
  1
ACMBOM
  2
AcmBom
  3
"AcmSymBB|Product Description: AutoCAD Mechanical 2004 DX|Company: Autodesk"
 90
    32768
280
     0
281
     0
  0
CLASS
  1
AMDTFORMULAUPDATEDISPATCHER
  2
AmdtFormulaUpdateDispatcher
  3
AcMeServices
 90
    32768
280
     0
281
     0
  0
CLASS
  1
SORTENTSTABLE
  2
AcDbSortentsTable
  3
ObjectDBX Classes
 90
        0
280
     0
281
     0
  0
CLASS
  1
ACRFATTGENMGR
  2
AcRfAttGeneralMgr
  3
AcAttribServices
 90
        0
280
     0
281
     0
  0
ENDSEC
  0
SECTION
  2
TABLES
  0
TABLE
  2
VPORT
  5
8
330
0
100
AcDbSymbolTable
 70
     3
  0
VPORT
  5
C98
330
8
100
AcDbSymbolTableRecord
100
AcDbViewportTableRecord
  2
*Active
 70
     0
 10
0.0
 20
0.0
 11
1.0
 21
1.0
 12
1971.216552469286
 22
1510.474298342068
 13
0.0
 23
0.0
 14
2.5
 24
2.5
 15
10.0
 25
10.0
 16
0.0
 26
0.0
 36
1.0
 17
0.0
 27
0.0
 37
0.0
 40
1799.397784266422
 41
1.378804960541149
 42
50.0
 43
0.0
 44
0.0
 50
0.0
 51
0.0
 71
     0
 72
   100
 73
     1
 74
     3
 75
     0
 76
     0
 77
     0
 78
     0
281
     0
 65
     1
110
0.0
120
0.0
130
0.0
111
1.0
121
0.0
131
0.0
112
0.0
122
1.0
132
0.0
 79
     0
146
0.0
  0
ENDTAB
  0
TABLE
  2
LTYPE
  5
5
330
0
100
AcDbSymbolTable
 70
    23
  0
LTYPE
  5
14
330
5
100
AcDbSymbolTableRecord
100
AcDbLinetypeTableRecord
  2
ByBlock
 70
     0
  3

 72
    65
 73
     0
 40
0.0
  0
LTYPE
  5
15
330
5
100
AcDbSymbolTableRecord
100
AcDbLinetypeTableRecord
  2
ByLayer
 70
     0
  3

 72
    65
 73
     0
 40
0.0
  0
LTYPE
  5
16
330
5
100
AcDbSymbolTableRecord
100
AcDbLinetypeTableRecord
  2
Continuous
 70
     0
  3
Solid line
 72
    65
 73
     0
 40
0.0
  0
LTYPE
  5
50
330
5
100
AcDbSymbolTableRecord
100
AcDbLinetypeTableRecord
  2
Amconstr
 70
     0
  3
_______________________
 72
    65
 73
     2
 40
9999.0
 49
9999.0
 74
     0
 49
0.0
 74
     0
  0
LTYPE
  5
55
330
5
100
AcDbSymbolTableRecord
100
AcDbLinetypeTableRecord
  2
Amzigzag
 70
     0
  3
/\/-/\/-/\/-/\/-/\/-/\/
 72
    65
 73
     2
 40
11.0001
 49
0.0001
 74
     4
 75
   136
340
285
 46
0.04
 50
0.0
 44
0.0
 45
0.0
 49
-11.0
 74
     0
  0
LTYPE
  5
56
330
5
100
AcDbSymbolTableRecord
100
AcDbLinetypeTableRecord
  2
AM_DIN_F_W050
 70
     0
  3
__ __ __ __ __ __ __ __ __ __ __ __ __ __ __
 72
    65
 73
     2
 40
6.25
 49
4.75
 74
     0
 49
-1.5
 74
     0
  0
LTYPE
  5
57
330
5
100
AcDbSymbolTableRecord
100
AcDbLinetypeTableRecord
  2
AM_DIN_G_W050
 70
     0
  3
____ . ____ . ____ . ____ . ____ . ____ . ____
 72
    65
 73
     4
 40
13.75
 49
9.75
 74
     0
 49
-1.5
 74
     0
 49
1.0
 74
     0
 49
-1.5
 74
     0
  0
LTYPE
  5
58
330
5
100
AcDbSymbolTableRecord
100
AcDbLinetypeTableRecord
  2
AM_DIN_K_W050
 70
     0
  3
_____ . . _____ . . _____ . . ____ .. ____
 72
    65
 73
     6
 40
16.25
 49
9.75
 74
     0
 49
-1.5
 74
     0
 49
1.0
 74
     0
 49
-1.5
 74
     0
 49
1.0
 74
     0
 49
-1.5
 74
     0
  0
LTYPE
  5
59
330
5
100
AcDbSymbolTableRecord
100
AcDbLinetypeTableRecord
  2
AM_DIN_G_W050x2
 70
     0
  3
__ . __ . __ . __ . __ . __
 72
    65
 73
     4
 40
6.875
 49
4.75
 74
     0
 49
-0.875
 74
     0
 49
0.375
 74
     0
 49
-0.875
 74
     0
  0
LTYPE
  5
5A
330
5
100
AcDbSymbolTableRecord
100
AcDbLinetypeTableRecord
  2
AM_DIN_F_W050x2
 70
     0
  3
 _ _ _ _ _ _ _ _ _ _ _ _
 72
    65
 73
     2
 40
3.125
 49
2.25
 74
     0
 49
-0.875
 74
     0
  0
LTYPE
  5
68
330
5
100
AcDbSymbolTableRecord
100
AcDbLinetypeTableRecord
  2
ACDINWELD
 70
     0
  3
_ _ _ _ _
 72
    65
 73
     2
 40
2.0
 49
2.0
 74
     0
 49
-1.0
 74
     0
  0
LTYPE
  5
69
330
5
100
AcDbSymbolTableRecord
100
AcDbLinetypeTableRecord
  2
ACDINTGB
 70
     0
  3
__ . . __ . .
 72
    65
 73
     6
 40
9.0
 49
4.0
 74
     0
 49
-1.0
 74
     0
 49
1.0
 74
     0
 49
-1.0
 74
     0
 49
1.0
 74
     0
 49
-1.0
 74
     0
  0
LTYPE
  5
6A
330
5
100
AcDbSymbolTableRecord
100
AcDbLinetypeTableRecord
  2
ACDINTGL
 70
     0
  3
_ _ _ _ _
 72
    65
 73
     2
 40
3.0
 49
2.0
 74
     0
 49
-1.0
 74
     0
  0
LTYPE
  5
6C
330
5
100
AcDbSymbolTableRecord
100
AcDbLinetypeTableRecord
  2
CENTER
 70
     0
  3
__ . __
 72
    65
 73
     4
 40
7.0
 49
4.0
 74
     0
 49
-1.0
 74
     0
 49
1.0
 74
     0
 49
-1.0
 74
     0
  0
LTYPE
  5
F2
330
5
100
AcDbSymbolTableRecord
100
AcDbLinetypeTableRecord
  2
HIDDEN
 70
     0
  3
Hidden __ __ __ __ __ __ __ __ __ __ __ __ __ _
 72
    65
 73
     2
 40
9.524999999999998
 49
6.349999999999999
 74
     0
 49
-3.174999999999999
 74
     0
  0
LTYPE
  5
F3
330
5
100
AcDbSymbolTableRecord
100
AcDbLinetypeTableRecord
  2
PHANTOM2
 70
     0
  3
Phantom (.5x) ___ _ _ ___ _ _ ___ _ _ ___ _ _
 72
    65
 73
     6
 40
31.75
 49
15.875
 74
     0
 49
-3.174999999999999
 74
     0
 49
3.174999999999999
 74
     0
 49
-3.174999999999999
 74
     0
 49
3.174999999999999
 74
     0
 49
-3.174999999999999
 74
     0
  0
LTYPE
  5
30F
330
5
100
AcDbSymbolTableRecord
100
AcDbLinetypeTableRecord
  2
MITTE
 70
     0
  3
Mitte ____ _ ____ _ ____ _ ____
 72
    65
 73
     4
 40
50.8
 49
31.75
 74
     0
 49
-6.349999999999999
 74
     0
 49
6.349999999999999
 74
     0
 49
-6.349999999999999
 74
     0
  0
LTYPE
  5
310
330
5
100
AcDbSymbolTableRecord
100
AcDbLinetypeTableRecord
  2
AUSGEZOGEN
 70
     0
  3
_______________________________________________
 72
    65
 73
     0
 40
0.0
  0
LTYPE
  5
311
330
5
100
AcDbSymbolTableRecord
100
AcDbLinetypeTableRecord
  2
PUNKT
 70
     0
  3
...............................................
 72
    65
 73
     2
 40
0.25
 49
0.0
 74
     0
 49
-0.25
 74
     0
  0
LTYPE
  5
312
330
5
100
AcDbSymbolTableRecord
100
AcDbLinetypeTableRecord
  2
GESTRICHELT
 70
     0
  3
__ __ __ __ __ __ __ __ __ __ __ __ __ __ __
 72
    65
 73
     2
 40
0.75
 49
0.5
 74
     0
 49
-0.25
 74
     0
  0
ENDTAB
  0
TABLE
  2
LAYER
  5
2
102
{ACAD_XDICTIONARY
360
C0
102
}
330
0
100
AcDbSymbolTable
 70
    15
  0
LAYER
  5
10
330
2
100
AcDbSymbolTableRecord
100
AcDbLayerTableRecord
  2
0
 70
     0
 62
     7
  6
Continuous
370
    -3
390
F
  0
LAYER
  5
314
330
2
100
AcDbSymbolTableRecord
100
AcDbLayerTableRecord
  2
BILD
 70
     0
 62
     1
  6
PUNKT
370
    -3
390
F
  0
LAYER
  5
315
330
2
100
AcDbSymbolTableRecord
100
AcDbLayerTableRecord
  2
SCHRAFF
 70
     0
 62
     7
  6
AUSGEZOGEN
370
    -3
390
F
  0
LAYER
  5
316
330
2
100
AcDbSymbolTableRecord
100
AcDbLayerTableRecord
  2
TEXT
 70
     0
 62
     7
  6
AUSGEZOGEN
370
    -3
390
F
  0
LAYER
  5
317
330
2
100
AcDbSymbolTableRecord
100
AcDbLayerTableRecord
  2
KONTUR
 70
     0
 62
     7
  6
AUSGEZOGEN
370
    -3
390
F
  0
LAYER
  5
318
330
2
100
AcDbSymbolTableRecord
100
AcDbLayerTableRecord
  2
Z
 70
     0
 62
     7
  6
AUSGEZOGEN
370
    -3
390
F
  0
LAYER
  5
319
330
2
100
AcDbSymbolTableRecord
100
AcDbLayerTableRecord
  2
GEHAEUSE
 70
     0
 62
     7
  6
MITTE
370
    -3
390
F
  0
LAYER
  5
31A
330
2
100
AcDbSymbolTableRecord
100
AcDbLayerTableRecord
  2
MASSE
 70
     0
 62
     1
  6
AUSGEZOGEN
370
    -3
390
F
  0
LAYER
  5
31B
330
2
100
AcDbSymbolTableRecord
100
AcDbLayerTableRecord
  2
MITTE
 70
     0
 62
     1
  6
AUSGEZOGEN
370
    -3
390
F
  0
LAYER
  5
31C
330
2
100
AcDbSymbolTableRecord
100
AcDbLayerTableRecord
  2
LOGO2
 70
     0
 62
     7
  6
AUSGEZOGEN
370
    -3
390
F
  0
LAYER
  5
31D
330
2
100
AcDbSymbolTableRecord
100
AcDbLayerTableRecord
  2
PUMPE
 70
     0
 62
     1
  6
MITTE
370
    -3
390
F
  0
LAYER
  5
31E
330
2
100
AcDbSymbolTableRecord
100
AcDbLayerTableRecord
  2
DIN84
 70
     0
 62
     7
  6
AUSGEZOGEN
370
    -3
390
F
  0
LAYER
  5
31F
330
2
100
AcDbSymbolTableRecord
100
AcDbLayerTableRecord
  2
ANSCHLUS
 70
     0
 62
     2
  6
GESTRICHELT
370
    -3
390
F
  0
ENDTAB
  0
TABLE
  2
STYLE
  5
3
330
0
100
AcDbSymbolTable
 70
    10
  0
STYLE
  5
11
330
3
100
AcDbSymbolTableRecord
100
AcDbTextStyleTableRecord
  2
STANDARD
 70
     0
 40
0.0
 41
1.0
 50
0.0
 71
     0
 42
2.5
  3
ISOCP.SHX
  4
bigfont.shx
  0
STYLE
  5
5B
330
3
100
AcDbSymbolTableRecord
100
AcDbTextStyleTableRecord
  2
ACDINTS
 70
     0
 40
1.0
 41
1.0
 50
0.0
 71
     0
 42
2.5
  3
isocp.shx
  4
bigfont.shx
  0
STYLE
  5
67
330
3
100
AcDbSymbolTableRecord
100
AcDbTextStyleTableRecord
  2
ACDINGDT
 70
     0
 40
0.0
 41
1.0
 50
0.0
 71
     0
 42
2.5
  3
AMGDT
  4
bigfont.shx
  0
STYLE
  5
285
330
3
100
AcDbSymbolTableRecord
100
AcDbTextStyleTableRecord
  2

 70
     1
 40
0.0
 41
1.0
 50
0.0
 71
     0
 42
2.5
  3
genltshp.shx
  4

  0
STYLE
  5
320
330
3
100
AcDbSymbolTableRecord
100
AcDbTextStyleTableRecord
  2
SIMPLEX
 70
     0
 40
0.0
 41
1.0
 50
0.0
 71
     0
 42
3.5
  3
simplex
  4

  0
STYLE
  5
321
330
3
100
AcDbSymbolTableRecord
100
AcDbTextStyleTableRecord
  2
COMPLEX
 70
     0
 40
0.0
 41
1.0
 50
0.0
 71
     0
 42
3.5
  3
complex
  4

  0
ENDTAB
  0
TABLE
  2
VIEW
  5
6
330
0
100
AcDbSymbolTable
 70
     0
  0
ENDTAB
  0
TABLE
  2
UCS
  5
7
330
0
100
AcDbSymbolTable
 70
     0
  0
ENDTAB
  0
TABLE
  2
APPID
  5
9
330
0
100
AcDbSymbolTable
 70
    12
  0
APPID
  5
12
330
9
100
AcDbSymbolTableRecord
100
AcDbRegAppTableRecord
  2
ACAD
 70
     0
  0
APPID
  5
30
330
9
100
AcDbSymbolTableRecord
100
AcDbRegAppTableRecord
  2
MCAD_NO_VIS
 70
     0
  0
APPID
  5
31
330
9
100
AcDbSymbolTableRecord
100
AcDbRegAppTableRecord
  2
ACAD_TEMP_GRAPHIC
 70
     0
  0
APPID
  5
44
330
9
100
AcDbSymbolTableRecord
100
AcDbRegAppTableRecord
  2
ACATTRIBSERVICES
 70
     0
  0
APPID
  5
108
330
9
100
AcDbSymbolTableRecord
100
AcDbRegAppTableRecord
  2
AD_DRAW
 70
     0
  0
APPID
  5
126
330
9
100
AcDbSymbolTableRecord
100
AcDbRegAppTableRecord
  2
DESIGNERASSEMBLIES
 70
     0
  0
APPID
  5
12A
330
9
100
AcDbSymbolTableRecord
100
AcDbRegAppTableRecord
  2
ACADM_DIM_EDIT
 70
     0
  0
APPID
  5
12B
330
9
100
AcDbSymbolTableRecord
100
AcDbRegAppTableRecord
  2
AMDT_DM_ADJ
 70
     0
  0
APPID
  5
1A4
330
9
100
AcDbSymbolTableRecord
100
AcDbRegAppTableRecord
  2
ACAD_DSTYLE_DIMARC_LENGTH_SYMBOL
 70
     0
  0
APPID
  5
1A5
330
9
100
AcDbSymbolTableRecord
100
AcDbRegAppTableRecord
  2
ACAD_DSTYLE_DIMJOGGED_JOGANGLE_SYMBOL
 70
     0
  0
APPID
  5
22C
330
9
100
AcDbSymbolTableRecord
100
AcDbRegAppTableRecord
  2
AcAecLayerStandard
 70
     0
  0
APPID
  5
326
330
9
100
AcDbSymbolTableRecord
100
AcDbRegAppTableRecord
  2
ACAD_PSEXT
 70
     0
  0
ENDTAB
  0
TABLE
  2
DIMSTYLE
  5
A
330
0
100
AcDbSymbolTable
 70
    12
100
AcDbDimStyleTable
 71
     1
340
6F
  0
DIMSTYLE
105
6F
102
{ACAD_REACTORS
330
4B
102
}
330
A
100
AcDbSymbolTableRecord
100
AcDbDimStyleTableRecord
  2
AM_DIN
 70
     0
  4
"
 41
2.5
 42
1.0
 43
10.0
 44
1.0
 47
0.1
 48
0.1
 73
     0
 74
     0
 77
     1
 78
     8
 79
     2
140
3.5
141
0.0
143
0.0393701
146
0.71
147
1.5
172
     1
176
   256
177
   256
178
     2
271
     2
272
     3
274
     4
283
     0
284
     8
340
11
371
    -1
372
    -1
1001
ACAD_DSTYLE_DIMARC_LENGTH_SYMBOL
1070
   379
1070
     0
1001
ACAD_DSTYLE_DIMJOGGED_JOGANGLE_SYMBOL
1070
   384
1040
1.570796326794896
  0
DIMSTYLE
105
70
330
A
100
AcDbSymbolTableRecord
100
AcDbDimStyleTableRecord
  2
AM_DIN$3
 70
     0
  4
"
 41
2.5
 42
1.0
 43
10.0
 44
1.0
 47
0.1
 48
0.1
 73
     0
 77
     1
 78
     8
 79
     2
140
3.5
141
0.0
143
0.0393701
146
0.71
147
1.5
176
   256
177
   256
178
     2
271
     2
272
     3
274
     4
283
     0
284
     8
288
     1
289
     0
340
11
371
    -1
372
    -1
1001
ACAD_DSTYLE_DIMARC_LENGTH_SYMBOL
1070
   379
1070
     0
1001
ACAD_DSTYLE_DIMJOGGED_JOGANGLE_SYMBOL
1070
   384
1040
1.570796326794896
  0
DIMSTYLE
105
71
330
A
100
AcDbSymbolTableRecord
100
AcDbDimStyleTableRecord
  2
AM_DIN$4
 70
     0
  4
"
 41
2.5
 42
1.0
 43
10.0
 44
1.0
 47
0.1
 48
0.1
 73
     0
 77
     1
 78
     8
 79
     2
140
3.5
141
0.0
143
0.0393701
146
0.71
147
1.5
176
   256
177
   256
178
     2
271
     2
272
     3
274
     4
283
     0
284
     8
288
     1
289
     0
340
11
371
    -1
372
    -1
1001
ACAD_DSTYLE_DIMARC_LENGTH_SYMBOL
1070
   379
1070
     0
1001
ACAD_DSTYLE_DIMJOGGED_JOGANGLE_SYMBOL
1070
   384
1040
1.570796326794896
  0
DIMSTYLE
105
72
330
A
100
AcDbSymbolTableRecord
100
AcDbDimStyleTableRecord
  2
AM_DIN$6
 70
     0
  4
"
 41
2.5
 42
1.0
 43
10.0
 44
1.0
 47
0.1
 48
0.1
 73
     0
 74
     0
 78
     8
 79
     2
140
3.5
141
0.0
143
0.0393701
146
0.71
147
1.5
172
     1
176
   256
177
   256
178
     2
271
     2
272
     3
274
     4
283
     0
284
     8
340
11
371
    -1
372
    -1
1001
ACAD_DSTYLE_DIMARC_LENGTH_SYMBOL
1070
   379
1070
     0
1001
ACAD_DSTYLE_DIMJOGGED_JOGANGLE_SYMBOL
1070
   384
1040
1.570796326794896
  0
DIMSTYLE
105
73
330
A
100
AcDbSymbolTableRecord
100
AcDbDimStyleTableRecord
  2
AM_DIN$7
 70
     0
  4
"
 41
2.5
 42
1.0
 43
10.0
 44
1.0
 47
0.1
 48
0.1
 73
     0
 74
     0
 77
     1
 78
     8
 79
     2
140
5.0
141
0.0
143
0.0393701
146
0.71
147
1.5
172
     1
176
   256
177
   256
178
     2
271
     2
272
     3
274
     4
283
     0
284
     8
340
11
371
    -1
372
    -1
1001
ACAD_DSTYLE_DIMARC_LENGTH_SYMBOL
1070
   379
1070
     0
1001
ACAD_DSTYLE_DIMJOGGED_JOGANGLE_SYMBOL
1070
   384
1040
1.570796326794896
  0
DIMSTYLE
105
74
330
A
100
AcDbSymbolTableRecord
100
AcDbDimStyleTableRecord
  2
AM_DIN$SF
 70
     0
  4
"
 41
2.5
 42
1.0
 43
10.0
 44
1.0
 47
0.1
 48
0.1
 73
     0
 74
     0
 75
     1
 76
     1
 77
     1
 78
     8
 79
     2
140
3.5
141
0.0
143
0.0393701
146
0.71
147
1.5
172
     1
176
   256
177
   256
178
     2
271
     2
272
     3
274
     4
283
     0
284
     8
340
11
371
    -1
372
    -1
1001
ACAD_DSTYLE_DIMARC_LENGTH_SYMBOL
1070
   379
1070
     0
1001
ACAD_DSTYLE_DIMJOGGED_JOGANGLE_SYMBOL
1070
   384
1040
1.570796326794896
  0
DIMSTYLE
105
79
330
A
100
AcDbSymbolTableRecord
100
AcDbDimStyleTableRecord
  2
AM_DIN$SH
 70
     0
  4
"
 41
2.5
 42
1.0
 43
10.0
 44
1.0
 47
0.1
 48
0.1
 73
     0
 74
     0
 75
     1
 76
     1
 77
     1
 78
     8
 79
     2
140
3.5
141
0.0
143
0.0393701
144
2.0
146
0.71
147
1.5
172
     1
173
     1
176
   256
177
   256
178
     2
271
     2
272
     3
274
     4
283
     0
284
     8
340
11
343
75
371
    -1
372
    -1
1001
ACAD_DSTYLE_DIMARC_LENGTH_SYMBOL
1070
   379
1070
     0
1001
ACAD_DSTYLE_DIMJOGGED_JOGANGLE_SYMBOL
1070
   384
1040
1.570796326794896
  0
ENDTAB
  0
TABLE
  2
BLOCK_RECORD
  5
1
330
0
100
AcDbSymbolTable
 70
     4
  0
BLOCK_RECORD
  5
1F
102
{ACAD_XDICTIONARY
360
83
102
}
330
1
100
AcDbSymbolTableRecord
100
AcDbBlockTableRecord
  2
*Model_Space
340
22
  0
BLOCK_RECORD
  5
1B
330
1
100
AcDbSymbolTableRecord
100
AcDbBlockTableRecord
  2
*Paper_Space
340
1E
  0
BLOCK_RECORD
  5
23
330
1
100
AcDbSymbolTableRecord
100
AcDbBlockTableRecord
  2
*Paper_Space0
340
26
  0
BLOCK_RECORD
  5
75
330
1
100
AcDbSymbolTableRecord
100
AcDbBlockTableRecord
  2
GENAXEH
340
0
  0
ENDTAB
  0
ENDSEC
  0
SECTION
  2
BLOCKS
  0
BLOCK
  5
20
330
1F
100
AcDbEntity
  8
0
100
AcDbBlockBegin
  2
*Model_Space
 70
     0
 10
0.0
 20
0.0
 30
0.0
  3
*Model_Space
  1

  0
ENDBLK
  5
21
330
1F
100
AcDbEntity
  8
0
100
AcDbBlockEnd
  0
BLOCK
  5
1C
330
1B
100
AcDbEntity
 67
     1
  8
0
100
AcDbBlockBegin
  2
*Paper_Space
 70
     0
 10
0.0
 20
0.0
 30
0.0
  3
*Paper_Space
  1

  0
ENDBLK
  5
1D
330
1B
100
AcDbEntity
 67
     1
  8
0
100
AcDbBlockEnd
  0
BLOCK
  5
24
330
23
100
AcDbEntity
 67
     1
  8
0
100
AcDbBlockBegin
  2
*Paper_Space0
 70
     0
 10
0.0
 20
0.0
 30
0.0
  3
*Paper_Space0
  1

  0
ENDBLK
  5
25
330
23
100
AcDbEntity
 67
     1
  8
0
100
AcDbBlockEnd
  0
BLOCK
  5
77
330
75
100
AcDbEntity
  8
0
100
AcDbBlockBegin
  2
GENAXEH
 70
     0
 10
0.0
 20
0.0
 30
0.0
  3
GENAXEH
  1

  0
LINE
  5
76
330
75
100
AcDbEntity
  8
0
100
AcDbLine
 10
-1.0
 20
0.0
 30
0.0
 11
1.0
 21
0.0
 31
0.0
  0
ENDBLK
  5
78
330
75
100
AcDbEntity
  8
0
100
AcDbBlockEnd
  0
ENDSEC
  0
SECTION
  2
ENTITIES
  0
LINE
  5
7E3
330
1F
100
AcDbEntity
  8
BILD
  6
AUSGEZOGEN
 62
     1
100
AcDbLine
 10
2255.468792194525
 20
974.4484194370688
 30
0.0
 11
2155.359783404524
 21
974.4484194370688
 31
0.0
  0
LINE
  5
7E4
330
1F
100
AcDbEntity
  8
BILD
  6
AUSGEZOGEN
 62
     1
100
AcDbLine
 10
1991.148845904524
 20
1226.640558107067
 30
0.0
 11
2038.727459184526
 21
1331.650934087067
 31
0.0
  0
LINE
  5
7E5
330
1F
100
AcDbEntity
  8
BILD
  6
GESTRICHELT
 62
     1
100
AcDbLine
 10
2092.085491414527
 20
896.8136538070666
 30
0.0
 11
1705.085430374525
 21
896.8136538070666
 31
0.0
  0
LINE
  5
7E6
330
1F
100
AcDbEntity
  8
BILD
  6
GESTRICHELT
 62
     1
100
AcDbLine
 10
2092.085491414527
 20
1192.813653807067
 30
0.0
 11
1705.085430374525
 21
1192.813653807067
 31
0.0
  0
LINE
  5
7E7
330
1F
100
AcDbEntity
  8
BILD
  6
GESTRICHELT
 62
     1
100
AcDbLine
 10
2092.085491414527
 20
1192.813653807067
 30
0.0
 11
2092.085491414527
 21
896.8136538070666
 31
0.0
  0
LINE
  5
7E8
330
1F
100
AcDbEntity
  8
BILD
  6
GESTRICHELT
 62
     1
100
AcDbLine
 10
1705.085430374525
 20
1192.813653807067
 30
0.0
 11
1705.085430374525
 21
896.8136538070666
 31
0.0
  0
LINE
  5
7E9
330
1F
100
AcDbEntity
  8
BILD
  6
AUSGEZOGEN
 62
     1
100
AcDbLine
 10
2192.085491414527
 20
1272.813653807066
 30
0.0
 11
2172.085491414527
 21
1292.813653807067
 31
0.0
  0
LINE
  5
7EA
330
1F
100
AcDbEntity
  8
BILD
  6
AUSGEZOGEN
 62
     1
100
AcDbLine
 10
1625.085430374524
 20
1292.813653807067
 30
0.0
 11
2172.085491414527
 21
1292.813653807067
 31
0.0
  0
LINE
  5
7EB
330
1F
100
AcDbEntity
  8
BILD
  6
AUSGEZOGEN
 62
     1
100
AcDbLine
 10
1605.085430374525
 20
1272.813653807066
 30
0.0
 11
1625.085430374524
 21
1292.813653807067
 31
0.0
  0
LINE
  5
7EC
330
1F
100
AcDbEntity
  8
BILD
  6
AUSGEZOGEN
 62
     1
100
AcDbLine
 10
1605.085430374525
 20
816.8136538070665
 30
0.0
 11
1605.085430374525
 21
1272.813653807066
 31
0.0
  0
LINE
  5
7ED
330
1F
100
AcDbEntity
  8
BILD
  6
AUSGEZOGEN
 62
     1
100
AcDbLine
 10
2192.085491414527
 20
816.8136538070665
 30
0.0
 11
2192.085491414527
 21
1272.813653807066
 31
0.0
  0
LINE
  5
7EE
330
1F
100
AcDbEntity
  8
BILD
  6
AUSGEZOGEN
 62
     1
100
AcDbLine
 10
2192.085491414527
 20
816.8136538070665
 30
0.0
 11
2172.085491414527
 21
796.8136538070666
 31
0.0
  0
LINE
  5
7EF
330
1F
100
AcDbEntity
  8
BILD
  6
AUSGEZOGEN
 62
     1
100
AcDbLine
 10
1625.085430374524
 20
796.8136538070666
 30
0.0
 11
2172.085491414527
 21
796.8136538070666
 31
0.0
  0
LINE
  5
7F0
330
1F
100
AcDbEntity
  8
BILD
  6
AUSGEZOGEN
 62
     1
100
AcDbLine
 10
1605.085430374525
 20
816.8136538070665
 30
0.0
 11
1625.085430374524
 21
796.8136538070666
 31
0.0
  0
LINE
  5
7F1
330
1F
100
AcDbEntity
  8
BILD
  6
AUSGEZOGEN
 62
     1
100
AcDbLine
 10
2038.727459184526
 20
1331.650934087067
 30
0.0
 11
2145.445354694525
 21
1354.213678227066
 31
0.0
  0
LINE
  5
7F2
330
1F
100
AcDbEntity
  8
BILD
  6
AUSGEZOGEN
 62
     1
100
AcDbLine
 10
1736.506572954526
 20
1647.696832517069
 30
0.0
 11
1667.873394244528
 21
1693.915582517069
 31
0.0
  0
LINE
  5
7F3
330
1F
100
AcDbEntity
  8
BILD
  6
PUNKT
 62
     7
100
AcDbLine
 10
1706.585430374525
 20
1623.754815917067
 30
0.0
 11
1806.585430374525
 21
1623.754815917067
 31
0.0
  0
LINE
  5
7F4
330
1F
100
AcDbEntity
  8
BILD
  6
PUNKT
 62
     7
100
AcDbLine
 10
1706.585430374525
 20
1631.365411627068
 30
0.0
 11
1806.585430374525
 21
1631.365411627068
 31
0.0
  0
LINE
  5
7F5
330
1F
100
AcDbEntity
  8
BILD
  6
PUNKT
 62
     7
100
AcDbLine
 10
1706.585430374525
 20
1637.659356937069
 30
0.0
 11
1806.585430374525
 21
1637.659356937069
 31
0.0
  0
LINE
  5
7F6
330
1F
100
AcDbEntity
  8
BILD
  6
PUNKT
 62
     7
100
AcDbLine
 10
1706.585430374525
 20
1646.009332517069
 30
0.0
 11
1806.585430374525
 21
1646.009332517069
 31
0.0
  0
LINE
  5
7F7
330
1F
100
AcDbEntity
  8
BILD
  6
PUNKT
 62
     7
100
AcDbLine
 10
1706.585430374525
 20
1653.863458497066
 30
0.0
 11
1806.575969924527
 21
1653.863458497066
 31
0.0
  0
LINE
  5
7F8
330
1F
100
AcDbEntity
  8
BILD
  6
PUNKT
 62
     7
100
AcDbLine
 10
1706.585430374525
 20
1662.871637207068
 30
0.0
 11
1806.585430374525
 21
1662.871637207068
 31
0.0
  0
LINE
  5
7F9
330
1F
100
AcDbEntity
  8
BILD
  6
AUSGEZOGEN
 62
     1
100
AcDbLine
 10
1646.150432824524
 20
1860.360162597067
 30
0.0
 11
1694.665508504523
 21
1892.424249517066
 31
0.0
  0
ARC
  5
7FA
330
1F
100
AcDbEntity
  8
BILD
  6
AUSGEZOGEN
 62
     1
100
AcDbCircle
 10
2089.085491414527
 20
1617.825494627066
 30
0.0
 40
1.500000119999999
100
AcDbArc
 50
270.0
 51
0.0
  0
LINE
  5
7FB
330
1F
100
AcDbEntity
  8
BILD
  6
AUSGEZOGEN
 62
     1
100
AcDbLine
 10
2092.085491414527
 20
2042.825616697067
 30
0.0
 11
2092.085491414527
 21
1968.525567877067
 31
0.0
  0
ARC
  5
7FC
330
1F
100
AcDbEntity
  8
BILD
  6
AUSGEZOGEN
 62
     1
100
AcDbCircle
 10
2089.085491414527
 20
1617.825494627066
 30
0.0
 40
3.000000239999999
100
AcDbArc
 50
270.0
 51
0.0
  0
ARC
  5
7FD
330
1F
100
AcDbEntity
  8
BILD
  6
AUSGEZOGEN
 62
     1
100
AcDbCircle
 10
2093.585491414527
 20
2042.825616697067
 30
0.0
 40
1.500000119999999
100
AcDbArc
 50
90.00000762997665
 51
180.0
  0
ARC
  5
7FE
330
1F
100
AcDbEntity
  8
BILD
  6
AUSGEZOGEN
 62
     1
100
AcDbCircle
 10
2093.585491414527
 20
2042.825616697067
 30
0.0
 40
3.000000239999999
100
AcDbArc
 50
90.00000762997665
 51
180.0
  0
LINE
  5
7FF
330
1F
100
AcDbEntity
  8
BILD
  6
AUSGEZOGEN
 62
     1
100
AcDbLine
 10
2113.085491414527
 20
2073.325616697067
 30
0.0
 11
2113.085491414527
 21
2047.325616697067
 31
0.0
  0
ARC
  5
800
330
1F
100
AcDbEntity
  8
BILD
  6
AUSGEZOGEN
 62
     1
100
AcDbCircle
 10
2110.085491414527
 20
2047.325616697067
 30
0.0
 40
3.000000239999999
100
AcDbArc
 50
270.0
 51
0.0
  0
ARC
  5
801
330
1F
100
AcDbEntity
  8
BILD
  6
AUSGEZOGEN
 62
     1
100
AcDbCircle
 10
2110.085491414527
 20
2047.325616697067
 30
0.0
 40
1.500000119999999
100
AcDbArc
 50
270.0
 51
0.0
  0
LINE
  5
802
330
1F
100
AcDbEntity
  8
BILD
  6
AUSGEZOGEN
 62
     1
100
AcDbLine
 10
2114.585491414527
 20
2064.825616697067
 30
0.0
 11
2113.085491414527
 21
2064.825616697067
 31
0.0
  0
ARC
  5
803
330
1F
100
AcDbEntity
  8
BILD
  6
AUSGEZOGEN
 62
     1
100
AcDbCircle
 10
2113.085491414527
 20
2073.325616697067
 30
0.0
 40
1.500000119999999
100
AcDbArc
 50
0.0
 51
90.00000762997665
  0
ARC
  5
804
330
1F
100
AcDbEntity
  8
BILD
  6
AUSGEZOGEN
 62
     1
100
AcDbCircle
 10
2113.085491414527
 20
2073.325616697067
 30
0.0
 40
1.500000119999999
100
AcDbArc
 50
90.00000762997665
 51
180.0
  0
LINE
  5
805
330
1F
100
AcDbEntity
  8
BILD
  6
AUSGEZOGEN
 62
     1
100
AcDbLine
 10
2092.085491414527
 20
1926.125665527067
 30
0.0
 11
2092.085491414527
 21
1617.825494627066
 31
0.0
  0
LINE
  5
806
330
1F
100
AcDbEntity
  8
BILD
  6
AUSGEZOGEN
 62
     1
100
AcDbLine
 10
1708.085430374524
 20
1616.325494627066
 30
0.0
 11
2089.085491414527
 21
1616.325494627066
 31
0.0
  0
LINE
  5
807
330
1F
100
AcDbEntity
  8
BILD
  6
AUSGEZOGEN
 62
     1
100
AcDbLine
 10
1705.085430374525
 20
2042.825616697067
 30
0.0
 11
1705.085430374525
 21
1617.825494627066
 31
0.0
  0
ARC
  5
808
330
1F
100
AcDbEntity
  8
BILD
  6
AUSGEZOGEN
 62
     1
100
AcDbCircle
 10
1708.085369344527
 20
1617.825494627066
 30
0.0
 40
3.000000239999999
100
AcDbArc
 50
180.0
 51
270.0
  0
ARC
  5
809
330
1F
100
AcDbEntity
  8
BILD
  6
AUSGEZOGEN
 62
     1
100
AcDbCircle
 10
1708.085369344527
 20
1617.825494627066
 30
0.0
 40
1.500000119999999
100
AcDbArc
 50
180.0
 51
270.0
  0
ARC
  5
80A
330
1F
100
AcDbEntity
  8
BILD
  6
AUSGEZOGEN
 62
     1
100
AcDbCircle
 10
1703.585369344527
 20
2042.825616697067
 30
0.0
 40
3.000000239999999
100
AcDbArc
 50
0.0
 51
90.00000762997665
  0
LINE
  5
80B
330
1F
100
AcDbEntity
  8
BILD
  6
AUSGEZOGEN
 62
     1
100
AcDbLine
 10
1687.085430374525
 20
2044.325616697067
 30
0.0
 11
1703.585430374524
 21
2044.325616697067
 31
0.0
  0
ARC
  5
80C
330
1F
100
AcDbEntity
  8
BILD
  6
AUSGEZOGEN
 62
     1
100
AcDbCircle
 10
1703.585369344527
 20
2042.825616697067
 30
0.0
 40
1.500000119999999
100
AcDbArc
 50
0.0
 51
90.00000762997665
  0
LINE
  5
80D
330
1F
100
AcDbEntity
  8
BILD
  6
AUSGEZOGEN
 62
     1
100
AcDbLine
 10
1684.085430374524
 20
2073.325616697067
 30
0.0
 11
1684.085430374524
 21
2047.325616697067
 31
0.0
  0
ARC
  5
80E
330
1F
100
AcDbEntity
  8
BILD
  6
AUSGEZOGEN
 62
     1
100
AcDbCircle
 10
1687.085369344527
 20
2047.325616697067
 30
0.0
 40
3.000000239999999
100
AcDbArc
 50
180.0
 51
270.0
  0
ARC
  5
80F
330
1F
100
AcDbEntity
  8
BILD
  6
AUSGEZOGEN
 62
     1
100
AcDbCircle
 10
1687.085369344527
 20
2047.325616697067
 30
0.0
 40
1.500000119999999
100
AcDbArc
 50
180.0
 51
270.0
  0
ARC
  5
810
330
1F
100
AcDbEntity
  8
BILD
  6
AUSGEZOGEN
 62
     1
100
AcDbCircle
 10
1684.085369344527
 20
2073.325616697067
 30
0.0
 40
1.500000119999999
100
AcDbArc
 50
0.0
 51
90.00000762997665
  0
ARC
  5
811
330
1F
100
AcDbEntity
  8
BILD
  6
AUSGEZOGEN
 62
     1
100
AcDbCircle
 10
1684.085369344527
 20
2073.325616697067
 30
0.0
 40
1.500000119999999
100
AcDbArc
 50
90.00000762997665
 51
180.0
  0
LINE
  5
812
330
1F
100
AcDbEntity
  8
BILD
  6
AUSGEZOGEN
 62
     1
100
AcDbLine
 10
1682.585430374524
 20
2064.825616697067
 30
0.0
 11
1684.085430374524
 21
2064.825616697067
 31
0.0
  0
LINE
  5
813
330
1F
100
AcDbEntity
  8
BILD
  6
AUSGEZOGEN
 62
     1
100
AcDbLine
 10
2124.391033404524
 20
1972.135919437068
 30
0.0
 11
2159.088176964523
 21
2110.681329597067
 31
0.0
  0
LINE
  5
814
330
1F
100
AcDbEntity
  8
BILD
  6
GESTRICHELT
 62
     1
100
AcDbLine
 10
2036.457195514525
 20
1778.904229987069
 30
0.0
 11
2078.147014854526
 21
1778.904229987069
 31
0.0
  0
LINE
  5
815
330
1F
100
AcDbEntity
  8
BILD
  6
GESTRICHELT
 62
     1
100
AcDbLine
 10
2039.927776574524
 20
1772.652765137069
 30
0.0
 11
2069.568218464526
 21
1772.652765137069
 31
0.0
  0
LINE
  5
816
330
1F
100
AcDbEntity
  8
BILD
  6
GESTRICHELT
 62
     1
100
AcDbLine
 10
2033.313396684526
 20
1709.157647947066
 30
0.0
 11
2073.148906944526
 21
1709.157647947066
 31
0.0
  0
LINE
  5
817
330
1F
100
AcDbEntity
  8
BILD
  6
GESTRICHELT
 62
     1
100
AcDbLine
 10
2043.036052934526
 20
1702.263727057069
 30
0.0
 11
2066.733440634528
 21
1702.263727057069
 31
0.0
  0
LINE
  5
818
330
1F
100
AcDbEntity
  8
BILD
  6
AUSGEZOGEN
 62
     1
100
AcDbLine
 10
1846.741863484526
 20
2360.683770997067
 30
0.0
 11
1830.636089554525
 21
2365.702813967066
 31
0.0
  0
LINE
  5
819
330
1F
100
AcDbEntity
  8
BILD
  6
AUSGEZOGEN
 62
     1
100
AcDbLine
 10
1826.234478234527
 20
2371.615167487068
 30
0.0
 11
1733.755047074525
 21
2371.615167487068
 31
0.0
  0
LINE
  5
81A
330
1F
100
AcDbEntity
  8
BILD
  6
AUSGEZOGEN
 62
     1
100
AcDbLine
 10
1865.419231644525
 20
1969.875665527067
 30
0.0
 11
1723.504314654524
 21
2129.567560057068
 31
0.0
  0
CIRCLE
  5
81B
330
1F
100
AcDbEntity
  8
BILD
  6
AUSGEZOGEN
 62
     1
100
AcDbCircle
 10
1828.585491414526
 20
1163.813653807066
 30
0.0
 40
3.25
  0
CIRCLE
  5
81C
330
1F
100
AcDbEntity
  8
BILD
  6
AUSGEZOGEN
 62
     1
100
AcDbCircle
 10
1814.585491414527
 20
1163.813653807066
 30
0.0
 40
3.25
  0
CIRCLE
  5
81D
330
1F
100
AcDbEntity
  8
BILD
  6
AUSGEZOGEN
 62
     1
100
AcDbCircle
 10
1828.585491414526
 20
1149.813653807066
 30
0.0
 40
3.25
  0
CIRCLE
  5
81E
330
1F
100
AcDbEntity
  8
BILD
  6
AUSGEZOGEN
 62
     1
100
AcDbCircle
 10
1814.585491414527
 20
1149.813653807066
 30
0.0
 40
3.25
  0
CIRCLE
  5
81F
330
1F
100
AcDbEntity
  8
BILD
  6
AUSGEZOGEN
 62
     1
100
AcDbCircle
 10
1828.585491414526
 20
1135.813653807066
 30
0.0
 40
3.25
  0
CIRCLE
  5
820
330
1F
100
AcDbEntity
  8
BILD
  6
AUSGEZOGEN
 62
     1
100
AcDbCircle
 10
1814.585491414527
 20
1135.813653807066
 30
0.0
 40
3.25
  0
CIRCLE
  5
821
330
1F
100
AcDbEntity
  8
BILD
  6
AUSGEZOGEN
 62
     1
100
AcDbCircle
 10
1828.585491414526
 20
1121.813653807066
 30
0.0
 40
3.25
  0
CIRCLE
  5
822
330
1F
100
AcDbEntity
  8
BILD
  6
AUSGEZOGEN
 62
     1
100
AcDbCircle
 10
1814.585491414527
 20
1121.813653807066
 30
0.0
 40
3.25
  0
CIRCLE
  5
823
330
1F
100
AcDbEntity
  8
BILD
  6
AUSGEZOGEN
 62
     1
100
AcDbCircle
 10
1828.585491414526
 20
1107.813653807066
 30
0.0
 40
3.25
  0
CIRCLE
  5
824
330
1F
100
AcDbEntity
  8
BILD
  6
AUSGEZOGEN
 62
     1
100
AcDbCircle
 10
1814.585491414527
 20
1107.813653807066
 30
0.0
 40
3.25
  0
CIRCLE
  5
825
330
1F
100
AcDbEntity
  8
BILD
  6
AUSGEZOGEN
 62
     1
100
AcDbCircle
 10
1828.585491414526
 20
1093.813653807067
 30
0.0
 40
3.25
  0
CIRCLE
  5
826
330
1F
100
AcDbEntity
  8
BILD
  6
AUSGEZOGEN
 62
     1
100
AcDbCircle
 10
1814.585491414527
 20
1093.813653807067
 30
0.0
 40
3.25
  0
CIRCLE
  5
827
330
1F
100
AcDbEntity
  8
BILD
  6
AUSGEZOGEN
 62
     1
100
AcDbCircle
 10
1828.585491414526
 20
1079.813653807066
 30
0.0
 40
3.25
  0
CIRCLE
  5
828
330
1F
100
AcDbEntity
  8
BILD
  6
AUSGEZOGEN
 62
     1
100
AcDbCircle
 10
1814.585491414527
 20
1079.813653807066
 30
0.0
 40
3.25
  0
CIRCLE
  5
829
330
1F
100
AcDbEntity
  8
BILD
  6
AUSGEZOGEN
 62
     1
100
AcDbCircle
 10
1828.585491414526
 20
1065.813653807066
 30
0.0
 40
3.25
  0
CIRCLE
  5
82A
330
1F
100
AcDbEntity
  8
BILD
  6
AUSGEZOGEN
 62
     1
100
AcDbCircle
 10
1814.585491414527
 20
1065.813653807066
 30
0.0
 40
3.25
  0
CIRCLE
  5
82B
330
1F
100
AcDbEntity
  8
BILD
  6
AUSGEZOGEN
 62
     1
100
AcDbCircle
 10
1828.585491414526
 20
1051.813653807067
 30
0.0
 40
3.25
  0
CIRCLE
  5
82C
330
1F
100
AcDbEntity
  8
BILD
  6
AUSGEZOGEN
 62
     1
100
AcDbCircle
 10
1814.585491414527
 20
1051.813653807067
 30
0.0
 40
3.25
  0
CIRCLE
  5
82D
330
1F
100
AcDbEntity
  8
BILD
  6
AUSGEZOGEN
 62
     1
100
AcDbCircle
 10
1800.585491414526
 20
1163.813653807066
 30
0.0
 40
3.25
  0
CIRCLE
  5
82E
330
1F
100
AcDbEntity
  8
BILD
  6
AUSGEZOGEN
 62
     1
100
AcDbCircle
 10
1786.585491414526
 20
1163.813653807066
 30
0.0
 40
3.25
  0
CIRCLE
  5
82F
330
1F
100
AcDbEntity
  8
BILD
  6
AUSGEZOGEN
 62
     1
100
AcDbCircle
 10
1800.585491414526
 20
1149.813653807066
 30
0.0
 40
3.25
  0
CIRCLE
  5
830
330
1F
100
AcDbEntity
  8
BILD
  6
AUSGEZOGEN
 62
     1
100
AcDbCircle
 10
1786.585491414526
 20
1149.813653807066
 30
0.0
 40
3.25
  0
CIRCLE
  5
831
330
1F
100
AcDbEntity
  8
BILD
  6
AUSGEZOGEN
 62
     1
100
AcDbCircle
 10
1800.585491414526
 20
1135.813653807066
 30
0.0
 40
3.25
  0
CIRCLE
  5
832
330
1F
100
AcDbEntity
  8
BILD
  6
AUSGEZOGEN
 62
     1
100
AcDbCircle
 10
1786.585491414526
 20
1135.813653807066
 30
0.0
 40
3.25
  0
CIRCLE
  5
833
330
1F
100
AcDbEntity
  8
BILD
  6
AUSGEZOGEN
 62
     1
100
AcDbCircle
 10
1800.585491414526
 20
1121.813653807066
 30
0.0
 40
3.25
  0
CIRCLE
  5
834
330
1F
100
AcDbEntity
  8
BILD
  6
AUSGEZOGEN
 62
     1
100
AcDbCircle
 10
1786.585491414526
 20
1121.813653807066
 30
0.0
 40
3.25
  0
CIRCLE
  5
835
330
1F
100
AcDbEntity
  8
BILD
  6
AUSGEZOGEN
 62
     1
100
AcDbCircle
 10
1800.585491414526
 20
1107.813653807066
 30
0.0
 40
3.25
  0
CIRCLE
  5
836
330
1F
100
AcDbEntity
  8
BILD
  6
AUSGEZOGEN
 62
     1
100
AcDbCircle
 10
1786.585491414526
 20
1107.813653807066
 30
0.0
 40
3.25
  0
CIRCLE
  5
837
330
1F
100
AcDbEntity
  8
BILD
  6
AUSGEZOGEN
 62
     1
100
AcDbCircle
 10
1800.585491414526
 20
1093.813653807067
 30
0.0
 40
3.25
  0
CIRCLE
  5
838
330
1F
100
AcDbEntity
  8
BILD
  6
AUSGEZOGEN
 62
     1
100
AcDbCircle
 10
1786.585491414526
 20
1093.813653807067
 30
0.0
 40
3.25
  0
CIRCLE
  5
839
330
1F
100
AcDbEntity
  8
BILD
  6
AUSGEZOGEN
 62
     1
100
AcDbCircle
 10
1800.585491414526
 20
1079.813653807066
 30
0.0
 40
3.25
  0
CIRCLE
  5
83A
330
1F
100
AcDbEntity
  8
BILD
  6
AUSGEZOGEN
 62
     1
100
AcDbCircle
 10
1786.585491414526
 20
1079.813653807066
 30
0.0
 40
3.25
  0
CIRCLE
  5
83B
330
1F
100
AcDbEntity
  8
BILD
  6
AUSGEZOGEN
 62
     1
100
AcDbCircle
 10
1800.585491414526
 20
1065.813653807066
 30
0.0
 40
3.25
  0
CIRCLE
  5
83C
330
1F
100
AcDbEntity
  8
BILD
  6
AUSGEZOGEN
 62
     1
100
AcDbCircle
 10
1786.585491414526
 20
1065.813653807066
 30
0.0
 40
3.25
  0
CIRCLE
  5
83D
330
1F
100
AcDbEntity
  8
BILD
  6
AUSGEZOGEN
 62
     1
100
AcDbCircle
 10
1800.585491414526
 20
1051.813653807067
 30
0.0
 40
3.25
  0
CIRCLE
  5
83E
330
1F
100
AcDbEntity
  8
BILD
  6
AUSGEZOGEN
 62
     1
100
AcDbCircle
 10
1786.585491414526
 20
1051.813653807067
 30
0.0
 40
3.25
  0
CIRCLE
  5
83F
330
1F
100
AcDbEntity
  8
BILD
  6
AUSGEZOGEN
 62
     1
100
AcDbCircle
 10
1772.585491414526
 20
1163.813653807066
 30
0.0
 40
3.25
  0
CIRCLE
  5
840
330
1F
100
AcDbEntity
  8
BILD
  6
AUSGEZOGEN
 62
     1
100
AcDbCircle
 10
1758.585491414526
 20
1163.813653807066
 30
0.0
 40
3.25
  0
CIRCLE
  5
841
330
1F
100
AcDbEntity
  8
BILD
  6
AUSGEZOGEN
 62
     1
100
AcDbCircle
 10
1772.585491414526
 20
1149.813653807066
 30
0.0
 40
3.25
  0
CIRCLE
  5
842
330
1F
100
AcDbEntity
  8
BILD
  6
AUSGEZOGEN
 62
     1
100
AcDbCircle
 10
1758.585491414526
 20
1149.813653807066
 30
0.0
 40
3.25
  0
CIRCLE
  5
843
330
1F
100
AcDbEntity
  8
BILD
  6
AUSGEZOGEN
 62
     1
100
AcDbCircle
 10
1772.585491414526
 20
1135.813653807066
 30
0.0
 40
3.25
  0
CIRCLE
  5
844
330
1F
100
AcDbEntity
  8
BILD
  6
AUSGEZOGEN
 62
     1
100
AcDbCircle
 10
1758.585491414526
 20
1135.813653807066
 30
0.0
 40
3.25
  0
CIRCLE
  5
845
330
1F
100
AcDbEntity
  8
BILD
  6
AUSGEZOGEN
 62
     1
100
AcDbCircle
 10
1772.585491414526
 20
1121.813653807066
 30
0.0
 40
3.25
  0
CIRCLE
  5
846
330
1F
100
AcDbEntity
  8
BILD
  6
AUSGEZOGEN
 62
     1
100
AcDbCircle
 10
1758.585491414526
 20
1121.813653807066
 30
0.0
 40
3.25
  0
CIRCLE
  5
847
330
1F
100
AcDbEntity
  8
BILD
  6
AUSGEZOGEN
 62
     1
100
AcDbCircle
 10
1772.585491414526
 20
1107.813653807066
 30
0.0
 40
3.25
  0
CIRCLE
  5
848
330
1F
100
AcDbEntity
  8
BILD
  6
AUSGEZOGEN
 62
     1
100
AcDbCircle
 10
1758.585491414526
 20
1107.813653807066
 30
0.0
 40
3.25
  0
CIRCLE
  5
849
330
1F
100
AcDbEntity
  8
BILD
  6
AUSGEZOGEN
 62
     1
100
AcDbCircle
 10
1772.585491414526
 20
1093.813653807067
 30
0.0
 40
3.25
  0
CIRCLE
  5
84A
330
1F
100
AcDbEntity
  8
BILD
  6
AUSGEZOGEN
 62
     1
100
AcDbCircle
 10
1758.585491414526
 20
1093.813653807067
 30
0.0
 40
3.25
  0
CIRCLE
  5
84B
330
1F
100
AcDbEntity
  8
BILD
  6
AUSGEZOGEN
 62
     1
100
AcDbCircle
 10
1772.585491414526
 20
1079.813653807066
 30
0.0
 40
3.25
  0
CIRCLE
  5
84C
330
1F
100
AcDbEntity
  8
BILD
  6
AUSGEZOGEN
 62
     1
100
AcDbCircle
 10
1758.585491414526
 20
1079.813653807066
 30
0.0
 40
3.25
  0
CIRCLE
  5
84D
330
1F
100
AcDbEntity
  8
BILD
  6
AUSGEZOGEN
 62
     1
100
AcDbCircle
 10
1772.585491414526
 20
1065.813653807066
 30
0.0
 40
3.25
  0
CIRCLE
  5
84E
330
1F
100
AcDbEntity
  8
BILD
  6
AUSGEZOGEN
 62
     1
100
AcDbCircle
 10
1758.585491414526
 20
1065.813653807066
 30
0.0
 40
3.25
  0
CIRCLE
  5
84F
330
1F
100
AcDbEntity
  8
BILD
  6
AUSGEZOGEN
 62
     1
100
AcDbCircle
 10
1772.585491414526
 20
1051.813653807067
 30
0.0
 40
3.25
  0
CIRCLE
  5
850
330
1F
100
AcDbEntity
  8
BILD
  6
AUSGEZOGEN
 62
     1
100
AcDbCircle
 10
1758.585491414526
 20
1051.813653807067
 30
0.0
 40
3.25
  0
CIRCLE
  5
851
330
1F
100
AcDbEntity
  8
BILD
  6
AUSGEZOGEN
 62
     1
100
AcDbCircle
 10
1828.585491414526
 20
925.8136538070667
 30
0.0
 40
3.25
  0
CIRCLE
  5
852
330
1F
100
AcDbEntity
  8
BILD
  6
AUSGEZOGEN
 62
     1
100
AcDbCircle
 10
1814.585491414527
 20
925.8135317370671
 30
0.0
 40
3.25
  0
CIRCLE
  5
853
330
1F
100
AcDbEntity
  8
BILD
  6
AUSGEZOGEN
 62
     1
100
AcDbCircle
 10
1828.585491414526
 20
939.813531737067
 30
0.0
 40
3.25
  0
CIRCLE
  5
854
330
1F
100
AcDbEntity
  8
BILD
  6
AUSGEZOGEN
 62
     1
100
AcDbCircle
 10
1814.585491414527
 20
939.813531737067
 30
0.0
 40
3.25
  0
CIRCLE
  5
855
330
1F
100
AcDbEntity
  8
BILD
  6
AUSGEZOGEN
 62
     1
100
AcDbCircle
 10
1828.585491414526
 20
953.813531737067
 30
0.0
 40
3.25
  0
CIRCLE
  5
856
330
1F
100
AcDbEntity
  8
BILD
  6
AUSGEZOGEN
 62
     1
100
AcDbCircle
 10
1814.585491414527
 20
953.813531737067
 30
0.0
 40
3.25
  0
CIRCLE
  5
857
330
1F
100
AcDbEntity
  8
BILD
  6
AUSGEZOGEN
 62
     1
100
AcDbCircle
 10
1828.585491414526
 20
967.8135317370671
 30
0.0
 40
3.25
  0
CIRCLE
  5
858
330
1F
100
AcDbEntity
  8
BILD
  6
AUSGEZOGEN
 62
     1
100
AcDbCircle
 10
1814.585491414527
 20
967.8135317370671
 30
0.0
 40
3.25
  0
CIRCLE
  5
859
330
1F
100
AcDbEntity
  8
BILD
  6
AUSGEZOGEN
 62
     1
100
AcDbCircle
 10
1828.585491414526
 20
981.813531737067
 30
0.0
 40
3.25
  0
CIRCLE
  5
85A
330
1F
100
AcDbEntity
  8
BILD
  6
AUSGEZOGEN
 62
     1
100
AcDbCircle
 10
1814.585491414527
 20
981.813531737067
 30
0.0
 40
3.25
  0
CIRCLE
  5
85B
330
1F
100
AcDbEntity
  8
BILD
  6
AUSGEZOGEN
 62
     1
100
AcDbCircle
 10
1828.585491414526
 20
995.813531737067
 30
0.0
 40
3.25
  0
CIRCLE
  5
85C
330
1F
100
AcDbEntity
  8
BILD
  6
AUSGEZOGEN
 62
     1
100
AcDbCircle
 10
1814.585491414527
 20
995.813531737067
 30
0.0
 40
3.25
  0
CIRCLE
  5
85D
330
1F
100
AcDbEntity
  8
BILD
  6
AUSGEZOGEN
 62
     1
100
AcDbCircle
 10
1828.585491414526
 20
1009.813531737067
 30
0.0
 40
3.25
  0
CIRCLE
  5
85E
330
1F
100
AcDbEntity
  8
BILD
  6
AUSGEZOGEN
 62
     1
100
AcDbCircle
 10
1814.585491414527
 20
1009.813531737067
 30
0.0
 40
3.25
  0
CIRCLE
  5
85F
330
1F
100
AcDbEntity
  8
BILD
  6
AUSGEZOGEN
 62
     1
100
AcDbCircle
 10
1828.585491414526
 20
1023.813531737067
 30
0.0
 40
3.25
  0
CIRCLE
  5
860
330
1F
100
AcDbEntity
  8
BILD
  6
AUSGEZOGEN
 62
     1
100
AcDbCircle
 10
1814.585491414527
 20
1023.813531737067
 30
0.0
 40
3.25
  0
CIRCLE
  5
861
330
1F
100
AcDbEntity
  8
BILD
  6
AUSGEZOGEN
 62
     1
100
AcDbCircle
 10
1828.585491414526
 20
1037.813531737067
 30
0.0
 40
3.25
  0
CIRCLE
  5
862
330
1F
100
AcDbEntity
  8
BILD
  6
AUSGEZOGEN
 62
     1
100
AcDbCircle
 10
1814.585491414527
 20
1037.813531737067
 30
0.0
 40
3.25
  0
CIRCLE
  5
863
330
1F
100
AcDbEntity
  8
BILD
  6
AUSGEZOGEN
 62
     1
100
AcDbCircle
 10
1800.585491414526
 20
925.8136538070667
 30
0.0
 40
3.25
  0
CIRCLE
  5
864
330
1F
100
AcDbEntity
  8
BILD
  6
AUSGEZOGEN
 62
     1
100
AcDbCircle
 10
1786.585491414526
 20
925.8135317370671
 30
0.0
 40
3.25
  0
CIRCLE
  5
865
330
1F
100
AcDbEntity
  8
BILD
  6
AUSGEZOGEN
 62
     1
100
AcDbCircle
 10
1800.585491414526
 20
939.813531737067
 30
0.0
 40
3.25
  0
CIRCLE
  5
866
330
1F
100
AcDbEntity
  8
BILD
  6
AUSGEZOGEN
 62
     1
100
AcDbCircle
 10
1786.585491414526
 20
939.813531737067
 30
0.0
 40
3.25
  0
CIRCLE
  5
867
330
1F
100
AcDbEntity
  8
BILD
  6
AUSGEZOGEN
 62
     1
100
AcDbCircle
 10
1800.585491414526
 20
953.813531737067
 30
0.0
 40
3.25
  0
CIRCLE
  5
868
330
1F
100
AcDbEntity
  8
BILD
  6
AUSGEZOGEN
 62
     1
100
AcDbCircle
 10
1786.585491414526
 20
953.813531737067
 30
0.0
 40
3.25
  0
CIRCLE
  5
869
330
1F
100
AcDbEntity
  8
BILD
  6
AUSGEZOGEN
 62
     1
100
AcDbCircle
 10
1800.585491414526
 20
967.8135317370671
 30
0.0
 40
3.25
  0
CIRCLE
  5
86A
330
1F
100
AcDbEntity
  8
BILD
  6
AUSGEZOGEN
 62
     1
100
AcDbCircle
 10
1786.585491414526
 20
967.8135317370671
 30
0.0
 40
3.25
  0
CIRCLE
  5
86B
330
1F
100
AcDbEntity
  8
BILD
  6
AUSGEZOGEN
 62
     1
100
AcDbCircle
 10
1800.585491414526
 20
981.813531737067
 30
0.0
 40
3.25
  0
CIRCLE
  5
86C
330
1F
100
AcDbEntity
  8
BILD
  6
AUSGEZOGEN
 62
     1
100
AcDbCircle
 10
1786.585491414526
 20
981.813531737067
 30
0.0
 40
3.25
  0
CIRCLE
  5
86D
330
1F
100
AcDbEntity
  8
BILD
  6
AUSGEZOGEN
 62
     1
100
AcDbCircle
 10
1800.585491414526
 20
995.813531737067
 30
0.0
 40
3.25
  0
CIRCLE
  5
86E
330
1F
100
AcDbEntity
  8
BILD
  6
AUSGEZOGEN
 62
     1
100
AcDbCircle
 10
1786.585491414526
 20
995.813531737067
 30
0.0
 40
3.25
  0
CIRCLE
  5
86F
330
1F
100
AcDbEntity
  8
BILD
  6
AUSGEZOGEN
 62
     1
100
AcDbCircle
 10
1800.585491414526
 20
1009.813531737067
 30
0.0
 40
3.25
  0
CIRCLE
  5
870
330
1F
100
AcDbEntity
  8
BILD
  6
AUSGEZOGEN
 62
     1
100
AcDbCircle
 10
1786.585491414526
 20
1009.813531737067
 30
0.0
 40
3.25
  0
CIRCLE
  5
871
330
1F
100
AcDbEntity
  8
BILD
  6
AUSGEZOGEN
 62
     1
100
AcDbCircle
 10
1800.585491414526
 20
1023.813531737067
 30
0.0
 40
3.25
  0
CIRCLE
  5
872
330
1F
100
AcDbEntity
  8
BILD
  6
AUSGEZOGEN
 62
     1
100
AcDbCircle
 10
1786.585491414526
 20
1023.813531737067
 30
0.0
 40
3.25
  0
CIRCLE
  5
873
330
1F
100
AcDbEntity
  8
BILD
  6
AUSGEZOGEN
 62
     1
100
AcDbCircle
 10
1800.585491414526
 20
1037.813531737067
 30
0.0
 40
3.25
  0
CIRCLE
  5
874
330
1F
100
AcDbEntity
  8
BILD
  6
AUSGEZOGEN
 62
     1
100
AcDbCircle
 10
1786.585491414526
 20
1037.813531737067
 30
0.0
 40
3.25
  0
CIRCLE
  5
875
330
1F
100
AcDbEntity
  8
BILD
  6
AUSGEZOGEN
 62
     1
100
AcDbCircle
 10
1772.585491414526
 20
925.8136538070667
 30
0.0
 40
3.25
  0
CIRCLE
  5
876
330
1F
100
AcDbEntity
  8
BILD
  6
AUSGEZOGEN
 62
     1
100
AcDbCircle
 10
1758.585491414526
 20
925.8135317370671
 30
0.0
 40
3.25
  0
CIRCLE
  5
877
330
1F
100
AcDbEntity
  8
BILD
  6
AUSGEZOGEN
 62
     1
100
AcDbCircle
 10
1772.585491414526
 20
939.813531737067
 30
0.0
 40
3.25
  0
CIRCLE
  5
878
330
1F
100
AcDbEntity
  8
BILD
  6
AUSGEZOGEN
 62
     1
100
AcDbCircle
 10
1758.585491414526
 20
939.813531737067
 30
0.0
 40
3.25
  0
CIRCLE
  5
879
330
1F
100
AcDbEntity
  8
BILD
  6
AUSGEZOGEN
 62
     1
100
AcDbCircle
 10
1772.585491414526
 20
953.813531737067
 30
0.0
 40
3.25
  0
CIRCLE
  5
87A
330
1F
100
AcDbEntity
  8
BILD
  6
AUSGEZOGEN
 62
     1
100
AcDbCircle
 10
1758.585491414526
 20
953.813531737067
 30
0.0
 40
3.25
  0
CIRCLE
  5
87B
330
1F
100
AcDbEntity
  8
BILD
  6
AUSGEZOGEN
 62
     1
100
AcDbCircle
 10
1772.585491414526
 20
967.8135317370671
 30
0.0
 40
3.25
  0
CIRCLE
  5
87C
330
1F
100
AcDbEntity
  8
BILD
  6
AUSGEZOGEN
 62
     1
100
AcDbCircle
 10
1758.585491414526
 20
967.8135317370671
 30
0.0
 40
3.25
  0
CIRCLE
  5
87D
330
1F
100
AcDbEntity
  8
BILD
  6
AUSGEZOGEN
 62
     1
100
AcDbCircle
 10
1772.585491414526
 20
981.813531737067
 30
0.0
 40
3.25
  0
CIRCLE
  5
87E
330
1F
100
AcDbEntity
  8
BILD
  6
AUSGEZOGEN
 62
     1
100
AcDbCircle
 10
1758.585491414526
 20
981.813531737067
 30
0.0
 40
3.25
  0
CIRCLE
  5
87F
330
1F
100
AcDbEntity
  8
BILD
  6
AUSGEZOGEN
 62
     1
100
AcDbCircle
 10
1772.585491414526
 20
995.813531737067
 30
0.0
 40
3.25
  0
CIRCLE
  5
880
330
1F
100
AcDbEntity
  8
BILD
  6
AUSGEZOGEN
 62
     1
100
AcDbCircle
 10
1758.585491414526
 20
995.813531737067
 30
0.0
 40
3.25
  0
CIRCLE
  5
881
330
1F
100
AcDbEntity
  8
BILD
  6
AUSGEZOGEN
 62
     1
100
AcDbCircle
 10
1772.585491414526
 20
1009.813531737067
 30
0.0
 40
3.25
  0
CIRCLE
  5
882
330
1F
100
AcDbEntity
  8
BILD
  6
AUSGEZOGEN
 62
     1
100
AcDbCircle
 10
1758.585491414526
 20
1009.813531737067
 30
0.0
 40
3.25
  0
CIRCLE
  5
883
330
1F
100
AcDbEntity
  8
BILD
  6
AUSGEZOGEN
 62
     1
100
AcDbCircle
 10
1772.585491414526
 20
1023.813531737067
 30
0.0
 40
3.25
  0
CIRCLE
  5
884
330
1F
100
AcDbEntity
  8
BILD
  6
AUSGEZOGEN
 62
     1
100
AcDbCircle
 10
1758.585491414526
 20
1023.813531737067
 30
0.0
 40
3.25
  0
CIRCLE
  5
885
330
1F
100
AcDbEntity
  8
BILD
  6
AUSGEZOGEN
 62
     1
100
AcDbCircle
 10
1772.585491414526
 20
1037.813531737067
 30
0.0
 40
3.25
  0
CIRCLE
  5
886
330
1F
100
AcDbEntity
  8
BILD
  6
AUSGEZOGEN
 62
     1
100
AcDbCircle
 10
1758.585491414526
 20
1037.813531737067
 30
0.0
 40
3.25
  0
CIRCLE
  5
887
330
1F
100
AcDbEntity
  8
BILD
  6
AUSGEZOGEN
 62
     1
100
AcDbCircle
 10
1744.585491414526
 20
925.8136538070667
 30
0.0
 40
3.25
  0
CIRCLE
  5
888
330
1F
100
AcDbEntity
  8
BILD
  6
AUSGEZOGEN
 62
     1
100
AcDbCircle
 10
1730.585491414527
 20
925.8135317370671
 30
0.0
 40
3.25
  0
CIRCLE
  5
889
330
1F
100
AcDbEntity
  8
BILD
  6
AUSGEZOGEN
 62
     1
100
AcDbCircle
 10
1744.585491414526
 20
939.813531737067
 30
0.0
 40
3.25
  0
CIRCLE
  5
88A
330
1F
100
AcDbEntity
  8
BILD
  6
AUSGEZOGEN
 62
     1
100
AcDbCircle
 10
1730.585491414527
 20
939.813531737067
 30
0.0
 40
3.25
  0
CIRCLE
  5
88B
330
1F
100
AcDbEntity
  8
BILD
  6
AUSGEZOGEN
 62
     1
100
AcDbCircle
 10
1744.585491414526
 20
953.813531737067
 30
0.0
 40
3.25
  0
CIRCLE
  5
88C
330
1F
100
AcDbEntity
  8
BILD
  6
AUSGEZOGEN
 62
     1
100
AcDbCircle
 10
1730.585491414527
 20
953.813531737067
 30
0.0
 40
3.25
  0
CIRCLE
  5
88D
330
1F
100
AcDbEntity
  8
BILD
  6
AUSGEZOGEN
 62
     1
100
AcDbCircle
 10
1744.585491414526
 20
967.8135317370671
 30
0.0
 40
3.25
  0
CIRCLE
  5
88E
330
1F
100
AcDbEntity
  8
BILD
  6
AUSGEZOGEN
 62
     1
100
AcDbCircle
 10
1730.585491414527
 20
967.8135317370671
 30
0.0
 40
3.25
  0
CIRCLE
  5
88F
330
1F
100
AcDbEntity
  8
BILD
  6
AUSGEZOGEN
 62
     1
100
AcDbCircle
 10
1744.585491414526
 20
981.813531737067
 30
0.0
 40
3.25
  0
CIRCLE
  5
890
330
1F
100
AcDbEntity
  8
BILD
  6
AUSGEZOGEN
 62
     1
100
AcDbCircle
 10
1730.585491414527
 20
981.813531737067
 30
0.0
 40
3.25
  0
CIRCLE
  5
891
330
1F
100
AcDbEntity
  8
BILD
  6
AUSGEZOGEN
 62
     1
100
AcDbCircle
 10
1744.585491414526
 20
995.813531737067
 30
0.0
 40
3.25
  0
CIRCLE
  5
892
330
1F
100
AcDbEntity
  8
BILD
  6
AUSGEZOGEN
 62
     1
100
AcDbCircle
 10
1730.585491414527
 20
995.813531737067
 30
0.0
 40
3.25
  0
CIRCLE
  5
893
330
1F
100
AcDbEntity
  8
BILD
  6
AUSGEZOGEN
 62
     1
100
AcDbCircle
 10
1744.585491414526
 20
1009.813531737067
 30
0.0
 40
3.25
  0
CIRCLE
  5
894
330
1F
100
AcDbEntity
  8
BILD
  6
AUSGEZOGEN
 62
     1
100
AcDbCircle
 10
1730.585491414527
 20
1009.813531737067
 30
0.0
 40
3.25
  0
CIRCLE
  5
895
330
1F
100
AcDbEntity
  8
BILD
  6
AUSGEZOGEN
 62
     1
100
AcDbCircle
 10
1744.585491414526
 20
1023.813531737067
 30
0.0
 40
3.25
  0
CIRCLE
  5
896
330
1F
100
AcDbEntity
  8
BILD
  6
AUSGEZOGEN
 62
     1
100
AcDbCircle
 10
1730.585491414527
 20
1023.813531737067
 30
0.0
 40
3.25
  0
CIRCLE
  5
897
330
1F
100
AcDbEntity
  8
BILD
  6
AUSGEZOGEN
 62
     1
100
AcDbCircle
 10
1744.585491414526
 20
1037.813531737067
 30
0.0
 40
3.25
  0
CIRCLE
  5
898
330
1F
100
AcDbEntity
  8
BILD
  6
AUSGEZOGEN
 62
     1
100
AcDbCircle
 10
1730.585491414527
 20
1037.813531737067
 30
0.0
 40
3.25
  0
CIRCLE
  5
899
330
1F
100
AcDbEntity
  8
BILD
  6
AUSGEZOGEN
 62
     1
100
AcDbCircle
 10
1744.585491414526
 20
1163.813653807066
 30
0.0
 40
3.25
  0
CIRCLE
  5
89A
330
1F
100
AcDbEntity
  8
BILD
  6
AUSGEZOGEN
 62
     1
100
AcDbCircle
 10
1730.585491414527
 20
1163.813653807066
 30
0.0
 40
3.25
  0
CIRCLE
  5
89B
330
1F
100
AcDbEntity
  8
BILD
  6
AUSGEZOGEN
 62
     1
100
AcDbCircle
 10
1744.585491414526
 20
1149.813653807066
 30
0.0
 40
3.25
  0
CIRCLE
  5
89C
330
1F
100
AcDbEntity
  8
BILD
  6
AUSGEZOGEN
 62
     1
100
AcDbCircle
 10
1730.585491414527
 20
1149.813653807066
 30
0.0
 40
3.25
  0
CIRCLE
  5
89D
330
1F
100
AcDbEntity
  8
BILD
  6
AUSGEZOGEN
 62
     1
100
AcDbCircle
 10
1744.585491414526
 20
1135.813653807066
 30
0.0
 40
3.25
  0
CIRCLE
  5
89E
330
1F
100
AcDbEntity
  8
BILD
  6
AUSGEZOGEN
 62
     1
100
AcDbCircle
 10
1730.585491414527
 20
1135.813653807066
 30
0.0
 40
3.25
  0
CIRCLE
  5
89F
330
1F
100
AcDbEntity
  8
BILD
  6
AUSGEZOGEN
 62
     1
100
AcDbCircle
 10
1744.585491414526
 20
1121.813653807066
 30
0.0
 40
3.25
  0
CIRCLE
  5
8A0
330
1F
100
AcDbEntity
  8
BILD
  6
AUSGEZOGEN
 62
     1
100
AcDbCircle
 10
1730.585491414527
 20
1121.813653807066
 30
0.0
 40
3.25
  0
CIRCLE
  5
8A1
330
1F
100
AcDbEntity
  8
BILD
  6
AUSGEZOGEN
 62
     1
100
AcDbCircle
 10
1744.585491414526
 20
1107.813653807066
 30
0.0
 40
3.25
  0
CIRCLE
  5
8A2
330
1F
100
AcDbEntity
  8
BILD
  6
AUSGEZOGEN
 62
     1
100
AcDbCircle
 10
1730.585491414527
 20
1107.813653807066
 30
0.0
 40
3.25
  0
CIRCLE
  5
8A3
330
1F
100
AcDbEntity
  8
BILD
  6
AUSGEZOGEN
 62
     1
100
AcDbCircle
 10
1744.585491414526
 20
1093.813653807067
 30
0.0
 40
3.25
  0
CIRCLE
  5
8A4
330
1F
100
AcDbEntity
  8
BILD
  6
AUSGEZOGEN
 62
     1
100
AcDbCircle
 10
1730.585491414527
 20
1093.813653807067
 30
0.0
 40
3.25
  0
CIRCLE
  5
8A5
330
1F
100
AcDbEntity
  8
BILD
  6
AUSGEZOGEN
 62
     1
100
AcDbCircle
 10
1744.585491414526
 20
1079.813653807066
 30
0.0
 40
3.25
  0
CIRCLE
  5
8A6
330
1F
100
AcDbEntity
  8
BILD
  6
AUSGEZOGEN
 62
     1
100
AcDbCircle
 10
1730.585491414527
 20
1079.813653807066
 30
0.0
 40
3.25
  0
CIRCLE
  5
8A7
330
1F
100
AcDbEntity
  8
BILD
  6
AUSGEZOGEN
 62
     1
100
AcDbCircle
 10
1744.585491414526
 20
1065.813653807066
 30
0.0
 40
3.25
  0
CIRCLE
  5
8A8
330
1F
100
AcDbEntity
  8
BILD
  6
AUSGEZOGEN
 62
     1
100
AcDbCircle
 10
1730.585491414527
 20
1065.813653807066
 30
0.0
 40
3.25
  0
CIRCLE
  5
8A9
330
1F
100
AcDbEntity
  8
BILD
  6
AUSGEZOGEN
 62
     1
100
AcDbCircle
 10
1744.585491414526
 20
1051.813653807067
 30
0.0
 40
3.25
  0
CIRCLE
  5
8AA
330
1F
100
AcDbEntity
  8
BILD
  6
AUSGEZOGEN
 62
     1
100
AcDbCircle
 10
1730.585491414527
 20
1051.813653807067
 30
0.0
 40
3.25
  0
CIRCLE
  5
8AB
330
1F
100
AcDbEntity
  8
BILD
  6
AUSGEZOGEN
 62
     1
100
AcDbCircle
 10
1793.585491414527
 20
1184.813653807067
 30
0.0
 40
3.5
  0
CIRCLE
  5
8AC
330
1F
100
AcDbEntity
  8
BILD
  6
AUSGEZOGEN
 62
     1
100
AcDbCircle
 10
1793.585491414527
 20
1156.813653807066
 30
0.0
 40
3.5
  0
CIRCLE
  5
8AD
330
1F
100
AcDbEntity
  8
BILD
  6
AUSGEZOGEN
 62
     1
100
AcDbCircle
 10
1793.585491414527
 20
1128.813653807066
 30
0.0
 40
3.5
  0
CIRCLE
  5
8AE
330
1F
100
AcDbEntity
  8
BILD
  6
AUSGEZOGEN
 62
     1
100
AcDbCircle
 10
1793.585491414527
 20
1100.813653807066
 30
0.0
 40
3.5
  0
CIRCLE
  5
8AF
330
1F
100
AcDbEntity
  8
BILD
  6
AUSGEZOGEN
 62
     1
100
AcDbCircle
 10
1793.585491414527
 20
1072.813653807066
 30
0.0
 40
3.5
  0
CIRCLE
  5
8B0
330
1F
100
AcDbEntity
  8
BILD
  6
AUSGEZOGEN
 62
     1
100
AcDbCircle
 10
1793.585491414527
 20
904.813531737067
 30
0.0
 40
3.5
  0
CIRCLE
  5
8B1
330
1F
100
AcDbEntity
  8
BILD
  6
AUSGEZOGEN
 62
     1
100
AcDbCircle
 10
1793.585491414527
 20
932.8135317370669
 30
0.0
 40
3.5
  0
CIRCLE
  5
8B2
330
1F
100
AcDbEntity
  8
BILD
  6
AUSGEZOGEN
 62
     1
100
AcDbCircle
 10
1793.585491414527
 20
960.813531737067
 30
0.0
 40
3.5
  0
CIRCLE
  5
8B3
330
1F
100
AcDbEntity
  8
BILD
  6
AUSGEZOGEN
 62
     1
100
AcDbCircle
 10
1793.585491414527
 20
988.813531737067
 30
0.0
 40
3.5
  0
CIRCLE
  5
8B4
330
1F
100
AcDbEntity
  8
BILD
  6
AUSGEZOGEN
 62
     1
100
AcDbCircle
 10
1793.585491414527
 20
1016.813531737067
 30
0.0
 40
3.5
  0
CIRCLE
  5
8B5
330
1F
100
AcDbEntity
  8
BILD
  6
AUSGEZOGEN
 62
     1
100
AcDbCircle
 10
1751.585491414526
 20
1184.813653807067
 30
0.0
 40
3.5
  0
CIRCLE
  5
8B6
330
1F
100
AcDbEntity
  8
BILD
  6
AUSGEZOGEN
 62
     1
100
AcDbCircle
 10
1751.585491414526
 20
1156.813653807066
 30
0.0
 40
3.5
  0
CIRCLE
  5
8B7
330
1F
100
AcDbEntity
  8
BILD
  6
AUSGEZOGEN
 62
     1
100
AcDbCircle
 10
1751.585491414526
 20
1128.813653807066
 30
0.0
 40
3.5
  0
CIRCLE
  5
8B8
330
1F
100
AcDbEntity
  8
BILD
  6
AUSGEZOGEN
 62
     1
100
AcDbCircle
 10
1751.585491414526
 20
1100.813653807066
 30
0.0
 40
3.5
  0
CIRCLE
  5
8B9
330
1F
100
AcDbEntity
  8
BILD
  6
AUSGEZOGEN
 62
     1
100
AcDbCircle
 10
1751.585491414526
 20
1072.813653807066
 30
0.0
 40
3.5
  0
CIRCLE
  5
8BA
330
1F
100
AcDbEntity
  8
BILD
  6
AUSGEZOGEN
 62
     1
100
AcDbCircle
 10
1751.585491414526
 20
904.813531737067
 30
0.0
 40
3.5
  0
CIRCLE
  5
8BB
330
1F
100
AcDbEntity
  8
BILD
  6
AUSGEZOGEN
 62
     1
100
AcDbCircle
 10
1751.585491414526
 20
932.8135317370669
 30
0.0
 40
3.5
  0
CIRCLE
  5
8BC
330
1F
100
AcDbEntity
  8
BILD
  6
AUSGEZOGEN
 62
     1
100
AcDbCircle
 10
1751.585491414526
 20
960.813531737067
 30
0.0
 40
3.5
  0
CIRCLE
  5
8BD
330
1F
100
AcDbEntity
  8
BILD
  6
AUSGEZOGEN
 62
     1
100
AcDbCircle
 10
1751.585491414526
 20
988.813531737067
 30
0.0
 40
3.5
  0
CIRCLE
  5
8BE
330
1F
100
AcDbEntity
  8
BILD
  6
AUSGEZOGEN
 62
     1
100
AcDbCircle
 10
1751.585491414526
 20
1016.813531737067
 30
0.0
 40
3.5
  0
CIRCLE
  5
8BF
330
1F
100
AcDbEntity
  8
BILD
  6
AUSGEZOGEN
 62
     1
100
AcDbCircle
 10
1709.585491414526
 20
1184.813653807067
 30
0.0
 40
3.5
  0
CIRCLE
  5
8C0
330
1F
100
AcDbEntity
  8
BILD
  6
AUSGEZOGEN
 62
     1
100
AcDbCircle
 10
1709.585491414526
 20
1156.813653807066
 30
0.0
 40
3.5
  0
CIRCLE
  5
8C1
330
1F
100
AcDbEntity
  8
BILD
  6
AUSGEZOGEN
 62
     1
100
AcDbCircle
 10
1709.585491414526
 20
1128.813653807066
 30
0.0
 40
3.5
  0
CIRCLE
  5
8C2
330
1F
100
AcDbEntity
  8
BILD
  6
AUSGEZOGEN
 62
     1
100
AcDbCircle
 10
1709.585491414526
 20
1100.813653807066
 30
0.0
 40
3.5
  0
CIRCLE
  5
8C3
330
1F
100
AcDbEntity
  8
BILD
  6
AUSGEZOGEN
 62
     1
100
AcDbCircle
 10
1709.585491414526
 20
1072.813653807066
 30
0.0
 40
3.5
  0
CIRCLE
  5
8C4
330
1F
100
AcDbEntity
  8
BILD
  6
AUSGEZOGEN
 62
     1
100
AcDbCircle
 10
1709.585491414526
 20
904.813531737067
 30
0.0
 40
3.5
  0
CIRCLE
  5
8C5
330
1F
100
AcDbEntity
  8
BILD
  6
AUSGEZOGEN
 62
     1
100
AcDbCircle
 10
1709.585491414526
 20
932.8135317370669
 30
0.0
 40
3.5
  0
CIRCLE
  5
8C6
330
1F
100
AcDbEntity
  8
BILD
  6
AUSGEZOGEN
 62
     1
100
AcDbCircle
 10
1709.585491414526
 20
960.813531737067
 30
0.0
 40
3.5
  0
CIRCLE
  5
8C7
330
1F
100
AcDbEntity
  8
BILD
  6
AUSGEZOGEN
 62
     1
100
AcDbCircle
 10
1709.585491414526
 20
988.813531737067
 30
0.0
 40
3.5
  0
CIRCLE
  5
8C8
330
1F
100
AcDbEntity
  8
BILD
  6
AUSGEZOGEN
 62
     1
100
AcDbCircle
 10
1709.585491414526
 20
1016.813531737067
 30
0.0
 40
3.5
  0
CIRCLE
  5
8C9
330
1F
100
AcDbEntity
  8
BILD
  6
AUSGEZOGEN
 62
     1
100
AcDbCircle
 10
1856.585491414526
 20
1163.813653807066
 30
0.0
 40
3.25
  0
CIRCLE
  5
8CA
330
1F
100
AcDbEntity
  8
BILD
  6
AUSGEZOGEN
 62
     1
100
AcDbCircle
 10
1842.585491414526
 20
1163.813653807066
 30
0.0
 40
3.25
  0
CIRCLE
  5
8CB
330
1F
100
AcDbEntity
  8
BILD
  6
AUSGEZOGEN
 62
     1
100
AcDbCircle
 10
1856.585491414526
 20
1149.813653807066
 30
0.0
 40
3.25
  0
CIRCLE
  5
8CC
330
1F
100
AcDbEntity
  8
BILD
  6
AUSGEZOGEN
 62
     1
100
AcDbCircle
 10
1842.585491414526
 20
1149.813653807066
 30
0.0
 40
3.25
  0
CIRCLE
  5
8CD
330
1F
100
AcDbEntity
  8
BILD
  6
AUSGEZOGEN
 62
     1
100
AcDbCircle
 10
1856.585491414526
 20
1135.813653807066
 30
0.0
 40
3.25
  0
CIRCLE
  5
8CE
330
1F
100
AcDbEntity
  8
BILD
  6
AUSGEZOGEN
 62
     1
100
AcDbCircle
 10
1842.585491414526
 20
1135.813653807066
 30
0.0
 40
3.25
  0
CIRCLE
  5
8CF
330
1F
100
AcDbEntity
  8
BILD
  6
AUSGEZOGEN
 62
     1
100
AcDbCircle
 10
1856.585491414526
 20
1121.813653807066
 30
0.0
 40
3.25
  0
CIRCLE
  5
8D0
330
1F
100
AcDbEntity
  8
BILD
  6
AUSGEZOGEN
 62
     1
100
AcDbCircle
 10
1842.585491414526
 20
1121.813653807066
 30
0.0
 40
3.25
  0
CIRCLE
  5
8D1
330
1F
100
AcDbEntity
  8
BILD
  6
AUSGEZOGEN
 62
     1
100
AcDbCircle
 10
1856.585491414526
 20
1107.813653807066
 30
0.0
 40
3.25
  0
CIRCLE
  5
8D2
330
1F
100
AcDbEntity
  8
BILD
  6
AUSGEZOGEN
 62
     1
100
AcDbCircle
 10
1842.585491414526
 20
1107.813653807066
 30
0.0
 40
3.25
  0
CIRCLE
  5
8D3
330
1F
100
AcDbEntity
  8
BILD
  6
AUSGEZOGEN
 62
     1
100
AcDbCircle
 10
1856.585491414526
 20
1093.813653807067
 30
0.0
 40
3.25
  0
CIRCLE
  5
8D4
330
1F
100
AcDbEntity
  8
BILD
  6
AUSGEZOGEN
 62
     1
100
AcDbCircle
 10
1842.585491414526
 20
1093.813653807067
 30
0.0
 40
3.25
  0
CIRCLE
  5
8D5
330
1F
100
AcDbEntity
  8
BILD
  6
AUSGEZOGEN
 62
     1
100
AcDbCircle
 10
1856.585491414526
 20
1079.813653807066
 30
0.0
 40
3.25
  0
CIRCLE
  5
8D6
330
1F
100
AcDbEntity
  8
BILD
  6
AUSGEZOGEN
 62
     1
100
AcDbCircle
 10
1842.585491414526
 20
1079.813653807066
 30
0.0
 40
3.25
  0
CIRCLE
  5
8D7
330
1F
100
AcDbEntity
  8
BILD
  6
AUSGEZOGEN
 62
     1
100
AcDbCircle
 10
1856.585491414526
 20
1065.813653807066
 30
0.0
 40
3.25
  0
CIRCLE
  5
8D8
330
1F
100
AcDbEntity
  8
BILD
  6
AUSGEZOGEN
 62
     1
100
AcDbCircle
 10
1842.585491414526
 20
1065.813653807066
 30
0.0
 40
3.25
  0
CIRCLE
  5
8D9
330
1F
100
AcDbEntity
  8
BILD
  6
AUSGEZOGEN
 62
     1
100
AcDbCircle
 10
1856.585491414526
 20
1051.813653807067
 30
0.0
 40
3.25
  0
CIRCLE
  5
8DA
330
1F
100
AcDbEntity
  8
BILD
  6
AUSGEZOGEN
 62
     1
100
AcDbCircle
 10
1842.585491414526
 20
1051.813653807067
 30
0.0
 40
3.25
  0
CIRCLE
  5
8DB
330
1F
100
AcDbEntity
  8
BILD
  6
AUSGEZOGEN
 62
     1
100
AcDbCircle
 10
1856.585491414526
 20
925.8136538070667
 30
0.0
 40
3.25
  0
CIRCLE
  5
8DC
330
1F
100
AcDbEntity
  8
BILD
  6
AUSGEZOGEN
 62
     1
100
AcDbCircle
 10
1842.585491414526
 20
925.8135317370671
 30
0.0
 40
3.25
  0
CIRCLE
  5
8DD
330
1F
100
AcDbEntity
  8
BILD
  6
AUSGEZOGEN
 62
     1
100
AcDbCircle
 10
1856.585491414526
 20
939.813531737067
 30
0.0
 40
3.25
  0
CIRCLE
  5
8DE
330
1F
100
AcDbEntity
  8
BILD
  6
AUSGEZOGEN
 62
     1
100
AcDbCircle
 10
1842.585491414526
 20
939.813531737067
 30
0.0
 40
3.25
  0
CIRCLE
  5
8DF
330
1F
100
AcDbEntity
  8
BILD
  6
AUSGEZOGEN
 62
     1
100
AcDbCircle
 10
1856.585491414526
 20
953.813531737067
 30
0.0
 40
3.25
  0
CIRCLE
  5
8E0
330
1F
100
AcDbEntity
  8
BILD
  6
AUSGEZOGEN
 62
     1
100
AcDbCircle
 10
1842.585491414526
 20
953.813531737067
 30
0.0
 40
3.25
  0
CIRCLE
  5
8E1
330
1F
100
AcDbEntity
  8
BILD
  6
AUSGEZOGEN
 62
     1
100
AcDbCircle
 10
1856.585491414526
 20
967.8135317370671
 30
0.0
 40
3.25
  0
CIRCLE
  5
8E2
330
1F
100
AcDbEntity
  8
BILD
  6
AUSGEZOGEN
 62
     1
100
AcDbCircle
 10
1842.585491414526
 20
967.8135317370671
 30
0.0
 40
3.25
  0
CIRCLE
  5
8E3
330
1F
100
AcDbEntity
  8
BILD
  6
AUSGEZOGEN
 62
     1
100
AcDbCircle
 10
1856.585491414526
 20
981.813531737067
 30
0.0
 40
3.25
  0
CIRCLE
  5
8E4
330
1F
100
AcDbEntity
  8
BILD
  6
AUSGEZOGEN
 62
     1
100
AcDbCircle
 10
1842.585491414526
 20
981.813531737067
 30
0.0
 40
3.25
  0
CIRCLE
  5
8E5
330
1F
100
AcDbEntity
  8
BILD
  6
AUSGEZOGEN
 62
     1
100
AcDbCircle
 10
1856.585491414526
 20
995.813531737067
 30
0.0
 40
3.25
  0
CIRCLE
  5
8E6
330
1F
100
AcDbEntity
  8
BILD
  6
AUSGEZOGEN
 62
     1
100
AcDbCircle
 10
1842.585491414526
 20
995.813531737067
 30
0.0
 40
3.25
  0
CIRCLE
  5
8E7
330
1F
100
AcDbEntity
  8
BILD
  6
AUSGEZOGEN
 62
     1
100
AcDbCircle
 10
1856.585491414526
 20
1009.813531737067
 30
0.0
 40
3.25
  0
CIRCLE
  5
8E8
330
1F
100
AcDbEntity
  8
BILD
  6
AUSGEZOGEN
 62
     1
100
AcDbCircle
 10
1842.585491414526
 20
1009.813531737067
 30
0.0
 40
3.25
  0
CIRCLE
  5
8E9
330
1F
100
AcDbEntity
  8
BILD
  6
AUSGEZOGEN
 62
     1
100
AcDbCircle
 10
1856.585491414526
 20
1023.813531737067
 30
0.0
 40
3.25
  0
CIRCLE
  5
8EA
330
1F
100
AcDbEntity
  8
BILD
  6
AUSGEZOGEN
 62
     1
100
AcDbCircle
 10
1842.585491414526
 20
1023.813531737067
 30
0.0
 40
3.25
  0
CIRCLE
  5
8EB
330
1F
100
AcDbEntity
  8
BILD
  6
AUSGEZOGEN
 62
     1
100
AcDbCircle
 10
1856.585491414526
 20
1037.813531737067
 30
0.0
 40
3.25
  0
CIRCLE
  5
8EC
330
1F
100
AcDbEntity
  8
BILD
  6
AUSGEZOGEN
 62
     1
100
AcDbCircle
 10
1842.585491414526
 20
1037.813531737067
 30
0.0
 40
3.25
  0
CIRCLE
  5
8ED
330
1F
100
AcDbEntity
  8
BILD
  6
AUSGEZOGEN
 62
     1
100
AcDbCircle
 10
1835.585491414526
 20
1184.813653807067
 30
0.0
 40
3.5
  0
CIRCLE
  5
8EE
330
1F
100
AcDbEntity
  8
BILD
  6
AUSGEZOGEN
 62
     1
100
AcDbCircle
 10
1835.585491414526
 20
1156.813653807066
 30
0.0
 40
3.5
  0
CIRCLE
  5
8EF
330
1F
100
AcDbEntity
  8
BILD
  6
AUSGEZOGEN
 62
     1
100
AcDbCircle
 10
1835.585491414526
 20
1128.813653807066
 30
0.0
 40
3.5
  0
CIRCLE
  5
8F0
330
1F
100
AcDbEntity
  8
BILD
  6
AUSGEZOGEN
 62
     1
100
AcDbCircle
 10
1835.585491414526
 20
1100.813653807066
 30
0.0
 40
3.5
  0
CIRCLE
  5
8F1
330
1F
100
AcDbEntity
  8
BILD
  6
AUSGEZOGEN
 62
     1
100
AcDbCircle
 10
1835.585491414526
 20
1072.813653807066
 30
0.0
 40
3.5
  0
CIRCLE
  5
8F2
330
1F
100
AcDbEntity
  8
BILD
  6
AUSGEZOGEN
 62
     1
100
AcDbCircle
 10
1835.585491414526
 20
904.813531737067
 30
0.0
 40
3.5
  0
CIRCLE
  5
8F3
330
1F
100
AcDbEntity
  8
BILD
  6
AUSGEZOGEN
 62
     1
100
AcDbCircle
 10
1835.585491414526
 20
932.8135317370669
 30
0.0
 40
3.5
  0
CIRCLE
  5
8F4
330
1F
100
AcDbEntity
  8
BILD
  6
AUSGEZOGEN
 62
     1
100
AcDbCircle
 10
1835.585491414526
 20
960.813531737067
 30
0.0
 40
3.5
  0
CIRCLE
  5
8F5
330
1F
100
AcDbEntity
  8
BILD
  6
AUSGEZOGEN
 62
     1
100
AcDbCircle
 10
1835.585491414526
 20
988.813531737067
 30
0.0
 40
3.5
  0
CIRCLE
  5
8F6
330
1F
100
AcDbEntity
  8
BILD
  6
AUSGEZOGEN
 62
     1
100
AcDbCircle
 10
1835.585491414526
 20
1016.813531737067
 30
0.0
 40
3.5
  0
CIRCLE
  5
8F7
330
1F
100
AcDbEntity
  8
BILD
  6
AUSGEZOGEN
 62
     1
100
AcDbCircle
 10
2087.585491414527
 20
1184.813653807067
 30
0.0
 40
3.5
  0
CIRCLE
  5
8F8
330
1F
100
AcDbEntity
  8
BILD
  6
AUSGEZOGEN
 62
     1
100
AcDbCircle
 10
2087.585491414527
 20
1156.813653807066
 30
0.0
 40
3.5
  0
CIRCLE
  5
8F9
330
1F
100
AcDbEntity
  8
BILD
  6
AUSGEZOGEN
 62
     1
100
AcDbCircle
 10
2087.585491414527
 20
1128.813653807066
 30
0.0
 40
3.5
  0
CIRCLE
  5
8FA
330
1F
100
AcDbEntity
  8
BILD
  6
AUSGEZOGEN
 62
     1
100
AcDbCircle
 10
2087.585491414527
 20
1100.813653807066
 30
0.0
 40
3.5
  0
CIRCLE
  5
8FB
330
1F
100
AcDbEntity
  8
BILD
  6
AUSGEZOGEN
 62
     1
100
AcDbCircle
 10
2087.585491414527
 20
1072.813653807066
 30
0.0
 40
3.5
  0
CIRCLE
  5
8FC
330
1F
100
AcDbEntity
  8
BILD
  6
AUSGEZOGEN
 62
     1
100
AcDbCircle
 10
2087.585491414527
 20
904.813531737067
 30
0.0
 40
3.5
  0
CIRCLE
  5
8FD
330
1F
100
AcDbEntity
  8
BILD
  6
AUSGEZOGEN
 62
     1
100
AcDbCircle
 10
2087.585491414527
 20
932.8135317370669
 30
0.0
 40
3.5
  0
CIRCLE
  5
8FE
330
1F
100
AcDbEntity
  8
BILD
  6
AUSGEZOGEN
 62
     1
100
AcDbCircle
 10
2087.585491414527
 20
960.813531737067
 30
0.0
 40
3.5
  0
CIRCLE
  5
8FF
330
1F
100
AcDbEntity
  8
BILD
  6
AUSGEZOGEN
 62
     1
100
AcDbCircle
 10
2087.585491414527
 20
988.813531737067
 30
0.0
 40
3.5
  0
CIRCLE
  5
900
330
1F
100
AcDbEntity
  8
BILD
  6
AUSGEZOGEN
 62
     1
100
AcDbCircle
 10
2087.585491414527
 20
1016.813531737067
 30
0.0
 40
3.5
  0
CIRCLE
  5
901
330
1F
100
AcDbEntity
  8
BILD
  6
AUSGEZOGEN
 62
     1
100
AcDbCircle
 10
2045.585491414527
 20
1184.813653807067
 30
0.0
 40
3.5
  0
CIRCLE
  5
902
330
1F
100
AcDbEntity
  8
BILD
  6
AUSGEZOGEN
 62
     1
100
AcDbCircle
 10
2045.585491414527
 20
1156.813653807066
 30
0.0
 40
3.5
  0
CIRCLE
  5
903
330
1F
100
AcDbEntity
  8
BILD
  6
AUSGEZOGEN
 62
     1
100
AcDbCircle
 10
2045.585491414527
 20
1128.813653807066
 30
0.0
 40
3.5
  0
CIRCLE
  5
904
330
1F
100
AcDbEntity
  8
BILD
  6
AUSGEZOGEN
 62
     1
100
AcDbCircle
 10
2045.585491414527
 20
1100.813653807066
 30
0.0
 40
3.5
  0
CIRCLE
  5
905
330
1F
100
AcDbEntity
  8
BILD
  6
AUSGEZOGEN
 62
     1
100
AcDbCircle
 10
2045.585491414527
 20
1072.813653807066
 30
0.0
 40
3.5
  0
CIRCLE
  5
906
330
1F
100
AcDbEntity
  8
BILD
  6
AUSGEZOGEN
 62
     1
100
AcDbCircle
 10
2045.585491414527
 20
904.813531737067
 30
0.0
 40
3.5
  0
CIRCLE
  5
907
330
1F
100
AcDbEntity
  8
BILD
  6
AUSGEZOGEN
 62
     1
100
AcDbCircle
 10
2045.585491414527
 20
932.8135317370669
 30
0.0
 40
3.5
  0
CIRCLE
  5
908
330
1F
100
AcDbEntity
  8
BILD
  6
AUSGEZOGEN
 62
     1
100
AcDbCircle
 10
2045.585491414527
 20
960.813531737067
 30
0.0
 40
3.5
  0
CIRCLE
  5
909
330
1F
100
AcDbEntity
  8
BILD
  6
AUSGEZOGEN
 62
     1
100
AcDbCircle
 10
2045.585491414527
 20
988.813531737067
 30
0.0
 40
3.5
  0
CIRCLE
  5
90A
330
1F
100
AcDbEntity
  8
BILD
  6
AUSGEZOGEN
 62
     1
100
AcDbCircle
 10
2045.585491414527
 20
1016.813531737067
 30
0.0
 40
3.5
  0
CIRCLE
  5
90B
330
1F
100
AcDbEntity
  8
BILD
  6
AUSGEZOGEN
 62
     1
100
AcDbCircle
 10
2003.585491414527
 20
1184.813653807067
 30
0.0
 40
3.5
  0
CIRCLE
  5
90C
330
1F
100
AcDbEntity
  8
BILD
  6
AUSGEZOGEN
 62
     1
100
AcDbCircle
 10
2003.585491414527
 20
1156.813653807066
 30
0.0
 40
3.5
  0
CIRCLE
  5
90D
330
1F
100
AcDbEntity
  8
BILD
  6
AUSGEZOGEN
 62
     1
100
AcDbCircle
 10
2003.585491414527
 20
1128.813653807066
 30
0.0
 40
3.5
  0
CIRCLE
  5
90E
330
1F
100
AcDbEntity
  8
BILD
  6
AUSGEZOGEN
 62
     1
100
AcDbCircle
 10
2003.585491414527
 20
1100.813653807066
 30
0.0
 40
3.5
  0
CIRCLE
  5
90F
330
1F
100
AcDbEntity
  8
BILD
  6
AUSGEZOGEN
 62
     1
100
AcDbCircle
 10
2003.585491414527
 20
1072.813653807066
 30
0.0
 40
3.5
  0
CIRCLE
  5
910
330
1F
100
AcDbEntity
  8
BILD
  6
AUSGEZOGEN
 62
     1
100
AcDbCircle
 10
2003.585491414527
 20
904.813531737067
 30
0.0
 40
3.5
  0
CIRCLE
  5
911
330
1F
100
AcDbEntity
  8
BILD
  6
AUSGEZOGEN
 62
     1
100
AcDbCircle
 10
2003.585491414527
 20
932.8135317370669
 30
0.0
 40
3.5
  0
CIRCLE
  5
912
330
1F
100
AcDbEntity
  8
BILD
  6
AUSGEZOGEN
 62
     1
100
AcDbCircle
 10
2003.585491414527
 20
960.813531737067
 30
0.0
 40
3.5
  0
CIRCLE
  5
913
330
1F
100
AcDbEntity
  8
BILD
  6
AUSGEZOGEN
 62
     1
100
AcDbCircle
 10
2003.585491414527
 20
988.813531737067
 30
0.0
 40
3.5
  0
CIRCLE
  5
914
330
1F
100
AcDbEntity
  8
BILD
  6
AUSGEZOGEN
 62
     1
100
AcDbCircle
 10
2003.585491414527
 20
1016.813531737067
 30
0.0
 40
3.5
  0
CIRCLE
  5
915
330
1F
100
AcDbEntity
  8
BILD
  6
AUSGEZOGEN
 62
     1
100
AcDbCircle
 10
1961.585491414527
 20
1184.813653807067
 30
0.0
 40
3.5
  0
CIRCLE
  5
916
330
1F
100
AcDbEntity
  8
BILD
  6
AUSGEZOGEN
 62
     1
100
AcDbCircle
 10
1961.585491414527
 20
1156.813653807066
 30
0.0
 40
3.5
  0
CIRCLE
  5
917
330
1F
100
AcDbEntity
  8
BILD
  6
AUSGEZOGEN
 62
     1
100
AcDbCircle
 10
1961.585491414527
 20
1128.813653807066
 30
0.0
 40
3.5
  0
CIRCLE
  5
918
330
1F
100
AcDbEntity
  8
BILD
  6
AUSGEZOGEN
 62
     1
100
AcDbCircle
 10
1961.585491414527
 20
1100.813653807066
 30
0.0
 40
3.5
  0
CIRCLE
  5
919
330
1F
100
AcDbEntity
  8
BILD
  6
AUSGEZOGEN
 62
     1
100
AcDbCircle
 10
1961.585491414527
 20
1072.813653807066
 30
0.0
 40
3.5
  0
CIRCLE
  5
91A
330
1F
100
AcDbEntity
  8
BILD
  6
AUSGEZOGEN
 62
     1
100
AcDbCircle
 10
1961.585491414527
 20
904.813531737067
 30
0.0
 40
3.5
  0
CIRCLE
  5
91B
330
1F
100
AcDbEntity
  8
BILD
  6
AUSGEZOGEN
 62
     1
100
AcDbCircle
 10
1961.585491414527
 20
932.8135317370669
 30
0.0
 40
3.5
  0
CIRCLE
  5
91C
330
1F
100
AcDbEntity
  8
BILD
  6
AUSGEZOGEN
 62
     1
100
AcDbCircle
 10
1961.585491414527
 20
960.813531737067
 30
0.0
 40
3.5
  0
CIRCLE
  5
91D
330
1F
100
AcDbEntity
  8
BILD
  6
AUSGEZOGEN
 62
     1
100
AcDbCircle
 10
1961.585491414527
 20
988.813531737067
 30
0.0
 40
3.5
  0
CIRCLE
  5
91E
330
1F
100
AcDbEntity
  8
BILD
  6
AUSGEZOGEN
 62
     1
100
AcDbCircle
 10
1961.585491414527
 20
1016.813531737067
 30
0.0
 40
3.5
  0
CIRCLE
  5
91F
330
1F
100
AcDbEntity
  8
BILD
  6
AUSGEZOGEN
 62
     1
100
AcDbCircle
 10
1919.585491414526
 20
1184.813653807067
 30
0.0
 40
3.5
  0
CIRCLE
  5
920
330
1F
100
AcDbEntity
  8
BILD
  6
AUSGEZOGEN
 62
     1
100
AcDbCircle
 10
1919.585491414526
 20
1156.813653807066
 30
0.0
 40
3.5
  0
CIRCLE
  5
921
330
1F
100
AcDbEntity
  8
BILD
  6
AUSGEZOGEN
 62
     1
100
AcDbCircle
 10
1919.585491414526
 20
1128.813653807066
 30
0.0
 40
3.5
  0
CIRCLE
  5
922
330
1F
100
AcDbEntity
  8
BILD
  6
AUSGEZOGEN
 62
     1
100
AcDbCircle
 10
1919.585491414526
 20
1100.813653807066
 30
0.0
 40
3.5
  0
CIRCLE
  5
923
330
1F
100
AcDbEntity
  8
BILD
  6
AUSGEZOGEN
 62
     1
100
AcDbCircle
 10
1919.585491414526
 20
1072.813653807066
 30
0.0
 40
3.5
  0
CIRCLE
  5
924
330
1F
100
AcDbEntity
  8
BILD
  6
AUSGEZOGEN
 62
     1
100
AcDbCircle
 10
1919.585491414526
 20
904.813531737067
 30
0.0
 40
3.5
  0
CIRCLE
  5
925
330
1F
100
AcDbEntity
  8
BILD
  6
AUSGEZOGEN
 62
     1
100
AcDbCircle
 10
1919.585491414526
 20
932.8135317370669
 30
0.0
 40
3.5
  0
CIRCLE
  5
926
330
1F
100
AcDbEntity
  8
BILD
  6
AUSGEZOGEN
 62
     1
100
AcDbCircle
 10
1919.585491414526
 20
960.813531737067
 30
0.0
 40
3.5
  0
CIRCLE
  5
927
330
1F
100
AcDbEntity
  8
BILD
  6
AUSGEZOGEN
 62
     1
100
AcDbCircle
 10
1919.585491414526
 20
988.813531737067
 30
0.0
 40
3.5
  0
CIRCLE
  5
928
330
1F
100
AcDbEntity
  8
BILD
  6
AUSGEZOGEN
 62
     1
100
AcDbCircle
 10
1919.585491414526
 20
1016.813531737067
 30
0.0
 40
3.5
  0
CIRCLE
  5
929
330
1F
100
AcDbEntity
  8
BILD
  6
AUSGEZOGEN
 62
     1
100
AcDbCircle
 10
1877.585491414526
 20
1184.813653807067
 30
0.0
 40
3.5
  0
CIRCLE
  5
92A
330
1F
100
AcDbEntity
  8
BILD
  6
AUSGEZOGEN
 62
     1
100
AcDbCircle
 10
1877.585491414526
 20
1156.813653807066
 30
0.0
 40
3.5
  0
CIRCLE
  5
92B
330
1F
100
AcDbEntity
  8
BILD
  6
AUSGEZOGEN
 62
     1
100
AcDbCircle
 10
1877.585491414526
 20
1128.813653807066
 30
0.0
 40
3.5
  0
CIRCLE
  5
92C
330
1F
100
AcDbEntity
  8
BILD
  6
AUSGEZOGEN
 62
     1
100
AcDbCircle
 10
1877.585491414526
 20
1100.813653807066
 30
0.0
 40
3.5
  0
CIRCLE
  5
92D
330
1F
100
AcDbEntity
  8
BILD
  6
AUSGEZOGEN
 62
     1
100
AcDbCircle
 10
1877.585491414526
 20
1072.813653807066
 30
0.0
 40
3.5
  0
CIRCLE
  5
92E
330
1F
100
AcDbEntity
  8
BILD
  6
AUSGEZOGEN
 62
     1
100
AcDbCircle
 10
1877.585491414526
 20
904.813531737067
 30
0.0
 40
3.5
  0
CIRCLE
  5
92F
330
1F
100
AcDbEntity
  8
BILD
  6
AUSGEZOGEN
 62
     1
100
AcDbCircle
 10
1877.585491414526
 20
932.8135317370669
 30
0.0
 40
3.5
  0
CIRCLE
  5
930
330
1F
100
AcDbEntity
  8
BILD
  6
AUSGEZOGEN
 62
     1
100
AcDbCircle
 10
1877.585491414526
 20
960.813531737067
 30
0.0
 40
3.5
  0
CIRCLE
  5
931
330
1F
100
AcDbEntity
  8
BILD
  6
AUSGEZOGEN
 62
     1
100
AcDbCircle
 10
1877.585491414526
 20
988.813531737067
 30
0.0
 40
3.5
  0
CIRCLE
  5
932
330
1F
100
AcDbEntity
  8
BILD
  6
AUSGEZOGEN
 62
     1
100
AcDbCircle
 10
1877.585491414526
 20
1016.813531737067
 30
0.0
 40
3.5
  0
LINE
  5
933
330
1F
100
AcDbEntity
  8
BILD
  6
AUSGEZOGEN
 62
     1
100
AcDbLine
 10
2108.585491414527
 20
1209.313653807067
 30
0.0
 11
2110.585491414527
 21
1209.313653807067
 31
0.0
  0
LINE
  5
934
330
1F
100
AcDbEntity
  8
BILD
  6
AUSGEZOGEN
 62
     1
100
AcDbLine
 10
2108.585491414527
 20
1211.313653807067
 30
0.0
 11
2108.585491414527
 21
1209.313653807067
 31
0.0
  0
LINE
  5
935
330
1F
100
AcDbEntity
  8
BILD
  6
AUSGEZOGEN
 62
     1
100
AcDbLine
 10
2110.585491414527
 20
1209.313653807067
 30
0.0
 11
2110.585491414527
 21
880.3136538070667
 31
0.0
  0
LINE
  5
936
330
1F
100
AcDbEntity
  8
BILD
  6
AUSGEZOGEN
 62
     1
100
AcDbLine
 10
2108.585491414527
 20
880.3136538070667
 30
0.0
 11
2110.585491414527
 21
880.3136538070667
 31
0.0
  0
LINE
  5
937
330
1F
100
AcDbEntity
  8
BILD
  6
AUSGEZOGEN
 62
     1
100
AcDbLine
 10
2108.585491414527
 20
880.3136538070667
 30
0.0
 11
2108.585491414527
 21
878.3136538070666
 31
0.0
  0
CIRCLE
  5
938
330
1F
100
AcDbEntity
  8
BILD
  6
AUSGEZOGEN
 62
     1
100
AcDbCircle
 10
2087.585491414527
 20
1044.813653807066
 30
0.0
 40
3.5
  0
CIRCLE
  5
939
330
1F
100
AcDbEntity
  8
BILD
  6
AUSGEZOGEN
 62
     1
100
AcDbCircle
 10
2045.585491414527
 20
1044.813653807066
 30
0.0
 40
3.5
  0
CIRCLE
  5
93A
330
1F
100
AcDbEntity
  8
BILD
  6
AUSGEZOGEN
 62
     1
100
AcDbCircle
 10
2003.585491414527
 20
1044.813653807066
 30
0.0
 40
3.5
  0
CIRCLE
  5
93B
330
1F
100
AcDbEntity
  8
BILD
  6
AUSGEZOGEN
 62
     1
100
AcDbCircle
 10
1961.585491414527
 20
1044.813653807066
 30
0.0
 40
3.5
  0
CIRCLE
  5
93C
330
1F
100
AcDbEntity
  8
BILD
  6
AUSGEZOGEN
 62
     1
100
AcDbCircle
 10
1919.585491414526
 20
1044.813653807066
 30
0.0
 40
3.5
  0
CIRCLE
  5
93D
330
1F
100
AcDbEntity
  8
BILD
  6
AUSGEZOGEN
 62
     1
100
AcDbCircle
 10
1877.585491414526
 20
1044.813653807066
 30
0.0
 40
3.5
  0
CIRCLE
  5
93E
330
1F
100
AcDbEntity
  8
BILD
  6
AUSGEZOGEN
 62
     1
100
AcDbCircle
 10
1835.585491414526
 20
1044.813653807066
 30
0.0
 40
3.5
  0
LINE
  5
93F
330
1F
100
AcDbEntity
  8
BILD
  6
AUSGEZOGEN
 62
     1
100
AcDbLine
 10
1686.585491414527
 20
1209.313653807067
 30
0.0
 11
1688.585491414526
 21
1209.313653807067
 31
0.0
  0
LINE
  5
940
330
1F
100
AcDbEntity
  8
BILD
  6
AUSGEZOGEN
 62
     1
100
AcDbLine
 10
1688.585491414526
 20
1211.313653807067
 30
0.0
 11
1688.585491414526
 21
1209.313653807067
 31
0.0
  0
LINE
  5
941
330
1F
100
AcDbEntity
  8
BILD
  6
AUSGEZOGEN
 62
     1
100
AcDbLine
 10
1686.585491414527
 20
1209.313653807067
 30
0.0
 11
1686.585491414527
 21
880.3136538070667
 31
0.0
  0
LINE
  5
942
330
1F
100
AcDbEntity
  8
BILD
  6
AUSGEZOGEN
 62
     1
100
AcDbLine
 10
1688.585491414526
 20
880.3136538070667
 30
0.0
 11
1688.585491414526
 21
878.3136538070666
 31
0.0
  0
LINE
  5
943
330
1F
100
AcDbEntity
  8
BILD
  6
AUSGEZOGEN
 62
     1
100
AcDbLine
 10
1686.585491414527
 20
880.3136538070667
 30
0.0
 11
1688.585491414526
 21
880.3136538070667
 31
0.0
  0
LINE
  5
944
330
1F
100
AcDbEntity
  8
BILD
  6
AUSGEZOGEN
 62
     1
100
AcDbLine
 10
1688.585491414526
 20
878.3136538070666
 30
0.0
 11
2108.585491414527
 21
878.3136538070666
 31
0.0
  0
LINE
  5
945
330
1F
100
AcDbEntity
  8
BILD
  6
AUSGEZOGEN
 62
     1
100
AcDbLine
 10
1688.585491414526
 20
1211.313653807067
 30
0.0
 11
2108.585491414527
 21
1211.313653807067
 31
0.0
  0
CIRCLE
  5
946
330
1F
100
AcDbEntity
  8
BILD
  6
AUSGEZOGEN
 62
     1
100
AcDbCircle
 10
1793.585491414527
 20
1044.813653807066
 30
0.0
 40
3.5
  0
CIRCLE
  5
947
330
1F
100
AcDbEntity
  8
BILD
  6
AUSGEZOGEN
 62
     1
100
AcDbCircle
 10
1751.585491414526
 20
1044.813653807066
 30
0.0
 40
3.5
  0
CIRCLE
  5
948
330
1F
100
AcDbEntity
  8
BILD
  6
AUSGEZOGEN
 62
     1
100
AcDbCircle
 10
1709.585491414526
 20
1044.813653807066
 30
0.0
 40
3.5
  0
CIRCLE
  5
949
330
1F
100
AcDbEntity
  8
BILD
  6
AUSGEZOGEN
 62
     1
100
AcDbCircle
 10
1907.806682824524
 20
2184.357599127067
 30
0.0
 40
59.47180175999999
  0
ARC
  5
94A
330
1F
100
AcDbEntity
  8
BILD
  6
AUSGEZOGEN
 62
     1
100
AcDbCircle
 10
1907.806682824524
 20
2184.357599127067
 30
0.0
 40
67.97180176000001
100
AcDbArc
 50
180.0
 51
331.0388183600062
  0
ARC
  5
94B
330
1F
100
AcDbEntity
  8
BILD
  6
AUSGEZOGEN
 62
     1
100
AcDbCircle
 10
1907.806682824524
 20
2184.357599127067
 30
0.0
 40
67.97180176000001
100
AcDbArc
 50
0.0
 51
180.0
  0
LINE
  5
94C
330
1F
100
AcDbEntity
  8
BILD
  6
AUSGEZOGEN
 62
     1
100
AcDbLine
 10
1839.834942094526
 20
2325.431573737068
 30
0.0
 11
1839.834942094526
 21
2184.357354987068
 31
0.0
  0
LINE
  5
94D
330
1F
100
AcDbEntity
  8
BILD
  6
AUSGEZOGEN
 62
     1
100
AcDbLine
 10
1848.334942094526
 20
2217.270685057068
 30
0.0
 11
1848.334942094526
 21
2325.431573737068
 31
0.0
  0
LINE
  5
94E
330
1F
100
AcDbEntity
  8
BILD
  6
AUSGEZOGEN
 62
     1
100
AcDbLine
 10
1860.084942094526
 20
2365.431573737068
 30
0.0
 11
1862.584942094526
 21
2365.431573737068
 31
0.0
  0
LINE
  5
94F
330
1F
100
AcDbEntity
  8
BILD
  6
AUSGEZOGEN
 62
     1
100
AcDbLine
 10
1828.084942094526
 20
2365.431573737068
 30
0.0
 11
1825.584942094526
 21
2365.431573737068
 31
0.0
  0
LINE
  5
950
330
1F
100
AcDbEntity
  8
BILD
  6
AUSGEZOGEN
 62
     1
100
AcDbLine
 10
1856.584942094526
 20
2381.431573737068
 30
0.0
 11
1856.584942094526
 21
2397.931573737068
 31
0.0
  0
ARC
  5
951
330
1F
100
AcDbEntity
  8
BILD
  6
AUSGEZOGEN
 62
     1
100
AcDbCircle
 10
1854.084942094526
 20
2397.931573737068
 30
0.0
 40
2.500000239999999
100
AcDbArc
 50
90.0
 51
180.0
  0
LINE
  5
952
330
1F
100
AcDbEntity
  8
BILD
  6
AUSGEZOGEN
 62
     1
100
AcDbLine
 10
1851.584942094526
 20
2381.431573737068
 30
0.0
 11
1851.584942094526
 21
2397.931573737068
 31
0.0
  0
ARC
  5
953
330
1F
100
AcDbEntity
  8
BILD
  6
AUSGEZOGEN
 62
     1
100
AcDbCircle
 10
1854.084942094526
 20
2397.931573737068
 30
0.0
 40
2.500000239999999
100
AcDbArc
 50
0.0
 51
90.0
  0
LINE
  5
954
330
1F
100
AcDbEntity
  8
BILD
  6
AUSGEZOGEN
 62
     1
100
AcDbLine
 10
1831.584942094526
 20
2381.431573737068
 30
0.0
 11
1831.584942094526
 21
2397.931573737068
 31
0.0
  0
ARC
  5
955
330
1F
100
AcDbEntity
  8
BILD
  6
AUSGEZOGEN
 62
     1
100
AcDbCircle
 10
1834.084942094526
 20
2397.931573737068
 30
0.0
 40
2.500000239999999
100
AcDbArc
 50
0.0
 51
90.0
  0
LINE
  5
956
330
1F
100
AcDbEntity
  8
BILD
  6
AUSGEZOGEN
 62
     1
100
AcDbLine
 10
1836.584942094526
 20
2381.431573737068
 30
0.0
 11
1836.584942094526
 21
2397.931573737068
 31
0.0
  0
ARC
  5
957
330
1F
100
AcDbEntity
  8
BILD
  6
AUSGEZOGEN
 62
     1
100
AcDbCircle
 10
1834.084942094526
 20
2397.931573737068
 30
0.0
 40
2.500000239999999
100
AcDbArc
 50
90.0
 51
180.0
  0
LINE
  5
958
330
1F
100
AcDbEntity
  8
BILD
  6
AUSGEZOGEN
 62
     1
100
AcDbLine
 10
1828.084942094526
 20
2365.431573737068
 30
0.0
 11
1828.084942094526
 21
2381.431573737068
 31
0.0
  0
LINE
  5
959
330
1F
100
AcDbEntity
  8
BILD
  6
AUSGEZOGEN
 62
     1
100
AcDbLine
 10
1860.084942094526
 20
2365.431573737068
 30
0.0
 11
1860.084942094526
 21
2381.431573737068
 31
0.0
  0
LINE
  5
95A
330
1F
100
AcDbEntity
  8
BILD
  6
AUSGEZOGEN
 62
     1
100
AcDbLine
 10
1823.084942094526
 20
2360.931573737068
 30
0.0
 11
1865.084942094526
 21
2360.931573737068
 31
0.0
  0
LINE
  5
95B
330
1F
100
AcDbEntity
  8
BILD
  6
AUSGEZOGEN
 62
     1
100
AcDbLine
 10
1823.084942094526
 20
2359.385187017067
 30
0.0
 11
1823.084942094526
 21
2360.931573737068
 31
0.0
  0
LINE
  5
95C
330
1F
100
AcDbEntity
  8
BILD
  6
AUSGEZOGEN
 62
     1
100
AcDbLine
 10
1844.084942094526
 20
2357.431573737068
 30
0.0
 11
1824.037334674525
 21
2358.386651857068
 31
0.0
  0
ARC
  5
95D
330
1F
100
AcDbEntity
  8
BILD
  6
AUSGEZOGEN
 62
     1
100
AcDbCircle
 10
1824.084942094526
 20
2359.385187017067
 30
0.0
 40
1.00001025
100
AcDbArc
 50
180.0
 51
267.2739257799541
  0
LINE
  5
95E
330
1F
100
AcDbEntity
  8
BILD
  6
AUSGEZOGEN
 62
     1
100
AcDbLine
 10
1865.084942094526
 20
2359.385187017067
 30
0.0
 11
1865.084942094526
 21
2360.931573737068
 31
0.0
  0
LINE
  5
95F
330
1F
100
AcDbEntity
  8
BILD
  6
AUSGEZOGEN
 62
     1
100
AcDbLine
 10
1844.084942094526
 20
2357.431573737068
 30
0.0
 11
1864.132549514524
 21
2358.386163577067
 31
0.0
  0
ARC
  5
960
330
1F
100
AcDbEntity
  8
BILD
  6
AUSGEZOGEN
 62
     1
100
AcDbCircle
 10
1864.084942094526
 20
2359.385187017067
 30
0.0
 40
1.00001025
100
AcDbArc
 50
272.7260742200459
 51
359.9999389599784
  0
LINE
  5
961
330
1F
100
AcDbEntity
  8
BILD
  6
AUSGEZOGEN
 62
     1
100
AcDbLine
 10
1837.084942094526
 20
2325.431573737068
 30
0.0
 11
1836.084942094526
 21
2337.431573737068
 31
0.0
  0
LINE
  5
962
330
1F
100
AcDbEntity
  8
BILD
  6
AUSGEZOGEN
 62
     1
100
AcDbLine
 10
1851.084942094526
 20
2325.431573737068
 30
0.0
 11
1852.084942094526
 21
2337.431573737068
 31
0.0
  0
LINE
  5
963
330
1F
100
AcDbEntity
  8
BILD
  6
AUSGEZOGEN
 62
     1
100
AcDbLine
 10
1851.084942094526
 20
2325.431573737068
 30
0.0
 11
1837.084942094526
 21
2325.431573737068
 31
0.0
  0
LINE
  5
964
330
1F
100
AcDbEntity
  8
BILD
  6
AUSGEZOGEN
 62
     1
100
AcDbLine
 10
1836.584942094526
 20
2348.253839357067
 30
0.0
 11
1836.584942094526
 21
2346.494073737068
 31
0.0
  0
LINE
  5
965
330
1F
100
AcDbEntity
  8
BILD
  6
AUSGEZOGEN
 62
     1
100
AcDbLine
 10
1831.584942094526
 20
2338.431573737068
 30
0.0
 11
1831.584942094526
 21
2337.431573737068
 31
0.0
  0
ARC
  5
966
330
1F
100
AcDbEntity
  8
BILD
  6
AUSGEZOGEN
 62
     1
100
AcDbCircle
 10
1835.584942094526
 20
2338.431573737068
 30
0.0
 40
4.000000479999999
100
AcDbArc
 50
90.0
 51
180.0
  0
ARC
  5
967
330
1F
100
AcDbEntity
  8
BILD
  6
AUSGEZOGEN
 62
     1
100
AcDbCircle
 10
1831.584942094526
 20
2346.494073737068
 30
0.0
 40
5.000000479999999
100
AcDbArc
 50
296.3878784199404
 51
359.9999389599784
  0
ARC
  5
968
330
1F
100
AcDbEntity
  8
BILD
  6
AUSGEZOGEN
 62
     1
100
AcDbCircle
 10
1826.584942094526
 20
2348.253839357067
 30
0.0
 40
10.00000095
100
AcDbArc
 50
0.0
 51
87.27365112011076
  0
ARC
  5
969
330
1F
100
AcDbEntity
  8
BILD
  6
AUSGEZOGEN
 62
     1
100
AcDbCircle
 10
1856.584942094526
 20
2346.494073737068
 30
0.0
 40
5.000000479999999
100
AcDbArc
 50
180.0000152599533
 51
243.6121215800596
  0
ARC
  5
96A
330
1F
100
AcDbEntity
  8
BILD
  6
AUSGEZOGEN
 62
     1
100
AcDbCircle
 10
1852.584942094526
 20
2338.431573737068
 30
0.0
 40
4.000000479999999
100
AcDbArc
 50
0.0
 51
90.0
  0
ARC
  5
96B
330
1F
100
AcDbEntity
  8
BILD
  6
AUSGEZOGEN
 62
     1
100
AcDbCircle
 10
1861.584942094526
 20
2348.253839357067
 30
0.0
 40
10.00000095
100
AcDbArc
 50
92.72634887988923
 51
180.0
  0
LINE
  5
96C
330
1F
100
AcDbEntity
  8
BILD
  6
AUSGEZOGEN
 62
     1
100
AcDbLine
 10
1856.584942094526
 20
2338.431573737068
 30
0.0
 11
1856.584942094526
 21
2337.431573737068
 31
0.0
  0
LINE
  5
96D
330
1F
100
AcDbEntity
  8
BILD
  6
AUSGEZOGEN
 62
     1
100
AcDbLine
 10
1852.584942094526
 20
2342.431573737068
 30
0.0
 11
1835.584942094526
 21
2342.431573737068
 31
0.0
  0
LINE
  5
96E
330
1F
100
AcDbEntity
  8
BILD
  6
AUSGEZOGEN
 62
     1
100
AcDbLine
 10
1856.584942094526
 20
2337.431573737068
 30
0.0
 11
1831.584942094526
 21
2337.431573737068
 31
0.0
  0
LINE
  5
96F
330
1F
100
AcDbEntity
  8
BILD
  6
AUSGEZOGEN
 62
     1
100
AcDbLine
 10
1851.584942094526
 20
2348.253839357067
 30
0.0
 11
1851.584942094526
 21
2346.494073737068
 31
0.0
  0
LINE
  5
970
330
1F
100
AcDbEntity
  8
BILD
  6
AUSGEZOGEN
 62
     1
100
AcDbLine
 10
1842.084942094526
 20
2364.431573737068
 30
0.0
 11
1842.084942094526
 21
2381.431573737068
 31
0.0
  0
LINE
  5
971
330
1F
100
AcDbEntity
  8
BILD
  6
AUSGEZOGEN
 62
     1
100
AcDbLine
 10
1846.084942094526
 20
2364.431573737068
 30
0.0
 11
1846.084942094526
 21
2381.431573737068
 31
0.0
  0
LINE
  5
972
330
1F
100
AcDbEntity
  8
BILD
  6
AUSGEZOGEN
 62
     1
100
AcDbLine
 10
1842.084942094526
 20
2364.431573737068
 30
0.0
 11
1846.084942094526
 21
2364.431573737068
 31
0.0
  0
LINE
  5
973
330
1F
100
AcDbEntity
  8
BILD
  6
AUSGEZOGEN
 62
     1
100
AcDbLine
 10
1823.084942094526
 20
2360.931573737068
 30
0.0
 11
1824.084942094526
 21
2363.431573737068
 31
0.0
  0
LINE
  5
974
330
1F
100
AcDbEntity
  8
BILD
  6
AUSGEZOGEN
 62
     1
100
AcDbLine
 10
1825.584942094526
 20
2363.431573737068
 30
0.0
 11
1825.584942094526
 21
2381.431573737068
 31
0.0
  0
LINE
  5
975
330
1F
100
AcDbEntity
  8
BILD
  6
AUSGEZOGEN
 62
     1
100
AcDbLine
 10
1862.584942094526
 20
2381.431573737068
 30
0.0
 11
1825.584942094526
 21
2381.431573737068
 31
0.0
  0
LINE
  5
976
330
1F
100
AcDbEntity
  8
BILD
  6
AUSGEZOGEN
 62
     1
100
AcDbLine
 10
1862.584942094526
 20
2363.431573737068
 30
0.0
 11
1862.584942094526
 21
2381.431573737068
 31
0.0
  0
LINE
  5
977
330
1F
100
AcDbEntity
  8
BILD
  6
AUSGEZOGEN
 62
     1
100
AcDbLine
 10
1865.084942094526
 20
2360.931573737068
 30
0.0
 11
1864.084942094526
 21
2363.431573737068
 31
0.0
  0
LINE
  5
978
330
1F
100
AcDbEntity
  8
BILD
  6
AUSGEZOGEN
 62
     1
100
AcDbLine
 10
1864.084942094526
 20
2363.431573737068
 30
0.0
 11
1824.084942094526
 21
2363.431573737068
 31
0.0
  0
LINE
  5
979
330
1F
100
AcDbEntity
  8
BILD
  6
AUSGEZOGEN
 62
     1
100
AcDbLine
 10
1883.085430374524
 20
1621.325494627066
 30
0.0
 11
1808.085308304525
 21
1621.325494627066
 31
0.0
  0
LINE
  5
97A
330
1F
100
AcDbEntity
  8
BILD
  6
AUSGEZOGEN
 62
     1
100
AcDbLine
 10
1808.085308304525
 20
1616.325494627066
 30
0.0
 11
1808.085308304525
 21
1621.325494627066
 31
0.0
  0
LINE
  5
97B
330
1F
100
AcDbEntity
  8
BILD
  6
AUSGEZOGEN
 62
     1
100
AcDbLine
 10
1933.085308304525
 20
1616.325494627066
 30
0.0
 11
1933.085308304525
 21
1621.325494627066
 31
0.0
  0
LINE
  5
97C
330
1F
100
AcDbEntity
  8
BILD
  6
AUSGEZOGEN
 62
     1
100
AcDbLine
 10
1947.664104694525
 20
1621.325494627066
 30
0.0
 11
1883.085430374524
 21
1621.325494627066
 31
0.0
  0
ARC
  5
97D
330
1F
100
AcDbEntity
  8
BILD
  6
AUSGEZOGEN
 62
     1
100
AcDbCircle
 10
1883.085430374524
 20
1616.656549317065
 30
0.0
 40
8.66892529
100
AcDbArc
 50
70.54241943014554
 51
109.4575805698544
  0
ARC
  5
97E
330
1F
100
AcDbEntity
  8
BILD
  6
AUSGEZOGEN
 62
     1
100
AcDbCircle
 10
1887.365215534525
 20
1623.120416507068
 30
0.0
 40
2.204967739999999
100
AcDbArc
 50
47.32357788006531
 51
129.1492614700388
  0
ARC
  5
97F
330
1F
100
AcDbEntity
  8
BILD
  6
AUSGEZOGEN
 62
     1
100
AcDbCircle
 10
1878.805645224525
 20
1623.121393067069
 30
0.0
 40
2.204210279999999
100
AcDbArc
 50
50.8347167998821
 51
132.6936035199866
  0
LINE
  5
980
330
1F
100
AcDbEntity
  8
BILD
  6
AUSGEZOGEN
 62
     1
100
AcDbLine
 10
1878.805156944526
 20
1625.325494627066
 30
0.0
 11
1887.365703814527
 21
1625.325494627066
 31
0.0
  0
LINE
  5
981
330
1F
100
AcDbEntity
  8
BILD
  6
AUSGEZOGEN
 62
     1
100
AcDbLine
 10
1885.973125694526
 20
1621.821100097067
 30
0.0
 11
1885.973125694526
 21
1624.830377447068
 31
0.0
  0
LINE
  5
982
330
1F
100
AcDbEntity
  8
BILD
  6
AUSGEZOGEN
 62
     1
100
AcDbLine
 10
1880.197735064527
 20
1621.821100097067
 30
0.0
 11
1880.197735064527
 21
1624.830377447068
 31
0.0
  0
LINE
  5
983
330
1F
100
AcDbEntity
  8
BILD
  6
AUSGEZOGEN
 62
     1
100
AcDbLine
 10
1888.860332724524
 20
1621.908990727066
 30
0.0
 11
1888.860332724524
 21
1624.741998537067
 31
0.0
  0
LINE
  5
984
330
1F
100
AcDbEntity
  8
BILD
  6
AUSGEZOGEN
 62
     1
100
AcDbLine
 10
1877.310528034525
 20
1621.908990727066
 30
0.0
 11
1877.310528034525
 21
1624.741998537067
 31
0.0
  0
LINE
  5
985
330
1F
100
AcDbEntity
  8
BILD
  6
AUSGEZOGEN
 62
     1
100
AcDbLine
 10
1886.085430374524
 20
1630.525689947068
 30
0.0
 11
1880.085430374524
 21
1630.525689947068
 31
0.0
  0
LINE
  5
986
330
1F
100
AcDbEntity
  8
BILD
  6
AUSGEZOGEN
 62
     1
100
AcDbLine
 10
1880.085430374524
 20
1630.525689947068
 30
0.0
 11
1880.085430374524
 21
1625.325494627066
 31
0.0
  0
LINE
  5
987
330
1F
100
AcDbEntity
  8
BILD
  6
AUSGEZOGEN
 62
     1
100
AcDbLine
 10
1880.698711624524
 20
1625.325494627066
 30
0.0
 11
1880.698711624524
 21
1630.525689947068
 31
0.0
  0
LINE
  5
988
330
1F
100
AcDbEntity
  8
BILD
  6
AUSGEZOGEN
 62
     1
100
AcDbLine
 10
1885.472149124525
 20
1625.325494627066
 30
0.0
 11
1885.472149124525
 21
1630.525689947068
 31
0.0
  0
LINE
  5
989
330
1F
100
AcDbEntity
  8
BILD
  6
AUSGEZOGEN
 62
     1
100
AcDbLine
 10
1886.085430374524
 20
1625.325494627066
 30
0.0
 11
1886.085430374524
 21
1630.525689947068
 31
0.0
  0
LINE
  5
98A
330
1F
100
AcDbEntity
  8
BILD
  6
AUSGEZOGEN
 62
     1
100
AcDbLine
 10
1877.835430374524
 20
1617.075494627066
 30
0.0
 11
1883.085430374524
 21
1617.075494627066
 31
0.0
  0
LINE
  5
98B
330
1F
100
AcDbEntity
  8
BILD
  6
AUSGEZOGEN
 62
     1
100
AcDbLine
 10
1883.085430374524
 20
1617.075494627066
 30
0.0
 11
1888.335430374525
 21
1617.075494627066
 31
0.0
  0
LINE
  5
98C
330
1F
100
AcDbEntity
  8
BILD
  6
AUSGEZOGEN
 62
     1
100
AcDbLine
 10
1877.835430374524
 20
1616.325494627066
 30
0.0
 11
1883.085430374524
 21
1616.325494627066
 31
0.0
  0
LINE
  5
98D
330
1F
100
AcDbEntity
  8
BILD
  6
AUSGEZOGEN
 62
     1
100
AcDbLine
 10
1883.085430374524
 20
1616.325494627066
 30
0.0
 11
1888.335430374525
 21
1616.325494627066
 31
0.0
  0
LINE
  5
98E
330
1F
100
AcDbEntity
  8
BILD
  6
GESTRICHELT
 62
     1
100
AcDbLine
 10
1881.085430374524
 20
1616.325494627066
 30
0.0
 11
1881.085430374524
 21
1617.925592287067
 31
0.0
  0
LINE
  5
98F
330
1F
100
AcDbEntity
  8
BILD
  6
GESTRICHELT
 62
     1
100
AcDbLine
 10
1881.085430374524
 20
1617.925592287067
 30
0.0
 11
1885.085430374525
 21
1617.925592287067
 31
0.0
  0
LINE
  5
990
330
1F
100
AcDbEntity
  8
BILD
  6
GESTRICHELT
 62
     1
100
AcDbLine
 10
1885.085430374525
 20
1617.925592287067
 30
0.0
 11
1885.085430374525
 21
1616.325494627066
 31
0.0
  0
LINE
  5
991
330
1F
100
AcDbEntity
  8
BILD
  6
AUSGEZOGEN
 62
     1
100
AcDbLine
 10
1880.085430374524
 20
1621.325494627066
 30
0.0
 11
1880.085430374524
 21
1619.574029787067
 31
0.0
  0
LINE
  5
992
330
1F
100
AcDbEntity
  8
BILD
  6
AUSGEZOGEN
 62
     1
100
AcDbLine
 10
1886.085430374524
 20
1619.574029787067
 30
0.0
 11
1886.085430374524
 21
1621.325494627066
 31
0.0
  0
LINE
  5
993
330
1F
100
AcDbEntity
  8
BILD
  6
AUSGEZOGEN
 62
     1
100
AcDbLine
 10
1885.472149124525
 20
1619.325494627066
 30
0.0
 11
1880.698711624524
 21
1619.325494627066
 31
0.0
  0
ARC
  5
994
330
1F
100
AcDbEntity
  8
BILD
  6
AUSGEZOGEN
 62
     1
100
AcDbCircle
 10
1879.485332724524
 20
1619.574029787067
 30
0.0
 40
0.60009772
100
AcDbArc
 50
315.0000000001428
 51
0.0
  0
ARC
  5
995
330
1F
100
AcDbEntity
  8
BILD
  6
AUSGEZOGEN
 62
     1
100
AcDbCircle
 10
1886.685528034525
 20
1619.574029787067
 30
0.0
 40
0.60009772
100
AcDbArc
 50
180.0
 51
224.9999999998572
  0
LINE
  5
996
330
1F
100
AcDbEntity
  8
BILD
  6
AUSGEZOGEN
 62
     1
100
AcDbLine
 10
1888.335430374525
 20
1617.075494627066
 30
0.0
 11
1886.261211624524
 21
1619.149713377066
 31
0.0
  0
LINE
  5
997
330
1F
100
AcDbEntity
  8
BILD
  6
AUSGEZOGEN
 62
     1
100
AcDbLine
 10
1879.909649124525
 20
1619.149713377066
 30
0.0
 11
1877.835430374524
 21
1617.075494627066
 31
0.0
  0
LINE
  5
998
330
1F
100
AcDbEntity
  8
BILD
  6
AUSGEZOGEN
 62
     1
100
AcDbLine
 10
1888.335430374525
 20
1616.325494627066
 30
0.0
 11
1888.335430374525
 21
1617.075494627066
 31
0.0
  0
LINE
  5
999
330
1F
100
AcDbEntity
  8
BILD
  6
AUSGEZOGEN
 62
     1
100
AcDbLine
 10
1877.835430374524
 20
1617.075494627066
 30
0.0
 11
1877.835430374524
 21
1616.325494627066
 31
0.0
  0
ARC
  5
99A
330
1F
100
AcDbEntity
  8
BILD
  6
AUSGEZOGEN
 62
     1
100
AcDbCircle
 10
1878.805156944526
 20
1623.530084477066
 30
0.0
 40
2.204518559999999
100
AcDbArc
 50
227.3243102999548
 51
309.1751098599065
  0
ARC
  5
99B
330
1F
100
AcDbEntity
  8
BILD
  6
AUSGEZOGEN
 62
     1
100
AcDbCircle
 10
1887.365703814527
 20
1623.530084477066
 30
0.0
 40
2.204518559999999
100
AcDbArc
 50
230.8249206499275
 51
312.6756897000452
  0
ARC
  5
99C
330
1F
100
AcDbEntity
  8
BILD
  6
AUSGEZOGEN
 62
     1
100
AcDbCircle
 10
1883.085430374524
 20
1629.988092287067
 30
0.0
 40
8.662480349999999
100
AcDbArc
 50
250.5273590100927
 51
289.4697875999161
  0
POLYLINE
  5
99D
330
1F
100
AcDbEntity
  8
BILD
  6
AUSGEZOGEN
 62
     1
100
AcDb2dPolyline
 66
     1
 10
0.0
 20
0.0
 30
0.0
  0
VERTEX
  5
99E
330
99D
100
AcDbEntity
  8
BILD
  6
AUSGEZOGEN
 62
     1
100
AcDbVertex
100
AcDb2dVertex
 10
1894.940654984525
 20
1621.325494627066
 30
0.0
 42
0.005556077
 70
     2
 50
178.1703949
  0
VERTEX
  5
99F
330
99D
100
AcDbEntity
  8
BILD
  6
AUSGEZOGEN
 62
     1
100
AcDbVertex
100
AcDb2dVertex
 10
1894.803081744528
 20
1621.046686037067
 30
0.0
 42
0.01024607
 70
     2
 50
244.37744141
  0
VERTEX
  5
9A0
330
99D
100
AcDbEntity
  8
BILD
  6
AUSGEZOGEN
 62
     1
100
AcDbVertex
100
AcDb2dVertex
 10
1894.577862014523
 20
1620.552301267069
 30
0.0
 42
0.01442405
 70
     2
 50
266.87750244
  0
VERTEX
  5
9A1
330
99D
100
AcDbEntity
  8
BILD
  6
AUSGEZOGEN
 62
     1
100
AcDbVertex
100
AcDb2dVertex
 10
1894.406231164527
 20
1620.123956547066
 30
0.0
 42
0.03399386
 70
     2
 50
289.37744141
  0
VERTEX
  5
9A2
330
99D
100
AcDbEntity
  8
BILD
  6
AUSGEZOGEN
 62
     1
100
AcDbVertex
100
AcDb2dVertex
 10
1894.314312214526
 20
1619.826837407067
 30
0.0
 42
0.04520032
 70
     2
 50
311.87744141
  0
VERTEX
  5
9A3
330
99D
100
AcDbEntity
  8
BILD
  6
AUSGEZOGEN
 62
     1
100
AcDbVertex
100
AcDb2dVertex
 10
1894.303203814527
 20
1619.750665527068
 30
0.0
 50
311.87744141
  0
SEQEND
  5
9A4
330
99D
100
AcDbEntity
  8
BILD
 62
     1
  0
POLYLINE
  5
9A5
330
1F
100
AcDbEntity
  8
BILD
  6
AUSGEZOGEN
 62
     1
100
AcDb2dPolyline
 66
     1
 10
0.0
 20
0.0
 30
0.0
  0
VERTEX
  5
9A6
330
9A5
100
AcDbEntity
  8
BILD
  6
AUSGEZOGEN
 62
     1
100
AcDbVertex
100
AcDb2dVertex
 10
1894.303325884527
 20
1619.750665527068
 30
0.0
 42
0.04040281
 70
     2
 50
209.93527222
  0
VERTEX
  5
9A7
330
9A5
100
AcDbEntity
  8
BILD
  6
AUSGEZOGEN
 62
     1
100
AcDbVertex
100
AcDb2dVertex
 10
1894.309795614524
 20
1619.643365727066
 30
0.0
 42
0.03575298
 70
     2
 50
246.57824707
  0
VERTEX
  5
9A8
330
9A5
100
AcDbEntity
  8
BILD
  6
AUSGEZOGEN
 62
     1
100
AcDbVertex
100
AcDb2dVertex
 10
1894.354351274526
 20
1619.433893067069
 30
0.0
 42
0.02602572
 70
     2
 50
269.07824707
  0
VERTEX
  5
9A9
330
9A5
100
AcDbEntity
  8
BILD
  6
AUSGEZOGEN
 62
     1
100
AcDbVertex
100
AcDb2dVertex
 10
1894.434307334525
 20
1619.197809087067
 30
0.0
 42
0.02602572
 70
     2
 50
291.57824707
  0
VERTEX
  5
9AA
330
9A5
100
AcDbEntity
  8
BILD
  6
AUSGEZOGEN
 62
     1
100
AcDbVertex
100
AcDb2dVertex
 10
1894.537517784526
 20
1618.970758307068
 30
0.0
 42
0.0104449
 70
     2
 50
314.07824707
  0
VERTEX
  5
9AB
330
9A5
100
AcDbEntity
  8
BILD
  6
AUSGEZOGEN
 62
     1
100
AcDbVertex
100
AcDb2dVertex
 10
1894.575481644525
 20
1618.901422367069
 30
0.0
 50
314.07824707
  0
SEQEND
  5
9AC
330
9A5
100
AcDbEntity
  8
BILD
 62
     1
  0
POLYLINE
  5
9AD
330
1F
100
AcDbEntity
  8
BILD
  6
AUSGEZOGEN
 62
     1
100
AcDb2dPolyline
 66
     1
 10
0.0
 20
0.0
 30
0.0
  0
VERTEX
  5
9AE
330
9AD
100
AcDbEntity
  8
BILD
  6
AUSGEZOGEN
 62
     1
100
AcDbVertex
100
AcDb2dVertex
 10
1894.850628134528
 20
1618.052057127066
 30
0.0
 42
0.03969047
 70
     2
 50
29.93664551
  0
VERTEX
  5
9AF
330
9AD
100
AcDbEntity
  8
BILD
  6
AUSGEZOGEN
 62
     1
100
AcDbVertex
100
AcDb2dVertex
 10
1894.843425984526
 20
1618.158746587067
 30
0.0
 42
0.03524074
 70
     2
 50
66.68551636
  0
VERTEX
  5
9B0
330
9AD
100
AcDbEntity
  8
BILD
  6
AUSGEZOGEN
 62
     1
100
AcDbVertex
100
AcDb2dVertex
 10
1894.797954794524
 20
1618.368097167067
 30
0.0
 42
0.02563081
 70
     2
 50
89.18548583999999
  0
VERTEX
  5
9B1
330
9AD
100
AcDbEntity
  8
BILD
  6
AUSGEZOGEN
 62
     1
100
AcDbVertex
100
AcDb2dVertex
 10
1894.717266314527
 20
1618.604303227066
 30
0.0
 42
0.02563081
 70
     2
 50
111.6854858399999
  0
VERTEX
  5
9B2
330
9AD
100
AcDbEntity
  8
BILD
  6
AUSGEZOGEN
 62
     1
100
AcDbVertex
100
AcDb2dVertex
 10
1894.613750694526
 20
1618.831354007068
 30
0.0
 42
0.01037765
 70
     2
 50
134.18548584
  0
VERTEX
  5
9B3
330
9AD
100
AcDbEntity
  8
BILD
  6
AUSGEZOGEN
 62
     1
100
AcDbVertex
100
AcDb2dVertex
 10
1894.575420614524
 20
1618.901300297066
 30
0.0
 50
134.18548584
  0
SEQEND
  5
9B4
330
9AD
100
AcDbEntity
  8
BILD
 62
     1
  0
POLYLINE
  5
9B5
330
1F
100
AcDbEntity
  8
BILD
  6
AUSGEZOGEN
 62
     1
100
AcDb2dPolyline
 66
     1
 10
0.0
 20
0.0
 30
0.0
  0
VERTEX
  5
9B6
330
9B5
100
AcDbEntity
  8
BILD
  6
AUSGEZOGEN
 62
     1
100
AcDbVertex
100
AcDb2dVertex
 10
1894.213237994527
 20
1616.325372557066
 30
0.0
 42
0.005302137
 70
     2
 50
358.6461792
  0
VERTEX
  5
9B7
330
9B5
100
AcDbEntity
  8
BILD
  6
AUSGEZOGEN
 62
     1
100
AcDbVertex
100
AcDb2dVertex
 10
1894.352947464525
 20
1616.636163577068
 30
0.0
 42
0.009645469
 70
     2
 50
66.38140869
  0
VERTEX
  5
9B8
330
9B5
100
AcDbEntity
  8
BILD
  6
AUSGEZOGEN
 62
     1
100
AcDbVertex
100
AcDb2dVertex
 10
1894.578350304527
 20
1617.178644047066
 30
0.0
 42
0.01358575
 70
     2
 50
88.88143920999999
  0
VERTEX
  5
9B9
330
9B5
100
AcDbEntity
  8
BILD
  6
AUSGEZOGEN
 62
     1
100
AcDbVertex
100
AcDb2dVertex
 10
1894.749431844527
 20
1617.647394047066
 30
0.0
 42
0.03210411
 70
     2
 50
111.38140869
  0
VERTEX
  5
9BA
330
9B5
100
AcDbEntity
  8
BILD
  6
AUSGEZOGEN
 62
     1
100
AcDbVertex
100
AcDb2dVertex
 10
1894.840191124526
 20
1617.970758307069
 30
0.0
 42
0.04185149
 70
     2
 50
133.88140869
  0
VERTEX
  5
9BB
330
9B5
100
AcDbEntity
  8
BILD
  6
AUSGEZOGEN
 62
     1
100
AcDbVertex
100
AcDb2dVertex
 10
1894.850628134528
 20
1618.051935057066
 30
0.0
 50
133.88140869
  0
SEQEND
  5
9BC
330
9B5
100
AcDbEntity
  8
BILD
 62
     1
  0
POLYLINE
  5
9BD
330
1F
100
AcDbEntity
  8
BILD
  6
AUSGEZOGEN
 62
     1
100
AcDb2dPolyline
 66
     1
 10
0.0
 20
0.0
 30
0.0
  0
VERTEX
  5
9BE
330
9BD
100
AcDbEntity
  8
BILD
  6
AUSGEZOGEN
 62
     1
100
AcDbVertex
100
AcDb2dVertex
 10
1871.867534874526
 20
1619.750665527068
 30
0.0
 42
0.04519689
 70
     2
 50
26.89590454
  0
VERTEX
  5
9BF
330
9BD
100
AcDbEntity
  8
BILD
  6
AUSGEZOGEN
 62
     1
100
AcDbVertex
100
AcDb2dVertex
 10
1871.856426474525
 20
1619.826959477066
 30
0.0
 42
0.03399396
 70
     2
 50
48.12258911
  0
VERTEX
  5
9C0
330
9BD
100
AcDbEntity
  8
BILD
  6
AUSGEZOGEN
 62
     1
100
AcDbVertex
100
AcDb2dVertex
 10
1871.764507524526
 20
1620.123956547066
 30
0.0
 42
0.01442415
 70
     2
 50
70.62258911
  0
VERTEX
  5
9C1
330
9BD
100
AcDbEntity
  8
BILD
  6
AUSGEZOGEN
 62
     1
100
AcDbVertex
100
AcDb2dVertex
 10
1871.592876664525
 20
1620.552301267069
 30
0.0
 42
0.01024607
 70
     2
 50
93.12265014999999
  0
VERTEX
  5
9C2
330
9BD
100
AcDbEntity
  8
BILD
  6
AUSGEZOGEN
 62
     1
100
AcDbVertex
100
AcDb2dVertex
 10
1871.367656944526
 20
1621.046686037067
 30
0.0
 42
0.00555621
 70
     2
 50
115.62255859
  0
VERTEX
  5
9C3
330
9BD
100
AcDbEntity
  8
BILD
  6
AUSGEZOGEN
 62
     1
100
AcDbVertex
100
AcDb2dVertex
 10
1871.230083694524
 20
1621.325494627066
 30
0.0
 50
115.62255859
  0
SEQEND
  5
9C4
330
9BD
100
AcDbEntity
  8
BILD
 62
     1
  0
POLYLINE
  5
9C5
330
1F
100
AcDbEntity
  8
BILD
  6
AUSGEZOGEN
 62
     1
100
AcDb2dPolyline
 66
     1
 10
0.0
 20
0.0
 30
0.0
  0
VERTEX
  5
9C6
330
9C5
100
AcDbEntity
  8
BILD
  6
AUSGEZOGEN
 62
     1
100
AcDbVertex
100
AcDb2dVertex
 10
1871.595379104527
 20
1618.901422367069
 30
0.0
 42
0.0104449
 70
     2
 50
1.830200199999999
  0
VERTEX
  5
9C7
330
9C5
100
AcDbEntity
  8
BILD
  6
AUSGEZOGEN
 62
     1
100
AcDbVertex
100
AcDb2dVertex
 10
1871.633342974524
 20
1618.970758307068
 30
0.0
 42
0.02602576
 70
     2
 50
45.92178345
  0
VERTEX
  5
9C8
330
9C5
100
AcDbEntity
  8
BILD
  6
AUSGEZOGEN
 62
     1
100
AcDbVertex
100
AcDb2dVertex
 10
1871.736553424524
 20
1619.197809087067
 30
0.0
 42
0.02602576
 70
     2
 50
68.42175293
  0
VERTEX
  5
9C9
330
9C5
100
AcDbEntity
  8
BILD
  6
AUSGEZOGEN
 62
     1
100
AcDbVertex
100
AcDb2dVertex
 10
1871.816509484527
 20
1619.433893067069
 30
0.0
 42
0.03575298
 70
     2
 50
90.92181395999999
  0
VERTEX
  5
9CA
330
9C5
100
AcDbEntity
  8
BILD
  6
AUSGEZOGEN
 62
     1
100
AcDbVertex
100
AcDb2dVertex
 10
1871.861065144526
 20
1619.643365727066
 30
0.0
 42
0.04040294
 70
     2
 50
113.42178345
  0
VERTEX
  5
9CB
330
9C5
100
AcDbEntity
  8
BILD
  6
AUSGEZOGEN
 62
     1
100
AcDbVertex
100
AcDb2dVertex
 10
1871.867534874526
 20
1619.750665527068
 30
0.0
 50
113.42178345
  0
SEQEND
  5
9CC
330
9C5
100
AcDbEntity
  8
BILD
 62
     1
  0
POLYLINE
  5
9CD
330
1F
100
AcDbEntity
  8
BILD
  6
AUSGEZOGEN
 62
     1
100
AcDb2dPolyline
 66
     1
 10
0.0
 20
0.0
 30
0.0
  0
VERTEX
  5
9CE
330
9CD
100
AcDbEntity
  8
BILD
  6
AUSGEZOGEN
 62
     1
100
AcDbVertex
100
AcDb2dVertex
 10
1871.595318074526
 20
1618.901300297066
 30
0.0
 42
0.01037755
 70
     2
 50
181.35227966
  0
VERTEX
  5
9CF
330
9CD
100
AcDbEntity
  8
BILD
  6
AUSGEZOGEN
 62
     1
100
AcDbVertex
100
AcDb2dVertex
 10
1871.556987994528
 20
1618.831354007068
 30
0.0
 42
0.02563085
 70
     2
 50
225.8144989000001
  0
VERTEX
  5
9D0
330
9CD
100
AcDbEntity
  8
BILD
  6
AUSGEZOGEN
 62
     1
100
AcDbVertex
100
AcDb2dVertex
 10
1871.453472374526
 20
1618.604303227066
 30
0.0
 42
0.02563085
 70
     2
 50
248.31451416
  0
VERTEX
  5
9D1
330
9CD
100
AcDbEntity
  8
BILD
  6
AUSGEZOGEN
 62
     1
100
AcDbVertex
100
AcDb2dVertex
 10
1871.372783894526
 20
1618.368097167067
 30
0.0
 42
0.03524074
 70
     2
 50
270.81454468
  0
VERTEX
  5
9D2
330
9CD
100
AcDbEntity
  8
BILD
  6
AUSGEZOGEN
 62
     1
100
AcDbVertex
100
AcDb2dVertex
 10
1871.327312704528
 20
1618.158746587067
 30
0.0
 42
0.0396908
 70
     2
 50
293.31451416
  0
VERTEX
  5
9D3
330
9CD
100
AcDbEntity
  8
BILD
  6
AUSGEZOGEN
 62
     1
100
AcDbVertex
100
AcDb2dVertex
 10
1871.320110554526
 20
1618.051935057066
 30
0.0
 50
293.31451416
  0
SEQEND
  5
9D4
330
9CD
100
AcDbEntity
  8
BILD
 62
     1
  0
POLYLINE
  5
9D5
330
1F
100
AcDbEntity
  8
BILD
  6
AUSGEZOGEN
 62
     1
100
AcDb2dPolyline
 66
     1
 10
0.0
 20
0.0
 30
0.0
  0
VERTEX
  5
9D6
330
9D5
100
AcDbEntity
  8
BILD
  6
AUSGEZOGEN
 62
     1
100
AcDbVertex
100
AcDb2dVertex
 10
1871.320110554526
 20
1618.051935057066
 30
0.0
 42
0.04184915
 70
     2
 50
204.83372498
  0
VERTEX
  5
9D7
330
9D5
100
AcDbEntity
  8
BILD
  6
AUSGEZOGEN
 62
     1
100
AcDbVertex
100
AcDb2dVertex
 10
1871.330547564527
 20
1617.970758307069
 30
0.0
 42
0.03210411
 70
     2
 50
226.11859131
  0
VERTEX
  5
9D8
330
9D5
100
AcDbEntity
  8
BILD
  6
AUSGEZOGEN
 62
     1
100
AcDbVertex
100
AcDb2dVertex
 10
1871.421306844527
 20
1617.647394047066
 30
0.0
 42
0.01358569
 70
     2
 50
248.61859131
  0
VERTEX
  5
9D9
330
9D5
100
AcDbEntity
  8
BILD
  6
AUSGEZOGEN
 62
     1
100
AcDbVertex
100
AcDb2dVertex
 10
1871.592388384527
 20
1617.178644047066
 30
0.0
 42
0.009645537
 70
     2
 50
271.11859131
  0
VERTEX
  5
9DA
330
9D5
100
AcDbEntity
  8
BILD
  6
AUSGEZOGEN
 62
     1
100
AcDbVertex
100
AcDb2dVertex
 10
1871.817791214525
 20
1616.636163577068
 30
0.0
 42
0.005302104
 70
     2
 50
293.61859131
  0
VERTEX
  5
9DB
330
9D5
100
AcDbEntity
  8
BILD
  6
AUSGEZOGEN
 62
     1
100
AcDbVertex
100
AcDb2dVertex
 10
1871.957561724524
 20
1616.325372557066
 30
0.0
 50
293.61859131
  0
SEQEND
  5
9DC
330
9D5
100
AcDbEntity
  8
BILD
 62
     1
  0
LINE
  5
9DD
330
1F
100
AcDbEntity
  8
BILD
  6
GESTRICHELT
 62
     1
100
AcDbLine
 10
1882.085430374525
 20
1616.325494627066
 30
0.0
 11
1882.085430374525
 21
1617.925592287067
 31
0.0
  0
LINE
  5
9DE
330
1F
100
AcDbEntity
  8
BILD
  6
GESTRICHELT
 62
     1
100
AcDbLine
 10
1884.085430374524
 20
1616.325494627066
 30
0.0
 11
1884.085430374524
 21
1617.925592287067
 31
0.0
  0
LINE
  5
9DF
330
1F
100
AcDbEntity
  8
BILD
  6
GESTRICHELT
 62
     1
100
AcDbLine
 10
1881.085430374524
 20
1617.925592287067
 30
0.0
 11
1883.083477254523
 21
1618.751764167069
 31
0.0
  0
LINE
  5
9E0
330
1F
100
AcDbEntity
  8
BILD
  6
GESTRICHELT
 62
     1
100
AcDbLine
 10
1885.085430374525
 20
1617.925592287067
 30
0.0
 11
1883.083477254523
 21
1618.751764167069
 31
0.0
  0
ARC
  5
9E1
330
1F
100
AcDbEntity
  8
BILD
  6
AUSGEZOGEN
 62
     1
100
AcDbCircle
 10
2053.114422074525
 20
1969.735772947067
 30
0.0
 40
1.228882669999999
100
AcDbArc
 50
90.00000762997665
 51
270.0
  0
LINE
  5
9E2
330
1F
100
AcDbEntity
  8
BILD
  6
AUSGEZOGEN
 62
     1
100
AcDbLine
 10
2053.114422074525
 20
1970.964776857067
 30
0.0
 11
2071.885540244525
 21
1970.964776857067
 31
0.0
  0
LINE
  5
9E3
330
1F
100
AcDbEntity
  8
BILD
  6
AUSGEZOGEN
 62
     1
100
AcDbLine
 10
2053.114422074525
 20
1968.507013187068
 30
0.0
 11
2071.885540244525
 21
1968.507013187068
 31
0.0
  0
ARC
  5
9E4
330
1F
100
AcDbEntity
  8
BILD
  6
AUSGEZOGEN
 62
     1
100
AcDbCircle
 10
2053.398723834524
 20
1966.213800297067
 30
0.0
 40
1.51321495
100
AcDbArc
 50
90.00000762997665
 51
270.0
  0
LINE
  5
9E5
330
1F
100
AcDbEntity
  8
BILD
  6
AUSGEZOGEN
 62
     1
100
AcDbLine
 10
2053.398723834524
 20
1967.726739747067
 30
0.0
 11
2071.885540244525
 21
1967.726739747067
 31
0.0
  0
LINE
  5
9E6
330
1F
100
AcDbEntity
  8
BILD
  6
AUSGEZOGEN
 62
     1
100
AcDbLine
 10
2053.398723834524
 20
1964.700372557068
 30
0.0
 11
2071.885540244525
 21
1964.700372557068
 31
0.0
  0
LINE
  5
9E7
330
1F
100
AcDbEntity
  8
BILD
  6
AUSGEZOGEN
 62
     1
100
AcDbLine
 10
2053.634807824524
 20
1962.691583497067
 30
0.0
 11
2071.885540244525
 21
1962.691583497067
 31
0.0
  0
ARC
  5
9E8
330
1F
100
AcDbEntity
  8
BILD
  6
AUSGEZOGEN
 62
     1
100
AcDbCircle
 10
2053.634807824524
 20
1960.942315917068
 30
0.0
 40
1.74923801
100
AcDbArc
 50
89.99997710986162
 51
270.0
  0
ARC
  5
9E9
330
1F
100
AcDbEntity
  8
BILD
  6
AUSGEZOGEN
 62
     1
100
AcDbCircle
 10
2053.792766804526
 20
1954.431329597067
 30
0.0
 40
1.907197359999999
100
AcDbArc
 50
90.00000762997665
 51
270.0
  0
LINE
  5
9EA
330
1F
100
AcDbEntity
  8
BILD
  6
AUSGEZOGEN
 62
     1
100
AcDbLine
 10
2053.792766804526
 20
1956.338312017066
 30
0.0
 11
2071.885540244525
 21
1956.338312017066
 31
0.0
  0
LINE
  5
9EB
330
1F
100
AcDbEntity
  8
BILD
  6
AUSGEZOGEN
 62
     1
100
AcDbLine
 10
2053.634807824524
 20
1959.193048347067
 30
0.0
 11
2071.885540244525
 21
1959.193048347067
 31
0.0
  0
LINE
  5
9EC
330
1F
100
AcDbEntity
  8
BILD
  6
AUSGEZOGEN
 62
     1
100
AcDbLine
 10
2053.792766804526
 20
1952.524103027067
 30
0.0
 11
2071.885540244525
 21
1952.524103027067
 31
0.0
  0
LINE
  5
9ED
330
1F
100
AcDbEntity
  8
BILD
  6
AUSGEZOGEN
 62
     1
100
AcDbLine
 10
2071.885540244525
 20
1972.075616697067
 30
0.0
 11
2071.885540244525
 21
1922.575372557068
 31
0.0
  0
LINE
  5
9EE
330
1F
100
AcDbEntity
  8
BILD
  6
AUSGEZOGEN
 62
     1
100
AcDbLine
 10
2071.885540244525
 20
1949.325372557067
 30
0.0
 11
2053.885540244525
 21
1949.325372557067
 31
0.0
  0
ARC
  5
9EF
330
1F
100
AcDbEntity
  8
BILD
  6
AUSGEZOGEN
 62
     1
100
AcDbCircle
 10
2053.885540244525
 20
1947.325616697067
 30
0.0
 40
2.000001189999999
100
AcDbArc
 50
90.00000762997665
 51
180.0
  0
LINE
  5
9F0
330
1F
100
AcDbEntity
  8
BILD
  6
AUSGEZOGEN
 62
     1
100
AcDbLine
 10
2071.885540244525
 20
1922.575372557068
 30
0.0
 11
2071.885540244525
 21
1972.075372557068
 31
0.0
  0
ARC
  5
9F1
330
1F
100
AcDbEntity
  8
BILD
  6
AUSGEZOGEN
 62
     1
100
AcDbCircle
 10
2053.114422074525
 20
1924.915216307067
 30
0.0
 40
1.228882669999999
100
AcDbArc
 50
90.00000762997665
 51
270.0
  0
ARC
  5
9F2
330
1F
100
AcDbEntity
  8
BILD
  6
AUSGEZOGEN
 62
     1
100
AcDbCircle
 10
2053.398723834524
 20
1928.437433107067
 30
0.0
 40
1.51321495
100
AcDbArc
 50
90.00000762997665
 51
270.0
  0
ARC
  5
9F3
330
1F
100
AcDbEntity
  8
BILD
  6
AUSGEZOGEN
 62
     1
100
AcDbCircle
 10
2053.634807824524
 20
1933.708673347067
 30
0.0
 40
1.74923801
100
AcDbArc
 50
89.99997710986162
 51
270.0
  0
ARC
  5
9F4
330
1F
100
AcDbEntity
  8
BILD
  6
AUSGEZOGEN
 62
     1
100
AcDbCircle
 10
2053.792766804526
 20
1940.219659667066
 30
0.0
 40
1.907197359999999
100
AcDbArc
 50
90.00000762997665
 51
270.0
  0
LINE
  5
9F5
330
1F
100
AcDbEntity
  8
BILD
  6
AUSGEZOGEN
 62
     1
100
AcDbLine
 10
2053.114422074525
 20
1923.686212407067
 30
0.0
 11
2071.885540244525
 21
1923.686212407067
 31
0.0
  0
LINE
  5
9F6
330
1F
100
AcDbEntity
  8
BILD
  6
AUSGEZOGEN
 62
     1
100
AcDbLine
 10
2053.114422074525
 20
1926.143976077067
 30
0.0
 11
2071.885540244525
 21
1926.143976077067
 31
0.0
  0
LINE
  5
9F7
330
1F
100
AcDbEntity
  8
BILD
  6
AUSGEZOGEN
 62
     1
100
AcDbLine
 10
2053.398723834524
 20
1926.924005377067
 30
0.0
 11
2071.885540244525
 21
1926.924005377067
 31
0.0
  0
LINE
  5
9F8
330
1F
100
AcDbEntity
  8
BILD
  6
AUSGEZOGEN
 62
     1
100
AcDbLine
 10
2053.398723834524
 20
1929.950372557067
 30
0.0
 11
2071.885540244525
 21
1929.950372557067
 31
0.0
  0
LINE
  5
9F9
330
1F
100
AcDbEntity
  8
BILD
  6
AUSGEZOGEN
 62
     1
100
AcDbLine
 10
2053.634807824524
 20
1931.959405767067
 30
0.0
 11
2071.885540244525
 21
1931.959405767067
 31
0.0
  0
LINE
  5
9FA
330
1F
100
AcDbEntity
  8
BILD
  6
AUSGEZOGEN
 62
     1
100
AcDbLine
 10
2053.792766804526
 20
1938.312433107067
 30
0.0
 11
2071.885540244525
 21
1938.312433107067
 31
0.0
  0
LINE
  5
9FB
330
1F
100
AcDbEntity
  8
BILD
  6
AUSGEZOGEN
 62
     1
100
AcDbLine
 10
2053.634807824524
 20
1935.457696777067
 30
0.0
 11
2071.885540244525
 21
1935.457696777067
 31
0.0
  0
LINE
  5
9FC
330
1F
100
AcDbEntity
  8
BILD
  6
AUSGEZOGEN
 62
     1
100
AcDbLine
 10
2053.792766804526
 20
1942.126886237068
 30
0.0
 11
2071.885540244525
 21
1942.126886237068
 31
0.0
  0
LINE
  5
9FD
330
1F
100
AcDbEntity
  8
BILD
  6
AUSGEZOGEN
 62
     1
100
AcDbLine
 10
2071.885540244525
 20
1945.325372557067
 30
0.0
 11
2053.885540244525
 21
1945.325372557067
 31
0.0
  0
ARC
  5
9FE
330
1F
100
AcDbEntity
  8
BILD
  6
AUSGEZOGEN
 62
     1
100
AcDbCircle
 10
2053.885540244525
 20
1947.325616697067
 30
0.0
 40
2.000001189999999
100
AcDbArc
 50
180.0
 51
270.0
  0
LINE
  5
9FF
330
1F
100
AcDbEntity
  8
BILD
  6
AUSGEZOGEN
 62
     1
100
AcDbLine
 10
2071.885540244525
 20
1922.575372557068
 30
0.0
 11
2050.885540244525
 21
1922.575372557068
 31
0.0
  0
ARC
  5
A00
330
1F
100
AcDbEntity
  8
BILD
  6
AUSGEZOGEN
 62
     1
100
AcDbCircle
 10
2050.885540244525
 20
1924.575616697067
 30
0.0
 40
2.000001189999999
100
AcDbArc
 50
180.0
 51
270.0
  0
LINE
  5
A01
330
1F
100
AcDbEntity
  8
BILD
  6
AUSGEZOGEN
 62
     1
100
AcDbLine
 10
2071.885540244525
 20
1972.075372557068
 30
0.0
 11
2050.885540244525
 21
1972.075372557068
 31
0.0
  0
ARC
  5
A02
330
1F
100
AcDbEntity
  8
BILD
  6
AUSGEZOGEN
 62
     1
100
AcDbCircle
 10
2050.885540244525
 20
1970.075372557067
 30
0.0
 40
2.000001189999999
100
AcDbArc
 50
90.00000762997665
 51
180.0
  0
LINE
  5
A03
330
1F
100
AcDbEntity
  8
BILD
  6
AUSGEZOGEN
 62
     1
100
AcDbLine
 10
2048.885540244525
 20
1970.075372557067
 30
0.0
 11
2048.885540244525
 21
1924.575372557067
 31
0.0
  0
ARC
  5
A04
330
1F
100
AcDbEntity
  8
BILD
  6
AUSGEZOGEN
 62
     1
100
AcDbCircle
 10
2036.385540244525
 20
1929.825616697067
 30
0.0
 40
5.00000286
100
AcDbArc
 50
90.00000762997665
 51
180.0
  0
ARC
  5
A05
330
1F
100
AcDbEntity
  8
BILD
  6
AUSGEZOGEN
 62
     1
100
AcDbCircle
 10
2036.385540244525
 20
1929.825616697067
 30
0.0
 40
30.00001907
100
AcDbArc
 50
90.00000762997665
 51
180.0
  0
LINE
  5
A06
330
1F
100
AcDbEntity
  8
BILD
  6
AUSGEZOGEN
 62
     1
100
AcDbLine
 10
2006.385479204527
 20
1929.825372557067
 30
0.0
 11
2006.385479204527
 21
1917.325372557067
 31
0.0
  0
LINE
  5
A07
330
1F
100
AcDbEntity
  8
BILD
  6
AUSGEZOGEN
 62
     1
100
AcDbLine
 10
2031.385479204527
 20
1929.825372557067
 30
0.0
 11
2031.385479204527
 21
1917.325616697067
 31
0.0
  0
LINE
  5
A08
330
1F
100
AcDbEntity
  8
BILD
  6
AUSGEZOGEN
 62
     1
100
AcDbLine
 10
2048.885540244525
 20
1959.825372557067
 30
0.0
 11
2036.385540244525
 21
1959.825372557067
 31
0.0
  0
LINE
  5
A09
330
1F
100
AcDbEntity
  8
BILD
  6
AUSGEZOGEN
 62
     1
100
AcDbLine
 10
2048.885540244525
 20
1934.825372557067
 30
0.0
 11
2036.385540244525
 21
1934.825372557067
 31
0.0
  0
LINE
  5
A0A
330
1F
100
AcDbEntity
  8
BILD
  6
MITTE
 62
     1
100
AcDbLine
 10
2145.534099814525
 20
1947.325372557067
 30
0.0
 11
2036.385479204527
 21
1947.325616697067
 31
0.0
  0
LINE
  5
A0B
330
1F
100
AcDbEntity
  8
BILD
  6
AUSGEZOGEN
 62
     1
100
AcDbLine
 10
1971.159404984525
 20
1661.127008307068
 30
0.0
 11
1969.666790244525
 21
1661.127008307068
 31
0.0
  0
ARC
  5
A0C
330
1F
100
AcDbEntity
  8
BILD
  6
AUSGEZOGEN
 62
     1
100
AcDbCircle
 10
1971.159527054525
 20
1659.219781737067
 30
0.0
 40
1.907196399999999
100
AcDbArc
 50
312.4786987299884
 51
90.0
  0
LINE
  5
A0D
330
1F
100
AcDbEntity
  8
BILD
  6
AUSGEZOGEN
 62
     1
100
AcDbLine
 10
1953.066631554527
 20
1680.910455567069
 30
0.0
 11
1953.066631554527
 21
1691.075494627066
 31
0.0
  0
LINE
  5
A0E
330
1F
100
AcDbEntity
  8
BILD
  6
AUSGEZOGEN
 62
     1
100
AcDbLine
 10
1966.982952354526
 20
1664.325494627066
 30
0.0
 11
1971.066631554527
 21
1664.325494627066
 31
0.0
  0
ARC
  5
A0F
330
1F
100
AcDbEntity
  8
BILD
  6
AUSGEZOGEN
 62
     1
100
AcDbCircle
 10
1971.066753624526
 20
1666.325494627066
 30
0.0
 40
2.000000239999999
100
AcDbArc
 50
270.0
 51
0.0
  0
LINE
  5
A10
330
1F
100
AcDbEntity
  8
BILD
  6
AUSGEZOGEN
 62
     1
100
AcDbLine
 10
1971.553447954527
 20
1683.700494627066
 30
0.0
 11
1953.066631554527
 21
1683.700494627066
 31
0.0
  0
ARC
  5
A11
330
1F
100
AcDbEntity
  8
BILD
  6
AUSGEZOGEN
 62
     1
100
AcDbCircle
 10
1971.837871784525
 20
1688.735895017069
 30
0.0
 40
1.22888207
100
AcDbArc
 50
270.0
 51
90.0
  0
ARC
  5
A12
330
1F
100
AcDbEntity
  8
BILD
  6
AUSGEZOGEN
 62
     1
100
AcDbCircle
 10
1971.553447954527
 20
1685.213678227066
 30
0.0
 40
1.513214229999999
100
AcDbArc
 50
269.999969479885
 51
90.0
  0
ARC
  5
A13
330
1F
100
AcDbEntity
  8
BILD
  6
AUSGEZOGEN
 62
     1
100
AcDbCircle
 10
1971.317486044524
 20
1679.942437987067
 30
0.0
 40
1.749237179999999
100
AcDbArc
 50
270.0
 51
90.0
  0
ARC
  5
A14
330
1F
100
AcDbEntity
  8
BILD
  6
AUSGEZOGEN
 62
     1
100
AcDbCircle
 10
1971.159527054525
 20
1673.431451667069
 30
0.0
 40
1.907196399999999
100
AcDbArc
 50
270.0
 51
90.0
  0
LINE
  5
A15
330
1F
100
AcDbEntity
  8
BILD
  6
AUSGEZOGEN
 62
     1
100
AcDbLine
 10
1971.837749714526
 20
1689.964898927066
 30
0.0
 11
1953.066631554527
 21
1689.964898927066
 31
0.0
  0
LINE
  5
A16
330
1F
100
AcDbEntity
  8
BILD
  6
AUSGEZOGEN
 62
     1
100
AcDbLine
 10
1971.837749714526
 20
1687.507135257068
 30
0.0
 11
1953.066631554527
 21
1687.507135257068
 31
0.0
  0
LINE
  5
A17
330
1F
100
AcDbEntity
  8
BILD
  6
AUSGEZOGEN
 62
     1
100
AcDbLine
 10
1971.553447954527
 20
1686.726861817065
 30
0.0
 11
1953.066631554527
 21
1686.726861817065
 31
0.0
  0
LINE
  5
A18
330
1F
100
AcDbEntity
  8
BILD
  6
AUSGEZOGEN
 62
     1
100
AcDbLine
 10
1971.317363974524
 20
1681.691705567069
 30
0.0
 11
1953.066631554527
 21
1681.691705567069
 31
0.0
  0
LINE
  5
A19
330
1F
100
AcDbEntity
  8
BILD
  6
AUSGEZOGEN
 62
     1
100
AcDbLine
 10
1953.066631554527
 20
1691.075494627066
 30
0.0
 11
1953.066631554527
 21
1680.910455567069
 31
0.0
  0
LINE
  5
A1A
330
1F
100
AcDbEntity
  8
BILD
  6
AUSGEZOGEN
 62
     1
100
AcDbLine
 10
1971.317363974524
 20
1678.193170417069
 30
0.0
 11
1955.346599814525
 21
1678.193170417069
 31
0.0
  0
LINE
  5
A1B
330
1F
100
AcDbEntity
  8
BILD
  6
AUSGEZOGEN
 62
     1
100
AcDbLine
 10
1971.159404984525
 20
1675.338678227066
 30
0.0
 11
1957.741802444524
 21
1675.338678227066
 31
0.0
  0
LINE
  5
A1C
330
1F
100
AcDbEntity
  8
BILD
  6
AUSGEZOGEN
 62
     1
100
AcDbLine
 10
1971.159404984525
 20
1671.524225097068
 30
0.0
 11
1960.942486044524
 21
1671.524225097068
 31
0.0
  0
LINE
  5
A1D
330
1F
100
AcDbEntity
  8
BILD
  6
AUSGEZOGEN
 62
     1
100
AcDbLine
 10
1963.332500694526
 20
1668.325494627066
 30
0.0
 11
1971.066631554527
 21
1668.325494627066
 31
0.0
  0
ARC
  5
A1E
330
1F
100
AcDbEntity
  8
BILD
  6
AUSGEZOGEN
 62
     1
100
AcDbCircle
 10
1971.066753624526
 20
1666.325494627066
 30
0.0
 40
2.000000239999999
100
AcDbArc
 50
0.0
 51
90.0
  0
LINE
  5
A1F
330
1F
100
AcDbEntity
  8
BILD
  6
AUSGEZOGEN
 62
     1
100
AcDbLine
 10
1976.066631554527
 20
1653.416803227066
 30
0.0
 11
1976.066631554527
 21
1689.075494627066
 31
0.0
  0
LINE
  5
A20
330
1F
100
AcDbEntity
  8
BILD
  6
AUSGEZOGEN
 62
     1
100
AcDbLine
 10
1953.066631554527
 20
1691.075494627066
 30
0.0
 11
1974.066631554527
 21
1691.075494627066
 31
0.0
  0
ARC
  5
A21
330
1F
100
AcDbEntity
  8
BILD
  6
AUSGEZOGEN
 62
     1
100
AcDbCircle
 10
1974.066753624526
 20
1689.075494627066
 30
0.0
 40
2.000000239999999
100
AcDbArc
 50
0.0
 51
90.0
  0
ARC
  5
A22
330
1F
100
AcDbEntity
  8
BILD
  6
AUSGEZOGEN
 62
     1
100
AcDbCircle
 10
1988.566753624526
 20
1683.825494627066
 30
0.0
 40
5.000000479999999
100
AcDbArc
 50
270.0
 51
0.0
  0
ARC
  5
A23
330
1F
100
AcDbEntity
  8
BILD
  6
AUSGEZOGEN
 62
     1
100
AcDbCircle
 10
1988.566753624526
 20
1683.825494627066
 30
0.0
 40
30.00000381
100
AcDbArc
 50
270.0
 51
0.0
  0
LINE
  5
A24
330
1F
100
AcDbEntity
  8
BILD
  6
AUSGEZOGEN
 62
     1
100
AcDbLine
 10
2018.566631554527
 20
1683.825494627066
 30
0.0
 11
2018.566631554527
 21
1696.325494627066
 31
0.0
  0
LINE
  5
A25
330
1F
100
AcDbEntity
  8
BILD
  6
AUSGEZOGEN
 62
     1
100
AcDbLine
 10
1993.566631554527
 20
1683.825494627066
 30
0.0
 11
1993.566631554527
 21
1696.325494627066
 31
0.0
  0
LINE
  5
A26
330
1F
100
AcDbEntity
  8
BILD
  6
AUSGEZOGEN
 62
     1
100
AcDbLine
 10
1976.066631554527
 20
1678.825494627066
 30
0.0
 11
1988.566631554527
 21
1678.825494627066
 31
0.0
  0
LINE
  5
A27
330
1F
100
AcDbEntity
  8
BILD
  6
AUSGEZOGEN
 62
     1
100
AcDbLine
 10
1976.066631554527
 20
1653.825494627066
 30
0.0
 11
1988.566631554527
 21
1653.825494627066
 31
0.0
  0
ARC
  5
A28
330
1F
100
AcDbEntity
  8
BILD
  6
AUSGEZOGEN
 62
     1
100
AcDbCircle
 10
1873.850567094526
 20
1859.325494627067
 30
0.0
 40
2.000002149999999
100
AcDbArc
 50
90.0
 51
172.8732604999529
  0
ARC
  5
A29
330
1F
100
AcDbEntity
  8
BILD
  6
AUSGEZOGEN
 62
     1
100
AcDbCircle
 10
1892.319805374524
 20
1859.325494627067
 30
0.0
 40
2.000002149999999
100
AcDbArc
 50
7.128478999907993
 51
90.00001525995328
  0
LINE
  5
A2A
330
1F
100
AcDbEntity
  8
BILD
  6
AUSGEZOGEN
 62
     1
100
AcDbLine
 10
1850.584942094526
 20
1821.325494627067
 30
0.0
 11
1850.584942094526
 21
1856.325494627067
 31
0.0
  0
LINE
  5
A2B
330
1F
100
AcDbEntity
  8
BILD
  6
AUSGEZOGEN
 62
     1
100
AcDbLine
 10
1837.584942094526
 20
1821.325494627067
 30
0.0
 11
1837.584942094526
 21
1856.325494627067
 31
0.0
  0
LINE
  5
A2C
330
1F
100
AcDbEntity
  8
BILD
  6
AUSGEZOGEN
 62
     1
100
AcDbLine
 10
1850.584942094526
 20
1856.325494627067
 30
0.0
 11
1837.584942094526
 21
1856.325494627067
 31
0.0
  0
LINE
  5
A2D
330
1F
100
AcDbEntity
  8
BILD
  6
AUSGEZOGEN
 62
     1
100
AcDbLine
 10
1950.585430374524
 20
1685.775445807069
 30
0.0
 11
1953.066387414527
 21
1685.775445807069
 31
0.0
  0
LINE
  5
A2E
330
1F
100
AcDbEntity
  8
BILD
  6
AUSGEZOGEN
 62
     1
100
AcDbLine
 10
1950.026592484525
 20
1687.275445807068
 30
0.0
 11
1953.066387414527
 21
1687.275445807068
 31
0.0
  0
LINE
  5
A2F
330
1F
100
AcDbEntity
  8
BILD
  6
AUSGEZOGEN
 62
     1
100
AcDbLine
 10
1950.585430374524
 20
1687.275445807068
 30
0.0
 11
1950.585430374524
 21
1683.455377447067
 31
0.0
  0
LINE
  5
A30
330
1F
100
AcDbEntity
  8
BILD
  6
AUSGEZOGEN
 62
     1
100
AcDbLine
 10
1948.585430374524
 20
1741.325494627066
 30
0.0
 11
1950.102092974524
 21
1684.443292487069
 31
0.0
  0
LINE
  5
A31
330
1F
100
AcDbEntity
  8
BILD
  6
AUSGEZOGEN
 62
     1
100
AcDbLine
 10
1933.085430374524
 20
1621.325494627066
 30
0.0
 11
1933.085430374524
 21
1638.517999517067
 31
0.0
  0
LINE
  5
A32
330
1F
100
AcDbEntity
  8
BILD
  6
AUSGEZOGEN
 62
     1
100
AcDbLine
 10
1930.283550494528
 20
1641.325494627066
 30
0.0
 11
1815.584820024526
 21
1641.325494627066
 31
0.0
  0
LINE
  5
A33
330
1F
100
AcDbEntity
  8
BILD
  6
AUSGEZOGEN
 62
     1
100
AcDbLine
 10
1828.146221394526
 20
1764.510675297066
 30
0.0
 11
1831.084942094526
 21
1821.325494627067
 31
0.0
  0
LINE
  5
A34
330
1F
100
AcDbEntity
  8
BILD
  6
AUSGEZOGEN
 62
     1
100
AcDbLine
 10
1938.085430374524
 20
1763.325494627066
 30
0.0
 11
1830.129436724524
 21
1763.325494627066
 31
0.0
  0
LINE
  5
A35
330
1F
100
AcDbEntity
  8
BILD
  6
AUSGEZOGEN
 62
     1
100
AcDbLine
 10
1821.019695514524
 20
1755.888604987069
 30
0.0
 11
1818.584820024526
 21
1753.325494627066
 31
0.0
  0
LINE
  5
A36
330
1F
100
AcDbEntity
  8
BILD
  6
AUSGEZOGEN
 62
     1
100
AcDbLine
 10
1830.807537314525
 20
1753.325494627066
 30
0.0
 11
1818.584820024526
 21
1753.325494627066
 31
0.0
  0
LINE
  5
A37
330
1F
100
AcDbEntity
  8
BILD
  6
AUSGEZOGEN
 62
     1
100
AcDbLine
 10
1948.585430374524
 20
1741.325494627066
 30
0.0
 11
1884.411052934526
 21
1741.325494627066
 31
0.0
  0
LINE
  5
A38
330
1F
100
AcDbEntity
  8
BILD
  6
AUSGEZOGEN
 62
     1
100
AcDbLine
 10
1867.848247764525
 20
1741.325494627066
 30
0.0
 11
1817.584820024526
 21
1741.325494627066
 31
0.0
  0
LINE
  5
A39
330
1F
100
AcDbEntity
  8
BILD
  6
AUSGEZOGEN
 62
     1
100
AcDbLine
 10
1910.477825394525
 20
1666.325494627066
 30
0.0
 11
1815.584820024526
 21
1666.325494627066
 31
0.0
  0
LINE
  5
A3A
330
1F
100
AcDbEntity
  8
BILD
  6
AUSGEZOGEN
 62
     1
100
AcDbLine
 10
1947.585430374525
 20
1753.325494627066
 30
0.0
 11
1864.966778034525
 21
1753.325494627066
 31
0.0
  0
LINE
  5
A3B
330
1F
100
AcDbEntity
  8
BILD
  6
AUSGEZOGEN
 62
     1
100
AcDbLine
 10
1899.085430374524
 20
1821.325494627067
 30
0.0
 11
1894.304180374524
 21
1859.573785647067
 31
0.0
  0
LINE
  5
A3C
330
1F
100
AcDbEntity
  8
BILD
  6
AUSGEZOGEN
 62
     1
100
AcDbLine
 10
1892.319805374524
 20
1861.325494627067
 30
0.0
 11
1873.850567094526
 21
1861.325494627067
 31
0.0
  0
LINE
  5
A3D
330
1F
100
AcDbEntity
  8
BILD
  6
AUSGEZOGEN
 62
     1
100
AcDbLine
 10
1867.084942094526
 20
1821.325494627067
 30
0.0
 11
1871.866192094526
 21
1859.573541507067
 31
0.0
  0
LINE
  5
A3E
330
1F
100
AcDbEntity
  8
BILD
  6
AUSGEZOGEN
 62
     1
100
AcDbLine
 10
1815.584820024526
 20
1621.325494627066
 30
0.0
 11
1815.584820024526
 21
1641.325494627066
 31
0.0
  0
LINE
  5
A3F
330
1F
100
AcDbEntity
  8
BILD
  6
AUSGEZOGEN
 62
     1
100
AcDbLine
 10
1873.084942094526
 20
1621.325494627066
 30
0.0
 11
1873.084942094526
 21
1641.325494627066
 31
0.0
  0
LINE
  5
A40
330
1F
100
AcDbEntity
  8
BILD
  6
AUSGEZOGEN
 62
     1
100
AcDbLine
 10
1893.085430374524
 20
1621.325494627066
 30
0.0
 11
1893.085430374524
 21
1641.325494627066
 31
0.0
  0
LINE
  5
A41
330
1F
100
AcDbEntity
  8
BILD
  6
AUSGEZOGEN
 62
     1
100
AcDbLine
 10
1863.084942094526
 20
1621.325494627066
 30
0.0
 11
1863.084942094526
 21
1641.325494627066
 31
0.0
  0
LINE
  5
A42
330
1F
100
AcDbEntity
  8
BILD
  6
AUSGEZOGEN
 62
     1
100
AcDbLine
 10
1903.085430374525
 20
1621.325494627066
 30
0.0
 11
1903.085430374525
 21
1641.325494627066
 31
0.0
  0
LINE
  5
A43
330
1F
100
AcDbEntity
  8
BILD
  6
AUSGEZOGEN
 62
     1
100
AcDbLine
 10
1854.084942094526
 20
1621.325494627066
 30
0.0
 11
1854.084942094526
 21
1625.325494627066
 31
0.0
  0
LINE
  5
A44
330
1F
100
AcDbEntity
  8
BILD
  6
AUSGEZOGEN
 62
     1
100
AcDbLine
 10
1912.085430374524
 20
1621.325494627066
 30
0.0
 11
1912.085430374524
 21
1641.325494627066
 31
0.0
  0
LINE
  5
A45
330
1F
100
AcDbEntity
  8
BILD
  6
AUSGEZOGEN
 62
     1
100
AcDbLine
 10
1846.084942094526
 20
1621.325494627066
 30
0.0
 11
1846.084942094526
 21
1641.325494627066
 31
0.0
  0
LINE
  5
A46
330
1F
100
AcDbEntity
  8
BILD
  6
AUSGEZOGEN
 62
     1
100
AcDbLine
 10
1920.085430374524
 20
1621.325494627066
 30
0.0
 11
1920.085430374524
 21
1641.325494627066
 31
0.0
  0
LINE
  5
A47
330
1F
100
AcDbEntity
  8
BILD
  6
AUSGEZOGEN
 62
     1
100
AcDbLine
 10
1927.085430374524
 20
1621.325494627066
 30
0.0
 11
1927.085430374524
 21
1641.325494627066
 31
0.0
  0
LINE
  5
A48
330
1F
100
AcDbEntity
  8
BILD
  6
AUSGEZOGEN
 62
     1
100
AcDbLine
 10
1933.085430374524
 20
1628.325494627066
 30
0.0
 11
1927.085430374524
 21
1628.325494627066
 31
0.0
  0
LINE
  5
A49
330
1F
100
AcDbEntity
  8
BILD
  6
AUSGEZOGEN
 62
     1
100
AcDbLine
 10
1933.085430374524
 20
1625.325494627066
 30
0.0
 11
1927.085430374524
 21
1625.325494627066
 31
0.0
  0
LINE
  5
A4A
330
1F
100
AcDbEntity
  8
BILD
  6
AUSGEZOGEN
 62
     1
100
AcDbLine
 10
1920.085430374524
 20
1628.325494627066
 30
0.0
 11
1912.085430374524
 21
1628.325494627066
 31
0.0
  0
LINE
  5
A4B
330
1F
100
AcDbEntity
  8
BILD
  6
AUSGEZOGEN
 62
     1
100
AcDbLine
 10
1920.085430374524
 20
1625.325494627066
 30
0.0
 11
1912.085430374524
 21
1625.325494627066
 31
0.0
  0
LINE
  5
A4C
330
1F
100
AcDbEntity
  8
BILD
  6
AUSGEZOGEN
 62
     1
100
AcDbLine
 10
1854.084942094526
 20
1628.325494627066
 30
0.0
 11
1846.084942094526
 21
1628.325494627066
 31
0.0
  0
LINE
  5
A4D
330
1F
100
AcDbEntity
  8
BILD
  6
AUSGEZOGEN
 62
     1
100
AcDbLine
 10
1854.084942094526
 20
1625.325494627066
 30
0.0
 11
1854.084942094526
 21
1641.325494627066
 31
0.0
  0
LINE
  5
A4E
330
1F
100
AcDbEntity
  8
BILD
  6
AUSGEZOGEN
 62
     1
100
AcDbLine
 10
1839.084942094526
 20
1621.325494627066
 30
0.0
 11
1839.084942094526
 21
1641.325494627066
 31
0.0
  0
LINE
  5
A4F
330
1F
100
AcDbEntity
  8
BILD
  6
AUSGEZOGEN
 62
     1
100
AcDbLine
 10
1839.084942094526
 20
1628.325494627066
 30
0.0
 11
1833.084942094526
 21
1628.325494627066
 31
0.0
  0
LINE
  5
A50
330
1F
100
AcDbEntity
  8
BILD
  6
AUSGEZOGEN
 62
     1
100
AcDbLine
 10
1833.084942094526
 20
1621.325494627066
 30
0.0
 11
1833.084942094526
 21
1641.325494627066
 31
0.0
  0
LINE
  5
A51
330
1F
100
AcDbEntity
  8
BILD
  6
AUSGEZOGEN
 62
     1
100
AcDbLine
 10
1854.084942094526
 20
1625.325494627066
 30
0.0
 11
1846.084942094526
 21
1625.325494627066
 31
0.0
  0
LINE
  5
A52
330
1F
100
AcDbEntity
  8
BILD
  6
AUSGEZOGEN
 62
     1
100
AcDbLine
 10
1839.084942094526
 20
1625.325494627066
 30
0.0
 11
1833.084942094526
 21
1625.325494627066
 31
0.0
  0
LINE
  5
A53
330
1F
100
AcDbEntity
  8
BILD
  6
AUSGEZOGEN
 62
     1
100
AcDbLine
 10
1933.085430374524
 20
1638.325494627066
 30
0.0
 11
1927.085430374524
 21
1638.325494627066
 31
0.0
  0
LINE
  5
A54
330
1F
100
AcDbEntity
  8
BILD
  6
AUSGEZOGEN
 62
     1
100
AcDbLine
 10
1920.085430374524
 20
1638.325494627066
 30
0.0
 11
1912.085430374524
 21
1638.325494627066
 31
0.0
  0
LINE
  5
A55
330
1F
100
AcDbEntity
  8
BILD
  6
AUSGEZOGEN
 62
     1
100
AcDbLine
 10
1903.085430374525
 20
1638.325494627066
 30
0.0
 11
1893.085430374524
 21
1638.325494627066
 31
0.0
  0
LINE
  5
A56
330
1F
100
AcDbEntity
  8
BILD
  6
AUSGEZOGEN
 62
     1
100
AcDbLine
 10
1873.084942094526
 20
1638.325494627066
 30
0.0
 11
1863.084942094526
 21
1638.325494627066
 31
0.0
  0
LINE
  5
A57
330
1F
100
AcDbEntity
  8
BILD
  6
AUSGEZOGEN
 62
     1
100
AcDbLine
 10
1854.084942094526
 20
1638.325494627066
 30
0.0
 11
1846.084942094526
 21
1638.325494627066
 31
0.0
  0
LINE
  5
A58
330
1F
100
AcDbEntity
  8
BILD
  6
AUSGEZOGEN
 62
     1
100
AcDbLine
 10
1839.084942094526
 20
1638.325494627066
 30
0.0
 11
1833.084942094526
 21
1638.325494627066
 31
0.0
  0
LINE
  5
A59
330
1F
100
AcDbEntity
  8
BILD
  6
AUSGEZOGEN
 62
     1
100
AcDbLine
 10
1815.584820024526
 20
1641.325494627066
 30
0.0
 11
1815.584820024526
 21
1666.325494627066
 31
0.0
  0
LINE
  5
A5A
330
1F
100
AcDbEntity
  8
BILD
  6
AUSGEZOGEN
 62
     1
100
AcDbLine
 10
1817.584820024526
 20
1741.325494627066
 30
0.0
 11
1815.584820024526
 21
1666.325494627066
 31
0.0
  0
ARC
  5
A5B
330
1F
100
AcDbEntity
  8
BILD
  6
AUSGEZOGEN
 62
     1
100
AcDbCircle
 10
1947.585430374525
 20
1752.325494627066
 30
0.0
 40
1.000001069999999
100
AcDbArc
 50
0.0
 51
90.0
  0
LINE
  5
A5C
330
1F
100
AcDbEntity
  8
BILD
  6
AUSGEZOGEN
 62
     1
100
AcDbLine
 10
1948.585430374524
 20
1741.325494627066
 30
0.0
 11
1948.585430374524
 21
1752.325494627066
 31
0.0
  0
ARC
  5
A5D
330
1F
100
AcDbEntity
  8
BILD
  6
AUSGEZOGEN
 62
     1
100
AcDbCircle
 10
1818.584820024526
 20
1752.325494627066
 30
0.0
 40
1.000001069999999
100
AcDbArc
 50
90.0
 51
180.0
  0
LINE
  5
A5E
330
1F
100
AcDbEntity
  8
BILD
  6
AUSGEZOGEN
 62
     1
100
AcDbLine
 10
1817.584820024526
 20
1741.325494627066
 30
0.0
 11
1817.584820024526
 21
1752.325494627066
 31
0.0
  0
LINE
  5
A5F
330
1F
100
AcDbEntity
  8
BILD
  6
AUSGEZOGEN
 62
     1
100
AcDbLine
 10
1935.085430374525
 20
1821.325494627067
 30
0.0
 11
1831.084942094526
 21
1821.325494627067
 31
0.0
  0
LINE
  5
A60
330
1F
100
AcDbEntity
  8
BILD
  6
AUSGEZOGEN
 62
     1
100
AcDbLine
 10
1938.085430374524
 20
1763.325494627066
 30
0.0
 11
1935.085430374525
 21
1821.325494627067
 31
0.0
  0
LINE
  5
A61
330
1F
100
AcDbEntity
  8
BILD
  6
AUSGEZOGEN
 62
     1
100
AcDbLine
 10
1947.585430374525
 20
1753.325494627066
 30
0.0
 11
1938.085430374524
 21
1763.325494627066
 31
0.0
  0
LINE
  5
A62
330
1F
100
AcDbEntity
  8
BILD
  6
AUSGEZOGEN
 62
     1
100
AcDbLine
 10
1883.085430374524
 20
1625.325738767069
 30
0.0
 11
1863.084942094526
 21
1625.325494627066
 31
0.0
  0
LINE
  5
A63
330
1F
100
AcDbEntity
  8
BILD
  6
AUSGEZOGEN
 62
     1
100
AcDbLine
 10
1903.085430374525
 20
1625.325494627066
 30
0.0
 11
1883.085430374524
 21
1625.325494627066
 31
0.0
  0
LINE
  5
A64
330
1F
100
AcDbEntity
  8
BILD
  6
AUSGEZOGEN
 62
     1
100
AcDbLine
 10
1880.085430374524
 20
1628.325494627066
 30
0.0
 11
1863.084942094526
 21
1628.325494627066
 31
0.0
  0
LINE
  5
A65
330
1F
100
AcDbEntity
  8
BILD
  6
AUSGEZOGEN
 62
     1
100
AcDbLine
 10
1903.085430374525
 20
1628.325494627066
 30
0.0
 11
1886.085430374524
 21
1628.325494627066
 31
0.0
  0
LINE
  5
A66
330
1F
100
AcDbEntity
  8
BILD
  6
GESTRICHELT
 62
     1
100
AcDbLine
 10
1895.335430374524
 20
1851.325494627067
 30
0.0
 11
1870.834942094526
 21
1851.325494627067
 31
0.0
  0
ARC
  5
A67
330
1F
100
AcDbEntity
  8
BILD
  6
AUSGEZOGEN
 62
     1
100
AcDbCircle
 10
1923.347881554527
 20
1692.991754397068
 30
0.0
 40
15.0
100
AcDbArc
 50
39.9999999999192
 51
118.4630355800316
  0
LINE
  5
A68
330
1F
100
AcDbEntity
  8
BILD
  6
AUSGEZOGEN
 62
     1
100
AcDbLine
 10
1934.838604204527
 20
1702.633844237067
 30
0.0
 11
1979.190838094527
 21
1649.776788577068
 31
0.0
  0
LINE
  5
A69
330
1F
100
AcDbEntity
  8
BILD
  6
AUSGEZOGEN
 62
     1
100
AcDbLine
 10
1914.075908894526
 20
1708.709161627068
 30
0.0
 11
1981.568584674525
 21
1628.274347167067
 31
0.0
  0
LINE
  5
A6A
330
1F
100
AcDbEntity
  8
BILD
  6
AUSGEZOGEN
 62
     1
100
AcDbLine
 10
1900.287090534525
 20
1697.138971197068
 30
0.0
 11
1967.779766314527
 21
1616.704156737067
 31
0.0
  0
LINE
  5
A6B
330
1F
100
AcDbEntity
  8
BILD
  6
AUSGEZOGEN
 62
     1
100
AcDbLine
 10
1902.664776084525
 20
1675.636895997066
 30
0.0
 11
1947.017009964525
 21
1622.779840337067
 31
0.0
  0
ARC
  5
A6C
330
1F
100
AcDbEntity
  8
BILD
  6
AUSGEZOGEN
 62
     1
100
AcDbCircle
 10
1914.155498734525
 20
1685.278497557067
 30
0.0
 40
15.0
100
AcDbArc
 50
141.536956789878
 51
219.9999999999192
  0
ARC
  5
A6D
330
1F
100
AcDbEntity
  8
BILD
  6
AUSGEZOGEN
 62
     1
100
AcDbCircle
 10
1958.507793664528
 20
1632.421563967067
 30
0.0
 40
15.0
100
AcDbArc
 50
219.9999999999192
 51
298.463043210161
  0
ARC
  5
A6E
330
1F
100
AcDbEntity
  8
BILD
  6
AUSGEZOGEN
 62
     1
100
AcDbCircle
 10
1967.700298544524
 20
1640.134820807069
 30
0.0
 40
15.0
100
AcDbArc
 50
321.536956789878
 51
39.9999999999192
  0
LINE
  5
A6F
330
1F
100
AcDbEntity
  8
BILD
  6
AUSGEZOGEN
 62
     1
100
AcDbLine
 10
1872.991131064525
 20
1752.709039557068
 30
0.0
 11
1864.976848834524
 21
1743.756646977066
 31
0.0
  0
ARC
  5
A70
330
1F
100
AcDbEntity
  8
BILD
  6
AUSGEZOGEN
 62
     1
100
AcDbCircle
 10
1844.199138874525
 20
1664.119195807068
 30
0.0
 40
83.59181212999999
100
AcDbArc
 50
74.92407226997134
 51
82.05909728985295
  0
LINE
  5
A71
330
1F
100
AcDbEntity
  8
BILD
  6
AUSGEZOGEN
 62
     1
100
AcDbLine
 10
1859.393047564527
 20
1754.441949707068
 30
0.0
 11
1853.335186234525
 21
1763.325494627066
 31
0.0
  0
LINE
  5
A72
330
1F
100
AcDbEntity
  8
BILD
  6
AUSGEZOGEN
 62
     1
100
AcDbLine
 10
1845.819195024526
 20
1756.985284667067
 30
0.0
 11
1853.335186234525
 21
1763.325494627066
 31
0.0
  0
LINE
  5
A73
330
1F
100
AcDbEntity
  8
BILD
  6
AUSGEZOGEN
 62
     1
100
AcDbLine
 10
1846.895550004526
 20
1756.665216307067
 30
0.0
 11
1825.013592004524
 21
1764.613946777068
 31
0.0
  0
LINE
  5
A74
330
1F
100
AcDbEntity
  8
BILD
  6
AUSGEZOGEN
 62
     1
100
AcDbLine
 10
1845.198833694524
 20
1748.823663577068
 30
0.0
 11
1822.111492394523
 21
1756.624688967067
 31
0.0
  0
ARC
  5
A75
330
1F
100
AcDbEntity
  8
BILD
  6
AUSGEZOGEN
 62
     1
100
AcDbCircle
 10
1971.528484574525
 20
1932.858819827067
 30
0.0
 40
4.24995565
100
AcDbArc
 50
292.8479614300026
 51
112.8479614300025
  0
LINE
  5
A76
330
1F
100
AcDbEntity
  8
BILD
  6
AUSGEZOGEN
 62
     1
100
AcDbLine
 10
1848.334942094526
 20
1856.325494627067
 30
0.0
 11
1848.334881064525
 21
1868.507257327067
 31
0.0
  0
LINE
  5
A77
330
1F
100
AcDbEntity
  8
BILD
  6
AUSGEZOGEN
 62
     1
100
AcDbLine
 10
1855.369610064527
 20
1879.303644047067
 30
0.0
 11
1973.178753134528
 21
1928.942315917068
 31
0.0
  0
ARC
  5
A78
330
1F
100
AcDbEntity
  8
BILD
  6
AUSGEZOGEN
 62
     1
100
AcDbCircle
 10
1859.834942094526
 20
1868.705743657067
 30
0.0
 40
20.00004578
100
AcDbArc
 50
112.8479843100109
 51
180.0
  0
LINE
  5
A79
330
1F
100
AcDbEntity
  8
BILD
  6
AUSGEZOGEN
 62
     1
100
AcDbLine
 10
1852.069133994525
 20
1887.136651857067
 30
0.0
 11
1969.878277054525
 21
1936.775323737068
 31
0.0
  0
ARC
  5
A7A
330
1F
100
AcDbEntity
  8
BILD
  6
AUSGEZOGEN
 62
     1
100
AcDbCircle
 10
1859.834942094526
 20
1868.705743657067
 30
0.0
 40
11.50004578
100
AcDbArc
 50
112.8481750499112
 51
180.0000152599533
  0
ARC
  5
A7B
330
1F
100
AcDbEntity
  8
BILD
  6
AUSGEZOGEN
 62
     1
100
AcDbCircle
 10
1834.415569534528
 20
1856.325494627067
 30
0.0
 40
5.41937256
100
AcDbArc
 50
0.0
 51
144.9231414800691
  0
ARC
  5
A7C
330
1F
100
AcDbEntity
  8
BILD
  6
AUSGEZOGEN
 62
     1
100
AcDbCircle
 10
1834.415569534528
 20
1856.325494627067
 30
0.0
 40
13.91937256
100
AcDbArc
 50
0.0
 51
144.9235839800086
  0
LINE
  5
A7D
330
1F
100
AcDbEntity
  8
BILD
  6
AUSGEZOGEN
 62
     1
100
AcDbLine
 10
1798.978985064527
 20
1830.081598147067
 30
0.0
 11
1823.024090044523
 21
1864.324518067068
 31
0.0
  0
LINE
  5
A7E
330
1F
100
AcDbEntity
  8
BILD
  6
AUSGEZOGEN
 62
     1
100
AcDbLine
 10
1829.980449914527
 20
1859.439874517066
 30
0.0
 11
1805.935283894526
 21
1825.196954597067
 31
0.0
  0
ARC
  5
A7F
330
1F
100
AcDbEntity
  8
BILD
  6
AUSGEZOGEN
 62
     1
100
AcDbCircle
 10
1838.670818564525
 20
1802.210260257069
 30
0.0
 40
40.00003052
100
AcDbArc
 50
144.9236907999052
 51
250.035949709842
  0
ARC
  5
A80
330
1F
100
AcDbEntity
  8
BILD
  6
AUSGEZOGEN
 62
     1
100
AcDbCircle
 10
1838.670818564525
 20
1802.210260257069
 30
0.0
 40
48.50003052
100
AcDbArc
 50
144.9237060498993
 51
250.035949709842
  0
ARC
  5
A81
330
1F
100
AcDbEntity
  8
BILD
  6
AUSGEZOGEN
 62
     1
100
AcDbCircle
 10
1844.199138874525
 20
1664.119195807068
 30
0.0
 40
91.59181213
100
AcDbArc
 50
72.42725371998504
 51
82.0591049200407
  0
ARC
  5
A82
330
1F
100
AcDbEntity
  8
BILD
  6
AUSGEZOGEN
 62
     1
100
AcDbCircle
 10
1822.271465534525
 20
1690.407037597068
 30
0.0
 40
80.33690642999999
100
AcDbArc
 50
30.69439315987571
 51
50.85118102994965
  0
ARC
  5
A83
330
1F
100
AcDbEntity
  8
BILD
  6
AUSGEZOGEN
 62
     1
100
AcDbCircle
 10
1822.271465534525
 20
1690.407037597068
 30
0.0
 40
68.33690643
100
AcDbArc
 50
29.04180527008823
 51
51.32336807002706
  0
ARC
  5
A84
330
1F
100
AcDbEntity
  8
BILD
  6
GESTRICHELT
 62
     1
100
AcDbCircle
 10
1978.585918664527
 20
1918.325616697067
 30
0.0
 40
25.00000191
100
AcDbArc
 50
346.113464359951
 51
148.2284545899597
  0
ARC
  5
A85
330
1F
100
AcDbEntity
  8
BILD
  6
GESTRICHELT
 62
     1
100
AcDbCircle
 10
1978.585918664527
 20
1918.325616697067
 30
0.0
 40
25.00000191
100
AcDbArc
 50
174.4671630899468
 51
346.113464359951
  0
ARC
  5
A86
330
1F
100
AcDbEntity
  8
BILD
  6
AUSGEZOGEN
 62
     1
100
AcDbCircle
 10
1978.585918664527
 20
1918.325616697067
 30
0.0
 40
23.00000191
100
AcDbArc
 50
171.7396240200983
 51
0.0
  0
ARC
  5
A87
330
1F
100
AcDbEntity
  8
BILD
  6
AUSGEZOGEN
 62
     1
100
AcDbCircle
 10
1978.585918664527
 20
1918.325616697067
 30
0.0
 40
23.00000191
100
AcDbArc
 50
0.0
 51
140.4453277600753
  0
LINE
  5
A88
330
1F
100
AcDbEntity
  8
BILD
  6
AUSGEZOGEN
 62
     1
100
AcDbLine
 10
2192.085491414527
 20
1999.825616697067
 30
0.0
 11
2192.085491414527
 21
1996.825616697067
 31
0.0
  0
LINE
  5
A89
330
1F
100
AcDbEntity
  8
BILD
  6
AUSGEZOGEN
 62
     1
100
AcDbLine
 10
2192.085491414527
 20
1999.825616697067
 30
0.0
 11
2092.085491414527
 21
1999.825616697067
 31
0.0
  0
LINE
  5
A8A
330
1F
100
AcDbEntity
  8
BILD
  6
AUSGEZOGEN
 62
     1
100
AcDbLine
 10
2192.085491414527
 20
1996.825616697067
 30
0.0
 11
2092.085491414527
 21
1996.825616697067
 31
0.0
  0
LINE
  5
A8B
330
1F
100
AcDbEntity
  8
BILD
  6
AUSGEZOGEN
 62
     1
100
AcDbLine
 10
1605.085430374525
 20
1999.825616697067
 30
0.0
 11
1605.085430374525
 21
1996.825616697067
 31
0.0
  0
LINE
  5
A8C
330
1F
100
AcDbEntity
  8
BILD
  6
AUSGEZOGEN
 62
     1
100
AcDbLine
 10
1705.085430374525
 20
1999.825616697067
 30
0.0
 11
1605.085430374525
 21
1999.825616697067
 31
0.0
  0
LINE
  5
A8D
330
1F
100
AcDbEntity
  8
BILD
  6
AUSGEZOGEN
 62
     1
100
AcDbLine
 10
1705.085430374525
 20
1996.825616697067
 30
0.0
 11
1605.085430374525
 21
1996.825616697067
 31
0.0
  0
LINE
  5
A8E
330
1F
100
AcDbEntity
  8
BILD
  6
AUSGEZOGEN
 62
     1
100
AcDbLine
 10
2087.585491414527
 20
1926.125665527067
 30
0.0
 11
2087.585491414527
 21
1968.525567877067
 31
0.0
  0
LINE
  5
A8F
330
1F
100
AcDbEntity
  8
BILD
  6
AUSGEZOGEN
 62
     1
100
AcDbLine
 10
2123.585491414527
 20
1926.125665527067
 30
0.0
 11
2123.585491414527
 21
1968.525567877067
 31
0.0
  0
LINE
  5
A90
330
1F
100
AcDbEntity
  8
BILD
  6
AUSGEZOGEN
 62
     1
100
AcDbLine
 10
2123.585491414527
 20
1967.525567877067
 30
0.0
 11
2145.585491414527
 21
1967.525567877067
 31
0.0
  0
LINE
  5
A91
330
1F
100
AcDbEntity
  8
BILD
  6
AUSGEZOGEN
 62
     1
100
AcDbLine
 10
2123.585491414527
 20
1927.125665527067
 30
0.0
 11
2145.585491414527
 21
1927.125665527067
 31
0.0
  0
LINE
  5
A92
330
1F
100
AcDbEntity
  8
BILD
  6
AUSGEZOGEN
 62
     1
100
AcDbLine
 10
2145.585491414527
 20
1926.125665527067
 30
0.0
 11
2145.585491414527
 21
1968.525567877067
 31
0.0
  0
LINE
  5
A93
330
1F
100
AcDbEntity
  8
BILD
  6
AUSGEZOGEN
 62
     1
100
AcDbLine
 10
2071.885540244525
 20
1927.125665527067
 30
0.0
 11
2087.585491414527
 21
1927.125665527067
 31
0.0
  0
LINE
  5
A94
330
1F
100
AcDbEntity
  8
BILD
  6
AUSGEZOGEN
 62
     1
100
AcDbLine
 10
2071.885540244525
 20
1926.125665527067
 30
0.0
 11
2145.585491414527
 21
1926.125665527067
 31
0.0
  0
LINE
  5
A95
330
1F
100
AcDbEntity
  8
BILD
  6
AUSGEZOGEN
 62
     1
100
AcDbLine
 10
2071.885540244525
 20
1967.525567877067
 30
0.0
 11
2087.585491414527
 21
1967.525567877067
 31
0.0
  0
LINE
  5
A96
330
1F
100
AcDbEntity
  8
BILD
  6
AUSGEZOGEN
 62
     1
100
AcDbLine
 10
2071.885540244525
 20
1968.525567877067
 30
0.0
 11
2145.585491414527
 21
1968.525567877067
 31
0.0
  0
LINE
  5
A97
330
1F
100
AcDbEntity
  8
BILD
  6
GESTRICHELT
 62
     1
100
AcDbLine
 10
2123.585491414527
 20
1073.613702637069
 30
0.0
 11
2123.585491414527
 21
1116.013604987069
 31
0.0
  0
LINE
  5
A98
330
1F
100
AcDbEntity
  8
BILD
  6
GESTRICHELT
 62
     1
100
AcDbLine
 10
2123.585491414527
 20
1115.013604987069
 30
0.0
 11
2145.585491414527
 21
1115.013604987069
 31
0.0
  0
LINE
  5
A99
330
1F
100
AcDbEntity
  8
BILD
  6
GESTRICHELT
 62
     1
100
AcDbLine
 10
2123.585491414527
 20
1074.613702637069
 30
0.0
 11
2145.585491414527
 21
1074.613702637069
 31
0.0
  0
LINE
  5
A9A
330
1F
100
AcDbEntity
  8
BILD
  6
GESTRICHELT
 62
     1
100
AcDbLine
 10
2145.585491414527
 20
1073.613702637069
 30
0.0
 11
2145.585491414527
 21
1116.013604987069
 31
0.0
  0
LINE
  5
A9B
330
1F
100
AcDbEntity
  8
BILD
  6
GESTRICHELT
 62
     1
100
AcDbLine
 10
2092.085491414527
 20
1116.013604987069
 30
0.0
 11
2145.585491414527
 21
1116.013604987069
 31
0.0
  0
LINE
  5
A9C
330
1F
100
AcDbEntity
  8
BILD
  6
GESTRICHELT
 62
     1
100
AcDbLine
 10
2092.085491414527
 20
1073.613702637069
 30
0.0
 11
2145.585491414527
 21
1073.613702637069
 31
0.0
  0
LINE
  5
A9D
330
1F
100
AcDbEntity
  8
BILD
  6
GESTRICHELT
 62
     1
100
AcDbLine
 10
1665.085430374524
 20
989.8136538070666
 30
0.0
 11
1665.085430374524
 21
1099.813653807066
 31
0.0
  0
LINE
  5
A9E
330
1F
100
AcDbEntity
  8
BILD
  6
GESTRICHELT
 62
     1
100
AcDbLine
 10
1665.085430374524
 20
1099.813653807066
 30
0.0
 11
1705.085430374525
 21
1099.813653807066
 31
0.0
  0
LINE
  5
A9F
330
1F
100
AcDbEntity
  8
BILD
  6
GESTRICHELT
 62
     1
100
AcDbLine
 10
1665.085430374524
 20
989.8136538070666
 30
0.0
 11
1705.085430374525
 21
989.8136538070666
 31
0.0
  0
LINE
  5
AA0
330
1F
100
AcDbEntity
  8
BILD
  6
MITTE
 62
     1
100
AcDbLine
 10
1654.978374714525
 20
1044.813653807066
 30
0.0
 11
1710.615337604525
 21
1044.813653807066
 31
0.0
  0
LINE
  5
AA1
330
1F
100
AcDbEntity
  8
BILD
  6
GESTRICHELT
 62
     1
100
AcDbLine
 10
1743.585430374524
 20
856.8136538070666
 30
0.0
 11
1853.585430374524
 21
856.8136538070666
 31
0.0
  0
LINE
  5
AA2
330
1F
100
AcDbEntity
  8
BILD
  6
GESTRICHELT
 62
     1
100
AcDbLine
 10
1853.585430374524
 20
856.8136538070666
 30
0.0
 11
1853.585430374524
 21
896.8136538070666
 31
0.0
  0
LINE
  5
AA3
330
1F
100
AcDbEntity
  8
BILD
  6
GESTRICHELT
 62
     1
100
AcDbLine
 10
1743.585430374524
 20
856.8136538070666
 30
0.0
 11
1743.585430374524
 21
896.8136538070666
 31
0.0
  0
LINE
  5
AA4
330
1F
100
AcDbEntity
  8
BILD
  6
MITTE
 62
     1
100
AcDbLine
 10
1798.585430374524
 20
846.7065981470678
 30
0.0
 11
1798.585430374524
 21
902.343561037067
 31
0.0
  0
LINE
  5
AA5
330
1F
100
AcDbEntity
  8
BILD
  6
GESTRICHELT
 62
     1
100
AcDbLine
 10
1743.585430374524
 20
1232.813653807066
 30
0.0
 11
1853.585430374524
 21
1232.813653807066
 31
0.0
  0
LINE
  5
AA6
330
1F
100
AcDbEntity
  8
BILD
  6
GESTRICHELT
 62
     1
100
AcDbLine
 10
1853.585430374524
 20
1232.813653807066
 30
0.0
 11
1853.585430374524
 21
1192.813653807067
 31
0.0
  0
LINE
  5
AA7
330
1F
100
AcDbEntity
  8
BILD
  6
GESTRICHELT
 62
     1
100
AcDbLine
 10
1743.585430374524
 20
1232.813653807066
 30
0.0
 11
1743.585430374524
 21
1192.813653807067
 31
0.0
  0
LINE
  5
AA8
330
1F
100
AcDbEntity
  8
BILD
  6
MITTE
 62
     1
100
AcDbLine
 10
1798.585430374524
 20
1242.920709477066
 30
0.0
 11
1798.585430374524
 21
1187.283746587067
 31
0.0
  0
LINE
  5
AA9
330
1F
100
AcDbEntity
  8
BILD
  6
MITTE
 62
     1
100
AcDbLine
 10
1871.085430374525
 20
1900.087579597067
 30
0.0
 11
1871.085430374525
 21
1936.773126467066
 31
0.0
  0
LINE
  5
AAA
330
1F
100
AcDbEntity
  8
BILD
  6
MITTE
 62
     1
100
AcDbLine
 10
1726.085430374524
 20
1900.403985847067
 30
0.0
 11
1726.085430374524
 21
1937.382989747067
 31
0.0
  0
ARC
  5
AAB
330
1F
100
AcDbEntity
  8
BILD
  6
GESTRICHELT
 62
     1
100
AcDbCircle
 10
1798.585430374524
 20
1918.325616697067
 30
0.0
 40
70.0
100
AcDbArc
 50
43.60281371997939
 51
136.3971862800206
  0
ARC
  5
AAC
330
1F
100
AcDbEntity
  8
BILD
  6
GESTRICHELT
 62
     1
100
AcDbCircle
 10
1726.085430374524
 20
1918.325616697067
 30
0.0
 40
17.50003052
100
AcDbArc
 50
136.3971710200368
 51
223.6029205299902
  0
LINE
  5
AAD
330
1F
100
AcDbEntity
  8
BILD
  6
GESTRICHELT
 62
     1
100
AcDbLine
 10
1747.895733114524
 20
1870.049737797067
 30
0.0
 11
1713.412822954527
 21
1906.256524907067
 31
0.0
  0
LINE
  5
AAE
330
1F
100
AcDbEntity
  8
BILD
  6
GESTRICHELT
 62
     1
100
AcDbLine
 10
1747.895733114524
 20
1966.601495607067
 30
0.0
 11
1713.412822954527
 21
1930.394464357068
 31
0.0
  0
ARC
  5
AAF
330
1F
100
AcDbEntity
  8
BILD
  6
GESTRICHELT
 62
     1
100
AcDbCircle
 10
1871.085430374525
 20
1918.325616697067
 30
0.0
 40
17.50003052
100
AcDbArc
 50
316.3970947299975
 51
43.6028442400944
  0
LINE
  5
AB0
330
1F
100
AcDbEntity
  8
BILD
  6
GESTRICHELT
 62
     1
100
AcDbLine
 10
1849.274883504523
 20
1966.601495607067
 30
0.0
 11
1883.757549514523
 21
1930.394708497067
 31
0.0
  0
LINE
  5
AB1
330
1F
100
AcDbEntity
  8
BILD
  6
GESTRICHELT
 62
     1
100
AcDbLine
 10
1874.582073444525
 20
1896.622491697067
 30
0.0
 11
1883.757549514523
 21
1906.256769047067
 31
0.0
  0
ARC
  5
AB2
330
1F
100
AcDbEntity
  8
BILD
  6
GESTRICHELT
 62
     1
100
AcDbCircle
 10
1798.585430374524
 20
1918.325616697067
 30
0.0
 40
70.0
100
AcDbArc
 50
223.6028442400944
 51
303.8579101599674
  0
LINE
  5
AB3
330
1F
100
AcDbEntity
  8
BILD
  6
AUSGEZOGEN
 62
     1
100
AcDbLine
 10
1699.085430374524
 20
1850.825494627067
 30
0.0
 11
1699.085430374524
 21
1985.825616697067
 31
0.0
  0
LINE
  5
AB4
330
1F
100
AcDbEntity
  8
BILD
  6
AUSGEZOGEN
 62
     1
100
AcDbLine
 10
1693.755230184524
 20
1986.593683107068
 30
0.0
 11
1694.755230184523
 21
1988.325616697067
 31
0.0
  0
ARC
  5
AB5
330
1F
100
AcDbEntity
  8
BILD
  6
GESTRICHELT
 62
     1
100
AcDbCircle
 10
1695.085430374524
 20
1983.516046387068
 30
0.0
 40
2.000000239999999
100
AcDbArc
 50
0.0
 51
60.00045775989649
  0
LINE
  5
AB6
330
1F
100
AcDbEntity
  8
BILD
  6
GESTRICHELT
 62
     1
100
AcDbLine
 10
1697.085430374524
 20
1853.134942877067
 30
0.0
 11
1697.085430374524
 21
1983.516046387068
 31
0.0
  0
LINE
  5
AB7
330
1F
100
AcDbEntity
  8
BILD
  6
GESTRICHELT
 62
     1
100
AcDbLine
 10
1696.085430374524
 20
1985.248468267067
 30
0.0
 11
1693.755352254523
 21
1986.593927247067
 31
0.0
  0
ARC
  5
AB8
330
1F
100
AcDbEntity
  8
BILD
  6
AUSGEZOGEN
 62
     1
100
AcDbCircle
 10
1695.085430374524
 20
1983.516046387068
 30
0.0
 40
4.000000479999999
100
AcDbArc
 50
0.0
 51
59.99996947992683
  0
LINE
  5
AB9
330
1F
100
AcDbEntity
  8
BILD
  6
AUSGEZOGEN
 62
     1
100
AcDbLine
 10
1697.085430374524
 20
1986.980401857067
 30
0.0
 11
1694.755352254523
 21
1988.325860847067
 31
0.0
  0
LINE
  5
ABA
330
1F
100
AcDbEntity
  8
BILD
  6
AUSGEZOGEN
 62
     1
100
AcDbLine
 10
1693.755230184524
 20
1850.057550297067
 30
0.0
 11
1694.755230184523
 21
1848.325494627067
 31
0.0
  0
ARC
  5
ABB
330
1F
100
AcDbEntity
  8
BILD
  6
GESTRICHELT
 62
     1
100
AcDbCircle
 10
1695.085430374524
 20
1853.134942877067
 30
0.0
 40
2.000000239999999
100
AcDbArc
 50
299.9995422401035
 51
0.0
  0
LINE
  5
ABC
330
1F
100
AcDbEntity
  8
BILD
  6
GESTRICHELT
 62
     1
100
AcDbLine
 10
1696.085430374524
 20
1851.402887207067
 30
0.0
 11
1693.755352254523
 21
1850.057550297067
 31
0.0
  0
ARC
  5
ABD
330
1F
100
AcDbEntity
  8
BILD
  6
AUSGEZOGEN
 62
     1
100
AcDbCircle
 10
1695.085430374524
 20
1853.134942877067
 30
0.0
 40
4.000000479999999
100
AcDbArc
 50
300.0000305200732
 51
0.0
  0
LINE
  5
ABE
330
1F
100
AcDbEntity
  8
BILD
  6
AUSGEZOGEN
 62
     1
100
AcDbLine
 10
1697.085430374524
 20
1849.670831547067
 30
0.0
 11
1694.755352254523
 21
1848.325494627067
 31
0.0
  0
LINE
  5
ABF
330
1F
100
AcDbEntity
  8
BILD
  6
AUSGEZOGEN
 62
     1
100
AcDbLine
 10
1693.755230184524
 20
1850.057550297067
 30
0.0
 11
1693.755230184524
 21
1986.593683107068
 31
0.0
  0
LINE
  5
AC0
330
1F
100
AcDbEntity
  8
BILD
  6
AUSGEZOGEN
 62
     1
100
AcDbLine
 10
1699.085430374524
 20
1985.825616697067
 30
0.0
 11
1705.085430374525
 21
1985.825616697067
 31
0.0
  0
LINE
  5
AC1
330
1F
100
AcDbEntity
  8
BILD
  6
AUSGEZOGEN
 62
     1
100
AcDbLine
 10
1699.085430374524
 20
1850.825494627067
 30
0.0
 11
1705.085430374525
 21
1850.825494627067
 31
0.0
  0
ARC
  5
AC2
330
1F
100
AcDbEntity
  8
BILD
  6
AUSGEZOGEN
 62
     1
100
AcDbCircle
 10
2106.585613484526
 20
2070.825616697067
 30
0.0
 40
2.000000239999999
100
AcDbArc
 50
0.0
 51
90.0
  0
LINE
  5
AC3
330
1F
100
AcDbEntity
  8
BILD
  6
AUSGEZOGEN
 62
     1
100
AcDbLine
 10
2108.585613484526
 20
2045.825616697067
 30
0.0
 11
2108.585613484526
 21
2070.825616697067
 31
0.0
  0
ARC
  5
AC4
330
1F
100
AcDbEntity
  8
BILD
  6
AUSGEZOGEN
 62
     1
100
AcDbCircle
 10
1690.585918664528
 20
2070.825616697067
 30
0.0
 40
2.000000239999999
100
AcDbArc
 50
90.0
 51
180.0
  0
LINE
  5
AC5
330
1F
100
AcDbEntity
  8
BILD
  6
AUSGEZOGEN
 62
     1
100
AcDbLine
 10
1690.585918664528
 20
2072.825616697067
 30
0.0
 11
2106.585857624525
 21
2072.825616697067
 31
0.0
  0
LINE
  5
AC6
330
1F
100
AcDbEntity
  8
BILD
  6
AUSGEZOGEN
 62
     1
100
AcDbLine
 10
1688.585918664528
 20
2045.825616697067
 30
0.0
 11
1688.585918664528
 21
2070.825616697067
 31
0.0
  0
LINE
  5
AC7
330
1F
100
AcDbEntity
  8
BILD
  6
AUSGEZOGEN
 62
     1
100
AcDbLine
 10
1878.585674514524
 20
2072.825616697067
 30
0.0
 11
1878.585674514524
 21
2047.825616697067
 31
0.0
  0
LINE
  5
AC8
330
1F
100
AcDbEntity
  8
BILD
  6
AUSGEZOGEN
 62
     1
100
AcDbLine
 10
1876.585674514524
 20
2072.825616697067
 30
0.0
 11
1876.585674514524
 21
2047.825616697067
 31
0.0
  0
LINE
  5
AC9
330
1F
100
AcDbEntity
  8
BILD
  6
AUSGEZOGEN
 62
     1
100
AcDbLine
 10
1876.585674514524
 20
2047.825616697067
 30
0.0
 11
1878.585674514524
 21
2047.825616697067
 31
0.0
  0
LINE
  5
ACA
330
1F
100
AcDbEntity
  8
BILD
  6
AUSGEZOGEN
 62
     1
100
AcDbLine
 10
2004.585674514524
 20
2072.825616697067
 30
0.0
 11
2004.585674514524
 21
2047.825616697067
 31
0.0
  0
LINE
  5
ACB
330
1F
100
AcDbEntity
  8
BILD
  6
AUSGEZOGEN
 62
     1
100
AcDbLine
 10
2002.585674514524
 20
2072.825616697067
 30
0.0
 11
2002.585674514524
 21
2047.825616697067
 31
0.0
  0
LINE
  5
ACC
330
1F
100
AcDbEntity
  8
BILD
  6
AUSGEZOGEN
 62
     1
100
AcDbLine
 10
2002.585674514524
 20
2047.825616697067
 30
0.0
 11
2004.585674514524
 21
2047.825616697067
 31
0.0
  0
LINE
  5
ACD
330
1F
100
AcDbEntity
  8
BILD
  6
AUSGEZOGEN
 62
     1
100
AcDbLine
 10
1831.835674514524
 20
2074.825616697067
 30
0.0
 11
1831.835674514524
 21
2072.825616697067
 31
0.0
  0
LINE
  5
ACE
330
1F
100
AcDbEntity
  8
BILD
  6
AUSGEZOGEN
 62
     1
100
AcDbLine
 10
1825.335674514524
 20
2074.825616697067
 30
0.0
 11
1825.335674514524
 21
2072.825616697067
 31
0.0
  0
ARC
  5
ACF
330
1F
100
AcDbEntity
  8
BILD
  6
AUSGEZOGEN
 62
     1
100
AcDbCircle
 10
1835.585674514524
 20
2071.492364747067
 30
0.0
 40
4.833319659999999
100
AcDbArc
 50
43.60263062006539
 51
136.3973388699811
  0
LINE
  5
AD0
330
1F
100
AcDbEntity
  8
BILD
  6
AUSGEZOGEN
 62
     1
100
AcDbLine
 10
1845.835674514524
 20
2074.825616697067
 30
0.0
 11
1845.835674514524
 21
2072.825616697067
 31
0.0
  0
LINE
  5
AD1
330
1F
100
AcDbEntity
  8
BILD
  6
AUSGEZOGEN
 62
     1
100
AcDbLine
 10
1839.335674514524
 20
2074.825616697067
 30
0.0
 11
1839.335674514524
 21
2072.825616697067
 31
0.0
  0
ARC
  5
AD2
330
1F
100
AcDbEntity
  8
BILD
  6
AUSGEZOGEN
 62
     1
100
AcDbCircle
 10
1709.585674514524
 20
2071.492364747067
 30
0.0
 40
4.833319659999999
100
AcDbArc
 50
43.60263062006539
 51
136.3973388699811
  0
LINE
  5
AD3
330
1F
100
AcDbEntity
  8
BILD
  6
AUSGEZOGEN
 62
     1
100
AcDbLine
 10
1733.835674514524
 20
2074.825616697067
 30
0.0
 11
1733.835674514524
 21
2072.825616697067
 31
0.0
  0
LINE
  5
AD4
330
1F
100
AcDbEntity
  8
BILD
  6
AUSGEZOGEN
 62
     1
100
AcDbLine
 10
1727.335674514524
 20
2074.825616697067
 30
0.0
 11
1727.335674514524
 21
2072.825616697067
 31
0.0
  0
ARC
  5
AD5
330
1F
100
AcDbEntity
  8
BILD
  6
AUSGEZOGEN
 62
     1
100
AcDbCircle
 10
1751.585674514524
 20
2071.492364747067
 30
0.0
 40
4.833319659999999
100
AcDbArc
 50
43.60263062006539
 51
136.3973388699811
  0
LINE
  5
AD6
330
1F
100
AcDbEntity
  8
BILD
  6
AUSGEZOGEN
 62
     1
100
AcDbLine
 10
1747.835674514524
 20
2074.825616697067
 30
0.0
 11
1747.835674514524
 21
2072.825616697067
 31
0.0
  0
LINE
  5
AD7
330
1F
100
AcDbEntity
  8
BILD
  6
AUSGEZOGEN
 62
     1
100
AcDbLine
 10
1741.335674514524
 20
2074.825616697067
 30
0.0
 11
1741.335674514524
 21
2072.825616697067
 31
0.0
  0
LINE
  5
AD8
330
1F
100
AcDbEntity
  8
BILD
  6
AUSGEZOGEN
 62
     1
100
AcDbLine
 10
1761.835674514524
 20
2074.825616697067
 30
0.0
 11
1761.835674514524
 21
2072.825616697067
 31
0.0
  0
LINE
  5
AD9
330
1F
100
AcDbEntity
  8
BILD
  6
AUSGEZOGEN
 62
     1
100
AcDbLine
 10
1755.335674514524
 20
2074.825616697067
 30
0.0
 11
1755.335674514524
 21
2072.825616697067
 31
0.0
  0
LINE
  5
ADA
330
1F
100
AcDbEntity
  8
BILD
  6
AUSGEZOGEN
 62
     1
100
AcDbLine
 10
1775.835674514524
 20
2074.825616697067
 30
0.0
 11
1775.835674514524
 21
2072.825616697067
 31
0.0
  0
LINE
  5
ADB
330
1F
100
AcDbEntity
  8
BILD
  6
AUSGEZOGEN
 62
     1
100
AcDbLine
 10
1769.335674514524
 20
2074.825616697067
 30
0.0
 11
1769.335674514524
 21
2072.825616697067
 31
0.0
  0
LINE
  5
ADC
330
1F
100
AcDbEntity
  8
BILD
  6
AUSGEZOGEN
 62
     1
100
AcDbLine
 10
1789.835674514524
 20
2074.825616697067
 30
0.0
 11
1789.835674514524
 21
2072.825616697067
 31
0.0
  0
LINE
  5
ADD
330
1F
100
AcDbEntity
  8
BILD
  6
AUSGEZOGEN
 62
     1
100
AcDbLine
 10
1783.335674514524
 20
2074.825616697067
 30
0.0
 11
1783.335674514524
 21
2072.825616697067
 31
0.0
  0
ARC
  5
ADE
330
1F
100
AcDbEntity
  8
BILD
  6
AUSGEZOGEN
 62
     1
100
AcDbCircle
 10
1793.585674514523
 20
2071.492364747067
 30
0.0
 40
4.833319659999999
100
AcDbArc
 50
43.60263062006539
 51
136.3973388699811
  0
LINE
  5
ADF
330
1F
100
AcDbEntity
  8
BILD
  6
AUSGEZOGEN
 62
     1
100
AcDbLine
 10
1803.835674514524
 20
2074.825616697067
 30
0.0
 11
1803.835674514524
 21
2072.825616697067
 31
0.0
  0
LINE
  5
AE0
330
1F
100
AcDbEntity
  8
BILD
  6
AUSGEZOGEN
 62
     1
100
AcDbLine
 10
1797.335674514524
 20
2074.825616697067
 30
0.0
 11
1797.335674514524
 21
2072.825616697067
 31
0.0
  0
LINE
  5
AE1
330
1F
100
AcDbEntity
  8
BILD
  6
AUSGEZOGEN
 62
     1
100
AcDbLine
 10
1811.335674514524
 20
2074.825616697067
 30
0.0
 11
1811.335674514524
 21
2072.825616697067
 31
0.0
  0
LINE
  5
AE2
330
1F
100
AcDbEntity
  8
BILD
  6
AUSGEZOGEN
 62
     1
100
AcDbLine
 10
1817.835674514524
 20
2074.825616697067
 30
0.0
 11
1817.835674514524
 21
2072.825616697067
 31
0.0
  0
LINE
  5
AE3
330
1F
100
AcDbEntity
  8
BILD
  6
AUSGEZOGEN
 62
     1
100
AcDbLine
 10
1859.835674514524
 20
2074.825616697067
 30
0.0
 11
1859.835674514524
 21
2072.825616697067
 31
0.0
  0
LINE
  5
AE4
330
1F
100
AcDbEntity
  8
BILD
  6
AUSGEZOGEN
 62
     1
100
AcDbLine
 10
1853.335674514523
 20
2074.825616697067
 30
0.0
 11
1853.335674514523
 21
2072.825616697067
 31
0.0
  0
ARC
  5
AE5
330
1F
100
AcDbEntity
  8
BILD
  6
AUSGEZOGEN
 62
     1
100
AcDbCircle
 10
1877.585674514524
 20
2071.492364747067
 30
0.0
 40
4.833319659999999
100
AcDbArc
 50
43.60263062006539
 51
136.3973388699811
  0
ARC
  5
AE6
330
1F
100
AcDbEntity
  8
BILD
  6
AUSGEZOGEN
 62
     1
100
AcDbCircle
 10
1919.585674514524
 20
2071.492364747067
 30
0.0
 40
4.833319659999999
100
AcDbArc
 50
43.60263062006539
 51
136.3973388699811
  0
ARC
  5
AE7
330
1F
100
AcDbEntity
  8
BILD
  6
AUSGEZOGEN
 62
     1
100
AcDbCircle
 10
1961.585674514523
 20
2071.492364747067
 30
0.0
 40
4.833319659999999
100
AcDbArc
 50
43.60263062006539
 51
136.3973388699811
  0
ARC
  5
AE8
330
1F
100
AcDbEntity
  8
BILD
  6
AUSGEZOGEN
 62
     1
100
AcDbCircle
 10
2045.585674514524
 20
2071.492364747067
 30
0.0
 40
4.833319659999999
100
AcDbArc
 50
43.60263062006539
 51
136.3973388699811
  0
ARC
  5
AE9
330
1F
100
AcDbEntity
  8
BILD
  6
AUSGEZOGEN
 62
     1
100
AcDbCircle
 10
2003.585674514524
 20
2071.492364747067
 30
0.0
 40
4.833319659999999
100
AcDbArc
 50
43.60263062006539
 51
136.3973388699811
  0
ARC
  5
AEA
330
1F
100
AcDbEntity
  8
BILD
  6
AUSGEZOGEN
 62
     1
100
AcDbCircle
 10
2087.585613484526
 20
2071.492364747067
 30
0.0
 40
4.833319659999999
100
AcDbArc
 50
43.60263062006539
 51
136.3973388699811
  0
ARC
  5
AEB
330
1F
100
AcDbEntity
  8
BILD
  6
AUSGEZOGEN
 62
     1
100
AcDbCircle
 10
1690.585674514524
 20
2070.825616697067
 30
0.0
 40
4.000000479999999
100
AcDbArc
 50
90.0
 51
180.0
  0
LINE
  5
AEC
330
1F
100
AcDbEntity
  8
BILD
  6
AUSGEZOGEN
 62
     1
100
AcDbLine
 10
1690.585674514524
 20
2074.825616697067
 30
0.0
 11
2106.585613484526
 21
2074.825616697067
 31
0.0
  0
LINE
  5
AED
330
1F
100
AcDbEntity
  8
BILD
  6
AUSGEZOGEN
 62
     1
100
AcDbLine
 10
1686.585674514524
 20
2046.589532717067
 30
0.0
 11
1686.585674514524
 21
2070.825616697067
 31
0.0
  0
ARC
  5
AEE
330
1F
100
AcDbEntity
  8
BILD
  6
AUSGEZOGEN
 62
     1
100
AcDbCircle
 10
2106.585613484526
 20
2070.825616697067
 30
0.0
 40
4.000000479999999
100
AcDbArc
 50
0.0
 51
90.0
  0
LINE
  5
AEF
330
1F
100
AcDbEntity
  8
BILD
  6
AUSGEZOGEN
 62
     1
100
AcDbLine
 10
2110.585613484526
 20
2046.589532717067
 30
0.0
 11
2110.585613484526
 21
2070.825616697067
 31
0.0
  0
LINE
  5
AF0
330
1F
100
AcDbEntity
  8
BILD
  6
AUSGEZOGEN
 62
     1
100
AcDbLine
 10
1786.425518264524
 20
1852.890680177067
 30
0.0
 11
1787.425518264524
 21
1851.158624517066
 31
0.0
  0
LINE
  5
AF1
330
1F
100
AcDbEntity
  8
BILD
  6
AUSGEZOGEN
 62
     1
100
AcDbLine
 10
1890.306133504523
 20
2005.154718267067
 30
0.0
 11
1892.237774124524
 21
2004.637140137068
 31
0.0
  0
LINE
  5
AF2
330
1F
100
AcDbEntity
  8
BILD
  6
GESTRICHELT
 62
     1
100
AcDbLine
 10
2090.585491414527
 20
1019.563531737067
 30
0.0
 11
2092.085491414527
 21
1019.563531737067
 31
0.0
  0
LINE
  5
AF3
330
1F
100
AcDbEntity
  8
BILD
  6
GESTRICHELT
 62
     1
100
AcDbLine
 10
2090.585491414527
 20
1017.063531737067
 30
0.0
 11
2092.085491414527
 21
1017.063531737067
 31
0.0
  0
LINE
  5
AF4
330
1F
100
AcDbEntity
  8
BILD
  6
GESTRICHELT
 62
     1
100
AcDbLine
 10
2003.585918664528
 20
1192.813653807067
 30
0.0
 11
2003.585918664528
 21
1232.813653807066
 31
0.0
  0
LINE
  5
AF5
330
1F
100
AcDbEntity
  8
BILD
  6
GESTRICHELT
 62
     1
100
AcDbLine
 10
1953.585918664527
 20
1192.813653807067
 30
0.0
 11
1953.585918664527
 21
1232.813653807066
 31
0.0
  0
LINE
  5
AF6
330
1F
100
AcDbEntity
  8
BILD
  6
GESTRICHELT
 62
     1
100
AcDbLine
 10
1953.585918664527
 20
1232.813653807066
 30
0.0
 11
2003.585918664528
 21
1232.813653807066
 31
0.0
  0
LINE
  5
AF7
330
1F
100
AcDbEntity
  8
BILD
  6
GESTRICHELT
 62
     1
100
AcDbLine
 10
2092.085491414527
 20
1064.663629397068
 30
0.0
 11
2132.085491414526
 21
1064.663629397068
 31
0.0
  0
LINE
  5
AF8
330
1F
100
AcDbEntity
  8
BILD
  6
GESTRICHELT
 62
     1
100
AcDbLine
 10
2092.085491414527
 20
1124.963678227066
 30
0.0
 11
2132.085491414526
 21
1124.963678227066
 31
0.0
  0
LINE
  5
AF9
330
1F
100
AcDbEntity
  8
BILD
  6
GESTRICHELT
 62
     1
100
AcDbLine
 10
2132.085491414526
 20
1124.963678227066
 30
0.0
 11
2132.085491414526
 21
1064.663629397068
 31
0.0
  0
LINE
  5
AFA
330
1F
100
AcDbEntity
  8
BILD
  6
MITTE
 62
     1
100
AcDbLine
 10
2097.404583214523
 20
2020.825616697067
 30
0.0
 11
2084.143718954528
 21
2020.825616697067
 31
0.0
  0
LINE
  5
AFB
330
1F
100
AcDbEntity
  8
BILD
  6
AUSGEZOGEN
 62
     1
100
AcDbLine
 10
2092.085491414527
 20
1919.175714357067
 30
0.0
 11
2132.085491414526
 21
1919.175714357067
 31
0.0
  0
LINE
  5
AFC
330
1F
100
AcDbEntity
  8
BILD
  6
AUSGEZOGEN
 62
     1
100
AcDbLine
 10
2092.085491414527
 20
1975.475763187068
 30
0.0
 11
2132.085491414526
 21
1975.475763187068
 31
0.0
  0
LINE
  5
AFD
330
1F
100
AcDbEntity
  8
BILD
  6
AUSGEZOGEN
 62
     1
100
AcDbLine
 10
2092.085491414527
 20
1917.175714357068
 30
0.0
 11
2132.085491414526
 21
1917.175714357068
 31
0.0
  0
LINE
  5
AFE
330
1F
100
AcDbEntity
  8
BILD
  6
AUSGEZOGEN
 62
     1
100
AcDbLine
 10
2092.085491414527
 20
1977.475763187068
 30
0.0
 11
2132.085491414526
 21
1977.475763187068
 31
0.0
  0
LINE
  5
AFF
330
1F
100
AcDbEntity
  8
BILD
  6
AUSGEZOGEN
 62
     1
100
AcDbLine
 10
2132.085491414526
 20
1977.475763187068
 30
0.0
 11
2132.085369344527
 21
1968.525567877067
 31
0.0
  0
LINE
  5
B00
330
1F
100
AcDbEntity
  8
BILD
  6
AUSGEZOGEN
 62
     1
100
AcDbLine
 10
2132.085491414526
 20
1926.125665527067
 30
0.0
 11
2132.085491414526
 21
1917.175714357068
 31
0.0
  0
LINE
  5
B01
330
1F
100
AcDbEntity
  8
SCHRAFF
  6
AUSGEZOGEN
 62
     1
100
AcDbLine
 10
1892.049541704526
 20
1621.325494627066
 30
0.0
 11
1888.067363974524
 21
1617.343561037067
 31
0.0
  0
LINE
  5
B02
330
1F
100
AcDbEntity
  8
SCHRAFF
  6
AUSGEZOGEN
 62
     1
100
AcDbLine
 10
1889.221172564527
 20
1621.325494627066
 30
0.0
 11
1886.653301474525
 21
1618.757623537067
 31
0.0
  0
LINE
  5
B03
330
1F
100
AcDbEntity
  8
SCHRAFF
  6
AUSGEZOGEN
 62
     1
100
AcDbLine
 10
1886.392559284525
 20
1621.325494627066
 30
0.0
 11
1886.085308304525
 21
1621.018121587067
 31
0.0
  0
LINE
  5
B04
330
1F
100
AcDbEntity
  8
SCHRAFF
  6
AUSGEZOGEN
 62
     1
100
AcDbLine
 10
1880.085430374524
 20
1620.675104007068
 30
0.0
 11
1875.735821004523
 21
1616.325494627066
 31
0.0
  0
LINE
  5
B05
330
1F
100
AcDbEntity
  8
SCHRAFF
  6
AUSGEZOGEN
 62
     1
100
AcDbLine
 10
1877.835430374524
 20
1617.010797367069
 30
0.0
 11
1877.150127644526
 21
1616.325494627066
 31
0.0
  0
LINE
  5
B06
330
1F
100
AcDbEntity
  8
SCHRAFF
  6
AUSGEZOGEN
 62
     1
100
AcDbLine
 10
1872.250469444526
 20
1621.325494627066
 30
0.0
 11
1871.557842484525
 21
1620.632867677066
 31
0.0
  0
LINE
  5
B07
330
1F
100
AcDbEntity
  8
SCHRAFF
  6
AUSGEZOGEN
 62
     1
100
AcDbLine
 10
1875.078838584525
 20
1621.325494627066
 30
0.0
 11
1871.416240924524
 21
1617.662896977066
 31
0.0
  0
LINE
  5
B08
330
1F
100
AcDbEntity
  8
SCHRAFF
  6
AUSGEZOGEN
 62
     1
100
AcDbLine
 10
1894.786846394526
 20
1618.406061037067
 30
0.0
 11
1892.706402054525
 21
1616.325494627066
 31
0.0
  0
LINE
  5
B09
330
1F
100
AcDbEntity
  8
SCHRAFF
  6
AUSGEZOGEN
 62
     1
100
AcDbLine
 10
1894.290508504523
 20
1616.495416507068
 30
0.0
 11
1894.120586624524
 21
1616.325494627066
 31
0.0
  0
LINE
  5
B0A
330
1F
100
AcDbEntity
  8
SCHRAFF
  6
AUSGEZOGEN
 62
     1
100
AcDbLine
 10
1894.877910844526
 20
1621.325494627066
 30
0.0
 11
1889.877910844526
 21
1616.325494627066
 31
0.0
  0
LINE
  5
B0B
330
1F
100
AcDbEntity
  8
SCHRAFF
  6
AUSGEZOGEN
 62
     1
100
AcDbLine
 10
1877.907451864524
 20
1621.325494627066
 30
0.0
 11
1872.907451864524
 21
1616.325494627066
 31
0.0
  0
LINE
  5
B0C
330
1F
100
AcDbEntity
  8
SCHRAFF
  6
AUSGEZOGEN
 62
     1
100
AcDbLine
 10
1886.964336624524
 20
1625.325494627066
 30
0.0
 11
1886.585430374524
 21
1625.704645017069
 31
0.0
  0
LINE
  5
B0D
330
1F
100
AcDbEntity
  8
SCHRAFF
  6
AUSGEZOGEN
 62
     1
100
AcDbLine
 10
1889.085796584523
 20
1625.325494627066
 30
0.0
 11
1886.585430374524
 21
1627.825982917069
 31
0.0
  0
LINE
  5
B0E
330
1F
100
AcDbEntity
  8
SCHRAFF
  6
AUSGEZOGEN
 62
     1
100
AcDbLine
 10
1877.600322954527
 20
1628.325494627066
 30
0.0
 11
1879.585430374524
 21
1626.340631347068
 31
0.0
  0
LINE
  5
B0F
330
1F
100
AcDbEntity
  8
SCHRAFF
  6
AUSGEZOGEN
 62
     1
100
AcDbLine
 10
1888.207012414527
 20
1628.325494627066
 30
0.0
 11
1891.207134484527
 21
1625.325494627066
 31
0.0
  0
LINE
  5
B10
330
1F
100
AcDbEntity
  8
SCHRAFF
  6
AUSGEZOGEN
 62
     1
100
AcDbLine
 10
1875.478985064527
 20
1628.325494627066
 30
0.0
 11
1878.478862994528
 21
1625.325738767069
 31
0.0
  0
LINE
  5
B11
330
1F
100
AcDbEntity
  8
SCHRAFF
  6
AUSGEZOGEN
 62
     1
100
AcDbLine
 10
1873.357647174524
 20
1628.325494627066
 30
0.0
 11
1876.357647174524
 21
1625.325738767069
 31
0.0
  0
LINE
  5
B12
330
1F
100
AcDbEntity
  8
SCHRAFF
  6
AUSGEZOGEN
 62
     1
100
AcDbLine
 10
1873.084942094526
 20
1626.477105957068
 30
0.0
 11
1874.236309284525
 21
1625.325738767069
 31
0.0
  0
LINE
  5
B13
330
1F
100
AcDbEntity
  8
SCHRAFF
  6
AUSGEZOGEN
 62
     1
100
AcDbLine
 10
1890.328350304527
 20
1628.325494627066
 30
0.0
 11
1893.085430374524
 21
1625.568658697068
 31
0.0
  0
LINE
  5
B14
330
1F
100
AcDbEntity
  8
SCHRAFF
  6
AUSGEZOGEN
 62
     1
100
AcDbLine
 10
1892.449688194526
 20
1628.325494627066
 30
0.0
 11
1893.085430374524
 21
1627.689996587067
 31
0.0
  0
LINE
  5
B15
330
1F
100
AcDbEntity
  8
SCHRAFF
  6
AUSGEZOGEN
 62
     1
100
AcDbLine
 10
1888.517803424524
 20
1621.650689947068
 30
0.0
 11
1888.842998734525
 21
1621.325494627066
 31
0.0
  0
LINE
  5
B16
330
1F
100
AcDbEntity
  8
SCHRAFF
  6
AUSGEZOGEN
 62
     1
100
AcDbLine
 10
1867.418926474525
 20
1621.536432127066
 30
0.0
 11
1867.629619834525
 21
1621.325494627066
 31
0.0
  0
TEXT
  5
B17
330
1F
100
AcDbEntity
  8
TEXT
  6
AUSGEZOGEN
 62
     7
100
AcDbText
 10
2258.940838094527
 20
982.9086245170675
 30
0.0
 40
25.0
  1
Isolierrand
 41
0.66045776
  7
SIMPLEX
100
AcDbText
  0
TEXT
  5
B18
330
1F
100
AcDbEntity
  8
TEXT
  6
AUSGEZOGEN
 62
     7
100
AcDbText
 10
2258.940838094527
 20
945.4086245170675
 30
0.0
 40
25.0
  1
nach DIN 19599
 41
0.66045776
  7
SIMPLEX
100
AcDbText
  0
TEXT
  5
B19
330
1F
100
AcDbEntity
  8
TEXT
  6
AUSGEZOGEN
 62
     7
100
AcDbText
 10
1724.514873734525
 20
1258.108941897068
 30
0.0
 40
25.0
  1
Zulauf links
 41
0.66045776
  7
SIMPLEX
100
AcDbText
  0
TEXT
  5
B1A
330
1F
100
AcDbEntity
  8
TEXT
  6
AUSGEZOGEN
 62
     7
100
AcDbText
 10
1641.461223834524
 20
962.5991762670691
 30
0.0
 40
25.0
  1
Zulauf mittig
 50
90.0
 41
0.66045776
  7
SIMPLEX
100
AcDbText
  0
TEXT
  5
B1B
330
1F
100
AcDbEntity
  8
TEXT
  6
AUSGEZOGEN
 62
     7
100
AcDbText
 10
1715.701702354525
 20
811.6017397470695
 30
0.0
 40
25.0
  1
Zulauf rechts
 41
0.66045776
  7
SIMPLEX
100
AcDbText
  0
TEXT
  5
B1C
330
1F
100
AcDbEntity
  8
TEXT
  6
AUSGEZOGEN
 62
     7
100
AcDbText
 10
2156.515789264525
 20
1383.784356937069
 30
0.0
 40
25.0
  1
Anschluss DN50 / Kunststoff
 41
0.66045776
  7
SIMPLEX
100
AcDbText
  0
TEXT
  5
B1D
330
1F
100
AcDbEntity
  8
TEXT
  6
AUSGEZOGEN
 62
     7
100
AcDbText
 10
2156.515789264525
 20
1346.284356937069
 30
0.0
 40
25.0
  1
Leerrohr fuer Netzkabel
 41
0.66045776
  7
SIMPLEX
100
AcDbText
  0
TEXT
  5
B1E
330
1F
100
AcDbEntity
  8
TEXT
  6
AUSGEZOGEN
 62
     7
100
AcDbText
 10
2156.515789264525
 20
1308.784356937069
 30
0.0
 40
25.0
  1
und Belueftung
 41
0.66045776
  7
SIMPLEX
100
AcDbText
  0
TEXT
  5
B1F
330
1F
100
AcDbEntity
  8
TEXT
  6
AUSGEZOGEN
 62
     7
100
AcDbText
 10
1499.944408654525
 20
1727.147882327068
 30
0.0
 40
25.0
  1
Sinkstoff-
 41
0.66045776
  7
SIMPLEX
100
AcDbText
  0
TEXT
  5
B20
330
1F
100
AcDbEntity
  8
TEXT
  6
AUSGEZOGEN
 62
     7
100
AcDbText
 10
1499.944408654525
 20
1689.647882327068
 30
0.0
 40
25.0
  1
Sammelraum
 41
0.66045776
  7
SIMPLEX
100
AcDbText
  0
TEXT
  5
B21
330
1F
100
AcDbEntity
  8
TEXT
  6
AUSGEZOGEN
 62
     7
100
AcDbText
 10
1561.828258744523
 20
1846.310602057068
 30
0.0
 40
25.00009537
  1
Zulauf
 41
0.6604552400000001
  7
SIMPLEX
100
AcDbText
  0
TEXT
  5
B22
330
1F
100
AcDbEntity
  8
TEXT
  6
AUSGEZOGEN
 62
     7
100
AcDbText
 10
2087.071575394525
 20
2154.032647947067
 30
0.0
 40
25.0
  1
Druckleitung R 1 1/4
 41
0.66045776
  7
SIMPLEX
100
AcDbText
  0
TEXT
  5
B23
330
1F
100
AcDbEntity
  8
TEXT
  6
AUSGEZOGEN
 62
     7
100
AcDbText
 10
2087.071575394525
 20
2116.532647947067
 30
0.0
 40
25.0
  1
und DN50/SML
 41
0.66045776
  7
SIMPLEX
100
AcDbText
  0
TEXT
  5
B24
330
1F
100
AcDbEntity
  8
TEXT
  6
AUSGEZOGEN
 62
     7
100
AcDbText
 10
2116.528606644525
 20
1791.143731937069
 30
0.0
 40
25.0
  1
EIN
 41
0.66045776
  7
SIMPLEX
100
AcDbText
  0
TEXT
  5
B25
330
1F
100
AcDbEntity
  8
TEXT
  6
AUSGEZOGEN
 62
     7
100
AcDbText
 10
2116.528606644525
 20
1725.217950687069
 30
0.0
 40
25.0
  1
AUS
 41
0.66045776
  7
SIMPLEX
100
AcDbText
  0
TEXT
  5
B26
330
1F
100
AcDbEntity
  8
TEXT
  6
AUSGEZOGEN
 62
     7
100
AcDbText
 10
1549.485943074526
 20
2379.134942877067
 30
0.0
 40
25.0
  1
Schukostecker
 41
0.66045784
  7
SIMPLEX
100
AcDbText
  0
TEXT
  5
B27
330
1F
100
AcDbEntity
  8
TEXT
  6
AUSGEZOGEN
 62
     7
100
AcDbText
 10
1549.485943074526
 20
2341.634942877067
 30
0.0
 40
25.0
  1
(verschweisst)
 41
0.66045784
  7
SIMPLEX
100
AcDbText
  0
TEXT
  5
B28
330
1F
100
AcDbEntity
  8
TEXT
  6
AUSGEZOGEN
 62
     7
100
AcDbText
 10
1549.485943074526
 20
2172.277276857068
 30
0.0
 40
25.0
  1
herausnehmbares
 41
0.66045776
  7
SIMPLEX
100
AcDbText
  0
TEXT
  5
B29
330
1F
100
AcDbEntity
  8
TEXT
  6
AUSGEZOGEN
 62
     7
100
AcDbText
 10
1549.485943074526
 20
2134.777276857068
 30
0.0
 40
25.0
  1
Zulauf-Leitblech
 41
0.66045776
  7
SIMPLEX
100
AcDbText
  0
TEXT
  5
B2A
330
1F
100
AcDbEntity
  8
TEXT
  6
AUSGEZOGEN
 62
     1
100
AcDbText
 10
2079.019939654524
 20
950.5625551770663
 30
0.0
 40
25.0
  1
ACO-passavant
 50
90.0
 41
0.66045776
  7
SIMPLEX
100
AcDbText
  0
LINE
  5
B2B
330
1F
100
AcDbEntity
  8
KONTUR
  6
AUSGEZOGEN
 62
     1
100
AcDbLine
 10
1967.278484574525
 20
2184.357599127067
 30
0.0
 11
1967.278484574525
 21
2083.742364747067
 31
0.0
  0
LINE
  5
B2C
330
1F
100
AcDbEntity
  8
KONTUR
  6
AUSGEZOGEN
 62
     1
100
AcDbLine
 10
1975.778484574525
 20
2184.357599127067
 30
0.0
 11
1975.778484574525
 21
2083.742364747067
 31
0.0
  0
POLYLINE
  5
B2D
330
1F
100
AcDbEntity
  8
KONTUR
  6
AUSGEZOGEN
 62
     1
100
AcDb2dPolyline
 66
     1
 10
0.0
 20
0.0
 30
0.0
  0
VERTEX
  5
B2E
330
B2D
100
AcDbEntity
  8
KONTUR
  6
AUSGEZOGEN
 62
     1
100
AcDbVertex
100
AcDb2dVertex
 10
1877.239361044524
 20
1632.199518067069
 30
0.0
 42
0.01048538
 70
     2
 50
122.852211
  0
VERTEX
  5
B2F
330
B2D
100
AcDbEntity
  8
KONTUR
  6
AUSGEZOGEN
 62
     1
100
AcDbVertex
100
AcDb2dVertex
 10
1877.072979204527
 20
1632.111383307069
 30
0.0
 42
0.009241233
 70
     2
 50
144.97955322
  0
VERTEX
  5
B30
330
B2D
100
AcDbEntity
  8
KONTUR
  6
AUSGEZOGEN
 62
     1
100
AcDbVertex
100
AcDb2dVertex
 10
1876.318645714523
 20
1631.671686037067
 30
0.0
 70
     2
 50
167.47956848
  0
VERTEX
  5
B31
330
B2D
100
AcDbEntity
  8
KONTUR
  6
AUSGEZOGEN
 62
     1
100
AcDbVertex
100
AcDb2dVertex
 10
1875.204937214526
 20
1630.989801267069
 30
0.0
 70
     2
 50
189.97950745
  0
VERTEX
  5
B32
330
B2D
100
AcDbEntity
  8
KONTUR
  6
AUSGEZOGEN
 62
     1
100
AcDbVertex
100
AcDb2dVertex
 10
1873.901409384528
 20
1630.169488767069
 30
0.0
 70
     2
 50
212.47955322
  0
VERTEX
  5
B33
330
B2D
100
AcDbEntity
  8
KONTUR
  6
AUSGEZOGEN
 62
     1
100
AcDbVertex
100
AcDb2dVertex
 10
1873.084942094526
 20
1629.646173347066
 30
0.0
 50
212.47955322
  0
SEQEND
  5
B34
330
B2D
100
AcDbEntity
  8
KONTUR
 62
     1
  0
LINE
  5
B35
330
1F
100
AcDbEntity
  8
KONTUR
  6
AUSGEZOGEN
 62
     1
100
AcDbLine
 10
1877.239238974524
 20
1632.199518067069
 30
0.0
 11
1879.735088584525
 21
1633.428277837067
 31
0.0
  0
POLYLINE
  5
B36
330
1F
100
AcDbEntity
  8
KONTUR
  6
AUSGEZOGEN
 62
     1
100
AcDb2dPolyline
 66
     1
 10
0.0
 20
0.0
 30
0.0
  0
VERTEX
  5
B37
330
B36
100
AcDbEntity
  8
KONTUR
  6
AUSGEZOGEN
 62
     1
100
AcDbVertex
100
AcDb2dVertex
 10
1882.344646684526
 20
1634.224420417069
 30
0.0
 42
0.02573038
 70
     2
 50
116.04988861
  0
VERTEX
  5
B38
330
B36
100
AcDbEntity
  8
KONTUR
  6
AUSGEZOGEN
 62
     1
100
AcDbVertex
100
AcDb2dVertex
 10
1882.064434284525
 20
1634.193536627068
 30
0.0
 42
0.02669831
 70
     2
 50
154.38000488
  0
VERTEX
  5
B39
330
B36
100
AcDbEntity
  8
KONTUR
  6
AUSGEZOGEN
 62
     1
100
AcDbVertex
100
AcDb2dVertex
 10
1881.433208694524
 20
1634.055841307066
 30
0.0
 42
0.01918101
 70
     2
 50
176.88000488
  0
VERTEX
  5
B3A
330
B36
100
AcDbEntity
  8
KONTUR
  6
AUSGEZOGEN
 62
     1
100
AcDbVertex
100
AcDb2dVertex
 10
1880.710430374524
 20
1633.831109867069
 30
0.0
 42
0.01918101
 70
     2
 50
199.38000488
  0
VERTEX
  5
B3B
330
B36
100
AcDbEntity
  8
KONTUR
  6
AUSGEZOGEN
 62
     1
100
AcDbVertex
100
AcDb2dVertex
 10
1880.006206744528
 20
1633.553888187069
 30
0.0
 42
0.009924629
 70
     2
 50
221.88002014
  0
VERTEX
  5
B3C
330
B36
100
AcDbEntity
  8
KONTUR
  6
AUSGEZOGEN
 62
     1
100
AcDbVertex
100
AcDb2dVertex
 10
1879.735149614523
 20
1633.428277837067
 30
0.0
 50
221.88002014
  0
SEQEND
  5
B3D
330
B36
100
AcDbEntity
  8
KONTUR
 62
     1
  0
POLYLINE
  5
B3E
330
1F
100
AcDbEntity
  8
KONTUR
  6
AUSGEZOGEN
 62
     1
100
AcDb2dPolyline
 66
     1
 10
0.0
 20
0.0
 30
0.0
  0
VERTEX
  5
B3F
330
B3E
100
AcDbEntity
  8
KONTUR
  6
AUSGEZOGEN
 62
     1
100
AcDbVertex
100
AcDb2dVertex
 10
1885.652752154524
 20
1633.738458497066
 30
0.0
 42
0.008363852
 70
     2
 50
92.97351073999998
  0
VERTEX
  5
B40
330
B3E
100
AcDbEntity
  8
KONTUR
  6
AUSGEZOGEN
 62
     1
100
AcDbVertex
100
AcDb2dVertex
 10
1885.287700884527
 20
1633.834283697068
 30
0.0
 42
0.01552268
 70
     2
 50
147.24685669
  0
VERTEX
  5
B41
330
B3E
100
AcDbEntity
  8
KONTUR
  6
AUSGEZOGEN
 62
     1
100
AcDbVertex
100
AcDb2dVertex
 10
1884.381389854526
 20
1634.026422367069
 30
0.0
 42
0.01552268
 70
     2
 50
169.74688721
  0
VERTEX
  5
B42
330
B3E
100
AcDbEntity
  8
KONTUR
  6
AUSGEZOGEN
 62
     1
100
AcDbVertex
100
AcDb2dVertex
 10
1883.465252154524
 20
1634.163995607067
 30
0.0
 42
0.02172429
 70
     2
 50
192.24694824
  0
VERTEX
  5
B43
330
B3E
100
AcDbEntity
  8
KONTUR
  6
AUSGEZOGEN
 62
     1
100
AcDbVertex
100
AcDb2dVertex
 10
1882.678692094526
 20
1634.226251467067
 30
0.0
 42
0.02047285
 70
     2
 50
214.74694824
  0
VERTEX
  5
B44
330
B3E
100
AcDbEntity
  8
KONTUR
  6
AUSGEZOGEN
 62
     1
100
AcDbVertex
100
AcDb2dVertex
 10
1882.344585654525
 20
1634.224420417069
 30
0.0
 50
214.74694824
  0
SEQEND
  5
B45
330
B3E
100
AcDbEntity
  8
KONTUR
 62
     1
  0
POLYLINE
  5
B46
330
1F
100
AcDbEntity
  8
KONTUR
  6
AUSGEZOGEN
 62
     1
100
AcDb2dPolyline
 66
     1
 10
0.0
 20
0.0
 30
0.0
  0
VERTEX
  5
B47
330
B46
100
AcDbEntity
  8
KONTUR
  6
AUSGEZOGEN
 62
     1
100
AcDbVertex
100
AcDb2dVertex
 10
1888.837871784525
 20
1632.619073737069
 30
0.0
 42
0.009856412
 70
     2
 50
74.27307129
  0
VERTEX
  5
B48
330
B46
100
AcDbEntity
  8
KONTUR
  6
AUSGEZOGEN
 62
     1
100
AcDbVertex
100
AcDb2dVertex
 10
1888.542705764524
 20
1632.748346197068
 30
0.0
 42
0.01076465
 70
     2
 50
116.53192139
  0
VERTEX
  5
B49
330
B46
100
AcDbEntity
  8
KONTUR
  6
AUSGEZOGEN
 62
     1
100
AcDbVertex
100
AcDb2dVertex
 10
1887.804119344527
 20
1633.036187987067
 30
0.0
 42
0.00763117
 70
     2
 50
139.03192139
  0
VERTEX
  5
B4A
330
B46
100
AcDbEntity
  8
KONTUR
  6
AUSGEZOGEN
 62
     1
100
AcDbVertex
100
AcDb2dVertex
 10
1886.922710654525
 20
1633.345025877066
 30
0.0
 42
0.00763117
 70
     2
 50
161.53192139
  0
VERTEX
  5
B4B
330
B46
100
AcDbEntity
  8
KONTUR
  6
AUSGEZOGEN
 62
     1
100
AcDbVertex
100
AcDb2dVertex
 10
1886.032573934523
 20
1633.627862797066
 30
0.0
 70
     2
 50
184.03222656
  0
VERTEX
  5
B4C
330
B46
100
AcDbEntity
  8
KONTUR
  6
AUSGEZOGEN
 62
     1
100
AcDbVertex
100
AcDb2dVertex
 10
1885.652630084524
 20
1633.738580567069
 30
0.0
 50
184.03222656
  0
SEQEND
  5
B4D
330
B46
100
AcDbEntity
  8
KONTUR
 62
     1
  0
POLYLINE
  5
B4E
330
1F
100
AcDbEntity
  8
KONTUR
  6
AUSGEZOGEN
 62
     1
100
AcDb2dPolyline
 66
     1
 10
0.0
 20
0.0
 30
0.0
  0
VERTEX
  5
B4F
330
B4E
100
AcDbEntity
  8
KONTUR
  6
AUSGEZOGEN
 62
     1
100
AcDbVertex
100
AcDb2dVertex
 10
1893.085308304525
 20
1629.379937987067
 30
0.0
 70
     2
 50
65.05865479
  0
VERTEX
  5
B50
330
B4E
100
AcDbEntity
  8
KONTUR
  6
AUSGEZOGEN
 62
     1
100
AcDbVertex
100
AcDb2dVertex
 10
1892.292644734526
 20
1630.043756347068
 30
0.0
 42
0.006468909
 70
     2
 50
140.47906494
  0
VERTEX
  5
B51
330
B4E
100
AcDbEntity
  8
KONTUR
  6
AUSGEZOGEN
 62
     1
100
AcDbVertex
100
AcDb2dVertex
 10
1890.972637414527
 20
1631.105401857066
 30
0.0
 42
0.009131834
 70
     2
 50
162.97912598
  0
VERTEX
  5
B52
330
B4E
100
AcDbEntity
  8
KONTUR
  6
AUSGEZOGEN
 62
     1
100
AcDbVertex
100
AcDb2dVertex
 10
1889.826824424525
 20
1631.972955567069
 30
0.0
 42
0.0218326
 70
     2
 50
185.47912598
  0
VERTEX
  5
B53
330
B4E
100
AcDbEntity
  8
KONTUR
  6
AUSGEZOGEN
 62
     1
100
AcDbVertex
100
AcDb2dVertex
 10
1889.029583214523
 20
1632.514337407067
 30
0.0
 42
0.02619245
 70
     2
 50
207.97912598
  0
VERTEX
  5
B54
330
B4E
100
AcDbEntity
  8
KONTUR
  6
AUSGEZOGEN
 62
     1
100
AcDbVertex
100
AcDb2dVertex
 10
1888.837871784525
 20
1632.618951667069
 30
0.0
 50
207.97912598
  0
SEQEND
  5
B55
330
B4E
100
AcDbEntity
  8
KONTUR
 62
     1
  0
LINE
  5
B56
330
1F
100
AcDbEntity
  8
KONTUR
  6
AUSGEZOGEN
 62
     1
100
AcDbLine
 10
1879.585430374524
 20
1628.325494627066
 30
0.0
 11
1879.585430374524
 21
1625.325494627066
 31
0.0
  0
LINE
  5
B57
330
1F
100
AcDbEntity
  8
KONTUR
  6
AUSGEZOGEN
 62
     1
100
AcDbLine
 10
1886.585430374524
 20
1628.325494627066
 30
0.0
 11
1886.585430374524
 21
1625.325494627066
 31
0.0
  0
LINE
  5
B58
330
1F
100
AcDbEntity
  8
KONTUR
  6
AUSGEZOGEN
 62
     1
100
AcDbLine
 10
2002.461284874526
 20
1877.925470217066
 30
0.0
 11
2003.461284874527
 21
1897.925470217066
 31
0.0
  0
LINE
  5
B59
330
1F
100
AcDbEntity
  8
KONTUR
  6
AUSGEZOGEN
 62
     1
100
AcDbLine
 10
2035.309490434526
 20
1877.925470217066
 30
0.0
 11
2034.309490434526
 21
1897.925470217066
 31
0.0
  0
LINE
  5
B5A
330
1F
100
AcDbEntity
  8
KONTUR
  6
AUSGEZOGEN
 62
     1
100
AcDbLine
 10
1989.566631554527
 20
1735.759576667069
 30
0.0
 11
1990.566631554527
 21
1715.759576667069
 31
0.0
  0
LINE
  5
B5B
330
1F
100
AcDbEntity
  8
KONTUR
  6
AUSGEZOGEN
 62
     1
100
AcDbLine
 10
2022.566631554527
 20
1735.759576667069
 30
0.0
 11
2021.566631554527
 21
1715.759576667069
 31
0.0
  0
LINE
  5
B5C
330
1F
100
AcDbEntity
  8
KONTUR
  6
AUSGEZOGEN
 62
     1
100
AcDbLine
 10
1885.133220904524
 20
1710.531549317066
 30
0.0
 11
1899.677532424527
 21
1689.202081547066
 31
0.0
  0
LINE
  5
B5D
330
1F
100
AcDbEntity
  8
KONTUR
  6
AUSGEZOGEN
 62
     1
100
AcDbLine
 10
1903.518169634527
 20
1725.958307127066
 30
0.0
 11
1921.998089074524
 21
1707.930841307067
 31
0.0
  0
LINE
  5
B5E
330
1F
100
AcDbEntity
  8
KONTUR
  6
AUSGEZOGEN
 62
     1
100
AcDbLine
 10
1981.568645714523
 20
1628.274591307066
 30
0.0
 11
1967.779827354526
 21
1616.704400877066
 31
0.0
  0
LINE
  5
B5F
330
1F
100
AcDbEntity
  8
KONTUR
  6
AUSGEZOGEN
 62
     1
100
AcDbLine
 10
1900.287090534525
 20
1697.138971197068
 30
0.0
 11
1914.075908894526
 21
1708.709161627068
 31
0.0
  0
LINE
  5
B60
330
1F
100
AcDbEntity
  8
KONTUR
  6
AUSGEZOGEN
 62
     1
100
AcDbLine
 10
1885.133220904524
 20
1710.531549317066
 30
0.0
 11
1903.518230674525
 21
1725.958307127066
 31
0.0
  0
LINE
  5
B61
330
1F
100
AcDbEntity
  8
KONTUR
  6
AUSGEZOGEN
 62
     1
100
AcDbLine
 10
1891.208416214525
 20
1731.293878417067
 30
0.0
 11
1903.518108604526
 21
1725.958185057066
 31
0.0
  0
LINE
  5
B62
330
1F
100
AcDbEntity
  8
KONTUR
  6
AUSGEZOGEN
 62
     1
100
AcDbLine
 10
1882.015972374526
 20
1723.580743657066
 30
0.0
 11
1885.133037804527
 21
1710.531305177066
 31
0.0
  0
LINE
  5
B63
330
1F
100
AcDbEntity
  8
KONTUR
  6
AUSGEZOGEN
 62
     1
100
AcDbLine
 10
1882.015972374526
 20
1723.580743657066
 30
0.0
 11
1891.208538284528
 21
1731.294122557067
 31
0.0
  0
LINE
  5
B64
330
1F
100
AcDbEntity
  8
KONTUR
  6
AUSGEZOGEN
 62
     1
100
AcDbLine
 10
1856.904339074523
 20
1755.840143067069
 30
0.0
 11
1847.056255574526
 21
1757.576593267067
 31
0.0
  0
LINE
  5
B65
330
1F
100
AcDbEntity
  8
KONTUR
  6
AUSGEZOGEN
 62
     1
100
AcDbLine
 10
1855.167888874525
 20
1745.992242677066
 30
0.0
 11
1845.319805374525
 21
1747.728692877068
 31
0.0
  0
LINE
  5
B66
330
1F
100
AcDbEntity
  8
KONTUR
  6
AUSGEZOGEN
 62
     1
100
AcDbLine
 10
1845.319805374525
 20
1747.728692877068
 30
0.0
 11
1847.056316604527
 21
1757.576715337067
 31
0.0
  0
LINE
  5
B67
330
1F
100
AcDbEntity
  8
KONTUR
  6
AUSGEZOGEN
 62
     1
100
AcDbLine
 10
1855.167888874525
 20
1745.992242677066
 30
0.0
 11
1856.904400104525
 21
1755.840265137068
 31
0.0
  0
LINE
  5
B68
330
1F
100
AcDbEntity
  8
Z
  6
AUSGEZOGEN
 62
     1
100
AcDbLine
 10
2111.585491414527
 20
874.3136538070666
 30
0.0
 11
1685.585430374525
 21
874.3136538070666
 31
0.0
  0
LINE
  5
B69
330
1F
100
AcDbEntity
  8
Z
  6
AUSGEZOGEN
 62
     1
100
AcDbLine
 10
2114.585491414527
 20
877.3136538070666
 30
0.0
 11
1682.585430374524
 21
877.3136538070666
 31
0.0
  0
LINE
  5
B6A
330
1F
100
AcDbEntity
  8
Z
  6
AUSGEZOGEN
 62
     1
100
AcDbLine
 10
1682.585430374524
 20
1212.313653807067
 30
0.0
 11
1682.585430374524
 21
877.3136538070666
 31
0.0
  0
LINE
  5
B6B
330
1F
100
AcDbEntity
  8
Z
  6
AUSGEZOGEN
 62
     1
100
AcDbLine
 10
2111.585491414527
 20
1215.313653807067
 30
0.0
 11
2111.585491414527
 21
874.3136538070666
 31
0.0
  0
LINE
  5
B6C
330
1F
100
AcDbEntity
  8
Z
  6
AUSGEZOGEN
 62
     1
100
AcDbLine
 10
2111.585491414527
 20
1215.313653807067
 30
0.0
 11
1685.585430374525
 21
1215.313653807067
 31
0.0
  0
LINE
  5
B6D
330
1F
100
AcDbEntity
  8
Z
  6
AUSGEZOGEN
 62
     1
100
AcDbLine
 10
2114.585491414527
 20
1212.313653807067
 30
0.0
 11
1682.585430374524
 21
1212.313653807067
 31
0.0
  0
LINE
  5
B6E
330
1F
100
AcDbEntity
  8
Z
  6
AUSGEZOGEN
 62
     1
100
AcDbLine
 10
2114.585491414527
 20
1212.313653807067
 30
0.0
 11
2114.585491414527
 21
1065.434869627066
 31
0.0
  0
LINE
  5
B6F
330
1F
100
AcDbEntity
  8
Z
  6
AUSGEZOGEN
 62
     1
100
AcDbLine
 10
2114.585491414527
 20
1065.434869627066
 30
0.0
 11
2114.585491414527
 21
877.3136538070666
 31
0.0
  0
LINE
  5
B70
330
1F
100
AcDbEntity
  8
Z
  6
AUSGEZOGEN
 62
     1
100
AcDbLine
 10
2108.284466024528
 20
2074.825616697067
 30
0.0
 11
2113.085491414527
 21
2074.825616697067
 31
0.0
  0
LINE
  5
B71
330
1F
100
AcDbEntity
  8
Z
  6
AUSGEZOGEN
 62
     1
100
AcDbLine
 10
1808.085430374524
 20
1616.325494627066
 30
0.0
 11
1808.085430374524
 21
1716.325494627066
 31
0.0
  0
LINE
  5
B72
330
1F
100
AcDbEntity
  8
Z
  6
AUSGEZOGEN
 62
     1
100
AcDbLine
 10
1806.585430374525
 20
1716.325494627066
 30
0.0
 11
1808.085430374524
 21
1716.325494627066
 31
0.0
  0
LINE
  5
B73
330
1F
100
AcDbEntity
  8
Z
  6
AUSGEZOGEN
 62
     1
100
AcDbLine
 10
1708.085430374524
 20
1614.825494627066
 30
0.0
 11
2089.085491414527
 21
1614.825494627066
 31
0.0
  0
CIRCLE
  5
B74
330
1F
100
AcDbEntity
  8
Z
  6
AUSGEZOGEN
 62
     1
100
AcDbCircle
 10
1798.585430374524
 20
1918.325616697067
 30
0.0
 40
50.00001144
  0
LINE
  5
B75
330
1F
100
AcDbEntity
  8
Z
  6
AUSGEZOGEN
 62
     1
100
AcDbLine
 10
1806.585430374525
 20
1616.325494627066
 30
0.0
 11
1806.585430374525
 21
1716.325494627066
 31
0.0
  0
LINE
  5
B76
330
1F
100
AcDbEntity
  8
Z
  6
AUSGEZOGEN
 62
     1
100
AcDbLine
 10
1685.585430374525
 20
2073.325616697067
 30
0.0
 11
1685.585430374525
 21
2047.325616697067
 31
0.0
  0
LINE
  5
B77
330
1F
100
AcDbEntity
  8
Z
  6
AUSGEZOGEN
 62
     1
100
AcDbLine
 10
1684.085430374524
 20
2074.825616697067
 30
0.0
 11
1689.576641314527
 21
2074.825616697067
 31
0.0
  0
LINE
  5
B78
330
1F
100
AcDbEntity
  8
Z
  6
AUSGEZOGEN
 62
     1
100
AcDbLine
 10
1682.585430374524
 20
2073.325616697067
 30
0.0
 11
1682.585430374524
 21
2064.825616697067
 31
0.0
  0
LINE
  5
B79
330
1F
100
AcDbEntity
  8
Z
  6
AUSGEZOGEN
 62
     1
100
AcDbLine
 10
1685.585430374525
 20
1215.313653807067
 30
0.0
 11
1685.585430374525
 21
874.3136538070666
 31
0.0
  0
CIRCLE
  5
B7A
330
1F
100
AcDbEntity
  8
Z
  6
AUSGEZOGEN
 62
     1
100
AcDbCircle
 10
1886.585430374524
 20
2016.325616697067
 30
0.0
 40
4.0
  0
LINE
  5
B7B
330
1F
100
AcDbEntity
  8
Z
  6
MITTE
 62
     1
100
AcDbLine
 10
1798.585430374524
 20
1843.667413577067
 30
0.0
 11
1798.585430374524
 21
1980.896661627067
 31
0.0
  0
LINE
  5
B7C
330
1F
100
AcDbEntity
  8
Z
  6
AUSGEZOGEN
 62
     1
100
AcDbLine
 10
1706.585430374525
 20
2042.825616697067
 30
0.0
 11
1706.585430374525
 21
1617.825494627066
 31
0.0
  0
LINE
  5
B7D
330
1F
100
AcDbEntity
  8
Z
  6
AUSGEZOGEN
 62
     1
100
AcDbLine
 10
1687.085430374525
 20
2045.825616697067
 30
0.0
 11
2110.085491414527
 21
2045.825616697067
 31
0.0
  0
CIRCLE
  5
B7E
330
1F
100
AcDbEntity
  8
Z
  6
AUSGEZOGEN
 62
     1
100
AcDbCircle
 10
1798.585430374524
 20
1851.325494627067
 30
0.0
 40
4.0
  0
LINE
  5
B7F
330
1F
100
AcDbEntity
  8
Z
  6
AUSGEZOGEN
 62
     1
100
AcDbLine
 10
2090.585491414527
 20
1926.125665527067
 30
0.0
 11
2090.585491414527
 21
1617.825494627066
 31
0.0
  0
LINE
  5
B80
330
1F
100
AcDbEntity
  8
Z
  6
AUSGEZOGEN
 62
     1
100
AcDbLine
 10
2090.585491414527
 20
2042.825616697067
 30
0.0
 11
2090.585491414527
 21
1968.525567877067
 31
0.0
  0
LINE
  5
B81
330
1F
100
AcDbEntity
  8
Z
  6
AUSGEZOGEN
 62
     1
100
AcDbLine
 10
2110.085491414527
 20
2044.325616697067
 30
0.0
 11
2093.585491414527
 21
2044.325616697067
 31
0.0
  0
LINE
  5
B82
330
1F
100
AcDbEntity
  8
Z
  6
AUSGEZOGEN
 62
     1
100
AcDbLine
 10
2111.585491414527
 20
2073.325616697067
 30
0.0
 11
2111.585491414527
 21
2047.325616697067
 31
0.0
  0
LINE
  5
B83
330
1F
100
AcDbEntity
  8
Z
  6
AUSGEZOGEN
 62
     1
100
AcDbLine
 10
2114.585491414527
 20
2073.325616697067
 30
0.0
 11
2114.585491414527
 21
2064.825616697067
 31
0.0
  0
LINE
  5
B84
330
1F
100
AcDbEntity
  8
Z
  6
AUSGEZOGEN
 62
     1
100
AcDbLine
 10
2008.066631554527
 20
1706.759576667069
 30
0.0
 11
2008.066631554527
 21
1715.759576667069
 31
0.0
  0
LINE
  5
B85
330
1F
100
AcDbEntity
  8
Z
  6
AUSGEZOGEN
 62
     1
100
AcDbLine
 10
2006.066631554527
 20
1706.759576667069
 30
0.0
 11
2006.066631554527
 21
1715.759576667069
 31
0.0
  0
LINE
  5
B86
330
1F
100
AcDbEntity
  8
Z
  6
AUSGEZOGEN
 62
     1
100
AcDbLine
 10
2004.066875694526
 20
1706.759576667069
 30
0.0
 11
2004.066875694526
 21
1715.759576667069
 31
0.0
  0
LINE
  5
B87
330
1F
100
AcDbEntity
  8
Z
  6
AUSGEZOGEN
 62
     1
100
AcDbLine
 10
2020.885479204527
 20
1897.925470217066
 30
0.0
 11
2020.885479204527
 21
1906.925470217066
 31
0.0
  0
LINE
  5
B88
330
1F
100
AcDbEntity
  8
Z
  6
AUSGEZOGEN
 62
     1
100
AcDbLine
 10
2018.885479204527
 20
1897.925470217066
 30
0.0
 11
2018.885479204527
 21
1906.925470217066
 31
0.0
  0
LINE
  5
B89
330
1F
100
AcDbEntity
  8
Z
  6
AUSGEZOGEN
 62
     1
100
AcDbLine
 10
2016.885479204526
 20
1897.925470217066
 30
0.0
 11
2016.885479204526
 21
1906.925470217066
 31
0.0
  0
LINE
  5
B8A
330
1F
100
AcDbEntity
  8
Z
  6
AUSGEZOGEN
 62
     1
100
AcDbLine
 10
2022.566753624527
 20
1696.325372557067
 30
0.0
 11
1989.566753624526
 21
1696.325372557067
 31
0.0
  0
LINE
  5
B8B
330
1F
100
AcDbEntity
  8
Z
  6
AUSGEZOGEN
 62
     1
100
AcDbLine
 10
1989.566631554527
 20
1696.325372557067
 30
0.0
 11
1990.566631554527
 21
1706.759454597066
 31
0.0
  0
LINE
  5
B8C
330
1F
100
AcDbEntity
  8
Z
  6
AUSGEZOGEN
 62
     1
100
AcDbLine
 10
2022.566753624527
 20
1696.325372557067
 30
0.0
 11
2021.566753624526
 21
1706.759698737069
 31
0.0
  0
LINE
  5
B8D
330
1F
100
AcDbEntity
  8
Z
  6
AUSGEZOGEN
 62
     1
100
AcDbLine
 10
1989.566631554527
 20
1735.759454597066
 30
0.0
 11
2002.385479204527
 21
1877.925470217066
 31
0.0
  0
LINE
  5
B8E
330
1F
100
AcDbEntity
  8
Z
  6
AUSGEZOGEN
 62
     1
100
AcDbLine
 10
2022.566753624527
 20
1735.759454597066
 30
0.0
 11
2035.385540244525
 21
1877.925470217066
 31
0.0
  0
LINE
  5
B8F
330
1F
100
AcDbEntity
  8
Z
  6
AUSGEZOGEN
 62
     1
100
AcDbLine
 10
2034.385540244525
 20
1906.925470217066
 30
0.0
 11
2035.385540244525
 21
1917.325372557067
 31
0.0
  0
LINE
  5
B90
330
1F
100
AcDbEntity
  8
Z
  6
AUSGEZOGEN
 62
     1
100
AcDbLine
 10
2003.385479204527
 20
1906.925470217066
 30
0.0
 11
2002.385479204527
 21
1917.325372557067
 31
0.0
  0
LINE
  5
B91
330
1F
100
AcDbEntity
  8
Z
  6
AUSGEZOGEN
 62
     1
100
AcDbLine
 10
2035.385540244525
 20
1917.325372557067
 30
0.0
 11
2002.385479204527
 21
1917.325372557067
 31
0.0
  0
LINE
  5
B92
330
1F
100
AcDbEntity
  8
Z
  6
GESTRICHELT
 62
     1
100
AcDbLine
 10
1695.084942094526
 20
1907.546808107068
 30
0.0
 11
1697.084942094526
 21
1907.546808107068
 31
0.0
  0
LINE
  5
B93
330
1F
100
AcDbEntity
  8
Z
  6
GESTRICHELT
 62
     1
100
AcDbLine
 10
1695.084942094526
 20
1928.546808107067
 30
0.0
 11
1695.084942094526
 21
1907.546808107068
 31
0.0
  0
LINE
  5
B94
330
1F
100
AcDbEntity
  8
Z
  6
GESTRICHELT
 62
     1
100
AcDbLine
 10
1697.084942094526
 20
1928.546808107067
 30
0.0
 11
1695.084942094526
 21
1928.546808107067
 31
0.0
  0
LINE
  5
B95
330
1F
100
AcDbEntity
  8
Z
  6
AUSGEZOGEN
 62
     1
100
AcDbLine
 10
1787.425518264524
 20
1851.158746587068
 30
0.0
 11
1844.434795614524
 21
1884.073175297067
 31
0.0
  0
LINE
  5
B96
330
1F
100
AcDbEntity
  8
Z
  6
AUSGEZOGEN
 62
     1
100
AcDbLine
 10
1786.425518264524
 20
1852.890680177067
 30
0.0
 11
1842.717266314527
 21
1885.390802247067
 31
0.0
  0
LINE
  5
B97
330
1F
100
AcDbEntity
  8
Z
  6
AUSGEZOGEN
 62
     1
100
AcDbLine
 10
1891.343487014523
 20
2023.155938967066
 30
0.0
 11
1894.515117874524
 21
2017.662530767067
 31
0.0
  0
LINE
  5
B98
330
1F
100
AcDbEntity
  8
Z
  6
AUSGEZOGEN
 62
     1
100
AcDbLine
 10
1885.879619834525
 20
2024.620294437068
 30
0.0
 11
1880.386455764524
 21
2021.448663577067
 31
0.0
  0
ARC
  5
B99
330
1F
100
AcDbEntity
  8
Z
  6
AUSGEZOGEN
 62
     1
100
AcDbCircle
 10
1891.051006554526
 20
2015.662774907068
 30
0.0
 40
4.000047679999999
100
AcDbArc
 50
344.9999999999771
 51
30.00061034994806
  0
ARC
  5
B9A
330
1F
100
AcDbEntity
  8
Z
  6
AUSGEZOGEN
 62
     1
100
AcDbCircle
 10
1891.051006554526
 20
2015.662774907068
 30
0.0
 40
2.00008869
100
AcDbArc
 50
344.9999694800595
 51
30.00616455001618
  0
LINE
  5
B9B
330
1F
100
AcDbEntity
  8
Z
  6
AUSGEZOGEN
 62
     1
100
AcDbLine
 10
1889.611553424525
 20
2022.155938967067
 30
0.0
 11
1892.782940144526
 21
2016.662530767067
 31
0.0
  0
ARC
  5
B9C
330
1F
100
AcDbEntity
  8
Z
  6
AUSGEZOGEN
 62
     1
100
AcDbCircle
 10
1887.879619834525
 20
2021.155938967067
 30
0.0
 40
3.999918459999999
100
AcDbArc
 50
30.0012512201125
 51
120.0000076300122
  0
ARC
  5
B9D
330
1F
100
AcDbEntity
  8
Z
  6
AUSGEZOGEN
 62
     1
100
AcDbCircle
 10
1887.879619834525
 20
2021.155938967067
 30
0.0
 40
1.999959229999999
100
AcDbArc
 50
29.99999999995693
 51
120.0000076300122
  0
LINE
  5
B9E
330
1F
100
AcDbEntity
  8
Z
  6
AUSGEZOGEN
 62
     1
100
AcDbLine
 10
1886.879619834525
 20
2022.888360847067
 30
0.0
 11
1881.385967484525
 21
2019.716729987068
 31
0.0
  0
ARC
  5
B9F
330
1F
100
AcDbEntity
  8
Z
  6
AUSGEZOGEN
 62
     1
100
AcDbCircle
 10
1882.386211624524
 20
2017.984552247067
 30
0.0
 40
4.00000477
100
AcDbArc
 50
119.9987640400814
 51
165.0000152600954
  0
ARC
  5
BA0
330
1F
100
AcDbEntity
  8
Z
  6
AUSGEZOGEN
 62
     1
100
AcDbCircle
 10
1882.386211624524
 20
2017.984552247067
 30
0.0
 40
2.00000238
100
AcDbArc
 50
120.0061492900056
 51
164.9999694800595
  0
LINE
  5
BA1
330
1F
100
AcDbEntity
  8
Z
  6
AUSGEZOGEN
 62
     1
100
AcDbLine
 10
1892.983135454526
 20
2015.145196777067
 30
0.0
 11
1890.306377644526
 21
2005.154718267067
 31
0.0
  0
LINE
  5
BA2
330
1F
100
AcDbEntity
  8
Z
  6
AUSGEZOGEN
 62
     1
100
AcDbLine
 10
1894.914776084525
 20
2014.627618657068
 30
0.0
 11
1892.237529984525
 21
2004.637140137068
 31
0.0
  0
LINE
  5
BA3
330
1F
100
AcDbEntity
  8
Z
  6
AUSGEZOGEN
 62
     1
100
AcDbLine
 10
1878.522442094526
 20
2019.019708497067
 30
0.0
 11
1842.716778034525
 21
1885.390313967066
 31
0.0
  0
LINE
  5
BA4
330
1F
100
AcDbEntity
  8
Z
  6
AUSGEZOGEN
 62
     1
100
AcDbLine
 10
1880.454326864524
 20
2018.502130377067
 30
0.0
 11
1844.434063194526
 21
1884.072931157067
 31
0.0
  0
LINE
  5
BA5
330
1F
100
AcDbEntity
  8
Z
  6
MITTE
 62
     1
100
AcDbLine
 10
2146.132122274527
 20
1094.813653807066
 30
0.0
 11
2088.226116414527
 21
1094.813653807066
 31
0.0
  0
LINE
  5
BA6
330
1F
100
AcDbEntity
  8
Z
  6
MITTE
 62
     1
100
AcDbLine
 10
1978.585918664527
 20
1236.926446777068
 30
0.0
 11
1978.585918664527
 21
1187.927789557068
 31
0.0
  0
CIRCLE
  5
BA7
330
1F
100
AcDbEntity
  8
GEHAEUSE
  6
GESTRICHELT
 62
     1
100
AcDbCircle
 10
1871.085430374525
 20
1918.325616697067
 30
0.0
 40
5.000205039999999
  0
CIRCLE
  5
BA8
330
1F
100
AcDbEntity
  8
GEHAEUSE
  6
GESTRICHELT
 62
     1
100
AcDbCircle
 10
1871.085918664527
 20
1918.326104987068
 30
0.0
 40
15.00000381
  0
LINE
  5
BA9
330
1F
100
AcDbEntity
  8
GEHAEUSE
  6
GESTRICHELT
 62
     1
100
AcDbLine
 10
1871.085918664527
 20
1909.085382327067
 30
0.0
 11
1879.085918664527
 21
1913.705499517066
 31
0.0
  0
LINE
  5
BAA
330
1F
100
AcDbEntity
  8
GEHAEUSE
  6
GESTRICHELT
 62
     1
100
AcDbLine
 10
1879.085918664527
 20
1913.705499517066
 30
0.0
 11
1879.085918664527
 21
1922.945733887068
 31
0.0
  0
LINE
  5
BAB
330
1F
100
AcDbEntity
  8
GEHAEUSE
  6
GESTRICHELT
 62
     1
100
AcDbLine
 10
1879.085918664527
 20
1922.946222167066
 30
0.0
 11
1871.085918664527
 21
1927.566339357068
 31
0.0
  0
LINE
  5
BAC
330
1F
100
AcDbEntity
  8
GEHAEUSE
  6
GESTRICHELT
 62
     1
100
AcDbLine
 10
1871.085918664527
 20
1927.566339357068
 30
0.0
 11
1863.085918664527
 21
1922.946222167066
 31
0.0
  0
LINE
  5
BAD
330
1F
100
AcDbEntity
  8
GEHAEUSE
  6
GESTRICHELT
 62
     1
100
AcDbLine
 10
1863.085918664527
 20
1922.946222167066
 30
0.0
 11
1863.085918664527
 21
1913.705987797067
 31
0.0
  0
LINE
  5
BAE
330
1F
100
AcDbEntity
  8
GEHAEUSE
  6
GESTRICHELT
 62
     1
100
AcDbLine
 10
1863.085918664527
 20
1913.705499517066
 30
0.0
 11
1871.085918664527
 21
1909.085382327067
 31
0.0
  0
CIRCLE
  5
BAF
330
1F
100
AcDbEntity
  8
GEHAEUSE
  6
GESTRICHELT
 62
     1
100
AcDbCircle
 10
1726.085430374524
 20
1918.325616697067
 30
0.0
 40
5.000205039999999
  0
CIRCLE
  5
BB0
330
1F
100
AcDbEntity
  8
GEHAEUSE
  6
GESTRICHELT
 62
     1
100
AcDbCircle
 10
1726.084942094526
 20
1918.326104987068
 30
0.0
 40
15.00000381
  0
LINE
  5
BB1
330
1F
100
AcDbEntity
  8
GEHAEUSE
  6
GESTRICHELT
 62
     1
100
AcDbLine
 10
1726.084942094526
 20
1909.085382327067
 30
0.0
 11
1718.084942094526
 21
1913.705499517066
 31
0.0
  0
LINE
  5
BB2
330
1F
100
AcDbEntity
  8
GEHAEUSE
  6
GESTRICHELT
 62
     1
100
AcDbLine
 10
1718.084942094526
 20
1913.705499517066
 30
0.0
 11
1718.084942094526
 21
1922.945733887068
 31
0.0
  0
LINE
  5
BB3
330
1F
100
AcDbEntity
  8
GEHAEUSE
  6
GESTRICHELT
 62
     1
100
AcDbLine
 10
1718.084942094526
 20
1922.946222167066
 30
0.0
 11
1726.084942094526
 21
1927.566339357068
 31
0.0
  0
LINE
  5
BB4
330
1F
100
AcDbEntity
  8
GEHAEUSE
  6
GESTRICHELT
 62
     1
100
AcDbLine
 10
1726.084942094526
 20
1927.566339357068
 30
0.0
 11
1734.084942094526
 21
1922.946222167066
 31
0.0
  0
LINE
  5
BB5
330
1F
100
AcDbEntity
  8
GEHAEUSE
  6
GESTRICHELT
 62
     1
100
AcDbLine
 10
1734.084942094526
 20
1922.946222167066
 30
0.0
 11
1734.084942094526
 21
1913.705987797067
 31
0.0
  0
LINE
  5
BB6
330
1F
100
AcDbEntity
  8
GEHAEUSE
  6
GESTRICHELT
 62
     1
100
AcDbLine
 10
1734.084942094526
 20
1913.705499517066
 30
0.0
 11
1726.084942094526
 21
1909.085382327067
 31
0.0
  0
LINE
  5
BB7
330
1F
100
AcDbEntity
  8
MASSE
  6
MITTE
 62
     1
100
AcDbLine
 10
1683.438701864524
 20
1918.325616697067
 30
0.0
 11
1879.499492874525
 21
1918.325616697067
 31
0.0
  0
TEXT
  5
BB8
330
1F
100
AcDbEntity
  8
MASSE
  6
AUSGEZOGEN
 62
     7
100
AcDbText
 10
2284.214275594527
 20
1122.170831547066
 30
0.0
 40
25.0
  1
 120
 50
90.0
 41
0.66666669
  7
SIMPLEX
100
AcDbText
  0
LINE
  5
BB9
330
1F
100
AcDbEntity
  8
MASSE
  6
AUSGEZOGEN
 62
     1
100
AcDbLine
 10
2294.214275594527
 20
1215.313653807067
 30
0.0
 11
2298.130047074526
 21
1185.570245607066
 31
0.0
  0
LINE
  5
BBA
330
1F
100
AcDbEntity
  8
MASSE
  6
AUSGEZOGEN
 62
     1
100
AcDbLine
 10
2294.214275594527
 20
1215.313653807067
 30
0.0
 11
2290.298504104528
 21
1185.570245607066
 31
0.0
  0
LINE
  5
BBB
330
1F
100
AcDbEntity
  8
MASSE
  6
AUSGEZOGEN
 62
     1
100
AcDbLine
 10
2294.214275594527
 20
1094.813653807066
 30
0.0
 11
2298.130047074526
 21
1124.557062017067
 31
0.0
  0
LINE
  5
BBC
330
1F
100
AcDbEntity
  8
MASSE
  6
AUSGEZOGEN
 62
     1
100
AcDbLine
 10
2294.214275594527
 20
1094.813653807066
 30
0.0
 11
2290.298504104528
 21
1124.557062017067
 31
0.0
  0
LINE
  5
BBD
330
1F
100
AcDbEntity
  8
MASSE
  6
AUSGEZOGEN
 62
     1
100
AcDbLine
 10
2121.585491414526
 20
1215.313653807067
 30
0.0
 11
2314.214275594527
 21
1215.313653807067
 31
0.0
  0
LINE
  5
BBE
330
1F
100
AcDbEntity
  8
MASSE
  6
AUSGEZOGEN
 62
     1
100
AcDbLine
 10
2152.324138874526
 20
1094.813653807066
 30
0.0
 11
2314.214275594527
 21
1094.813653807066
 31
0.0
  0
LINE
  5
BBF
330
1F
100
AcDbEntity
  8
MASSE
  6
AUSGEZOGEN
 62
     1
100
AcDbLine
 10
2294.214275594527
 20
1094.813653807066
 30
0.0
 11
2294.214275594527
 21
1215.313653807067
 31
0.0
  0
LINE
  5
BC0
330
1F
100
AcDbEntity
  8
MASSE
  6
AUSGEZOGEN
 62
     1
100
AcDbLine
 10
2103.771526574524
 20
1616.325494627066
 30
0.0
 11
2292.047771684526
 21
1616.325494627066
 31
0.0
  0
LINE
  5
BC1
330
1F
100
AcDbEntity
  8
MASSE
  6
AUSGEZOGEN
 62
     1
100
AcDbLine
 10
2031.281109084523
 20
1786.325494627066
 30
0.0
 11
2279.376995324524
 21
1786.325494627066
 31
0.0
  0
TEXT
  5
BC2
330
1F
100
AcDbEntity
  8
MASSE
  6
AUSGEZOGEN
 62
     7
100
AcDbText
 10
2259.590618364523
 20
1681.820123537067
 30
0.0
 40
25.0
  1
170
 50
90.0
 41
0.66666669
  7
SIMPLEX
100
AcDbText
  0
LINE
  5
BC3
330
1F
100
AcDbEntity
  8
MASSE
  6
AUSGEZOGEN
 62
     1
100
AcDbLine
 10
2266.198284384528
 20
1616.325494627066
 30
0.0
 11
2266.198284384528
 21
1786.325494627066
 31
0.0
  0
LINE
  5
BC4
330
1F
100
AcDbEntity
  8
MASSE
  6
AUSGEZOGEN
 62
     1
100
AcDbLine
 10
2266.198284384528
 20
1786.325494627066
 30
0.0
 11
2262.282512894525
 21
1756.582086427066
 31
0.0
  0
LINE
  5
BC5
330
1F
100
AcDbEntity
  8
MASSE
  6
AUSGEZOGEN
 62
     1
100
AcDbLine
 10
2266.198284384528
 20
1786.325494627066
 30
0.0
 11
2270.114055864523
 21
1756.582086427066
 31
0.0
  0
LINE
  5
BC6
330
1F
100
AcDbEntity
  8
MASSE
  6
AUSGEZOGEN
 62
     1
100
AcDbLine
 10
2266.198284384528
 20
1616.325494627066
 30
0.0
 11
2270.114055864523
 21
1646.068902837067
 31
0.0
  0
LINE
  5
BC7
330
1F
100
AcDbEntity
  8
MASSE
  6
AUSGEZOGEN
 62
     1
100
AcDbLine
 10
2266.198284384528
 20
1616.325494627066
 30
0.0
 11
2262.282512894525
 21
1646.068902837067
 31
0.0
  0
LINE
  5
BC8
330
1F
100
AcDbEntity
  8
MASSE
  6
AUSGEZOGEN
 62
     1
100
AcDbLine
 10
2029.316936724524
 20
1716.325494627066
 30
0.0
 11
2221.753093954528
 21
1716.325494627066
 31
0.0
  0
TEXT
  5
BC9
330
1F
100
AcDbEntity
  8
MASSE
  6
AUSGEZOGEN
 62
     7
100
AcDbText
 10
2194.423137894525
 20
1623.256769047066
 30
0.0
 40
25.0
  1
ca.100
 50
90.0
 41
0.66666669
  7
SIMPLEX
100
AcDbText
  0
LINE
  5
BCA
330
1F
100
AcDbEntity
  8
MASSE
  6
AUSGEZOGEN
 62
     1
100
AcDbLine
 10
2206.198284384528
 20
1616.325494627066
 30
0.0
 11
2206.198284384528
 21
1716.325494627066
 31
0.0
  0
LINE
  5
BCB
330
1F
100
AcDbEntity
  8
MASSE
  6
AUSGEZOGEN
 62
     1
100
AcDbLine
 10
2206.198284384528
 20
1716.325494627066
 30
0.0
 11
2210.114055864523
 21
1686.582086427066
 31
0.0
  0
LINE
  5
BCC
330
1F
100
AcDbEntity
  8
MASSE
  6
AUSGEZOGEN
 62
     1
100
AcDbLine
 10
2206.198284384528
 20
1716.325494627066
 30
0.0
 11
2202.282512894525
 21
1686.582086427066
 31
0.0
  0
LINE
  5
BCD
330
1F
100
AcDbEntity
  8
MASSE
  6
AUSGEZOGEN
 62
     1
100
AcDbLine
 10
2206.198284384528
 20
1616.325494627066
 30
0.0
 11
2210.114055864523
 21
1646.068902837067
 31
0.0
  0
LINE
  5
BCE
330
1F
100
AcDbEntity
  8
MASSE
  6
AUSGEZOGEN
 62
     1
100
AcDbLine
 10
2206.198284384528
 20
1616.325494627066
 30
0.0
 11
2202.282512894525
 21
1646.068902837067
 31
0.0
  0
LINE
  5
BCF
330
1F
100
AcDbEntity
  8
MASSE
  6
AUSGEZOGEN
 62
     1
100
AcDbLine
 10
2119.539592974524
 20
2074.825616697067
 30
0.0
 11
2138.813152544523
 21
2074.825616697067
 31
0.0
  0
LINE
  5
BD0
330
1F
100
AcDbEntity
  8
MASSE
  6
AUSGEZOGEN
 62
     1
100
AcDbLine
 10
2130.486980674525
 20
1947.325616697067
 30
0.0
 11
2279.735271684526
 21
1947.325616697067
 31
0.0
  0
LINE
  5
BD1
330
1F
100
AcDbEntity
  8
MASSE
  6
AUSGEZOGEN
 62
     1
100
AcDbLine
 10
2259.735271684526
 20
1947.325616697067
 30
0.0
 11
2259.735271684526
 21
2074.825616697067
 31
0.0
  0
LINE
  5
BD2
330
1F
100
AcDbEntity
  8
MASSE
  6
AUSGEZOGEN
 62
     1
100
AcDbLine
 10
2259.735271684526
 20
1947.325616697067
 30
0.0
 11
2255.819500204528
 21
1977.069024907067
 31
0.0
  0
LINE
  5
BD3
330
1F
100
AcDbEntity
  8
MASSE
  6
AUSGEZOGEN
 62
     1
100
AcDbLine
 10
2259.735271684526
 20
1947.325616697067
 30
0.0
 11
2263.651043174526
 21
1977.069024907067
 31
0.0
  0
LINE
  5
BD4
330
1F
100
AcDbEntity
  8
MASSE
  6
AUSGEZOGEN
 62
     1
100
AcDbLine
 10
2259.735271684526
 20
2074.825616697067
 30
0.0
 11
2255.819500204528
 21
2045.082208497067
 31
0.0
  0
LINE
  5
BD5
330
1F
100
AcDbEntity
  8
MASSE
  6
AUSGEZOGEN
 62
     1
100
AcDbLine
 10
2259.735271684526
 20
2074.825616697067
 30
0.0
 11
2263.651043174526
 21
2045.082208497067
 31
0.0
  0
TEXT
  5
BD6
330
1F
100
AcDbEntity
  8
MASSE
  6
AUSGEZOGEN
 62
     7
100
AcDbText
 10
2249.735271684526
 20
1978.182794437068
 30
0.0
 40
25.0
  1
 127
 50
90.0
 41
0.66666669
  7
SIMPLEX
100
AcDbText
  0
LINE
  5
BD7
330
1F
100
AcDbEntity
  8
MASSE
  6
AUSGEZOGEN
 62
     1
100
AcDbLine
 10
2160.319866414527
 20
2074.825616697067
 30
0.0
 11
2279.735271684526
 21
2074.825616697067
 31
0.0
  0
TEXT
  5
BD8
330
1F
100
AcDbEntity
  8
MASSE
  6
AUSGEZOGEN
 62
     7
100
AcDbText
 10
1620.426006554527
 20
2013.336847167066
 30
0.0
 40
25.0
  1
 75
 50
90.0
 41
0.66666669
  7
SIMPLEX
100
AcDbText
  0
LINE
  5
BD9
330
1F
100
AcDbEntity
  8
MASSE
  6
AUSGEZOGEN
 62
     1
100
AcDbLine
 10
1632.721782914526
 20
1999.825616697067
 30
0.0
 11
1636.637554404525
 21
2029.569024907068
 31
0.0
  0
LINE
  5
BDA
330
1F
100
AcDbEntity
  8
MASSE
  6
AUSGEZOGEN
 62
     1
100
AcDbLine
 10
1632.721782914526
 20
1999.825616697067
 30
0.0
 11
1628.806011434523
 21
2029.569024907068
 31
0.0
  0
LINE
  5
BDB
330
1F
100
AcDbEntity
  8
MASSE
  6
AUSGEZOGEN
 62
     1
100
AcDbLine
 10
1632.721782914526
 20
2074.825616697067
 30
0.0
 11
1636.637554404525
 21
2045.082208497067
 31
0.0
  0
LINE
  5
BDC
330
1F
100
AcDbEntity
  8
MASSE
  6
AUSGEZOGEN
 62
     1
100
AcDbLine
 10
1632.721782914526
 20
2074.825616697067
 30
0.0
 11
1628.806011434523
 21
2045.082208497067
 31
0.0
  0
LINE
  5
BDD
330
1F
100
AcDbEntity
  8
MASSE
  6
AUSGEZOGEN
 62
     1
100
AcDbLine
 10
1632.721782914526
 20
1999.825616697067
 30
0.0
 11
1632.721782914526
 21
2074.825616697067
 31
0.0
  0
LINE
  5
BDE
330
1F
100
AcDbEntity
  8
MASSE
  6
AUSGEZOGEN
 62
     1
100
AcDbLine
 10
1521.339458694524
 20
1918.325616697067
 30
0.0
 11
1521.339458694524
 21
2074.825616697067
 31
0.0
  0
LINE
  5
BDF
330
1F
100
AcDbEntity
  8
MASSE
  6
AUSGEZOGEN
 62
     1
100
AcDbLine
 10
1673.438701864524
 20
1918.325616697067
 30
0.0
 11
1501.339458694524
 21
1918.325616697067
 31
0.0
  0
LINE
  5
BE0
330
1F
100
AcDbEntity
  8
MASSE
  6
AUSGEZOGEN
 62
     1
100
AcDbLine
 10
1521.339458694524
 20
1918.325616697067
 30
0.0
 11
1517.423687214526
 21
1948.069024907067
 31
0.0
  0
LINE
  5
BE1
330
1F
100
AcDbEntity
  8
MASSE
  6
AUSGEZOGEN
 62
     1
100
AcDbLine
 10
1521.339458694524
 20
1918.325616697067
 30
0.0
 11
1525.255230184523
 21
1948.069024907067
 31
0.0
  0
LINE
  5
BE2
330
1F
100
AcDbEntity
  8
MASSE
  6
AUSGEZOGEN
 62
     1
100
AcDbLine
 10
1521.339458694524
 20
2074.825616697067
 30
0.0
 11
1517.423687214526
 21
2045.082208497067
 31
0.0
  0
LINE
  5
BE3
330
1F
100
AcDbEntity
  8
MASSE
  6
AUSGEZOGEN
 62
     1
100
AcDbLine
 10
1521.339458694524
 20
2074.825616697067
 30
0.0
 11
1525.255230184523
 21
2045.082208497067
 31
0.0
  0
TEXT
  5
BE4
330
1F
100
AcDbEntity
  8
MASSE
  6
AUSGEZOGEN
 62
     7
100
AcDbText
 10
1511.339489214525
 20
1963.682794437068
 30
0.0
 40
25.00002289
  1
 156
 50
90.0
 41
0.66666605
  7
SIMPLEX
100
AcDbText
  0
LINE
  5
BE5
330
1F
100
AcDbEntity
  8
MASSE
  6
AUSGEZOGEN
 62
     1
100
AcDbLine
 10
1445.085399864528
 20
1614.825494627066
 30
0.0
 11
1445.085399864528
 21
2074.825616697067
 31
0.0
  0
LINE
  5
BE6
330
1F
100
AcDbEntity
  8
MASSE
  6
AUSGEZOGEN
 62
     1
100
AcDbLine
 10
1698.085430374525
 20
1614.825494627066
 30
0.0
 11
1425.085399864528
 21
1614.825494627066
 31
0.0
  0
LINE
  5
BE7
330
1F
100
AcDbEntity
  8
MASSE
  6
AUSGEZOGEN
 62
     1
100
AcDbLine
 10
1674.085369344527
 20
2074.825616697067
 30
0.0
 11
1425.085399864528
 21
2074.825616697067
 31
0.0
  0
LINE
  5
BE8
330
1F
100
AcDbEntity
  8
MASSE
  6
AUSGEZOGEN
 62
     1
100
AcDbLine
 10
1445.085399864528
 20
1614.825494627066
 30
0.0
 11
1441.169628374525
 21
1644.568902837067
 31
0.0
  0
LINE
  5
BE9
330
1F
100
AcDbEntity
  8
MASSE
  6
AUSGEZOGEN
 62
     1
100
AcDbLine
 10
1445.085399864528
 20
1614.825494627066
 30
0.0
 11
1449.001171344523
 21
1644.568902837067
 31
0.0
  0
LINE
  5
BEA
330
1F
100
AcDbEntity
  8
MASSE
  6
AUSGEZOGEN
 62
     1
100
AcDbLine
 10
1445.085399864528
 20
2074.825616697067
 30
0.0
 11
1441.169628374525
 21
2045.082208497067
 31
0.0
  0
LINE
  5
BEB
330
1F
100
AcDbEntity
  8
MASSE
  6
AUSGEZOGEN
 62
     1
100
AcDbLine
 10
1445.085399864528
 20
2074.825616697067
 30
0.0
 11
1449.001171344523
 21
2045.082208497067
 31
0.0
  0
TEXT
  5
BEC
330
1F
100
AcDbEntity
  8
MASSE
  6
AUSGEZOGEN
 62
     7
100
AcDbText
 10
1435.085399864528
 20
1803.039850097067
 30
0.0
 40
25.0
  1
 460
 50
90.0
 41
0.66666796
  7
SIMPLEX
100
AcDbText
  0
LINE
  5
BED
330
1F
100
AcDbEntity
  8
MASSE
  6
AUSGEZOGEN
 62
     1
100
AcDbLine
 10
2114.585491414527
 20
1356.204278807066
 30
0.0
 11
2114.585491414527
 21
1398.435479987069
 31
0.0
  0
LINE
  5
BEE
330
1F
100
AcDbEntity
  8
MASSE
  6
AUSGEZOGEN
 62
     1
100
AcDbLine
 10
1978.585918664527
 20
1378.435479987069
 30
0.0
 11
2114.585491414527
 21
1378.435479987069
 31
0.0
  0
LINE
  5
BEF
330
1F
100
AcDbEntity
  8
MASSE
  6
AUSGEZOGEN
 62
     1
100
AcDbLine
 10
1978.585918664527
 20
1378.435479987069
 30
0.0
 11
2008.329265824526
 21
1382.351251467067
 31
0.0
  0
LINE
  5
BF0
330
1F
100
AcDbEntity
  8
MASSE
  6
AUSGEZOGEN
 62
     1
100
AcDbLine
 10
1978.585918664527
 20
1378.435479987069
 30
0.0
 11
2008.329265824526
 21
1374.519708497066
 31
0.0
  0
LINE
  5
BF1
330
1F
100
AcDbEntity
  8
MASSE
  6
AUSGEZOGEN
 62
     1
100
AcDbLine
 10
2114.585491414527
 20
1378.435479987069
 30
0.0
 11
2084.842205284526
 21
1382.351251467067
 31
0.0
  0
LINE
  5
BF2
330
1F
100
AcDbEntity
  8
MASSE
  6
AUSGEZOGEN
 62
     1
100
AcDbLine
 10
2114.585491414527
 20
1378.435479987069
 30
0.0
 11
2084.842205284526
 21
1374.519708497066
 31
0.0
  0
TEXT
  5
BF3
330
1F
100
AcDbEntity
  8
MASSE
  6
AUSGEZOGEN
 62
     7
100
AcDbText
 10
2004.800029984525
 20
1388.435479987069
 30
0.0
 40
25.0
  1
 136
 41
0.66666669
  7
SIMPLEX
100
AcDbText
  0
LINE
  5
BF4
330
1F
100
AcDbEntity
  8
MASSE
  6
AUSGEZOGEN
 62
     1
100
AcDbLine
 10
2114.585491414527
 20
1222.313653807067
 30
0.0
 11
2114.585491414527
 21
1333.350030767067
 31
0.0
  0
LINE
  5
BF5
330
1F
100
AcDbEntity
  8
MASSE
  6
AUSGEZOGEN
 62
     1
100
AcDbLine
 10
1798.585430374524
 20
1378.435479987069
 30
0.0
 11
1978.585918664527
 21
1378.435479987069
 31
0.0
  0
LINE
  5
BF6
330
1F
100
AcDbEntity
  8
MASSE
  6
AUSGEZOGEN
 62
     1
100
AcDbLine
 10
1978.585918664527
 20
1246.926446777068
 30
0.0
 11
1978.585918664527
 21
1398.435479987069
 31
0.0
  0
LINE
  5
BF7
330
1F
100
AcDbEntity
  8
MASSE
  6
AUSGEZOGEN
 62
     1
100
AcDbLine
 10
1798.585430374524
 20
1378.435479987069
 30
0.0
 11
1828.328777544523
 21
1382.351251467067
 31
0.0
  0
LINE
  5
BF8
330
1F
100
AcDbEntity
  8
MASSE
  6
AUSGEZOGEN
 62
     1
100
AcDbLine
 10
1798.585430374524
 20
1378.435479987069
 30
0.0
 11
1828.328777544523
 21
1374.519708497066
 31
0.0
  0
LINE
  5
BF9
330
1F
100
AcDbEntity
  8
MASSE
  6
AUSGEZOGEN
 62
     1
100
AcDbLine
 10
1978.585918664527
 20
1378.435479987069
 30
0.0
 11
1948.842571494525
 21
1382.351251467067
 31
0.0
  0
LINE
  5
BFA
330
1F
100
AcDbEntity
  8
MASSE
  6
AUSGEZOGEN
 62
     1
100
AcDbLine
 10
1978.585918664527
 20
1378.435479987069
 30
0.0
 11
1948.842571494525
 21
1374.519708497066
 31
0.0
  0
TEXT
  5
BFB
330
1F
100
AcDbEntity
  8
MASSE
  6
AUSGEZOGEN
 62
     7
100
AcDbText
 10
1846.799968954528
 20
1388.435479987069
 30
0.0
 40
25.0
  1
 180
 41
0.66666669
  7
SIMPLEX
100
AcDbText
  0
LINE
  5
BFC
330
1F
100
AcDbEntity
  8
MASSE
  6
AUSGEZOGEN
 62
     1
100
AcDbLine
 10
1798.585430374524
 20
1286.659845217067
 30
0.0
 11
1798.585430374524
 21
1398.435479987069
 31
0.0
  0
TEXT
  5
BFD
330
1F
100
AcDbEntity
  8
MASSE
  6
AUSGEZOGEN
 62
     7
100
AcDbText
 10
1856.799785844526
 20
706.8136538070667
 30
0.0
 40
25.0
  1
 432
 41
0.66666669
  7
SIMPLEX
100
AcDbText
  0
LINE
  5
BFE
330
1F
100
AcDbEntity
  8
MASSE
  6
AUSGEZOGEN
 62
     1
100
AcDbLine
 10
2114.585491414527
 20
696.8136538070666
 30
0.0
 11
2084.842083214523
 21
692.8978823270681
 31
0.0
  0
LINE
  5
BFF
330
1F
100
AcDbEntity
  8
MASSE
  6
AUSGEZOGEN
 62
     1
100
AcDbLine
 10
2114.585491414527
 20
696.8136538070666
 30
0.0
 11
2084.842083214523
 21
700.7294252970695
 31
0.0
  0
LINE
  5
C00
330
1F
100
AcDbEntity
  8
MASSE
  6
AUSGEZOGEN
 62
     1
100
AcDbLine
 10
1682.585430374524
 20
696.8136538070666
 30
0.0
 11
1712.328777544523
 21
692.8978823270681
 31
0.0
  0
LINE
  5
C01
330
1F
100
AcDbEntity
  8
MASSE
  6
AUSGEZOGEN
 62
     1
100
AcDbLine
 10
1682.585430374524
 20
696.8136538070666
 30
0.0
 11
1712.328777544523
 21
700.7294252970695
 31
0.0
  0
LINE
  5
C02
330
1F
100
AcDbEntity
  8
MASSE
  6
AUSGEZOGEN
 62
     1
100
AcDbLine
 10
2114.585491414527
 20
867.3136538070666
 30
0.0
 11
2114.585491414527
 21
676.8136538070666
 31
0.0
  0
LINE
  5
C03
330
1F
100
AcDbEntity
  8
MASSE
  6
AUSGEZOGEN
 62
     1
100
AcDbLine
 10
1682.585430374524
 20
867.3136538070666
 30
0.0
 11
1682.585430374524
 21
676.8136538070666
 31
0.0
  0
LINE
  5
C04
330
1F
100
AcDbEntity
  8
MASSE
  6
AUSGEZOGEN
 62
     1
100
AcDbLine
 10
1682.585430374524
 20
696.8136538070666
 30
0.0
 11
2114.585491414527
 21
696.8136538070666
 31
0.0
  0
TEXT
  5
C05
330
1F
100
AcDbEntity
  8
MASSE
  6
AUSGEZOGEN
 62
     7
100
AcDbText
 10
1856.799785844526
 20
646.8136538070666
 30
0.0
 40
25.0
  1
 587
 41
0.66666669
  7
SIMPLEX
100
AcDbText
  0
LINE
  5
C06
330
1F
100
AcDbEntity
  8
MASSE
  6
AUSGEZOGEN
 62
     1
100
AcDbLine
 10
2192.085491414527
 20
636.8136538070666
 30
0.0
 11
2162.342205284526
 21
632.8978823270681
 31
0.0
  0
LINE
  5
C07
330
1F
100
AcDbEntity
  8
MASSE
  6
AUSGEZOGEN
 62
     1
100
AcDbLine
 10
2192.085491414527
 20
636.8136538070666
 30
0.0
 11
2162.342205284526
 21
640.7294252970696
 31
0.0
  0
LINE
  5
C08
330
1F
100
AcDbEntity
  8
MASSE
  6
AUSGEZOGEN
 62
     1
100
AcDbLine
 10
1605.085430374525
 20
636.8136538070666
 30
0.0
 11
1634.828777544523
 21
632.8978823270681
 31
0.0
  0
LINE
  5
C09
330
1F
100
AcDbEntity
  8
MASSE
  6
AUSGEZOGEN
 62
     1
100
AcDbLine
 10
1605.085430374525
 20
636.8136538070666
 30
0.0
 11
1634.828777544523
 21
640.7294252970696
 31
0.0
  0
LINE
  5
C0A
330
1F
100
AcDbEntity
  8
MASSE
  6
AUSGEZOGEN
 62
     1
100
AcDbLine
 10
2192.085491414527
 20
806.8136538070666
 30
0.0
 11
2192.085491414527
 21
616.8136538070666
 31
0.0
  0
LINE
  5
C0B
330
1F
100
AcDbEntity
  8
MASSE
  6
AUSGEZOGEN
 62
     1
100
AcDbLine
 10
1605.085430374525
 20
806.8136538070666
 30
0.0
 11
1605.085430374525
 21
616.8136538070666
 31
0.0
  0
LINE
  5
C0C
330
1F
100
AcDbEntity
  8
MASSE
  6
AUSGEZOGEN
 62
     1
100
AcDbLine
 10
1605.085430374525
 20
636.8136538070666
 30
0.0
 11
2192.085491414527
 21
636.8136538070666
 31
0.0
  0
TEXT
  5
C0D
330
1F
100
AcDbEntity
  8
MASSE
  6
AUSGEZOGEN
 62
     7
100
AcDbText
 10
1495.085399864528
 20
1003.027887207068
 30
0.0
 40
25.0
  1
 341
 50
90.0
 41
0.66666669
  7
SIMPLEX
100
AcDbText
  0
LINE
  5
C0E
330
1F
100
AcDbEntity
  8
MASSE
  6
AUSGEZOGEN
 62
     1
100
AcDbLine
 10
1505.085399864528
 20
1215.313653807067
 30
0.0
 11
1509.001171344523
 21
1185.570245607066
 31
0.0
  0
LINE
  5
C0F
330
1F
100
AcDbEntity
  8
MASSE
  6
AUSGEZOGEN
 62
     1
100
AcDbLine
 10
1505.085399864528
 20
1215.313653807067
 30
0.0
 11
1501.169628374525
 21
1185.570245607066
 31
0.0
  0
LINE
  5
C10
330
1F
100
AcDbEntity
  8
MASSE
  6
AUSGEZOGEN
 62
     1
100
AcDbLine
 10
1505.085399864528
 20
874.3136538070666
 30
0.0
 11
1509.001171344523
 21
904.0570620170674
 31
0.0
  0
LINE
  5
C11
330
1F
100
AcDbEntity
  8
MASSE
  6
AUSGEZOGEN
 62
     1
100
AcDbLine
 10
1505.085399864528
 20
874.3136538070666
 30
0.0
 11
1501.169628374525
 21
904.0570620170674
 31
0.0
  0
LINE
  5
C12
330
1F
100
AcDbEntity
  8
MASSE
  6
AUSGEZOGEN
 62
     1
100
AcDbLine
 10
1675.585430374524
 20
1215.313653807067
 30
0.0
 11
1485.085399864528
 21
1215.313653807067
 31
0.0
  0
LINE
  5
C13
330
1F
100
AcDbEntity
  8
MASSE
  6
AUSGEZOGEN
 62
     1
100
AcDbLine
 10
1675.585430374524
 20
874.3136538070666
 30
0.0
 11
1485.085399864528
 21
874.3136538070666
 31
0.0
  0
LINE
  5
C14
330
1F
100
AcDbEntity
  8
MASSE
  6
AUSGEZOGEN
 62
     1
100
AcDbLine
 10
1505.085399864528
 20
874.3136538070666
 30
0.0
 11
1505.085399864528
 21
1215.313653807067
 31
0.0
  0
LINE
  5
C15
330
1F
100
AcDbEntity
  8
MASSE
  6
AUSGEZOGEN
 62
     1
100
AcDbLine
 10
1445.085399864528
 20
796.8136538070666
 30
0.0
 11
1445.085399864528
 21
1292.813653807067
 31
0.0
  0
LINE
  5
C16
330
1F
100
AcDbEntity
  8
MASSE
  6
AUSGEZOGEN
 62
     1
100
AcDbLine
 10
1615.085430374524
 20
796.8136538070666
 30
0.0
 11
1425.085430374524
 21
796.8136538070666
 31
0.0
  0
LINE
  5
C17
330
1F
100
AcDbEntity
  8
MASSE
  6
AUSGEZOGEN
 62
     1
100
AcDbLine
 10
1615.085430374524
 20
1292.813653807067
 30
0.0
 11
1425.085430374524
 21
1292.813653807067
 31
0.0
  0
LINE
  5
C18
330
1F
100
AcDbEntity
  8
MASSE
  6
AUSGEZOGEN
 62
     1
100
AcDbLine
 10
1445.085399864528
 20
796.8136538070666
 30
0.0
 11
1441.169658894526
 21
826.5570009770691
 31
0.0
  0
LINE
  5
C19
330
1F
100
AcDbEntity
  8
MASSE
  6
AUSGEZOGEN
 62
     1
100
AcDbLine
 10
1445.085399864528
 20
796.8136538070666
 30
0.0
 11
1449.001171344523
 21
826.5570009770691
 31
0.0
  0
LINE
  5
C1A
330
1F
100
AcDbEntity
  8
MASSE
  6
AUSGEZOGEN
 62
     1
100
AcDbLine
 10
1445.085399864528
 20
1292.813653807067
 30
0.0
 11
1441.169658894526
 21
1263.070245607067
 31
0.0
  0
LINE
  5
C1B
330
1F
100
AcDbEntity
  8
MASSE
  6
AUSGEZOGEN
 62
     1
100
AcDbLine
 10
1445.085399864528
 20
1292.813653807067
 30
0.0
 11
1449.001171344523
 21
1263.070245607067
 31
0.0
  0
TEXT
  5
C1C
330
1F
100
AcDbEntity
  8
MASSE
  6
AUSGEZOGEN
 62
     7
100
AcDbText
 10
1435.085430374524
 20
1003.027887207068
 30
0.0
 40
25.0
  1
 496
 50
90.0
 41
0.66666669
  7
SIMPLEX
100
AcDbText
  0
TEXT
  5
C1D
330
1F
100
AcDbEntity
  8
MASSE
  6
AUSGEZOGEN
 62
     7
100
AcDbText
 10
1812.335491414527
 20
1544.253839357067
 30
0.0
 40
25.0
  1
 387 x 296
 41
0.66666669
  7
SIMPLEX
100
AcDbText
  0
LINE
  5
C1E
330
1F
100
AcDbEntity
  8
MASSE
  6
AUSGEZOGEN
 62
     1
100
AcDbLine
 10
2092.085491414527
 20
1534.253839357067
 30
0.0
 11
2062.342144244528
 21
1530.338067877068
 31
0.0
  0
LINE
  5
C1F
330
1F
100
AcDbEntity
  8
MASSE
  6
AUSGEZOGEN
 62
     1
100
AcDbLine
 10
2092.085491414527
 20
1534.253839357067
 30
0.0
 11
2062.342144244528
 21
1538.169610847066
 31
0.0
  0
LINE
  5
C20
330
1F
100
AcDbEntity
  8
MASSE
  6
AUSGEZOGEN
 62
     1
100
AcDbLine
 10
1705.085430374525
 20
1534.253839357067
 30
0.0
 11
1734.828777544523
 21
1530.338067877068
 31
0.0
  0
LINE
  5
C21
330
1F
100
AcDbEntity
  8
MASSE
  6
AUSGEZOGEN
 62
     1
100
AcDbLine
 10
1705.085430374525
 20
1534.253839357067
 30
0.0
 11
1734.828777544523
 21
1538.169610847066
 31
0.0
  0
LINE
  5
C22
330
1F
100
AcDbEntity
  8
MASSE
  6
AUSGEZOGEN
 62
     1
100
AcDbLine
 10
1705.085430374525
 20
1534.253839357067
 30
0.0
 11
2092.085491414527
 21
1534.253839357067
 31
0.0
  0
LINE
  5
C23
330
1F
100
AcDbEntity
  8
MASSE
  6
AUSGEZOGEN
 62
     1
100
AcDbLine
 10
2092.085491414527
 20
1607.825494627066
 30
0.0
 11
2092.085491414527
 21
1511.708795417069
 31
0.0
  0
LINE
  5
C24
330
1F
100
AcDbEntity
  8
MASSE
  6
AUSGEZOGEN
 62
     1
100
AcDbLine
 10
1705.085430374525
 20
1607.825494627066
 30
0.0
 11
1705.085430374525
 21
1511.708795417069
 31
0.0
  0
LINE
  5
C25
330
1F
100
AcDbEntity
  8
MITTE
  6
MITTE
 62
     1
100
AcDbLine
 10
1886.585430374524
 20
2008.137140137068
 30
0.0
 11
1886.585430374524
 21
2022.665704597067
 31
0.0
  0
LINE
  5
C26
330
1F
100
AcDbEntity
  8
MITTE
  6
MITTE
 62
     1
100
AcDbLine
 10
1879.135723344526
 20
2016.325616697067
 30
0.0
 11
1893.900615924524
 21
2016.325616697067
 31
0.0
  0
LINE
  5
C27
330
1F
100
AcDbEntity
  8
MITTE
  6
MITTE
 62
     1
100
AcDbLine
 10
1791.135723344526
 20
1851.325494627067
 30
0.0
 11
1805.900615924524
 21
1851.325494627067
 31
0.0
  0
LINE
  5
C28
330
1F
100
AcDbEntity
  8
MITTE
  6
MITTE
 62
     1
100
AcDbLine
 10
1973.906841514526
 20
1918.325616697067
 30
0.0
 11
2007.103008504524
 21
1918.325616697067
 31
0.0
  0
LINE
  5
C29
330
1F
100
AcDbEntity
  8
MITTE
  6
MITTE
 62
     1
100
AcDbLine
 10
1978.585918664527
 20
1889.122491697067
 30
0.0
 11
1978.585918664527
 21
1946.052667487068
 31
0.0
  0
ARC
  5
C2A
330
1F
100
AcDbEntity
  8
LOGO2
  6
AUSGEZOGEN
 62
     1
100
AcDbCircle
 10
1859.629741904525
 20
1708.330743657066
 30
0.0
 40
4.779624939999999
100
AcDbArc
 50
77.72080230988613
 51
282.2791748001312
  0
TEXT
  5
C2B
330
1F
100
AcDbEntity
  8
LOGO2
  6
AUSGEZOGEN
 62
     1
100
AcDbText
 10
1878.011821984527
 20
1701.978082517069
 30
0.0
 40
10.0
  1
pa
 41
0.57244445
100
AcDbText
  0
LINE
  5
C2C
330
1F
100
AcDbEntity
  8
LOGO2
  6
AUSGEZOGEN
 62
     1
100
AcDbLine
 10
1839.962993854525
 20
1701.862848147068
 30
0.0
 11
1844.277446984527
 21
1714.798639167069
 31
0.0
  0
LINE
  5
C2D
330
1F
100
AcDbEntity
  8
LOGO2
  6
AUSGEZOGEN
 62
     1
100
AcDbLine
 10
1847.204448934524
 20
1714.798395017069
 30
0.0
 11
1851.328960654525
 21
1701.862604007068
 31
0.0
  0
ARC
  5
C2E
330
1F
100
AcDbEntity
  8
LOGO2
  6
AUSGEZOGEN
 62
     1
100
AcDbCircle
 10
1858.338237994528
 20
1708.330743657066
 30
0.0
 40
6.467885019999999
100
AcDbArc
 50
62.48622131011141
 51
297.5137634298918
  0
LINE
  5
C2F
330
1F
100
AcDbEntity
  8
LOGO2
  6
AUSGEZOGEN
 62
     1
100
AcDbLine
 10
1861.326275104525
 20
1714.066949707068
 30
0.0
 11
1860.640728234527
 21
1712.992486817066
 31
0.0
  0
LINE
  5
C30
330
1F
100
AcDbEntity
  8
LOGO2
  6
AUSGEZOGEN
 62
     1
100
AcDbLine
 10
1861.326275104525
 20
1702.594293457068
 30
0.0
 11
1860.640728234527
 21
1703.668878417067
 31
0.0
  0
POLYLINE
  5
C31
330
1F
100
AcDbEntity
  8
LOGO2
  6
AUSGEZOGEN
 62
     1
100
AcDb2dPolyline
 66
     1
 10
0.0
 20
0.0
 30
0.0
  0
VERTEX
  5
C32
330
C31
100
AcDbEntity
  8
LOGO2
  6
AUSGEZOGEN
 62
     1
100
AcDbVertex
100
AcDb2dVertex
 10
1865.117962114523
 20
1707.728570807068
 30
0.0
 42
0.08016691
 70
     2
 50
270.0
  0
VERTEX
  5
C33
330
C31
100
AcDbEntity
  8
LOGO2
  6
AUSGEZOGEN
 62
     1
100
AcDbVertex
100
AcDb2dVertex
 10
1865.362652054525
 20
1706.190973147068
 30
0.0
 42
0.08892266
 70
     2
 50
292.5
  0
VERTEX
  5
C34
330
C31
100
AcDbEntity
  8
LOGO2
  6
AUSGEZOGEN
 62
     1
100
AcDbVertex
100
AcDb2dVertex
 10
1866.059429404525
 20
1704.887384277068
 30
0.0
 42
0.10495675
 70
     2
 50
315.0
  0
VERTEX
  5
C35
330
C31
100
AcDbEntity
  8
LOGO2
  6
AUSGEZOGEN
 62
     1
100
AcDbVertex
100
AcDb2dVertex
 10
1867.102276084525
 20
1704.016412597067
 30
0.0
 42
0.12001122
 70
     2
 50
337.5
  0
VERTEX
  5
C36
330
C31
100
AcDbEntity
  8
LOGO2
  6
AUSGEZOGEN
 62
     1
100
AcDbVertex
100
AcDb2dVertex
 10
1868.332378624526
 20
1703.710504397067
 30
0.0
 42
0.12001122
 70
     2
  0
VERTEX
  5
C37
330
C31
100
AcDbEntity
  8
LOGO2
  6
AUSGEZOGEN
 62
     1
100
AcDbVertex
100
AcDb2dVertex
 10
1869.562481164527
 20
1704.016412597067
 30
0.0
 42
0.10495682
 70
     2
 50
22.5
  0
VERTEX
  5
C38
330
C31
100
AcDbEntity
  8
LOGO2
  6
AUSGEZOGEN
 62
     1
100
AcDbVertex
100
AcDb2dVertex
 10
1870.605327834523
 20
1704.887384277068
 30
0.0
 42
0.08892266
 70
     2
 50
45.00003051999999
  0
VERTEX
  5
C39
330
C31
100
AcDbEntity
  8
LOGO2
  6
AUSGEZOGEN
 62
     1
100
AcDbVertex
100
AcDb2dVertex
 10
1871.302105184523
 20
1706.190973147068
 30
0.0
 42
0.08016685
 70
     2
 50
67.5
  0
VERTEX
  5
C3A
330
C31
100
AcDbEntity
  8
LOGO2
  6
AUSGEZOGEN
 62
     1
100
AcDbVertex
100
AcDb2dVertex
 10
1871.546795124525
 20
1707.728570807068
 30
0.0
 50
67.5
  0
SEQEND
  5
C3B
330
C31
100
AcDbEntity
  8
LOGO2
 62
     1
  0
POLYLINE
  5
C3C
330
1F
100
AcDbEntity
  8
LOGO2
  6
AUSGEZOGEN
 62
     1
100
AcDb2dPolyline
 66
     1
 10
0.0
 20
0.0
 30
0.0
  0
VERTEX
  5
C3D
330
C3C
100
AcDbEntity
  8
LOGO2
  6
AUSGEZOGEN
 62
     1
100
AcDbVertex
100
AcDb2dVertex
 10
1871.546795124525
 20
1708.932916507069
 30
0.0
 42
0.08016685
 70
     2
 50
90.0
  0
VERTEX
  5
C3E
330
C3C
100
AcDbEntity
  8
LOGO2
  6
AUSGEZOGEN
 62
     1
100
AcDbVertex
100
AcDb2dVertex
 10
1871.302105184523
 20
1710.470514167069
 30
0.0
 42
0.0889228
 70
     2
 50
112.5
  0
VERTEX
  5
C3F
330
C3C
100
AcDbEntity
  8
LOGO2
  6
AUSGEZOGEN
 62
     1
100
AcDbVertex
100
AcDb2dVertex
 10
1870.605327834523
 20
1711.774103027068
 30
0.0
 42
0.10495669
 70
     2
 50
135.00003052
  0
VERTEX
  5
C40
330
C3C
100
AcDbEntity
  8
LOGO2
  6
AUSGEZOGEN
 62
     1
100
AcDbVertex
100
AcDb2dVertex
 10
1869.562481164527
 20
1712.645074707068
 30
0.0
 42
0.12001122
 70
     2
 50
157.5
  0
VERTEX
  5
C41
330
C3C
100
AcDbEntity
  8
LOGO2
  6
AUSGEZOGEN
 62
     1
100
AcDbVertex
100
AcDb2dVertex
 10
1868.332378624526
 20
1712.950982917069
 30
0.0
 42
0.12001122
 70
     2
 50
180.0
  0
VERTEX
  5
C42
330
C3C
100
AcDbEntity
  8
LOGO2
  6
AUSGEZOGEN
 62
     1
100
AcDbVertex
100
AcDb2dVertex
 10
1867.102276084525
 20
1712.645074707068
 30
0.0
 42
0.10495672
 70
     2
 50
202.5
  0
VERTEX
  5
C43
330
C3C
100
AcDbEntity
  8
LOGO2
  6
AUSGEZOGEN
 62
     1
100
AcDbVertex
100
AcDb2dVertex
 10
1866.059429404525
 20
1711.774103027068
 30
0.0
 42
0.08892269
 70
     2
 50
225.0
  0
VERTEX
  5
C44
330
C3C
100
AcDbEntity
  8
LOGO2
  6
AUSGEZOGEN
 62
     1
100
AcDbVertex
100
AcDb2dVertex
 10
1865.362652054525
 20
1710.470514167069
 30
0.0
 42
0.08016688
 70
     2
 50
247.5
  0
VERTEX
  5
C45
330
C3C
100
AcDbEntity
  8
LOGO2
  6
AUSGEZOGEN
 62
     1
100
AcDbVertex
100
AcDb2dVertex
 10
1865.117962114523
 20
1708.932916507069
 30
0.0
 50
247.5
  0
SEQEND
  5
C46
330
C3C
100
AcDbEntity
  8
LOGO2
 62
     1
  0
LINE
  5
C47
330
1F
100
AcDbEntity
  8
LOGO2
  6
AUSGEZOGEN
 62
     1
100
AcDbLine
 10
1865.118023154525
 20
1708.932916507069
 30
0.0
 11
1865.118023154525
 21
1707.728570807068
 31
0.0
  0
LINE
  5
C48
330
1F
100
AcDbEntity
  8
LOGO2
  6
AUSGEZOGEN
 62
     1
100
AcDbLine
 10
1871.546978234527
 20
1708.932916507069
 30
0.0
 11
1871.546978234527
 21
1707.728570807068
 31
0.0
  0
CIRCLE
  5
C49
330
1F
100
AcDbEntity
  8
LOGO2
  6
AUSGEZOGEN
 62
     1
100
AcDbCircle
 10
1868.332378624526
 20
1708.330743657066
 30
0.0
 40
6.46788406
  0
LINE
  5
C4A
330
1F
100
AcDbEntity
  8
LOGO2
  6
AUSGEZOGEN
 62
     1
100
AcDbLine
 10
1842.824321984527
 20
1705.700860847066
 30
0.0
 11
1845.339214554525
 21
1713.241021977066
 31
0.0
  0
LINE
  5
C4B
330
1F
100
AcDbEntity
  8
LOGO2
  6
AUSGEZOGEN
 62
     1
100
AcDbLine
 10
1845.339214554525
 20
1713.241266117069
 30
0.0
 11
1847.743511434524
 21
1705.700982917069
 31
0.0
  0
LINE
  5
C4C
330
1F
100
AcDbEntity
  8
LOGO2
  6
AUSGEZOGEN
 62
     1
100
AcDbLine
 10
1842.824321984527
 20
1705.700860847066
 30
0.0
 11
1847.743511434524
 21
1705.700860847066
 31
0.0
  0
LINE
  5
C4D
330
1F
100
AcDbEntity
  8
LOGO2
  6
AUSGEZOGEN
 62
     1
100
AcDbLine
 10
1842.324077834523
 20
1704.200860847066
 30
0.0
 11
1848.221782914525
 21
1704.200860847066
 31
0.0
  0
LINE
  5
C4E
330
1F
100
AcDbEntity
  8
LOGO2
  6
AUSGEZOGEN
 62
     1
100
AcDbLine
 10
1848.221782914525
 20
1704.200860847066
 30
0.0
 11
1848.967144244528
 21
1701.862848147068
 31
0.0
  0
LINE
  5
C4F
330
1F
100
AcDbEntity
  8
LOGO2
  6
AUSGEZOGEN
 62
     1
100
AcDbLine
 10
1841.544292684523
 20
1701.862848147068
 30
0.0
 11
1842.324077834523
 21
1704.200860847066
 31
0.0
  0
LINE
  5
C50
330
1F
100
AcDbEntity
  8
LOGO2
  6
AUSGEZOGEN
 62
     1
100
AcDbLine
 10
1844.277446984527
 20
1714.798639167069
 30
0.0
 11
1847.204204794524
 21
1714.798639167069
 31
0.0
  0
LINE
  5
C51
330
1F
100
AcDbEntity
  8
LOGO2
  6
AUSGEZOGEN
 62
     1
100
AcDbLine
 10
1839.962993854525
 20
1701.862848147068
 30
0.0
 11
1841.544292684523
 21
1701.862848147068
 31
0.0
  0
LINE
  5
C52
330
1F
100
AcDbEntity
  8
LOGO2
  6
AUSGEZOGEN
 62
     1
100
AcDbLine
 10
1851.328960654525
 20
1701.862848147068
 30
0.0
 11
1848.967388384527
 21
1701.862848147068
 31
0.0
  0
LINE
  5
C53
330
1F
100
AcDbEntity
  8
LOGO2
  6
AUSGEZOGEN
 62
     1
100
AcDbLine
 10
1834.073589554525
 20
1706.605157717067
 30
0.0
 11
1838.191509484527
 21
1706.605157717067
 31
0.0
  0
LINE
  5
C54
330
1F
100
AcDbEntity
  8
LOGO2
  6
AUSGEZOGEN
 62
     1
100
AcDbLine
 10
1838.191509484527
 20
1706.605157717067
 30
0.0
 11
1838.191509484527
 21
1719.201227057068
 31
0.0
  0
LINE
  5
C55
330
1F
100
AcDbEntity
  8
LOGO2
  6
AUSGEZOGEN
 62
     1
100
AcDbLine
 10
1838.191509484527
 20
1719.201227057068
 30
0.0
 11
1834.073589554525
 21
1719.201227057068
 31
0.0
  0
LINE
  5
C56
330
1F
100
AcDbEntity
  8
LOGO2
  6
AUSGEZOGEN
 62
     1
100
AcDbLine
 10
1834.073589554525
 20
1719.201227057068
 30
0.0
 11
1834.073589554525
 21
1706.605035647068
 31
0.0
  0
LINE
  5
C57
330
1F
100
AcDbEntity
  8
LOGO2
  6
AUSGEZOGEN
 62
     1
100
AcDbLine
 10
1827.390484084523
 20
1706.605157717067
 30
0.0
 11
1831.508404014526
 21
1706.605157717067
 31
0.0
  0
LINE
  5
C58
330
1F
100
AcDbEntity
  8
LOGO2
  6
AUSGEZOGEN
 62
     1
100
AcDbLine
 10
1831.508404014526
 20
1706.605157717067
 30
0.0
 11
1831.508404014526
 21
1719.201227057068
 31
0.0
  0
LINE
  5
C59
330
1F
100
AcDbEntity
  8
LOGO2
  6
AUSGEZOGEN
 62
     1
100
AcDbLine
 10
1831.508404014526
 20
1719.201227057068
 30
0.0
 11
1827.390484084523
 21
1719.201227057068
 31
0.0
  0
LINE
  5
C5A
330
1F
100
AcDbEntity
  8
LOGO2
  6
AUSGEZOGEN
 62
     1
100
AcDbLine
 10
1827.390484084523
 20
1719.201227057068
 30
0.0
 11
1827.390484084523
 21
1706.605035647068
 31
0.0
  0
LINE
  5
C5B
330
1F
100
AcDbEntity
  8
LOGO2
  6
AUSGEZOGEN
 62
     1
100
AcDbLine
 10
1820.707134484527
 20
1706.605157717067
 30
0.0
 11
1824.825054404525
 21
1706.605157717067
 31
0.0
  0
LINE
  5
C5C
330
1F
100
AcDbEntity
  8
LOGO2
  6
AUSGEZOGEN
 62
     1
100
AcDbLine
 10
1824.825054404525
 20
1706.605157717067
 30
0.0
 11
1824.825054404525
 21
1719.201227057068
 31
0.0
  0
LINE
  5
C5D
330
1F
100
AcDbEntity
  8
LOGO2
  6
AUSGEZOGEN
 62
     1
100
AcDbLine
 10
1824.825054404525
 20
1719.201227057068
 30
0.0
 11
1820.707134484527
 21
1719.201227057068
 31
0.0
  0
LINE
  5
C5E
330
1F
100
AcDbEntity
  8
LOGO2
  6
AUSGEZOGEN
 62
     1
100
AcDbLine
 10
1820.707134484527
 20
1719.201227057068
 30
0.0
 11
1820.707134484527
 21
1706.605035647068
 31
0.0
  0
TEXT
  5
C5F
330
1F
100
AcDbEntity
  8
LOGO2
  6
AUSGEZOGEN
 62
     1
100
AcDbText
 10
1839.296245804525
 20
1693.381891117069
 30
0.0
 40
5.0
  1
Gebaeudeentwae
 41
0.7155591300000001
  7
COMPLEX
100
AcDbText
  0
LINE
  5
C60
330
1F
100
AcDbEntity
  8
PUMPE
  6
AUSGEZOGEN
 62
     1
100
AcDbLine
 10
1989.066631554527
 20
1706.759576667069
 30
0.0
 11
1989.066631554527
 21
1715.759576667069
 31
0.0
  0
LINE
  5
C61
330
1F
100
AcDbEntity
  8
PUMPE
  6
AUSGEZOGEN
 62
     1
100
AcDbLine
 10
2023.066631554527
 20
1706.759576667069
 30
0.0
 11
2023.066631554527
 21
1715.759576667069
 31
0.0
  0
LINE
  5
C62
330
1F
100
AcDbEntity
  8
PUMPE
  6
AUSGEZOGEN
 62
     1
100
AcDbLine
 10
2023.066631554527
 20
1706.759576667069
 30
0.0
 11
1989.066631554527
 21
1706.759576667069
 31
0.0
  0
LINE
  5
C63
330
1F
100
AcDbEntity
  8
PUMPE
  6
AUSGEZOGEN
 62
     1
100
AcDbLine
 10
1989.066631554527
 20
1715.759576667069
 30
0.0
 11
2023.066631554527
 21
1715.759576667069
 31
0.0
  0
LINE
  5
C64
330
1F
100
AcDbEntity
  8
PUMPE
  6
AUSGEZOGEN
 62
     1
100
AcDbLine
 10
2035.885540244525
 20
1897.925470217066
 30
0.0
 11
2035.885540244525
 21
1906.925470217066
 31
0.0
  0
LINE
  5
C65
330
1F
100
AcDbEntity
  8
PUMPE
  6
AUSGEZOGEN
 62
     1
100
AcDbLine
 10
2001.885479204527
 20
1906.925470217066
 30
0.0
 11
2035.885540244525
 21
1906.925470217066
 31
0.0
  0
LINE
  5
C66
330
1F
100
AcDbEntity
  8
PUMPE
  6
AUSGEZOGEN
 62
     1
100
AcDbLine
 10
2035.885540244525
 20
1897.925470217066
 30
0.0
 11
2001.885479204527
 21
1897.925470217066
 31
0.0
  0
LINE
  5
C67
330
1F
100
AcDbEntity
  8
PUMPE
  6
AUSGEZOGEN
 62
     1
100
AcDbLine
 10
2001.885479204527
 20
1897.925470217066
 30
0.0
 11
2001.885479204527
 21
1906.925470217066
 31
0.0
  0
LINE
  5
C68
330
1F
100
AcDbEntity
  8
DIN84
  6
AUSGEZOGEN
 62
     1
100
AcDbLine
 10
2004.066875694526
 20
1708.734674317065
 30
0.0
 11
2001.062237014524
 21
1708.734674317065
 31
0.0
  0
LINE
  5
C69
330
1F
100
AcDbEntity
  8
DIN84
  6
AUSGEZOGEN
 62
     1
100
AcDbLine
 10
2001.062237014524
 20
1713.734674317066
 30
0.0
 11
2004.066631554527
 21
1713.734674317066
 31
0.0
  0
LINE
  5
C6A
330
1F
100
AcDbEntity
  8
DIN84
  6
AUSGEZOGEN
 62
     1
100
AcDbLine
 10
2004.066875694526
 20
1713.243707517069
 30
0.0
 11
2001.062237014524
 21
1713.243707517069
 31
0.0
  0
LINE
  5
C6B
330
1F
100
AcDbEntity
  8
DIN84
  6
AUSGEZOGEN
 62
     1
100
AcDbLine
 10
2004.066875694526
 20
1709.225396977066
 30
0.0
 11
2001.062237014524
 21
1709.225396977066
 31
0.0
  0
LINE
  5
C6C
330
1F
100
AcDbEntity
  8
DIN84
  6
AUSGEZOGEN
 62
     1
100
AcDbLine
 10
2001.062237014524
 20
1708.734674317065
 30
0.0
 11
2001.062237014524
 21
1713.734674317066
 31
0.0
  0
LINE
  5
C6D
330
1F
100
AcDbEntity
  8
DIN84
  6
AUSGEZOGEN
 62
     1
100
AcDbLine
 10
2011.184063194526
 20
1707.257379397068
 30
0.0
 11
2008.066631554527
 21
1706.984430177066
 31
0.0
  0
LINE
  5
C6E
330
1F
100
AcDbEntity
  8
DIN84
  6
AUSGEZOGEN
 62
     1
100
AcDbLine
 10
2011.366680374525
 20
1710.634576667069
 30
0.0
 11
2011.366680374525
 21
1707.456598147067
 31
0.0
  0
ARC
  5
C6F
330
1F
100
AcDbEntity
  8
DIN84
  6
AUSGEZOGEN
 62
     1
100
AcDbCircle
 10
2011.166729204527
 20
1707.456598147067
 30
0.0
 40
0.20001224
100
AcDbArc
 50
275.0076293899299
 51
0.0
  0
LINE
  5
C70
330
1F
100
AcDbEntity
  8
DIN84
  6
AUSGEZOGEN
 62
     1
100
AcDbLine
 10
2011.366680374525
 20
1715.012506347068
 30
0.0
 11
2011.366680374525
 21
1711.834527837067
 31
0.0
  0
LINE
  5
C71
330
1F
100
AcDbEntity
  8
DIN84
  6
AUSGEZOGEN
 62
     1
100
AcDbLine
 10
2008.066631554527
 20
1715.484674317065
 30
0.0
 11
2011.184063194526
 21
1715.211725097068
 31
0.0
  0
ARC
  5
C72
330
1F
100
AcDbEntity
  8
DIN84
  6
AUSGEZOGEN
 62
     1
100
AcDbCircle
 10
2011.166729204527
 20
1715.012506347068
 30
0.0
 40
0.19997677
100
AcDbArc
 50
0.0
 51
85.00982666000563
  0
LINE
  5
C73
330
1F
100
AcDbEntity
  8
DIN84
  6
AUSGEZOGEN
 62
     1
100
AcDbLine
 10
2009.566631554527
 20
1710.634576667069
 30
0.0
 11
2011.366680374525
 21
1710.634576667069
 31
0.0
  0
LINE
  5
C74
330
1F
100
AcDbEntity
  8
DIN84
  6
AUSGEZOGEN
 62
     1
100
AcDbLine
 10
2009.566631554527
 20
1711.834527837067
 30
0.0
 11
2009.566631554527
 21
1710.634576667069
 31
0.0
  0
LINE
  5
C75
330
1F
100
AcDbEntity
  8
DIN84
  6
AUSGEZOGEN
 62
     1
100
AcDbLine
 10
2011.366680374525
 20
1711.834527837067
 30
0.0
 11
2009.566631554527
 21
1711.834527837067
 31
0.0
  0
LINE
  5
C76
330
1F
100
AcDbEntity
  8
DIN84
  6
AUSGEZOGEN
 62
     1
100
AcDbLine
 10
2016.885479204526
 20
1899.900567877067
 30
0.0
 11
2013.880962604525
 21
1899.900567877067
 31
0.0
  0
LINE
  5
C77
330
1F
100
AcDbEntity
  8
DIN84
  6
AUSGEZOGEN
 62
     1
100
AcDbLine
 10
2013.880962604525
 20
1904.900567877067
 30
0.0
 11
2016.885479204526
 21
1904.900567877067
 31
0.0
  0
LINE
  5
C78
330
1F
100
AcDbEntity
  8
DIN84
  6
AUSGEZOGEN
 62
     1
100
AcDbLine
 10
2016.885601274526
 20
1904.409356937068
 30
0.0
 11
2013.881084674525
 21
1904.409356937068
 31
0.0
  0
LINE
  5
C79
330
1F
100
AcDbEntity
  8
DIN84
  6
AUSGEZOGEN
 62
     1
100
AcDbLine
 10
2016.885479204526
 20
1900.391290527067
 30
0.0
 11
2013.880962604525
 21
1900.391290527067
 31
0.0
  0
LINE
  5
C7A
330
1F
100
AcDbEntity
  8
DIN84
  6
AUSGEZOGEN
 62
     1
100
AcDbLine
 10
2013.880840534525
 20
1899.900567877067
 30
0.0
 11
2013.880840534525
 21
1904.900567877067
 31
0.0
  0
LINE
  5
C7B
330
1F
100
AcDbEntity
  8
DIN84
  6
AUSGEZOGEN
 62
     1
100
AcDbLine
 10
2024.002788774526
 20
1898.423272947067
 30
0.0
 11
2020.885357134527
 21
1898.150079597067
 31
0.0
  0
LINE
  5
C7C
330
1F
100
AcDbEntity
  8
DIN84
  6
AUSGEZOGEN
 62
     1
100
AcDbLine
 10
2024.185405964526
 20
1901.800470217066
 30
0.0
 11
2024.185405964526
 21
1898.622491697067
 31
0.0
  0
ARC
  5
C7D
330
1F
100
AcDbEntity
  8
DIN84
  6
AUSGEZOGEN
 62
     1
100
AcDbCircle
 10
2023.985454794524
 20
1898.622491697067
 30
0.0
 40
0.20001234
100
AcDbArc
 50
275.0076293899299
 51
0.0
  0
LINE
  5
C7E
330
1F
100
AcDbEntity
  8
DIN84
  6
AUSGEZOGEN
 62
     1
100
AcDbLine
 10
2024.185405964526
 20
1906.178399907068
 30
0.0
 11
2024.185405964526
 21
1903.000421387068
 31
0.0
  0
LINE
  5
C7F
330
1F
100
AcDbEntity
  8
DIN84
  6
AUSGEZOGEN
 62
     1
100
AcDbLine
 10
2020.885479204527
 20
1906.650567877067
 30
0.0
 11
2024.002788774526
 21
1906.377618657067
 31
0.0
  0
ARC
  5
C80
330
1F
100
AcDbEntity
  8
DIN84
  6
AUSGEZOGEN
 62
     1
100
AcDbCircle
 10
2023.985454794524
 20
1906.178399907068
 30
0.0
 40
0.19997688
100
AcDbArc
 50
0.00001366037834
 51
85.00981139994902
  0
LINE
  5
C81
330
1F
100
AcDbEntity
  8
DIN84
  6
AUSGEZOGEN
 62
     1
100
AcDbLine
 10
2022.385357134527
 20
1901.800470217066
 30
0.0
 11
2024.185405964526
 21
1901.800470217066
 31
0.0
  0
LINE
  5
C82
330
1F
100
AcDbEntity
  8
DIN84
  6
AUSGEZOGEN
 62
     1
100
AcDbLine
 10
2022.385357134527
 20
1903.000421387068
 30
0.0
 11
2022.385357134527
 21
1901.800470217066
 31
0.0
  0
LINE
  5
C83
330
1F
100
AcDbEntity
  8
DIN84
  6
AUSGEZOGEN
 62
     1
100
AcDbLine
 10
2024.185405964526
 20
1903.000421387068
 30
0.0
 11
2022.385479204527
 21
1903.000421387068
 31
0.0
  0
LINE
  5
C84
330
1F
100
AcDbEntity
  8
ANSCHLUS
  6
AUSGEZOGEN
 62
     1
100
AcDbLine
 10
1693.755230184524
 20
1909.085626467066
 30
0.0
 11
1689.021465534525
 21
1909.085626467066
 31
0.0
  0
LINE
  5
C85
330
1F
100
AcDbEntity
  8
ANSCHLUS
  6
GESTRICHELT
 62
     1
100
AcDbLine
 10
1693.755230184524
 20
1913.705743657067
 30
0.0
 11
1694.295391314527
 21
1913.705743657067
 31
0.0
  0
LINE
  5
C86
330
1F
100
AcDbEntity
  8
ANSCHLUS
  6
GESTRICHELT
 62
     1
100
AcDbLine
 10
1693.755230184524
 20
1922.945978027067
 30
0.0
 11
1694.295391314527
 21
1922.945978027067
 31
0.0
  0
LINE
  5
C87
330
1F
100
AcDbEntity
  8
ANSCHLUS
  6
GESTRICHELT
 62
     1
100
AcDbLine
 10
1693.755230184524
 20
1927.566095217066
 30
0.0
 11
1694.154278034525
 21
1927.566095217066
 31
0.0
  0
LINE
  5
C88
330
1F
100
AcDbEntity
  8
ANSCHLUS
  6
AUSGEZOGEN
 62
     1
100
AcDbLine
 10
1686.089824914527
 20
1913.325860847067
 30
0.0
 11
1686.089824914527
 21
1923.325616697067
 31
0.0
  0
LINE
  5
C89
330
1F
100
AcDbEntity
  8
ANSCHLUS
  6
AUSGEZOGEN
 62
     1
100
AcDbLine
 10
1688.087871784525
 20
1913.325860847067
 30
0.0
 11
1686.089824914527
 21
1913.325860847067
 31
0.0
  0
LINE
  5
C8A
330
1F
100
AcDbEntity
  8
ANSCHLUS
  6
AUSGEZOGEN
 62
     1
100
AcDbLine
 10
1688.087871784525
 20
1923.325860847067
 30
0.0
 11
1686.089824914527
 21
1923.325616697067
 31
0.0
  0
LINE
  5
C8B
330
1F
100
AcDbEntity
  8
ANSCHLUS
  6
AUSGEZOGEN
 62
     1
100
AcDbLine
 10
1688.087871784525
 20
1911.477228027067
 30
0.0
 11
1688.087871784525
 21
1925.174249517066
 31
0.0
  0
ARC
  5
C8C
330
1F
100
AcDbEntity
  8
ANSCHLUS
  6
AUSGEZOGEN
 62
     1
100
AcDbCircle
 10
1691.617168664527
 20
1911.477228027067
 30
0.0
 40
3.529366969999999
100
AcDbArc
 50
140.8449554399816
 51
222.6565704301476
  0
ARC
  5
C8D
330
1F
100
AcDbEntity
  8
ANSCHLUS
  6
GESTRICHELT
 62
     1
100
AcDbCircle
 10
1691.558574914527
 20
1911.477228027067
 30
0.0
 40
3.529366969999999
100
AcDbArc
 50
317.3434448199332
 51
39.15509033003927
  0
ARC
  5
C8E
330
1F
100
AcDbEntity
  8
ANSCHLUS
  6
AUSGEZOGEN
 62
     1
100
AcDbCircle
 10
1701.947735064527
 20
1918.325860847067
 30
0.0
 40
13.86007595
100
AcDbArc
 50
160.5291747999933
 51
199.4716186500661
  0
ARC
  5
C8F
330
1F
100
AcDbEntity
  8
ANSCHLUS
  6
GESTRICHELT
 62
     1
100
AcDbCircle
 10
1681.228496784525
 20
1918.325860847067
 30
0.0
 40
13.86007595
100
AcDbArc
 50
340.5283203100463
 51
19.4708252000067
  0
ARC
  5
C90
330
1F
100
AcDbEntity
  8
ANSCHLUS
  6
AUSGEZOGEN
 62
     1
100
AcDbCircle
 10
1691.617656944526
 20
1925.174493657068
 30
0.0
 40
3.529745339999999
100
AcDbArc
 50
137.3488464400044
 51
219.1500549299699
  0
ARC
  5
C91
330
1F
100
AcDbEntity
  8
ANSCHLUS
  6
GESTRICHELT
 62
     1
100
AcDbCircle
 10
1691.558086624525
 20
1925.174493657068
 30
0.0
 40
3.529745339999999
100
AcDbArc
 50
320.8499145501013
 51
42.65115355999557
  0
LINE
  5
C92
330
1F
100
AcDbEntity
  8
ANSCHLUS
  6
AUSGEZOGEN
 62
     1
100
AcDbLine
 10
1689.021465534525
 20
1927.566095217066
 30
0.0
 11
1693.755230184524
 21
1927.566095217066
 31
0.0
  0
LINE
  5
C93
330
1F
100
AcDbEntity
  8
ANSCHLUS
  6
GESTRICHELT
 62
     1
100
AcDbLine
 10
1694.154278034525
 20
1909.085626467066
 30
0.0
 11
1693.755230184524
 21
1909.085626467066
 31
0.0
  0
LINE
  5
C94
330
1F
100
AcDbEntity
  8
ANSCHLUS
  6
AUSGEZOGEN
 62
     1
100
AcDbLine
 10
1688.880352254523
 20
1913.705743657067
 30
0.0
 11
1693.755230184524
 21
1913.705743657067
 31
0.0
  0
LINE
  5
C95
330
1F
100
AcDbEntity
  8
ANSCHLUS
  6
AUSGEZOGEN
 62
     1
100
AcDbLine
 10
1688.880352254523
 20
1922.945978027067
 30
0.0
 11
1693.755230184524
 21
1922.945978027067
 31
0.0
  0
ENDSEC
  0
SECTION
  2
OBJECTS
  0
DICTIONARY
  5
C
330
0
100
AcDbDictionary
281
     1
  3
ACAD_COLOR
350
D7
  3
ACAD_GROUP
350
D
  3
ACAD_LAYOUT
350
1A
  3
ACAD_MATERIAL
350
D6
  3
ACAD_MLINESTYLE
350
17
  3
ACAD_PLOTSETTINGS
350
19
  3
ACAD_PLOTSTYLENAME
350
E
  3
ACAD_TABLESTYLE
350
133
  3
ACDBHEADERROUNDTRIPXREC
350
C9A
  3
AcDbVariableDictionary
350
34
  3
AcmDictionary
350
49
  3
AMG
350
2B
  3
AMGSNAPSETTINGS
350
2C4
  3
DWGPROPS
350
C99
  0
DICTIONARY
  5
C0
330
2
100
AcDbDictionary
280
     1
281
     1
  3
ACAD_LAYERSTATES
360
327
  3
AMLAYER_GROUPCOLORS
360
C1
  0
DICTIONARY
  5
83
330
1F
100
AcDbDictionary
280
     1
281
     1
  0
DICTIONARY
  5
D7
102
{ACAD_REACTORS
330
C
102
}
330
C
100
AcDbDictionary
281
     1
  0
DICTIONARY
  5
D
102
{ACAD_REACTORS
330
C
102
}
330
C
100
AcDbDictionary
281
     1
  0
DICTIONARY
  5
1A
102
{ACAD_REACTORS
330
C
102
}
330
C
100
AcDbDictionary
281
     1
  3
Layout1
350
1E
  3
Layout2
350
26
  3
Model
350
22
  0
DICTIONARY
  5
D6
102
{ACAD_REACTORS
330
C
102
}
330
C
100
AcDbDictionary
281
     1
  0
DICTIONARY
  5
17
102
{ACAD_REACTORS
330
C
102
}
330
C
100
AcDbDictionary
281
     1
  3
Standard
350
18
  0
DICTIONARY
  5
19
102
{ACAD_REACTORS
330
C
102
}
330
C
100
AcDbDictionary
281
     1
  0
ACDBDICTIONARYWDFLT
  5
E
102
{ACAD_REACTORS
330
C
102
}
330
C
100
AcDbDictionary
281
     1
  3
Normal
350
F
100
AcDbDictionaryWithDefault
340
F
  0
DICTIONARY
  5
133
102
{ACAD_REACTORS
330
C
102
}
330
C
100
AcDbDictionary
281
     1
  3
Standard
350
134
  0
DICTIONARY
  5
C9A
102
{ACAD_REACTORS
330
C
102
}
330
C
100
AcDbDictionary
281
     1
  0
DICTIONARY
  5
34
102
{ACAD_REACTORS
330
C
102
}
330
C
100
AcDbDictionary
281
     1
  3
CTABLESTYLE
350
152
  3
DIMASSOC
350
AD
  3
INDEXCTL
350
35
  3
PROJECTNAME
350
C97
  0
DICTIONARY
  5
49
102
{ACAD_REACTORS
330
C
102
}
330
C
100
AcDbDictionary
281
     1
  3
AcmBOM
350
2CB
  3
AcmStdDictionary
350
4A
  3
AMDTSECTSYM_ARROWCOLOR
350
13D
  0
DICTIONARY
  5
2B
102
{ACAD_REACTORS
330
C
102
}
330
C
100
AcDbDictionary
281
     1
  0
DICTIONARY
  5
2C4
102
{ACAD_REACTORS
330
C
102
}
330
C
100
AcDbDictionary
281
     1
  0
XRECORD
  5
C99
102
{ACAD_REACTORS
330
C
102
}
330
C
100
AcDbXrecord
280
     1
  1
DWGPROPS COOKIE
  2

  3

  4

  6

  7

  8

  9

300
AmdtFileType=84
301
=
302
=
303
=
304
=
305
=
306
=
307
=
308
=
309
=
 40
0.0002325694444444
 41
2454055.601813507
 42
2454055.602045891
  1

 90
        1
  0
DICTIONARY
  5
327
102
{ACAD_REACTORS
330
C0
102
}
330
C0
100
AcDbDictionary
281
     1
  0
DICTIONARY
  5
C1
102
{ACAD_REACTORS
330
C0
102
}
330
C0
100
AcDbDictionary
280
     1
281
     1
  0
LAYOUT
  5
1E
102
{ACAD_XDICTIONARY
360
C9B
102
}
102
{ACAD_REACTORS
330
1A
102
}
330
1A
100
AcDbPlotSettings
  1

  2
none_device
  4
Letter_(8.50_x_11.00_Inches)
  6

 40
6.349999904632568
 41
6.349999904632568
 42
6.350006103515625
 43
6.350006103515625
 44
215.8999938964844
 45
279.3999938964844
 46
0.0
 47
0.0
 48
0.0
 49
0.0
140
0.0
141
0.0
142
1.0
143
1.0
 70
 15024
 72
     1
 73
     1
 74
     5
  7

 75
    16
147
1.0
148
0.0
149
0.0
100
AcDbLayout
  1
Layout1
 70
     1
 71
     1
 10
0.0
 20
0.0
 11
420.0
 21
297.0
 12
0.0
 22
0.0
 32
0.0
 14
1.000000000000000E+20
 24
1.000000000000000E+20
 34
1.000000000000000E+20
 15
-1.000000000000000E+20
 25
-1.000000000000000E+20
 35
-1.000000000000000E+20
146
0.0
 13
0.0
 23
0.0
 33
0.0
 16
1.0
 26
0.0
 36
0.0
 17
0.0
 27
1.0
 37
0.0
 76
     0
330
1B
  0
LAYOUT
  5
26
102
{ACAD_XDICTIONARY
360
C9F
102
}
102
{ACAD_REACTORS
330
1A
102
}
330
1A
100
AcDbPlotSettings
  1

  2
none_device
  4
Letter_(8.50_x_11.00_Inches)
  6

 40
6.349999904632568
 41
6.349999904632568
 42
6.350006103515625
 43
6.350006103515625
 44
215.8999938964844
 45
279.3999938964844
 46
0.0
 47
0.0
 48
0.0
 49
0.0
140
0.0
141
0.0
142
1.0
143
1.0
 70
 15024
 72
     1
 73
     1
 74
     5
  7

 75
    16
147
1.0
148
0.0
149
0.0
100
AcDbLayout
  1
Layout2
 70
     1
 71
     2
 10
0.0
 20
0.0
 11
12.0
 21
9.0
 12
0.0
 22
0.0
 32
0.0
 14
0.0
 24
0.0
 34
0.0
 15
0.0
 25
0.0
 35
0.0
146
0.0
 13
0.0
 23
0.0
 33
0.0
 16
1.0
 26
0.0
 36
0.0
 17
0.0
 27
1.0
 37
0.0
 76
     0
330
23
  0
LAYOUT
  5
22
102
{ACAD_XDICTIONARY
360
C9D
102
}
102
{ACAD_REACTORS
330
1A
102
}
330
1A
100
AcDbPlotSettings
  1

  2
none_device
  4
Letter_(8.50_x_11.00_Inches)
  6

 40
6.349999904632568
 41
6.349999904632568
 42
6.350006103515625
 43
6.350006103515625
 44
215.8999938964844
 45
279.3999938964844
 46
0.0
 47
0.0
 48
0.0
 49
0.0
140
0.0
141
0.0
142
1.0
143
1.0
 70
 11952
 72
     1
 73
     1
 74
     0
  7

 75
     0
147
1.0
148
-131.3052631578947
149
0.0
100
AcDbLayout
  1
Model
 70
     1
 71
     0
 10
0.0
 20
0.0
 11
12.0
 21
9.0
 12
0.0
 22
0.0
 32
0.0
 14
0.0
 24
0.0
 34
0.0
 15
0.0
 25
0.0
 35
0.0
146
0.0
 13
0.0
 23
0.0
 33
0.0
 16
1.0
 26
0.0
 36
0.0
 17
0.0
 27
1.0
 37
0.0
 76
     0
330
1F
  0
MLINESTYLE
  5
18
102
{ACAD_REACTORS
330
17
102
}
330
17
100
AcDbMlineStyle
  2
STANDARD
 70
     0
  3

 62
   256
 51
90.0
 52
90.0
 71
     2
 49
0.5
 62
   256
  6
BYLAYER
 49
-0.5
 62
   256
  6
BYLAYER
  0
ACDBPLACEHOLDER
  5
F
102
{ACAD_REACTORS
330
E
102
}
330
E
  0
TABLESTYLE
  5
134
102
{ACAD_REACTORS
330
133
102
}
330
133
100
AcDbTableStyle
  3
Standard
 70
     0
 71
     0
 40
1.5
 41
1.5
280
     0
281
     0
  7
STANDARD
140
4.5
170
     2
 62
     0
 63
     7
283
     0
274
    -2
284
     1
 64
     0
275
    -2
285
     1
 65
     0
276
    -2
286
     1
 66
     0
277
    -2
287
     1
 67
     0
278
    -2
288
     1
 68
     0
279
    -2
289
     1
 69
     0
  7
STANDARD
140
6.0
170
     5
 62
     0
 63
     7
283
     0
274
    -2
284
     1
 64
     0
275
    -2
285
     1
 65
     0
276
    -2
286
     1
 66
     0
277
    -2
287
     1
 67
     0
278
    -2
288
     1
 68
     0
279
    -2
289
     1
 69
     0
  7
STANDARD
140
4.5
170
     5
 62
     0
 63
     7
283
     0
274
    -2
284
     1
 64
     0
275
    -2
285
     1
 65
     0
276
    -2
286
     1
 66
     0
277
    -2
287
     1
 67
     0
278
    -2
288
     1
 68
     0
279
    -2
289
     1
 69
     0
  0
DICTIONARYVAR
  5
152
102
{ACAD_REACTORS
330
34
102
}
330
34
100
DictionaryVariables
280
     0
  1
STANDARD
  0
DICTIONARYVAR
  5
AD
102
{ACAD_REACTORS
330
34
102
}
330
34
100
DictionaryVariables
280
     0
  1
2
  0
DICTIONARYVAR
  5
35
102
{ACAD_REACTORS
330
34
102
}
330
34
100
DictionaryVariables
280
     0
  1
0
  0
DICTIONARYVAR
  5
C97
102
{ACAD_REACTORS
330
34
102
}
330
34
100
DictionaryVariables
280
     0
  1

  0
DICTIONARY
  5
2CB
102
{ACAD_REACTORS
330
49
102
}
330
49
100
AcDbDictionary
281
     1
  0
DICTIONARY
  5
4A
102
{ACAD_REACTORS
330
49
102
}
330
49
100
AcDbDictionary
281
     1
  0
XRECORD
  5
13D
102
{ACAD_REACTORS
330
49
102
}
330
49
100
AcDbXrecord
280
     1
 90
-1023410169
  0
DICTIONARY
  5
C9B
330
1E
100
AcDbDictionary
280
     1
281
     1
  3
ACAD_XREC_ROUNDTRIP
360
C9C
  0
DICTIONARY
  5
C9F
330
26
100
AcDbDictionary
280
     1
281
     1
  3
ACAD_XREC_ROUNDTRIP
360
CA0
  0
DICTIONARY
  5
C9D
330
22
100
AcDbDictionary
280
     1
281
     1
  3
ACAD_XREC_ROUNDTRIP
360
C9E
  0
XRECORD
  5
C9C
102
{ACAD_REACTORS
330
C9B
102
}
330
C9B
100
AcDbXrecord
280
     1
102
SHADEPLOT
 70
     0
102
SHADEPLOTRESLEVEL
 70
     2
102
SHADEPLOTCUSTOMDPI
 70
   300
  0
XRECORD
  5
CA0
102
{ACAD_REACTORS
330
C9F
102
}
330
C9F
100
AcDbXrecord
280
     1
102
SHADEPLOT
 70
     0
102
SHADEPLOTRESLEVEL
 70
     2
102
SHADEPLOTCUSTOMDPI
 70
   300
  0
XRECORD
  5
C9E
102
{ACAD_REACTORS
330
C9D
102
}
330
C9D
100
AcDbXrecord
280
     1
102
SHADEPLOT
 70
     0
102
SHADEPLOTRESLEVEL
 70
     2
102
SHADEPLOTCUSTOMDPI
 70
   300
  0
ENDSEC
  0
EOF
