  0
SECTION
  2
HEADER
  9
$ACADVER
  1
AC1015
  9
$ACADMAINTVER
 70
    20
  9
$DWGCODEPAGE
  3
ANSI_1252
  9
$INSBASE
 10
0.0
 20
0.0
 30
0.0
  9
$EXTMIN
 10
1439.139537300144
 20
1177.385552157691
 30
0.0
  9
$EXTMAX
 10
2561.401842509661
 20
2904.706841227694
 30
0.0
  9
$LIMMIN
 10
0.0
 20
0.0
  9
$LIMMAX
 10
420.0
 20
297.0
  9
$ORTHOMODE
 70
     0
  9
$REGENMODE
 70
     1
  9
$FILLMODE
 70
     1
  9
$QTEXTMODE
 70
     0
  9
$MIRRTEXT
 70
     1
  9
$LTSCALE
 40
1.0
  9
$ATTMODE
 70
     1
  9
$TEXTSIZE
 40
2.5
  9
$TRACEWID
 40
1.0
  9
$TEXTSTYLE
  7
STANDARD
  9
$CLAYER
  8
0
  9
$CELTYPE
  6
ByLayer
  9
$CECOLOR
 62
   256
  9
$CELTSCALE
 40
1.0
  9
$DISPSILH
 70
     0
  9
$DIMSCALE
 40
1.0
  9
$DIMASZ
 40
2.5
  9
$DIMEXO
 40
1.0
  9
$DIMDLI
 40
10.0
  9
$DIMRND
 40
0.0
  9
$DIMDLE
 40
0.0
  9
$DIMEXE
 40
1.0
  9
$DIMTP
 40
0.1
  9
$DIMTM
 40
0.1
  9
$DIMTXT
 40
3.5
  9
$DIMCEN
 40
0.0
  9
$DIMTSZ
 40
0.0
  9
$DIMTOL
 70
     0
  9
$DIMLIM
 70
     0
  9
$DIMTIH
 70
     0
  9
$DIMTOH
 70
     0
  9
$DIMSE1
 70
     0
  9
$DIMSE2
 70
     0
  9
$DIMTAD
 70
     1
  9
$DIMZIN
 70
     8
  9
$DIMBLK
  1

  9
$DIMASO
 70
     1
  9
$DIMSHO
 70
     1
  9
$DIMPOST
  1

  9
$DIMAPOST
  1
"
  9
$DIMALT
 70
     0
  9
$DIMALTD
 70
     2
  9
$DIMALTF
 40
0.0393701
  9
$DIMLFAC
 40
1.0
  9
$DIMTOFL
 70
     1
  9
$DIMTVP
 40
0.0
  9
$DIMTIX
 70
     0
  9
$DIMSOXD
 70
     0
  9
$DIMSAH
 70
     0
  9
$DIMBLK1
  1

  9
$DIMBLK2
  1

  9
$DIMSTYLE
  2
AM_DIN
  9
$DIMCLRD
 70
   256
  9
$DIMCLRE
 70
   256
  9
$DIMCLRT
 70
     2
  9
$DIMTFAC
 40
0.71
  9
$DIMGAP
 40
1.5
  9
$DIMJUST
 70
     0
  9
$DIMSD1
 70
     0
  9
$DIMSD2
 70
     0
  9
$DIMTOLJ
 70
     0
  9
$DIMTZIN
 70
     8
  9
$DIMALTZ
 70
     0
  9
$DIMALTTZ
 70
     0
  9
$DIMUPT
 70
     0
  9
$DIMDEC
 70
     2
  9
$DIMTDEC
 70
     3
  9
$DIMALTU
 70
     2
  9
$DIMALTTD
 70
     4
  9
$DIMTXSTY
  7
STANDARD
  9
$DIMAUNIT
 70
     0
  9
$DIMADEC
 70
     0
  9
$DIMALTRND
 40
0.0
  9
$DIMAZIN
 70
     2
  9
$DIMDSEP
 70
    46
  9
$DIMATFIT
 70
     3
  9
$DIMFRAC
 70
     0
  9
$DIMLDRBLK
  1

  9
$DIMLUNIT
 70
     2
  9
$DIMLWD
 70
    -1
  9
$DIMLWE
 70
    -1
  9
$DIMTMOVE
 70
     0
  9
$LUNITS
 70
     2
  9
$LUPREC
 70
     2
  9
$SKETCHINC
 40
1.0
  9
$FILLETRAD
 40
2.5
  9
$AUNITS
 70
     0
  9
$AUPREC
 70
     0
  9
$MENU
  1
.
  9
$ELEVATION
 40
0.0
  9
$PELEVATION
 40
0.0
  9
$THICKNESS
 40
0.0
  9
$LIMCHECK
 70
     0
  9
$CHAMFERA
 40
2.5
  9
$CHAMFERB
 40
2.5
  9
$CHAMFERC
 40
20.0
  9
$CHAMFERD
 40
0.0
  9
$SKPOLY
 70
     0
  9
$TDCREATE
 40
2454055.600315926
  9
$TDUCREATE
 40
2454055.558649259
  9
$TDUPDATE
 40
2454055.600646702
  9
$TDUUPDATE
 40
2454055.558980035
  9
$TDINDWG
 40
0.0003313079
  9
$TDUSRTIMER
 40
0.0003313079
  9
$USRTIMER
 70
     1
  9
$ANGBASE
 50
0.0
  9
$ANGDIR
 70
     0
  9
$PDMODE
 70
     0
  9
$PDSIZE
 40
0.0
  9
$PLINEWID
 40
0.0
  9
$SPLFRAME
 70
     0
  9
$SPLINETYPE
 70
     6
  9
$SPLINESEGS
 70
     8
  9
$HANDSEED
  5
C56
  9
$SURFTAB1
 70
     6
  9
$SURFTAB2
 70
     6
  9
$SURFTYPE
 70
     6
  9
$SURFU
 70
     6
  9
$SURFV
 70
     6
  9
$UCSBASE
  2

  9
$UCSNAME
  2

  9
$UCSORG
 10
0.0
 20
0.0
 30
0.0
  9
$UCSXDIR
 10
1.0
 20
0.0
 30
0.0
  9
$UCSYDIR
 10
0.0
 20
1.0
 30
0.0
  9
$UCSORTHOREF
  2

  9
$UCSORTHOVIEW
 70
     0
  9
$UCSORGTOP
 10
0.0
 20
0.0
 30
0.0
  9
$UCSORGBOTTOM
 10
0.0
 20
0.0
 30
0.0
  9
$UCSORGLEFT
 10
0.0
 20
0.0
 30
0.0
  9
$UCSORGRIGHT
 10
0.0
 20
0.0
 30
0.0
  9
$UCSORGFRONT
 10
0.0
 20
0.0
 30
0.0
  9
$UCSORGBACK
 10
0.0
 20
0.0
 30
0.0
  9
$PUCSBASE
  2

  9
$PUCSNAME
  2

  9
$PUCSORG
 10
0.0
 20
0.0
 30
0.0
  9
$PUCSXDIR
 10
1.0
 20
0.0
 30
0.0
  9
$PUCSYDIR
 10
0.0
 20
1.0
 30
0.0
  9
$PUCSORTHOREF
  2

  9
$PUCSORTHOVIEW
 70
     0
  9
$PUCSORGTOP
 10
0.0
 20
0.0
 30
0.0
  9
$PUCSORGBOTTOM
 10
0.0
 20
0.0
 30
0.0
  9
$PUCSORGLEFT
 10
0.0
 20
0.0
 30
0.0
  9
$PUCSORGRIGHT
 10
0.0
 20
0.0
 30
0.0
  9
$PUCSORGFRONT
 10
0.0
 20
0.0
 30
0.0
  9
$PUCSORGBACK
 10
0.0
 20
0.0
 30
0.0
  9
$USERI1
 70
     0
  9
$USERI2
 70
     0
  9
$USERI3
 70
     0
  9
$USERI4
 70
     0
  9
$USERI5
 70
     0
  9
$USERR1
 40
0.0
  9
$USERR2
 40
0.0
  9
$USERR3
 40
0.0
  9
$USERR4
 40
0.0
  9
$USERR5
 40
0.0
  9
$WORLDVIEW
 70
     1
  9
$SHADEDGE
 70
     3
  9
$SHADEDIF
 70
    70
  9
$TILEMODE
 70
     1
  9
$MAXACTVP
 70
    64
  9
$PINSBASE
 10
0.0
 20
0.0
 30
0.0
  9
$PLIMCHECK
 70
     0
  9
$PEXTMIN
 10
1.000000000000000E+20
 20
1.000000000000000E+20
 30
1.000000000000000E+20
  9
$PEXTMAX
 10
-1.000000000000000E+20
 20
-1.000000000000000E+20
 30
-1.000000000000000E+20
  9
$PLIMMIN
 10
0.0
 20
0.0
  9
$PLIMMAX
 10
420.0
 20
297.0
  9
$UNITMODE
 70
     0
  9
$VISRETAIN
 70
     1
  9
$PLINEGEN
 70
     0
  9
$PSLTSCALE
 70
     1
  9
$TREEDEPTH
 70
  3020
  9
$CMLSTYLE
  2
Standard
  9
$CMLJUST
 70
     0
  9
$CMLSCALE
 40
20.0
  9
$PROXYGRAPHICS
 70
     1
  9
$MEASUREMENT
 70
     1
  9
$CELWEIGHT
370
    -1
  9
$ENDCAPS
280
     0
  9
$JOINSTYLE
280
     0
  9
$LWDISPLAY
290
     0
  9
$INSUNITS
 70
     4
  9
$HYPERLINKBASE
  1

  9
$STYLESHEET
  1

  9
$XEDIT
290
     1
  9
$CEPSNTYPE
380
     0
  9
$PSTYLEMODE
290
     1
  9
$FINGERPRINTGUID
  2
{27AD0167-921C-4756-9242-C86C7A987C14}
  9
$VERSIONGUID
  2
{11F4092F-15E6-4E84-B2E6-A4BC0A627A95}
  9
$EXTNAMES
290
     1
  9
$PSVPSCALE
 40
0.0
  9
$OLESTARTUP
290
     0
  0
ENDSEC
  0
SECTION
  2
CLASSES
  0
CLASS
  1
ACDBDICTIONARYWDFLT
  2
AcDbDictionaryWithDefault
  3
ObjectDBX Classes
 90
        0
280
     0
281
     0
  0
CLASS
  1
ACDBPLACEHOLDER
  2
AcDbPlaceHolder
  3
ObjectDBX Classes
 90
        0
280
     0
281
     0
  0
CLASS
  1
LAYOUT
  2
AcDbLayout
  3
ObjectDBX Classes
 90
        0
280
     0
281
     0
  0
CLASS
  1
AMGSETTINGSOBJ
  2
AmgSettingsObj
  3
"AcadM|Product Description: AutoCAD Mechanical 2000|Company: Autodesk"
 90
        0
280
     0
281
     0
  0
CLASS
  1
ACME_DOCUMENT
  2
AcMeDbDoc
  3
AcMeServices
 90
        0
280
     0
281
     0
  0
CLASS
  1
ACMESCOPE
  2
AcMeScope
  3
AcMeServices
 90
        0
280
     0
281
     0
  0
CLASS
  1
ACMECOMMANDHISTORY
  2
AcMeCommandHistory
  3
AcMeServices
 90
        0
280
     0
281
     0
  0
CLASS
  1
DICTIONARYVAR
  2
AcDbDictionaryVar
  3
ObjectDBX Classes
 90
        0
280
     0
281
     0
  0
CLASS
  1
ACIMSYSVARMAN
  2
AcImSysVarManager
  3
AcMeServices
 90
        0
280
     0
281
     0
  0
CLASS
  1
ACIMREALSYSVAR
  2
AcImRealSysVar
  3
AcMeServices
 90
        0
280
     0
281
     0
  0
CLASS
  1
ACIMINTSYSVAR
  2
AcImIntSysVar
  3
AcMeServices
 90
        0
280
     0
281
     0
  0
CLASS
  1
ACMEDRAWINGMAN
  2
AcMeDrawingMan
  3
AcMeServices
 90
        0
280
     0
281
     0
  0
CLASS
  1
ACMEVIEW
  2
AcMeView
  3
AcMeServices
 90
        0
280
     0
281
     0
  0
CLASS
  1
ACDBENTITYCACHE
  2
AcMeEntityCache
  3
AcMeServices
 90
        0
280
     0
281
     0
  0
CLASS
  1
GSMANAGER
  2
AcMeGSManager
  3
AcMeServices
 90
        0
280
     0
281
     0
  0
CLASS
  1
AMDTINTERNALREACTOR
  2
AmdtInternalReactor
  3
AcMeServices
 90
        0
280
     0
281
     0
  0
CLASS
  1
ACMESTATEMGR
  2
AcMeStateMgr
  3
AcMeServices
 90
        0
280
     0
281
     0
  0
CLASS
  1
ACGREFMASTER
  2
AcGrefMaster
  3
AcAttribServices
 90
        0
280
     0
281
     0
  0
CLASS
  1
ACME_DATABASE
  2
AcMeDbDatabase
  3
AcMeServices
 90
        0
280
     0
281
     0
  0
CLASS
  1
ACRFINSADJUSTERMGR
  2
AcRfInsAdjusterMgr
  3
AcMeServices
 90
        0
280
     0
281
     0
  0
CLASS
  1
ACGREFACADMASTER
  2
AcGrefacadMaster
  3
AcGrefServices
 90
        0
280
     0
281
     0
  0
CLASS
  1
AMIMASTER
  2
AmiMaster
  3
AmiServices
 90
        0
280
     0
281
     0
  0
CLASS
  1
ACIMSTRSYSVAR
  2
AcImStrSysVar
  3
AcMeServices
 90
        0
280
     0
281
     0
  0
CLASS
  1
ACMSTANDARDDIN
  2
AcmStandardDIN
  3
"Amdt_StdImp|Product Description: AutoCAD Mechanical 2004 DX|Company: Autodesk"
 90
        0
280
     0
281
     0
  0
CLASS
  1
AMGOBJPROPCFG
  2
AmgObjPropCfg
  3
"AmgLay|Product Description: AutoCAD Mechanical 2000|Company: Autodesk"
 90
        1
280
     0
281
     0
  0
CLASS
  1
AMDTEDGESTANDARDDIN
  2
AmdtEdgeStdDIN
  3
"Amdt_StdImp|Product Description: AutoCAD Mechanical 2004 DX|Company: Autodesk"
 90
        0
280
     0
281
     0
  0
CLASS
  1
ACMSURFSTANDARDDIN
  2
AcmSurfTextStdDIN
  3
"Amdt_StdImp|Product Description: AutoCAD Mechanical 2004 DX|Company: Autodesk"
 90
        0
280
     0
281
     0
  0
CLASS
  1
ACMFCFSTANDARDDIN
  2
AcmFCFStdDIN
  3
"Amdt_StdImp|Product Description: AutoCAD Mechanical 2004 DX|Company: Autodesk"
 90
        0
280
     0
281
     0
  0
CLASS
  1
ACMWELDSTANDARDDIN
  2
AcmWeldingStdDIN
  3
"Amdt_StdImp|Product Description: AutoCAD Mechanical 2004 DX|Company: Autodesk"
 90
        0
280
     0
281
     0
  0
CLASS
  1
ACMIDSTANDARDDIN
  2
AcmIdStdDIN
  3
"Amdt_StdImp|Product Description: AutoCAD Mechanical 2004 DX|Company: Autodesk"
 90
        0
280
     0
281
     0
  0
CLASS
  1
ACMDATUMSTANDARDDIN
  2
AcmDatumStdDIN
  3
"Amdt_StdImp|Product Description: AutoCAD Mechanical 2004 DX|Company: Autodesk"
 90
        0
280
     0
281
     0
  0
CLASS
  1
ACMBOMSTANDARDDIN
  2
AcmBOMStdDIN
  3
"Amdt_StdImp|Product Description: AutoCAD Mechanical 2004 DX|Company: Autodesk"
 90
        0
280
     0
281
     0
  0
CLASS
  1
ACMDETAILSTANDARDDIN
  2
AmdtDetailSymStdDIN
  3
"Amdt_StdImp|Product Description: AutoCAD Mechanical 2004 DX|Company: Autodesk"
 90
        0
280
     0
281
     0
  0
CLASS
  1
ACMSECTIONSTANDARDDIN
  2
AmdtSectionSymStdDIN
  3
"Amdt_StdImp|Product Description: AutoCAD Mechanical 2004 DX|Company: Autodesk"
 90
        0
280
     0
281
     0
  0
CLASS
  1
ACMCENTERLINESTANDARDDIN
  2
AmdtCenterLineStdDIN
  3
"Amdt_StdImp|Product Description: AutoCAD Mechanical 2004 DX|Company: Autodesk"
 90
        0
280
     0
281
     0
  0
CLASS
  1
ACMTHREADLINESTANDARDDIN
  2
AmdtThreadLineStdDIN
  3
"Amdt_StdImp|Product Description: AutoCAD Mechanical 2004 DX|Company: Autodesk"
 90
        0
280
     0
281
     0
  0
CLASS
  1
ACAMGLAYSTD
  2
AcAmgLayStd
  3
"AcAmgLayStd|Product Description: AutoCAD Mechanical 2000|Company: Autodesk"
 90
        0
280
     0
281
     0
  0
CLASS
  1
ACAMGDIMSTD
  2
AcAmgDimStd
  3
"AcAmgDimStd|Product Description: AutoCAD Mechanical 2000|Company: Autodesk"
 90
        0
280
     0
281
     0
  0
CLASS
  1
ACAMGTITLESTD
  2
AcAmgTitleStd
  3
"TITLEAPP"
 90
        0
280
     0
281
     0
  0
CLASS
  1
ACMDATADICTIONARY
  2
AcmDataDictionary
  3
"AcmSymBB|Product Description: AutoCAD Mechanical 2004 DX|Company: Autodesk"
 90
        0
280
     0
281
     0
  0
CLASS
  1
ACMDATAENTRYBLOCK
  2
AcmDataEntryBlock
  3
"AcmSymBB|Product Description: AutoCAD Mechanical 2004 DX|Company: Autodesk"
 90
        0
280
     0
281
     0
  0
CLASS
  1
LAYER_INDEX
  2
AcDbLayerIndex
  3
ObjectDBX Classes
 90
    32768
280
     0
281
     0
  0
CLASS
  1
IDBUFFER
  2
AcDbIdBuffer
  3
ObjectDBX Classes
 90
    32768
280
     0
281
     0
  0
CLASS
  1
ACMNOTESTANDARDDIN
  2
AmdtNoteStdDIN
  3
"Amdt_StdImp|Product Description: AutoCAD Mechanical 2004 DX|Company: Autodesk"
 90
        0
280
     0
281
     0
  0
CLASS
  1
ACAMGHOLECHARTSTDDIN
  2
AcAmgHoleChartStdDIN
  3
ACMSYMBB_MODULE_NAME
 90
        0
280
     0
281
     0
  0
CLASS
  1
AM_DRAWING_MGR
  2
AcDmDwgMgr
  3
AcMechDwgViewMgmt
 90
        0
280
     0
281
     0
  0
CLASS
  1
AM_DWG_DOCUMENT
  2
AcDmDwgDocument
  3
AcMechDwgViewMgmt
 90
        0
280
     0
281
     0
  0
CLASS
  1
AM_DWG_SHEET
  2
AcDmSheet
  3
AcMechDwgViewMgmt
 90
        0
280
     0
281
     0
  0
CLASS
  1
AM_VIEWDIMPARMAP
  2
AcDmViewDimParMap
  3
AcMechDwgViewMgmt
 90
        0
280
     0
281
     0
  0
CLASS
  1
AM_DWGMGR_NAME
  2
AcDmDwgMgrName
  3
AcMechDwgViewMgmt
 90
        0
280
     0
281
     0
  0
CLASS
  1
AMDTMENUSTATEMGR
  2
AmdtMenuStateMgr
  3
McadcomServices
 90
        0
280
     0
281
     0
  0
CLASS
  1
AMDTMCOMMENUSTATE
  2
AmdtMcomMenuState
  3
McadcomServices
 90
        0
280
     0
281
     0
  0
CLASS
  1
MAPIAMMOUDLE
  2
MApiAmModule
  3
MApiAmServices
 90
        0
280
     0
281
     0
  0
CLASS
  1
AMDTADMENUSTATE
  2
AmdtAdMenuState
  3
DesignerServices
 90
        0
280
     0
281
     0
  0
CLASS
  1
ADAPPL
  2
AcAdAppl
  3
DesignerServices
 90
        0
280
     0
281
     0
  0
CLASS
  1
DEPMGR
  2
AcAdDepMgr
  3
DesignerServices
 90
        0
280
     0
281
     0
  0
CLASS
  1
PARAMMGR
  2
AcAdParamMgr
  3
DesignerServices
 90
        0
280
     0
281
     0
  0
CLASS
  1
PARAMSCOPE
  2
AcAdParamScope
  3
DesignerServices
 90
        0
280
     0
281
     0
  0
CLASS
  1
NAMEDAPPL
  2
AcAdNamedAppl
  3
DesignerServices
 90
        0
280
     0
281
     0
  0
CLASS
  1
AMDTDMMENUSTATE
  2
AmdtDmMenuState
  3
AcMechDwgViewMgmt
 90
        0
280
     0
281
     0
  0
CLASS
  1
AMDTAMMENUSTATE
  2
AmdtAmMenuState
  3
DesignerAssemblies
 90
        0
280
     0
281
     0
  0
CLASS
  1
ACAMPROJECT
  2
AcAmProject
  3
DesignerAssemblies
 90
        0
280
     0
281
     0
  0
CLASS
  1
ACAMGRCOMPDEF
  2
AcAmGrCompDef
  3
DesignerAssemblies
 90
        0
280
     0
281
     0
  0
CLASS
  1
ACCMCONTEXT
  2
AcCmContext
  3
DesignerAssemblies
 90
        0
280
     0
281
     0
  0
CLASS
  1
ACAMCOMPDEF
  2
AcAmCompDef
  3
DesignerAssemblies
 90
        0
280
     0
281
     0
  0
CLASS
  1
ACAMCOMPDEFMGR
  2
AcAmCompDefMgr
  3
DesignerAssemblies
 90
        0
280
     0
281
     0
  0
CLASS
  1
AMCONTEXTMGR
  2
AcAmContextMgr
  3
DesignerAssemblies
 90
        0
280
     0
281
     0
  0
CLASS
  1
ACAMCONTEXTMODELER
  2
AcAmContextModeler
  3
DesignerAssemblies
 90
        0
280
     0
281
     0
  0
CLASS
  1
CATALOGSTATE
  2
AcAmCatalogState
  3
DesignerAssemblies
 90
        0
280
     0
281
     0
  0
CLASS
  1
ACAMGRCOMPDEFSET
  2
AcAmGrCompDefSet
  3
DesignerAssemblies
 90
        0
280
     0
281
     0
  0
CLASS
  1
AMDTBROWSERDBTAB
  2
AmdtBrowserDbTab
  3
McadcomServices
 90
        0
280
     0
281
     0
  0
CLASS
  1
CBROWSERAPPOBJECT
  2
CBrowserAppObject
  3
McadcomServices
 90
        0
280
     0
281
     0
  0
CLASS
  1
DM_PLACEHOLDER
  2
AcDmSelsetPlaceholder
  3
AcMechDwgViewMgmt
 90
        0
280
     0
281
     0
  0
CLASS
  1
TABLESTYLE
  2
AcDbTableStyle
  3
ObjectDBX Classes
 90
     2047
280
     0
281
     0
  0
CLASS
  1
VAACXREFPANELOBJECT
  2
VaAcXREFPanelObject
  3
VAAC_ADDIN
 90
    32768
280
     0
281
     0
  0
CLASS
  1
VAACIMAGEINVENTORY
  2
VaAcImageInventory
  3
VAAC_ADDIN
 90
    32768
280
     0
281
     0
  0
CLASS
  1
AMDTNOTETEMPLATEDB
  2
AmdtNoteTemplateDB
  3
AMDT_STDIMP_MODULE_NAME
 90
        0
280
     0
281
     0
  0
CLASS
  1
ACAMGFILTERDAT
  2
AcAmgFilterDat
  3
"AcadM|Product Description: AutoCAD Mechanical 2000|Company: Autodesk"
 90
        0
280
     0
281
     0
  0
CLASS
  1
ACMBOM
  2
AcmBom
  3
"AcmSymBB|Product Description: AutoCAD Mechanical 2004 DX|Company: Autodesk"
 90
    32768
280
     0
281
     0
  0
CLASS
  1
AMDTFORMULAUPDATEDISPATCHER
  2
AmdtFormulaUpdateDispatcher
  3
AcMeServices
 90
    32768
280
     0
281
     0
  0
CLASS
  1
SORTENTSTABLE
  2
AcDbSortentsTable
  3
ObjectDBX Classes
 90
        0
280
     0
281
     0
  0
CLASS
  1
ACRFATTGENMGR
  2
AcRfAttGeneralMgr
  3
AcAttribServices
 90
        0
280
     0
281
     0
  0
ENDSEC
  0
SECTION
  2
TABLES
  0
TABLE
  2
VPORT
  5
8
330
0
100
AcDbSymbolTable
 70
     4
  0
VPORT
  5
C4D
330
8
100
AcDbSymbolTableRecord
100
AcDbViewportTableRecord
  2
*Active
 70
     0
 10
0.0
 20
0.0
 11
1.0
 21
1.0
 12
2000.270689904902
 22
2041.046196692692
 13
0.0
 23
0.0
 14
2.5
 24
2.5
 15
10.0
 25
10.0
 16
0.0
 26
0.0
 36
1.0
 17
0.0
 27
0.0
 37
0.0
 40
1738.992378861016
 41
1.378804960541149
 42
50.0
 43
0.0
 44
0.0
 50
0.0
 51
0.0
 71
     0
 72
   100
 73
     1
 74
     3
 75
     0
 76
     0
 77
     0
 78
     0
281
     0
 65
     1
110
0.0
120
0.0
130
0.0
111
1.0
121
0.0
131
0.0
112
0.0
122
1.0
132
0.0
 79
     0
146
0.0
  0
ENDTAB
  0
TABLE
  2
LTYPE
  5
5
330
0
100
AcDbSymbolTable
 70
    23
  0
LTYPE
  5
14
330
5
100
AcDbSymbolTableRecord
100
AcDbLinetypeTableRecord
  2
ByBlock
 70
     0
  3

 72
    65
 73
     0
 40
0.0
  0
LTYPE
  5
15
330
5
100
AcDbSymbolTableRecord
100
AcDbLinetypeTableRecord
  2
ByLayer
 70
     0
  3

 72
    65
 73
     0
 40
0.0
  0
LTYPE
  5
16
330
5
100
AcDbSymbolTableRecord
100
AcDbLinetypeTableRecord
  2
Continuous
 70
     0
  3
Solid line
 72
    65
 73
     0
 40
0.0
  0
LTYPE
  5
50
330
5
100
AcDbSymbolTableRecord
100
AcDbLinetypeTableRecord
  2
Amconstr
 70
     0
  3
_______________________
 72
    65
 73
     2
 40
9999.0
 49
9999.0
 74
     0
 49
0.0
 74
     0
  0
LTYPE
  5
55
330
5
100
AcDbSymbolTableRecord
100
AcDbLinetypeTableRecord
  2
Amzigzag
 70
     0
  3
/\/-/\/-/\/-/\/-/\/-/\/
 72
    65
 73
     2
 40
11.0001
 49
0.0001
 74
     4
 75
   136
340
285
 46
0.04
 50
0.0
 44
0.0
 45
0.0
 49
-11.0
 74
     0
  0
LTYPE
  5
56
330
5
100
AcDbSymbolTableRecord
100
AcDbLinetypeTableRecord
  2
AM_DIN_F_W050
 70
     0
  3
__ __ __ __ __ __ __ __ __ __ __ __ __ __ __
 72
    65
 73
     2
 40
6.25
 49
4.75
 74
     0
 49
-1.5
 74
     0
  0
LTYPE
  5
57
330
5
100
AcDbSymbolTableRecord
100
AcDbLinetypeTableRecord
  2
AM_DIN_G_W050
 70
     0
  3
____ . ____ . ____ . ____ . ____ . ____ . ____
 72
    65
 73
     4
 40
13.75
 49
9.75
 74
     0
 49
-1.5
 74
     0
 49
1.0
 74
     0
 49
-1.5
 74
     0
  0
LTYPE
  5
58
330
5
100
AcDbSymbolTableRecord
100
AcDbLinetypeTableRecord
  2
AM_DIN_K_W050
 70
     0
  3
_____ . . _____ . . _____ . . ____ .. ____
 72
    65
 73
     6
 40
16.25
 49
9.75
 74
     0
 49
-1.5
 74
     0
 49
1.0
 74
     0
 49
-1.5
 74
     0
 49
1.0
 74
     0
 49
-1.5
 74
     0
  0
LTYPE
  5
59
330
5
100
AcDbSymbolTableRecord
100
AcDbLinetypeTableRecord
  2
AM_DIN_G_W050x2
 70
     0
  3
__ . __ . __ . __ . __ . __
 72
    65
 73
     4
 40
6.875
 49
4.75
 74
     0
 49
-0.875
 74
     0
 49
0.375
 74
     0
 49
-0.875
 74
     0
  0
LTYPE
  5
5A
330
5
100
AcDbSymbolTableRecord
100
AcDbLinetypeTableRecord
  2
AM_DIN_F_W050x2
 70
     0
  3
 _ _ _ _ _ _ _ _ _ _ _ _
 72
    65
 73
     2
 40
3.125
 49
2.25
 74
     0
 49
-0.875
 74
     0
  0
LTYPE
  5
68
330
5
100
AcDbSymbolTableRecord
100
AcDbLinetypeTableRecord
  2
ACDINWELD
 70
     0
  3
_ _ _ _ _
 72
    65
 73
     2
 40
2.0
 49
2.0
 74
     0
 49
-1.0
 74
     0
  0
LTYPE
  5
69
330
5
100
AcDbSymbolTableRecord
100
AcDbLinetypeTableRecord
  2
ACDINTGB
 70
     0
  3
__ . . __ . .
 72
    65
 73
     6
 40
9.0
 49
4.0
 74
     0
 49
-1.0
 74
     0
 49
1.0
 74
     0
 49
-1.0
 74
     0
 49
1.0
 74
     0
 49
-1.0
 74
     0
  0
LTYPE
  5
6A
330
5
100
AcDbSymbolTableRecord
100
AcDbLinetypeTableRecord
  2
ACDINTGL
 70
     0
  3
_ _ _ _ _
 72
    65
 73
     2
 40
3.0
 49
2.0
 74
     0
 49
-1.0
 74
     0
  0
LTYPE
  5
6C
330
5
100
AcDbSymbolTableRecord
100
AcDbLinetypeTableRecord
  2
CENTER
 70
     0
  3
__ . __
 72
    65
 73
     4
 40
7.0
 49
4.0
 74
     0
 49
-1.0
 74
     0
 49
1.0
 74
     0
 49
-1.0
 74
     0
  0
LTYPE
  5
F2
330
5
100
AcDbSymbolTableRecord
100
AcDbLinetypeTableRecord
  2
HIDDEN
 70
     0
  3
Hidden __ __ __ __ __ __ __ __ __ __ __ __ __ _
 72
    65
 73
     2
 40
9.524999999999998
 49
6.349999999999999
 74
     0
 49
-3.174999999999999
 74
     0
  0
LTYPE
  5
F3
330
5
100
AcDbSymbolTableRecord
100
AcDbLinetypeTableRecord
  2
PHANTOM2
 70
     0
  3
Phantom (.5x) ___ _ _ ___ _ _ ___ _ _ ___ _ _
 72
    65
 73
     6
 40
31.75
 49
15.875
 74
     0
 49
-3.174999999999999
 74
     0
 49
3.174999999999999
 74
     0
 49
-3.174999999999999
 74
     0
 49
3.174999999999999
 74
     0
 49
-3.174999999999999
 74
     0
  0
LTYPE
  5
30F
330
5
100
AcDbSymbolTableRecord
100
AcDbLinetypeTableRecord
  2
MITTE
 70
     0
  3
Mitte ____ _ ____ _ ____ _ ____
 72
    65
 73
     4
 40
50.8
 49
31.75
 74
     0
 49
-6.349999999999999
 74
     0
 49
6.349999999999999
 74
     0
 49
-6.349999999999999
 74
     0
  0
LTYPE
  5
310
330
5
100
AcDbSymbolTableRecord
100
AcDbLinetypeTableRecord
  2
AUSGEZOGEN
 70
     0
  3
_______________________________________________
 72
    65
 73
     0
 40
0.0
  0
LTYPE
  5
311
330
5
100
AcDbSymbolTableRecord
100
AcDbLinetypeTableRecord
  2
PUNKT
 70
     0
  3
...............................................
 72
    65
 73
     2
 40
0.25
 49
0.0
 74
     0
 49
-0.25
 74
     0
  0
LTYPE
  5
312
330
5
100
AcDbSymbolTableRecord
100
AcDbLinetypeTableRecord
  2
GESTRICHELT
 70
     0
  3
__ __ __ __ __ __ __ __ __ __ __ __ __ __ __
 72
    65
 73
     2
 40
0.75
 49
0.5
 74
     0
 49
-0.25
 74
     0
  0
ENDTAB
  0
TABLE
  2
LAYER
  5
2
102
{ACAD_XDICTIONARY
360
C0
102
}
330
0
100
AcDbSymbolTable
 70
    15
  0
LAYER
  5
10
330
2
100
AcDbSymbolTableRecord
100
AcDbLayerTableRecord
  2
0
 70
     0
 62
     7
  6
Continuous
370
    -3
390
F
  0
LAYER
  5
314
330
2
100
AcDbSymbolTableRecord
100
AcDbLayerTableRecord
  2
BILD
 70
     0
 62
     1
  6
PUNKT
370
    -3
390
F
  0
LAYER
  5
315
330
2
100
AcDbSymbolTableRecord
100
AcDbLayerTableRecord
  2
SCHRAFF
 70
     0
 62
     7
  6
AUSGEZOGEN
370
    -3
390
F
  0
LAYER
  5
316
330
2
100
AcDbSymbolTableRecord
100
AcDbLayerTableRecord
  2
TEXT
 70
     0
 62
     7
  6
AUSGEZOGEN
370
    -3
390
F
  0
LAYER
  5
317
330
2
100
AcDbSymbolTableRecord
100
AcDbLayerTableRecord
  2
KONTUR
 70
     0
 62
     7
  6
AUSGEZOGEN
370
    -3
390
F
  0
LAYER
  5
318
330
2
100
AcDbSymbolTableRecord
100
AcDbLayerTableRecord
  2
Z
 70
     0
 62
     7
  6
AUSGEZOGEN
370
    -3
390
F
  0
LAYER
  5
319
330
2
100
AcDbSymbolTableRecord
100
AcDbLayerTableRecord
  2
GEHAEUSE
 70
     0
 62
     7
  6
MITTE
370
    -3
390
F
  0
LAYER
  5
31A
330
2
100
AcDbSymbolTableRecord
100
AcDbLayerTableRecord
  2
MASSE
 70
     0
 62
     1
  6
AUSGEZOGEN
370
    -3
390
F
  0
LAYER
  5
31B
330
2
100
AcDbSymbolTableRecord
100
AcDbLayerTableRecord
  2
MITTE
 70
     0
 62
     1
  6
AUSGEZOGEN
370
    -3
390
F
  0
LAYER
  5
31C
330
2
100
AcDbSymbolTableRecord
100
AcDbLayerTableRecord
  2
LOGO2
 70
     0
 62
     7
  6
AUSGEZOGEN
370
    -3
390
F
  0
LAYER
  5
31D
330
2
100
AcDbSymbolTableRecord
100
AcDbLayerTableRecord
  2
PUMPE
 70
     0
 62
     1
  6
MITTE
370
    -3
390
F
  0
LAYER
  5
31E
330
2
100
AcDbSymbolTableRecord
100
AcDbLayerTableRecord
  2
DIN84
 70
     0
 62
     7
  6
AUSGEZOGEN
370
    -3
390
F
  0
LAYER
  5
31F
330
2
100
AcDbSymbolTableRecord
100
AcDbLayerTableRecord
  2
ANSCHLUS
 70
     0
 62
     2
  6
GESTRICHELT
370
    -3
390
F
  0
ENDTAB
  0
TABLE
  2
STYLE
  5
3
330
0
100
AcDbSymbolTable
 70
    10
  0
STYLE
  5
11
330
3
100
AcDbSymbolTableRecord
100
AcDbTextStyleTableRecord
  2
STANDARD
 70
     0
 40
0.0
 41
1.0
 50
0.0
 71
     0
 42
2.5
  3
ISOCP.SHX
  4
bigfont.shx
  0
STYLE
  5
5B
330
3
100
AcDbSymbolTableRecord
100
AcDbTextStyleTableRecord
  2
ACDINTS
 70
     0
 40
1.0
 41
1.0
 50
0.0
 71
     0
 42
2.5
  3
isocp.shx
  4
bigfont.shx
  0
STYLE
  5
67
330
3
100
AcDbSymbolTableRecord
100
AcDbTextStyleTableRecord
  2
ACDINGDT
 70
     0
 40
0.0
 41
1.0
 50
0.0
 71
     0
 42
2.5
  3
AMGDT
  4
bigfont.shx
  0
STYLE
  5
285
330
3
100
AcDbSymbolTableRecord
100
AcDbTextStyleTableRecord
  2

 70
     1
 40
0.0
 41
1.0
 50
0.0
 71
     0
 42
2.5
  3
genltshp.shx
  4

  0
STYLE
  5
320
330
3
100
AcDbSymbolTableRecord
100
AcDbTextStyleTableRecord
  2
SIMPLEX
 70
     0
 40
0.0
 41
1.0
 50
0.0
 71
     0
 42
3.5
  3
simplex
  4

  0
STYLE
  5
321
330
3
100
AcDbSymbolTableRecord
100
AcDbTextStyleTableRecord
  2
COMPLEX
 70
     0
 40
0.0
 41
1.0
 50
0.0
 71
     0
 42
3.5
  3
complex
  4

  0
ENDTAB
  0
TABLE
  2
VIEW
  5
6
330
0
100
AcDbSymbolTable
 70
     0
  0
ENDTAB
  0
TABLE
  2
UCS
  5
7
330
0
100
AcDbSymbolTable
 70
     0
  0
ENDTAB
  0
TABLE
  2
APPID
  5
9
330
0
100
AcDbSymbolTable
 70
    12
  0
APPID
  5
12
330
9
100
AcDbSymbolTableRecord
100
AcDbRegAppTableRecord
  2
ACAD
 70
     0
  0
APPID
  5
30
330
9
100
AcDbSymbolTableRecord
100
AcDbRegAppTableRecord
  2
MCAD_NO_VIS
 70
     0
  0
APPID
  5
31
330
9
100
AcDbSymbolTableRecord
100
AcDbRegAppTableRecord
  2
ACAD_TEMP_GRAPHIC
 70
     0
  0
APPID
  5
44
330
9
100
AcDbSymbolTableRecord
100
AcDbRegAppTableRecord
  2
ACATTRIBSERVICES
 70
     0
  0
APPID
  5
108
330
9
100
AcDbSymbolTableRecord
100
AcDbRegAppTableRecord
  2
AD_DRAW
 70
     0
  0
APPID
  5
126
330
9
100
AcDbSymbolTableRecord
100
AcDbRegAppTableRecord
  2
DESIGNERASSEMBLIES
 70
     0
  0
APPID
  5
12A
330
9
100
AcDbSymbolTableRecord
100
AcDbRegAppTableRecord
  2
ACADM_DIM_EDIT
 70
     0
  0
APPID
  5
12B
330
9
100
AcDbSymbolTableRecord
100
AcDbRegAppTableRecord
  2
AMDT_DM_ADJ
 70
     0
  0
APPID
  5
1A4
330
9
100
AcDbSymbolTableRecord
100
AcDbRegAppTableRecord
  2
ACAD_DSTYLE_DIMARC_LENGTH_SYMBOL
 70
     0
  0
APPID
  5
1A5
330
9
100
AcDbSymbolTableRecord
100
AcDbRegAppTableRecord
  2
ACAD_DSTYLE_DIMJOGGED_JOGANGLE_SYMBOL
 70
     0
  0
APPID
  5
22C
330
9
100
AcDbSymbolTableRecord
100
AcDbRegAppTableRecord
  2
AcAecLayerStandard
 70
     0
  0
APPID
  5
326
330
9
100
AcDbSymbolTableRecord
100
AcDbRegAppTableRecord
  2
ACAD_PSEXT
 70
     0
  0
ENDTAB
  0
TABLE
  2
DIMSTYLE
  5
A
330
0
100
AcDbSymbolTable
 70
    12
100
AcDbDimStyleTable
 71
     1
340
6F
  0
DIMSTYLE
105
6F
102
{ACAD_REACTORS
330
4B
102
}
330
A
100
AcDbSymbolTableRecord
100
AcDbDimStyleTableRecord
  2
AM_DIN
 70
     0
  4
"
 41
2.5
 42
1.0
 43
10.0
 44
1.0
 47
0.1
 48
0.1
 73
     0
 74
     0
 77
     1
 78
     8
 79
     2
140
3.5
141
0.0
143
0.0393701
146
0.71
147
1.5
172
     1
176
   256
177
   256
178
     2
271
     2
272
     3
274
     4
283
     0
284
     8
340
11
371
    -1
372
    -1
1001
ACAD_DSTYLE_DIMARC_LENGTH_SYMBOL
1070
   379
1070
     0
1001
ACAD_DSTYLE_DIMJOGGED_JOGANGLE_SYMBOL
1070
   384
1040
1.570796326794896
  0
DIMSTYLE
105
70
330
A
100
AcDbSymbolTableRecord
100
AcDbDimStyleTableRecord
  2
AM_DIN$3
 70
     0
  4
"
 41
2.5
 42
1.0
 43
10.0
 44
1.0
 47
0.1
 48
0.1
 73
     0
 77
     1
 78
     8
 79
     2
140
3.5
141
0.0
143
0.0393701
146
0.71
147
1.5
176
   256
177
   256
178
     2
271
     2
272
     3
274
     4
283
     0
284
     8
288
     1
289
     0
340
11
371
    -1
372
    -1
1001
ACAD_DSTYLE_DIMARC_LENGTH_SYMBOL
1070
   379
1070
     0
1001
ACAD_DSTYLE_DIMJOGGED_JOGANGLE_SYMBOL
1070
   384
1040
1.570796326794896
  0
DIMSTYLE
105
71
330
A
100
AcDbSymbolTableRecord
100
AcDbDimStyleTableRecord
  2
AM_DIN$4
 70
     0
  4
"
 41
2.5
 42
1.0
 43
10.0
 44
1.0
 47
0.1
 48
0.1
 73
     0
 77
     1
 78
     8
 79
     2
140
3.5
141
0.0
143
0.0393701
146
0.71
147
1.5
176
   256
177
   256
178
     2
271
     2
272
     3
274
     4
283
     0
284
     8
288
     1
289
     0
340
11
371
    -1
372
    -1
1001
ACAD_DSTYLE_DIMARC_LENGTH_SYMBOL
1070
   379
1070
     0
1001
ACAD_DSTYLE_DIMJOGGED_JOGANGLE_SYMBOL
1070
   384
1040
1.570796326794896
  0
DIMSTYLE
105
72
330
A
100
AcDbSymbolTableRecord
100
AcDbDimStyleTableRecord
  2
AM_DIN$6
 70
     0
  4
"
 41
2.5
 42
1.0
 43
10.0
 44
1.0
 47
0.1
 48
0.1
 73
     0
 74
     0
 78
     8
 79
     2
140
3.5
141
0.0
143
0.0393701
146
0.71
147
1.5
172
     1
176
   256
177
   256
178
     2
271
     2
272
     3
274
     4
283
     0
284
     8
340
11
371
    -1
372
    -1
1001
ACAD_DSTYLE_DIMARC_LENGTH_SYMBOL
1070
   379
1070
     0
1001
ACAD_DSTYLE_DIMJOGGED_JOGANGLE_SYMBOL
1070
   384
1040
1.570796326794896
  0
DIMSTYLE
105
73
330
A
100
AcDbSymbolTableRecord
100
AcDbDimStyleTableRecord
  2
AM_DIN$7
 70
     0
  4
"
 41
2.5
 42
1.0
 43
10.0
 44
1.0
 47
0.1
 48
0.1
 73
     0
 74
     0
 77
     1
 78
     8
 79
     2
140
5.0
141
0.0
143
0.0393701
146
0.71
147
1.5
172
     1
176
   256
177
   256
178
     2
271
     2
272
     3
274
     4
283
     0
284
     8
340
11
371
    -1
372
    -1
1001
ACAD_DSTYLE_DIMARC_LENGTH_SYMBOL
1070
   379
1070
     0
1001
ACAD_DSTYLE_DIMJOGGED_JOGANGLE_SYMBOL
1070
   384
1040
1.570796326794896
  0
DIMSTYLE
105
74
330
A
100
AcDbSymbolTableRecord
100
AcDbDimStyleTableRecord
  2
AM_DIN$SF
 70
     0
  4
"
 41
2.5
 42
1.0
 43
10.0
 44
1.0
 47
0.1
 48
0.1
 73
     0
 74
     0
 75
     1
 76
     1
 77
     1
 78
     8
 79
     2
140
3.5
141
0.0
143
0.0393701
146
0.71
147
1.5
172
     1
176
   256
177
   256
178
     2
271
     2
272
     3
274
     4
283
     0
284
     8
340
11
371
    -1
372
    -1
1001
ACAD_DSTYLE_DIMARC_LENGTH_SYMBOL
1070
   379
1070
     0
1001
ACAD_DSTYLE_DIMJOGGED_JOGANGLE_SYMBOL
1070
   384
1040
1.570796326794896
  0
DIMSTYLE
105
79
330
A
100
AcDbSymbolTableRecord
100
AcDbDimStyleTableRecord
  2
AM_DIN$SH
 70
     0
  4
"
 41
2.5
 42
1.0
 43
10.0
 44
1.0
 47
0.1
 48
0.1
 73
     0
 74
     0
 75
     1
 76
     1
 77
     1
 78
     8
 79
     2
140
3.5
141
0.0
143
0.0393701
144
2.0
146
0.71
147
1.5
172
     1
173
     1
176
   256
177
   256
178
     2
271
     2
272
     3
274
     4
283
     0
284
     8
340
11
343
75
371
    -1
372
    -1
1001
ACAD_DSTYLE_DIMARC_LENGTH_SYMBOL
1070
   379
1070
     0
1001
ACAD_DSTYLE_DIMJOGGED_JOGANGLE_SYMBOL
1070
   384
1040
1.570796326794896
  0
ENDTAB
  0
TABLE
  2
BLOCK_RECORD
  5
1
330
0
100
AcDbSymbolTable
 70
     4
  0
BLOCK_RECORD
  5
1F
102
{ACAD_XDICTIONARY
360
83
102
}
330
1
100
AcDbSymbolTableRecord
100
AcDbBlockTableRecord
  2
*Model_Space
340
22
  0
BLOCK_RECORD
  5
1B
330
1
100
AcDbSymbolTableRecord
100
AcDbBlockTableRecord
  2
*Paper_Space
340
1E
  0
BLOCK_RECORD
  5
23
330
1
100
AcDbSymbolTableRecord
100
AcDbBlockTableRecord
  2
*Paper_Space0
340
26
  0
BLOCK_RECORD
  5
75
330
1
100
AcDbSymbolTableRecord
100
AcDbBlockTableRecord
  2
GENAXEH
340
0
  0
ENDTAB
  0
ENDSEC
  0
SECTION
  2
BLOCKS
  0
BLOCK
  5
20
330
1F
100
AcDbEntity
  8
0
100
AcDbBlockBegin
  2
*Model_Space
 70
     0
 10
0.0
 20
0.0
 30
0.0
  3
*Model_Space
  1

  0
ENDBLK
  5
21
330
1F
100
AcDbEntity
  8
0
100
AcDbBlockEnd
  0
BLOCK
  5
1C
330
1B
100
AcDbEntity
 67
     1
  8
0
100
AcDbBlockBegin
  2
*Paper_Space
 70
     0
 10
0.0
 20
0.0
 30
0.0
  3
*Paper_Space
  1

  0
ENDBLK
  5
1D
330
1B
100
AcDbEntity
 67
     1
  8
0
100
AcDbBlockEnd
  0
BLOCK
  5
24
330
23
100
AcDbEntity
 67
     1
  8
0
100
AcDbBlockBegin
  2
*Paper_Space0
 70
     0
 10
0.0
 20
0.0
 30
0.0
  3
*Paper_Space0
  1

  0
ENDBLK
  5
25
330
23
100
AcDbEntity
 67
     1
  8
0
100
AcDbBlockEnd
  0
BLOCK
  5
77
330
75
100
AcDbEntity
  8
0
100
AcDbBlockBegin
  2
GENAXEH
 70
     0
 10
0.0
 20
0.0
 30
0.0
  3
GENAXEH
  1

  0
LINE
  5
76
330
75
100
AcDbEntity
  8
0
100
AcDbLine
 10
-1.0
 20
0.0
 30
0.0
 11
1.0
 21
0.0
 31
0.0
  0
ENDBLK
  5
78
330
75
100
AcDbEntity
  8
0
100
AcDbBlockEnd
  0
ENDSEC
  0
SECTION
  2
ENTITIES
  0
LINE
  5
7BD
330
1F
100
AcDbEntity
  8
BILD
  6
AUSGEZOGEN
 62
     1
100
AcDbLine
 10
2020.202983340141
 20
1727.21245645769
 30
0.0
 11
2067.781596620143
 21
1832.222832437691
 31
0.0
  0
LINE
  5
7BE
330
1F
100
AcDbEntity
  8
BILD
  6
GESTRICHELT
 62
     1
100
AcDbLine
 10
2121.139628850143
 20
1397.385552157691
 30
0.0
 11
1734.139567810141
 21
1397.385552157691
 31
0.0
  0
LINE
  5
7BF
330
1F
100
AcDbEntity
  8
BILD
  6
GESTRICHELT
 62
     1
100
AcDbLine
 10
2121.139628850143
 20
1693.38555215769
 30
0.0
 11
1734.139567810141
 21
1693.38555215769
 31
0.0
  0
LINE
  5
7C0
330
1F
100
AcDbEntity
  8
BILD
  6
GESTRICHELT
 62
     1
100
AcDbLine
 10
2121.139628850143
 20
1693.38555215769
 30
0.0
 11
2121.139628850143
 21
1397.385552157691
 31
0.0
  0
LINE
  5
7C1
330
1F
100
AcDbEntity
  8
BILD
  6
GESTRICHELT
 62
     1
100
AcDbLine
 10
1734.139567810141
 20
1693.38555215769
 30
0.0
 11
1734.139567810141
 21
1397.385552157691
 31
0.0
  0
LINE
  5
7C2
330
1F
100
AcDbEntity
  8
BILD
  6
AUSGEZOGEN
 62
     1
100
AcDbLine
 10
2067.781596620143
 20
1832.222832437691
 30
0.0
 11
2174.499492130141
 21
1854.78557657769
 31
0.0
  0
LINE
  5
7C3
330
1F
100
AcDbEntity
  8
BILD
  6
AUSGEZOGEN
 62
     1
100
AcDbLine
 10
1765.560710390143
 20
2148.268730867693
 30
0.0
 11
1696.927531680144
 21
2194.487480867693
 31
0.0
  0
LINE
  5
7C4
330
1F
100
AcDbEntity
  8
BILD
  6
PUNKT
 62
     7
100
AcDbLine
 10
1735.639567810141
 20
2124.326714267692
 30
0.0
 11
1835.63956781014
 21
2124.326714267692
 31
0.0
  0
LINE
  5
7C5
330
1F
100
AcDbEntity
  8
BILD
  6
PUNKT
 62
     7
100
AcDbLine
 10
1735.639567810141
 20
2131.937309977692
 30
0.0
 11
1835.63956781014
 21
2131.937309977692
 31
0.0
  0
LINE
  5
7C6
330
1F
100
AcDbEntity
  8
BILD
  6
PUNKT
 62
     7
100
AcDbLine
 10
1735.639567810141
 20
2138.231255287693
 30
0.0
 11
1835.63956781014
 21
2138.231255287693
 31
0.0
  0
LINE
  5
7C7
330
1F
100
AcDbEntity
  8
BILD
  6
PUNKT
 62
     7
100
AcDbLine
 10
1735.639567810141
 20
2146.581230867693
 30
0.0
 11
1835.63956781014
 21
2146.581230867693
 31
0.0
  0
LINE
  5
7C8
330
1F
100
AcDbEntity
  8
BILD
  6
PUNKT
 62
     7
100
AcDbLine
 10
1735.639567810141
 20
2154.43535684769
 30
0.0
 11
1835.630107360143
 21
2154.43535684769
 31
0.0
  0
LINE
  5
7C9
330
1F
100
AcDbEntity
  8
BILD
  6
PUNKT
 62
     7
100
AcDbLine
 10
1735.639567810141
 20
2163.443535557693
 30
0.0
 11
1835.63956781014
 21
2163.443535557693
 31
0.0
  0
LINE
  5
7CA
330
1F
100
AcDbEntity
  8
BILD
  6
AUSGEZOGEN
 62
     1
100
AcDbLine
 10
1675.20457026014
 20
2360.932060947691
 30
0.0
 11
1723.719645940139
 21
2392.996147867691
 31
0.0
  0
ARC
  5
7CB
330
1F
100
AcDbEntity
  8
BILD
  6
AUSGEZOGEN
 62
     1
100
AcDbCircle
 10
2118.139628850143
 20
2118.397392977691
 30
0.0
 40
1.500000119999999
100
AcDbArc
 50
270.0
 51
0.0
  0
LINE
  5
7CC
330
1F
100
AcDbEntity
  8
BILD
  6
AUSGEZOGEN
 62
     1
100
AcDbLine
 10
2121.139628850143
 20
2543.397515047691
 30
0.0
 11
2121.139628850143
 21
2469.097466227692
 31
0.0
  0
ARC
  5
7CD
330
1F
100
AcDbEntity
  8
BILD
  6
AUSGEZOGEN
 62
     1
100
AcDbCircle
 10
2118.139628850143
 20
2118.397392977691
 30
0.0
 40
3.000000239999999
100
AcDbArc
 50
270.0
 51
0.0
  0
ARC
  5
7CE
330
1F
100
AcDbEntity
  8
BILD
  6
AUSGEZOGEN
 62
     1
100
AcDbCircle
 10
2122.639628850143
 20
2543.397515047691
 30
0.0
 40
1.500000119999999
100
AcDbArc
 50
90.00000762997665
 51
180.0
  0
ARC
  5
7CF
330
1F
100
AcDbEntity
  8
BILD
  6
AUSGEZOGEN
 62
     1
100
AcDbCircle
 10
2122.639628850143
 20
2543.397515047691
 30
0.0
 40
3.000000239999999
100
AcDbArc
 50
90.00000762997665
 51
180.0
  0
LINE
  5
7D0
330
1F
100
AcDbEntity
  8
BILD
  6
AUSGEZOGEN
 62
     1
100
AcDbLine
 10
2142.139628850143
 20
2573.897515047691
 30
0.0
 11
2142.139628850143
 21
2547.897515047691
 31
0.0
  0
ARC
  5
7D1
330
1F
100
AcDbEntity
  8
BILD
  6
AUSGEZOGEN
 62
     1
100
AcDbCircle
 10
2139.139628850143
 20
2547.897515047691
 30
0.0
 40
3.000000239999999
100
AcDbArc
 50
270.0
 51
0.0
  0
ARC
  5
7D2
330
1F
100
AcDbEntity
  8
BILD
  6
AUSGEZOGEN
 62
     1
100
AcDbCircle
 10
2139.139628850143
 20
2547.897515047691
 30
0.0
 40
1.500000119999999
100
AcDbArc
 50
270.0
 51
0.0
  0
LINE
  5
7D3
330
1F
100
AcDbEntity
  8
BILD
  6
AUSGEZOGEN
 62
     1
100
AcDbLine
 10
2143.639628850143
 20
2565.397515047691
 30
0.0
 11
2142.139628850143
 21
2565.397515047691
 31
0.0
  0
ARC
  5
7D4
330
1F
100
AcDbEntity
  8
BILD
  6
AUSGEZOGEN
 62
     1
100
AcDbCircle
 10
2142.139628850143
 20
2573.897515047691
 30
0.0
 40
1.500000119999999
100
AcDbArc
 50
0.0
 51
90.00000762997665
  0
ARC
  5
7D5
330
1F
100
AcDbEntity
  8
BILD
  6
AUSGEZOGEN
 62
     1
100
AcDbCircle
 10
2142.139628850143
 20
2573.897515047691
 30
0.0
 40
1.500000119999999
100
AcDbArc
 50
90.00000762997665
 51
180.0
  0
LINE
  5
7D6
330
1F
100
AcDbEntity
  8
BILD
  6
AUSGEZOGEN
 62
     1
100
AcDbLine
 10
2121.139628850143
 20
2426.697563877691
 30
0.0
 11
2121.139628850143
 21
2118.397392977691
 31
0.0
  0
LINE
  5
7D7
330
1F
100
AcDbEntity
  8
BILD
  6
AUSGEZOGEN
 62
     1
100
AcDbLine
 10
1737.139567810141
 20
2116.897392977691
 30
0.0
 11
2118.139628850143
 21
2116.897392977691
 31
0.0
  0
LINE
  5
7D8
330
1F
100
AcDbEntity
  8
BILD
  6
AUSGEZOGEN
 62
     1
100
AcDbLine
 10
1734.139567810141
 20
2543.397515047691
 30
0.0
 11
1734.139567810141
 21
2118.397392977691
 31
0.0
  0
ARC
  5
7D9
330
1F
100
AcDbEntity
  8
BILD
  6
AUSGEZOGEN
 62
     1
100
AcDbCircle
 10
1737.139506780143
 20
2118.397392977691
 30
0.0
 40
3.000000239999999
100
AcDbArc
 50
180.0
 51
270.0
  0
ARC
  5
7DA
330
1F
100
AcDbEntity
  8
BILD
  6
AUSGEZOGEN
 62
     1
100
AcDbCircle
 10
1737.139506780143
 20
2118.397392977691
 30
0.0
 40
1.500000119999999
100
AcDbArc
 50
180.0
 51
270.0
  0
ARC
  5
7DB
330
1F
100
AcDbEntity
  8
BILD
  6
AUSGEZOGEN
 62
     1
100
AcDbCircle
 10
1732.639506780143
 20
2543.397515047691
 30
0.0
 40
3.000000239999999
100
AcDbArc
 50
0.0
 51
90.00000762997665
  0
LINE
  5
7DC
330
1F
100
AcDbEntity
  8
BILD
  6
AUSGEZOGEN
 62
     1
100
AcDbLine
 10
1716.139567810141
 20
2544.897515047691
 30
0.0
 11
1732.639567810141
 21
2544.897515047691
 31
0.0
  0
ARC
  5
7DD
330
1F
100
AcDbEntity
  8
BILD
  6
AUSGEZOGEN
 62
     1
100
AcDbCircle
 10
1732.639506780143
 20
2543.397515047691
 30
0.0
 40
1.500000119999999
100
AcDbArc
 50
0.0
 51
90.00000762997665
  0
LINE
  5
7DE
330
1F
100
AcDbEntity
  8
BILD
  6
AUSGEZOGEN
 62
     1
100
AcDbLine
 10
1713.139567810141
 20
2573.897515047691
 30
0.0
 11
1713.139567810141
 21
2547.897515047691
 31
0.0
  0
ARC
  5
7DF
330
1F
100
AcDbEntity
  8
BILD
  6
AUSGEZOGEN
 62
     1
100
AcDbCircle
 10
1716.139506780143
 20
2547.897515047691
 30
0.0
 40
3.000000239999999
100
AcDbArc
 50
180.0
 51
270.0
  0
ARC
  5
7E0
330
1F
100
AcDbEntity
  8
BILD
  6
AUSGEZOGEN
 62
     1
100
AcDbCircle
 10
1716.139506780143
 20
2547.897515047691
 30
0.0
 40
1.500000119999999
100
AcDbArc
 50
180.0
 51
270.0
  0
ARC
  5
7E1
330
1F
100
AcDbEntity
  8
BILD
  6
AUSGEZOGEN
 62
     1
100
AcDbCircle
 10
1713.139506780143
 20
2573.897515047691
 30
0.0
 40
1.500000119999999
100
AcDbArc
 50
0.0
 51
90.00000762997665
  0
ARC
  5
7E2
330
1F
100
AcDbEntity
  8
BILD
  6
AUSGEZOGEN
 62
     1
100
AcDbCircle
 10
1713.139506780143
 20
2573.897515047691
 30
0.0
 40
1.500000119999999
100
AcDbArc
 50
90.00000762997665
 51
180.0
  0
LINE
  5
7E3
330
1F
100
AcDbEntity
  8
BILD
  6
AUSGEZOGEN
 62
     1
100
AcDbLine
 10
1711.639567810141
 20
2565.397515047691
 30
0.0
 11
1713.139567810141
 21
2565.397515047691
 31
0.0
  0
LINE
  5
7E4
330
1F
100
AcDbEntity
  8
BILD
  6
AUSGEZOGEN
 62
     1
100
AcDbLine
 10
2153.44517084014
 20
2472.707817787692
 30
0.0
 11
2188.142314400139
 21
2611.253227947691
 31
0.0
  0
LINE
  5
7E5
330
1F
100
AcDbEntity
  8
BILD
  6
GESTRICHELT
 62
     1
100
AcDbLine
 10
2065.511332950141
 20
2279.476128337693
 30
0.0
 11
2107.201152290142
 21
2279.476128337693
 31
0.0
  0
LINE
  5
7E6
330
1F
100
AcDbEntity
  8
BILD
  6
GESTRICHELT
 62
     1
100
AcDbLine
 10
2068.98191401014
 20
2273.224663487693
 30
0.0
 11
2098.622355900142
 21
2273.224663487693
 31
0.0
  0
LINE
  5
7E7
330
1F
100
AcDbEntity
  8
BILD
  6
GESTRICHELT
 62
     1
100
AcDbLine
 10
2062.367534120142
 20
2209.72954629769
 30
0.0
 11
2102.203044380142
 21
2209.72954629769
 31
0.0
  0
LINE
  5
7E8
330
1F
100
AcDbEntity
  8
BILD
  6
GESTRICHELT
 62
     1
100
AcDbLine
 10
2072.090190370142
 20
2202.835625407693
 30
0.0
 11
2095.787578070144
 21
2202.835625407693
 31
0.0
  0
LINE
  5
7E9
330
1F
100
AcDbEntity
  8
BILD
  6
AUSGEZOGEN
 62
     1
100
AcDbLine
 10
1875.796000920142
 20
2861.255669347691
 30
0.0
 11
1859.690226990141
 21
2866.274712317691
 31
0.0
  0
LINE
  5
7EA
330
1F
100
AcDbEntity
  8
BILD
  6
AUSGEZOGEN
 62
     1
100
AcDbLine
 10
1855.288615670143
 20
2872.187065837692
 30
0.0
 11
1762.809184510141
 21
2872.187065837692
 31
0.0
  0
LINE
  5
7EB
330
1F
100
AcDbEntity
  8
BILD
  6
AUSGEZOGEN
 62
     1
100
AcDbLine
 10
1894.473369080141
 20
2470.447563877691
 30
0.0
 11
1752.55845209014
 21
2630.139458407692
 31
0.0
  0
CIRCLE
  5
7EC
330
1F
100
AcDbEntity
  8
BILD
  6
AUSGEZOGEN
 62
     1
100
AcDbCircle
 10
1857.639628850143
 20
1664.38555215769
 30
0.0
 40
3.25
  0
CIRCLE
  5
7ED
330
1F
100
AcDbEntity
  8
BILD
  6
AUSGEZOGEN
 62
     1
100
AcDbCircle
 10
1843.639628850143
 20
1664.38555215769
 30
0.0
 40
3.25
  0
CIRCLE
  5
7EE
330
1F
100
AcDbEntity
  8
BILD
  6
AUSGEZOGEN
 62
     1
100
AcDbCircle
 10
1857.639628850143
 20
1650.38555215769
 30
0.0
 40
3.25
  0
CIRCLE
  5
7EF
330
1F
100
AcDbEntity
  8
BILD
  6
AUSGEZOGEN
 62
     1
100
AcDbCircle
 10
1843.639628850143
 20
1650.38555215769
 30
0.0
 40
3.25
  0
CIRCLE
  5
7F0
330
1F
100
AcDbEntity
  8
BILD
  6
AUSGEZOGEN
 62
     1
100
AcDbCircle
 10
1857.639628850143
 20
1636.38555215769
 30
0.0
 40
3.25
  0
CIRCLE
  5
7F1
330
1F
100
AcDbEntity
  8
BILD
  6
AUSGEZOGEN
 62
     1
100
AcDbCircle
 10
1843.639628850143
 20
1636.38555215769
 30
0.0
 40
3.25
  0
CIRCLE
  5
7F2
330
1F
100
AcDbEntity
  8
BILD
  6
AUSGEZOGEN
 62
     1
100
AcDbCircle
 10
1857.639628850143
 20
1622.385552157691
 30
0.0
 40
3.25
  0
CIRCLE
  5
7F3
330
1F
100
AcDbEntity
  8
BILD
  6
AUSGEZOGEN
 62
     1
100
AcDbCircle
 10
1843.639628850143
 20
1622.385552157691
 30
0.0
 40
3.25
  0
CIRCLE
  5
7F4
330
1F
100
AcDbEntity
  8
BILD
  6
AUSGEZOGEN
 62
     1
100
AcDbCircle
 10
1857.639628850143
 20
1608.385552157691
 30
0.0
 40
3.25
  0
CIRCLE
  5
7F5
330
1F
100
AcDbEntity
  8
BILD
  6
AUSGEZOGEN
 62
     1
100
AcDbCircle
 10
1843.639628850143
 20
1608.385552157691
 30
0.0
 40
3.25
  0
CIRCLE
  5
7F6
330
1F
100
AcDbEntity
  8
BILD
  6
AUSGEZOGEN
 62
     1
100
AcDbCircle
 10
1857.639628850143
 20
1594.385552157691
 30
0.0
 40
3.25
  0
CIRCLE
  5
7F7
330
1F
100
AcDbEntity
  8
BILD
  6
AUSGEZOGEN
 62
     1
100
AcDbCircle
 10
1843.639628850143
 20
1594.385552157691
 30
0.0
 40
3.25
  0
CIRCLE
  5
7F8
330
1F
100
AcDbEntity
  8
BILD
  6
AUSGEZOGEN
 62
     1
100
AcDbCircle
 10
1857.639628850143
 20
1580.385552157691
 30
0.0
 40
3.25
  0
CIRCLE
  5
7F9
330
1F
100
AcDbEntity
  8
BILD
  6
AUSGEZOGEN
 62
     1
100
AcDbCircle
 10
1843.639628850143
 20
1580.385552157691
 30
0.0
 40
3.25
  0
CIRCLE
  5
7FA
330
1F
100
AcDbEntity
  8
BILD
  6
AUSGEZOGEN
 62
     1
100
AcDbCircle
 10
1857.639628850143
 20
1566.385552157691
 30
0.0
 40
3.25
  0
CIRCLE
  5
7FB
330
1F
100
AcDbEntity
  8
BILD
  6
AUSGEZOGEN
 62
     1
100
AcDbCircle
 10
1843.639628850143
 20
1566.385552157691
 30
0.0
 40
3.25
  0
CIRCLE
  5
7FC
330
1F
100
AcDbEntity
  8
BILD
  6
AUSGEZOGEN
 62
     1
100
AcDbCircle
 10
1857.639628850143
 20
1552.385552157691
 30
0.0
 40
3.25
  0
CIRCLE
  5
7FD
330
1F
100
AcDbEntity
  8
BILD
  6
AUSGEZOGEN
 62
     1
100
AcDbCircle
 10
1843.639628850143
 20
1552.385552157691
 30
0.0
 40
3.25
  0
CIRCLE
  5
7FE
330
1F
100
AcDbEntity
  8
BILD
  6
AUSGEZOGEN
 62
     1
100
AcDbCircle
 10
1829.639628850143
 20
1664.38555215769
 30
0.0
 40
3.25
  0
CIRCLE
  5
7FF
330
1F
100
AcDbEntity
  8
BILD
  6
AUSGEZOGEN
 62
     1
100
AcDbCircle
 10
1815.639628850143
 20
1664.38555215769
 30
0.0
 40
3.25
  0
CIRCLE
  5
800
330
1F
100
AcDbEntity
  8
BILD
  6
AUSGEZOGEN
 62
     1
100
AcDbCircle
 10
1829.639628850143
 20
1650.38555215769
 30
0.0
 40
3.25
  0
CIRCLE
  5
801
330
1F
100
AcDbEntity
  8
BILD
  6
AUSGEZOGEN
 62
     1
100
AcDbCircle
 10
1815.639628850143
 20
1650.38555215769
 30
0.0
 40
3.25
  0
CIRCLE
  5
802
330
1F
100
AcDbEntity
  8
BILD
  6
AUSGEZOGEN
 62
     1
100
AcDbCircle
 10
1829.639628850143
 20
1636.38555215769
 30
0.0
 40
3.25
  0
CIRCLE
  5
803
330
1F
100
AcDbEntity
  8
BILD
  6
AUSGEZOGEN
 62
     1
100
AcDbCircle
 10
1815.639628850143
 20
1636.38555215769
 30
0.0
 40
3.25
  0
CIRCLE
  5
804
330
1F
100
AcDbEntity
  8
BILD
  6
AUSGEZOGEN
 62
     1
100
AcDbCircle
 10
1829.639628850143
 20
1622.385552157691
 30
0.0
 40
3.25
  0
CIRCLE
  5
805
330
1F
100
AcDbEntity
  8
BILD
  6
AUSGEZOGEN
 62
     1
100
AcDbCircle
 10
1815.639628850143
 20
1622.385552157691
 30
0.0
 40
3.25
  0
CIRCLE
  5
806
330
1F
100
AcDbEntity
  8
BILD
  6
AUSGEZOGEN
 62
     1
100
AcDbCircle
 10
1829.639628850143
 20
1608.385552157691
 30
0.0
 40
3.25
  0
CIRCLE
  5
807
330
1F
100
AcDbEntity
  8
BILD
  6
AUSGEZOGEN
 62
     1
100
AcDbCircle
 10
1815.639628850143
 20
1608.385552157691
 30
0.0
 40
3.25
  0
CIRCLE
  5
808
330
1F
100
AcDbEntity
  8
BILD
  6
AUSGEZOGEN
 62
     1
100
AcDbCircle
 10
1829.639628850143
 20
1594.385552157691
 30
0.0
 40
3.25
  0
CIRCLE
  5
809
330
1F
100
AcDbEntity
  8
BILD
  6
AUSGEZOGEN
 62
     1
100
AcDbCircle
 10
1815.639628850143
 20
1594.385552157691
 30
0.0
 40
3.25
  0
CIRCLE
  5
80A
330
1F
100
AcDbEntity
  8
BILD
  6
AUSGEZOGEN
 62
     1
100
AcDbCircle
 10
1829.639628850143
 20
1580.385552157691
 30
0.0
 40
3.25
  0
CIRCLE
  5
80B
330
1F
100
AcDbEntity
  8
BILD
  6
AUSGEZOGEN
 62
     1
100
AcDbCircle
 10
1815.639628850143
 20
1580.385552157691
 30
0.0
 40
3.25
  0
CIRCLE
  5
80C
330
1F
100
AcDbEntity
  8
BILD
  6
AUSGEZOGEN
 62
     1
100
AcDbCircle
 10
1829.639628850143
 20
1566.385552157691
 30
0.0
 40
3.25
  0
CIRCLE
  5
80D
330
1F
100
AcDbEntity
  8
BILD
  6
AUSGEZOGEN
 62
     1
100
AcDbCircle
 10
1815.639628850143
 20
1566.385552157691
 30
0.0
 40
3.25
  0
CIRCLE
  5
80E
330
1F
100
AcDbEntity
  8
BILD
  6
AUSGEZOGEN
 62
     1
100
AcDbCircle
 10
1829.639628850143
 20
1552.385552157691
 30
0.0
 40
3.25
  0
CIRCLE
  5
80F
330
1F
100
AcDbEntity
  8
BILD
  6
AUSGEZOGEN
 62
     1
100
AcDbCircle
 10
1815.639628850143
 20
1552.385552157691
 30
0.0
 40
3.25
  0
CIRCLE
  5
810
330
1F
100
AcDbEntity
  8
BILD
  6
AUSGEZOGEN
 62
     1
100
AcDbCircle
 10
1801.639628850143
 20
1664.38555215769
 30
0.0
 40
3.25
  0
CIRCLE
  5
811
330
1F
100
AcDbEntity
  8
BILD
  6
AUSGEZOGEN
 62
     1
100
AcDbCircle
 10
1787.639628850143
 20
1664.38555215769
 30
0.0
 40
3.25
  0
CIRCLE
  5
812
330
1F
100
AcDbEntity
  8
BILD
  6
AUSGEZOGEN
 62
     1
100
AcDbCircle
 10
1801.639628850143
 20
1650.38555215769
 30
0.0
 40
3.25
  0
CIRCLE
  5
813
330
1F
100
AcDbEntity
  8
BILD
  6
AUSGEZOGEN
 62
     1
100
AcDbCircle
 10
1787.639628850143
 20
1650.38555215769
 30
0.0
 40
3.25
  0
CIRCLE
  5
814
330
1F
100
AcDbEntity
  8
BILD
  6
AUSGEZOGEN
 62
     1
100
AcDbCircle
 10
1801.639628850143
 20
1636.38555215769
 30
0.0
 40
3.25
  0
CIRCLE
  5
815
330
1F
100
AcDbEntity
  8
BILD
  6
AUSGEZOGEN
 62
     1
100
AcDbCircle
 10
1787.639628850143
 20
1636.38555215769
 30
0.0
 40
3.25
  0
CIRCLE
  5
816
330
1F
100
AcDbEntity
  8
BILD
  6
AUSGEZOGEN
 62
     1
100
AcDbCircle
 10
1801.639628850143
 20
1622.385552157691
 30
0.0
 40
3.25
  0
CIRCLE
  5
817
330
1F
100
AcDbEntity
  8
BILD
  6
AUSGEZOGEN
 62
     1
100
AcDbCircle
 10
1787.639628850143
 20
1622.385552157691
 30
0.0
 40
3.25
  0
CIRCLE
  5
818
330
1F
100
AcDbEntity
  8
BILD
  6
AUSGEZOGEN
 62
     1
100
AcDbCircle
 10
1801.639628850143
 20
1608.385552157691
 30
0.0
 40
3.25
  0
CIRCLE
  5
819
330
1F
100
AcDbEntity
  8
BILD
  6
AUSGEZOGEN
 62
     1
100
AcDbCircle
 10
1787.639628850143
 20
1608.385552157691
 30
0.0
 40
3.25
  0
CIRCLE
  5
81A
330
1F
100
AcDbEntity
  8
BILD
  6
AUSGEZOGEN
 62
     1
100
AcDbCircle
 10
1801.639628850143
 20
1594.385552157691
 30
0.0
 40
3.25
  0
CIRCLE
  5
81B
330
1F
100
AcDbEntity
  8
BILD
  6
AUSGEZOGEN
 62
     1
100
AcDbCircle
 10
1787.639628850143
 20
1594.385552157691
 30
0.0
 40
3.25
  0
CIRCLE
  5
81C
330
1F
100
AcDbEntity
  8
BILD
  6
AUSGEZOGEN
 62
     1
100
AcDbCircle
 10
1801.639628850143
 20
1580.385552157691
 30
0.0
 40
3.25
  0
CIRCLE
  5
81D
330
1F
100
AcDbEntity
  8
BILD
  6
AUSGEZOGEN
 62
     1
100
AcDbCircle
 10
1787.639628850143
 20
1580.385552157691
 30
0.0
 40
3.25
  0
CIRCLE
  5
81E
330
1F
100
AcDbEntity
  8
BILD
  6
AUSGEZOGEN
 62
     1
100
AcDbCircle
 10
1801.639628850143
 20
1566.385552157691
 30
0.0
 40
3.25
  0
CIRCLE
  5
81F
330
1F
100
AcDbEntity
  8
BILD
  6
AUSGEZOGEN
 62
     1
100
AcDbCircle
 10
1787.639628850143
 20
1566.385552157691
 30
0.0
 40
3.25
  0
CIRCLE
  5
820
330
1F
100
AcDbEntity
  8
BILD
  6
AUSGEZOGEN
 62
     1
100
AcDbCircle
 10
1801.639628850143
 20
1552.385552157691
 30
0.0
 40
3.25
  0
CIRCLE
  5
821
330
1F
100
AcDbEntity
  8
BILD
  6
AUSGEZOGEN
 62
     1
100
AcDbCircle
 10
1787.639628850143
 20
1552.385552157691
 30
0.0
 40
3.25
  0
CIRCLE
  5
822
330
1F
100
AcDbEntity
  8
BILD
  6
AUSGEZOGEN
 62
     1
100
AcDbCircle
 10
1857.639628850143
 20
1426.385552157691
 30
0.0
 40
3.25
  0
CIRCLE
  5
823
330
1F
100
AcDbEntity
  8
BILD
  6
AUSGEZOGEN
 62
     1
100
AcDbCircle
 10
1843.639628850143
 20
1426.385430087691
 30
0.0
 40
3.25
  0
CIRCLE
  5
824
330
1F
100
AcDbEntity
  8
BILD
  6
AUSGEZOGEN
 62
     1
100
AcDbCircle
 10
1857.639628850143
 20
1440.385430087691
 30
0.0
 40
3.25
  0
CIRCLE
  5
825
330
1F
100
AcDbEntity
  8
BILD
  6
AUSGEZOGEN
 62
     1
100
AcDbCircle
 10
1843.639628850143
 20
1440.385430087691
 30
0.0
 40
3.25
  0
CIRCLE
  5
826
330
1F
100
AcDbEntity
  8
BILD
  6
AUSGEZOGEN
 62
     1
100
AcDbCircle
 10
1857.639628850143
 20
1454.385430087691
 30
0.0
 40
3.25
  0
CIRCLE
  5
827
330
1F
100
AcDbEntity
  8
BILD
  6
AUSGEZOGEN
 62
     1
100
AcDbCircle
 10
1843.639628850143
 20
1454.385430087691
 30
0.0
 40
3.25
  0
CIRCLE
  5
828
330
1F
100
AcDbEntity
  8
BILD
  6
AUSGEZOGEN
 62
     1
100
AcDbCircle
 10
1857.639628850143
 20
1468.385430087691
 30
0.0
 40
3.25
  0
CIRCLE
  5
829
330
1F
100
AcDbEntity
  8
BILD
  6
AUSGEZOGEN
 62
     1
100
AcDbCircle
 10
1843.639628850143
 20
1468.385430087691
 30
0.0
 40
3.25
  0
CIRCLE
  5
82A
330
1F
100
AcDbEntity
  8
BILD
  6
AUSGEZOGEN
 62
     1
100
AcDbCircle
 10
1857.639628850143
 20
1482.385430087691
 30
0.0
 40
3.25
  0
CIRCLE
  5
82B
330
1F
100
AcDbEntity
  8
BILD
  6
AUSGEZOGEN
 62
     1
100
AcDbCircle
 10
1843.639628850143
 20
1482.385430087691
 30
0.0
 40
3.25
  0
CIRCLE
  5
82C
330
1F
100
AcDbEntity
  8
BILD
  6
AUSGEZOGEN
 62
     1
100
AcDbCircle
 10
1857.639628850143
 20
1496.385430087691
 30
0.0
 40
3.25
  0
CIRCLE
  5
82D
330
1F
100
AcDbEntity
  8
BILD
  6
AUSGEZOGEN
 62
     1
100
AcDbCircle
 10
1843.639628850143
 20
1496.385430087691
 30
0.0
 40
3.25
  0
CIRCLE
  5
82E
330
1F
100
AcDbEntity
  8
BILD
  6
AUSGEZOGEN
 62
     1
100
AcDbCircle
 10
1857.639628850143
 20
1510.385430087691
 30
0.0
 40
3.25
  0
CIRCLE
  5
82F
330
1F
100
AcDbEntity
  8
BILD
  6
AUSGEZOGEN
 62
     1
100
AcDbCircle
 10
1843.639628850143
 20
1510.385430087691
 30
0.0
 40
3.25
  0
CIRCLE
  5
830
330
1F
100
AcDbEntity
  8
BILD
  6
AUSGEZOGEN
 62
     1
100
AcDbCircle
 10
1857.639628850143
 20
1524.385430087691
 30
0.0
 40
3.25
  0
CIRCLE
  5
831
330
1F
100
AcDbEntity
  8
BILD
  6
AUSGEZOGEN
 62
     1
100
AcDbCircle
 10
1843.639628850143
 20
1524.385430087691
 30
0.0
 40
3.25
  0
CIRCLE
  5
832
330
1F
100
AcDbEntity
  8
BILD
  6
AUSGEZOGEN
 62
     1
100
AcDbCircle
 10
1857.639628850143
 20
1538.385430087691
 30
0.0
 40
3.25
  0
CIRCLE
  5
833
330
1F
100
AcDbEntity
  8
BILD
  6
AUSGEZOGEN
 62
     1
100
AcDbCircle
 10
1843.639628850143
 20
1538.385430087691
 30
0.0
 40
3.25
  0
CIRCLE
  5
834
330
1F
100
AcDbEntity
  8
BILD
  6
AUSGEZOGEN
 62
     1
100
AcDbCircle
 10
1829.639628850143
 20
1426.385552157691
 30
0.0
 40
3.25
  0
CIRCLE
  5
835
330
1F
100
AcDbEntity
  8
BILD
  6
AUSGEZOGEN
 62
     1
100
AcDbCircle
 10
1815.639628850143
 20
1426.385430087691
 30
0.0
 40
3.25
  0
CIRCLE
  5
836
330
1F
100
AcDbEntity
  8
BILD
  6
AUSGEZOGEN
 62
     1
100
AcDbCircle
 10
1829.639628850143
 20
1440.385430087691
 30
0.0
 40
3.25
  0
CIRCLE
  5
837
330
1F
100
AcDbEntity
  8
BILD
  6
AUSGEZOGEN
 62
     1
100
AcDbCircle
 10
1815.639628850143
 20
1440.385430087691
 30
0.0
 40
3.25
  0
CIRCLE
  5
838
330
1F
100
AcDbEntity
  8
BILD
  6
AUSGEZOGEN
 62
     1
100
AcDbCircle
 10
1829.639628850143
 20
1454.385430087691
 30
0.0
 40
3.25
  0
CIRCLE
  5
839
330
1F
100
AcDbEntity
  8
BILD
  6
AUSGEZOGEN
 62
     1
100
AcDbCircle
 10
1815.639628850143
 20
1454.385430087691
 30
0.0
 40
3.25
  0
CIRCLE
  5
83A
330
1F
100
AcDbEntity
  8
BILD
  6
AUSGEZOGEN
 62
     1
100
AcDbCircle
 10
1829.639628850143
 20
1468.385430087691
 30
0.0
 40
3.25
  0
CIRCLE
  5
83B
330
1F
100
AcDbEntity
  8
BILD
  6
AUSGEZOGEN
 62
     1
100
AcDbCircle
 10
1815.639628850143
 20
1468.385430087691
 30
0.0
 40
3.25
  0
CIRCLE
  5
83C
330
1F
100
AcDbEntity
  8
BILD
  6
AUSGEZOGEN
 62
     1
100
AcDbCircle
 10
1829.639628850143
 20
1482.385430087691
 30
0.0
 40
3.25
  0
CIRCLE
  5
83D
330
1F
100
AcDbEntity
  8
BILD
  6
AUSGEZOGEN
 62
     1
100
AcDbCircle
 10
1815.639628850143
 20
1482.385430087691
 30
0.0
 40
3.25
  0
CIRCLE
  5
83E
330
1F
100
AcDbEntity
  8
BILD
  6
AUSGEZOGEN
 62
     1
100
AcDbCircle
 10
1829.639628850143
 20
1496.385430087691
 30
0.0
 40
3.25
  0
CIRCLE
  5
83F
330
1F
100
AcDbEntity
  8
BILD
  6
AUSGEZOGEN
 62
     1
100
AcDbCircle
 10
1815.639628850143
 20
1496.385430087691
 30
0.0
 40
3.25
  0
CIRCLE
  5
840
330
1F
100
AcDbEntity
  8
BILD
  6
AUSGEZOGEN
 62
     1
100
AcDbCircle
 10
1829.639628850143
 20
1510.385430087691
 30
0.0
 40
3.25
  0
CIRCLE
  5
841
330
1F
100
AcDbEntity
  8
BILD
  6
AUSGEZOGEN
 62
     1
100
AcDbCircle
 10
1815.639628850143
 20
1510.385430087691
 30
0.0
 40
3.25
  0
CIRCLE
  5
842
330
1F
100
AcDbEntity
  8
BILD
  6
AUSGEZOGEN
 62
     1
100
AcDbCircle
 10
1829.639628850143
 20
1524.385430087691
 30
0.0
 40
3.25
  0
CIRCLE
  5
843
330
1F
100
AcDbEntity
  8
BILD
  6
AUSGEZOGEN
 62
     1
100
AcDbCircle
 10
1815.639628850143
 20
1524.385430087691
 30
0.0
 40
3.25
  0
CIRCLE
  5
844
330
1F
100
AcDbEntity
  8
BILD
  6
AUSGEZOGEN
 62
     1
100
AcDbCircle
 10
1829.639628850143
 20
1538.385430087691
 30
0.0
 40
3.25
  0
CIRCLE
  5
845
330
1F
100
AcDbEntity
  8
BILD
  6
AUSGEZOGEN
 62
     1
100
AcDbCircle
 10
1815.639628850143
 20
1538.385430087691
 30
0.0
 40
3.25
  0
CIRCLE
  5
846
330
1F
100
AcDbEntity
  8
BILD
  6
AUSGEZOGEN
 62
     1
100
AcDbCircle
 10
1801.639628850143
 20
1426.385552157691
 30
0.0
 40
3.25
  0
CIRCLE
  5
847
330
1F
100
AcDbEntity
  8
BILD
  6
AUSGEZOGEN
 62
     1
100
AcDbCircle
 10
1787.639628850143
 20
1426.385430087691
 30
0.0
 40
3.25
  0
CIRCLE
  5
848
330
1F
100
AcDbEntity
  8
BILD
  6
AUSGEZOGEN
 62
     1
100
AcDbCircle
 10
1801.639628850143
 20
1440.385430087691
 30
0.0
 40
3.25
  0
CIRCLE
  5
849
330
1F
100
AcDbEntity
  8
BILD
  6
AUSGEZOGEN
 62
     1
100
AcDbCircle
 10
1787.639628850143
 20
1440.385430087691
 30
0.0
 40
3.25
  0
CIRCLE
  5
84A
330
1F
100
AcDbEntity
  8
BILD
  6
AUSGEZOGEN
 62
     1
100
AcDbCircle
 10
1801.639628850143
 20
1454.385430087691
 30
0.0
 40
3.25
  0
CIRCLE
  5
84B
330
1F
100
AcDbEntity
  8
BILD
  6
AUSGEZOGEN
 62
     1
100
AcDbCircle
 10
1787.639628850143
 20
1454.385430087691
 30
0.0
 40
3.25
  0
CIRCLE
  5
84C
330
1F
100
AcDbEntity
  8
BILD
  6
AUSGEZOGEN
 62
     1
100
AcDbCircle
 10
1801.639628850143
 20
1468.385430087691
 30
0.0
 40
3.25
  0
CIRCLE
  5
84D
330
1F
100
AcDbEntity
  8
BILD
  6
AUSGEZOGEN
 62
     1
100
AcDbCircle
 10
1787.639628850143
 20
1468.385430087691
 30
0.0
 40
3.25
  0
CIRCLE
  5
84E
330
1F
100
AcDbEntity
  8
BILD
  6
AUSGEZOGEN
 62
     1
100
AcDbCircle
 10
1801.639628850143
 20
1482.385430087691
 30
0.0
 40
3.25
  0
CIRCLE
  5
84F
330
1F
100
AcDbEntity
  8
BILD
  6
AUSGEZOGEN
 62
     1
100
AcDbCircle
 10
1787.639628850143
 20
1482.385430087691
 30
0.0
 40
3.25
  0
CIRCLE
  5
850
330
1F
100
AcDbEntity
  8
BILD
  6
AUSGEZOGEN
 62
     1
100
AcDbCircle
 10
1801.639628850143
 20
1496.385430087691
 30
0.0
 40
3.25
  0
CIRCLE
  5
851
330
1F
100
AcDbEntity
  8
BILD
  6
AUSGEZOGEN
 62
     1
100
AcDbCircle
 10
1787.639628850143
 20
1496.385430087691
 30
0.0
 40
3.25
  0
CIRCLE
  5
852
330
1F
100
AcDbEntity
  8
BILD
  6
AUSGEZOGEN
 62
     1
100
AcDbCircle
 10
1801.639628850143
 20
1510.385430087691
 30
0.0
 40
3.25
  0
CIRCLE
  5
853
330
1F
100
AcDbEntity
  8
BILD
  6
AUSGEZOGEN
 62
     1
100
AcDbCircle
 10
1787.639628850143
 20
1510.385430087691
 30
0.0
 40
3.25
  0
CIRCLE
  5
854
330
1F
100
AcDbEntity
  8
BILD
  6
AUSGEZOGEN
 62
     1
100
AcDbCircle
 10
1801.639628850143
 20
1524.385430087691
 30
0.0
 40
3.25
  0
CIRCLE
  5
855
330
1F
100
AcDbEntity
  8
BILD
  6
AUSGEZOGEN
 62
     1
100
AcDbCircle
 10
1787.639628850143
 20
1524.385430087691
 30
0.0
 40
3.25
  0
CIRCLE
  5
856
330
1F
100
AcDbEntity
  8
BILD
  6
AUSGEZOGEN
 62
     1
100
AcDbCircle
 10
1801.639628850143
 20
1538.385430087691
 30
0.0
 40
3.25
  0
CIRCLE
  5
857
330
1F
100
AcDbEntity
  8
BILD
  6
AUSGEZOGEN
 62
     1
100
AcDbCircle
 10
1787.639628850143
 20
1538.385430087691
 30
0.0
 40
3.25
  0
CIRCLE
  5
858
330
1F
100
AcDbEntity
  8
BILD
  6
AUSGEZOGEN
 62
     1
100
AcDbCircle
 10
1773.639628850142
 20
1426.385552157691
 30
0.0
 40
3.25
  0
CIRCLE
  5
859
330
1F
100
AcDbEntity
  8
BILD
  6
AUSGEZOGEN
 62
     1
100
AcDbCircle
 10
1759.639628850143
 20
1426.385430087691
 30
0.0
 40
3.25
  0
CIRCLE
  5
85A
330
1F
100
AcDbEntity
  8
BILD
  6
AUSGEZOGEN
 62
     1
100
AcDbCircle
 10
1773.639628850142
 20
1440.385430087691
 30
0.0
 40
3.25
  0
CIRCLE
  5
85B
330
1F
100
AcDbEntity
  8
BILD
  6
AUSGEZOGEN
 62
     1
100
AcDbCircle
 10
1759.639628850143
 20
1440.385430087691
 30
0.0
 40
3.25
  0
CIRCLE
  5
85C
330
1F
100
AcDbEntity
  8
BILD
  6
AUSGEZOGEN
 62
     1
100
AcDbCircle
 10
1773.639628850142
 20
1454.385430087691
 30
0.0
 40
3.25
  0
CIRCLE
  5
85D
330
1F
100
AcDbEntity
  8
BILD
  6
AUSGEZOGEN
 62
     1
100
AcDbCircle
 10
1759.639628850143
 20
1454.385430087691
 30
0.0
 40
3.25
  0
CIRCLE
  5
85E
330
1F
100
AcDbEntity
  8
BILD
  6
AUSGEZOGEN
 62
     1
100
AcDbCircle
 10
1773.639628850142
 20
1468.385430087691
 30
0.0
 40
3.25
  0
CIRCLE
  5
85F
330
1F
100
AcDbEntity
  8
BILD
  6
AUSGEZOGEN
 62
     1
100
AcDbCircle
 10
1759.639628850143
 20
1468.385430087691
 30
0.0
 40
3.25
  0
CIRCLE
  5
860
330
1F
100
AcDbEntity
  8
BILD
  6
AUSGEZOGEN
 62
     1
100
AcDbCircle
 10
1773.639628850142
 20
1482.385430087691
 30
0.0
 40
3.25
  0
CIRCLE
  5
861
330
1F
100
AcDbEntity
  8
BILD
  6
AUSGEZOGEN
 62
     1
100
AcDbCircle
 10
1759.639628850143
 20
1482.385430087691
 30
0.0
 40
3.25
  0
CIRCLE
  5
862
330
1F
100
AcDbEntity
  8
BILD
  6
AUSGEZOGEN
 62
     1
100
AcDbCircle
 10
1773.639628850142
 20
1496.385430087691
 30
0.0
 40
3.25
  0
CIRCLE
  5
863
330
1F
100
AcDbEntity
  8
BILD
  6
AUSGEZOGEN
 62
     1
100
AcDbCircle
 10
1759.639628850143
 20
1496.385430087691
 30
0.0
 40
3.25
  0
CIRCLE
  5
864
330
1F
100
AcDbEntity
  8
BILD
  6
AUSGEZOGEN
 62
     1
100
AcDbCircle
 10
1773.639628850142
 20
1510.385430087691
 30
0.0
 40
3.25
  0
CIRCLE
  5
865
330
1F
100
AcDbEntity
  8
BILD
  6
AUSGEZOGEN
 62
     1
100
AcDbCircle
 10
1759.639628850143
 20
1510.385430087691
 30
0.0
 40
3.25
  0
CIRCLE
  5
866
330
1F
100
AcDbEntity
  8
BILD
  6
AUSGEZOGEN
 62
     1
100
AcDbCircle
 10
1773.639628850142
 20
1524.385430087691
 30
0.0
 40
3.25
  0
CIRCLE
  5
867
330
1F
100
AcDbEntity
  8
BILD
  6
AUSGEZOGEN
 62
     1
100
AcDbCircle
 10
1759.639628850143
 20
1524.385430087691
 30
0.0
 40
3.25
  0
CIRCLE
  5
868
330
1F
100
AcDbEntity
  8
BILD
  6
AUSGEZOGEN
 62
     1
100
AcDbCircle
 10
1773.639628850142
 20
1538.385430087691
 30
0.0
 40
3.25
  0
CIRCLE
  5
869
330
1F
100
AcDbEntity
  8
BILD
  6
AUSGEZOGEN
 62
     1
100
AcDbCircle
 10
1759.639628850143
 20
1538.385430087691
 30
0.0
 40
3.25
  0
CIRCLE
  5
86A
330
1F
100
AcDbEntity
  8
BILD
  6
AUSGEZOGEN
 62
     1
100
AcDbCircle
 10
1773.639628850142
 20
1664.38555215769
 30
0.0
 40
3.25
  0
CIRCLE
  5
86B
330
1F
100
AcDbEntity
  8
BILD
  6
AUSGEZOGEN
 62
     1
100
AcDbCircle
 10
1759.639628850143
 20
1664.38555215769
 30
0.0
 40
3.25
  0
CIRCLE
  5
86C
330
1F
100
AcDbEntity
  8
BILD
  6
AUSGEZOGEN
 62
     1
100
AcDbCircle
 10
1773.639628850142
 20
1650.38555215769
 30
0.0
 40
3.25
  0
CIRCLE
  5
86D
330
1F
100
AcDbEntity
  8
BILD
  6
AUSGEZOGEN
 62
     1
100
AcDbCircle
 10
1759.639628850143
 20
1650.38555215769
 30
0.0
 40
3.25
  0
CIRCLE
  5
86E
330
1F
100
AcDbEntity
  8
BILD
  6
AUSGEZOGEN
 62
     1
100
AcDbCircle
 10
1773.639628850142
 20
1636.38555215769
 30
0.0
 40
3.25
  0
CIRCLE
  5
86F
330
1F
100
AcDbEntity
  8
BILD
  6
AUSGEZOGEN
 62
     1
100
AcDbCircle
 10
1759.639628850143
 20
1636.38555215769
 30
0.0
 40
3.25
  0
CIRCLE
  5
870
330
1F
100
AcDbEntity
  8
BILD
  6
AUSGEZOGEN
 62
     1
100
AcDbCircle
 10
1773.639628850142
 20
1622.385552157691
 30
0.0
 40
3.25
  0
CIRCLE
  5
871
330
1F
100
AcDbEntity
  8
BILD
  6
AUSGEZOGEN
 62
     1
100
AcDbCircle
 10
1759.639628850143
 20
1622.385552157691
 30
0.0
 40
3.25
  0
CIRCLE
  5
872
330
1F
100
AcDbEntity
  8
BILD
  6
AUSGEZOGEN
 62
     1
100
AcDbCircle
 10
1773.639628850142
 20
1608.385552157691
 30
0.0
 40
3.25
  0
CIRCLE
  5
873
330
1F
100
AcDbEntity
  8
BILD
  6
AUSGEZOGEN
 62
     1
100
AcDbCircle
 10
1759.639628850143
 20
1608.385552157691
 30
0.0
 40
3.25
  0
CIRCLE
  5
874
330
1F
100
AcDbEntity
  8
BILD
  6
AUSGEZOGEN
 62
     1
100
AcDbCircle
 10
1773.639628850142
 20
1594.385552157691
 30
0.0
 40
3.25
  0
CIRCLE
  5
875
330
1F
100
AcDbEntity
  8
BILD
  6
AUSGEZOGEN
 62
     1
100
AcDbCircle
 10
1759.639628850143
 20
1594.385552157691
 30
0.0
 40
3.25
  0
CIRCLE
  5
876
330
1F
100
AcDbEntity
  8
BILD
  6
AUSGEZOGEN
 62
     1
100
AcDbCircle
 10
1773.639628850142
 20
1580.385552157691
 30
0.0
 40
3.25
  0
CIRCLE
  5
877
330
1F
100
AcDbEntity
  8
BILD
  6
AUSGEZOGEN
 62
     1
100
AcDbCircle
 10
1759.639628850143
 20
1580.385552157691
 30
0.0
 40
3.25
  0
CIRCLE
  5
878
330
1F
100
AcDbEntity
  8
BILD
  6
AUSGEZOGEN
 62
     1
100
AcDbCircle
 10
1773.639628850142
 20
1566.385552157691
 30
0.0
 40
3.25
  0
CIRCLE
  5
879
330
1F
100
AcDbEntity
  8
BILD
  6
AUSGEZOGEN
 62
     1
100
AcDbCircle
 10
1759.639628850143
 20
1566.385552157691
 30
0.0
 40
3.25
  0
CIRCLE
  5
87A
330
1F
100
AcDbEntity
  8
BILD
  6
AUSGEZOGEN
 62
     1
100
AcDbCircle
 10
1773.639628850142
 20
1552.385552157691
 30
0.0
 40
3.25
  0
CIRCLE
  5
87B
330
1F
100
AcDbEntity
  8
BILD
  6
AUSGEZOGEN
 62
     1
100
AcDbCircle
 10
1759.639628850143
 20
1552.385552157691
 30
0.0
 40
3.25
  0
CIRCLE
  5
87C
330
1F
100
AcDbEntity
  8
BILD
  6
AUSGEZOGEN
 62
     1
100
AcDbCircle
 10
1822.639628850143
 20
1685.385552157691
 30
0.0
 40
3.5
  0
CIRCLE
  5
87D
330
1F
100
AcDbEntity
  8
BILD
  6
AUSGEZOGEN
 62
     1
100
AcDbCircle
 10
1822.639628850143
 20
1657.38555215769
 30
0.0
 40
3.5
  0
CIRCLE
  5
87E
330
1F
100
AcDbEntity
  8
BILD
  6
AUSGEZOGEN
 62
     1
100
AcDbCircle
 10
1822.639628850143
 20
1629.385552157691
 30
0.0
 40
3.5
  0
CIRCLE
  5
87F
330
1F
100
AcDbEntity
  8
BILD
  6
AUSGEZOGEN
 62
     1
100
AcDbCircle
 10
1822.639628850143
 20
1601.38555215769
 30
0.0
 40
3.5
  0
CIRCLE
  5
880
330
1F
100
AcDbEntity
  8
BILD
  6
AUSGEZOGEN
 62
     1
100
AcDbCircle
 10
1822.639628850143
 20
1573.38555215769
 30
0.0
 40
3.5
  0
CIRCLE
  5
881
330
1F
100
AcDbEntity
  8
BILD
  6
AUSGEZOGEN
 62
     1
100
AcDbCircle
 10
1822.639628850143
 20
1405.385430087691
 30
0.0
 40
3.5
  0
CIRCLE
  5
882
330
1F
100
AcDbEntity
  8
BILD
  6
AUSGEZOGEN
 62
     1
100
AcDbCircle
 10
1822.639628850143
 20
1433.385430087691
 30
0.0
 40
3.5
  0
CIRCLE
  5
883
330
1F
100
AcDbEntity
  8
BILD
  6
AUSGEZOGEN
 62
     1
100
AcDbCircle
 10
1822.639628850143
 20
1461.385430087691
 30
0.0
 40
3.5
  0
CIRCLE
  5
884
330
1F
100
AcDbEntity
  8
BILD
  6
AUSGEZOGEN
 62
     1
100
AcDbCircle
 10
1822.639628850143
 20
1489.385430087691
 30
0.0
 40
3.5
  0
CIRCLE
  5
885
330
1F
100
AcDbEntity
  8
BILD
  6
AUSGEZOGEN
 62
     1
100
AcDbCircle
 10
1822.639628850143
 20
1517.385430087691
 30
0.0
 40
3.5
  0
CIRCLE
  5
886
330
1F
100
AcDbEntity
  8
BILD
  6
AUSGEZOGEN
 62
     1
100
AcDbCircle
 10
1780.639628850143
 20
1685.385552157691
 30
0.0
 40
3.5
  0
CIRCLE
  5
887
330
1F
100
AcDbEntity
  8
BILD
  6
AUSGEZOGEN
 62
     1
100
AcDbCircle
 10
1780.639628850143
 20
1657.38555215769
 30
0.0
 40
3.5
  0
CIRCLE
  5
888
330
1F
100
AcDbEntity
  8
BILD
  6
AUSGEZOGEN
 62
     1
100
AcDbCircle
 10
1780.639628850143
 20
1629.385552157691
 30
0.0
 40
3.5
  0
CIRCLE
  5
889
330
1F
100
AcDbEntity
  8
BILD
  6
AUSGEZOGEN
 62
     1
100
AcDbCircle
 10
1780.639628850143
 20
1601.38555215769
 30
0.0
 40
3.5
  0
CIRCLE
  5
88A
330
1F
100
AcDbEntity
  8
BILD
  6
AUSGEZOGEN
 62
     1
100
AcDbCircle
 10
1780.639628850143
 20
1573.38555215769
 30
0.0
 40
3.5
  0
CIRCLE
  5
88B
330
1F
100
AcDbEntity
  8
BILD
  6
AUSGEZOGEN
 62
     1
100
AcDbCircle
 10
1780.639628850143
 20
1405.385430087691
 30
0.0
 40
3.5
  0
CIRCLE
  5
88C
330
1F
100
AcDbEntity
  8
BILD
  6
AUSGEZOGEN
 62
     1
100
AcDbCircle
 10
1780.639628850143
 20
1433.385430087691
 30
0.0
 40
3.5
  0
CIRCLE
  5
88D
330
1F
100
AcDbEntity
  8
BILD
  6
AUSGEZOGEN
 62
     1
100
AcDbCircle
 10
1780.639628850143
 20
1461.385430087691
 30
0.0
 40
3.5
  0
CIRCLE
  5
88E
330
1F
100
AcDbEntity
  8
BILD
  6
AUSGEZOGEN
 62
     1
100
AcDbCircle
 10
1780.639628850143
 20
1489.385430087691
 30
0.0
 40
3.5
  0
CIRCLE
  5
88F
330
1F
100
AcDbEntity
  8
BILD
  6
AUSGEZOGEN
 62
     1
100
AcDbCircle
 10
1780.639628850143
 20
1517.385430087691
 30
0.0
 40
3.5
  0
CIRCLE
  5
890
330
1F
100
AcDbEntity
  8
BILD
  6
AUSGEZOGEN
 62
     1
100
AcDbCircle
 10
1738.639628850142
 20
1685.385552157691
 30
0.0
 40
3.5
  0
CIRCLE
  5
891
330
1F
100
AcDbEntity
  8
BILD
  6
AUSGEZOGEN
 62
     1
100
AcDbCircle
 10
1738.639628850142
 20
1657.38555215769
 30
0.0
 40
3.5
  0
CIRCLE
  5
892
330
1F
100
AcDbEntity
  8
BILD
  6
AUSGEZOGEN
 62
     1
100
AcDbCircle
 10
1738.639628850142
 20
1629.385552157691
 30
0.0
 40
3.5
  0
CIRCLE
  5
893
330
1F
100
AcDbEntity
  8
BILD
  6
AUSGEZOGEN
 62
     1
100
AcDbCircle
 10
1738.639628850142
 20
1601.38555215769
 30
0.0
 40
3.5
  0
CIRCLE
  5
894
330
1F
100
AcDbEntity
  8
BILD
  6
AUSGEZOGEN
 62
     1
100
AcDbCircle
 10
1738.639628850142
 20
1573.38555215769
 30
0.0
 40
3.5
  0
CIRCLE
  5
895
330
1F
100
AcDbEntity
  8
BILD
  6
AUSGEZOGEN
 62
     1
100
AcDbCircle
 10
1738.639628850142
 20
1405.385430087691
 30
0.0
 40
3.5
  0
CIRCLE
  5
896
330
1F
100
AcDbEntity
  8
BILD
  6
AUSGEZOGEN
 62
     1
100
AcDbCircle
 10
1738.639628850142
 20
1433.385430087691
 30
0.0
 40
3.5
  0
CIRCLE
  5
897
330
1F
100
AcDbEntity
  8
BILD
  6
AUSGEZOGEN
 62
     1
100
AcDbCircle
 10
1738.639628850142
 20
1461.385430087691
 30
0.0
 40
3.5
  0
CIRCLE
  5
898
330
1F
100
AcDbEntity
  8
BILD
  6
AUSGEZOGEN
 62
     1
100
AcDbCircle
 10
1738.639628850142
 20
1489.385430087691
 30
0.0
 40
3.5
  0
CIRCLE
  5
899
330
1F
100
AcDbEntity
  8
BILD
  6
AUSGEZOGEN
 62
     1
100
AcDbCircle
 10
1738.639628850142
 20
1517.385430087691
 30
0.0
 40
3.5
  0
CIRCLE
  5
89A
330
1F
100
AcDbEntity
  8
BILD
  6
AUSGEZOGEN
 62
     1
100
AcDbCircle
 10
1885.639628850143
 20
1664.38555215769
 30
0.0
 40
3.25
  0
CIRCLE
  5
89B
330
1F
100
AcDbEntity
  8
BILD
  6
AUSGEZOGEN
 62
     1
100
AcDbCircle
 10
1871.639628850143
 20
1664.38555215769
 30
0.0
 40
3.25
  0
CIRCLE
  5
89C
330
1F
100
AcDbEntity
  8
BILD
  6
AUSGEZOGEN
 62
     1
100
AcDbCircle
 10
1885.639628850143
 20
1650.38555215769
 30
0.0
 40
3.25
  0
CIRCLE
  5
89D
330
1F
100
AcDbEntity
  8
BILD
  6
AUSGEZOGEN
 62
     1
100
AcDbCircle
 10
1871.639628850143
 20
1650.38555215769
 30
0.0
 40
3.25
  0
CIRCLE
  5
89E
330
1F
100
AcDbEntity
  8
BILD
  6
AUSGEZOGEN
 62
     1
100
AcDbCircle
 10
1885.639628850143
 20
1636.38555215769
 30
0.0
 40
3.25
  0
CIRCLE
  5
89F
330
1F
100
AcDbEntity
  8
BILD
  6
AUSGEZOGEN
 62
     1
100
AcDbCircle
 10
1871.639628850143
 20
1636.38555215769
 30
0.0
 40
3.25
  0
CIRCLE
  5
8A0
330
1F
100
AcDbEntity
  8
BILD
  6
AUSGEZOGEN
 62
     1
100
AcDbCircle
 10
1885.639628850143
 20
1622.385552157691
 30
0.0
 40
3.25
  0
CIRCLE
  5
8A1
330
1F
100
AcDbEntity
  8
BILD
  6
AUSGEZOGEN
 62
     1
100
AcDbCircle
 10
1871.639628850143
 20
1622.385552157691
 30
0.0
 40
3.25
  0
CIRCLE
  5
8A2
330
1F
100
AcDbEntity
  8
BILD
  6
AUSGEZOGEN
 62
     1
100
AcDbCircle
 10
1885.639628850143
 20
1608.385552157691
 30
0.0
 40
3.25
  0
CIRCLE
  5
8A3
330
1F
100
AcDbEntity
  8
BILD
  6
AUSGEZOGEN
 62
     1
100
AcDbCircle
 10
1871.639628850143
 20
1608.385552157691
 30
0.0
 40
3.25
  0
CIRCLE
  5
8A4
330
1F
100
AcDbEntity
  8
BILD
  6
AUSGEZOGEN
 62
     1
100
AcDbCircle
 10
1885.639628850143
 20
1594.385552157691
 30
0.0
 40
3.25
  0
CIRCLE
  5
8A5
330
1F
100
AcDbEntity
  8
BILD
  6
AUSGEZOGEN
 62
     1
100
AcDbCircle
 10
1871.639628850143
 20
1594.385552157691
 30
0.0
 40
3.25
  0
CIRCLE
  5
8A6
330
1F
100
AcDbEntity
  8
BILD
  6
AUSGEZOGEN
 62
     1
100
AcDbCircle
 10
1885.639628850143
 20
1580.385552157691
 30
0.0
 40
3.25
  0
CIRCLE
  5
8A7
330
1F
100
AcDbEntity
  8
BILD
  6
AUSGEZOGEN
 62
     1
100
AcDbCircle
 10
1871.639628850143
 20
1580.385552157691
 30
0.0
 40
3.25
  0
CIRCLE
  5
8A8
330
1F
100
AcDbEntity
  8
BILD
  6
AUSGEZOGEN
 62
     1
100
AcDbCircle
 10
1885.639628850143
 20
1566.385552157691
 30
0.0
 40
3.25
  0
CIRCLE
  5
8A9
330
1F
100
AcDbEntity
  8
BILD
  6
AUSGEZOGEN
 62
     1
100
AcDbCircle
 10
1871.639628850143
 20
1566.385552157691
 30
0.0
 40
3.25
  0
CIRCLE
  5
8AA
330
1F
100
AcDbEntity
  8
BILD
  6
AUSGEZOGEN
 62
     1
100
AcDbCircle
 10
1885.639628850143
 20
1552.385552157691
 30
0.0
 40
3.25
  0
CIRCLE
  5
8AB
330
1F
100
AcDbEntity
  8
BILD
  6
AUSGEZOGEN
 62
     1
100
AcDbCircle
 10
1871.639628850143
 20
1552.385552157691
 30
0.0
 40
3.25
  0
CIRCLE
  5
8AC
330
1F
100
AcDbEntity
  8
BILD
  6
AUSGEZOGEN
 62
     1
100
AcDbCircle
 10
1885.639628850143
 20
1426.385552157691
 30
0.0
 40
3.25
  0
CIRCLE
  5
8AD
330
1F
100
AcDbEntity
  8
BILD
  6
AUSGEZOGEN
 62
     1
100
AcDbCircle
 10
1871.639628850143
 20
1426.385430087691
 30
0.0
 40
3.25
  0
CIRCLE
  5
8AE
330
1F
100
AcDbEntity
  8
BILD
  6
AUSGEZOGEN
 62
     1
100
AcDbCircle
 10
1885.639628850143
 20
1440.385430087691
 30
0.0
 40
3.25
  0
CIRCLE
  5
8AF
330
1F
100
AcDbEntity
  8
BILD
  6
AUSGEZOGEN
 62
     1
100
AcDbCircle
 10
1871.639628850143
 20
1440.385430087691
 30
0.0
 40
3.25
  0
CIRCLE
  5
8B0
330
1F
100
AcDbEntity
  8
BILD
  6
AUSGEZOGEN
 62
     1
100
AcDbCircle
 10
1885.639628850143
 20
1454.385430087691
 30
0.0
 40
3.25
  0
CIRCLE
  5
8B1
330
1F
100
AcDbEntity
  8
BILD
  6
AUSGEZOGEN
 62
     1
100
AcDbCircle
 10
1871.639628850143
 20
1454.385430087691
 30
0.0
 40
3.25
  0
CIRCLE
  5
8B2
330
1F
100
AcDbEntity
  8
BILD
  6
AUSGEZOGEN
 62
     1
100
AcDbCircle
 10
1885.639628850143
 20
1468.385430087691
 30
0.0
 40
3.25
  0
CIRCLE
  5
8B3
330
1F
100
AcDbEntity
  8
BILD
  6
AUSGEZOGEN
 62
     1
100
AcDbCircle
 10
1871.639628850143
 20
1468.385430087691
 30
0.0
 40
3.25
  0
CIRCLE
  5
8B4
330
1F
100
AcDbEntity
  8
BILD
  6
AUSGEZOGEN
 62
     1
100
AcDbCircle
 10
1885.639628850143
 20
1482.385430087691
 30
0.0
 40
3.25
  0
CIRCLE
  5
8B5
330
1F
100
AcDbEntity
  8
BILD
  6
AUSGEZOGEN
 62
     1
100
AcDbCircle
 10
1871.639628850143
 20
1482.385430087691
 30
0.0
 40
3.25
  0
CIRCLE
  5
8B6
330
1F
100
AcDbEntity
  8
BILD
  6
AUSGEZOGEN
 62
     1
100
AcDbCircle
 10
1885.639628850143
 20
1496.385430087691
 30
0.0
 40
3.25
  0
CIRCLE
  5
8B7
330
1F
100
AcDbEntity
  8
BILD
  6
AUSGEZOGEN
 62
     1
100
AcDbCircle
 10
1871.639628850143
 20
1496.385430087691
 30
0.0
 40
3.25
  0
CIRCLE
  5
8B8
330
1F
100
AcDbEntity
  8
BILD
  6
AUSGEZOGEN
 62
     1
100
AcDbCircle
 10
1885.639628850143
 20
1510.385430087691
 30
0.0
 40
3.25
  0
CIRCLE
  5
8B9
330
1F
100
AcDbEntity
  8
BILD
  6
AUSGEZOGEN
 62
     1
100
AcDbCircle
 10
1871.639628850143
 20
1510.385430087691
 30
0.0
 40
3.25
  0
CIRCLE
  5
8BA
330
1F
100
AcDbEntity
  8
BILD
  6
AUSGEZOGEN
 62
     1
100
AcDbCircle
 10
1885.639628850143
 20
1524.385430087691
 30
0.0
 40
3.25
  0
CIRCLE
  5
8BB
330
1F
100
AcDbEntity
  8
BILD
  6
AUSGEZOGEN
 62
     1
100
AcDbCircle
 10
1871.639628850143
 20
1524.385430087691
 30
0.0
 40
3.25
  0
CIRCLE
  5
8BC
330
1F
100
AcDbEntity
  8
BILD
  6
AUSGEZOGEN
 62
     1
100
AcDbCircle
 10
1885.639628850143
 20
1538.385430087691
 30
0.0
 40
3.25
  0
CIRCLE
  5
8BD
330
1F
100
AcDbEntity
  8
BILD
  6
AUSGEZOGEN
 62
     1
100
AcDbCircle
 10
1871.639628850143
 20
1538.385430087691
 30
0.0
 40
3.25
  0
CIRCLE
  5
8BE
330
1F
100
AcDbEntity
  8
BILD
  6
AUSGEZOGEN
 62
     1
100
AcDbCircle
 10
1864.639628850143
 20
1685.385552157691
 30
0.0
 40
3.5
  0
CIRCLE
  5
8BF
330
1F
100
AcDbEntity
  8
BILD
  6
AUSGEZOGEN
 62
     1
100
AcDbCircle
 10
1864.639628850143
 20
1657.38555215769
 30
0.0
 40
3.5
  0
CIRCLE
  5
8C0
330
1F
100
AcDbEntity
  8
BILD
  6
AUSGEZOGEN
 62
     1
100
AcDbCircle
 10
1864.639628850143
 20
1629.385552157691
 30
0.0
 40
3.5
  0
CIRCLE
  5
8C1
330
1F
100
AcDbEntity
  8
BILD
  6
AUSGEZOGEN
 62
     1
100
AcDbCircle
 10
1864.639628850143
 20
1601.38555215769
 30
0.0
 40
3.5
  0
CIRCLE
  5
8C2
330
1F
100
AcDbEntity
  8
BILD
  6
AUSGEZOGEN
 62
     1
100
AcDbCircle
 10
1864.639628850143
 20
1573.38555215769
 30
0.0
 40
3.5
  0
CIRCLE
  5
8C3
330
1F
100
AcDbEntity
  8
BILD
  6
AUSGEZOGEN
 62
     1
100
AcDbCircle
 10
1864.639628850143
 20
1405.385430087691
 30
0.0
 40
3.5
  0
CIRCLE
  5
8C4
330
1F
100
AcDbEntity
  8
BILD
  6
AUSGEZOGEN
 62
     1
100
AcDbCircle
 10
1864.639628850143
 20
1433.385430087691
 30
0.0
 40
3.5
  0
CIRCLE
  5
8C5
330
1F
100
AcDbEntity
  8
BILD
  6
AUSGEZOGEN
 62
     1
100
AcDbCircle
 10
1864.639628850143
 20
1461.385430087691
 30
0.0
 40
3.5
  0
CIRCLE
  5
8C6
330
1F
100
AcDbEntity
  8
BILD
  6
AUSGEZOGEN
 62
     1
100
AcDbCircle
 10
1864.639628850143
 20
1489.385430087691
 30
0.0
 40
3.5
  0
CIRCLE
  5
8C7
330
1F
100
AcDbEntity
  8
BILD
  6
AUSGEZOGEN
 62
     1
100
AcDbCircle
 10
1864.639628850143
 20
1517.385430087691
 30
0.0
 40
3.5
  0
CIRCLE
  5
8C8
330
1F
100
AcDbEntity
  8
BILD
  6
AUSGEZOGEN
 62
     1
100
AcDbCircle
 10
2116.639628850143
 20
1685.385552157691
 30
0.0
 40
3.5
  0
CIRCLE
  5
8C9
330
1F
100
AcDbEntity
  8
BILD
  6
AUSGEZOGEN
 62
     1
100
AcDbCircle
 10
2116.639628850143
 20
1657.38555215769
 30
0.0
 40
3.5
  0
CIRCLE
  5
8CA
330
1F
100
AcDbEntity
  8
BILD
  6
AUSGEZOGEN
 62
     1
100
AcDbCircle
 10
2116.639628850143
 20
1629.385552157691
 30
0.0
 40
3.5
  0
CIRCLE
  5
8CB
330
1F
100
AcDbEntity
  8
BILD
  6
AUSGEZOGEN
 62
     1
100
AcDbCircle
 10
2116.639628850143
 20
1601.38555215769
 30
0.0
 40
3.5
  0
CIRCLE
  5
8CC
330
1F
100
AcDbEntity
  8
BILD
  6
AUSGEZOGEN
 62
     1
100
AcDbCircle
 10
2116.639628850143
 20
1573.38555215769
 30
0.0
 40
3.5
  0
CIRCLE
  5
8CD
330
1F
100
AcDbEntity
  8
BILD
  6
AUSGEZOGEN
 62
     1
100
AcDbCircle
 10
2116.639628850143
 20
1405.385430087691
 30
0.0
 40
3.5
  0
CIRCLE
  5
8CE
330
1F
100
AcDbEntity
  8
BILD
  6
AUSGEZOGEN
 62
     1
100
AcDbCircle
 10
2116.639628850143
 20
1433.385430087691
 30
0.0
 40
3.5
  0
CIRCLE
  5
8CF
330
1F
100
AcDbEntity
  8
BILD
  6
AUSGEZOGEN
 62
     1
100
AcDbCircle
 10
2116.639628850143
 20
1461.385430087691
 30
0.0
 40
3.5
  0
CIRCLE
  5
8D0
330
1F
100
AcDbEntity
  8
BILD
  6
AUSGEZOGEN
 62
     1
100
AcDbCircle
 10
2116.639628850143
 20
1489.385430087691
 30
0.0
 40
3.5
  0
CIRCLE
  5
8D1
330
1F
100
AcDbEntity
  8
BILD
  6
AUSGEZOGEN
 62
     1
100
AcDbCircle
 10
2116.639628850143
 20
1517.385430087691
 30
0.0
 40
3.5
  0
CIRCLE
  5
8D2
330
1F
100
AcDbEntity
  8
BILD
  6
AUSGEZOGEN
 62
     1
100
AcDbCircle
 10
2074.639628850143
 20
1685.385552157691
 30
0.0
 40
3.5
  0
CIRCLE
  5
8D3
330
1F
100
AcDbEntity
  8
BILD
  6
AUSGEZOGEN
 62
     1
100
AcDbCircle
 10
2074.639628850143
 20
1657.38555215769
 30
0.0
 40
3.5
  0
CIRCLE
  5
8D4
330
1F
100
AcDbEntity
  8
BILD
  6
AUSGEZOGEN
 62
     1
100
AcDbCircle
 10
2074.639628850143
 20
1629.385552157691
 30
0.0
 40
3.5
  0
CIRCLE
  5
8D5
330
1F
100
AcDbEntity
  8
BILD
  6
AUSGEZOGEN
 62
     1
100
AcDbCircle
 10
2074.639628850143
 20
1601.38555215769
 30
0.0
 40
3.5
  0
CIRCLE
  5
8D6
330
1F
100
AcDbEntity
  8
BILD
  6
AUSGEZOGEN
 62
     1
100
AcDbCircle
 10
2074.639628850143
 20
1573.38555215769
 30
0.0
 40
3.5
  0
CIRCLE
  5
8D7
330
1F
100
AcDbEntity
  8
BILD
  6
AUSGEZOGEN
 62
     1
100
AcDbCircle
 10
2074.639628850143
 20
1405.385430087691
 30
0.0
 40
3.5
  0
CIRCLE
  5
8D8
330
1F
100
AcDbEntity
  8
BILD
  6
AUSGEZOGEN
 62
     1
100
AcDbCircle
 10
2074.639628850143
 20
1433.385430087691
 30
0.0
 40
3.5
  0
CIRCLE
  5
8D9
330
1F
100
AcDbEntity
  8
BILD
  6
AUSGEZOGEN
 62
     1
100
AcDbCircle
 10
2074.639628850143
 20
1461.385430087691
 30
0.0
 40
3.5
  0
CIRCLE
  5
8DA
330
1F
100
AcDbEntity
  8
BILD
  6
AUSGEZOGEN
 62
     1
100
AcDbCircle
 10
2074.639628850143
 20
1489.385430087691
 30
0.0
 40
3.5
  0
CIRCLE
  5
8DB
330
1F
100
AcDbEntity
  8
BILD
  6
AUSGEZOGEN
 62
     1
100
AcDbCircle
 10
2074.639628850143
 20
1517.385430087691
 30
0.0
 40
3.5
  0
CIRCLE
  5
8DC
330
1F
100
AcDbEntity
  8
BILD
  6
AUSGEZOGEN
 62
     1
100
AcDbCircle
 10
2032.639628850143
 20
1685.385552157691
 30
0.0
 40
3.5
  0
CIRCLE
  5
8DD
330
1F
100
AcDbEntity
  8
BILD
  6
AUSGEZOGEN
 62
     1
100
AcDbCircle
 10
2032.639628850143
 20
1657.38555215769
 30
0.0
 40
3.5
  0
CIRCLE
  5
8DE
330
1F
100
AcDbEntity
  8
BILD
  6
AUSGEZOGEN
 62
     1
100
AcDbCircle
 10
2032.639628850143
 20
1629.385552157691
 30
0.0
 40
3.5
  0
CIRCLE
  5
8DF
330
1F
100
AcDbEntity
  8
BILD
  6
AUSGEZOGEN
 62
     1
100
AcDbCircle
 10
2032.639628850143
 20
1601.38555215769
 30
0.0
 40
3.5
  0
CIRCLE
  5
8E0
330
1F
100
AcDbEntity
  8
BILD
  6
AUSGEZOGEN
 62
     1
100
AcDbCircle
 10
2032.639628850143
 20
1573.38555215769
 30
0.0
 40
3.5
  0
CIRCLE
  5
8E1
330
1F
100
AcDbEntity
  8
BILD
  6
AUSGEZOGEN
 62
     1
100
AcDbCircle
 10
2032.639628850143
 20
1405.385430087691
 30
0.0
 40
3.5
  0
CIRCLE
  5
8E2
330
1F
100
AcDbEntity
  8
BILD
  6
AUSGEZOGEN
 62
     1
100
AcDbCircle
 10
2032.639628850143
 20
1433.385430087691
 30
0.0
 40
3.5
  0
CIRCLE
  5
8E3
330
1F
100
AcDbEntity
  8
BILD
  6
AUSGEZOGEN
 62
     1
100
AcDbCircle
 10
2032.639628850143
 20
1461.385430087691
 30
0.0
 40
3.5
  0
CIRCLE
  5
8E4
330
1F
100
AcDbEntity
  8
BILD
  6
AUSGEZOGEN
 62
     1
100
AcDbCircle
 10
2032.639628850143
 20
1489.385430087691
 30
0.0
 40
3.5
  0
CIRCLE
  5
8E5
330
1F
100
AcDbEntity
  8
BILD
  6
AUSGEZOGEN
 62
     1
100
AcDbCircle
 10
2032.639628850143
 20
1517.385430087691
 30
0.0
 40
3.5
  0
CIRCLE
  5
8E6
330
1F
100
AcDbEntity
  8
BILD
  6
AUSGEZOGEN
 62
     1
100
AcDbCircle
 10
1990.639628850143
 20
1685.385552157691
 30
0.0
 40
3.5
  0
CIRCLE
  5
8E7
330
1F
100
AcDbEntity
  8
BILD
  6
AUSGEZOGEN
 62
     1
100
AcDbCircle
 10
1990.639628850143
 20
1657.38555215769
 30
0.0
 40
3.5
  0
CIRCLE
  5
8E8
330
1F
100
AcDbEntity
  8
BILD
  6
AUSGEZOGEN
 62
     1
100
AcDbCircle
 10
1990.639628850143
 20
1629.385552157691
 30
0.0
 40
3.5
  0
CIRCLE
  5
8E9
330
1F
100
AcDbEntity
  8
BILD
  6
AUSGEZOGEN
 62
     1
100
AcDbCircle
 10
1990.639628850143
 20
1601.38555215769
 30
0.0
 40
3.5
  0
CIRCLE
  5
8EA
330
1F
100
AcDbEntity
  8
BILD
  6
AUSGEZOGEN
 62
     1
100
AcDbCircle
 10
1990.639628850143
 20
1573.38555215769
 30
0.0
 40
3.5
  0
CIRCLE
  5
8EB
330
1F
100
AcDbEntity
  8
BILD
  6
AUSGEZOGEN
 62
     1
100
AcDbCircle
 10
1990.639628850143
 20
1405.385430087691
 30
0.0
 40
3.5
  0
CIRCLE
  5
8EC
330
1F
100
AcDbEntity
  8
BILD
  6
AUSGEZOGEN
 62
     1
100
AcDbCircle
 10
1990.639628850143
 20
1433.385430087691
 30
0.0
 40
3.5
  0
CIRCLE
  5
8ED
330
1F
100
AcDbEntity
  8
BILD
  6
AUSGEZOGEN
 62
     1
100
AcDbCircle
 10
1990.639628850143
 20
1461.385430087691
 30
0.0
 40
3.5
  0
CIRCLE
  5
8EE
330
1F
100
AcDbEntity
  8
BILD
  6
AUSGEZOGEN
 62
     1
100
AcDbCircle
 10
1990.639628850143
 20
1489.385430087691
 30
0.0
 40
3.5
  0
CIRCLE
  5
8EF
330
1F
100
AcDbEntity
  8
BILD
  6
AUSGEZOGEN
 62
     1
100
AcDbCircle
 10
1990.639628850143
 20
1517.385430087691
 30
0.0
 40
3.5
  0
CIRCLE
  5
8F0
330
1F
100
AcDbEntity
  8
BILD
  6
AUSGEZOGEN
 62
     1
100
AcDbCircle
 10
1948.639628850143
 20
1685.385552157691
 30
0.0
 40
3.5
  0
CIRCLE
  5
8F1
330
1F
100
AcDbEntity
  8
BILD
  6
AUSGEZOGEN
 62
     1
100
AcDbCircle
 10
1948.639628850143
 20
1657.38555215769
 30
0.0
 40
3.5
  0
CIRCLE
  5
8F2
330
1F
100
AcDbEntity
  8
BILD
  6
AUSGEZOGEN
 62
     1
100
AcDbCircle
 10
1948.639628850143
 20
1629.385552157691
 30
0.0
 40
3.5
  0
CIRCLE
  5
8F3
330
1F
100
AcDbEntity
  8
BILD
  6
AUSGEZOGEN
 62
     1
100
AcDbCircle
 10
1948.639628850143
 20
1601.38555215769
 30
0.0
 40
3.5
  0
CIRCLE
  5
8F4
330
1F
100
AcDbEntity
  8
BILD
  6
AUSGEZOGEN
 62
     1
100
AcDbCircle
 10
1948.639628850143
 20
1573.38555215769
 30
0.0
 40
3.5
  0
CIRCLE
  5
8F5
330
1F
100
AcDbEntity
  8
BILD
  6
AUSGEZOGEN
 62
     1
100
AcDbCircle
 10
1948.639628850143
 20
1405.385430087691
 30
0.0
 40
3.5
  0
CIRCLE
  5
8F6
330
1F
100
AcDbEntity
  8
BILD
  6
AUSGEZOGEN
 62
     1
100
AcDbCircle
 10
1948.639628850143
 20
1433.385430087691
 30
0.0
 40
3.5
  0
CIRCLE
  5
8F7
330
1F
100
AcDbEntity
  8
BILD
  6
AUSGEZOGEN
 62
     1
100
AcDbCircle
 10
1948.639628850143
 20
1461.385430087691
 30
0.0
 40
3.5
  0
CIRCLE
  5
8F8
330
1F
100
AcDbEntity
  8
BILD
  6
AUSGEZOGEN
 62
     1
100
AcDbCircle
 10
1948.639628850143
 20
1489.385430087691
 30
0.0
 40
3.5
  0
CIRCLE
  5
8F9
330
1F
100
AcDbEntity
  8
BILD
  6
AUSGEZOGEN
 62
     1
100
AcDbCircle
 10
1948.639628850143
 20
1517.385430087691
 30
0.0
 40
3.5
  0
CIRCLE
  5
8FA
330
1F
100
AcDbEntity
  8
BILD
  6
AUSGEZOGEN
 62
     1
100
AcDbCircle
 10
1906.639628850143
 20
1685.385552157691
 30
0.0
 40
3.5
  0
CIRCLE
  5
8FB
330
1F
100
AcDbEntity
  8
BILD
  6
AUSGEZOGEN
 62
     1
100
AcDbCircle
 10
1906.639628850143
 20
1657.38555215769
 30
0.0
 40
3.5
  0
CIRCLE
  5
8FC
330
1F
100
AcDbEntity
  8
BILD
  6
AUSGEZOGEN
 62
     1
100
AcDbCircle
 10
1906.639628850143
 20
1629.385552157691
 30
0.0
 40
3.5
  0
CIRCLE
  5
8FD
330
1F
100
AcDbEntity
  8
BILD
  6
AUSGEZOGEN
 62
     1
100
AcDbCircle
 10
1906.639628850143
 20
1601.38555215769
 30
0.0
 40
3.5
  0
CIRCLE
  5
8FE
330
1F
100
AcDbEntity
  8
BILD
  6
AUSGEZOGEN
 62
     1
100
AcDbCircle
 10
1906.639628850143
 20
1573.38555215769
 30
0.0
 40
3.5
  0
CIRCLE
  5
8FF
330
1F
100
AcDbEntity
  8
BILD
  6
AUSGEZOGEN
 62
     1
100
AcDbCircle
 10
1906.639628850143
 20
1405.385430087691
 30
0.0
 40
3.5
  0
CIRCLE
  5
900
330
1F
100
AcDbEntity
  8
BILD
  6
AUSGEZOGEN
 62
     1
100
AcDbCircle
 10
1906.639628850143
 20
1433.385430087691
 30
0.0
 40
3.5
  0
CIRCLE
  5
901
330
1F
100
AcDbEntity
  8
BILD
  6
AUSGEZOGEN
 62
     1
100
AcDbCircle
 10
1906.639628850143
 20
1461.385430087691
 30
0.0
 40
3.5
  0
CIRCLE
  5
902
330
1F
100
AcDbEntity
  8
BILD
  6
AUSGEZOGEN
 62
     1
100
AcDbCircle
 10
1906.639628850143
 20
1489.385430087691
 30
0.0
 40
3.5
  0
CIRCLE
  5
903
330
1F
100
AcDbEntity
  8
BILD
  6
AUSGEZOGEN
 62
     1
100
AcDbCircle
 10
1906.639628850143
 20
1517.385430087691
 30
0.0
 40
3.5
  0
LINE
  5
904
330
1F
100
AcDbEntity
  8
BILD
  6
AUSGEZOGEN
 62
     1
100
AcDbLine
 10
2137.639628850143
 20
1709.885552157691
 30
0.0
 11
2139.639628850143
 21
1709.885552157691
 31
0.0
  0
LINE
  5
905
330
1F
100
AcDbEntity
  8
BILD
  6
AUSGEZOGEN
 62
     1
100
AcDbLine
 10
2137.639628850143
 20
1711.88555215769
 30
0.0
 11
2137.639628850143
 21
1709.885552157691
 31
0.0
  0
LINE
  5
906
330
1F
100
AcDbEntity
  8
BILD
  6
AUSGEZOGEN
 62
     1
100
AcDbLine
 10
2139.639628850143
 20
1709.885552157691
 30
0.0
 11
2139.639628850143
 21
1380.885552157691
 31
0.0
  0
LINE
  5
907
330
1F
100
AcDbEntity
  8
BILD
  6
AUSGEZOGEN
 62
     1
100
AcDbLine
 10
2137.639628850143
 20
1380.885552157691
 30
0.0
 11
2139.639628850143
 21
1380.885552157691
 31
0.0
  0
LINE
  5
908
330
1F
100
AcDbEntity
  8
BILD
  6
AUSGEZOGEN
 62
     1
100
AcDbLine
 10
2137.639628850143
 20
1380.885552157691
 30
0.0
 11
2137.639628850143
 21
1378.88555215769
 31
0.0
  0
CIRCLE
  5
909
330
1F
100
AcDbEntity
  8
BILD
  6
AUSGEZOGEN
 62
     1
100
AcDbCircle
 10
2116.639628850143
 20
1545.38555215769
 30
0.0
 40
3.5
  0
CIRCLE
  5
90A
330
1F
100
AcDbEntity
  8
BILD
  6
AUSGEZOGEN
 62
     1
100
AcDbCircle
 10
2074.639628850143
 20
1545.38555215769
 30
0.0
 40
3.5
  0
CIRCLE
  5
90B
330
1F
100
AcDbEntity
  8
BILD
  6
AUSGEZOGEN
 62
     1
100
AcDbCircle
 10
2032.639628850143
 20
1545.38555215769
 30
0.0
 40
3.5
  0
CIRCLE
  5
90C
330
1F
100
AcDbEntity
  8
BILD
  6
AUSGEZOGEN
 62
     1
100
AcDbCircle
 10
1990.639628850143
 20
1545.38555215769
 30
0.0
 40
3.5
  0
CIRCLE
  5
90D
330
1F
100
AcDbEntity
  8
BILD
  6
AUSGEZOGEN
 62
     1
100
AcDbCircle
 10
1948.639628850143
 20
1545.38555215769
 30
0.0
 40
3.5
  0
CIRCLE
  5
90E
330
1F
100
AcDbEntity
  8
BILD
  6
AUSGEZOGEN
 62
     1
100
AcDbCircle
 10
1906.639628850143
 20
1545.38555215769
 30
0.0
 40
3.5
  0
CIRCLE
  5
90F
330
1F
100
AcDbEntity
  8
BILD
  6
AUSGEZOGEN
 62
     1
100
AcDbCircle
 10
1864.639628850143
 20
1545.38555215769
 30
0.0
 40
3.5
  0
LINE
  5
910
330
1F
100
AcDbEntity
  8
BILD
  6
AUSGEZOGEN
 62
     1
100
AcDbLine
 10
1715.639628850143
 20
1709.885552157691
 30
0.0
 11
1717.639628850143
 21
1709.885552157691
 31
0.0
  0
LINE
  5
911
330
1F
100
AcDbEntity
  8
BILD
  6
AUSGEZOGEN
 62
     1
100
AcDbLine
 10
1717.639628850143
 20
1711.88555215769
 30
0.0
 11
1717.639628850143
 21
1709.885552157691
 31
0.0
  0
LINE
  5
912
330
1F
100
AcDbEntity
  8
BILD
  6
AUSGEZOGEN
 62
     1
100
AcDbLine
 10
1715.639628850143
 20
1709.885552157691
 30
0.0
 11
1715.639628850143
 21
1380.885552157691
 31
0.0
  0
LINE
  5
913
330
1F
100
AcDbEntity
  8
BILD
  6
AUSGEZOGEN
 62
     1
100
AcDbLine
 10
1717.639628850143
 20
1380.885552157691
 30
0.0
 11
1717.639628850143
 21
1378.88555215769
 31
0.0
  0
LINE
  5
914
330
1F
100
AcDbEntity
  8
BILD
  6
AUSGEZOGEN
 62
     1
100
AcDbLine
 10
1715.639628850143
 20
1380.885552157691
 30
0.0
 11
1717.639628850143
 21
1380.885552157691
 31
0.0
  0
LINE
  5
915
330
1F
100
AcDbEntity
  8
BILD
  6
AUSGEZOGEN
 62
     1
100
AcDbLine
 10
1717.639628850143
 20
1378.88555215769
 30
0.0
 11
2137.639628850143
 21
1378.88555215769
 31
0.0
  0
LINE
  5
916
330
1F
100
AcDbEntity
  8
BILD
  6
AUSGEZOGEN
 62
     1
100
AcDbLine
 10
1717.639628850143
 20
1711.88555215769
 30
0.0
 11
2137.639628850143
 21
1711.88555215769
 31
0.0
  0
CIRCLE
  5
917
330
1F
100
AcDbEntity
  8
BILD
  6
AUSGEZOGEN
 62
     1
100
AcDbCircle
 10
1822.639628850143
 20
1545.38555215769
 30
0.0
 40
3.5
  0
CIRCLE
  5
918
330
1F
100
AcDbEntity
  8
BILD
  6
AUSGEZOGEN
 62
     1
100
AcDbCircle
 10
1780.639628850143
 20
1545.38555215769
 30
0.0
 40
3.5
  0
CIRCLE
  5
919
330
1F
100
AcDbEntity
  8
BILD
  6
AUSGEZOGEN
 62
     1
100
AcDbCircle
 10
1738.639628850142
 20
1545.38555215769
 30
0.0
 40
3.5
  0
CIRCLE
  5
91A
330
1F
100
AcDbEntity
  8
BILD
  6
AUSGEZOGEN
 62
     1
100
AcDbCircle
 10
1936.86082026014
 20
2684.929497477691
 30
0.0
 40
59.47180175999999
  0
ARC
  5
91B
330
1F
100
AcDbEntity
  8
BILD
  6
AUSGEZOGEN
 62
     1
100
AcDbCircle
 10
1936.86082026014
 20
2684.929497477691
 30
0.0
 40
67.97180176000001
100
AcDbArc
 50
180.0
 51
331.0388183600062
  0
ARC
  5
91C
330
1F
100
AcDbEntity
  8
BILD
  6
AUSGEZOGEN
 62
     1
100
AcDbCircle
 10
1936.86082026014
 20
2684.929497477691
 30
0.0
 40
67.97180176000001
100
AcDbArc
 50
0.0
 51
180.0
  0
LINE
  5
91D
330
1F
100
AcDbEntity
  8
BILD
  6
AUSGEZOGEN
 62
     1
100
AcDbLine
 10
1868.889079530142
 20
2826.003472087692
 30
0.0
 11
1868.889079530142
 21
2684.929253337692
 31
0.0
  0
LINE
  5
91E
330
1F
100
AcDbEntity
  8
BILD
  6
AUSGEZOGEN
 62
     1
100
AcDbLine
 10
1877.389079530142
 20
2717.842583407692
 30
0.0
 11
1877.389079530142
 21
2826.003472087692
 31
0.0
  0
LINE
  5
91F
330
1F
100
AcDbEntity
  8
BILD
  6
AUSGEZOGEN
 62
     1
100
AcDbLine
 10
1889.139079530142
 20
2866.003472087692
 30
0.0
 11
1891.639079530142
 21
2866.003472087692
 31
0.0
  0
LINE
  5
920
330
1F
100
AcDbEntity
  8
BILD
  6
AUSGEZOGEN
 62
     1
100
AcDbLine
 10
1857.139079530142
 20
2866.003472087692
 30
0.0
 11
1854.639079530142
 21
2866.003472087692
 31
0.0
  0
LINE
  5
921
330
1F
100
AcDbEntity
  8
BILD
  6
AUSGEZOGEN
 62
     1
100
AcDbLine
 10
1885.639079530142
 20
2882.003472087692
 30
0.0
 11
1885.639079530142
 21
2898.503472087692
 31
0.0
  0
ARC
  5
922
330
1F
100
AcDbEntity
  8
BILD
  6
AUSGEZOGEN
 62
     1
100
AcDbCircle
 10
1883.139079530142
 20
2898.503472087692
 30
0.0
 40
2.500000239999999
100
AcDbArc
 50
90.0
 51
180.0
  0
LINE
  5
923
330
1F
100
AcDbEntity
  8
BILD
  6
AUSGEZOGEN
 62
     1
100
AcDbLine
 10
1880.639079530142
 20
2882.003472087692
 30
0.0
 11
1880.639079530142
 21
2898.503472087692
 31
0.0
  0
ARC
  5
924
330
1F
100
AcDbEntity
  8
BILD
  6
AUSGEZOGEN
 62
     1
100
AcDbCircle
 10
1883.139079530142
 20
2898.503472087692
 30
0.0
 40
2.500000239999999
100
AcDbArc
 50
0.0
 51
90.0
  0
LINE
  5
925
330
1F
100
AcDbEntity
  8
BILD
  6
AUSGEZOGEN
 62
     1
100
AcDbLine
 10
1860.639079530142
 20
2882.003472087692
 30
0.0
 11
1860.639079530142
 21
2898.503472087692
 31
0.0
  0
ARC
  5
926
330
1F
100
AcDbEntity
  8
BILD
  6
AUSGEZOGEN
 62
     1
100
AcDbCircle
 10
1863.139079530142
 20
2898.503472087692
 30
0.0
 40
2.500000239999999
100
AcDbArc
 50
0.0
 51
90.0
  0
LINE
  5
927
330
1F
100
AcDbEntity
  8
BILD
  6
AUSGEZOGEN
 62
     1
100
AcDbLine
 10
1865.639079530142
 20
2882.003472087692
 30
0.0
 11
1865.639079530142
 21
2898.503472087692
 31
0.0
  0
ARC
  5
928
330
1F
100
AcDbEntity
  8
BILD
  6
AUSGEZOGEN
 62
     1
100
AcDbCircle
 10
1863.139079530142
 20
2898.503472087692
 30
0.0
 40
2.500000239999999
100
AcDbArc
 50
90.0
 51
180.0
  0
LINE
  5
929
330
1F
100
AcDbEntity
  8
BILD
  6
AUSGEZOGEN
 62
     1
100
AcDbLine
 10
1857.139079530142
 20
2866.003472087692
 30
0.0
 11
1857.139079530142
 21
2882.003472087692
 31
0.0
  0
LINE
  5
92A
330
1F
100
AcDbEntity
  8
BILD
  6
AUSGEZOGEN
 62
     1
100
AcDbLine
 10
1889.139079530142
 20
2866.003472087692
 30
0.0
 11
1889.139079530142
 21
2882.003472087692
 31
0.0
  0
LINE
  5
92B
330
1F
100
AcDbEntity
  8
BILD
  6
AUSGEZOGEN
 62
     1
100
AcDbLine
 10
1852.139079530142
 20
2861.503472087692
 30
0.0
 11
1894.139079530142
 21
2861.503472087692
 31
0.0
  0
LINE
  5
92C
330
1F
100
AcDbEntity
  8
BILD
  6
AUSGEZOGEN
 62
     1
100
AcDbLine
 10
1852.139079530142
 20
2859.957085367691
 30
0.0
 11
1852.139079530142
 21
2861.503472087692
 31
0.0
  0
LINE
  5
92D
330
1F
100
AcDbEntity
  8
BILD
  6
AUSGEZOGEN
 62
     1
100
AcDbLine
 10
1873.139079530142
 20
2858.003472087692
 30
0.0
 11
1853.091472110141
 21
2858.958550207692
 31
0.0
  0
ARC
  5
92E
330
1F
100
AcDbEntity
  8
BILD
  6
AUSGEZOGEN
 62
     1
100
AcDbCircle
 10
1853.139079530142
 20
2859.957085367691
 30
0.0
 40
1.00001025
100
AcDbArc
 50
180.0
 51
267.2739257799541
  0
LINE
  5
92F
330
1F
100
AcDbEntity
  8
BILD
  6
AUSGEZOGEN
 62
     1
100
AcDbLine
 10
1894.139079530142
 20
2859.957085367691
 30
0.0
 11
1894.139079530142
 21
2861.503472087692
 31
0.0
  0
LINE
  5
930
330
1F
100
AcDbEntity
  8
BILD
  6
AUSGEZOGEN
 62
     1
100
AcDbLine
 10
1873.139079530142
 20
2858.003472087692
 30
0.0
 11
1893.18668695014
 21
2858.958061927691
 31
0.0
  0
ARC
  5
931
330
1F
100
AcDbEntity
  8
BILD
  6
AUSGEZOGEN
 62
     1
100
AcDbCircle
 10
1893.139079530142
 20
2859.957085367691
 30
0.0
 40
1.00001025
100
AcDbArc
 50
272.7260742200459
 51
359.9999389599784
  0
LINE
  5
932
330
1F
100
AcDbEntity
  8
BILD
  6
AUSGEZOGEN
 62
     1
100
AcDbLine
 10
1866.139079530142
 20
2826.003472087692
 30
0.0
 11
1865.139079530142
 21
2838.003472087692
 31
0.0
  0
LINE
  5
933
330
1F
100
AcDbEntity
  8
BILD
  6
AUSGEZOGEN
 62
     1
100
AcDbLine
 10
1880.139079530142
 20
2826.003472087692
 30
0.0
 11
1881.139079530142
 21
2838.003472087692
 31
0.0
  0
LINE
  5
934
330
1F
100
AcDbEntity
  8
BILD
  6
AUSGEZOGEN
 62
     1
100
AcDbLine
 10
1880.139079530142
 20
2826.003472087692
 30
0.0
 11
1866.139079530142
 21
2826.003472087692
 31
0.0
  0
LINE
  5
935
330
1F
100
AcDbEntity
  8
BILD
  6
AUSGEZOGEN
 62
     1
100
AcDbLine
 10
1865.639079530142
 20
2848.825737707692
 30
0.0
 11
1865.639079530142
 21
2847.065972087692
 31
0.0
  0
LINE
  5
936
330
1F
100
AcDbEntity
  8
BILD
  6
AUSGEZOGEN
 62
     1
100
AcDbLine
 10
1860.639079530142
 20
2839.003472087692
 30
0.0
 11
1860.639079530142
 21
2838.003472087692
 31
0.0
  0
ARC
  5
937
330
1F
100
AcDbEntity
  8
BILD
  6
AUSGEZOGEN
 62
     1
100
AcDbCircle
 10
1864.639079530142
 20
2839.003472087692
 30
0.0
 40
4.000000479999999
100
AcDbArc
 50
90.0
 51
180.0
  0
ARC
  5
938
330
1F
100
AcDbEntity
  8
BILD
  6
AUSGEZOGEN
 62
     1
100
AcDbCircle
 10
1860.639079530142
 20
2847.065972087692
 30
0.0
 40
5.000000479999999
100
AcDbArc
 50
296.3878784199433
 51
359.9999389599784
  0
ARC
  5
939
330
1F
100
AcDbEntity
  8
BILD
  6
AUSGEZOGEN
 62
     1
100
AcDbCircle
 10
1855.639079530142
 20
2848.825737707692
 30
0.0
 40
10.00000095
100
AcDbArc
 50
0.0
 51
87.27365112011108
  0
ARC
  5
93A
330
1F
100
AcDbEntity
  8
BILD
  6
AUSGEZOGEN
 62
     1
100
AcDbCircle
 10
1885.639079530142
 20
2847.065972087692
 30
0.0
 40
5.000000479999999
100
AcDbArc
 50
180.0000152599533
 51
243.6121215800567
  0
ARC
  5
93B
330
1F
100
AcDbEntity
  8
BILD
  6
AUSGEZOGEN
 62
     1
100
AcDbCircle
 10
1881.639079530142
 20
2839.003472087692
 30
0.0
 40
4.000000479999999
100
AcDbArc
 50
0.0
 51
90.0
  0
ARC
  5
93C
330
1F
100
AcDbEntity
  8
BILD
  6
AUSGEZOGEN
 62
     1
100
AcDbCircle
 10
1890.639079530142
 20
2848.825737707692
 30
0.0
 40
10.00000095
100
AcDbArc
 50
92.72634887988893
 51
180.0
  0
LINE
  5
93D
330
1F
100
AcDbEntity
  8
BILD
  6
AUSGEZOGEN
 62
     1
100
AcDbLine
 10
1885.639079530142
 20
2839.003472087692
 30
0.0
 11
1885.639079530142
 21
2838.003472087692
 31
0.0
  0
LINE
  5
93E
330
1F
100
AcDbEntity
  8
BILD
  6
AUSGEZOGEN
 62
     1
100
AcDbLine
 10
1881.639079530142
 20
2843.003472087692
 30
0.0
 11
1864.639079530142
 21
2843.003472087692
 31
0.0
  0
LINE
  5
93F
330
1F
100
AcDbEntity
  8
BILD
  6
AUSGEZOGEN
 62
     1
100
AcDbLine
 10
1885.639079530142
 20
2838.003472087692
 30
0.0
 11
1860.639079530142
 21
2838.003472087692
 31
0.0
  0
LINE
  5
940
330
1F
100
AcDbEntity
  8
BILD
  6
AUSGEZOGEN
 62
     1
100
AcDbLine
 10
1880.639079530142
 20
2848.825737707692
 30
0.0
 11
1880.639079530142
 21
2847.065972087692
 31
0.0
  0
LINE
  5
941
330
1F
100
AcDbEntity
  8
BILD
  6
AUSGEZOGEN
 62
     1
100
AcDbLine
 10
1871.139079530142
 20
2865.003472087692
 30
0.0
 11
1871.139079530142
 21
2882.003472087692
 31
0.0
  0
LINE
  5
942
330
1F
100
AcDbEntity
  8
BILD
  6
AUSGEZOGEN
 62
     1
100
AcDbLine
 10
1875.139079530142
 20
2865.003472087692
 30
0.0
 11
1875.139079530142
 21
2882.003472087692
 31
0.0
  0
LINE
  5
943
330
1F
100
AcDbEntity
  8
BILD
  6
AUSGEZOGEN
 62
     1
100
AcDbLine
 10
1871.139079530142
 20
2865.003472087692
 30
0.0
 11
1875.139079530142
 21
2865.003472087692
 31
0.0
  0
LINE
  5
944
330
1F
100
AcDbEntity
  8
BILD
  6
AUSGEZOGEN
 62
     1
100
AcDbLine
 10
1852.139079530142
 20
2861.503472087692
 30
0.0
 11
1853.139079530142
 21
2864.003472087692
 31
0.0
  0
LINE
  5
945
330
1F
100
AcDbEntity
  8
BILD
  6
AUSGEZOGEN
 62
     1
100
AcDbLine
 10
1854.639079530142
 20
2864.003472087692
 30
0.0
 11
1854.639079530142
 21
2882.003472087692
 31
0.0
  0
LINE
  5
946
330
1F
100
AcDbEntity
  8
BILD
  6
AUSGEZOGEN
 62
     1
100
AcDbLine
 10
1891.639079530142
 20
2882.003472087692
 30
0.0
 11
1854.639079530142
 21
2882.003472087692
 31
0.0
  0
LINE
  5
947
330
1F
100
AcDbEntity
  8
BILD
  6
AUSGEZOGEN
 62
     1
100
AcDbLine
 10
1891.639079530142
 20
2864.003472087692
 30
0.0
 11
1891.639079530142
 21
2882.003472087692
 31
0.0
  0
LINE
  5
948
330
1F
100
AcDbEntity
  8
BILD
  6
AUSGEZOGEN
 62
     1
100
AcDbLine
 10
1894.139079530142
 20
2861.503472087692
 30
0.0
 11
1893.139079530142
 21
2864.003472087692
 31
0.0
  0
LINE
  5
949
330
1F
100
AcDbEntity
  8
BILD
  6
AUSGEZOGEN
 62
     1
100
AcDbLine
 10
1893.139079530142
 20
2864.003472087692
 30
0.0
 11
1853.139079530142
 21
2864.003472087692
 31
0.0
  0
LINE
  5
94A
330
1F
100
AcDbEntity
  8
BILD
  6
AUSGEZOGEN
 62
     1
100
AcDbLine
 10
1912.139567810141
 20
2121.89739297769
 30
0.0
 11
1837.139445740141
 21
2121.89739297769
 31
0.0
  0
LINE
  5
94B
330
1F
100
AcDbEntity
  8
BILD
  6
AUSGEZOGEN
 62
     1
100
AcDbLine
 10
1837.139445740141
 20
2116.897392977691
 30
0.0
 11
1837.139445740141
 21
2121.89739297769
 31
0.0
  0
LINE
  5
94C
330
1F
100
AcDbEntity
  8
BILD
  6
AUSGEZOGEN
 62
     1
100
AcDbLine
 10
1962.139445740141
 20
2116.897392977691
 30
0.0
 11
1962.139445740141
 21
2121.89739297769
 31
0.0
  0
LINE
  5
94D
330
1F
100
AcDbEntity
  8
BILD
  6
AUSGEZOGEN
 62
     1
100
AcDbLine
 10
1976.718242130141
 20
2121.89739297769
 30
0.0
 11
1912.139567810141
 21
2121.89739297769
 31
0.0
  0
ARC
  5
94E
330
1F
100
AcDbEntity
  8
BILD
  6
AUSGEZOGEN
 62
     1
100
AcDbCircle
 10
1912.139567810141
 20
2117.22844766769
 30
0.0
 40
8.66892529
100
AcDbArc
 50
70.54241943014554
 51
109.4575805698544
  0
ARC
  5
94F
330
1F
100
AcDbEntity
  8
BILD
  6
AUSGEZOGEN
 62
     1
100
AcDbCircle
 10
1916.419352970141
 20
2123.692314857692
 30
0.0
 40
2.204967739999999
100
AcDbArc
 50
47.3235778800609
 51
129.1492614700388
  0
ARC
  5
950
330
1F
100
AcDbEntity
  8
BILD
  6
AUSGEZOGEN
 62
     1
100
AcDbCircle
 10
1907.859782660141
 20
2123.693291417693
 30
0.0
 40
2.204210279999999
100
AcDbArc
 50
50.83471679988623
 51
132.6936035199866
  0
LINE
  5
951
330
1F
100
AcDbEntity
  8
BILD
  6
AUSGEZOGEN
 62
     1
100
AcDbLine
 10
1907.859294380142
 20
2125.89739297769
 30
0.0
 11
1916.419841250144
 21
2125.89739297769
 31
0.0
  0
LINE
  5
952
330
1F
100
AcDbEntity
  8
BILD
  6
AUSGEZOGEN
 62
     1
100
AcDbLine
 10
1915.027263130142
 20
2122.392998447692
 30
0.0
 11
1915.027263130142
 21
2125.402275797692
 31
0.0
  0
LINE
  5
953
330
1F
100
AcDbEntity
  8
BILD
  6
AUSGEZOGEN
 62
     1
100
AcDbLine
 10
1909.251872500144
 20
2122.392998447692
 30
0.0
 11
1909.251872500144
 21
2125.402275797692
 31
0.0
  0
LINE
  5
954
330
1F
100
AcDbEntity
  8
BILD
  6
AUSGEZOGEN
 62
     1
100
AcDbLine
 10
1917.914470160141
 20
2122.48088907769
 30
0.0
 11
1917.914470160141
 21
2125.313896887691
 31
0.0
  0
LINE
  5
955
330
1F
100
AcDbEntity
  8
BILD
  6
AUSGEZOGEN
 62
     1
100
AcDbLine
 10
1906.364665470141
 20
2122.48088907769
 30
0.0
 11
1906.364665470141
 21
2125.313896887691
 31
0.0
  0
LINE
  5
956
330
1F
100
AcDbEntity
  8
BILD
  6
AUSGEZOGEN
 62
     1
100
AcDbLine
 10
1915.139567810141
 20
2131.097588297692
 30
0.0
 11
1909.139567810141
 21
2131.097588297692
 31
0.0
  0
LINE
  5
957
330
1F
100
AcDbEntity
  8
BILD
  6
AUSGEZOGEN
 62
     1
100
AcDbLine
 10
1909.139567810141
 20
2131.097588297692
 30
0.0
 11
1909.139567810141
 21
2125.89739297769
 31
0.0
  0
LINE
  5
958
330
1F
100
AcDbEntity
  8
BILD
  6
AUSGEZOGEN
 62
     1
100
AcDbLine
 10
1909.752849060141
 20
2125.89739297769
 30
0.0
 11
1909.752849060141
 21
2131.097588297692
 31
0.0
  0
LINE
  5
959
330
1F
100
AcDbEntity
  8
BILD
  6
AUSGEZOGEN
 62
     1
100
AcDbLine
 10
1914.52628656014
 20
2125.89739297769
 30
0.0
 11
1914.52628656014
 21
2131.097588297692
 31
0.0
  0
LINE
  5
95A
330
1F
100
AcDbEntity
  8
BILD
  6
AUSGEZOGEN
 62
     1
100
AcDbLine
 10
1915.139567810141
 20
2125.89739297769
 30
0.0
 11
1915.139567810141
 21
2131.097588297692
 31
0.0
  0
LINE
  5
95B
330
1F
100
AcDbEntity
  8
BILD
  6
AUSGEZOGEN
 62
     1
100
AcDbLine
 10
1906.889567810141
 20
2117.647392977691
 30
0.0
 11
1912.139567810141
 21
2117.647392977691
 31
0.0
  0
LINE
  5
95C
330
1F
100
AcDbEntity
  8
BILD
  6
AUSGEZOGEN
 62
     1
100
AcDbLine
 10
1912.139567810141
 20
2117.647392977691
 30
0.0
 11
1917.389567810141
 21
2117.647392977691
 31
0.0
  0
LINE
  5
95D
330
1F
100
AcDbEntity
  8
BILD
  6
AUSGEZOGEN
 62
     1
100
AcDbLine
 10
1906.889567810141
 20
2116.897392977691
 30
0.0
 11
1912.139567810141
 21
2116.897392977691
 31
0.0
  0
LINE
  5
95E
330
1F
100
AcDbEntity
  8
BILD
  6
AUSGEZOGEN
 62
     1
100
AcDbLine
 10
1912.139567810141
 20
2116.897392977691
 30
0.0
 11
1917.389567810141
 21
2116.897392977691
 31
0.0
  0
LINE
  5
95F
330
1F
100
AcDbEntity
  8
BILD
  6
GESTRICHELT
 62
     1
100
AcDbLine
 10
1910.139567810141
 20
2116.897392977691
 30
0.0
 11
1910.139567810141
 21
2118.497490637691
 31
0.0
  0
LINE
  5
960
330
1F
100
AcDbEntity
  8
BILD
  6
GESTRICHELT
 62
     1
100
AcDbLine
 10
1910.139567810141
 20
2118.497490637691
 30
0.0
 11
1914.13956781014
 21
2118.497490637691
 31
0.0
  0
LINE
  5
961
330
1F
100
AcDbEntity
  8
BILD
  6
GESTRICHELT
 62
     1
100
AcDbLine
 10
1914.13956781014
 20
2118.497490637691
 30
0.0
 11
1914.13956781014
 21
2116.897392977691
 31
0.0
  0
LINE
  5
962
330
1F
100
AcDbEntity
  8
BILD
  6
AUSGEZOGEN
 62
     1
100
AcDbLine
 10
1909.139567810141
 20
2121.89739297769
 30
0.0
 11
1909.139567810141
 21
2120.145928137691
 31
0.0
  0
LINE
  5
963
330
1F
100
AcDbEntity
  8
BILD
  6
AUSGEZOGEN
 62
     1
100
AcDbLine
 10
1915.139567810141
 20
2120.145928137691
 30
0.0
 11
1915.139567810141
 21
2121.89739297769
 31
0.0
  0
LINE
  5
964
330
1F
100
AcDbEntity
  8
BILD
  6
AUSGEZOGEN
 62
     1
100
AcDbLine
 10
1914.52628656014
 20
2119.897392977691
 30
0.0
 11
1909.752849060141
 21
2119.897392977691
 31
0.0
  0
ARC
  5
965
330
1F
100
AcDbEntity
  8
BILD
  6
AUSGEZOGEN
 62
     1
100
AcDbCircle
 10
1908.539470160141
 20
2120.145928137691
 30
0.0
 40
0.60009772
100
AcDbArc
 50
315.0000000001474
 51
0.0
  0
ARC
  5
966
330
1F
100
AcDbEntity
  8
BILD
  6
AUSGEZOGEN
 62
     1
100
AcDbCircle
 10
1915.739665470141
 20
2120.145928137691
 30
0.0
 40
0.60009772
100
AcDbArc
 50
180.0
 51
224.9999999998526
  0
LINE
  5
967
330
1F
100
AcDbEntity
  8
BILD
  6
AUSGEZOGEN
 62
     1
100
AcDbLine
 10
1917.389567810141
 20
2117.647392977691
 30
0.0
 11
1915.315349060141
 21
2119.72161172769
 31
0.0
  0
LINE
  5
968
330
1F
100
AcDbEntity
  8
BILD
  6
AUSGEZOGEN
 62
     1
100
AcDbLine
 10
1908.963786560141
 20
2119.72161172769
 30
0.0
 11
1906.889567810141
 21
2117.647392977691
 31
0.0
  0
LINE
  5
969
330
1F
100
AcDbEntity
  8
BILD
  6
AUSGEZOGEN
 62
     1
100
AcDbLine
 10
1917.389567810141
 20
2116.897392977691
 30
0.0
 11
1917.389567810141
 21
2117.647392977691
 31
0.0
  0
LINE
  5
96A
330
1F
100
AcDbEntity
  8
BILD
  6
AUSGEZOGEN
 62
     1
100
AcDbLine
 10
1906.889567810141
 20
2117.647392977691
 30
0.0
 11
1906.889567810141
 21
2116.897392977691
 31
0.0
  0
ARC
  5
96B
330
1F
100
AcDbEntity
  8
BILD
  6
AUSGEZOGEN
 62
     1
100
AcDbCircle
 10
1907.859294380142
 20
2124.10198282769
 30
0.0
 40
2.204518559999999
100
AcDbArc
 50
227.3243102999593
 51
309.1751098599065
  0
ARC
  5
96C
330
1F
100
AcDbEntity
  8
BILD
  6
AUSGEZOGEN
 62
     1
100
AcDbCircle
 10
1916.419841250144
 20
2124.10198282769
 30
0.0
 40
2.204518559999999
100
AcDbArc
 50
230.8249206499275
 51
312.6756897000407
  0
ARC
  5
96D
330
1F
100
AcDbEntity
  8
BILD
  6
AUSGEZOGEN
 62
     1
100
AcDbCircle
 10
1912.139567810141
 20
2130.559990637691
 30
0.0
 40
8.662480349999999
100
AcDbArc
 50
250.5273590100927
 51
289.469787599914
  0
POLYLINE
  5
96E
330
1F
100
AcDbEntity
  8
BILD
  6
AUSGEZOGEN
 62
     1
100
AcDb2dPolyline
 66
     1
 10
0.0
 20
0.0
 30
0.0
  0
VERTEX
  5
96F
330
96E
100
AcDbEntity
  8
BILD
  6
AUSGEZOGEN
 62
     1
100
AcDbVertex
100
AcDb2dVertex
 10
1923.994792420142
 20
2121.89739297769
 30
0.0
 42
0.005556077
 70
     2
 50
178.1703949
  0
VERTEX
  5
970
330
96E
100
AcDbEntity
  8
BILD
  6
AUSGEZOGEN
 62
     1
100
AcDbVertex
100
AcDb2dVertex
 10
1923.857219180144
 20
2121.618584387691
 30
0.0
 42
0.01024607
 70
     2
 50
244.37744141
  0
VERTEX
  5
971
330
96E
100
AcDbEntity
  8
BILD
  6
AUSGEZOGEN
 62
     1
100
AcDbVertex
100
AcDb2dVertex
 10
1923.63199945014
 20
2121.124199617693
 30
0.0
 42
0.01442405
 70
     2
 50
266.87750244
  0
VERTEX
  5
972
330
96E
100
AcDbEntity
  8
BILD
  6
AUSGEZOGEN
 62
     1
100
AcDbVertex
100
AcDb2dVertex
 10
1923.460368600144
 20
2120.69585489769
 30
0.0
 42
0.03399386
 70
     2
 50
289.37744141
  0
VERTEX
  5
973
330
96E
100
AcDbEntity
  8
BILD
  6
AUSGEZOGEN
 62
     1
100
AcDbVertex
100
AcDb2dVertex
 10
1923.368449650142
 20
2120.398735757691
 30
0.0
 42
0.04520032
 70
     2
 50
311.87744141
  0
VERTEX
  5
974
330
96E
100
AcDbEntity
  8
BILD
  6
AUSGEZOGEN
 62
     1
100
AcDbVertex
100
AcDb2dVertex
 10
1923.357341250144
 20
2120.322563877692
 30
0.0
 50
311.87744141
  0
SEQEND
  5
975
330
96E
100
AcDbEntity
  8
BILD
 62
     1
  0
POLYLINE
  5
976
330
1F
100
AcDbEntity
  8
BILD
  6
AUSGEZOGEN
 62
     1
100
AcDb2dPolyline
 66
     1
 10
0.0
 20
0.0
 30
0.0
  0
VERTEX
  5
977
330
976
100
AcDbEntity
  8
BILD
  6
AUSGEZOGEN
 62
     1
100
AcDbVertex
100
AcDb2dVertex
 10
1923.357463320143
 20
2120.322563877692
 30
0.0
 42
0.04040281
 70
     2
 50
209.93527222
  0
VERTEX
  5
978
330
976
100
AcDbEntity
  8
BILD
  6
AUSGEZOGEN
 62
     1
100
AcDbVertex
100
AcDb2dVertex
 10
1923.36393305014
 20
2120.215264077691
 30
0.0
 42
0.03575298
 70
     2
 50
246.57824707
  0
VERTEX
  5
979
330
976
100
AcDbEntity
  8
BILD
  6
AUSGEZOGEN
 62
     1
100
AcDbVertex
100
AcDb2dVertex
 10
1923.408488710142
 20
2120.005791417693
 30
0.0
 42
0.02602572
 70
     2
 50
269.07824707
  0
VERTEX
  5
97A
330
976
100
AcDbEntity
  8
BILD
  6
AUSGEZOGEN
 62
     1
100
AcDbVertex
100
AcDb2dVertex
 10
1923.488444770141
 20
2119.769707437691
 30
0.0
 42
0.02602572
 70
     2
 50
291.57824707
  0
VERTEX
  5
97B
330
976
100
AcDbEntity
  8
BILD
  6
AUSGEZOGEN
 62
     1
100
AcDbVertex
100
AcDb2dVertex
 10
1923.591655220142
 20
2119.542656657693
 30
0.0
 42
0.0104449
 70
     2
 50
314.07824707
  0
VERTEX
  5
97C
330
976
100
AcDbEntity
  8
BILD
  6
AUSGEZOGEN
 62
     1
100
AcDbVertex
100
AcDb2dVertex
 10
1923.629619080141
 20
2119.473320717693
 30
0.0
 50
314.07824707
  0
SEQEND
  5
97D
330
976
100
AcDbEntity
  8
BILD
 62
     1
  0
POLYLINE
  5
97E
330
1F
100
AcDbEntity
  8
BILD
  6
AUSGEZOGEN
 62
     1
100
AcDb2dPolyline
 66
     1
 10
0.0
 20
0.0
 30
0.0
  0
VERTEX
  5
97F
330
97E
100
AcDbEntity
  8
BILD
  6
AUSGEZOGEN
 62
     1
100
AcDbVertex
100
AcDb2dVertex
 10
1923.904765570144
 20
2118.623955477691
 30
0.0
 42
0.03969047
 70
     2
 50
29.93664551
  0
VERTEX
  5
980
330
97E
100
AcDbEntity
  8
BILD
  6
AUSGEZOGEN
 62
     1
100
AcDbVertex
100
AcDb2dVertex
 10
1923.897563420142
 20
2118.730644937691
 30
0.0
 42
0.03524074
 70
     2
 50
66.68551636
  0
VERTEX
  5
981
330
97E
100
AcDbEntity
  8
BILD
  6
AUSGEZOGEN
 62
     1
100
AcDbVertex
100
AcDb2dVertex
 10
1923.85209223014
 20
2118.939995517691
 30
0.0
 42
0.02563081
 70
     2
 50
89.18548583999999
  0
VERTEX
  5
982
330
97E
100
AcDbEntity
  8
BILD
  6
AUSGEZOGEN
 62
     1
100
AcDbVertex
100
AcDb2dVertex
 10
1923.771403750144
 20
2119.17620157769
 30
0.0
 42
0.02563081
 70
     2
 50
111.6854858399999
  0
VERTEX
  5
983
330
97E
100
AcDbEntity
  8
BILD
  6
AUSGEZOGEN
 62
     1
100
AcDbVertex
100
AcDb2dVertex
 10
1923.667888130142
 20
2119.403252357693
 30
0.0
 42
0.01037765
 70
     2
 50
134.18548584
  0
VERTEX
  5
984
330
97E
100
AcDbEntity
  8
BILD
  6
AUSGEZOGEN
 62
     1
100
AcDbVertex
100
AcDb2dVertex
 10
1923.62955805014
 20
2119.47319864769
 30
0.0
 50
134.18548584
  0
SEQEND
  5
985
330
97E
100
AcDbEntity
  8
BILD
 62
     1
  0
POLYLINE
  5
986
330
1F
100
AcDbEntity
  8
BILD
  6
AUSGEZOGEN
 62
     1
100
AcDb2dPolyline
 66
     1
 10
0.0
 20
0.0
 30
0.0
  0
VERTEX
  5
987
330
986
100
AcDbEntity
  8
BILD
  6
AUSGEZOGEN
 62
     1
100
AcDbVertex
100
AcDb2dVertex
 10
1923.267375430144
 20
2116.897270907691
 30
0.0
 42
0.005302137
 70
     2
 50
358.6461792
  0
VERTEX
  5
988
330
986
100
AcDbEntity
  8
BILD
  6
AUSGEZOGEN
 62
     1
100
AcDbVertex
100
AcDb2dVertex
 10
1923.407084900141
 20
2117.208061927692
 30
0.0
 42
0.009645469
 70
     2
 50
66.38140869
  0
VERTEX
  5
989
330
986
100
AcDbEntity
  8
BILD
  6
AUSGEZOGEN
 62
     1
100
AcDbVertex
100
AcDb2dVertex
 10
1923.632487740143
 20
2117.75054239769
 30
0.0
 42
0.01358575
 70
     2
 50
88.88143920999999
  0
VERTEX
  5
98A
330
986
100
AcDbEntity
  8
BILD
  6
AUSGEZOGEN
 62
     1
100
AcDbVertex
100
AcDb2dVertex
 10
1923.803569280143
 20
2118.21929239769
 30
0.0
 42
0.03210411
 70
     2
 50
111.38140869
  0
VERTEX
  5
98B
330
986
100
AcDbEntity
  8
BILD
  6
AUSGEZOGEN
 62
     1
100
AcDbVertex
100
AcDb2dVertex
 10
1923.894328560142
 20
2118.542656657693
 30
0.0
 42
0.04185149
 70
     2
 50
133.88140869
  0
VERTEX
  5
98C
330
986
100
AcDbEntity
  8
BILD
  6
AUSGEZOGEN
 62
     1
100
AcDbVertex
100
AcDb2dVertex
 10
1923.904765570144
 20
2118.623833407691
 30
0.0
 50
133.88140869
  0
SEQEND
  5
98D
330
986
100
AcDbEntity
  8
BILD
 62
     1
  0
POLYLINE
  5
98E
330
1F
100
AcDbEntity
  8
BILD
  6
AUSGEZOGEN
 62
     1
100
AcDb2dPolyline
 66
     1
 10
0.0
 20
0.0
 30
0.0
  0
VERTEX
  5
98F
330
98E
100
AcDbEntity
  8
BILD
  6
AUSGEZOGEN
 62
     1
100
AcDbVertex
100
AcDb2dVertex
 10
1900.921672310143
 20
2120.322563877692
 30
0.0
 42
0.04519689
 70
     2
 50
26.89590454
  0
VERTEX
  5
990
330
98E
100
AcDbEntity
  8
BILD
  6
AUSGEZOGEN
 62
     1
100
AcDbVertex
100
AcDb2dVertex
 10
1900.910563910141
 20
2120.39885782769
 30
0.0
 42
0.03399396
 70
     2
 50
48.12258911
  0
VERTEX
  5
991
330
98E
100
AcDbEntity
  8
BILD
  6
AUSGEZOGEN
 62
     1
100
AcDbVertex
100
AcDb2dVertex
 10
1900.818644960142
 20
2120.69585489769
 30
0.0
 42
0.01442415
 70
     2
 50
70.62258911
  0
VERTEX
  5
992
330
98E
100
AcDbEntity
  8
BILD
  6
AUSGEZOGEN
 62
     1
100
AcDbVertex
100
AcDb2dVertex
 10
1900.647014100142
 20
2121.124199617693
 30
0.0
 42
0.01024607
 70
     2
 50
93.12265014999999
  0
VERTEX
  5
993
330
98E
100
AcDbEntity
  8
BILD
  6
AUSGEZOGEN
 62
     1
100
AcDbVertex
100
AcDb2dVertex
 10
1900.421794380142
 20
2121.618584387691
 30
0.0
 42
0.00555621
 70
     2
 50
115.62255859
  0
VERTEX
  5
994
330
98E
100
AcDbEntity
  8
BILD
  6
AUSGEZOGEN
 62
     1
100
AcDbVertex
100
AcDb2dVertex
 10
1900.28422113014
 20
2121.89739297769
 30
0.0
 50
115.62255859
  0
SEQEND
  5
995
330
98E
100
AcDbEntity
  8
BILD
 62
     1
  0
POLYLINE
  5
996
330
1F
100
AcDbEntity
  8
BILD
  6
AUSGEZOGEN
 62
     1
100
AcDb2dPolyline
 66
     1
 10
0.0
 20
0.0
 30
0.0
  0
VERTEX
  5
997
330
996
100
AcDbEntity
  8
BILD
  6
AUSGEZOGEN
 62
     1
100
AcDbVertex
100
AcDb2dVertex
 10
1900.649516540144
 20
2119.473320717693
 30
0.0
 42
0.0104449
 70
     2
 50
1.830200199999999
  0
VERTEX
  5
998
330
996
100
AcDbEntity
  8
BILD
  6
AUSGEZOGEN
 62
     1
100
AcDbVertex
100
AcDb2dVertex
 10
1900.68748041014
 20
2119.542656657693
 30
0.0
 42
0.02602576
 70
     2
 50
45.92178345
  0
VERTEX
  5
999
330
996
100
AcDbEntity
  8
BILD
  6
AUSGEZOGEN
 62
     1
100
AcDbVertex
100
AcDb2dVertex
 10
1900.790690860141
 20
2119.769707437691
 30
0.0
 42
0.02602576
 70
     2
 50
68.42175293
  0
VERTEX
  5
99A
330
996
100
AcDbEntity
  8
BILD
  6
AUSGEZOGEN
 62
     1
100
AcDbVertex
100
AcDb2dVertex
 10
1900.870646920143
 20
2120.005791417693
 30
0.0
 42
0.03575298
 70
     2
 50
90.92181395999999
  0
VERTEX
  5
99B
330
996
100
AcDbEntity
  8
BILD
  6
AUSGEZOGEN
 62
     1
100
AcDbVertex
100
AcDb2dVertex
 10
1900.915202580142
 20
2120.215264077691
 30
0.0
 42
0.04040294
 70
     2
 50
113.42178345
  0
VERTEX
  5
99C
330
996
100
AcDbEntity
  8
BILD
  6
AUSGEZOGEN
 62
     1
100
AcDbVertex
100
AcDb2dVertex
 10
1900.921672310143
 20
2120.322563877692
 30
0.0
 50
113.42178345
  0
SEQEND
  5
99D
330
996
100
AcDbEntity
  8
BILD
 62
     1
  0
POLYLINE
  5
99E
330
1F
100
AcDbEntity
  8
BILD
  6
AUSGEZOGEN
 62
     1
100
AcDb2dPolyline
 66
     1
 10
0.0
 20
0.0
 30
0.0
  0
VERTEX
  5
99F
330
99E
100
AcDbEntity
  8
BILD
  6
AUSGEZOGEN
 62
     1
100
AcDbVertex
100
AcDb2dVertex
 10
1900.649455510142
 20
2119.47319864769
 30
0.0
 42
0.01037755
 70
     2
 50
181.35227966
  0
VERTEX
  5
9A0
330
99E
100
AcDbEntity
  8
BILD
  6
AUSGEZOGEN
 62
     1
100
AcDbVertex
100
AcDb2dVertex
 10
1900.611125430144
 20
2119.403252357693
 30
0.0
 42
0.02563085
 70
     2
 50
225.8144989000001
  0
VERTEX
  5
9A1
330
99E
100
AcDbEntity
  8
BILD
  6
AUSGEZOGEN
 62
     1
100
AcDbVertex
100
AcDb2dVertex
 10
1900.507609810142
 20
2119.17620157769
 30
0.0
 42
0.02563085
 70
     2
 50
248.31451416
  0
VERTEX
  5
9A2
330
99E
100
AcDbEntity
  8
BILD
  6
AUSGEZOGEN
 62
     1
100
AcDbVertex
100
AcDb2dVertex
 10
1900.426921330142
 20
2118.939995517691
 30
0.0
 42
0.03524074
 70
     2
 50
270.81454468
  0
VERTEX
  5
9A3
330
99E
100
AcDbEntity
  8
BILD
  6
AUSGEZOGEN
 62
     1
100
AcDbVertex
100
AcDb2dVertex
 10
1900.381450140144
 20
2118.730644937691
 30
0.0
 42
0.0396908
 70
     2
 50
293.31451416
  0
VERTEX
  5
9A4
330
99E
100
AcDbEntity
  8
BILD
  6
AUSGEZOGEN
 62
     1
100
AcDbVertex
100
AcDb2dVertex
 10
1900.374247990142
 20
2118.623833407691
 30
0.0
 50
293.31451416
  0
SEQEND
  5
9A5
330
99E
100
AcDbEntity
  8
BILD
 62
     1
  0
POLYLINE
  5
9A6
330
1F
100
AcDbEntity
  8
BILD
  6
AUSGEZOGEN
 62
     1
100
AcDb2dPolyline
 66
     1
 10
0.0
 20
0.0
 30
0.0
  0
VERTEX
  5
9A7
330
9A6
100
AcDbEntity
  8
BILD
  6
AUSGEZOGEN
 62
     1
100
AcDbVertex
100
AcDb2dVertex
 10
1900.374247990142
 20
2118.623833407691
 30
0.0
 42
0.04184915
 70
     2
 50
204.83372498
  0
VERTEX
  5
9A8
330
9A6
100
AcDbEntity
  8
BILD
  6
AUSGEZOGEN
 62
     1
100
AcDbVertex
100
AcDb2dVertex
 10
1900.384685000144
 20
2118.542656657693
 30
0.0
 42
0.03210411
 70
     2
 50
226.11859131
  0
VERTEX
  5
9A9
330
9A6
100
AcDbEntity
  8
BILD
  6
AUSGEZOGEN
 62
     1
100
AcDbVertex
100
AcDb2dVertex
 10
1900.475444280143
 20
2118.21929239769
 30
0.0
 42
0.01358569
 70
     2
 50
248.61859131
  0
VERTEX
  5
9AA
330
9A6
100
AcDbEntity
  8
BILD
  6
AUSGEZOGEN
 62
     1
100
AcDbVertex
100
AcDb2dVertex
 10
1900.646525820143
 20
2117.75054239769
 30
0.0
 42
0.009645537
 70
     2
 50
271.11859131
  0
VERTEX
  5
9AB
330
9A6
100
AcDbEntity
  8
BILD
  6
AUSGEZOGEN
 62
     1
100
AcDbVertex
100
AcDb2dVertex
 10
1900.871928650141
 20
2117.208061927692
 30
0.0
 42
0.005302104
 70
     2
 50
293.61859131
  0
VERTEX
  5
9AC
330
9A6
100
AcDbEntity
  8
BILD
  6
AUSGEZOGEN
 62
     1
100
AcDbVertex
100
AcDb2dVertex
 10
1901.01169916014
 20
2116.897270907691
 30
0.0
 50
293.61859131
  0
SEQEND
  5
9AD
330
9A6
100
AcDbEntity
  8
BILD
 62
     1
  0
LINE
  5
9AE
330
1F
100
AcDbEntity
  8
BILD
  6
GESTRICHELT
 62
     1
100
AcDbLine
 10
1911.139567810141
 20
2116.897392977691
 30
0.0
 11
1911.139567810141
 21
2118.497490637691
 31
0.0
  0
LINE
  5
9AF
330
1F
100
AcDbEntity
  8
BILD
  6
GESTRICHELT
 62
     1
100
AcDbLine
 10
1913.139567810141
 20
2116.897392977691
 30
0.0
 11
1913.139567810141
 21
2118.497490637691
 31
0.0
  0
LINE
  5
9B0
330
1F
100
AcDbEntity
  8
BILD
  6
GESTRICHELT
 62
     1
100
AcDbLine
 10
1910.139567810141
 20
2118.497490637691
 30
0.0
 11
1912.137614690139
 21
2119.323662517693
 31
0.0
  0
LINE
  5
9B1
330
1F
100
AcDbEntity
  8
BILD
  6
GESTRICHELT
 62
     1
100
AcDbLine
 10
1914.13956781014
 20
2118.497490637691
 30
0.0
 11
1912.137614690139
 21
2119.323662517693
 31
0.0
  0
ARC
  5
9B2
330
1F
100
AcDbEntity
  8
BILD
  6
AUSGEZOGEN
 62
     1
100
AcDbCircle
 10
2082.168559510142
 20
2470.307671297691
 30
0.0
 40
1.228882669999999
100
AcDbArc
 50
90.00000762997665
 51
270.0
  0
LINE
  5
9B3
330
1F
100
AcDbEntity
  8
BILD
  6
AUSGEZOGEN
 62
     1
100
AcDbLine
 10
2082.168559510142
 20
2471.536675207692
 30
0.0
 11
2100.939677680141
 21
2471.536675207692
 31
0.0
  0
LINE
  5
9B4
330
1F
100
AcDbEntity
  8
BILD
  6
AUSGEZOGEN
 62
     1
100
AcDbLine
 10
2082.168559510142
 20
2469.078911537692
 30
0.0
 11
2100.939677680141
 21
2469.078911537692
 31
0.0
  0
ARC
  5
9B5
330
1F
100
AcDbEntity
  8
BILD
  6
AUSGEZOGEN
 62
     1
100
AcDbCircle
 10
2082.452861270141
 20
2466.785698647691
 30
0.0
 40
1.51321495
100
AcDbArc
 50
90.00000762997665
 51
270.0
  0
LINE
  5
9B6
330
1F
100
AcDbEntity
  8
BILD
  6
AUSGEZOGEN
 62
     1
100
AcDbLine
 10
2082.452861270141
 20
2468.298638097691
 30
0.0
 11
2100.939677680141
 21
2468.298638097691
 31
0.0
  0
LINE
  5
9B7
330
1F
100
AcDbEntity
  8
BILD
  6
AUSGEZOGEN
 62
     1
100
AcDbLine
 10
2082.452861270141
 20
2465.272270907691
 30
0.0
 11
2100.939677680141
 21
2465.272270907691
 31
0.0
  0
LINE
  5
9B8
330
1F
100
AcDbEntity
  8
BILD
  6
AUSGEZOGEN
 62
     1
100
AcDbLine
 10
2082.68894526014
 20
2463.263481847691
 30
0.0
 11
2100.939677680141
 21
2463.263481847691
 31
0.0
  0
ARC
  5
9B9
330
1F
100
AcDbEntity
  8
BILD
  6
AUSGEZOGEN
 62
     1
100
AcDbCircle
 10
2082.68894526014
 20
2461.514214267693
 30
0.0
 40
1.74923801
100
AcDbArc
 50
89.99997710986162
 51
270.0
  0
ARC
  5
9BA
330
1F
100
AcDbEntity
  8
BILD
  6
AUSGEZOGEN
 62
     1
100
AcDbCircle
 10
2082.846904240142
 20
2455.003227947691
 30
0.0
 40
1.907197359999999
100
AcDbArc
 50
90.00000762997665
 51
270.0
  0
LINE
  5
9BB
330
1F
100
AcDbEntity
  8
BILD
  6
AUSGEZOGEN
 62
     1
100
AcDbLine
 10
2082.846904240142
 20
2456.91021036769
 30
0.0
 11
2100.939677680141
 21
2456.91021036769
 31
0.0
  0
LINE
  5
9BC
330
1F
100
AcDbEntity
  8
BILD
  6
AUSGEZOGEN
 62
     1
100
AcDbLine
 10
2082.68894526014
 20
2459.764946697691
 30
0.0
 11
2100.939677680141
 21
2459.764946697691
 31
0.0
  0
LINE
  5
9BD
330
1F
100
AcDbEntity
  8
BILD
  6
AUSGEZOGEN
 62
     1
100
AcDbLine
 10
2082.846904240142
 20
2453.096001377691
 30
0.0
 11
2100.939677680141
 21
2453.096001377691
 31
0.0
  0
LINE
  5
9BE
330
1F
100
AcDbEntity
  8
BILD
  6
AUSGEZOGEN
 62
     1
100
AcDbLine
 10
2100.939677680141
 20
2472.647515047691
 30
0.0
 11
2100.939677680141
 21
2423.147270907691
 31
0.0
  0
LINE
  5
9BF
330
1F
100
AcDbEntity
  8
BILD
  6
AUSGEZOGEN
 62
     1
100
AcDbLine
 10
2100.939677680141
 20
2449.897270907692
 30
0.0
 11
2082.939677680141
 21
2449.897270907692
 31
0.0
  0
ARC
  5
9C0
330
1F
100
AcDbEntity
  8
BILD
  6
AUSGEZOGEN
 62
     1
100
AcDbCircle
 10
2082.939677680141
 20
2447.897515047691
 30
0.0
 40
2.000001189999999
100
AcDbArc
 50
90.00000762997665
 51
180.0
  0
LINE
  5
9C1
330
1F
100
AcDbEntity
  8
BILD
  6
AUSGEZOGEN
 62
     1
100
AcDbLine
 10
2100.939677680141
 20
2423.147270907691
 30
0.0
 11
2100.939677680141
 21
2472.647270907692
 31
0.0
  0
ARC
  5
9C2
330
1F
100
AcDbEntity
  8
BILD
  6
AUSGEZOGEN
 62
     1
100
AcDbCircle
 10
2082.168559510142
 20
2425.487114657692
 30
0.0
 40
1.228882669999999
100
AcDbArc
 50
90.00000762997665
 51
270.0
  0
ARC
  5
9C3
330
1F
100
AcDbEntity
  8
BILD
  6
AUSGEZOGEN
 62
     1
100
AcDbCircle
 10
2082.452861270141
 20
2429.009331457692
 30
0.0
 40
1.51321495
100
AcDbArc
 50
90.00000762997665
 51
270.0
  0
ARC
  5
9C4
330
1F
100
AcDbEntity
  8
BILD
  6
AUSGEZOGEN
 62
     1
100
AcDbCircle
 10
2082.68894526014
 20
2434.280571697691
 30
0.0
 40
1.74923801
100
AcDbArc
 50
89.99997710986162
 51
270.0
  0
ARC
  5
9C5
330
1F
100
AcDbEntity
  8
BILD
  6
AUSGEZOGEN
 62
     1
100
AcDbCircle
 10
2082.846904240142
 20
2440.791558017691
 30
0.0
 40
1.907197359999999
100
AcDbArc
 50
90.00000762997665
 51
270.0
  0
LINE
  5
9C6
330
1F
100
AcDbEntity
  8
BILD
  6
AUSGEZOGEN
 62
     1
100
AcDbLine
 10
2082.168559510142
 20
2424.258110757692
 30
0.0
 11
2100.939677680141
 21
2424.258110757692
 31
0.0
  0
LINE
  5
9C7
330
1F
100
AcDbEntity
  8
BILD
  6
AUSGEZOGEN
 62
     1
100
AcDbLine
 10
2082.168559510142
 20
2426.715874427691
 30
0.0
 11
2100.939677680141
 21
2426.715874427691
 31
0.0
  0
LINE
  5
9C8
330
1F
100
AcDbEntity
  8
BILD
  6
AUSGEZOGEN
 62
     1
100
AcDbLine
 10
2082.452861270141
 20
2427.495903727692
 30
0.0
 11
2100.939677680141
 21
2427.495903727692
 31
0.0
  0
LINE
  5
9C9
330
1F
100
AcDbEntity
  8
BILD
  6
AUSGEZOGEN
 62
     1
100
AcDbLine
 10
2082.452861270141
 20
2430.522270907692
 30
0.0
 11
2100.939677680141
 21
2430.522270907692
 31
0.0
  0
LINE
  5
9CA
330
1F
100
AcDbEntity
  8
BILD
  6
AUSGEZOGEN
 62
     1
100
AcDbLine
 10
2082.68894526014
 20
2432.531304117691
 30
0.0
 11
2100.939677680141
 21
2432.531304117691
 31
0.0
  0
LINE
  5
9CB
330
1F
100
AcDbEntity
  8
BILD
  6
AUSGEZOGEN
 62
     1
100
AcDbLine
 10
2082.846904240142
 20
2438.884331457692
 30
0.0
 11
2100.939677680141
 21
2438.884331457692
 31
0.0
  0
LINE
  5
9CC
330
1F
100
AcDbEntity
  8
BILD
  6
AUSGEZOGEN
 62
     1
100
AcDbLine
 10
2082.68894526014
 20
2436.029595127692
 30
0.0
 11
2100.939677680141
 21
2436.029595127692
 31
0.0
  0
LINE
  5
9CD
330
1F
100
AcDbEntity
  8
BILD
  6
AUSGEZOGEN
 62
     1
100
AcDbLine
 10
2082.846904240142
 20
2442.698784587692
 30
0.0
 11
2100.939677680141
 21
2442.698784587692
 31
0.0
  0
LINE
  5
9CE
330
1F
100
AcDbEntity
  8
BILD
  6
AUSGEZOGEN
 62
     1
100
AcDbLine
 10
2100.939677680141
 20
2445.897270907692
 30
0.0
 11
2082.939677680141
 21
2445.897270907692
 31
0.0
  0
ARC
  5
9CF
330
1F
100
AcDbEntity
  8
BILD
  6
AUSGEZOGEN
 62
     1
100
AcDbCircle
 10
2082.939677680141
 20
2447.897515047691
 30
0.0
 40
2.000001189999999
100
AcDbArc
 50
180.0
 51
270.0
  0
LINE
  5
9D0
330
1F
100
AcDbEntity
  8
BILD
  6
AUSGEZOGEN
 62
     1
100
AcDbLine
 10
2100.939677680141
 20
2423.147270907691
 30
0.0
 11
2079.939677680141
 21
2423.147270907691
 31
0.0
  0
ARC
  5
9D1
330
1F
100
AcDbEntity
  8
BILD
  6
AUSGEZOGEN
 62
     1
100
AcDbCircle
 10
2079.939677680141
 20
2425.147515047691
 30
0.0
 40
2.000001189999999
100
AcDbArc
 50
180.0
 51
270.0
  0
LINE
  5
9D2
330
1F
100
AcDbEntity
  8
BILD
  6
AUSGEZOGEN
 62
     1
100
AcDbLine
 10
2100.939677680141
 20
2472.647270907692
 30
0.0
 11
2079.939677680141
 21
2472.647270907692
 31
0.0
  0
ARC
  5
9D3
330
1F
100
AcDbEntity
  8
BILD
  6
AUSGEZOGEN
 62
     1
100
AcDbCircle
 10
2079.939677680141
 20
2470.647270907692
 30
0.0
 40
2.000001189999999
100
AcDbArc
 50
90.00000762997665
 51
180.0
  0
LINE
  5
9D4
330
1F
100
AcDbEntity
  8
BILD
  6
AUSGEZOGEN
 62
     1
100
AcDbLine
 10
2077.939677680141
 20
2470.647270907692
 30
0.0
 11
2077.939677680141
 21
2425.147270907692
 31
0.0
  0
ARC
  5
9D5
330
1F
100
AcDbEntity
  8
BILD
  6
AUSGEZOGEN
 62
     1
100
AcDbCircle
 10
2065.439677680141
 20
2430.397515047691
 30
0.0
 40
5.00000286
100
AcDbArc
 50
90.00000762997665
 51
180.0
  0
ARC
  5
9D6
330
1F
100
AcDbEntity
  8
BILD
  6
AUSGEZOGEN
 62
     1
100
AcDbCircle
 10
2065.439677680141
 20
2430.397515047691
 30
0.0
 40
30.00001907
100
AcDbArc
 50
90.00000762997665
 51
180.0
  0
LINE
  5
9D7
330
1F
100
AcDbEntity
  8
BILD
  6
AUSGEZOGEN
 62
     1
100
AcDbLine
 10
2035.439616640143
 20
2430.397270907692
 30
0.0
 11
2035.439616640143
 21
2417.897270907692
 31
0.0
  0
LINE
  5
9D8
330
1F
100
AcDbEntity
  8
BILD
  6
AUSGEZOGEN
 62
     1
100
AcDbLine
 10
2060.439616640143
 20
2430.397270907692
 30
0.0
 11
2060.439616640143
 21
2417.897515047691
 31
0.0
  0
LINE
  5
9D9
330
1F
100
AcDbEntity
  8
BILD
  6
AUSGEZOGEN
 62
     1
100
AcDbLine
 10
2077.939677680141
 20
2460.397270907692
 30
0.0
 11
2065.439677680141
 21
2460.397270907692
 31
0.0
  0
LINE
  5
9DA
330
1F
100
AcDbEntity
  8
BILD
  6
AUSGEZOGEN
 62
     1
100
AcDbLine
 10
2077.939677680141
 20
2435.397270907692
 30
0.0
 11
2065.439677680141
 21
2435.397270907692
 31
0.0
  0
LINE
  5
9DB
330
1F
100
AcDbEntity
  8
BILD
  6
MITTE
 62
     1
100
AcDbLine
 10
2174.588237250141
 20
2447.897270907692
 30
0.0
 11
2065.439616640143
 21
2447.897515047691
 31
0.0
  0
LINE
  5
9DC
330
1F
100
AcDbEntity
  8
BILD
  6
AUSGEZOGEN
 62
     1
100
AcDbLine
 10
2000.213542420142
 20
2161.698906657693
 30
0.0
 11
1998.720927680141
 21
2161.698906657693
 31
0.0
  0
ARC
  5
9DD
330
1F
100
AcDbEntity
  8
BILD
  6
AUSGEZOGEN
 62
     1
100
AcDbCircle
 10
2000.213664490141
 20
2159.791680087691
 30
0.0
 40
1.907196399999999
100
AcDbArc
 50
312.4786987299927
 51
90.0
  0
LINE
  5
9DE
330
1F
100
AcDbEntity
  8
BILD
  6
AUSGEZOGEN
 62
     1
100
AcDbLine
 10
1982.120768990143
 20
2181.482353917693
 30
0.0
 11
1982.120768990143
 21
2191.64739297769
 31
0.0
  0
LINE
  5
9DF
330
1F
100
AcDbEntity
  8
BILD
  6
AUSGEZOGEN
 62
     1
100
AcDbLine
 10
1996.037089790142
 20
2164.897392977691
 30
0.0
 11
2000.120768990143
 21
2164.897392977691
 31
0.0
  0
ARC
  5
9E0
330
1F
100
AcDbEntity
  8
BILD
  6
AUSGEZOGEN
 62
     1
100
AcDbCircle
 10
2000.120891060143
 20
2166.89739297769
 30
0.0
 40
2.000000239999999
100
AcDbArc
 50
270.0
 51
0.0
  0
LINE
  5
9E1
330
1F
100
AcDbEntity
  8
BILD
  6
AUSGEZOGEN
 62
     1
100
AcDbLine
 10
2000.607585390143
 20
2184.27239297769
 30
0.0
 11
1982.120768990143
 21
2184.27239297769
 31
0.0
  0
ARC
  5
9E2
330
1F
100
AcDbEntity
  8
BILD
  6
AUSGEZOGEN
 62
     1
100
AcDbCircle
 10
2000.892009220141
 20
2189.307793367693
 30
0.0
 40
1.22888207
100
AcDbArc
 50
270.0
 51
90.0
  0
ARC
  5
9E3
330
1F
100
AcDbEntity
  8
BILD
  6
AUSGEZOGEN
 62
     1
100
AcDbCircle
 10
2000.607585390143
 20
2185.785576577691
 30
0.0
 40
1.513214229999999
100
AcDbArc
 50
269.999969479885
 51
90.0
  0
ARC
  5
9E4
330
1F
100
AcDbEntity
  8
BILD
  6
AUSGEZOGEN
 62
     1
100
AcDbCircle
 10
2000.371623480141
 20
2180.514336337691
 30
0.0
 40
1.749237179999999
100
AcDbArc
 50
270.0
 51
90.0
  0
ARC
  5
9E5
330
1F
100
AcDbEntity
  8
BILD
  6
AUSGEZOGEN
 62
     1
100
AcDbCircle
 10
2000.213664490141
 20
2174.003350017693
 30
0.0
 40
1.907196399999999
100
AcDbArc
 50
270.0
 51
90.0
  0
LINE
  5
9E6
330
1F
100
AcDbEntity
  8
BILD
  6
AUSGEZOGEN
 62
     1
100
AcDbLine
 10
2000.891887150142
 20
2190.53679727769
 30
0.0
 11
1982.120768990143
 21
2190.53679727769
 31
0.0
  0
LINE
  5
9E7
330
1F
100
AcDbEntity
  8
BILD
  6
AUSGEZOGEN
 62
     1
100
AcDbLine
 10
2000.891887150142
 20
2188.079033607692
 30
0.0
 11
1982.120768990143
 21
2188.079033607692
 31
0.0
  0
LINE
  5
9E8
330
1F
100
AcDbEntity
  8
BILD
  6
AUSGEZOGEN
 62
     1
100
AcDbLine
 10
2000.607585390143
 20
2187.29876016769
 30
0.0
 11
1982.120768990143
 21
2187.29876016769
 31
0.0
  0
LINE
  5
9E9
330
1F
100
AcDbEntity
  8
BILD
  6
AUSGEZOGEN
 62
     1
100
AcDbLine
 10
2000.371501410141
 20
2182.263603917693
 30
0.0
 11
1982.120768990143
 21
2182.263603917693
 31
0.0
  0
LINE
  5
9EA
330
1F
100
AcDbEntity
  8
BILD
  6
AUSGEZOGEN
 62
     1
100
AcDbLine
 10
1982.120768990143
 20
2191.64739297769
 30
0.0
 11
1982.120768990143
 21
2181.482353917693
 31
0.0
  0
LINE
  5
9EB
330
1F
100
AcDbEntity
  8
BILD
  6
AUSGEZOGEN
 62
     1
100
AcDbLine
 10
2000.371501410141
 20
2178.765068767694
 30
0.0
 11
1984.400737250141
 21
2178.765068767694
 31
0.0
  0
LINE
  5
9EC
330
1F
100
AcDbEntity
  8
BILD
  6
AUSGEZOGEN
 62
     1
100
AcDbLine
 10
2000.213542420142
 20
2175.91057657769
 30
0.0
 11
1986.79593988014
 21
2175.91057657769
 31
0.0
  0
LINE
  5
9ED
330
1F
100
AcDbEntity
  8
BILD
  6
AUSGEZOGEN
 62
     1
100
AcDbLine
 10
2000.213542420142
 20
2172.096123447692
 30
0.0
 11
1989.99662348014
 21
2172.096123447692
 31
0.0
  0
LINE
  5
9EE
330
1F
100
AcDbEntity
  8
BILD
  6
AUSGEZOGEN
 62
     1
100
AcDbLine
 10
1992.386638130142
 20
2168.89739297769
 30
0.0
 11
2000.120768990143
 21
2168.89739297769
 31
0.0
  0
ARC
  5
9EF
330
1F
100
AcDbEntity
  8
BILD
  6
AUSGEZOGEN
 62
     1
100
AcDbCircle
 10
2000.120891060143
 20
2166.89739297769
 30
0.0
 40
2.000000239999999
100
AcDbArc
 50
0.0
 51
90.0
  0
LINE
  5
9F0
330
1F
100
AcDbEntity
  8
BILD
  6
AUSGEZOGEN
 62
     1
100
AcDbLine
 10
2005.120768990143
 20
2153.988701577691
 30
0.0
 11
2005.120768990143
 21
2189.64739297769
 31
0.0
  0
LINE
  5
9F1
330
1F
100
AcDbEntity
  8
BILD
  6
AUSGEZOGEN
 62
     1
100
AcDbLine
 10
1982.120768990143
 20
2191.64739297769
 30
0.0
 11
2003.120768990143
 21
2191.64739297769
 31
0.0
  0
ARC
  5
9F2
330
1F
100
AcDbEntity
  8
BILD
  6
AUSGEZOGEN
 62
     1
100
AcDbCircle
 10
2003.120891060143
 20
2189.64739297769
 30
0.0
 40
2.000000239999999
100
AcDbArc
 50
0.0
 51
90.0
  0
ARC
  5
9F3
330
1F
100
AcDbEntity
  8
BILD
  6
AUSGEZOGEN
 62
     1
100
AcDbCircle
 10
2017.620891060143
 20
2184.39739297769
 30
0.0
 40
5.000000479999999
100
AcDbArc
 50
270.0
 51
0.0
  0
ARC
  5
9F4
330
1F
100
AcDbEntity
  8
BILD
  6
AUSGEZOGEN
 62
     1
100
AcDbCircle
 10
2017.620891060143
 20
2184.39739297769
 30
0.0
 40
30.00000381
100
AcDbArc
 50
270.0
 51
0.0
  0
LINE
  5
9F5
330
1F
100
AcDbEntity
  8
BILD
  6
AUSGEZOGEN
 62
     1
100
AcDbLine
 10
2047.620768990143
 20
2184.39739297769
 30
0.0
 11
2047.620768990143
 21
2196.897392977691
 31
0.0
  0
LINE
  5
9F6
330
1F
100
AcDbEntity
  8
BILD
  6
AUSGEZOGEN
 62
     1
100
AcDbLine
 10
2022.620768990143
 20
2184.39739297769
 30
0.0
 11
2022.620768990143
 21
2196.897392977691
 31
0.0
  0
LINE
  5
9F7
330
1F
100
AcDbEntity
  8
BILD
  6
AUSGEZOGEN
 62
     1
100
AcDbLine
 10
2005.120768990143
 20
2179.397392977691
 30
0.0
 11
2017.620768990143
 21
2179.397392977691
 31
0.0
  0
LINE
  5
9F8
330
1F
100
AcDbEntity
  8
BILD
  6
AUSGEZOGEN
 62
     1
100
AcDbLine
 10
2005.120768990143
 20
2154.39739297769
 30
0.0
 11
2017.620768990143
 21
2154.39739297769
 31
0.0
  0
ARC
  5
9F9
330
1F
100
AcDbEntity
  8
BILD
  6
AUSGEZOGEN
 62
     1
100
AcDbCircle
 10
1902.904704530142
 20
2359.897392977691
 30
0.0
 40
2.000002149999999
100
AcDbArc
 50
90.0
 51
172.8732604999464
  0
ARC
  5
9FA
330
1F
100
AcDbEntity
  8
BILD
  6
AUSGEZOGEN
 62
     1
100
AcDbCircle
 10
1921.373942810141
 20
2359.897392977691
 30
0.0
 40
2.000002149999999
100
AcDbArc
 50
7.128478999914457
 51
90.00001525995328
  0
LINE
  5
9FB
330
1F
100
AcDbEntity
  8
BILD
  6
AUSGEZOGEN
 62
     1
100
AcDbLine
 10
1879.639079530142
 20
2321.897392977691
 30
0.0
 11
1879.639079530142
 21
2356.897392977691
 31
0.0
  0
LINE
  5
9FC
330
1F
100
AcDbEntity
  8
BILD
  6
AUSGEZOGEN
 62
     1
100
AcDbLine
 10
1866.639079530142
 20
2321.897392977691
 30
0.0
 11
1866.639079530142
 21
2356.897392977691
 31
0.0
  0
LINE
  5
9FD
330
1F
100
AcDbEntity
  8
BILD
  6
AUSGEZOGEN
 62
     1
100
AcDbLine
 10
1879.639079530142
 20
2356.897392977691
 30
0.0
 11
1866.639079530142
 21
2356.897392977691
 31
0.0
  0
LINE
  5
9FE
330
1F
100
AcDbEntity
  8
BILD
  6
AUSGEZOGEN
 62
     1
100
AcDbLine
 10
1979.639567810141
 20
2186.347344157693
 30
0.0
 11
1982.120524850144
 21
2186.347344157693
 31
0.0
  0
LINE
  5
9FF
330
1F
100
AcDbEntity
  8
BILD
  6
AUSGEZOGEN
 62
     1
100
AcDbLine
 10
1979.080729920141
 20
2187.847344157693
 30
0.0
 11
1982.120524850144
 21
2187.847344157693
 31
0.0
  0
LINE
  5
A00
330
1F
100
AcDbEntity
  8
BILD
  6
AUSGEZOGEN
 62
     1
100
AcDbLine
 10
1979.639567810141
 20
2187.847344157693
 30
0.0
 11
1979.639567810141
 21
2184.027275797692
 31
0.0
  0
LINE
  5
A01
330
1F
100
AcDbEntity
  8
BILD
  6
AUSGEZOGEN
 62
     1
100
AcDbLine
 10
1977.639567810141
 20
2241.897392977691
 30
0.0
 11
1979.15623041014
 21
2185.015190837693
 31
0.0
  0
LINE
  5
A02
330
1F
100
AcDbEntity
  8
BILD
  6
AUSGEZOGEN
 62
     1
100
AcDbLine
 10
1962.13956781014
 20
2121.89739297769
 30
0.0
 11
1962.13956781014
 21
2139.089897867691
 31
0.0
  0
LINE
  5
A03
330
1F
100
AcDbEntity
  8
BILD
  6
AUSGEZOGEN
 62
     1
100
AcDbLine
 10
1959.337687930144
 20
2141.89739297769
 30
0.0
 11
1844.638957460142
 21
2141.89739297769
 31
0.0
  0
LINE
  5
A04
330
1F
100
AcDbEntity
  8
BILD
  6
AUSGEZOGEN
 62
     1
100
AcDbLine
 10
1857.200358830142
 20
2265.08257364769
 30
0.0
 11
1860.139079530142
 21
2321.897392977691
 31
0.0
  0
LINE
  5
A05
330
1F
100
AcDbEntity
  8
BILD
  6
AUSGEZOGEN
 62
     1
100
AcDbLine
 10
1967.139567810141
 20
2263.89739297769
 30
0.0
 11
1859.18357416014
 21
2263.89739297769
 31
0.0
  0
LINE
  5
A06
330
1F
100
AcDbEntity
  8
BILD
  6
AUSGEZOGEN
 62
     1
100
AcDbLine
 10
1850.073832950141
 20
2256.460503337693
 30
0.0
 11
1847.638957460143
 21
2253.897392977691
 31
0.0
  0
LINE
  5
A07
330
1F
100
AcDbEntity
  8
BILD
  6
AUSGEZOGEN
 62
     1
100
AcDbLine
 10
1859.861674750141
 20
2253.897392977691
 30
0.0
 11
1847.638957460143
 21
2253.897392977691
 31
0.0
  0
LINE
  5
A08
330
1F
100
AcDbEntity
  8
BILD
  6
AUSGEZOGEN
 62
     1
100
AcDbLine
 10
1977.639567810141
 20
2241.897392977691
 30
0.0
 11
1913.465190370142
 21
2241.897392977691
 31
0.0
  0
LINE
  5
A09
330
1F
100
AcDbEntity
  8
BILD
  6
AUSGEZOGEN
 62
     1
100
AcDbLine
 10
1896.902385200142
 20
2241.897392977691
 30
0.0
 11
1846.638957460142
 21
2241.897392977691
 31
0.0
  0
LINE
  5
A0A
330
1F
100
AcDbEntity
  8
BILD
  6
AUSGEZOGEN
 62
     1
100
AcDbLine
 10
1939.531962830141
 20
2166.89739297769
 30
0.0
 11
1844.638957460142
 21
2166.89739297769
 31
0.0
  0
LINE
  5
A0B
330
1F
100
AcDbEntity
  8
BILD
  6
AUSGEZOGEN
 62
     1
100
AcDbLine
 10
1976.63956781014
 20
2253.897392977691
 30
0.0
 11
1894.020915470141
 21
2253.897392977691
 31
0.0
  0
LINE
  5
A0C
330
1F
100
AcDbEntity
  8
BILD
  6
AUSGEZOGEN
 62
     1
100
AcDbLine
 10
1928.139567810141
 20
2321.897392977691
 30
0.0
 11
1923.358317810141
 21
2360.145683997691
 31
0.0
  0
LINE
  5
A0D
330
1F
100
AcDbEntity
  8
BILD
  6
AUSGEZOGEN
 62
     1
100
AcDbLine
 10
1921.373942810141
 20
2361.897392977692
 30
0.0
 11
1902.904704530142
 21
2361.897392977692
 31
0.0
  0
LINE
  5
A0E
330
1F
100
AcDbEntity
  8
BILD
  6
AUSGEZOGEN
 62
     1
100
AcDbLine
 10
1896.139079530142
 20
2321.897392977691
 30
0.0
 11
1900.920329530142
 21
2360.145439857692
 31
0.0
  0
LINE
  5
A0F
330
1F
100
AcDbEntity
  8
BILD
  6
AUSGEZOGEN
 62
     1
100
AcDbLine
 10
1844.638957460142
 20
2121.89739297769
 30
0.0
 11
1844.638957460142
 21
2141.89739297769
 31
0.0
  0
LINE
  5
A10
330
1F
100
AcDbEntity
  8
BILD
  6
AUSGEZOGEN
 62
     1
100
AcDbLine
 10
1902.139079530142
 20
2121.89739297769
 30
0.0
 11
1902.139079530142
 21
2141.89739297769
 31
0.0
  0
LINE
  5
A11
330
1F
100
AcDbEntity
  8
BILD
  6
AUSGEZOGEN
 62
     1
100
AcDbLine
 10
1922.139567810141
 20
2121.89739297769
 30
0.0
 11
1922.139567810141
 21
2141.89739297769
 31
0.0
  0
LINE
  5
A12
330
1F
100
AcDbEntity
  8
BILD
  6
AUSGEZOGEN
 62
     1
100
AcDbLine
 10
1892.139079530142
 20
2121.89739297769
 30
0.0
 11
1892.139079530142
 21
2141.89739297769
 31
0.0
  0
LINE
  5
A13
330
1F
100
AcDbEntity
  8
BILD
  6
AUSGEZOGEN
 62
     1
100
AcDbLine
 10
1932.139567810141
 20
2121.89739297769
 30
0.0
 11
1932.139567810141
 21
2141.89739297769
 31
0.0
  0
LINE
  5
A14
330
1F
100
AcDbEntity
  8
BILD
  6
AUSGEZOGEN
 62
     1
100
AcDbLine
 10
1883.139079530142
 20
2121.89739297769
 30
0.0
 11
1883.139079530142
 21
2125.89739297769
 31
0.0
  0
LINE
  5
A15
330
1F
100
AcDbEntity
  8
BILD
  6
AUSGEZOGEN
 62
     1
100
AcDbLine
 10
1941.139567810141
 20
2121.89739297769
 30
0.0
 11
1941.139567810141
 21
2141.89739297769
 31
0.0
  0
LINE
  5
A16
330
1F
100
AcDbEntity
  8
BILD
  6
AUSGEZOGEN
 62
     1
100
AcDbLine
 10
1875.139079530142
 20
2121.89739297769
 30
0.0
 11
1875.139079530142
 21
2141.89739297769
 31
0.0
  0
LINE
  5
A17
330
1F
100
AcDbEntity
  8
BILD
  6
AUSGEZOGEN
 62
     1
100
AcDbLine
 10
1949.139567810141
 20
2121.89739297769
 30
0.0
 11
1949.139567810141
 21
2141.89739297769
 31
0.0
  0
LINE
  5
A18
330
1F
100
AcDbEntity
  8
BILD
  6
AUSGEZOGEN
 62
     1
100
AcDbLine
 10
1956.139567810141
 20
2121.89739297769
 30
0.0
 11
1956.139567810141
 21
2141.89739297769
 31
0.0
  0
LINE
  5
A19
330
1F
100
AcDbEntity
  8
BILD
  6
AUSGEZOGEN
 62
     1
100
AcDbLine
 10
1962.13956781014
 20
2128.897392977691
 30
0.0
 11
1956.139567810141
 21
2128.897392977691
 31
0.0
  0
LINE
  5
A1A
330
1F
100
AcDbEntity
  8
BILD
  6
AUSGEZOGEN
 62
     1
100
AcDbLine
 10
1962.13956781014
 20
2125.89739297769
 30
0.0
 11
1956.139567810141
 21
2125.89739297769
 31
0.0
  0
LINE
  5
A1B
330
1F
100
AcDbEntity
  8
BILD
  6
AUSGEZOGEN
 62
     1
100
AcDbLine
 10
1949.139567810141
 20
2128.897392977691
 30
0.0
 11
1941.139567810141
 21
2128.897392977691
 31
0.0
  0
LINE
  5
A1C
330
1F
100
AcDbEntity
  8
BILD
  6
AUSGEZOGEN
 62
     1
100
AcDbLine
 10
1949.139567810141
 20
2125.89739297769
 30
0.0
 11
1941.139567810141
 21
2125.89739297769
 31
0.0
  0
LINE
  5
A1D
330
1F
100
AcDbEntity
  8
BILD
  6
AUSGEZOGEN
 62
     1
100
AcDbLine
 10
1883.139079530142
 20
2128.897392977691
 30
0.0
 11
1875.139079530142
 21
2128.897392977691
 31
0.0
  0
LINE
  5
A1E
330
1F
100
AcDbEntity
  8
BILD
  6
AUSGEZOGEN
 62
     1
100
AcDbLine
 10
1883.139079530142
 20
2125.89739297769
 30
0.0
 11
1883.139079530142
 21
2141.89739297769
 31
0.0
  0
LINE
  5
A1F
330
1F
100
AcDbEntity
  8
BILD
  6
AUSGEZOGEN
 62
     1
100
AcDbLine
 10
1868.139079530142
 20
2121.89739297769
 30
0.0
 11
1868.139079530142
 21
2141.89739297769
 31
0.0
  0
LINE
  5
A20
330
1F
100
AcDbEntity
  8
BILD
  6
AUSGEZOGEN
 62
     1
100
AcDbLine
 10
1868.139079530142
 20
2128.897392977691
 30
0.0
 11
1862.139079530142
 21
2128.897392977691
 31
0.0
  0
LINE
  5
A21
330
1F
100
AcDbEntity
  8
BILD
  6
AUSGEZOGEN
 62
     1
100
AcDbLine
 10
1862.139079530142
 20
2121.89739297769
 30
0.0
 11
1862.139079530142
 21
2141.89739297769
 31
0.0
  0
LINE
  5
A22
330
1F
100
AcDbEntity
  8
BILD
  6
AUSGEZOGEN
 62
     1
100
AcDbLine
 10
1883.139079530142
 20
2125.89739297769
 30
0.0
 11
1875.139079530142
 21
2125.89739297769
 31
0.0
  0
LINE
  5
A23
330
1F
100
AcDbEntity
  8
BILD
  6
AUSGEZOGEN
 62
     1
100
AcDbLine
 10
1868.139079530142
 20
2125.89739297769
 30
0.0
 11
1862.139079530142
 21
2125.89739297769
 31
0.0
  0
LINE
  5
A24
330
1F
100
AcDbEntity
  8
BILD
  6
AUSGEZOGEN
 62
     1
100
AcDbLine
 10
1962.13956781014
 20
2138.89739297769
 30
0.0
 11
1956.139567810141
 21
2138.89739297769
 31
0.0
  0
LINE
  5
A25
330
1F
100
AcDbEntity
  8
BILD
  6
AUSGEZOGEN
 62
     1
100
AcDbLine
 10
1949.139567810141
 20
2138.89739297769
 30
0.0
 11
1941.139567810141
 21
2138.89739297769
 31
0.0
  0
LINE
  5
A26
330
1F
100
AcDbEntity
  8
BILD
  6
AUSGEZOGEN
 62
     1
100
AcDbLine
 10
1932.139567810141
 20
2138.89739297769
 30
0.0
 11
1922.139567810141
 21
2138.89739297769
 31
0.0
  0
LINE
  5
A27
330
1F
100
AcDbEntity
  8
BILD
  6
AUSGEZOGEN
 62
     1
100
AcDbLine
 10
1902.139079530142
 20
2138.89739297769
 30
0.0
 11
1892.139079530142
 21
2138.89739297769
 31
0.0
  0
LINE
  5
A28
330
1F
100
AcDbEntity
  8
BILD
  6
AUSGEZOGEN
 62
     1
100
AcDbLine
 10
1883.139079530142
 20
2138.89739297769
 30
0.0
 11
1875.139079530142
 21
2138.89739297769
 31
0.0
  0
LINE
  5
A29
330
1F
100
AcDbEntity
  8
BILD
  6
AUSGEZOGEN
 62
     1
100
AcDbLine
 10
1868.139079530142
 20
2138.89739297769
 30
0.0
 11
1862.139079530142
 21
2138.89739297769
 31
0.0
  0
LINE
  5
A2A
330
1F
100
AcDbEntity
  8
BILD
  6
AUSGEZOGEN
 62
     1
100
AcDbLine
 10
1844.638957460142
 20
2141.89739297769
 30
0.0
 11
1844.638957460142
 21
2166.89739297769
 31
0.0
  0
LINE
  5
A2B
330
1F
100
AcDbEntity
  8
BILD
  6
AUSGEZOGEN
 62
     1
100
AcDbLine
 10
1846.638957460142
 20
2241.897392977691
 30
0.0
 11
1844.638957460142
 21
2166.89739297769
 31
0.0
  0
ARC
  5
A2C
330
1F
100
AcDbEntity
  8
BILD
  6
AUSGEZOGEN
 62
     1
100
AcDbCircle
 10
1976.63956781014
 20
2252.89739297769
 30
0.0
 40
1.000001069999999
100
AcDbArc
 50
0.0
 51
90.0
  0
LINE
  5
A2D
330
1F
100
AcDbEntity
  8
BILD
  6
AUSGEZOGEN
 62
     1
100
AcDbLine
 10
1977.639567810141
 20
2241.897392977691
 30
0.0
 11
1977.639567810141
 21
2252.89739297769
 31
0.0
  0
ARC
  5
A2E
330
1F
100
AcDbEntity
  8
BILD
  6
AUSGEZOGEN
 62
     1
100
AcDbCircle
 10
1847.638957460143
 20
2252.89739297769
 30
0.0
 40
1.000001069999999
100
AcDbArc
 50
90.0
 51
180.0
  0
LINE
  5
A2F
330
1F
100
AcDbEntity
  8
BILD
  6
AUSGEZOGEN
 62
     1
100
AcDbLine
 10
1846.638957460142
 20
2241.897392977691
 30
0.0
 11
1846.638957460142
 21
2252.89739297769
 31
0.0
  0
LINE
  5
A30
330
1F
100
AcDbEntity
  8
BILD
  6
AUSGEZOGEN
 62
     1
100
AcDbLine
 10
1964.139567810141
 20
2321.897392977691
 30
0.0
 11
1860.139079530142
 21
2321.897392977691
 31
0.0
  0
LINE
  5
A31
330
1F
100
AcDbEntity
  8
BILD
  6
AUSGEZOGEN
 62
     1
100
AcDbLine
 10
1967.139567810141
 20
2263.89739297769
 30
0.0
 11
1964.139567810141
 21
2321.897392977691
 31
0.0
  0
LINE
  5
A32
330
1F
100
AcDbEntity
  8
BILD
  6
AUSGEZOGEN
 62
     1
100
AcDbLine
 10
1976.63956781014
 20
2253.897392977691
 30
0.0
 11
1967.139567810141
 21
2263.89739297769
 31
0.0
  0
LINE
  5
A33
330
1F
100
AcDbEntity
  8
BILD
  6
AUSGEZOGEN
 62
     1
100
AcDbLine
 10
1912.139567810141
 20
2125.897637117693
 30
0.0
 11
1892.139079530142
 21
2125.89739297769
 31
0.0
  0
LINE
  5
A34
330
1F
100
AcDbEntity
  8
BILD
  6
AUSGEZOGEN
 62
     1
100
AcDbLine
 10
1932.139567810141
 20
2125.89739297769
 30
0.0
 11
1912.139567810141
 21
2125.89739297769
 31
0.0
  0
LINE
  5
A35
330
1F
100
AcDbEntity
  8
BILD
  6
AUSGEZOGEN
 62
     1
100
AcDbLine
 10
1909.139567810141
 20
2128.897392977691
 30
0.0
 11
1892.139079530142
 21
2128.897392977691
 31
0.0
  0
LINE
  5
A36
330
1F
100
AcDbEntity
  8
BILD
  6
AUSGEZOGEN
 62
     1
100
AcDbLine
 10
1932.139567810141
 20
2128.897392977691
 30
0.0
 11
1915.139567810141
 21
2128.897392977691
 31
0.0
  0
LINE
  5
A37
330
1F
100
AcDbEntity
  8
BILD
  6
GESTRICHELT
 62
     1
100
AcDbLine
 10
1924.38956781014
 20
2351.897392977691
 30
0.0
 11
1899.889079530142
 21
2351.897392977691
 31
0.0
  0
ARC
  5
A38
330
1F
100
AcDbEntity
  8
BILD
  6
AUSGEZOGEN
 62
     1
100
AcDbCircle
 10
1952.402018990143
 20
2193.563652747692
 30
0.0
 40
15.0
100
AcDbArc
 50
39.9999999999192
 51
118.4630355800347
  0
LINE
  5
A39
330
1F
100
AcDbEntity
  8
BILD
  6
AUSGEZOGEN
 62
     1
100
AcDbLine
 10
1963.892741640143
 20
2203.205742587691
 30
0.0
 11
2008.244975530143
 21
2150.348686927692
 31
0.0
  0
LINE
  5
A3A
330
1F
100
AcDbEntity
  8
BILD
  6
AUSGEZOGEN
 62
     1
100
AcDbLine
 10
1943.130046330142
 20
2209.281059977692
 30
0.0
 11
2010.622722110141
 21
2128.846245517692
 31
0.0
  0
LINE
  5
A3B
330
1F
100
AcDbEntity
  8
BILD
  6
AUSGEZOGEN
 62
     1
100
AcDbLine
 10
1929.341227970141
 20
2197.710869547692
 30
0.0
 11
1996.833903750143
 21
2117.276055087691
 31
0.0
  0
LINE
  5
A3C
330
1F
100
AcDbEntity
  8
BILD
  6
AUSGEZOGEN
 62
     1
100
AcDbLine
 10
1931.718913520142
 20
2176.20879434769
 30
0.0
 11
1976.071147400141
 21
2123.351738687691
 31
0.0
  0
ARC
  5
A3D
330
1F
100
AcDbEntity
  8
BILD
  6
AUSGEZOGEN
 62
     1
100
AcDbCircle
 10
1943.209636170141
 20
2185.85039590769
 30
0.0
 40
15.0
100
AcDbArc
 50
141.536956789878
 51
219.9999999999192
  0
ARC
  5
A3E
330
1F
100
AcDbEntity
  8
BILD
  6
AUSGEZOGEN
 62
     1
100
AcDbCircle
 10
1987.561931100144
 20
2132.993462317692
 30
0.0
 40
15.0
100
AcDbArc
 50
219.9999999999192
 51
298.463043210158
  0
ARC
  5
A3F
330
1F
100
AcDbEntity
  8
BILD
  6
AUSGEZOGEN
 62
     1
100
AcDbCircle
 10
1996.75443598014
 20
2140.706719157693
 30
0.0
 40
15.0
100
AcDbArc
 50
321.536956789878
 51
39.9999999999192
  0
LINE
  5
A40
330
1F
100
AcDbEntity
  8
BILD
  6
AUSGEZOGEN
 62
     1
100
AcDbLine
 10
1902.045268500141
 20
2253.280937907693
 30
0.0
 11
1894.030986270141
 21
2244.32854532769
 31
0.0
  0
ARC
  5
A41
330
1F
100
AcDbEntity
  8
BILD
  6
AUSGEZOGEN
 62
     1
100
AcDbCircle
 10
1873.253276310142
 20
2164.691094157693
 30
0.0
 40
83.59181212999999
100
AcDbArc
 50
74.92407226997304
 51
82.05909728985295
  0
LINE
  5
A42
330
1F
100
AcDbEntity
  8
BILD
  6
AUSGEZOGEN
 62
     1
100
AcDbLine
 10
1888.447185000143
 20
2255.013848057693
 30
0.0
 11
1882.389323670141
 21
2263.89739297769
 31
0.0
  0
LINE
  5
A43
330
1F
100
AcDbEntity
  8
BILD
  6
AUSGEZOGEN
 62
     1
100
AcDbLine
 10
1874.873332460143
 20
2257.557183017691
 30
0.0
 11
1882.389323670141
 21
2263.89739297769
 31
0.0
  0
LINE
  5
A44
330
1F
100
AcDbEntity
  8
BILD
  6
AUSGEZOGEN
 62
     1
100
AcDbLine
 10
1875.949687440142
 20
2257.237114657691
 30
0.0
 11
1854.06772944014
 21
2265.185845127692
 31
0.0
  0
LINE
  5
A45
330
1F
100
AcDbEntity
  8
BILD
  6
AUSGEZOGEN
 62
     1
100
AcDbLine
 10
1874.25297113014
 20
2249.395561927692
 30
0.0
 11
1851.165629830139
 21
2257.196587317691
 31
0.0
  0
ARC
  5
A46
330
1F
100
AcDbEntity
  8
BILD
  6
AUSGEZOGEN
 62
     1
100
AcDbCircle
 10
2000.582622010142
 20
2433.430718177691
 30
0.0
 40
4.24995565
100
AcDbArc
 50
292.8479614300026
 51
112.8479614300025
  0
LINE
  5
A47
330
1F
100
AcDbEntity
  8
BILD
  6
AUSGEZOGEN
 62
     1
100
AcDbLine
 10
1877.389079530142
 20
2356.897392977691
 30
0.0
 11
1877.389018500141
 21
2369.079155677691
 31
0.0
  0
LINE
  5
A48
330
1F
100
AcDbEntity
  8
BILD
  6
AUSGEZOGEN
 62
     1
100
AcDbLine
 10
1884.423747500144
 20
2379.875542397691
 30
0.0
 11
2002.232890570144
 21
2429.514214267693
 31
0.0
  0
ARC
  5
A49
330
1F
100
AcDbEntity
  8
BILD
  6
AUSGEZOGEN
 62
     1
100
AcDbCircle
 10
1888.889079530142
 20
2369.277642007692
 30
0.0
 40
20.00004578
100
AcDbArc
 50
112.8479843100084
 51
180.0
  0
LINE
  5
A4A
330
1F
100
AcDbEntity
  8
BILD
  6
AUSGEZOGEN
 62
     1
100
AcDbLine
 10
1881.123271430141
 20
2387.708550207692
 30
0.0
 11
1998.932414490141
 21
2437.347222087692
 31
0.0
  0
ARC
  5
A4B
330
1F
100
AcDbEntity
  8
BILD
  6
AUSGEZOGEN
 62
     1
100
AcDbCircle
 10
1888.889079530142
 20
2369.277642007692
 30
0.0
 40
11.50004578
100
AcDbArc
 50
112.8481750499112
 51
180.0000152599533
  0
ARC
  5
A4C
330
1F
100
AcDbEntity
  8
BILD
  6
AUSGEZOGEN
 62
     1
100
AcDbCircle
 10
1863.469706970144
 20
2356.897392977691
 30
0.0
 40
5.41937256
100
AcDbArc
 50
0.0
 51
144.9231414800744
  0
ARC
  5
A4D
330
1F
100
AcDbEntity
  8
BILD
  6
AUSGEZOGEN
 62
     1
100
AcDbCircle
 10
1863.469706970144
 20
2356.897392977691
 30
0.0
 40
13.91937256
100
AcDbArc
 50
0.0
 51
144.9235839800086
  0
LINE
  5
A4E
330
1F
100
AcDbEntity
  8
BILD
  6
AUSGEZOGEN
 62
     1
100
AcDbLine
 10
1828.033122500144
 20
2330.653496497691
 30
0.0
 11
1852.078227480139
 21
2364.896416417693
 31
0.0
  0
LINE
  5
A4F
330
1F
100
AcDbEntity
  8
BILD
  6
AUSGEZOGEN
 62
     1
100
AcDbLine
 10
1859.034587350144
 20
2360.011772867691
 30
0.0
 11
1834.989421330142
 21
2325.768852947691
 31
0.0
  0
ARC
  5
A50
330
1F
100
AcDbEntity
  8
BILD
  6
AUSGEZOGEN
 62
     1
100
AcDbCircle
 10
1867.724956000141
 20
2302.782158607692
 30
0.0
 40
40.00003052
100
AcDbArc
 50
144.9236907999105
 51
250.0359497098397
  0
ARC
  5
A51
330
1F
100
AcDbEntity
  8
BILD
  6
AUSGEZOGEN
 62
     1
100
AcDbCircle
 10
1867.724956000141
 20
2302.782158607692
 30
0.0
 40
48.50003052
100
AcDbArc
 50
144.9237060499046
 51
250.0359497098397
  0
ARC
  5
A52
330
1F
100
AcDbEntity
  8
BILD
  6
AUSGEZOGEN
 62
     1
100
AcDbCircle
 10
1873.253276310142
 20
2164.691094157693
 30
0.0
 40
91.59181213
100
AcDbArc
 50
72.42725371998701
 51
82.0591049200407
  0
ARC
  5
A53
330
1F
100
AcDbEntity
  8
BILD
  6
AUSGEZOGEN
 62
     1
100
AcDbCircle
 10
1851.325602970142
 20
2190.978935947692
 30
0.0
 40
80.33690642999999
100
AcDbArc
 50
30.69439315987011
 51
50.85118102994553
  0
ARC
  5
A54
330
1F
100
AcDbEntity
  8
BILD
  6
AUSGEZOGEN
 62
     1
100
AcDbCircle
 10
1851.325602970142
 20
2190.978935947692
 30
0.0
 40
68.33690643
100
AcDbArc
 50
29.04180527008253
 51
51.32336807002706
  0
ARC
  5
A55
330
1F
100
AcDbEntity
  8
BILD
  6
GESTRICHELT
 62
     1
100
AcDbCircle
 10
2007.640056100144
 20
2418.897515047691
 30
0.0
 40
25.00000191
100
AcDbArc
 50
346.113464359951
 51
148.2284545899597
  0
ARC
  5
A56
330
1F
100
AcDbEntity
  8
BILD
  6
GESTRICHELT
 62
     1
100
AcDbCircle
 10
2007.640056100144
 20
2418.897515047691
 30
0.0
 40
25.00000191
100
AcDbArc
 50
174.4671630899468
 51
346.113464359951
  0
ARC
  5
A57
330
1F
100
AcDbEntity
  8
BILD
  6
AUSGEZOGEN
 62
     1
100
AcDbCircle
 10
2007.640056100144
 20
2418.897515047691
 30
0.0
 40
23.00000191
100
AcDbArc
 50
171.7396240201047
 51
0.0
  0
ARC
  5
A58
330
1F
100
AcDbEntity
  8
BILD
  6
AUSGEZOGEN
 62
     1
100
AcDbCircle
 10
2007.640056100144
 20
2418.897515047691
 30
0.0
 40
23.00000191
100
AcDbArc
 50
0.0
 51
140.4453277600753
  0
LINE
  5
A5A
330
1F
100
AcDbEntity
  8
BILD
  6
AUSGEZOGEN
 62
     1
100
AcDbLine
 10
2116.639628850143
 20
2426.697563877691
 30
0.0
 11
2116.639628850143
 21
2469.097466227692
 31
0.0
  0
LINE
  5
A5B
330
1F
100
AcDbEntity
  8
BILD
  6
AUSGEZOGEN
 62
     1
100
AcDbLine
 10
2152.639628850143
 20
2426.697563877691
 30
0.0
 11
2152.639628850143
 21
2469.097466227692
 31
0.0
  0
LINE
  5
A5C
330
1F
100
AcDbEntity
  8
BILD
  6
AUSGEZOGEN
 62
     1
100
AcDbLine
 10
2152.639628850143
 20
2468.097466227691
 30
0.0
 11
2174.639628850143
 21
2468.097466227691
 31
0.0
  0
LINE
  5
A5D
330
1F
100
AcDbEntity
  8
BILD
  6
AUSGEZOGEN
 62
     1
100
AcDbLine
 10
2152.639628850143
 20
2427.697563877691
 30
0.0
 11
2174.639628850143
 21
2427.697563877691
 31
0.0
  0
LINE
  5
A5E
330
1F
100
AcDbEntity
  8
BILD
  6
AUSGEZOGEN
 62
     1
100
AcDbLine
 10
2174.639628850143
 20
2426.697563877691
 30
0.0
 11
2174.639628850143
 21
2469.097466227692
 31
0.0
  0
LINE
  5
A5F
330
1F
100
AcDbEntity
  8
BILD
  6
AUSGEZOGEN
 62
     1
100
AcDbLine
 10
2100.939677680141
 20
2427.697563877691
 30
0.0
 11
2116.639628850143
 21
2427.697563877691
 31
0.0
  0
LINE
  5
A60
330
1F
100
AcDbEntity
  8
BILD
  6
AUSGEZOGEN
 62
     1
100
AcDbLine
 10
2100.939677680141
 20
2426.697563877691
 30
0.0
 11
2174.639628850143
 21
2426.697563877691
 31
0.0
  0
LINE
  5
A61
330
1F
100
AcDbEntity
  8
BILD
  6
AUSGEZOGEN
 62
     1
100
AcDbLine
 10
2100.939677680141
 20
2468.097466227691
 30
0.0
 11
2116.639628850143
 21
2468.097466227691
 31
0.0
  0
LINE
  5
A62
330
1F
100
AcDbEntity
  8
BILD
  6
AUSGEZOGEN
 62
     1
100
AcDbLine
 10
2100.939677680141
 20
2469.097466227692
 30
0.0
 11
2174.639628850143
 21
2469.097466227692
 31
0.0
  0
LINE
  5
A63
330
1F
100
AcDbEntity
  8
BILD
  6
GESTRICHELT
 62
     1
100
AcDbLine
 10
2152.639628850143
 20
1574.185600987693
 30
0.0
 11
2152.639628850143
 21
1616.585503337693
 31
0.0
  0
LINE
  5
A64
330
1F
100
AcDbEntity
  8
BILD
  6
GESTRICHELT
 62
     1
100
AcDbLine
 10
2152.639628850143
 20
1615.585503337693
 30
0.0
 11
2174.639628850143
 21
1615.585503337693
 31
0.0
  0
LINE
  5
A65
330
1F
100
AcDbEntity
  8
BILD
  6
GESTRICHELT
 62
     1
100
AcDbLine
 10
2152.639628850143
 20
1575.185600987693
 30
0.0
 11
2174.639628850143
 21
1575.185600987693
 31
0.0
  0
LINE
  5
A66
330
1F
100
AcDbEntity
  8
BILD
  6
GESTRICHELT
 62
     1
100
AcDbLine
 10
2174.639628850143
 20
1574.185600987693
 30
0.0
 11
2174.639628850143
 21
1616.585503337693
 31
0.0
  0
LINE
  5
A67
330
1F
100
AcDbEntity
  8
BILD
  6
GESTRICHELT
 62
     1
100
AcDbLine
 10
2121.139628850143
 20
1616.585503337693
 30
0.0
 11
2174.639628850143
 21
1616.585503337693
 31
0.0
  0
LINE
  5
A68
330
1F
100
AcDbEntity
  8
BILD
  6
GESTRICHELT
 62
     1
100
AcDbLine
 10
2121.139628850143
 20
1574.185600987693
 30
0.0
 11
2174.639628850143
 21
1574.185600987693
 31
0.0
  0
LINE
  5
A69
330
1F
100
AcDbEntity
  8
BILD
  6
GESTRICHELT
 62
     1
100
AcDbLine
 10
1694.139567810141
 20
1490.38555215769
 30
0.0
 11
1694.139567810141
 21
1600.38555215769
 31
0.0
  0
LINE
  5
A6A
330
1F
100
AcDbEntity
  8
BILD
  6
GESTRICHELT
 62
     1
100
AcDbLine
 10
1694.139567810141
 20
1600.38555215769
 30
0.0
 11
1734.139567810141
 21
1600.38555215769
 31
0.0
  0
LINE
  5
A6B
330
1F
100
AcDbEntity
  8
BILD
  6
GESTRICHELT
 62
     1
100
AcDbLine
 10
1694.139567810141
 20
1490.38555215769
 30
0.0
 11
1734.139567810141
 21
1490.38555215769
 31
0.0
  0
LINE
  5
A6C
330
1F
100
AcDbEntity
  8
BILD
  6
MITTE
 62
     1
100
AcDbLine
 10
1684.032512150142
 20
1545.38555215769
 30
0.0
 11
1739.669475040141
 21
1545.38555215769
 31
0.0
  0
LINE
  5
A6D
330
1F
100
AcDbEntity
  8
BILD
  6
GESTRICHELT
 62
     1
100
AcDbLine
 10
1772.639567810141
 20
1357.38555215769
 30
0.0
 11
1882.639567810141
 21
1357.38555215769
 31
0.0
  0
LINE
  5
A6E
330
1F
100
AcDbEntity
  8
BILD
  6
GESTRICHELT
 62
     1
100
AcDbLine
 10
1882.639567810141
 20
1357.38555215769
 30
0.0
 11
1882.639567810141
 21
1397.385552157691
 31
0.0
  0
LINE
  5
A6F
330
1F
100
AcDbEntity
  8
BILD
  6
GESTRICHELT
 62
     1
100
AcDbLine
 10
1772.639567810141
 20
1357.38555215769
 30
0.0
 11
1772.639567810141
 21
1397.385552157691
 31
0.0
  0
LINE
  5
A70
330
1F
100
AcDbEntity
  8
BILD
  6
MITTE
 62
     1
100
AcDbLine
 10
1827.639567810141
 20
1347.278496497692
 30
0.0
 11
1827.639567810141
 21
1402.915459387691
 31
0.0
  0
LINE
  5
A71
330
1F
100
AcDbEntity
  8
BILD
  6
GESTRICHELT
 62
     1
100
AcDbLine
 10
1772.639567810141
 20
1733.385552157691
 30
0.0
 11
1882.639567810141
 21
1733.385552157691
 31
0.0
  0
LINE
  5
A72
330
1F
100
AcDbEntity
  8
BILD
  6
GESTRICHELT
 62
     1
100
AcDbLine
 10
1882.639567810141
 20
1733.385552157691
 30
0.0
 11
1882.639567810141
 21
1693.38555215769
 31
0.0
  0
LINE
  5
A73
330
1F
100
AcDbEntity
  8
BILD
  6
GESTRICHELT
 62
     1
100
AcDbLine
 10
1772.639567810141
 20
1733.385552157691
 30
0.0
 11
1772.639567810141
 21
1693.38555215769
 31
0.0
  0
LINE
  5
A74
330
1F
100
AcDbEntity
  8
BILD
  6
MITTE
 62
     1
100
AcDbLine
 10
1827.639567810141
 20
1743.49260782769
 30
0.0
 11
1827.639567810141
 21
1687.855644937691
 31
0.0
  0
LINE
  5
A75
330
1F
100
AcDbEntity
  8
BILD
  6
MITTE
 62
     1
100
AcDbLine
 10
1900.139567810141
 20
2400.659477947691
 30
0.0
 11
1900.139567810141
 21
2437.345024817691
 31
0.0
  0
LINE
  5
A76
330
1F
100
AcDbEntity
  8
BILD
  6
MITTE
 62
     1
100
AcDbLine
 10
1755.139567810141
 20
2400.975884197691
 30
0.0
 11
1755.139567810141
 21
2437.954888097691
 31
0.0
  0
ARC
  5
A77
330
1F
100
AcDbEntity
  8
BILD
  6
GESTRICHELT
 62
     1
100
AcDbCircle
 10
1827.639567810141
 20
2418.897515047691
 30
0.0
 40
70.0
100
AcDbArc
 50
43.60281371997939
 51
136.3971862800206
  0
ARC
  5
A78
330
1F
100
AcDbEntity
  8
BILD
  6
GESTRICHELT
 62
     1
100
AcDbCircle
 10
1755.139567810141
 20
2418.897515047691
 30
0.0
 40
17.50003052
100
AcDbArc
 50
136.3971710200368
 51
223.6029205299855
  0
LINE
  5
A79
330
1F
100
AcDbEntity
  8
BILD
  6
GESTRICHELT
 62
     1
100
AcDbLine
 10
1776.94987055014
 20
2370.621636147691
 30
0.0
 11
1742.466960390143
 21
2406.828423257692
 31
0.0
  0
LINE
  5
A7A
330
1F
100
AcDbEntity
  8
BILD
  6
GESTRICHELT
 62
     1
100
AcDbLine
 10
1776.94987055014
 20
2467.173393957692
 30
0.0
 11
1742.466960390143
 21
2430.966362707692
 31
0.0
  0
ARC
  5
A7B
330
1F
100
AcDbEntity
  8
BILD
  6
GESTRICHELT
 62
     1
100
AcDbCircle
 10
1900.139567810141
 20
2418.897515047691
 30
0.0
 40
17.50003052
100
AcDbArc
 50
316.3970947299975
 51
43.6028442400944
  0
LINE
  5
A7C
330
1F
100
AcDbEntity
  8
BILD
  6
GESTRICHELT
 62
     1
100
AcDbLine
 10
1878.329020940139
 20
2467.173393957692
 30
0.0
 11
1912.81168695014
 21
2430.966606847691
 31
0.0
  0
LINE
  5
A7D
330
1F
100
AcDbEntity
  8
BILD
  6
GESTRICHELT
 62
     1
100
AcDbLine
 10
1903.636210880141
 20
2397.194390047691
 30
0.0
 11
1912.81168695014
 21
2406.828667397691
 31
0.0
  0
ARC
  5
A7E
330
1F
100
AcDbEntity
  8
BILD
  6
GESTRICHELT
 62
     1
100
AcDbCircle
 10
1827.639567810141
 20
2418.897515047691
 30
0.0
 40
70.0
100
AcDbArc
 50
223.6028442400944
 51
303.8579101599674
  0
LINE
  5
A7F
330
1F
100
AcDbEntity
  8
BILD
  6
AUSGEZOGEN
 62
     1
100
AcDbLine
 10
1728.13956781014
 20
2351.397392977691
 30
0.0
 11
1728.13956781014
 21
2486.397515047691
 31
0.0
  0
LINE
  5
A80
330
1F
100
AcDbEntity
  8
BILD
  6
AUSGEZOGEN
 62
     1
100
AcDbLine
 10
1722.809367620139
 20
2487.165581457692
 30
0.0
 11
1723.809367620139
 21
2488.897515047691
 31
0.0
  0
ARC
  5
A81
330
1F
100
AcDbEntity
  8
BILD
  6
GESTRICHELT
 62
     1
100
AcDbCircle
 10
1724.139567810141
 20
2484.087944737692
 30
0.0
 40
2.000000239999999
100
AcDbArc
 50
0.0
 51
60.00045775989974
  0
LINE
  5
A82
330
1F
100
AcDbEntity
  8
BILD
  6
GESTRICHELT
 62
     1
100
AcDbLine
 10
1726.139567810141
 20
2353.706841227691
 30
0.0
 11
1726.139567810141
 21
2484.087944737692
 31
0.0
  0
LINE
  5
A83
330
1F
100
AcDbEntity
  8
BILD
  6
GESTRICHELT
 62
     1
100
AcDbLine
 10
1725.13956781014
 20
2485.820366617691
 30
0.0
 11
1722.809489690139
 21
2487.165825597691
 31
0.0
  0
ARC
  5
A84
330
1F
100
AcDbEntity
  8
BILD
  6
AUSGEZOGEN
 62
     1
100
AcDbCircle
 10
1724.139567810141
 20
2484.087944737692
 30
0.0
 40
4.000000479999999
100
AcDbArc
 50
0.0
 51
59.99996947992683
  0
LINE
  5
A85
330
1F
100
AcDbEntity
  8
BILD
  6
AUSGEZOGEN
 62
     1
100
AcDbLine
 10
1726.139567810141
 20
2487.552300207692
 30
0.0
 11
1723.809489690139
 21
2488.897759197691
 31
0.0
  0
LINE
  5
A86
330
1F
100
AcDbEntity
  8
BILD
  6
AUSGEZOGEN
 62
     1
100
AcDbLine
 10
1722.809367620139
 20
2350.629448647691
 30
0.0
 11
1723.809367620139
 21
2348.897392977691
 31
0.0
  0
ARC
  5
A87
330
1F
100
AcDbEntity
  8
BILD
  6
GESTRICHELT
 62
     1
100
AcDbCircle
 10
1724.139567810141
 20
2353.706841227691
 30
0.0
 40
2.000000239999999
100
AcDbArc
 50
299.9995422401003
 51
0.0
  0
LINE
  5
A88
330
1F
100
AcDbEntity
  8
BILD
  6
GESTRICHELT
 62
     1
100
AcDbLine
 10
1725.13956781014
 20
2351.974785557692
 30
0.0
 11
1722.809489690139
 21
2350.629448647691
 31
0.0
  0
ARC
  5
A89
330
1F
100
AcDbEntity
  8
BILD
  6
AUSGEZOGEN
 62
     1
100
AcDbCircle
 10
1724.139567810141
 20
2353.706841227691
 30
0.0
 40
4.000000479999999
100
AcDbArc
 50
300.0000305200732
 51
0.0
  0
LINE
  5
A8A
330
1F
100
AcDbEntity
  8
BILD
  6
AUSGEZOGEN
 62
     1
100
AcDbLine
 10
1726.139567810141
 20
2350.242729897691
 30
0.0
 11
1723.809489690139
 21
2348.897392977691
 31
0.0
  0
LINE
  5
A8B
330
1F
100
AcDbEntity
  8
BILD
  6
AUSGEZOGEN
 62
     1
100
AcDbLine
 10
1722.809367620139
 20
2350.629448647691
 30
0.0
 11
1722.809367620139
 21
2487.165581457692
 31
0.0
  0
LINE
  5
A8C
330
1F
100
AcDbEntity
  8
BILD
  6
AUSGEZOGEN
 62
     1
100
AcDbLine
 10
1728.13956781014
 20
2486.397515047691
 30
0.0
 11
1734.139567810141
 21
2486.397515047691
 31
0.0
  0
LINE
  5
A8D
330
1F
100
AcDbEntity
  8
BILD
  6
AUSGEZOGEN
 62
     1
100
AcDbLine
 10
1728.13956781014
 20
2351.397392977691
 30
0.0
 11
1734.139567810141
 21
2351.397392977691
 31
0.0
  0
ARC
  5
A8E
330
1F
100
AcDbEntity
  8
BILD
  6
AUSGEZOGEN
 62
     1
100
AcDbCircle
 10
2135.639750920143
 20
2571.397515047691
 30
0.0
 40
2.000000239999999
100
AcDbArc
 50
0.0
 51
90.0
  0
LINE
  5
A8F
330
1F
100
AcDbEntity
  8
BILD
  6
AUSGEZOGEN
 62
     1
100
AcDbLine
 10
2137.639750920143
 20
2546.397515047691
 30
0.0
 11
2137.639750920143
 21
2571.397515047691
 31
0.0
  0
ARC
  5
A90
330
1F
100
AcDbEntity
  8
BILD
  6
AUSGEZOGEN
 62
     1
100
AcDbCircle
 10
1719.640056100143
 20
2571.397515047691
 30
0.0
 40
2.000000239999999
100
AcDbArc
 50
90.0
 51
180.0
  0
LINE
  5
A91
330
1F
100
AcDbEntity
  8
BILD
  6
AUSGEZOGEN
 62
     1
100
AcDbLine
 10
1719.640056100143
 20
2573.397515047691
 30
0.0
 11
2135.639995060142
 21
2573.397515047691
 31
0.0
  0
LINE
  5
A92
330
1F
100
AcDbEntity
  8
BILD
  6
AUSGEZOGEN
 62
     1
100
AcDbLine
 10
1717.640056100143
 20
2546.397515047691
 30
0.0
 11
1717.640056100143
 21
2571.397515047691
 31
0.0
  0
LINE
  5
A93
330
1F
100
AcDbEntity
  8
BILD
  6
AUSGEZOGEN
 62
     1
100
AcDbLine
 10
1907.63981195014
 20
2573.397515047691
 30
0.0
 11
1907.63981195014
 21
2548.397515047691
 31
0.0
  0
LINE
  5
A94
330
1F
100
AcDbEntity
  8
BILD
  6
AUSGEZOGEN
 62
     1
100
AcDbLine
 10
1905.63981195014
 20
2573.397515047691
 30
0.0
 11
1905.63981195014
 21
2548.397515047691
 31
0.0
  0
LINE
  5
A95
330
1F
100
AcDbEntity
  8
BILD
  6
AUSGEZOGEN
 62
     1
100
AcDbLine
 10
1905.63981195014
 20
2548.397515047691
 30
0.0
 11
1907.63981195014
 21
2548.397515047691
 31
0.0
  0
LINE
  5
A96
330
1F
100
AcDbEntity
  8
BILD
  6
AUSGEZOGEN
 62
     1
100
AcDbLine
 10
2033.63981195014
 20
2573.397515047691
 30
0.0
 11
2033.63981195014
 21
2548.397515047691
 31
0.0
  0
LINE
  5
A97
330
1F
100
AcDbEntity
  8
BILD
  6
AUSGEZOGEN
 62
     1
100
AcDbLine
 10
2031.63981195014
 20
2573.397515047691
 30
0.0
 11
2031.63981195014
 21
2548.397515047691
 31
0.0
  0
LINE
  5
A98
330
1F
100
AcDbEntity
  8
BILD
  6
AUSGEZOGEN
 62
     1
100
AcDbLine
 10
2031.63981195014
 20
2548.397515047691
 30
0.0
 11
2033.63981195014
 21
2548.397515047691
 31
0.0
  0
LINE
  5
A99
330
1F
100
AcDbEntity
  8
BILD
  6
AUSGEZOGEN
 62
     1
100
AcDbLine
 10
1860.88981195014
 20
2575.397515047691
 30
0.0
 11
1860.88981195014
 21
2573.397515047691
 31
0.0
  0
LINE
  5
A9A
330
1F
100
AcDbEntity
  8
BILD
  6
AUSGEZOGEN
 62
     1
100
AcDbLine
 10
1854.38981195014
 20
2575.397515047691
 30
0.0
 11
1854.38981195014
 21
2573.397515047691
 31
0.0
  0
ARC
  5
A9B
330
1F
100
AcDbEntity
  8
BILD
  6
AUSGEZOGEN
 62
     1
100
AcDbCircle
 10
1864.63981195014
 20
2572.064263097691
 30
0.0
 40
4.833319659999999
100
AcDbArc
 50
43.6026306200701
 51
136.3973388699858
  0
LINE
  5
A9C
330
1F
100
AcDbEntity
  8
BILD
  6
AUSGEZOGEN
 62
     1
100
AcDbLine
 10
1874.88981195014
 20
2575.397515047691
 30
0.0
 11
1874.88981195014
 21
2573.397515047691
 31
0.0
  0
LINE
  5
A9D
330
1F
100
AcDbEntity
  8
BILD
  6
AUSGEZOGEN
 62
     1
100
AcDbLine
 10
1868.38981195014
 20
2575.397515047691
 30
0.0
 11
1868.38981195014
 21
2573.397515047691
 31
0.0
  0
ARC
  5
A9E
330
1F
100
AcDbEntity
  8
BILD
  6
AUSGEZOGEN
 62
     1
100
AcDbCircle
 10
1738.63981195014
 20
2572.064263097691
 30
0.0
 40
4.833319659999999
100
AcDbArc
 50
43.6026306200701
 51
136.3973388699858
  0
LINE
  5
A9F
330
1F
100
AcDbEntity
  8
BILD
  6
AUSGEZOGEN
 62
     1
100
AcDbLine
 10
1762.88981195014
 20
2575.397515047691
 30
0.0
 11
1762.88981195014
 21
2573.397515047691
 31
0.0
  0
LINE
  5
AA0
330
1F
100
AcDbEntity
  8
BILD
  6
AUSGEZOGEN
 62
     1
100
AcDbLine
 10
1756.38981195014
 20
2575.397515047691
 30
0.0
 11
1756.38981195014
 21
2573.397515047691
 31
0.0
  0
ARC
  5
AA1
330
1F
100
AcDbEntity
  8
BILD
  6
AUSGEZOGEN
 62
     1
100
AcDbCircle
 10
1780.63981195014
 20
2572.064263097691
 30
0.0
 40
4.833319659999999
100
AcDbArc
 50
43.6026306200701
 51
136.3973388699858
  0
LINE
  5
AA2
330
1F
100
AcDbEntity
  8
BILD
  6
AUSGEZOGEN
 62
     1
100
AcDbLine
 10
1776.88981195014
 20
2575.397515047691
 30
0.0
 11
1776.88981195014
 21
2573.397515047691
 31
0.0
  0
LINE
  5
AA3
330
1F
100
AcDbEntity
  8
BILD
  6
AUSGEZOGEN
 62
     1
100
AcDbLine
 10
1770.38981195014
 20
2575.397515047691
 30
0.0
 11
1770.38981195014
 21
2573.397515047691
 31
0.0
  0
LINE
  5
AA4
330
1F
100
AcDbEntity
  8
BILD
  6
AUSGEZOGEN
 62
     1
100
AcDbLine
 10
1790.88981195014
 20
2575.397515047691
 30
0.0
 11
1790.88981195014
 21
2573.397515047691
 31
0.0
  0
LINE
  5
AA5
330
1F
100
AcDbEntity
  8
BILD
  6
AUSGEZOGEN
 62
     1
100
AcDbLine
 10
1784.38981195014
 20
2575.397515047691
 30
0.0
 11
1784.38981195014
 21
2573.397515047691
 31
0.0
  0
LINE
  5
AA6
330
1F
100
AcDbEntity
  8
BILD
  6
AUSGEZOGEN
 62
     1
100
AcDbLine
 10
1804.88981195014
 20
2575.397515047691
 30
0.0
 11
1804.88981195014
 21
2573.397515047691
 31
0.0
  0
LINE
  5
AA7
330
1F
100
AcDbEntity
  8
BILD
  6
AUSGEZOGEN
 62
     1
100
AcDbLine
 10
1798.38981195014
 20
2575.397515047691
 30
0.0
 11
1798.38981195014
 21
2573.397515047691
 31
0.0
  0
LINE
  5
AA8
330
1F
100
AcDbEntity
  8
BILD
  6
AUSGEZOGEN
 62
     1
100
AcDbLine
 10
1818.88981195014
 20
2575.397515047691
 30
0.0
 11
1818.88981195014
 21
2573.397515047691
 31
0.0
  0
LINE
  5
AA9
330
1F
100
AcDbEntity
  8
BILD
  6
AUSGEZOGEN
 62
     1
100
AcDbLine
 10
1812.38981195014
 20
2575.397515047691
 30
0.0
 11
1812.38981195014
 21
2573.397515047691
 31
0.0
  0
ARC
  5
AAA
330
1F
100
AcDbEntity
  8
BILD
  6
AUSGEZOGEN
 62
     1
100
AcDbCircle
 10
1822.63981195014
 20
2572.064263097691
 30
0.0
 40
4.833319659999999
100
AcDbArc
 50
43.6026306200701
 51
136.3973388699858
  0
LINE
  5
AAB
330
1F
100
AcDbEntity
  8
BILD
  6
AUSGEZOGEN
 62
     1
100
AcDbLine
 10
1832.88981195014
 20
2575.397515047691
 30
0.0
 11
1832.88981195014
 21
2573.397515047691
 31
0.0
  0
LINE
  5
AAC
330
1F
100
AcDbEntity
  8
BILD
  6
AUSGEZOGEN
 62
     1
100
AcDbLine
 10
1826.38981195014
 20
2575.397515047691
 30
0.0
 11
1826.38981195014
 21
2573.397515047691
 31
0.0
  0
LINE
  5
AAD
330
1F
100
AcDbEntity
  8
BILD
  6
AUSGEZOGEN
 62
     1
100
AcDbLine
 10
1840.38981195014
 20
2575.397515047691
 30
0.0
 11
1840.38981195014
 21
2573.397515047691
 31
0.0
  0
LINE
  5
AAE
330
1F
100
AcDbEntity
  8
BILD
  6
AUSGEZOGEN
 62
     1
100
AcDbLine
 10
1846.88981195014
 20
2575.397515047691
 30
0.0
 11
1846.88981195014
 21
2573.397515047691
 31
0.0
  0
LINE
  5
AAF
330
1F
100
AcDbEntity
  8
BILD
  6
AUSGEZOGEN
 62
     1
100
AcDbLine
 10
1888.88981195014
 20
2575.397515047691
 30
0.0
 11
1888.88981195014
 21
2573.397515047691
 31
0.0
  0
LINE
  5
AB0
330
1F
100
AcDbEntity
  8
BILD
  6
AUSGEZOGEN
 62
     1
100
AcDbLine
 10
1882.38981195014
 20
2575.397515047691
 30
0.0
 11
1882.38981195014
 21
2573.397515047691
 31
0.0
  0
ARC
  5
AB1
330
1F
100
AcDbEntity
  8
BILD
  6
AUSGEZOGEN
 62
     1
100
AcDbCircle
 10
1906.63981195014
 20
2572.064263097691
 30
0.0
 40
4.833319659999999
100
AcDbArc
 50
43.6026306200701
 51
136.3973388699858
  0
ARC
  5
AB2
330
1F
100
AcDbEntity
  8
BILD
  6
AUSGEZOGEN
 62
     1
100
AcDbCircle
 10
1948.63981195014
 20
2572.064263097691
 30
0.0
 40
4.833319659999999
100
AcDbArc
 50
43.6026306200701
 51
136.3973388699858
  0
ARC
  5
AB3
330
1F
100
AcDbEntity
  8
BILD
  6
AUSGEZOGEN
 62
     1
100
AcDbCircle
 10
1990.63981195014
 20
2572.064263097691
 30
0.0
 40
4.833319659999999
100
AcDbArc
 50
43.6026306200701
 51
136.3973388699858
  0
ARC
  5
AB4
330
1F
100
AcDbEntity
  8
BILD
  6
AUSGEZOGEN
 62
     1
100
AcDbCircle
 10
2074.63981195014
 20
2572.064263097691
 30
0.0
 40
4.833319659999999
100
AcDbArc
 50
43.6026306200701
 51
136.3973388699858
  0
ARC
  5
AB5
330
1F
100
AcDbEntity
  8
BILD
  6
AUSGEZOGEN
 62
     1
100
AcDbCircle
 10
2032.63981195014
 20
2572.064263097691
 30
0.0
 40
4.833319659999999
100
AcDbArc
 50
43.6026306200701
 51
136.3973388699858
  0
ARC
  5
AB6
330
1F
100
AcDbEntity
  8
BILD
  6
AUSGEZOGEN
 62
     1
100
AcDbCircle
 10
2116.639750920143
 20
2572.064263097691
 30
0.0
 40
4.833319659999999
100
AcDbArc
 50
43.6026306200701
 51
136.3973388699858
  0
ARC
  5
AB7
330
1F
100
AcDbEntity
  8
BILD
  6
AUSGEZOGEN
 62
     1
100
AcDbCircle
 10
1719.63981195014
 20
2571.397515047691
 30
0.0
 40
4.000000479999999
100
AcDbArc
 50
90.0
 51
180.0
  0
LINE
  5
AB8
330
1F
100
AcDbEntity
  8
BILD
  6
AUSGEZOGEN
 62
     1
100
AcDbLine
 10
1719.63981195014
 20
2575.397515047691
 30
0.0
 11
2135.639750920143
 21
2575.397515047691
 31
0.0
  0
LINE
  5
AB9
330
1F
100
AcDbEntity
  8
BILD
  6
AUSGEZOGEN
 62
     1
100
AcDbLine
 10
1715.63981195014
 20
2547.161431067691
 30
0.0
 11
1715.63981195014
 21
2571.397515047691
 31
0.0
  0
ARC
  5
ABA
330
1F
100
AcDbEntity
  8
BILD
  6
AUSGEZOGEN
 62
     1
100
AcDbCircle
 10
2135.639750920143
 20
2571.397515047691
 30
0.0
 40
4.000000479999999
100
AcDbArc
 50
0.0
 51
90.0
  0
LINE
  5
ABB
330
1F
100
AcDbEntity
  8
BILD
  6
AUSGEZOGEN
 62
     1
100
AcDbLine
 10
2139.639750920142
 20
2547.161431067691
 30
0.0
 11
2139.639750920142
 21
2571.397515047691
 31
0.0
  0
LINE
  5
ABC
330
1F
100
AcDbEntity
  8
BILD
  6
AUSGEZOGEN
 62
     1
100
AcDbLine
 10
1815.47965570014
 20
2353.462578527691
 30
0.0
 11
1816.47965570014
 21
2351.730522867691
 31
0.0
  0
LINE
  5
ABD
330
1F
100
AcDbEntity
  8
BILD
  6
AUSGEZOGEN
 62
     1
100
AcDbLine
 10
1919.360270940139
 20
2505.726616617691
 30
0.0
 11
1921.291911560141
 21
2505.209038487692
 31
0.0
  0
LINE
  5
ABE
330
1F
100
AcDbEntity
  8
BILD
  6
GESTRICHELT
 62
     1
100
AcDbLine
 10
2119.639628850143
 20
1520.135430087691
 30
0.0
 11
2121.139628850143
 21
1520.135430087691
 31
0.0
  0
LINE
  5
ABF
330
1F
100
AcDbEntity
  8
BILD
  6
GESTRICHELT
 62
     1
100
AcDbLine
 10
2119.639628850143
 20
1517.635430087691
 30
0.0
 11
2121.139628850143
 21
1517.635430087691
 31
0.0
  0
LINE
  5
AC0
330
1F
100
AcDbEntity
  8
BILD
  6
GESTRICHELT
 62
     1
100
AcDbLine
 10
2032.640056100144
 20
1693.38555215769
 30
0.0
 11
2032.640056100144
 21
1733.385552157691
 31
0.0
  0
LINE
  5
AC1
330
1F
100
AcDbEntity
  8
BILD
  6
GESTRICHELT
 62
     1
100
AcDbLine
 10
1982.640056100144
 20
1693.38555215769
 30
0.0
 11
1982.640056100144
 21
1733.385552157691
 31
0.0
  0
LINE
  5
AC2
330
1F
100
AcDbEntity
  8
BILD
  6
GESTRICHELT
 62
     1
100
AcDbLine
 10
1982.640056100144
 20
1733.385552157691
 30
0.0
 11
2032.640056100144
 21
1733.385552157691
 31
0.0
  0
LINE
  5
AC3
330
1F
100
AcDbEntity
  8
BILD
  6
GESTRICHELT
 62
     1
100
AcDbLine
 10
2121.139628850143
 20
1565.235527747692
 30
0.0
 11
2161.139628850143
 21
1565.235527747692
 31
0.0
  0
LINE
  5
AC4
330
1F
100
AcDbEntity
  8
BILD
  6
GESTRICHELT
 62
     1
100
AcDbLine
 10
2121.139628850143
 20
1625.53557657769
 30
0.0
 11
2161.139628850143
 21
1625.53557657769
 31
0.0
  0
LINE
  5
AC5
330
1F
100
AcDbEntity
  8
BILD
  6
GESTRICHELT
 62
     1
100
AcDbLine
 10
2161.139628850143
 20
1625.53557657769
 30
0.0
 11
2161.139628850143
 21
1565.235527747692
 31
0.0
  0
LINE
  5
AC6
330
1F
100
AcDbEntity
  8
BILD
  6
MITTE
 62
     1
100
AcDbLine
 10
2126.458720650139
 20
2521.397515047691
 30
0.0
 11
2113.197856390144
 21
2521.397515047691
 31
0.0
  0
LINE
  5
AC7
330
1F
100
AcDbEntity
  8
BILD
  6
AUSGEZOGEN
 62
     1
100
AcDbLine
 10
2121.139628850143
 20
2419.747612707692
 30
0.0
 11
2161.139628850143
 21
2419.747612707692
 31
0.0
  0
LINE
  5
AC8
330
1F
100
AcDbEntity
  8
BILD
  6
AUSGEZOGEN
 62
     1
100
AcDbLine
 10
2121.139628850143
 20
2476.047661537692
 30
0.0
 11
2161.139628850143
 21
2476.047661537692
 31
0.0
  0
LINE
  5
AC9
330
1F
100
AcDbEntity
  8
BILD
  6
AUSGEZOGEN
 62
     1
100
AcDbLine
 10
2121.139628850143
 20
2417.747612707692
 30
0.0
 11
2161.139628850143
 21
2417.747612707692
 31
0.0
  0
LINE
  5
ACA
330
1F
100
AcDbEntity
  8
BILD
  6
AUSGEZOGEN
 62
     1
100
AcDbLine
 10
2121.139628850143
 20
2478.047661537692
 30
0.0
 11
2161.139628850143
 21
2478.047661537692
 31
0.0
  0
LINE
  5
ACB
330
1F
100
AcDbEntity
  8
BILD
  6
AUSGEZOGEN
 62
     1
100
AcDbLine
 10
2161.139628850143
 20
2478.047661537692
 30
0.0
 11
2161.139506780143
 21
2469.097466227692
 31
0.0
  0
LINE
  5
ACC
330
1F
100
AcDbEntity
  8
BILD
  6
AUSGEZOGEN
 62
     1
100
AcDbLine
 10
2161.139628850143
 20
2426.697563877691
 30
0.0
 11
2161.139628850143
 21
2417.747612707692
 31
0.0
  0
LINE
  5
ACD
330
1F
100
AcDbEntity
  8
SCHRAFF
  6
AUSGEZOGEN
 62
     1
100
AcDbLine
 10
1921.103679140143
 20
2121.89739297769
 30
0.0
 11
1917.121501410141
 21
2117.915459387691
 31
0.0
  0
LINE
  5
ACE
330
1F
100
AcDbEntity
  8
SCHRAFF
  6
AUSGEZOGEN
 62
     1
100
AcDbLine
 10
1918.275310000144
 20
2121.89739297769
 30
0.0
 11
1915.707438910141
 21
2119.329521887691
 31
0.0
  0
LINE
  5
ACF
330
1F
100
AcDbEntity
  8
SCHRAFF
  6
AUSGEZOGEN
 62
     1
100
AcDbLine
 10
1915.446696720141
 20
2121.89739297769
 30
0.0
 11
1915.139445740141
 21
2121.590019937691
 31
0.0
  0
LINE
  5
AD0
330
1F
100
AcDbEntity
  8
SCHRAFF
  6
AUSGEZOGEN
 62
     1
100
AcDbLine
 10
1909.139567810141
 20
2121.247002357693
 30
0.0
 11
1904.789958440139
 21
2116.897392977691
 31
0.0
  0
LINE
  5
AD1
330
1F
100
AcDbEntity
  8
SCHRAFF
  6
AUSGEZOGEN
 62
     1
100
AcDbLine
 10
1906.889567810141
 20
2117.582695717693
 30
0.0
 11
1906.204265080142
 21
2116.897392977691
 31
0.0
  0
LINE
  5
AD2
330
1F
100
AcDbEntity
  8
SCHRAFF
  6
AUSGEZOGEN
 62
     1
100
AcDbLine
 10
1901.304606880142
 20
2121.89739297769
 30
0.0
 11
1900.611979920141
 21
2121.204766027691
 31
0.0
  0
LINE
  5
AD3
330
1F
100
AcDbEntity
  8
SCHRAFF
  6
AUSGEZOGEN
 62
     1
100
AcDbLine
 10
1904.132976020141
 20
2121.89739297769
 30
0.0
 11
1900.470378360141
 21
2118.23479532769
 31
0.0
  0
LINE
  5
AD4
330
1F
100
AcDbEntity
  8
SCHRAFF
  6
AUSGEZOGEN
 62
     1
100
AcDbLine
 10
1923.840983830142
 20
2118.977959387691
 30
0.0
 11
1921.760539490141
 21
2116.897392977691
 31
0.0
  0
LINE
  5
AD5
330
1F
100
AcDbEntity
  8
SCHRAFF
  6
AUSGEZOGEN
 62
     1
100
AcDbLine
 10
1923.344645940139
 20
2117.067314857692
 30
0.0
 11
1923.174724060141
 21
2116.897392977691
 31
0.0
  0
LINE
  5
AD6
330
1F
100
AcDbEntity
  8
SCHRAFF
  6
AUSGEZOGEN
 62
     1
100
AcDbLine
 10
1923.932048280142
 20
2121.89739297769
 30
0.0
 11
1918.932048280142
 21
2116.897392977691
 31
0.0
  0
LINE
  5
AD7
330
1F
100
AcDbEntity
  8
SCHRAFF
  6
AUSGEZOGEN
 62
     1
100
AcDbLine
 10
1906.96158930014
 20
2121.89739297769
 30
0.0
 11
1901.96158930014
 21
2116.897392977691
 31
0.0
  0
LINE
  5
AD8
330
1F
100
AcDbEntity
  8
SCHRAFF
  6
AUSGEZOGEN
 62
     1
100
AcDbLine
 10
1916.018474060141
 20
2125.89739297769
 30
0.0
 11
1915.63956781014
 21
2126.276543367693
 31
0.0
  0
LINE
  5
AD9
330
1F
100
AcDbEntity
  8
SCHRAFF
  6
AUSGEZOGEN
 62
     1
100
AcDbLine
 10
1918.13993402014
 20
2125.89739297769
 30
0.0
 11
1915.63956781014
 21
2128.397881267693
 31
0.0
  0
LINE
  5
ADA
330
1F
100
AcDbEntity
  8
SCHRAFF
  6
AUSGEZOGEN
 62
     1
100
AcDbLine
 10
1906.654460390143
 20
2128.897392977691
 30
0.0
 11
1908.639567810141
 21
2126.912529697692
 31
0.0
  0
LINE
  5
ADB
330
1F
100
AcDbEntity
  8
SCHRAFF
  6
AUSGEZOGEN
 62
     1
100
AcDbLine
 10
1917.261149850144
 20
2128.897392977691
 30
0.0
 11
1920.261271920143
 21
2125.89739297769
 31
0.0
  0
LINE
  5
ADC
330
1F
100
AcDbEntity
  8
SCHRAFF
  6
AUSGEZOGEN
 62
     1
100
AcDbLine
 10
1904.533122500144
 20
2128.897392977691
 30
0.0
 11
1907.533000430144
 21
2125.897637117693
 31
0.0
  0
LINE
  5
ADD
330
1F
100
AcDbEntity
  8
SCHRAFF
  6
AUSGEZOGEN
 62
     1
100
AcDbLine
 10
1902.411784610141
 20
2128.897392977691
 30
0.0
 11
1905.411784610141
 21
2125.897637117693
 31
0.0
  0
LINE
  5
ADE
330
1F
100
AcDbEntity
  8
SCHRAFF
  6
AUSGEZOGEN
 62
     1
100
AcDbLine
 10
1902.139079530142
 20
2127.049004307693
 30
0.0
 11
1903.290446720141
 21
2125.897637117693
 31
0.0
  0
LINE
  5
ADF
330
1F
100
AcDbEntity
  8
SCHRAFF
  6
AUSGEZOGEN
 62
     1
100
AcDbLine
 10
1919.382487740143
 20
2128.897392977691
 30
0.0
 11
1922.139567810141
 21
2126.140557047692
 31
0.0
  0
LINE
  5
AE0
330
1F
100
AcDbEntity
  8
SCHRAFF
  6
AUSGEZOGEN
 62
     1
100
AcDbLine
 10
1921.503825630142
 20
2128.897392977691
 30
0.0
 11
1922.139567810141
 21
2128.261894937691
 31
0.0
  0
LINE
  5
AE1
330
1F
100
AcDbEntity
  8
SCHRAFF
  6
AUSGEZOGEN
 62
     1
100
AcDbLine
 10
1917.571940860141
 20
2122.222588297692
 30
0.0
 11
1917.897136170141
 21
2121.89739297769
 31
0.0
  0
LINE
  5
AE2
330
1F
100
AcDbEntity
  8
SCHRAFF
  6
AUSGEZOGEN
 62
     1
100
AcDbLine
 10
1896.473063910141
 20
2122.10833047769
 30
0.0
 11
1896.683757270141
 21
2121.89739297769
 31
0.0
  0
TEXT
  5
AE3
330
1F
100
AcDbEntity
  8
TEXT
  6
AUSGEZOGEN
 62
     7
100
AcDbText
 10
1753.569011170142
 20
1758.680840247692
 30
0.0
 40
25.0
  1
Zulauf links
 41
0.66045776
  7
SIMPLEX
100
AcDbText
  0
TEXT
  5
AE4
330
1F
100
AcDbEntity
  8
TEXT
  6
AUSGEZOGEN
 62
     7
100
AcDbText
 10
1670.51536127014
 20
1463.171074617693
 30
0.0
 40
25.0
  1
Zulauf mittig
 50
90.0
 41
0.66045776
  7
SIMPLEX
100
AcDbText
  0
TEXT
  5
AE5
330
1F
100
AcDbEntity
  8
TEXT
  6
AUSGEZOGEN
 62
     7
100
AcDbText
 10
1744.755839790142
 20
1312.173638097693
 30
0.0
 40
25.0
  1
Zulauf rechts
 41
0.66045776
  7
SIMPLEX
100
AcDbText
  0
TEXT
  5
AE6
330
1F
100
AcDbEntity
  8
TEXT
  6
AUSGEZOGEN
 62
     7
100
AcDbText
 10
2185.569926700141
 20
1884.356255287693
 30
0.0
 40
25.0
  1
Anschluss DN50 / Kunststoff
 41
0.66045776
  7
SIMPLEX
100
AcDbText
  0
TEXT
  5
AE7
330
1F
100
AcDbEntity
  8
TEXT
  6
AUSGEZOGEN
 62
     7
100
AcDbText
 10
2185.569926700141
 20
1846.856255287693
 30
0.0
 40
25.0
  1
Leerrohr fuer Netzkabel
 41
0.66045776
  7
SIMPLEX
100
AcDbText
  0
TEXT
  5
AE8
330
1F
100
AcDbEntity
  8
TEXT
  6
AUSGEZOGEN
 62
     7
100
AcDbText
 10
2185.569926700141
 20
1809.356255287693
 30
0.0
 40
25.0
  1
und Belueftung
 41
0.66045776
  7
SIMPLEX
100
AcDbText
  0
TEXT
  5
AE9
330
1F
100
AcDbEntity
  8
TEXT
  6
AUSGEZOGEN
 62
     7
100
AcDbText
 10
1528.998546090141
 20
2227.719780677692
 30
0.0
 40
25.0
  1
Sinkstoff-
 41
0.66045776
  7
SIMPLEX
100
AcDbText
  0
TEXT
  5
AEA
330
1F
100
AcDbEntity
  8
TEXT
  6
AUSGEZOGEN
 62
     7
100
AcDbText
 10
1528.998546090141
 20
2190.219780677692
 30
0.0
 40
25.0
  1
Sammelraum
 41
0.66045776
  7
SIMPLEX
100
AcDbText
  0
TEXT
  5
AEB
330
1F
100
AcDbEntity
  8
TEXT
  6
AUSGEZOGEN
 62
     7
100
AcDbText
 10
1590.88239618014
 20
2346.882500407692
 30
0.0
 40
25.00009537
  1
Zulauf
 41
0.6604552400000001
  7
SIMPLEX
100
AcDbText
  0
TEXT
  5
AEC
330
1F
100
AcDbEntity
  8
TEXT
  6
AUSGEZOGEN
 62
     7
100
AcDbText
 10
2116.125712830141
 20
2654.604546297691
 30
0.0
 40
25.0
  1
Druckleitung R 1 1/4
 41
0.66045776
  7
SIMPLEX
100
AcDbText
  0
TEXT
  5
AED
330
1F
100
AcDbEntity
  8
TEXT
  6
AUSGEZOGEN
 62
     7
100
AcDbText
 10
2116.125712830141
 20
2617.104546297691
 30
0.0
 40
25.0
  1
und DN50/SML
 41
0.66045776
  7
SIMPLEX
100
AcDbText
  0
TEXT
  5
AEE
330
1F
100
AcDbEntity
  8
TEXT
  6
AUSGEZOGEN
 62
     7
100
AcDbText
 10
2145.582744080142
 20
2291.715630287693
 30
0.0
 40
25.0
  1
EIN
 41
0.66045776
  7
SIMPLEX
100
AcDbText
  0
TEXT
  5
AEF
330
1F
100
AcDbEntity
  8
TEXT
  6
AUSGEZOGEN
 62
     7
100
AcDbText
 10
2145.582744080142
 20
2225.789849037693
 30
0.0
 40
25.0
  1
AUS
 41
0.66045776
  7
SIMPLEX
100
AcDbText
  0
TEXT
  5
AF0
330
1F
100
AcDbEntity
  8
TEXT
  6
AUSGEZOGEN
 62
     7
100
AcDbText
 10
1578.540080510143
 20
2879.706841227692
 30
0.0
 40
25.0
  1
Schukostecker
 41
0.66045784
  7
SIMPLEX
100
AcDbText
  0
TEXT
  5
AF1
330
1F
100
AcDbEntity
  8
TEXT
  6
AUSGEZOGEN
 62
     7
100
AcDbText
 10
1578.540080510143
 20
2842.206841227691
 30
0.0
 40
25.0
  1
(verschweisst)
 41
0.66045784
  7
SIMPLEX
100
AcDbText
  0
TEXT
  5
AF2
330
1F
100
AcDbEntity
  8
TEXT
  6
AUSGEZOGEN
 62
     7
100
AcDbText
 10
1578.540080510143
 20
2672.849175207692
 30
0.0
 40
25.0
  1
herausnehmbares
 41
0.66045776
  7
SIMPLEX
100
AcDbText
  0
TEXT
  5
AF3
330
1F
100
AcDbEntity
  8
TEXT
  6
AUSGEZOGEN
 62
     7
100
AcDbText
 10
1578.540080510143
 20
2635.349175207692
 30
0.0
 40
25.0
  1
Zulauf-Leitblech
 41
0.66045776
  7
SIMPLEX
100
AcDbText
  0
TEXT
  5
AF4
330
1F
100
AcDbEntity
  8
TEXT
  6
AUSGEZOGEN
 62
     1
100
AcDbText
 10
2108.07407709014
 20
1451.13445352769
 30
0.0
 40
25.0
  1
ACO-passavant
 50
90.0
 41
0.66045776
  7
SIMPLEX
100
AcDbText
  0
LINE
  5
AF5
330
1F
100
AcDbEntity
  8
KONTUR
  6
AUSGEZOGEN
 62
     1
100
AcDbLine
 10
1996.332622010142
 20
2684.929497477691
 30
0.0
 11
1996.332622010142
 21
2584.314263097691
 31
0.0
  0
LINE
  5
AF6
330
1F
100
AcDbEntity
  8
KONTUR
  6
AUSGEZOGEN
 62
     1
100
AcDbLine
 10
2004.832622010142
 20
2684.929497477691
 30
0.0
 11
2004.832622010142
 21
2584.314263097691
 31
0.0
  0
POLYLINE
  5
AF7
330
1F
100
AcDbEntity
  8
KONTUR
  6
AUSGEZOGEN
 62
     1
100
AcDb2dPolyline
 66
     1
 10
0.0
 20
0.0
 30
0.0
  0
VERTEX
  5
AF8
330
AF7
100
AcDbEntity
  8
KONTUR
  6
AUSGEZOGEN
 62
     1
100
AcDbVertex
100
AcDb2dVertex
 10
1906.29349848014
 20
2132.771416417693
 30
0.0
 42
0.01048538
 70
     2
 50
122.852211
  0
VERTEX
  5
AF9
330
AF7
100
AcDbEntity
  8
KONTUR
  6
AUSGEZOGEN
 62
     1
100
AcDbVertex
100
AcDb2dVertex
 10
1906.127116640143
 20
2132.683281657692
 30
0.0
 42
0.009241233
 70
     2
 50
144.97955322
  0
VERTEX
  5
AFA
330
AF7
100
AcDbEntity
  8
KONTUR
  6
AUSGEZOGEN
 62
     1
100
AcDbVertex
100
AcDb2dVertex
 10
1905.372783150139
 20
2132.243584387691
 30
0.0
 70
     2
 50
167.47956848
  0
VERTEX
  5
AFB
330
AF7
100
AcDbEntity
  8
KONTUR
  6
AUSGEZOGEN
 62
     1
100
AcDbVertex
100
AcDb2dVertex
 10
1904.259074650141
 20
2131.561699617693
 30
0.0
 70
     2
 50
189.97950745
  0
VERTEX
  5
AFC
330
AF7
100
AcDbEntity
  8
KONTUR
  6
AUSGEZOGEN
 62
     1
100
AcDbVertex
100
AcDb2dVertex
 10
1902.955546820144
 20
2130.741387117693
 30
0.0
 70
     2
 50
212.47955322
  0
VERTEX
  5
AFD
330
AF7
100
AcDbEntity
  8
KONTUR
  6
AUSGEZOGEN
 62
     1
100
AcDbVertex
100
AcDb2dVertex
 10
1902.139079530142
 20
2130.21807169769
 30
0.0
 50
212.47955322
  0
SEQEND
  5
AFE
330
AF7
100
AcDbEntity
  8
KONTUR
 62
     1
  0
LINE
  5
AFF
330
1F
100
AcDbEntity
  8
KONTUR
  6
AUSGEZOGEN
 62
     1
100
AcDbLine
 10
1906.293376410141
 20
2132.771416417693
 30
0.0
 11
1908.789226020141
 21
2134.000176187691
 31
0.0
  0
POLYLINE
  5
B00
330
1F
100
AcDbEntity
  8
KONTUR
  6
AUSGEZOGEN
 62
     1
100
AcDb2dPolyline
 66
     1
 10
0.0
 20
0.0
 30
0.0
  0
VERTEX
  5
B01
330
B00
100
AcDbEntity
  8
KONTUR
  6
AUSGEZOGEN
 62
     1
100
AcDbVertex
100
AcDb2dVertex
 10
1911.398784120142
 20
2134.796318767693
 30
0.0
 42
0.02573038
 70
     2
 50
116.04988861
  0
VERTEX
  5
B02
330
B00
100
AcDbEntity
  8
KONTUR
  6
AUSGEZOGEN
 62
     1
100
AcDbVertex
100
AcDb2dVertex
 10
1911.118571720141
 20
2134.765434977692
 30
0.0
 42
0.02669831
 70
     2
 50
154.38000488
  0
VERTEX
  5
B03
330
B00
100
AcDbEntity
  8
KONTUR
  6
AUSGEZOGEN
 62
     1
100
AcDbVertex
100
AcDb2dVertex
 10
1910.48734613014
 20
2134.627739657691
 30
0.0
 42
0.01918101
 70
     2
 50
176.88000488
  0
VERTEX
  5
B04
330
B00
100
AcDbEntity
  8
KONTUR
  6
AUSGEZOGEN
 62
     1
100
AcDbVertex
100
AcDb2dVertex
 10
1909.764567810141
 20
2134.403008217693
 30
0.0
 42
0.01918101
 70
     2
 50
199.38000488
  0
VERTEX
  5
B05
330
B00
100
AcDbEntity
  8
KONTUR
  6
AUSGEZOGEN
 62
     1
100
AcDbVertex
100
AcDb2dVertex
 10
1909.060344180144
 20
2134.125786537693
 30
0.0
 42
0.009924629
 70
     2
 50
221.88002014
  0
VERTEX
  5
B06
330
B00
100
AcDbEntity
  8
KONTUR
  6
AUSGEZOGEN
 62
     1
100
AcDbVertex
100
AcDb2dVertex
 10
1908.789287050139
 20
2134.000176187691
 30
0.0
 50
221.88002014
  0
SEQEND
  5
B07
330
B00
100
AcDbEntity
  8
KONTUR
 62
     1
  0
POLYLINE
  5
B08
330
1F
100
AcDbEntity
  8
KONTUR
  6
AUSGEZOGEN
 62
     1
100
AcDb2dPolyline
 66
     1
 10
0.0
 20
0.0
 30
0.0
  0
VERTEX
  5
B09
330
B08
100
AcDbEntity
  8
KONTUR
  6
AUSGEZOGEN
 62
     1
100
AcDbVertex
100
AcDb2dVertex
 10
1914.70688959014
 20
2134.31035684769
 30
0.0
 42
0.008363852
 70
     2
 50
92.97351073999998
  0
VERTEX
  5
B0A
330
B08
100
AcDbEntity
  8
KONTUR
  6
AUSGEZOGEN
 62
     1
100
AcDbVertex
100
AcDb2dVertex
 10
1914.341838320143
 20
2134.406182047692
 30
0.0
 42
0.01552268
 70
     2
 50
147.24685669
  0
VERTEX
  5
B0B
330
B08
100
AcDbEntity
  8
KONTUR
  6
AUSGEZOGEN
 62
     1
100
AcDbVertex
100
AcDb2dVertex
 10
1913.435527290142
 20
2134.598320717693
 30
0.0
 42
0.01552268
 70
     2
 50
169.74688721
  0
VERTEX
  5
B0C
330
B08
100
AcDbEntity
  8
KONTUR
  6
AUSGEZOGEN
 62
     1
100
AcDbVertex
100
AcDb2dVertex
 10
1912.51938959014
 20
2134.735893957691
 30
0.0
 42
0.02172429
 70
     2
 50
192.24694824
  0
VERTEX
  5
B0D
330
B08
100
AcDbEntity
  8
KONTUR
  6
AUSGEZOGEN
 62
     1
100
AcDbVertex
100
AcDb2dVertex
 10
1911.732829530142
 20
2134.798149817692
 30
0.0
 42
0.02047285
 70
     2
 50
214.74694824
  0
VERTEX
  5
B0E
330
B08
100
AcDbEntity
  8
KONTUR
  6
AUSGEZOGEN
 62
     1
100
AcDbVertex
100
AcDb2dVertex
 10
1911.398723090141
 20
2134.796318767693
 30
0.0
 50
214.74694824
  0
SEQEND
  5
B0F
330
B08
100
AcDbEntity
  8
KONTUR
 62
     1
  0
POLYLINE
  5
B10
330
1F
100
AcDbEntity
  8
KONTUR
  6
AUSGEZOGEN
 62
     1
100
AcDb2dPolyline
 66
     1
 10
0.0
 20
0.0
 30
0.0
  0
VERTEX
  5
B11
330
B10
100
AcDbEntity
  8
KONTUR
  6
AUSGEZOGEN
 62
     1
100
AcDbVertex
100
AcDb2dVertex
 10
1917.892009220141
 20
2133.190972087693
 30
0.0
 42
0.009856412
 70
     2
 50
74.27307129
  0
VERTEX
  5
B12
330
B10
100
AcDbEntity
  8
KONTUR
  6
AUSGEZOGEN
 62
     1
100
AcDbVertex
100
AcDb2dVertex
 10
1917.59684320014
 20
2133.320244547692
 30
0.0
 42
0.01076465
 70
     2
 50
116.53192139
  0
VERTEX
  5
B13
330
B10
100
AcDbEntity
  8
KONTUR
  6
AUSGEZOGEN
 62
     1
100
AcDbVertex
100
AcDb2dVertex
 10
1916.858256780143
 20
2133.608086337691
 30
0.0
 42
0.00763117
 70
     2
 50
139.03192139
  0
VERTEX
  5
B14
330
B10
100
AcDbEntity
  8
KONTUR
  6
AUSGEZOGEN
 62
     1
100
AcDbVertex
100
AcDb2dVertex
 10
1915.976848090141
 20
2133.91692422769
 30
0.0
 42
0.00763117
 70
     2
 50
161.53192139
  0
VERTEX
  5
B15
330
B10
100
AcDbEntity
  8
KONTUR
  6
AUSGEZOGEN
 62
     1
100
AcDbVertex
100
AcDb2dVertex
 10
1915.08671137014
 20
2134.19976114769
 30
0.0
 70
     2
 50
184.03222656
  0
VERTEX
  5
B16
330
B10
100
AcDbEntity
  8
KONTUR
  6
AUSGEZOGEN
 62
     1
100
AcDbVertex
100
AcDb2dVertex
 10
1914.70676752014
 20
2134.310478917694
 30
0.0
 50
184.03222656
  0
SEQEND
  5
B17
330
B10
100
AcDbEntity
  8
KONTUR
 62
     1
  0
POLYLINE
  5
B18
330
1F
100
AcDbEntity
  8
KONTUR
  6
AUSGEZOGEN
 62
     1
100
AcDb2dPolyline
 66
     1
 10
0.0
 20
0.0
 30
0.0
  0
VERTEX
  5
B19
330
B18
100
AcDbEntity
  8
KONTUR
  6
AUSGEZOGEN
 62
     1
100
AcDbVertex
100
AcDb2dVertex
 10
1922.139445740141
 20
2129.951836337691
 30
0.0
 70
     2
 50
65.05865479
  0
VERTEX
  5
B1A
330
B18
100
AcDbEntity
  8
KONTUR
  6
AUSGEZOGEN
 62
     1
100
AcDbVertex
100
AcDb2dVertex
 10
1921.346782170142
 20
2130.615654697692
 30
0.0
 42
0.006468909
 70
     2
 50
140.47906494
  0
VERTEX
  5
B1B
330
B18
100
AcDbEntity
  8
KONTUR
  6
AUSGEZOGEN
 62
     1
100
AcDbVertex
100
AcDb2dVertex
 10
1920.026774850144
 20
2131.677300207691
 30
0.0
 42
0.009131834
 70
     2
 50
162.97912598
  0
VERTEX
  5
B1C
330
B18
100
AcDbEntity
  8
KONTUR
  6
AUSGEZOGEN
 62
     1
100
AcDbVertex
100
AcDb2dVertex
 10
1918.880961860142
 20
2132.544853917693
 30
0.0
 42
0.0218326
 70
     2
 50
185.47912598
  0
VERTEX
  5
B1D
330
B18
100
AcDbEntity
  8
KONTUR
  6
AUSGEZOGEN
 62
     1
100
AcDbVertex
100
AcDb2dVertex
 10
1918.083720650139
 20
2133.086235757691
 30
0.0
 42
0.02619245
 70
     2
 50
207.97912598
  0
VERTEX
  5
B1E
330
B18
100
AcDbEntity
  8
KONTUR
  6
AUSGEZOGEN
 62
     1
100
AcDbVertex
100
AcDb2dVertex
 10
1917.892009220141
 20
2133.190850017693
 30
0.0
 50
207.97912598
  0
SEQEND
  5
B1F
330
B18
100
AcDbEntity
  8
KONTUR
 62
     1
  0
LINE
  5
B20
330
1F
100
AcDbEntity
  8
KONTUR
  6
AUSGEZOGEN
 62
     1
100
AcDbLine
 10
1908.639567810141
 20
2128.897392977691
 30
0.0
 11
1908.639567810141
 21
2125.89739297769
 31
0.0
  0
LINE
  5
B21
330
1F
100
AcDbEntity
  8
KONTUR
  6
AUSGEZOGEN
 62
     1
100
AcDbLine
 10
1915.63956781014
 20
2128.897392977691
 30
0.0
 11
1915.63956781014
 21
2125.89739297769
 31
0.0
  0
LINE
  5
B22
330
1F
100
AcDbEntity
  8
KONTUR
  6
AUSGEZOGEN
 62
     1
100
AcDbLine
 10
2031.515422310143
 20
2378.497368567691
 30
0.0
 11
2032.515422310143
 21
2398.49736856769
 31
0.0
  0
LINE
  5
B23
330
1F
100
AcDbEntity
  8
KONTUR
  6
AUSGEZOGEN
 62
     1
100
AcDbLine
 10
2064.363627870143
 20
2378.497368567691
 30
0.0
 11
2063.363627870142
 21
2398.49736856769
 31
0.0
  0
LINE
  5
B24
330
1F
100
AcDbEntity
  8
KONTUR
  6
AUSGEZOGEN
 62
     1
100
AcDbLine
 10
2018.620768990143
 20
2236.331475017693
 30
0.0
 11
2019.620768990143
 21
2216.331475017693
 31
0.0
  0
LINE
  5
B25
330
1F
100
AcDbEntity
  8
KONTUR
  6
AUSGEZOGEN
 62
     1
100
AcDbLine
 10
2051.620768990143
 20
2236.331475017693
 30
0.0
 11
2050.620768990143
 21
2216.331475017693
 31
0.0
  0
LINE
  5
B26
330
1F
100
AcDbEntity
  8
KONTUR
  6
AUSGEZOGEN
 62
     1
100
AcDbLine
 10
1914.18735834014
 20
2211.10344766769
 30
0.0
 11
1928.731669860144
 21
2189.77397989769
 31
0.0
  0
LINE
  5
B27
330
1F
100
AcDbEntity
  8
KONTUR
  6
AUSGEZOGEN
 62
     1
100
AcDbLine
 10
1932.572307070143
 20
2226.53020547769
 30
0.0
 11
1951.05222651014
 21
2208.502739657691
 31
0.0
  0
LINE
  5
B28
330
1F
100
AcDbEntity
  8
KONTUR
  6
AUSGEZOGEN
 62
     1
100
AcDbLine
 10
2010.622783150139
 20
2128.846489657691
 30
0.0
 11
1996.833964790142
 21
2117.276299227691
 31
0.0
  0
LINE
  5
B29
330
1F
100
AcDbEntity
  8
KONTUR
  6
AUSGEZOGEN
 62
     1
100
AcDbLine
 10
1929.341227970141
 20
2197.710869547692
 30
0.0
 11
1943.130046330142
 21
2209.281059977692
 31
0.0
  0
LINE
  5
B2A
330
1F
100
AcDbEntity
  8
KONTUR
  6
AUSGEZOGEN
 62
     1
100
AcDbLine
 10
1914.18735834014
 20
2211.10344766769
 30
0.0
 11
1932.572368110142
 21
2226.53020547769
 31
0.0
  0
LINE
  5
B2B
330
1F
100
AcDbEntity
  8
KONTUR
  6
AUSGEZOGEN
 62
     1
100
AcDbLine
 10
1920.262553650141
 20
2231.865776767691
 30
0.0
 11
1932.572246040142
 21
2226.530083407691
 31
0.0
  0
LINE
  5
B2C
330
1F
100
AcDbEntity
  8
KONTUR
  6
AUSGEZOGEN
 62
     1
100
AcDbLine
 10
1911.070109810142
 20
2224.152642007691
 30
0.0
 11
1914.187175240143
 21
2211.10320352769
 31
0.0
  0
LINE
  5
B2D
330
1F
100
AcDbEntity
  8
KONTUR
  6
AUSGEZOGEN
 62
     1
100
AcDbLine
 10
1911.070109810142
 20
2224.152642007691
 30
0.0
 11
1920.262675720144
 21
2231.866020907691
 31
0.0
  0
LINE
  5
B2E
330
1F
100
AcDbEntity
  8
KONTUR
  6
AUSGEZOGEN
 62
     1
100
AcDbLine
 10
1885.95847651014
 20
2256.412041417693
 30
0.0
 11
1876.110393010143
 21
2258.148491617692
 31
0.0
  0
LINE
  5
B2F
330
1F
100
AcDbEntity
  8
KONTUR
  6
AUSGEZOGEN
 62
     1
100
AcDbLine
 10
1884.222026310142
 20
2246.56414102769
 30
0.0
 11
1874.373942810141
 21
2248.300591227692
 31
0.0
  0
LINE
  5
B30
330
1F
100
AcDbEntity
  8
KONTUR
  6
AUSGEZOGEN
 62
     1
100
AcDbLine
 10
1874.373942810141
 20
2248.300591227692
 30
0.0
 11
1876.110454040144
 21
2258.148613687691
 31
0.0
  0
LINE
  5
B31
330
1F
100
AcDbEntity
  8
KONTUR
  6
AUSGEZOGEN
 62
     1
100
AcDbLine
 10
1884.222026310142
 20
2246.56414102769
 30
0.0
 11
1885.958537540141
 21
2256.412163487693
 31
0.0
  0
LINE
  5
B32
330
1F
100
AcDbEntity
  8
Z
  6
AUSGEZOGEN
 62
     1
100
AcDbLine
 10
2140.639628850143
 20
1374.885552157691
 30
0.0
 11
1714.639567810141
 21
1374.885552157691
 31
0.0
  0
LINE
  5
B33
330
1F
100
AcDbEntity
  8
Z
  6
AUSGEZOGEN
 62
     1
100
AcDbLine
 10
2143.639628850143
 20
1377.88555215769
 30
0.0
 11
1711.639567810141
 21
1377.88555215769
 31
0.0
  0
LINE
  5
B34
330
1F
100
AcDbEntity
  8
Z
  6
AUSGEZOGEN
 62
     1
100
AcDbLine
 10
1711.639567810141
 20
1712.88555215769
 30
0.0
 11
1711.639567810141
 21
1377.88555215769
 31
0.0
  0
LINE
  5
B35
330
1F
100
AcDbEntity
  8
Z
  6
AUSGEZOGEN
 62
     1
100
AcDbLine
 10
2140.639628850143
 20
1715.885552157691
 30
0.0
 11
2140.639628850143
 21
1374.885552157691
 31
0.0
  0
LINE
  5
B36
330
1F
100
AcDbEntity
  8
Z
  6
AUSGEZOGEN
 62
     1
100
AcDbLine
 10
2140.639628850143
 20
1715.885552157691
 30
0.0
 11
1714.639567810141
 21
1715.885552157691
 31
0.0
  0
LINE
  5
B37
330
1F
100
AcDbEntity
  8
Z
  6
AUSGEZOGEN
 62
     1
100
AcDbLine
 10
2143.639628850143
 20
1712.88555215769
 30
0.0
 11
1711.639567810141
 21
1712.88555215769
 31
0.0
  0
LINE
  5
B38
330
1F
100
AcDbEntity
  8
Z
  6
AUSGEZOGEN
 62
     1
100
AcDbLine
 10
2143.639628850143
 20
1712.88555215769
 30
0.0
 11
2143.639628850143
 21
1566.00676797769
 31
0.0
  0
LINE
  5
B39
330
1F
100
AcDbEntity
  8
Z
  6
AUSGEZOGEN
 62
     1
100
AcDbLine
 10
2143.639628850143
 20
1566.00676797769
 30
0.0
 11
2143.639628850143
 21
1377.88555215769
 31
0.0
  0
LINE
  5
B3A
330
1F
100
AcDbEntity
  8
Z
  6
AUSGEZOGEN
 62
     1
100
AcDbLine
 10
2137.338603460143
 20
2575.397515047691
 30
0.0
 11
2142.139628850143
 21
2575.397515047691
 31
0.0
  0
LINE
  5
B3B
330
1F
100
AcDbEntity
  8
Z
  6
AUSGEZOGEN
 62
     1
100
AcDbLine
 10
1837.13956781014
 20
2116.897392977691
 30
0.0
 11
1837.13956781014
 21
2216.89739297769
 31
0.0
  0
LINE
  5
B3C
330
1F
100
AcDbEntity
  8
Z
  6
AUSGEZOGEN
 62
     1
100
AcDbLine
 10
1835.63956781014
 20
2216.89739297769
 30
0.0
 11
1837.13956781014
 21
2216.89739297769
 31
0.0
  0
LINE
  5
B3D
330
1F
100
AcDbEntity
  8
Z
  6
AUSGEZOGEN
 62
     1
100
AcDbLine
 10
1737.139567810141
 20
2115.397392977691
 30
0.0
 11
2118.139628850143
 21
2115.397392977691
 31
0.0
  0
CIRCLE
  5
B3E
330
1F
100
AcDbEntity
  8
Z
  6
AUSGEZOGEN
 62
     1
100
AcDbCircle
 10
1827.639567810141
 20
2418.897515047691
 30
0.0
 40
50.00001144
  0
LINE
  5
B3F
330
1F
100
AcDbEntity
  8
Z
  6
AUSGEZOGEN
 62
     1
100
AcDbLine
 10
1835.63956781014
 20
2116.897392977691
 30
0.0
 11
1835.63956781014
 21
2216.89739297769
 31
0.0
  0
LINE
  5
B40
330
1F
100
AcDbEntity
  8
Z
  6
AUSGEZOGEN
 62
     1
100
AcDbLine
 10
1714.639567810141
 20
2573.897515047691
 30
0.0
 11
1714.639567810141
 21
2547.897515047691
 31
0.0
  0
LINE
  5
B41
330
1F
100
AcDbEntity
  8
Z
  6
AUSGEZOGEN
 62
     1
100
AcDbLine
 10
1713.139567810141
 20
2575.397515047691
 30
0.0
 11
1718.630778750144
 21
2575.397515047691
 31
0.0
  0
LINE
  5
B42
330
1F
100
AcDbEntity
  8
Z
  6
AUSGEZOGEN
 62
     1
100
AcDbLine
 10
1711.639567810141
 20
2573.897515047691
 30
0.0
 11
1711.639567810141
 21
2565.397515047691
 31
0.0
  0
LINE
  5
B43
330
1F
100
AcDbEntity
  8
Z
  6
AUSGEZOGEN
 62
     1
100
AcDbLine
 10
1714.639567810141
 20
1715.885552157691
 30
0.0
 11
1714.639567810141
 21
1374.885552157691
 31
0.0
  0
CIRCLE
  5
B44
330
1F
100
AcDbEntity
  8
Z
  6
AUSGEZOGEN
 62
     1
100
AcDbCircle
 10
1915.63956781014
 20
2516.897515047691
 30
0.0
 40
4.0
  0
LINE
  5
B45
330
1F
100
AcDbEntity
  8
Z
  6
MITTE
 62
     1
100
AcDbLine
 10
1827.639567810141
 20
2344.239311927691
 30
0.0
 11
1827.639567810141
 21
2481.468559977691
 31
0.0
  0
LINE
  5
B46
330
1F
100
AcDbEntity
  8
Z
  6
AUSGEZOGEN
 62
     1
100
AcDbLine
 10
1735.639567810141
 20
2543.397515047691
 30
0.0
 11
1735.639567810141
 21
2118.397392977691
 31
0.0
  0
LINE
  5
B47
330
1F
100
AcDbEntity
  8
Z
  6
AUSGEZOGEN
 62
     1
100
AcDbLine
 10
1716.139567810141
 20
2546.397515047691
 30
0.0
 11
2139.139628850143
 21
2546.397515047691
 31
0.0
  0
CIRCLE
  5
B48
330
1F
100
AcDbEntity
  8
Z
  6
AUSGEZOGEN
 62
     1
100
AcDbCircle
 10
1827.639567810141
 20
2351.897392977691
 30
0.0
 40
4.0
  0
LINE
  5
B49
330
1F
100
AcDbEntity
  8
Z
  6
AUSGEZOGEN
 62
     1
100
AcDbLine
 10
2119.639628850143
 20
2426.697563877691
 30
0.0
 11
2119.639628850143
 21
2118.397392977691
 31
0.0
  0
LINE
  5
B4A
330
1F
100
AcDbEntity
  8
Z
  6
AUSGEZOGEN
 62
     1
100
AcDbLine
 10
2119.639628850143
 20
2543.397515047691
 30
0.0
 11
2119.639628850143
 21
2469.097466227692
 31
0.0
  0
LINE
  5
B4B
330
1F
100
AcDbEntity
  8
Z
  6
AUSGEZOGEN
 62
     1
100
AcDbLine
 10
2139.139628850143
 20
2544.897515047691
 30
0.0
 11
2122.639628850143
 21
2544.897515047691
 31
0.0
  0
LINE
  5
B4C
330
1F
100
AcDbEntity
  8
Z
  6
AUSGEZOGEN
 62
     1
100
AcDbLine
 10
2140.639628850143
 20
2573.897515047691
 30
0.0
 11
2140.639628850143
 21
2547.897515047691
 31
0.0
  0
LINE
  5
B4D
330
1F
100
AcDbEntity
  8
Z
  6
AUSGEZOGEN
 62
     1
100
AcDbLine
 10
2143.639628850143
 20
2573.897515047691
 30
0.0
 11
2143.639628850143
 21
2565.397515047691
 31
0.0
  0
LINE
  5
B4E
330
1F
100
AcDbEntity
  8
Z
  6
AUSGEZOGEN
 62
     1
100
AcDbLine
 10
2037.120768990143
 20
2207.331475017694
 30
0.0
 11
2037.120768990143
 21
2216.331475017693
 31
0.0
  0
LINE
  5
B4F
330
1F
100
AcDbEntity
  8
Z
  6
AUSGEZOGEN
 62
     1
100
AcDbLine
 10
2035.120768990143
 20
2207.331475017694
 30
0.0
 11
2035.120768990143
 21
2216.331475017693
 31
0.0
  0
LINE
  5
B50
330
1F
100
AcDbEntity
  8
Z
  6
AUSGEZOGEN
 62
     1
100
AcDbLine
 10
2033.121013130142
 20
2207.331475017694
 30
0.0
 11
2033.121013130142
 21
2216.331475017693
 31
0.0
  0
LINE
  5
B51
330
1F
100
AcDbEntity
  8
Z
  6
AUSGEZOGEN
 62
     1
100
AcDbLine
 10
2049.939616640143
 20
2398.49736856769
 30
0.0
 11
2049.939616640143
 21
2407.497368567691
 31
0.0
  0
LINE
  5
B52
330
1F
100
AcDbEntity
  8
Z
  6
AUSGEZOGEN
 62
     1
100
AcDbLine
 10
2047.939616640143
 20
2398.49736856769
 30
0.0
 11
2047.939616640143
 21
2407.497368567691
 31
0.0
  0
LINE
  5
B53
330
1F
100
AcDbEntity
  8
Z
  6
AUSGEZOGEN
 62
     1
100
AcDbLine
 10
2045.939616640143
 20
2398.49736856769
 30
0.0
 11
2045.939616640143
 21
2407.497368567691
 31
0.0
  0
LINE
  5
B54
330
1F
100
AcDbEntity
  8
Z
  6
AUSGEZOGEN
 62
     1
100
AcDbLine
 10
2051.620891060143
 20
2196.897270907691
 30
0.0
 11
2018.620891060143
 21
2196.897270907691
 31
0.0
  0
LINE
  5
B55
330
1F
100
AcDbEntity
  8
Z
  6
AUSGEZOGEN
 62
     1
100
AcDbLine
 10
2018.620768990143
 20
2196.897270907691
 30
0.0
 11
2019.620768990143
 21
2207.33135294769
 31
0.0
  0
LINE
  5
B56
330
1F
100
AcDbEntity
  8
Z
  6
AUSGEZOGEN
 62
     1
100
AcDbLine
 10
2051.620891060143
 20
2196.897270907691
 30
0.0
 11
2050.620891060143
 21
2207.331597087693
 31
0.0
  0
LINE
  5
B57
330
1F
100
AcDbEntity
  8
Z
  6
AUSGEZOGEN
 62
     1
100
AcDbLine
 10
2018.620768990143
 20
2236.33135294769
 30
0.0
 11
2031.439616640143
 21
2378.497368567691
 31
0.0
  0
LINE
  5
B58
330
1F
100
AcDbEntity
  8
Z
  6
AUSGEZOGEN
 62
     1
100
AcDbLine
 10
2051.620891060143
 20
2236.33135294769
 30
0.0
 11
2064.439677680141
 21
2378.497368567691
 31
0.0
  0
LINE
  5
B59
330
1F
100
AcDbEntity
  8
Z
  6
AUSGEZOGEN
 62
     1
100
AcDbLine
 10
2063.439677680142
 20
2407.497368567691
 30
0.0
 11
2064.439677680141
 21
2417.897270907692
 31
0.0
  0
LINE
  5
B5A
330
1F
100
AcDbEntity
  8
Z
  6
AUSGEZOGEN
 62
     1
100
AcDbLine
 10
2032.439616640143
 20
2407.497368567691
 30
0.0
 11
2031.439616640143
 21
2417.897270907692
 31
0.0
  0
LINE
  5
B5B
330
1F
100
AcDbEntity
  8
Z
  6
AUSGEZOGEN
 62
     1
100
AcDbLine
 10
2064.439677680141
 20
2417.897270907692
 30
0.0
 11
2031.439616640143
 21
2417.897270907692
 31
0.0
  0
LINE
  5
B5C
330
1F
100
AcDbEntity
  8
Z
  6
GESTRICHELT
 62
     1
100
AcDbLine
 10
1724.139079530142
 20
2408.118706457692
 30
0.0
 11
1726.139079530142
 21
2408.118706457692
 31
0.0
  0
LINE
  5
B5D
330
1F
100
AcDbEntity
  8
Z
  6
GESTRICHELT
 62
     1
100
AcDbLine
 10
1724.139079530142
 20
2429.118706457692
 30
0.0
 11
1724.139079530142
 21
2408.118706457692
 31
0.0
  0
LINE
  5
B5E
330
1F
100
AcDbEntity
  8
Z
  6
GESTRICHELT
 62
     1
100
AcDbLine
 10
1726.139079530142
 20
2429.118706457692
 30
0.0
 11
1724.139079530142
 21
2429.118706457692
 31
0.0
  0
LINE
  5
B5F
330
1F
100
AcDbEntity
  8
Z
  6
AUSGEZOGEN
 62
     1
100
AcDbLine
 10
1816.47965570014
 20
2351.730644937692
 30
0.0
 11
1873.48893305014
 21
2384.645073647691
 31
0.0
  0
LINE
  5
B60
330
1F
100
AcDbEntity
  8
Z
  6
AUSGEZOGEN
 62
     1
100
AcDbLine
 10
1815.47965570014
 20
2353.462578527691
 30
0.0
 11
1871.771403750144
 21
2385.962700597691
 31
0.0
  0
LINE
  5
B61
330
1F
100
AcDbEntity
  8
Z
  6
AUSGEZOGEN
 62
     1
100
AcDbLine
 10
1920.39762445014
 20
2523.727837317691
 30
0.0
 11
1923.569255310141
 21
2518.234429117691
 31
0.0
  0
LINE
  5
B62
330
1F
100
AcDbEntity
  8
Z
  6
AUSGEZOGEN
 62
     1
100
AcDbLine
 10
1914.933757270141
 20
2525.192192787692
 30
0.0
 11
1909.44059320014
 21
2522.020561927691
 31
0.0
  0
ARC
  5
B63
330
1F
100
AcDbEntity
  8
Z
  6
AUSGEZOGEN
 62
     1
100
AcDbCircle
 10
1920.105143990143
 20
2516.234673257692
 30
0.0
 40
4.000047679999999
100
AcDbArc
 50
344.9999999999771
 51
30.00061034994806
  0
ARC
  5
B64
330
1F
100
AcDbEntity
  8
Z
  6
AUSGEZOGEN
 62
     1
100
AcDbCircle
 10
1920.105143990143
 20
2516.234673257692
 30
0.0
 40
2.00008869
100
AcDbArc
 50
344.9999694800533
 51
30.00616455002183
  0
LINE
  5
B65
330
1F
100
AcDbEntity
  8
Z
  6
AUSGEZOGEN
 62
     1
100
AcDbLine
 10
1918.665690860141
 20
2522.72783731769
 30
0.0
 11
1921.837077580142
 21
2517.234429117691
 31
0.0
  0
ARC
  5
B66
330
1F
100
AcDbEntity
  8
Z
  6
AUSGEZOGEN
 62
     1
100
AcDbCircle
 10
1916.933757270141
 20
2521.727837317691
 30
0.0
 40
3.999918459999999
100
AcDbArc
 50
30.00125122010685
 51
120.0000076300122
  0
ARC
  5
B67
330
1F
100
AcDbEntity
  8
Z
  6
AUSGEZOGEN
 62
     1
100
AcDbCircle
 10
1916.933757270141
 20
2521.727837317691
 30
0.0
 40
1.999959229999999
100
AcDbArc
 50
29.99999999995693
 51
120.0000076300122
  0
LINE
  5
B68
330
1F
100
AcDbEntity
  8
Z
  6
AUSGEZOGEN
 62
     1
100
AcDbLine
 10
1915.933757270141
 20
2523.460259197691
 30
0.0
 11
1910.440104920141
 21
2520.288628337692
 31
0.0
  0
ARC
  5
B69
330
1F
100
AcDbEntity
  8
Z
  6
AUSGEZOGEN
 62
     1
100
AcDbCircle
 10
1911.440349060141
 20
2518.556450597691
 30
0.0
 40
4.00000477
100
AcDbArc
 50
119.9987640400847
 51
165.0000152600954
  0
ARC
  5
B6A
330
1F
100
AcDbEntity
  8
Z
  6
AUSGEZOGEN
 62
     1
100
AcDbCircle
 10
1911.440349060141
 20
2518.556450597691
 30
0.0
 40
2.00000238
100
AcDbArc
 50
120.0061492900056
 51
164.9999694800532
  0
LINE
  5
B6B
330
1F
100
AcDbEntity
  8
Z
  6
AUSGEZOGEN
 62
     1
100
AcDbLine
 10
1922.037272890143
 20
2515.717095127691
 30
0.0
 11
1919.360515080142
 21
2505.726616617691
 31
0.0
  0
LINE
  5
B6C
330
1F
100
AcDbEntity
  8
Z
  6
AUSGEZOGEN
 62
     1
100
AcDbLine
 10
1923.968913520141
 20
2515.199517007692
 30
0.0
 11
1921.291667420141
 21
2505.209038487692
 31
0.0
  0
LINE
  5
B6D
330
1F
100
AcDbEntity
  8
Z
  6
AUSGEZOGEN
 62
     1
100
AcDbLine
 10
1907.576579530142
 20
2519.591606847691
 30
0.0
 11
1871.770915470142
 21
2385.962212317691
 31
0.0
  0
LINE
  5
B6E
330
1F
100
AcDbEntity
  8
Z
  6
AUSGEZOGEN
 62
     1
100
AcDbLine
 10
1909.50846430014
 20
2519.074028727692
 30
0.0
 11
1873.488200630142
 21
2384.644829507692
 31
0.0
  0
LINE
  5
B6F
330
1F
100
AcDbEntity
  8
Z
  6
MITTE
 62
     1
100
AcDbLine
 10
2175.186259710144
 20
1595.38555215769
 30
0.0
 11
2117.280253850143
 21
1595.38555215769
 31
0.0
  0
LINE
  5
B70
330
1F
100
AcDbEntity
  8
Z
  6
MITTE
 62
     1
100
AcDbLine
 10
2007.640056100144
 20
1737.498345127692
 30
0.0
 11
2007.640056100144
 21
1688.499687907692
 31
0.0
  0
CIRCLE
  5
B71
330
1F
100
AcDbEntity
  8
GEHAEUSE
  6
GESTRICHELT
 62
     1
100
AcDbCircle
 10
1900.139567810141
 20
2418.897515047691
 30
0.0
 40
5.000205039999999
  0
CIRCLE
  5
B72
330
1F
100
AcDbEntity
  8
GEHAEUSE
  6
GESTRICHELT
 62
     1
100
AcDbCircle
 10
1900.140056100144
 20
2418.898003337692
 30
0.0
 40
15.00000381
  0
LINE
  5
B73
330
1F
100
AcDbEntity
  8
GEHAEUSE
  6
GESTRICHELT
 62
     1
100
AcDbLine
 10
1900.140056100144
 20
2409.657280677691
 30
0.0
 11
1908.140056100144
 21
2414.277397867691
 31
0.0
  0
LINE
  5
B74
330
1F
100
AcDbEntity
  8
GEHAEUSE
  6
GESTRICHELT
 62
     1
100
AcDbLine
 10
1908.140056100144
 20
2414.277397867691
 30
0.0
 11
1908.140056100144
 21
2423.517632237692
 31
0.0
  0
LINE
  5
B75
330
1F
100
AcDbEntity
  8
GEHAEUSE
  6
GESTRICHELT
 62
     1
100
AcDbLine
 10
1908.140056100144
 20
2423.51812051769
 30
0.0
 11
1900.140056100144
 21
2428.138237707692
 31
0.0
  0
LINE
  5
B76
330
1F
100
AcDbEntity
  8
GEHAEUSE
  6
GESTRICHELT
 62
     1
100
AcDbLine
 10
1900.140056100144
 20
2428.138237707692
 30
0.0
 11
1892.140056100144
 21
2423.51812051769
 31
0.0
  0
LINE
  5
B77
330
1F
100
AcDbEntity
  8
GEHAEUSE
  6
GESTRICHELT
 62
     1
100
AcDbLine
 10
1892.140056100144
 20
2423.51812051769
 30
0.0
 11
1892.140056100144
 21
2414.277886147691
 31
0.0
  0
LINE
  5
B78
330
1F
100
AcDbEntity
  8
GEHAEUSE
  6
GESTRICHELT
 62
     1
100
AcDbLine
 10
1892.140056100144
 20
2414.277397867691
 30
0.0
 11
1900.140056100144
 21
2409.657280677691
 31
0.0
  0
CIRCLE
  5
B79
330
1F
100
AcDbEntity
  8
GEHAEUSE
  6
GESTRICHELT
 62
     1
100
AcDbCircle
 10
1755.139567810141
 20
2418.897515047691
 30
0.0
 40
5.000205039999999
  0
CIRCLE
  5
B7A
330
1F
100
AcDbEntity
  8
GEHAEUSE
  6
GESTRICHELT
 62
     1
100
AcDbCircle
 10
1755.139079530142
 20
2418.898003337692
 30
0.0
 40
15.00000381
  0
LINE
  5
B7B
330
1F
100
AcDbEntity
  8
GEHAEUSE
  6
GESTRICHELT
 62
     1
100
AcDbLine
 10
1755.139079530142
 20
2409.657280677691
 30
0.0
 11
1747.139079530142
 21
2414.277397867691
 31
0.0
  0
LINE
  5
B7C
330
1F
100
AcDbEntity
  8
GEHAEUSE
  6
GESTRICHELT
 62
     1
100
AcDbLine
 10
1747.139079530142
 20
2414.277397867691
 30
0.0
 11
1747.139079530142
 21
2423.517632237692
 31
0.0
  0
LINE
  5
B7D
330
1F
100
AcDbEntity
  8
GEHAEUSE
  6
GESTRICHELT
 62
     1
100
AcDbLine
 10
1747.139079530142
 20
2423.51812051769
 30
0.0
 11
1755.139079530142
 21
2428.138237707692
 31
0.0
  0
LINE
  5
B7E
330
1F
100
AcDbEntity
  8
GEHAEUSE
  6
GESTRICHELT
 62
     1
100
AcDbLine
 10
1755.139079530142
 20
2428.138237707692
 30
0.0
 11
1763.139079530142
 21
2423.51812051769
 31
0.0
  0
LINE
  5
B7F
330
1F
100
AcDbEntity
  8
GEHAEUSE
  6
GESTRICHELT
 62
     1
100
AcDbLine
 10
1763.139079530142
 20
2423.51812051769
 30
0.0
 11
1763.139079530142
 21
2414.277886147691
 31
0.0
  0
LINE
  5
B80
330
1F
100
AcDbEntity
  8
GEHAEUSE
  6
GESTRICHELT
 62
     1
100
AcDbLine
 10
1763.139079530142
 20
2414.277397867691
 30
0.0
 11
1755.139079530142
 21
2409.657280677691
 31
0.0
  0
LINE
  5
B81
330
1F
100
AcDbEntity
  8
MASSE
  6
MITTE
 62
     1
100
AcDbLine
 10
1712.49283930014
 20
2418.897515047691
 30
0.0
 11
1908.553630310141
 21
2418.897515047691
 31
0.0
  0
TEXT
  5
B82
330
1F
100
AcDbEntity
  8
MASSE
  6
AUSGEZOGEN
 62
     7
100
AcDbText
 10
2313.268413030143
 20
1622.74272989769
 30
0.0
 40
25.0
  1
 120
 50
90.0
 41
0.66666669
  7
SIMPLEX
100
AcDbText
  0
LINE
  5
B83
330
1F
100
AcDbEntity
  8
MASSE
  6
AUSGEZOGEN
 62
     1
100
AcDbLine
 10
2323.268413030143
 20
1715.885552157691
 30
0.0
 11
2327.184184510142
 21
1686.142143957691
 31
0.0
  0
LINE
  5
B84
330
1F
100
AcDbEntity
  8
MASSE
  6
AUSGEZOGEN
 62
     1
100
AcDbLine
 10
2323.268413030143
 20
1715.885552157691
 30
0.0
 11
2319.352641540144
 21
1686.142143957691
 31
0.0
  0
LINE
  5
B85
330
1F
100
AcDbEntity
  8
MASSE
  6
AUSGEZOGEN
 62
     1
100
AcDbLine
 10
2323.268413030143
 20
1595.38555215769
 30
0.0
 11
2327.184184510142
 21
1625.128960367691
 31
0.0
  0
LINE
  5
B86
330
1F
100
AcDbEntity
  8
MASSE
  6
AUSGEZOGEN
 62
     1
100
AcDbLine
 10
2323.268413030143
 20
1595.38555215769
 30
0.0
 11
2319.352641540144
 21
1625.128960367691
 31
0.0
  0
LINE
  5
B87
330
1F
100
AcDbEntity
  8
MASSE
  6
AUSGEZOGEN
 62
     1
100
AcDbLine
 10
2150.639628850143
 20
1715.885552157691
 30
0.0
 11
2343.268413030143
 21
1715.885552157691
 31
0.0
  0
LINE
  5
B88
330
1F
100
AcDbEntity
  8
MASSE
  6
AUSGEZOGEN
 62
     1
100
AcDbLine
 10
2181.378276310142
 20
1595.38555215769
 30
0.0
 11
2343.268413030143
 21
1595.38555215769
 31
0.0
  0
LINE
  5
B89
330
1F
100
AcDbEntity
  8
MASSE
  6
AUSGEZOGEN
 62
     1
100
AcDbLine
 10
2323.268413030143
 20
1595.38555215769
 30
0.0
 11
2323.268413030143
 21
1715.885552157691
 31
0.0
  0
LINE
  5
B8A
330
1F
100
AcDbEntity
  8
MASSE
  6
AUSGEZOGEN
 62
     1
100
AcDbLine
 10
2132.82566401014
 20
2116.897392977691
 30
0.0
 11
2321.101909120143
 21
2116.897392977691
 31
0.0
  0
LINE
  5
B8B
330
1F
100
AcDbEntity
  8
MASSE
  6
AUSGEZOGEN
 62
     1
100
AcDbLine
 10
2060.33524652014
 20
2286.897392977691
 30
0.0
 11
2308.43113276014
 21
2286.897392977691
 31
0.0
  0
TEXT
  5
B8C
330
1F
100
AcDbEntity
  8
MASSE
  6
AUSGEZOGEN
 62
     7
100
AcDbText
 10
2288.644755800139
 20
2182.392021887691
 30
0.0
 40
25.0
  1
170
 50
90.0
 41
0.66666669
  7
SIMPLEX
100
AcDbText
  0
LINE
  5
B8D
330
1F
100
AcDbEntity
  8
MASSE
  6
AUSGEZOGEN
 62
     1
100
AcDbLine
 10
2295.252421820144
 20
2116.897392977691
 30
0.0
 11
2295.252421820144
 21
2286.897392977691
 31
0.0
  0
LINE
  5
B8E
330
1F
100
AcDbEntity
  8
MASSE
  6
AUSGEZOGEN
 62
     1
100
AcDbLine
 10
2295.252421820144
 20
2286.897392977691
 30
0.0
 11
2291.336650330141
 21
2257.153984777691
 31
0.0
  0
LINE
  5
B8F
330
1F
100
AcDbEntity
  8
MASSE
  6
AUSGEZOGEN
 62
     1
100
AcDbLine
 10
2295.252421820144
 20
2286.897392977691
 30
0.0
 11
2299.168193300139
 21
2257.153984777691
 31
0.0
  0
LINE
  5
B90
330
1F
100
AcDbEntity
  8
MASSE
  6
AUSGEZOGEN
 62
     1
100
AcDbLine
 10
2295.252421820144
 20
2116.897392977691
 30
0.0
 11
2299.168193300139
 21
2146.640801187691
 31
0.0
  0
LINE
  5
B91
330
1F
100
AcDbEntity
  8
MASSE
  6
AUSGEZOGEN
 62
     1
100
AcDbLine
 10
2295.252421820144
 20
2116.897392977691
 30
0.0
 11
2291.336650330141
 21
2146.640801187691
 31
0.0
  0
LINE
  5
B92
330
1F
100
AcDbEntity
  8
MASSE
  6
AUSGEZOGEN
 62
     1
100
AcDbLine
 10
2058.37107416014
 20
2216.89739297769
 30
0.0
 11
2250.807231390144
 21
2216.89739297769
 31
0.0
  0
TEXT
  5
B93
330
1F
100
AcDbEntity
  8
MASSE
  6
AUSGEZOGEN
 62
     7
100
AcDbText
 10
2223.477275330141
 20
2123.82866739769
 30
0.0
 40
25.0
  1
ca.100
 50
90.0
 41
0.66666669
  7
SIMPLEX
100
AcDbText
  0
LINE
  5
B94
330
1F
100
AcDbEntity
  8
MASSE
  6
AUSGEZOGEN
 62
     1
100
AcDbLine
 10
2235.252421820144
 20
2116.897392977691
 30
0.0
 11
2235.252421820144
 21
2216.89739297769
 31
0.0
  0
LINE
  5
B95
330
1F
100
AcDbEntity
  8
MASSE
  6
AUSGEZOGEN
 62
     1
100
AcDbLine
 10
2235.252421820144
 20
2216.89739297769
 30
0.0
 11
2239.168193300139
 21
2187.15398477769
 31
0.0
  0
LINE
  5
B96
330
1F
100
AcDbEntity
  8
MASSE
  6
AUSGEZOGEN
 62
     1
100
AcDbLine
 10
2235.252421820144
 20
2216.89739297769
 30
0.0
 11
2231.336650330141
 21
2187.15398477769
 31
0.0
  0
LINE
  5
B97
330
1F
100
AcDbEntity
  8
MASSE
  6
AUSGEZOGEN
 62
     1
100
AcDbLine
 10
2235.252421820144
 20
2116.897392977691
 30
0.0
 11
2239.168193300139
 21
2146.640801187691
 31
0.0
  0
LINE
  5
B98
330
1F
100
AcDbEntity
  8
MASSE
  6
AUSGEZOGEN
 62
     1
100
AcDbLine
 10
2235.252421820144
 20
2116.897392977691
 30
0.0
 11
2231.336650330141
 21
2146.640801187691
 31
0.0
  0
LINE
  5
B99
330
1F
100
AcDbEntity
  8
MASSE
  6
AUSGEZOGEN
 62
     1
100
AcDbLine
 10
2148.59373041014
 20
2575.397515047691
 30
0.0
 11
2167.86728998014
 21
2575.397515047691
 31
0.0
  0
LINE
  5
B9A
330
1F
100
AcDbEntity
  8
MASSE
  6
AUSGEZOGEN
 62
     1
100
AcDbLine
 10
2159.541118110142
 20
2447.897515047691
 30
0.0
 11
2308.789409120143
 21
2447.897515047691
 31
0.0
  0
LINE
  5
B9B
330
1F
100
AcDbEntity
  8
MASSE
  6
AUSGEZOGEN
 62
     1
100
AcDbLine
 10
2288.789409120143
 20
2447.897515047691
 30
0.0
 11
2288.789409120143
 21
2575.397515047691
 31
0.0
  0
LINE
  5
B9C
330
1F
100
AcDbEntity
  8
MASSE
  6
AUSGEZOGEN
 62
     1
100
AcDbLine
 10
2288.789409120143
 20
2447.897515047691
 30
0.0
 11
2284.873637640144
 21
2477.640923257692
 31
0.0
  0
LINE
  5
B9D
330
1F
100
AcDbEntity
  8
MASSE
  6
AUSGEZOGEN
 62
     1
100
AcDbLine
 10
2288.789409120143
 20
2447.897515047691
 30
0.0
 11
2292.705180610142
 21
2477.640923257692
 31
0.0
  0
LINE
  5
B9E
330
1F
100
AcDbEntity
  8
MASSE
  6
AUSGEZOGEN
 62
     1
100
AcDbLine
 10
2288.789409120143
 20
2575.397515047691
 30
0.0
 11
2284.873637640144
 21
2545.654106847691
 31
0.0
  0
LINE
  5
B9F
330
1F
100
AcDbEntity
  8
MASSE
  6
AUSGEZOGEN
 62
     1
100
AcDbLine
 10
2288.789409120143
 20
2575.397515047691
 30
0.0
 11
2292.705180610142
 21
2545.654106847691
 31
0.0
  0
TEXT
  5
BA0
330
1F
100
AcDbEntity
  8
MASSE
  6
AUSGEZOGEN
 62
     7
100
AcDbText
 10
2278.789409120142
 20
2478.754692787692
 30
0.0
 40
25.0
  1
 127
 50
90.0
 41
0.66666669
  7
SIMPLEX
100
AcDbText
  0
LINE
  5
BA1
330
1F
100
AcDbEntity
  8
MASSE
  6
AUSGEZOGEN
 62
     1
100
AcDbLine
 10
2189.374003850143
 20
2575.397515047691
 30
0.0
 11
2308.789409120143
 21
2575.397515047691
 31
0.0
  0
LINE
  5
BA2
330
1F
100
AcDbEntity
  8
MASSE
  6
AUSGEZOGEN
 62
     1
100
AcDbLine
 10
1550.39359613014
 20
2418.897515047691
 30
0.0
 11
1550.39359613014
 21
2575.397515047691
 31
0.0
  0
LINE
  5
BA3
330
1F
100
AcDbEntity
  8
MASSE
  6
AUSGEZOGEN
 62
     1
100
AcDbLine
 10
1702.49283930014
 20
2418.897515047691
 30
0.0
 11
1530.39359613014
 21
2418.897515047691
 31
0.0
  0
LINE
  5
BA4
330
1F
100
AcDbEntity
  8
MASSE
  6
AUSGEZOGEN
 62
     1
100
AcDbLine
 10
1550.39359613014
 20
2418.897515047691
 30
0.0
 11
1546.477824650142
 21
2448.640923257692
 31
0.0
  0
LINE
  5
BA5
330
1F
100
AcDbEntity
  8
MASSE
  6
AUSGEZOGEN
 62
     1
100
AcDbLine
 10
1550.39359613014
 20
2418.897515047691
 30
0.0
 11
1554.30936762014
 21
2448.640923257692
 31
0.0
  0
LINE
  5
BA6
330
1F
100
AcDbEntity
  8
MASSE
  6
AUSGEZOGEN
 62
     1
100
AcDbLine
 10
1550.39359613014
 20
2575.397515047691
 30
0.0
 11
1546.477824650142
 21
2545.654106847691
 31
0.0
  0
LINE
  5
BA7
330
1F
100
AcDbEntity
  8
MASSE
  6
AUSGEZOGEN
 62
     1
100
AcDbLine
 10
1550.39359613014
 20
2575.397515047691
 30
0.0
 11
1554.30936762014
 21
2545.654106847691
 31
0.0
  0
TEXT
  5
BA8
330
1F
100
AcDbEntity
  8
MASSE
  6
AUSGEZOGEN
 62
     7
100
AcDbText
 10
1540.393626650141
 20
2464.254692787692
 30
0.0
 40
25.00002289
  1
 156
 50
90.0
 41
0.66666605
  7
SIMPLEX
100
AcDbText
  0
LINE
  5
BA9
330
1F
100
AcDbEntity
  8
MASSE
  6
AUSGEZOGEN
 62
     1
100
AcDbLine
 10
1474.139537300144
 20
2115.397392977691
 30
0.0
 11
1474.139537300144
 21
2575.397515047691
 31
0.0
  0
LINE
  5
BAA
330
1F
100
AcDbEntity
  8
MASSE
  6
AUSGEZOGEN
 62
     1
100
AcDbLine
 10
1727.139567810141
 20
2115.397392977691
 30
0.0
 11
1454.139537300144
 21
2115.397392977691
 31
0.0
  0
LINE
  5
BAB
330
1F
100
AcDbEntity
  8
MASSE
  6
AUSGEZOGEN
 62
     1
100
AcDbLine
 10
1703.139506780143
 20
2575.397515047691
 30
0.0
 11
1454.139537300144
 21
2575.397515047691
 31
0.0
  0
LINE
  5
BAC
330
1F
100
AcDbEntity
  8
MASSE
  6
AUSGEZOGEN
 62
     1
100
AcDbLine
 10
1474.139537300144
 20
2115.397392977691
 30
0.0
 11
1470.223765810141
 21
2145.140801187691
 31
0.0
  0
LINE
  5
BAD
330
1F
100
AcDbEntity
  8
MASSE
  6
AUSGEZOGEN
 62
     1
100
AcDbLine
 10
1474.139537300144
 20
2115.397392977691
 30
0.0
 11
1478.055308780139
 21
2145.140801187691
 31
0.0
  0
LINE
  5
BAE
330
1F
100
AcDbEntity
  8
MASSE
  6
AUSGEZOGEN
 62
     1
100
AcDbLine
 10
1474.139537300144
 20
2575.397515047691
 30
0.0
 11
1470.223765810141
 21
2545.654106847691
 31
0.0
  0
LINE
  5
BAF
330
1F
100
AcDbEntity
  8
MASSE
  6
AUSGEZOGEN
 62
     1
100
AcDbLine
 10
1474.139537300144
 20
2575.397515047691
 30
0.0
 11
1478.055308780139
 21
2545.654106847691
 31
0.0
  0
TEXT
  5
BB0
330
1F
100
AcDbEntity
  8
MASSE
  6
AUSGEZOGEN
 62
     7
100
AcDbText
 10
1464.139537300144
 20
2303.611748447692
 30
0.0
 40
25.0
  1
 460
 50
90.0
 41
0.66666796
  7
SIMPLEX
100
AcDbText
  0
LINE
  5
BB1
330
1F
100
AcDbEntity
  8
MASSE
  6
AUSGEZOGEN
 62
     1
100
AcDbLine
 10
2143.639628850143
 20
1856.776177157691
 30
0.0
 11
2143.639628850143
 21
1899.007378337693
 31
0.0
  0
LINE
  5
BB2
330
1F
100
AcDbEntity
  8
MASSE
  6
AUSGEZOGEN
 62
     1
100
AcDbLine
 10
2007.640056100144
 20
1879.007378337693
 30
0.0
 11
2143.639628850143
 21
1879.007378337693
 31
0.0
  0
LINE
  5
BB3
330
1F
100
AcDbEntity
  8
MASSE
  6
AUSGEZOGEN
 62
     1
100
AcDbLine
 10
2007.640056100144
 20
1879.007378337693
 30
0.0
 11
2037.383403260142
 21
1882.923149817691
 31
0.0
  0
LINE
  5
BB4
330
1F
100
AcDbEntity
  8
MASSE
  6
AUSGEZOGEN
 62
     1
100
AcDbLine
 10
2007.640056100144
 20
1879.007378337693
 30
0.0
 11
2037.383403260142
 21
1875.09160684769
 31
0.0
  0
LINE
  5
BB5
330
1F
100
AcDbEntity
  8
MASSE
  6
AUSGEZOGEN
 62
     1
100
AcDbLine
 10
2143.639628850143
 20
1879.007378337693
 30
0.0
 11
2113.896342720142
 21
1882.923149817691
 31
0.0
  0
LINE
  5
BB6
330
1F
100
AcDbEntity
  8
MASSE
  6
AUSGEZOGEN
 62
     1
100
AcDbLine
 10
2143.639628850143
 20
1879.007378337693
 30
0.0
 11
2113.896342720142
 21
1875.09160684769
 31
0.0
  0
TEXT
  5
BB7
330
1F
100
AcDbEntity
  8
MASSE
  6
AUSGEZOGEN
 62
     7
100
AcDbText
 10
2033.854167420142
 20
1889.007378337693
 30
0.0
 40
25.0
  1
 136
 41
0.66666669
  7
SIMPLEX
100
AcDbText
  0
LINE
  5
BB8
330
1F
100
AcDbEntity
  8
MASSE
  6
AUSGEZOGEN
 62
     1
100
AcDbLine
 10
2143.639628850143
 20
1722.885552157691
 30
0.0
 11
2143.639628850143
 21
1833.921929117691
 31
0.0
  0
LINE
  5
BB9
330
1F
100
AcDbEntity
  8
MASSE
  6
AUSGEZOGEN
 62
     1
100
AcDbLine
 10
1827.639567810141
 20
1879.007378337693
 30
0.0
 11
2007.640056100144
 21
1879.007378337693
 31
0.0
  0
LINE
  5
BBA
330
1F
100
AcDbEntity
  8
MASSE
  6
AUSGEZOGEN
 62
     1
100
AcDbLine
 10
2007.640056100144
 20
1747.498345127692
 30
0.0
 11
2007.640056100144
 21
1899.007378337693
 31
0.0
  0
LINE
  5
BBB
330
1F
100
AcDbEntity
  8
MASSE
  6
AUSGEZOGEN
 62
     1
100
AcDbLine
 10
1827.639567810141
 20
1879.007378337693
 30
0.0
 11
1857.382914980139
 21
1882.923149817691
 31
0.0
  0
LINE
  5
BBC
330
1F
100
AcDbEntity
  8
MASSE
  6
AUSGEZOGEN
 62
     1
100
AcDbLine
 10
1827.639567810141
 20
1879.007378337693
 30
0.0
 11
1857.382914980139
 21
1875.09160684769
 31
0.0
  0
LINE
  5
BBD
330
1F
100
AcDbEntity
  8
MASSE
  6
AUSGEZOGEN
 62
     1
100
AcDbLine
 10
2007.640056100144
 20
1879.007378337693
 30
0.0
 11
1977.896708930141
 21
1882.923149817691
 31
0.0
  0
LINE
  5
BBE
330
1F
100
AcDbEntity
  8
MASSE
  6
AUSGEZOGEN
 62
     1
100
AcDbLine
 10
2007.640056100144
 20
1879.007378337693
 30
0.0
 11
1977.896708930141
 21
1875.09160684769
 31
0.0
  0
TEXT
  5
BBF
330
1F
100
AcDbEntity
  8
MASSE
  6
AUSGEZOGEN
 62
     7
100
AcDbText
 10
1875.854106390144
 20
1889.007378337693
 30
0.0
 40
25.0
  1
 180
 41
0.66666669
  7
SIMPLEX
100
AcDbText
  0
LINE
  5
BC0
330
1F
100
AcDbEntity
  8
MASSE
  6
AUSGEZOGEN
 62
     1
100
AcDbLine
 10
1827.639567810141
 20
1787.231743567691
 30
0.0
 11
1827.639567810141
 21
1899.007378337693
 31
0.0
  0
TEXT
  5
BC1
330
1F
100
AcDbEntity
  8
MASSE
  6
AUSGEZOGEN
 62
     7
100
AcDbText
 10
1885.853923280142
 20
1207.38555215769
 30
0.0
 40
25.0
  1
 432
 41
0.66666669
  7
SIMPLEX
100
AcDbText
  0
LINE
  5
BC2
330
1F
100
AcDbEntity
  8
MASSE
  6
AUSGEZOGEN
 62
     1
100
AcDbLine
 10
2143.639628850143
 20
1197.38555215769
 30
0.0
 11
2113.896220650139
 21
1193.469780677692
 31
0.0
  0
LINE
  5
BC3
330
1F
100
AcDbEntity
  8
MASSE
  6
AUSGEZOGEN
 62
     1
100
AcDbLine
 10
2143.639628850143
 20
1197.38555215769
 30
0.0
 11
2113.896220650139
 21
1201.301323647693
 31
0.0
  0
LINE
  5
BC4
330
1F
100
AcDbEntity
  8
MASSE
  6
AUSGEZOGEN
 62
     1
100
AcDbLine
 10
1711.639567810141
 20
1197.38555215769
 30
0.0
 11
1741.382914980139
 21
1193.469780677692
 31
0.0
  0
LINE
  5
BC5
330
1F
100
AcDbEntity
  8
MASSE
  6
AUSGEZOGEN
 62
     1
100
AcDbLine
 10
1711.639567810141
 20
1197.38555215769
 30
0.0
 11
1741.382914980139
 21
1201.301323647693
 31
0.0
  0
LINE
  5
BC6
330
1F
100
AcDbEntity
  8
MASSE
  6
AUSGEZOGEN
 62
     1
100
AcDbLine
 10
2143.639628850143
 20
1367.88555215769
 30
0.0
 11
2143.639628850143
 21
1177.385552157691
 31
0.0
  0
LINE
  5
BC7
330
1F
100
AcDbEntity
  8
MASSE
  6
AUSGEZOGEN
 62
     1
100
AcDbLine
 10
1711.639567810141
 20
1367.88555215769
 30
0.0
 11
1711.639567810141
 21
1177.385552157691
 31
0.0
  0
LINE
  5
BC8
330
1F
100
AcDbEntity
  8
MASSE
  6
AUSGEZOGEN
 62
     1
100
AcDbLine
 10
1711.639567810141
 20
1197.38555215769
 30
0.0
 11
2143.639628850143
 21
1197.38555215769
 31
0.0
  0
TEXT
  5
BC9
330
1F
100
AcDbEntity
  8
MASSE
  6
AUSGEZOGEN
 62
     7
100
AcDbText
 10
1524.139537300144
 20
1503.599785557692
 30
0.0
 40
25.0
  1
 341
 50
90.0
 41
0.66666669
  7
SIMPLEX
100
AcDbText
  0
LINE
  5
BCA
330
1F
100
AcDbEntity
  8
MASSE
  6
AUSGEZOGEN
 62
     1
100
AcDbLine
 10
1534.139537300144
 20
1715.885552157691
 30
0.0
 11
1538.055308780139
 21
1686.142143957691
 31
0.0
  0
LINE
  5
BCB
330
1F
100
AcDbEntity
  8
MASSE
  6
AUSGEZOGEN
 62
     1
100
AcDbLine
 10
1534.139537300144
 20
1715.885552157691
 30
0.0
 11
1530.223765810141
 21
1686.142143957691
 31
0.0
  0
LINE
  5
BCC
330
1F
100
AcDbEntity
  8
MASSE
  6
AUSGEZOGEN
 62
     1
100
AcDbLine
 10
1534.139537300144
 20
1374.885552157691
 30
0.0
 11
1538.055308780139
 21
1404.628960367691
 31
0.0
  0
LINE
  5
BCD
330
1F
100
AcDbEntity
  8
MASSE
  6
AUSGEZOGEN
 62
     1
100
AcDbLine
 10
1534.139537300144
 20
1374.885552157691
 30
0.0
 11
1530.223765810141
 21
1404.628960367691
 31
0.0
  0
LINE
  5
BCE
330
1F
100
AcDbEntity
  8
MASSE
  6
AUSGEZOGEN
 62
     1
100
AcDbLine
 10
1704.639567810141
 20
1715.885552157691
 30
0.0
 11
1514.139537300144
 21
1715.885552157691
 31
0.0
  0
LINE
  5
BCF
330
1F
100
AcDbEntity
  8
MASSE
  6
AUSGEZOGEN
 62
     1
100
AcDbLine
 10
1704.639567810141
 20
1374.885552157691
 30
0.0
 11
1514.139537300144
 21
1374.885552157691
 31
0.0
  0
LINE
  5
BD0
330
1F
100
AcDbEntity
  8
MASSE
  6
AUSGEZOGEN
 62
     1
100
AcDbLine
 10
1534.139537300144
 20
1374.885552157691
 30
0.0
 11
1534.139537300144
 21
1715.885552157691
 31
0.0
  0
TEXT
  5
BD1
330
1F
100
AcDbEntity
  8
MASSE
  6
AUSGEZOGEN
 62
     7
100
AcDbText
 10
1841.389628850143
 20
2044.825737707691
 30
0.0
 40
25.0
  1
 387 x 296
 41
0.66666669
  7
SIMPLEX
100
AcDbText
  0
LINE
  5
BD2
330
1F
100
AcDbEntity
  8
MASSE
  6
AUSGEZOGEN
 62
     1
100
AcDbLine
 10
2121.139628850143
 20
2034.825737707691
 30
0.0
 11
2091.396281680144
 21
2030.909966227692
 31
0.0
  0
LINE
  5
BD3
330
1F
100
AcDbEntity
  8
MASSE
  6
AUSGEZOGEN
 62
     1
100
AcDbLine
 10
2121.139628850143
 20
2034.825737707691
 30
0.0
 11
2091.396281680144
 21
2038.74150919769
 31
0.0
  0
LINE
  5
BD4
330
1F
100
AcDbEntity
  8
MASSE
  6
AUSGEZOGEN
 62
     1
100
AcDbLine
 10
1734.139567810141
 20
2034.825737707691
 30
0.0
 11
1763.882914980139
 21
2030.909966227692
 31
0.0
  0
LINE
  5
BD5
330
1F
100
AcDbEntity
  8
MASSE
  6
AUSGEZOGEN
 62
     1
100
AcDbLine
 10
1734.139567810141
 20
2034.825737707691
 30
0.0
 11
1763.882914980139
 21
2038.74150919769
 31
0.0
  0
LINE
  5
BD6
330
1F
100
AcDbEntity
  8
MASSE
  6
AUSGEZOGEN
 62
     1
100
AcDbLine
 10
1734.139567810141
 20
2034.825737707691
 30
0.0
 11
2121.139628850143
 21
2034.825737707691
 31
0.0
  0
LINE
  5
BD7
330
1F
100
AcDbEntity
  8
MASSE
  6
AUSGEZOGEN
 62
     1
100
AcDbLine
 10
2121.139628850143
 20
2108.39739297769
 30
0.0
 11
2121.139628850143
 21
2012.280693767694
 31
0.0
  0
LINE
  5
BD8
330
1F
100
AcDbEntity
  8
MASSE
  6
AUSGEZOGEN
 62
     1
100
AcDbLine
 10
1734.139567810141
 20
2108.39739297769
 30
0.0
 11
1734.139567810141
 21
2012.280693767694
 31
0.0
  0
LINE
  5
BD9
330
1F
100
AcDbEntity
  8
MITTE
  6
MITTE
 62
     1
100
AcDbLine
 10
1915.63956781014
 20
2508.709038487692
 30
0.0
 11
1915.63956781014
 21
2523.237602947691
 31
0.0
  0
LINE
  5
BDA
330
1F
100
AcDbEntity
  8
MITTE
  6
MITTE
 62
     1
100
AcDbLine
 10
1908.189860780142
 20
2516.897515047691
 30
0.0
 11
1922.954753360141
 21
2516.897515047691
 31
0.0
  0
LINE
  5
BDB
330
1F
100
AcDbEntity
  8
MITTE
  6
MITTE
 62
     1
100
AcDbLine
 10
1820.189860780142
 20
2351.897392977691
 30
0.0
 11
1834.954753360141
 21
2351.897392977691
 31
0.0
  0
LINE
  5
BDC
330
1F
100
AcDbEntity
  8
MITTE
  6
MITTE
 62
     1
100
AcDbLine
 10
2002.960978950142
 20
2418.897515047691
 30
0.0
 11
2036.157145940139
 21
2418.897515047691
 31
0.0
  0
LINE
  5
BDD
330
1F
100
AcDbEntity
  8
MITTE
  6
MITTE
 62
     1
100
AcDbLine
 10
2007.640056100144
 20
2389.694390047691
 30
0.0
 11
2007.640056100144
 21
2446.624565837692
 31
0.0
  0
ARC
  5
BDE
330
1F
100
AcDbEntity
  8
LOGO2
  6
AUSGEZOGEN
 62
     1
100
AcDbCircle
 10
1888.683879340141
 20
2208.902642007691
 30
0.0
 40
4.779624939999999
100
AcDbArc
 50
77.72080230988613
 51
282.2791748001312
  0
TEXT
  5
BDF
330
1F
100
AcDbEntity
  8
LOGO2
  6
AUSGEZOGEN
 62
     1
100
AcDbText
 10
1907.065959420143
 20
2202.549980867694
 30
0.0
 40
10.0
  1
pa
 41
0.57244445
100
AcDbText
  0
LINE
  5
BE0
330
1F
100
AcDbEntity
  8
LOGO2
  6
AUSGEZOGEN
 62
     1
100
AcDbLine
 10
1869.017131290141
 20
2202.434746497692
 30
0.0
 11
1873.331584420143
 21
2215.370537517693
 31
0.0
  0
LINE
  5
BE1
330
1F
100
AcDbEntity
  8
LOGO2
  6
AUSGEZOGEN
 62
     1
100
AcDbLine
 10
1876.258586370139
 20
2215.370293367693
 30
0.0
 11
1880.383098090141
 21
2202.434502357693
 31
0.0
  0
ARC
  5
BE2
330
1F
100
AcDbEntity
  8
LOGO2
  6
AUSGEZOGEN
 62
     1
100
AcDbCircle
 10
1887.392375430144
 20
2208.902642007691
 30
0.0
 40
6.467885019999999
100
AcDbArc
 50
62.48622131010839
 51
297.5137634298948
  0
LINE
  5
BE3
330
1F
100
AcDbEntity
  8
LOGO2
  6
AUSGEZOGEN
 62
     1
100
AcDbLine
 10
1890.380412540141
 20
2214.638848057692
 30
0.0
 11
1889.694865670143
 21
2213.56438516769
 31
0.0
  0
LINE
  5
BE4
330
1F
100
AcDbEntity
  8
LOGO2
  6
AUSGEZOGEN
 62
     1
100
AcDbLine
 10
1890.380412540141
 20
2203.166191807692
 30
0.0
 11
1889.694865670143
 21
2204.240776767691
 31
0.0
  0
POLYLINE
  5
BE5
330
1F
100
AcDbEntity
  8
LOGO2
  6
AUSGEZOGEN
 62
     1
100
AcDb2dPolyline
 66
     1
 10
0.0
 20
0.0
 30
0.0
  0
VERTEX
  5
BE6
330
BE5
100
AcDbEntity
  8
LOGO2
  6
AUSGEZOGEN
 62
     1
100
AcDbVertex
100
AcDb2dVertex
 10
1894.172099550139
 20
2208.300469157693
 30
0.0
 42
0.08016691
 70
     2
 50
270.0
  0
VERTEX
  5
BE7
330
BE5
100
AcDbEntity
  8
LOGO2
  6
AUSGEZOGEN
 62
     1
100
AcDbVertex
100
AcDb2dVertex
 10
1894.416789490141
 20
2206.762871497692
 30
0.0
 42
0.08892266
 70
     2
 50
292.5
  0
VERTEX
  5
BE8
330
BE5
100
AcDbEntity
  8
LOGO2
  6
AUSGEZOGEN
 62
     1
100
AcDbVertex
100
AcDb2dVertex
 10
1895.113566840141
 20
2205.459282627692
 30
0.0
 42
0.10495675
 70
     2
 50
315.0
  0
VERTEX
  5
BE9
330
BE5
100
AcDbEntity
  8
LOGO2
  6
AUSGEZOGEN
 62
     1
100
AcDbVertex
100
AcDb2dVertex
 10
1896.156413520142
 20
2204.588310947692
 30
0.0
 42
0.12001122
 70
     2
 50
337.5
  0
VERTEX
  5
BEA
330
BE5
100
AcDbEntity
  8
LOGO2
  6
AUSGEZOGEN
 62
     1
100
AcDbVertex
100
AcDb2dVertex
 10
1897.386516060143
 20
2204.282402747692
 30
0.0
 42
0.12001122
 70
     2
  0
VERTEX
  5
BEB
330
BE5
100
AcDbEntity
  8
LOGO2
  6
AUSGEZOGEN
 62
     1
100
AcDbVertex
100
AcDb2dVertex
 10
1898.616618600144
 20
2204.588310947692
 30
0.0
 42
0.10495682
 70
     2
 50
22.5
  0
VERTEX
  5
BEC
330
BE5
100
AcDbEntity
  8
LOGO2
  6
AUSGEZOGEN
 62
     1
100
AcDbVertex
100
AcDb2dVertex
 10
1899.65946527014
 20
2205.459282627692
 30
0.0
 42
0.08892266
 70
     2
 50
45.00003051999999
  0
VERTEX
  5
BED
330
BE5
100
AcDbEntity
  8
LOGO2
  6
AUSGEZOGEN
 62
     1
100
AcDbVertex
100
AcDb2dVertex
 10
1900.35624262014
 20
2206.762871497692
 30
0.0
 42
0.08016685
 70
     2
 50
67.5
  0
VERTEX
  5
BEE
330
BE5
100
AcDbEntity
  8
LOGO2
  6
AUSGEZOGEN
 62
     1
100
AcDbVertex
100
AcDb2dVertex
 10
1900.600932560142
 20
2208.300469157693
 30
0.0
 50
67.5
  0
SEQEND
  5
BEF
330
BE5
100
AcDbEntity
  8
LOGO2
 62
     1
  0
POLYLINE
  5
BF0
330
1F
100
AcDbEntity
  8
LOGO2
  6
AUSGEZOGEN
 62
     1
100
AcDb2dPolyline
 66
     1
 10
0.0
 20
0.0
 30
0.0
  0
VERTEX
  5
BF1
330
BF0
100
AcDbEntity
  8
LOGO2
  6
AUSGEZOGEN
 62
     1
100
AcDbVertex
100
AcDb2dVertex
 10
1900.600932560142
 20
2209.504814857693
 30
0.0
 42
0.08016685
 70
     2
 50
90.0
  0
VERTEX
  5
BF2
330
BF0
100
AcDbEntity
  8
LOGO2
  6
AUSGEZOGEN
 62
     1
100
AcDbVertex
100
AcDb2dVertex
 10
1900.35624262014
 20
2211.042412517693
 30
0.0
 42
0.0889228
 70
     2
 50
112.5
  0
VERTEX
  5
BF3
330
BF0
100
AcDbEntity
  8
LOGO2
  6
AUSGEZOGEN
 62
     1
100
AcDbVertex
100
AcDb2dVertex
 10
1899.65946527014
 20
2212.346001377692
 30
0.0
 42
0.10495669
 70
     2
 50
135.00003052
  0
VERTEX
  5
BF4
330
BF0
100
AcDbEntity
  8
LOGO2
  6
AUSGEZOGEN
 62
     1
100
AcDbVertex
100
AcDb2dVertex
 10
1898.616618600144
 20
2213.216973057693
 30
0.0
 42
0.12001122
 70
     2
 50
157.5
  0
VERTEX
  5
BF5
330
BF0
100
AcDbEntity
  8
LOGO2
  6
AUSGEZOGEN
 62
     1
100
AcDbVertex
100
AcDb2dVertex
 10
1897.386516060143
 20
2213.522881267693
 30
0.0
 42
0.12001122
 70
     2
 50
180.0
  0
VERTEX
  5
BF6
330
BF0
100
AcDbEntity
  8
LOGO2
  6
AUSGEZOGEN
 62
     1
100
AcDbVertex
100
AcDb2dVertex
 10
1896.156413520142
 20
2213.216973057693
 30
0.0
 42
0.10495672
 70
     2
 50
202.5
  0
VERTEX
  5
BF7
330
BF0
100
AcDbEntity
  8
LOGO2
  6
AUSGEZOGEN
 62
     1
100
AcDbVertex
100
AcDb2dVertex
 10
1895.113566840141
 20
2212.346001377692
 30
0.0
 42
0.08892269
 70
     2
 50
225.0
  0
VERTEX
  5
BF8
330
BF0
100
AcDbEntity
  8
LOGO2
  6
AUSGEZOGEN
 62
     1
100
AcDbVertex
100
AcDb2dVertex
 10
1894.416789490141
 20
2211.042412517693
 30
0.0
 42
0.08016688
 70
     2
 50
247.5
  0
VERTEX
  5
BF9
330
BF0
100
AcDbEntity
  8
LOGO2
  6
AUSGEZOGEN
 62
     1
100
AcDbVertex
100
AcDb2dVertex
 10
1894.172099550139
 20
2209.504814857693
 30
0.0
 50
247.5
  0
SEQEND
  5
BFA
330
BF0
100
AcDbEntity
  8
LOGO2
 62
     1
  0
LINE
  5
BFB
330
1F
100
AcDbEntity
  8
LOGO2
  6
AUSGEZOGEN
 62
     1
100
AcDbLine
 10
1894.172160590141
 20
2209.504814857693
 30
0.0
 11
1894.172160590141
 21
2208.300469157693
 31
0.0
  0
LINE
  5
BFC
330
1F
100
AcDbEntity
  8
LOGO2
  6
AUSGEZOGEN
 62
     1
100
AcDbLine
 10
1900.601115670143
 20
2209.504814857693
 30
0.0
 11
1900.601115670143
 21
2208.300469157693
 31
0.0
  0
CIRCLE
  5
BFD
330
1F
100
AcDbEntity
  8
LOGO2
  6
AUSGEZOGEN
 62
     1
100
AcDbCircle
 10
1897.386516060143
 20
2208.902642007691
 30
0.0
 40
6.46788406
  0
LINE
  5
BFE
330
1F
100
AcDbEntity
  8
LOGO2
  6
AUSGEZOGEN
 62
     1
100
AcDbLine
 10
1871.878459420143
 20
2206.27275919769
 30
0.0
 11
1874.393351990141
 21
2213.81292032769
 31
0.0
  0
LINE
  5
BFF
330
1F
100
AcDbEntity
  8
LOGO2
  6
AUSGEZOGEN
 62
     1
100
AcDbLine
 10
1874.393351990141
 20
2213.813164467693
 30
0.0
 11
1876.797648870139
 21
2206.272881267693
 31
0.0
  0
LINE
  5
C00
330
1F
100
AcDbEntity
  8
LOGO2
  6
AUSGEZOGEN
 62
     1
100
AcDbLine
 10
1871.878459420143
 20
2206.27275919769
 30
0.0
 11
1876.797648870139
 21
2206.27275919769
 31
0.0
  0
LINE
  5
C01
330
1F
100
AcDbEntity
  8
LOGO2
  6
AUSGEZOGEN
 62
     1
100
AcDbLine
 10
1871.37821527014
 20
2204.77275919769
 30
0.0
 11
1877.275920350142
 21
2204.77275919769
 31
0.0
  0
LINE
  5
C02
330
1F
100
AcDbEntity
  8
LOGO2
  6
AUSGEZOGEN
 62
     1
100
AcDbLine
 10
1877.275920350142
 20
2204.77275919769
 30
0.0
 11
1878.021281680144
 21
2202.434746497692
 31
0.0
  0
LINE
  5
C03
330
1F
100
AcDbEntity
  8
LOGO2
  6
AUSGEZOGEN
 62
     1
100
AcDbLine
 10
1870.598430120139
 20
2202.434746497692
 30
0.0
 11
1871.37821527014
 21
2204.77275919769
 31
0.0
  0
LINE
  5
C04
330
1F
100
AcDbEntity
  8
LOGO2
  6
AUSGEZOGEN
 62
     1
100
AcDbLine
 10
1873.331584420143
 20
2215.370537517693
 30
0.0
 11
1876.25834223014
 21
2215.370537517693
 31
0.0
  0
LINE
  5
C05
330
1F
100
AcDbEntity
  8
LOGO2
  6
AUSGEZOGEN
 62
     1
100
AcDbLine
 10
1869.017131290141
 20
2202.434746497692
 30
0.0
 11
1870.598430120139
 21
2202.434746497692
 31
0.0
  0
LINE
  5
C06
330
1F
100
AcDbEntity
  8
LOGO2
  6
AUSGEZOGEN
 62
     1
100
AcDbLine
 10
1880.383098090141
 20
2202.434746497692
 30
0.0
 11
1878.021525820143
 21
2202.434746497692
 31
0.0
  0
LINE
  5
C07
330
1F
100
AcDbEntity
  8
LOGO2
  6
AUSGEZOGEN
 62
     1
100
AcDbLine
 10
1863.127726990141
 20
2207.177056067691
 30
0.0
 11
1867.245646920143
 21
2207.177056067691
 31
0.0
  0
LINE
  5
C08
330
1F
100
AcDbEntity
  8
LOGO2
  6
AUSGEZOGEN
 62
     1
100
AcDbLine
 10
1867.245646920143
 20
2207.177056067691
 30
0.0
 11
1867.245646920143
 21
2219.773125407693
 31
0.0
  0
LINE
  5
C09
330
1F
100
AcDbEntity
  8
LOGO2
  6
AUSGEZOGEN
 62
     1
100
AcDbLine
 10
1867.245646920143
 20
2219.773125407693
 30
0.0
 11
1863.127726990141
 21
2219.773125407693
 31
0.0
  0
LINE
  5
C0A
330
1F
100
AcDbEntity
  8
LOGO2
  6
AUSGEZOGEN
 62
     1
100
AcDbLine
 10
1863.127726990141
 20
2219.773125407693
 30
0.0
 11
1863.127726990141
 21
2207.176933997692
 31
0.0
  0
LINE
  5
C0B
330
1F
100
AcDbEntity
  8
LOGO2
  6
AUSGEZOGEN
 62
     1
100
AcDbLine
 10
1856.44462152014
 20
2207.177056067691
 30
0.0
 11
1860.562541450142
 21
2207.177056067691
 31
0.0
  0
LINE
  5
C0C
330
1F
100
AcDbEntity
  8
LOGO2
  6
AUSGEZOGEN
 62
     1
100
AcDbLine
 10
1860.562541450142
 20
2207.177056067691
 30
0.0
 11
1860.562541450142
 21
2219.773125407693
 31
0.0
  0
LINE
  5
C0D
330
1F
100
AcDbEntity
  8
LOGO2
  6
AUSGEZOGEN
 62
     1
100
AcDbLine
 10
1860.562541450142
 20
2219.773125407693
 30
0.0
 11
1856.44462152014
 21
2219.773125407693
 31
0.0
  0
LINE
  5
C0E
330
1F
100
AcDbEntity
  8
LOGO2
  6
AUSGEZOGEN
 62
     1
100
AcDbLine
 10
1856.44462152014
 20
2219.773125407693
 30
0.0
 11
1856.44462152014
 21
2207.176933997692
 31
0.0
  0
LINE
  5
C0F
330
1F
100
AcDbEntity
  8
LOGO2
  6
AUSGEZOGEN
 62
     1
100
AcDbLine
 10
1849.761271920143
 20
2207.177056067691
 30
0.0
 11
1853.879191840141
 21
2207.177056067691
 31
0.0
  0
LINE
  5
C10
330
1F
100
AcDbEntity
  8
LOGO2
  6
AUSGEZOGEN
 62
     1
100
AcDbLine
 10
1853.879191840141
 20
2207.177056067691
 30
0.0
 11
1853.879191840141
 21
2219.773125407693
 31
0.0
  0
LINE
  5
C11
330
1F
100
AcDbEntity
  8
LOGO2
  6
AUSGEZOGEN
 62
     1
100
AcDbLine
 10
1853.879191840141
 20
2219.773125407693
 30
0.0
 11
1849.761271920143
 21
2219.773125407693
 31
0.0
  0
LINE
  5
C12
330
1F
100
AcDbEntity
  8
LOGO2
  6
AUSGEZOGEN
 62
     1
100
AcDbLine
 10
1849.761271920143
 20
2219.773125407693
 30
0.0
 11
1849.761271920143
 21
2207.176933997692
 31
0.0
  0
TEXT
  5
C13
330
1F
100
AcDbEntity
  8
LOGO2
  6
AUSGEZOGEN
 62
     1
100
AcDbText
 10
1868.350383240141
 20
2193.953789467693
 30
0.0
 40
5.0
  1
Gebaeudeentwae
 41
0.7155591300000001
  7
COMPLEX
100
AcDbText
  0
LINE
  5
C14
330
1F
100
AcDbEntity
  8
PUMPE
  6
AUSGEZOGEN
 62
     1
100
AcDbLine
 10
2018.120768990143
 20
2207.331475017694
 30
0.0
 11
2018.120768990143
 21
2216.331475017693
 31
0.0
  0
LINE
  5
C15
330
1F
100
AcDbEntity
  8
PUMPE
  6
AUSGEZOGEN
 62
     1
100
AcDbLine
 10
2052.120768990143
 20
2207.331475017694
 30
0.0
 11
2052.120768990143
 21
2216.331475017693
 31
0.0
  0
LINE
  5
C16
330
1F
100
AcDbEntity
  8
PUMPE
  6
AUSGEZOGEN
 62
     1
100
AcDbLine
 10
2052.120768990143
 20
2207.331475017694
 30
0.0
 11
2018.120768990143
 21
2207.331475017694
 31
0.0
  0
LINE
  5
C17
330
1F
100
AcDbEntity
  8
PUMPE
  6
AUSGEZOGEN
 62
     1
100
AcDbLine
 10
2018.120768990143
 20
2216.331475017693
 30
0.0
 11
2052.120768990143
 21
2216.331475017693
 31
0.0
  0
LINE
  5
C18
330
1F
100
AcDbEntity
  8
PUMPE
  6
AUSGEZOGEN
 62
     1
100
AcDbLine
 10
2064.939677680142
 20
2398.49736856769
 30
0.0
 11
2064.939677680142
 21
2407.497368567691
 31
0.0
  0
LINE
  5
C19
330
1F
100
AcDbEntity
  8
PUMPE
  6
AUSGEZOGEN
 62
     1
100
AcDbLine
 10
2030.939616640143
 20
2407.497368567691
 30
0.0
 11
2064.939677680142
 21
2407.497368567691
 31
0.0
  0
LINE
  5
C1A
330
1F
100
AcDbEntity
  8
PUMPE
  6
AUSGEZOGEN
 62
     1
100
AcDbLine
 10
2064.939677680142
 20
2398.49736856769
 30
0.0
 11
2030.939616640143
 21
2398.49736856769
 31
0.0
  0
LINE
  5
C1B
330
1F
100
AcDbEntity
  8
PUMPE
  6
AUSGEZOGEN
 62
     1
100
AcDbLine
 10
2030.939616640143
 20
2398.49736856769
 30
0.0
 11
2030.939616640143
 21
2407.497368567691
 31
0.0
  0
LINE
  5
C1C
330
1F
100
AcDbEntity
  8
DIN84
  6
AUSGEZOGEN
 62
     1
100
AcDbLine
 10
2033.121013130142
 20
2209.30657266769
 30
0.0
 11
2030.11637445014
 21
2209.30657266769
 31
0.0
  0
LINE
  5
C1D
330
1F
100
AcDbEntity
  8
DIN84
  6
AUSGEZOGEN
 62
     1
100
AcDbLine
 10
2030.11637445014
 20
2214.306572667689
 30
0.0
 11
2033.120768990143
 21
2214.306572667689
 31
0.0
  0
LINE
  5
C1E
330
1F
100
AcDbEntity
  8
DIN84
  6
AUSGEZOGEN
 62
     1
100
AcDbLine
 10
2033.121013130142
 20
2213.815605867694
 30
0.0
 11
2030.11637445014
 21
2213.815605867694
 31
0.0
  0
LINE
  5
C1F
330
1F
100
AcDbEntity
  8
DIN84
  6
AUSGEZOGEN
 62
     1
100
AcDbLine
 10
2033.121013130142
 20
2209.797295327691
 30
0.0
 11
2030.11637445014
 21
2209.797295327691
 31
0.0
  0
LINE
  5
C20
330
1F
100
AcDbEntity
  8
DIN84
  6
AUSGEZOGEN
 62
     1
100
AcDbLine
 10
2030.11637445014
 20
2209.30657266769
 30
0.0
 11
2030.11637445014
 21
2214.306572667689
 31
0.0
  0
LINE
  5
C21
330
1F
100
AcDbEntity
  8
DIN84
  6
AUSGEZOGEN
 62
     1
100
AcDbLine
 10
2040.238200630142
 20
2207.829277747692
 30
0.0
 11
2037.120768990143
 21
2207.55632852769
 31
0.0
  0
LINE
  5
C22
330
1F
100
AcDbEntity
  8
DIN84
  6
AUSGEZOGEN
 62
     1
100
AcDbLine
 10
2040.420817810141
 20
2211.206475017693
 30
0.0
 11
2040.420817810141
 21
2208.028496497692
 31
0.0
  0
ARC
  5
C23
330
1F
100
AcDbEntity
  8
DIN84
  6
AUSGEZOGEN
 62
     1
100
AcDbCircle
 10
2040.220866640143
 20
2208.028496497692
 30
0.0
 40
0.20001224
100
AcDbArc
 50
275.0076293899299
 51
0.0
  0
LINE
  5
C24
330
1F
100
AcDbEntity
  8
DIN84
  6
AUSGEZOGEN
 62
     1
100
AcDbLine
 10
2040.420817810141
 20
2215.584404697692
 30
0.0
 11
2040.420817810141
 21
2212.406426187691
 31
0.0
  0
LINE
  5
C25
330
1F
100
AcDbEntity
  8
DIN84
  6
AUSGEZOGEN
 62
     1
100
AcDbLine
 10
2037.120768990143
 20
2216.05657266769
 30
0.0
 11
2040.238200630142
 21
2215.783623447692
 31
0.0
  0
ARC
  5
C26
330
1F
100
AcDbEntity
  8
DIN84
  6
AUSGEZOGEN
 62
     1
100
AcDbCircle
 10
2040.220866640143
 20
2215.584404697692
 30
0.0
 40
0.19997677
100
AcDbArc
 50
0.0
 51
85.00982666000563
  0
LINE
  5
C27
330
1F
100
AcDbEntity
  8
DIN84
  6
AUSGEZOGEN
 62
     1
100
AcDbLine
 10
2038.620768990143
 20
2211.206475017693
 30
0.0
 11
2040.420817810141
 21
2211.206475017693
 31
0.0
  0
LINE
  5
C28
330
1F
100
AcDbEntity
  8
DIN84
  6
AUSGEZOGEN
 62
     1
100
AcDbLine
 10
2038.620768990143
 20
2212.406426187691
 30
0.0
 11
2038.620768990143
 21
2211.206475017693
 31
0.0
  0
LINE
  5
C29
330
1F
100
AcDbEntity
  8
DIN84
  6
AUSGEZOGEN
 62
     1
100
AcDbLine
 10
2040.420817810141
 20
2212.406426187691
 30
0.0
 11
2038.620768990143
 21
2212.406426187691
 31
0.0
  0
LINE
  5
C2A
330
1F
100
AcDbEntity
  8
DIN84
  6
AUSGEZOGEN
 62
     1
100
AcDbLine
 10
2045.939616640143
 20
2400.472466227692
 30
0.0
 11
2042.935100040141
 21
2400.472466227692
 31
0.0
  0
LINE
  5
C2B
330
1F
100
AcDbEntity
  8
DIN84
  6
AUSGEZOGEN
 62
     1
100
AcDbLine
 10
2042.935100040141
 20
2405.472466227692
 30
0.0
 11
2045.939616640143
 21
2405.472466227692
 31
0.0
  0
LINE
  5
C2C
330
1F
100
AcDbEntity
  8
DIN84
  6
AUSGEZOGEN
 62
     1
100
AcDbLine
 10
2045.939738710143
 20
2404.981255287692
 30
0.0
 11
2042.935222110141
 21
2404.981255287692
 31
0.0
  0
LINE
  5
C2D
330
1F
100
AcDbEntity
  8
DIN84
  6
AUSGEZOGEN
 62
     1
100
AcDbLine
 10
2045.939616640143
 20
2400.963188877691
 30
0.0
 11
2042.935100040141
 21
2400.963188877691
 31
0.0
  0
LINE
  5
C2E
330
1F
100
AcDbEntity
  8
DIN84
  6
AUSGEZOGEN
 62
     1
100
AcDbLine
 10
2042.934977970142
 20
2400.472466227692
 30
0.0
 11
2042.934977970142
 21
2405.472466227692
 31
0.0
  0
LINE
  5
C2F
330
1F
100
AcDbEntity
  8
DIN84
  6
AUSGEZOGEN
 62
     1
100
AcDbLine
 10
2053.056926210143
 20
2398.995171297691
 30
0.0
 11
2049.939494570143
 21
2398.721977947691
 31
0.0
  0
LINE
  5
C30
330
1F
100
AcDbEntity
  8
DIN84
  6
AUSGEZOGEN
 62
     1
100
AcDbLine
 10
2053.239543400142
 20
2402.372368567691
 30
0.0
 11
2053.239543400142
 21
2399.194390047691
 31
0.0
  0
ARC
  5
C31
330
1F
100
AcDbEntity
  8
DIN84
  6
AUSGEZOGEN
 62
     1
100
AcDbCircle
 10
2053.03959223014
 20
2399.194390047691
 30
0.0
 40
0.20001234
100
AcDbArc
 50
275.0076293899299
 51
0.0
  0
LINE
  5
C32
330
1F
100
AcDbEntity
  8
DIN84
  6
AUSGEZOGEN
 62
     1
100
AcDbLine
 10
2053.239543400142
 20
2406.750298257692
 30
0.0
 11
2053.239543400142
 21
2403.572319737692
 31
0.0
  0
LINE
  5
C33
330
1F
100
AcDbEntity
  8
DIN84
  6
AUSGEZOGEN
 62
     1
100
AcDbLine
 10
2049.939616640143
 20
2407.222466227691
 30
0.0
 11
2053.056926210143
 21
2406.949517007692
 31
0.0
  0
ARC
  5
C34
330
1F
100
AcDbEntity
  8
DIN84
  6
AUSGEZOGEN
 62
     1
100
AcDbCircle
 10
2053.03959223014
 20
2406.750298257692
 30
0.0
 40
0.19997688
100
AcDbArc
 50
0.00001366037834
 51
85.00981139994957
  0
LINE
  5
C35
330
1F
100
AcDbEntity
  8
DIN84
  6
AUSGEZOGEN
 62
     1
100
AcDbLine
 10
2051.439494570143
 20
2402.372368567691
 30
0.0
 11
2053.239543400142
 21
2402.372368567691
 31
0.0
  0
LINE
  5
C36
330
1F
100
AcDbEntity
  8
DIN84
  6
AUSGEZOGEN
 62
     1
100
AcDbLine
 10
2051.439494570143
 20
2403.572319737692
 30
0.0
 11
2051.439494570143
 21
2402.372368567691
 31
0.0
  0
LINE
  5
C37
330
1F
100
AcDbEntity
  8
DIN84
  6
AUSGEZOGEN
 62
     1
100
AcDbLine
 10
2053.239543400142
 20
2403.572319737692
 30
0.0
 11
2051.439616640143
 21
2403.572319737692
 31
0.0
  0
LINE
  5
C38
330
1F
100
AcDbEntity
  8
ANSCHLUS
  6
AUSGEZOGEN
 62
     1
100
AcDbLine
 10
1722.809367620139
 20
2409.657524817691
 30
0.0
 11
1718.075602970142
 21
2409.657524817691
 31
0.0
  0
LINE
  5
C39
330
1F
100
AcDbEntity
  8
ANSCHLUS
  6
GESTRICHELT
 62
     1
100
AcDbLine
 10
1722.809367620139
 20
2414.277642007692
 30
0.0
 11
1723.349528750144
 21
2414.277642007692
 31
0.0
  0
LINE
  5
C3A
330
1F
100
AcDbEntity
  8
ANSCHLUS
  6
GESTRICHELT
 62
     1
100
AcDbLine
 10
1722.809367620139
 20
2423.517876377691
 30
0.0
 11
1723.349528750144
 21
2423.517876377691
 31
0.0
  0
LINE
  5
C3B
330
1F
100
AcDbEntity
  8
ANSCHLUS
  6
GESTRICHELT
 62
     1
100
AcDbLine
 10
1722.809367620139
 20
2428.137993567691
 30
0.0
 11
1723.208415470141
 21
2428.137993567691
 31
0.0
  0
LINE
  5
C3C
330
1F
100
AcDbEntity
  8
ANSCHLUS
  6
AUSGEZOGEN
 62
     1
100
AcDbLine
 10
1715.143962350144
 20
2413.897759197691
 30
0.0
 11
1715.143962350144
 21
2423.897515047691
 31
0.0
  0
LINE
  5
C3D
330
1F
100
AcDbEntity
  8
ANSCHLUS
  6
AUSGEZOGEN
 62
     1
100
AcDbLine
 10
1717.142009220141
 20
2413.897759197691
 30
0.0
 11
1715.143962350144
 21
2413.897759197691
 31
0.0
  0
LINE
  5
C3E
330
1F
100
AcDbEntity
  8
ANSCHLUS
  6
AUSGEZOGEN
 62
     1
100
AcDbLine
 10
1717.142009220141
 20
2423.897759197691
 30
0.0
 11
1715.143962350144
 21
2423.897515047691
 31
0.0
  0
LINE
  5
C3F
330
1F
100
AcDbEntity
  8
ANSCHLUS
  6
AUSGEZOGEN
 62
     1
100
AcDbLine
 10
1717.142009220141
 20
2412.049126377691
 30
0.0
 11
1717.142009220141
 21
2425.746147867691
 31
0.0
  0
ARC
  5
C40
330
1F
100
AcDbEntity
  8
ANSCHLUS
  6
AUSGEZOGEN
 62
     1
100
AcDbCircle
 10
1720.671306100143
 20
2412.049126377691
 30
0.0
 40
3.529366969999999
100
AcDbArc
 50
140.8449554399765
 51
222.6565704301428
  0
ARC
  5
C41
330
1F
100
AcDbEntity
  8
ANSCHLUS
  6
GESTRICHELT
 62
     1
100
AcDbCircle
 10
1720.612712350144
 20
2412.049126377691
 30
0.0
 40
3.529366969999999
100
AcDbArc
 50
317.3434448199284
 51
39.15509033003927
  0
ARC
  5
C42
330
1F
100
AcDbEntity
  8
ANSCHLUS
  6
AUSGEZOGEN
 62
     1
100
AcDbCircle
 10
1731.001872500144
 20
2418.897759197691
 30
0.0
 40
13.86007595
100
AcDbArc
 50
160.5291747999933
 51
199.4716186500661
  0
ARC
  5
C43
330
1F
100
AcDbEntity
  8
ANSCHLUS
  6
GESTRICHELT
 62
     1
100
AcDbCircle
 10
1710.282634220141
 20
2418.897759197691
 30
0.0
 40
13.86007595
100
AcDbArc
 50
340.5283203100463
 51
19.4708252000067
  0
ARC
  5
C44
330
1F
100
AcDbEntity
  8
ANSCHLUS
  6
AUSGEZOGEN
 62
     1
100
AcDbCircle
 10
1720.671794380142
 20
2425.746392007692
 30
0.0
 40
3.529745339999999
100
AcDbArc
 50
137.3488464400044
 51
219.1500549299649
  0
ARC
  5
C45
330
1F
100
AcDbEntity
  8
ANSCHLUS
  6
GESTRICHELT
 62
     1
100
AcDbCircle
 10
1720.612224060141
 20
2425.746392007692
 30
0.0
 40
3.529745339999999
100
AcDbArc
 50
320.8499145500962
 51
42.65115355999557
  0
LINE
  5
C46
330
1F
100
AcDbEntity
  8
ANSCHLUS
  6
AUSGEZOGEN
 62
     1
100
AcDbLine
 10
1718.075602970142
 20
2428.137993567691
 30
0.0
 11
1722.809367620139
 21
2428.137993567691
 31
0.0
  0
LINE
  5
C47
330
1F
100
AcDbEntity
  8
ANSCHLUS
  6
GESTRICHELT
 62
     1
100
AcDbLine
 10
1723.208415470141
 20
2409.657524817691
 30
0.0
 11
1722.809367620139
 21
2409.657524817691
 31
0.0
  0
LINE
  5
C48
330
1F
100
AcDbEntity
  8
ANSCHLUS
  6
AUSGEZOGEN
 62
     1
100
AcDbLine
 10
1717.934489690139
 20
2414.277642007692
 30
0.0
 11
1722.809367620139
 21
2414.277642007692
 31
0.0
  0
LINE
  5
C49
330
1F
100
AcDbEntity
  8
ANSCHLUS
  6
AUSGEZOGEN
 62
     1
100
AcDbLine
 10
1717.934489690139
 20
2423.517876377691
 30
0.0
 11
1722.809367620139
 21
2423.517876377691
 31
0.0
  0
ENDSEC
  0
SECTION
  2
OBJECTS
  0
DICTIONARY
  5
C
330
0
100
AcDbDictionary
281
     1
  3
ACAD_COLOR
350
D7
  3
ACAD_GROUP
350
D
  3
ACAD_LAYOUT
350
1A
  3
ACAD_MATERIAL
350
D6
  3
ACAD_MLINESTYLE
350
17
  3
ACAD_PLOTSETTINGS
350
19
  3
ACAD_PLOTSTYLENAME
350
E
  3
ACAD_TABLESTYLE
350
133
  3
ACDBHEADERROUNDTRIPXREC
350
C4F
  3
AcDbVariableDictionary
350
34
  3
AcmDictionary
350
49
  3
AMG
350
2B
  3
AMGSNAPSETTINGS
350
2C4
  3
DWGPROPS
350
C4E
  0
DICTIONARY
  5
C0
330
2
100
AcDbDictionary
280
     1
281
     1
  3
ACAD_LAYERSTATES
360
327
  3
AMLAYER_GROUPCOLORS
360
C1
  0
DICTIONARY
  5
83
330
1F
100
AcDbDictionary
280
     1
281
     1
  0
DICTIONARY
  5
D7
102
{ACAD_REACTORS
330
C
102
}
330
C
100
AcDbDictionary
281
     1
  0
DICTIONARY
  5
D
102
{ACAD_REACTORS
330
C
102
}
330
C
100
AcDbDictionary
281
     1
  0
DICTIONARY
  5
1A
102
{ACAD_REACTORS
330
C
102
}
330
C
100
AcDbDictionary
281
     1
  3
Layout1
350
1E
  3
Layout2
350
26
  3
Model
350
22
  0
DICTIONARY
  5
D6
102
{ACAD_REACTORS
330
C
102
}
330
C
100
AcDbDictionary
281
     1
  0
DICTIONARY
  5
17
102
{ACAD_REACTORS
330
C
102
}
330
C
100
AcDbDictionary
281
     1
  3
Standard
350
18
  0
DICTIONARY
  5
19
102
{ACAD_REACTORS
330
C
102
}
330
C
100
AcDbDictionary
281
     1
  0
ACDBDICTIONARYWDFLT
  5
E
102
{ACAD_REACTORS
330
C
102
}
330
C
100
AcDbDictionary
281
     1
  3
Normal
350
F
100
AcDbDictionaryWithDefault
340
F
  0
DICTIONARY
  5
133
102
{ACAD_REACTORS
330
C
102
}
330
C
100
AcDbDictionary
281
     1
  3
Standard
350
134
  0
DICTIONARY
  5
C4F
102
{ACAD_REACTORS
330
C
102
}
330
C
100
AcDbDictionary
281
     1
  0
DICTIONARY
  5
34
102
{ACAD_REACTORS
330
C
102
}
330
C
100
AcDbDictionary
281
     1
  3
CTABLESTYLE
350
152
  3
DIMASSOC
350
AD
  3
INDEXCTL
350
35
  3
PROJECTNAME
350
C4C
  0
DICTIONARY
  5
49
102
{ACAD_REACTORS
330
C
102
}
330
C
100
AcDbDictionary
281
     1
  3
AcmBOM
350
2CB
  3
AcmStdDictionary
350
4A
  3
AMDTSECTSYM_ARROWCOLOR
350
13D
  0
DICTIONARY
  5
2B
102
{ACAD_REACTORS
330
C
102
}
330
C
100
AcDbDictionary
281
     1
  0
DICTIONARY
  5
2C4
102
{ACAD_REACTORS
330
C
102
}
330
C
100
AcDbDictionary
281
     1
  0
XRECORD
  5
C4E
102
{ACAD_REACTORS
330
C
102
}
330
C
100
AcDbXrecord
280
     1
  1
DWGPROPS COOKIE
  2

  3

  4

  6

  7

  8

  9

300
AmdtFileType=84
301
=
302
=
303
=
304
=
305
=
306
=
307
=
308
=
309
=
 40
0.0003311342592593
 41
2454055.600315926
 42
2454055.600646702
  1

 90
        1
  0
DICTIONARY
  5
327
102
{ACAD_REACTORS
330
C0
102
}
330
C0
100
AcDbDictionary
281
     1
  0
DICTIONARY
  5
C1
102
{ACAD_REACTORS
330
C0
102
}
330
C0
100
AcDbDictionary
280
     1
281
     1
  0
LAYOUT
  5
1E
102
{ACAD_XDICTIONARY
360
C50
102
}
102
{ACAD_REACTORS
330
1A
102
}
330
1A
100
AcDbPlotSettings
  1

  2
none_device
  4
Letter_(8.50_x_11.00_Inches)
  6

 40
6.349999904632568
 41
6.349999904632568
 42
6.350006103515625
 43
6.350006103515625
 44
215.8999938964844
 45
279.3999938964844
 46
0.0
 47
0.0
 48
0.0
 49
0.0
140
0.0
141
0.0
142
1.0
143
1.0
 70
 15024
 72
     1
 73
     1
 74
     5
  7

 75
    16
147
1.0
148
0.0
149
0.0
100
AcDbLayout
  1
Layout1
 70
     1
 71
     1
 10
0.0
 20
0.0
 11
420.0
 21
297.0
 12
0.0
 22
0.0
 32
0.0
 14
1.000000000000000E+20
 24
1.000000000000000E+20
 34
1.000000000000000E+20
 15
-1.000000000000000E+20
 25
-1.000000000000000E+20
 35
-1.000000000000000E+20
146
0.0
 13
0.0
 23
0.0
 33
0.0
 16
1.0
 26
0.0
 36
0.0
 17
0.0
 27
1.0
 37
0.0
 76
     0
330
1B
  0
LAYOUT
  5
26
102
{ACAD_XDICTIONARY
360
C54
102
}
102
{ACAD_REACTORS
330
1A
102
}
330
1A
100
AcDbPlotSettings
  1

  2
none_device
  4
Letter_(8.50_x_11.00_Inches)
  6

 40
6.349999904632568
 41
6.349999904632568
 42
6.350006103515625
 43
6.350006103515625
 44
215.8999938964844
 45
279.3999938964844
 46
0.0
 47
0.0
 48
0.0
 49
0.0
140
0.0
141
0.0
142
1.0
143
1.0
 70
 15024
 72
     1
 73
     1
 74
     5
  7

 75
    16
147
1.0
148
0.0
149
0.0
100
AcDbLayout
  1
Layout2
 70
     1
 71
     2
 10
0.0
 20
0.0
 11
12.0
 21
9.0
 12
0.0
 22
0.0
 32
0.0
 14
0.0
 24
0.0
 34
0.0
 15
0.0
 25
0.0
 35
0.0
146
0.0
 13
0.0
 23
0.0
 33
0.0
 16
1.0
 26
0.0
 36
0.0
 17
0.0
 27
1.0
 37
0.0
 76
     0
330
23
  0
LAYOUT
  5
22
102
{ACAD_XDICTIONARY
360
C52
102
}
102
{ACAD_REACTORS
330
1A
102
}
330
1A
100
AcDbPlotSettings
  1

  2
none_device
  4
Letter_(8.50_x_11.00_Inches)
  6

 40
6.349999904632568
 41
6.349999904632568
 42
6.350006103515625
 43
6.350006103515625
 44
215.8999938964844
 45
279.3999938964844
 46
0.0
 47
0.0
 48
0.0
 49
0.0
140
0.0
141
0.0
142
1.0
143
1.0
 70
 11952
 72
     1
 73
     1
 74
     0
  7

 75
     0
147
1.0
148
-131.3052631578947
149
0.0
100
AcDbLayout
  1
Model
 70
     1
 71
     0
 10
0.0
 20
0.0
 11
12.0
 21
9.0
 12
0.0
 22
0.0
 32
0.0
 14
0.0
 24
0.0
 34
0.0
 15
0.0
 25
0.0
 35
0.0
146
0.0
 13
0.0
 23
0.0
 33
0.0
 16
1.0
 26
0.0
 36
0.0
 17
0.0
 27
1.0
 37
0.0
 76
     0
330
1F
  0
MLINESTYLE
  5
18
102
{ACAD_REACTORS
330
17
102
}
330
17
100
AcDbMlineStyle
  2
STANDARD
 70
     0
  3

 62
   256
 51
90.0
 52
90.0
 71
     2
 49
0.5
 62
   256
  6
BYLAYER
 49
-0.5
 62
   256
  6
BYLAYER
  0
ACDBPLACEHOLDER
  5
F
102
{ACAD_REACTORS
330
E
102
}
330
E
  0
TABLESTYLE
  5
134
102
{ACAD_REACTORS
330
133
102
}
330
133
100
AcDbTableStyle
  3
Standard
 70
     0
 71
     0
 40
1.5
 41
1.5
280
     0
281
     0
  7
STANDARD
140
4.5
170
     2
 62
     0
 63
     7
283
     0
274
    -2
284
     1
 64
     0
275
    -2
285
     1
 65
     0
276
    -2
286
     1
 66
     0
277
    -2
287
     1
 67
     0
278
    -2
288
     1
 68
     0
279
    -2
289
     1
 69
     0
  7
STANDARD
140
6.0
170
     5
 62
     0
 63
     7
283
     0
274
    -2
284
     1
 64
     0
275
    -2
285
     1
 65
     0
276
    -2
286
     1
 66
     0
277
    -2
287
     1
 67
     0
278
    -2
288
     1
 68
     0
279
    -2
289
     1
 69
     0
  7
STANDARD
140
4.5
170
     5
 62
     0
 63
     7
283
     0
274
    -2
284
     1
 64
     0
275
    -2
285
     1
 65
     0
276
    -2
286
     1
 66
     0
277
    -2
287
     1
 67
     0
278
    -2
288
     1
 68
     0
279
    -2
289
     1
 69
     0
  0
DICTIONARYVAR
  5
152
102
{ACAD_REACTORS
330
34
102
}
330
34
100
DictionaryVariables
280
     0
  1
STANDARD
  0
DICTIONARYVAR
  5
AD
102
{ACAD_REACTORS
330
34
102
}
330
34
100
DictionaryVariables
280
     0
  1
2
  0
DICTIONARYVAR
  5
35
102
{ACAD_REACTORS
330
34
102
}
330
34
100
DictionaryVariables
280
     0
  1
0
  0
DICTIONARYVAR
  5
C4C
102
{ACAD_REACTORS
330
34
102
}
330
34
100
DictionaryVariables
280
     0
  1

  0
DICTIONARY
  5
2CB
102
{ACAD_REACTORS
330
49
102
}
330
49
100
AcDbDictionary
281
     1
  0
DICTIONARY
  5
4A
102
{ACAD_REACTORS
330
49
102
}
330
49
100
AcDbDictionary
281
     1
  0
XRECORD
  5
13D
102
{ACAD_REACTORS
330
49
102
}
330
49
100
AcDbXrecord
280
     1
 90
-1023410169
  0
DICTIONARY
  5
C50
330
1E
100
AcDbDictionary
280
     1
281
     1
  3
ACAD_XREC_ROUNDTRIP
360
C51
  0
DICTIONARY
  5
C54
330
26
100
AcDbDictionary
280
     1
281
     1
  3
ACAD_XREC_ROUNDTRIP
360
C55
  0
DICTIONARY
  5
C52
330
22
100
AcDbDictionary
280
     1
281
     1
  3
ACAD_XREC_ROUNDTRIP
360
C53
  0
XRECORD
  5
C51
102
{ACAD_REACTORS
330
C50
102
}
330
C50
100
AcDbXrecord
280
     1
102
SHADEPLOT
 70
     0
102
SHADEPLOTRESLEVEL
 70
     2
102
SHADEPLOTCUSTOMDPI
 70
   300
  0
XRECORD
  5
C55
102
{ACAD_REACTORS
330
C54
102
}
330
C54
100
AcDbXrecord
280
     1
102
SHADEPLOT
 70
     0
102
SHADEPLOTRESLEVEL
 70
     2
102
SHADEPLOTCUSTOMDPI
 70
   300
  0
XRECORD
  5
C53
102
{ACAD_REACTORS
330
C52
102
}
330
C52
100
AcDbXrecord
280
     1
102
SHADEPLOT
 70
     0
102
SHADEPLOTRESLEVEL
 70
     2
102
SHADEPLOTCUSTOMDPI
 70
   300
  0
ENDSEC
  0
EOF
