  0
SECTION
  2
HEADER
  9
$ACADVER
  1
AC1015
  9
$ACADMAINTVER
 70
    20
  9
$DWGCODEPAGE
  3
ANSI_1252
  9
$INSBASE
 10
0.0
 20
0.0
 30
0.0
  9
$EXTMIN
 10
1407.179999913523
 20
823.0343879464927
 30
0.0
  9
$EXTMAX
 10
2530.992223076851
 20
2570.465662356495
 30
0.0
  9
$LIMMIN
 10
0.0
 20
0.0
  9
$LIMMAX
 10
420.0
 20
297.0
  9
$ORTHOMODE
 70
     0
  9
$REGENMODE
 70
     1
  9
$FILLMODE
 70
     1
  9
$QTEXTMODE
 70
     0
  9
$MIRRTEXT
 70
     1
  9
$LTSCALE
 40
1.0
  9
$ATTMODE
 70
     1
  9
$TEXTSIZE
 40
2.5
  9
$TRACEWID
 40
1.0
  9
$TEXTSTYLE
  7
STANDARD
  9
$CLAYER
  8
AM_0
  9
$CELTYPE
  6
ByLayer
  9
$CECOLOR
 62
   256
  9
$CELTSCALE
 40
1.0
  9
$DISPSILH
 70
     0
  9
$DIMSCALE
 40
1.0
  9
$DIMASZ
 40
2.5
  9
$DIMEXO
 40
1.0
  9
$DIMDLI
 40
10.0
  9
$DIMRND
 40
0.0
  9
$DIMDLE
 40
0.0
  9
$DIMEXE
 40
1.0
  9
$DIMTP
 40
0.1
  9
$DIMTM
 40
0.1
  9
$DIMTXT
 40
3.5
  9
$DIMCEN
 40
0.0
  9
$DIMTSZ
 40
0.0
  9
$DIMTOL
 70
     0
  9
$DIMLIM
 70
     0
  9
$DIMTIH
 70
     0
  9
$DIMTOH
 70
     0
  9
$DIMSE1
 70
     0
  9
$DIMSE2
 70
     0
  9
$DIMTAD
 70
     1
  9
$DIMZIN
 70
     8
  9
$DIMBLK
  1

  9
$DIMASO
 70
     1
  9
$DIMSHO
 70
     1
  9
$DIMPOST
  1

  9
$DIMAPOST
  1
"
  9
$DIMALT
 70
     0
  9
$DIMALTD
 70
     2
  9
$DIMALTF
 40
0.0393701
  9
$DIMLFAC
 40
1.0
  9
$DIMTOFL
 70
     1
  9
$DIMTVP
 40
0.0
  9
$DIMTIX
 70
     0
  9
$DIMSOXD
 70
     0
  9
$DIMSAH
 70
     0
  9
$DIMBLK1
  1

  9
$DIMBLK2
  1

  9
$DIMSTYLE
  2
AM_DIN
  9
$DIMCLRD
 70
   256
  9
$DIMCLRE
 70
   256
  9
$DIMCLRT
 70
     2
  9
$DIMTFAC
 40
0.71
  9
$DIMGAP
 40
1.5
  9
$DIMJUST
 70
     0
  9
$DIMSD1
 70
     0
  9
$DIMSD2
 70
     0
  9
$DIMTOLJ
 70
     0
  9
$DIMTZIN
 70
     8
  9
$DIMALTZ
 70
     0
  9
$DIMALTTZ
 70
     0
  9
$DIMUPT
 70
     0
  9
$DIMDEC
 70
     2
  9
$DIMTDEC
 70
     3
  9
$DIMALTU
 70
     2
  9
$DIMALTTD
 70
     4
  9
$DIMTXSTY
  7
STANDARD
  9
$DIMAUNIT
 70
     0
  9
$DIMADEC
 70
     0
  9
$DIMALTRND
 40
0.0
  9
$DIMAZIN
 70
     2
  9
$DIMDSEP
 70
    46
  9
$DIMATFIT
 70
     3
  9
$DIMFRAC
 70
     0
  9
$DIMLDRBLK
  1

  9
$DIMLUNIT
 70
     2
  9
$DIMLWD
 70
    -1
  9
$DIMLWE
 70
    -1
  9
$DIMTMOVE
 70
     0
  9
$LUNITS
 70
     2
  9
$LUPREC
 70
     2
  9
$SKETCHINC
 40
1.0
  9
$FILLETRAD
 40
2.5
  9
$AUNITS
 70
     0
  9
$AUPREC
 70
     0
  9
$MENU
  1
.
  9
$ELEVATION
 40
0.0
  9
$PELEVATION
 40
0.0
  9
$THICKNESS
 40
0.0
  9
$LIMCHECK
 70
     0
  9
$CHAMFERA
 40
2.5
  9
$CHAMFERB
 40
2.5
  9
$CHAMFERC
 40
20.0
  9
$CHAMFERD
 40
0.0
  9
$SKPOLY
 70
     0
  9
$TDCREATE
 40
2454055.599365590
  9
$TDUCREATE
 40
2454055.557698924
  9
$TDUPDATE
 40
2454055.600100544
  9
$TDUUPDATE
 40
2454055.558433877
  9
$TDINDWG
 40
0.0007354977
  9
$TDUSRTIMER
 40
0.0007353125
  9
$USRTIMER
 70
     1
  9
$ANGBASE
 50
0.0
  9
$ANGDIR
 70
     0
  9
$PDMODE
 70
     0
  9
$PDSIZE
 40
0.0
  9
$PLINEWID
 40
0.0
  9
$SPLFRAME
 70
     0
  9
$SPLINETYPE
 70
     6
  9
$SPLINESEGS
 70
     8
  9
$HANDSEED
  5
B0E
  9
$SURFTAB1
 70
     6
  9
$SURFTAB2
 70
     6
  9
$SURFTYPE
 70
     6
  9
$SURFU
 70
     6
  9
$SURFV
 70
     6
  9
$UCSBASE
  2

  9
$UCSNAME
  2

  9
$UCSORG
 10
0.0
 20
0.0
 30
0.0
  9
$UCSXDIR
 10
1.0
 20
0.0
 30
0.0
  9
$UCSYDIR
 10
0.0
 20
1.0
 30
0.0
  9
$UCSORTHOREF
  2

  9
$UCSORTHOVIEW
 70
     0
  9
$UCSORGTOP
 10
0.0
 20
0.0
 30
0.0
  9
$UCSORGBOTTOM
 10
0.0
 20
0.0
 30
0.0
  9
$UCSORGLEFT
 10
0.0
 20
0.0
 30
0.0
  9
$UCSORGRIGHT
 10
0.0
 20
0.0
 30
0.0
  9
$UCSORGFRONT
 10
0.0
 20
0.0
 30
0.0
  9
$UCSORGBACK
 10
0.0
 20
0.0
 30
0.0
  9
$PUCSBASE
  2

  9
$PUCSNAME
  2

  9
$PUCSORG
 10
0.0
 20
0.0
 30
0.0
  9
$PUCSXDIR
 10
1.0
 20
0.0
 30
0.0
  9
$PUCSYDIR
 10
0.0
 20
1.0
 30
0.0
  9
$PUCSORTHOREF
  2

  9
$PUCSORTHOVIEW
 70
     0
  9
$PUCSORGTOP
 10
0.0
 20
0.0
 30
0.0
  9
$PUCSORGBOTTOM
 10
0.0
 20
0.0
 30
0.0
  9
$PUCSORGLEFT
 10
0.0
 20
0.0
 30
0.0
  9
$PUCSORGRIGHT
 10
0.0
 20
0.0
 30
0.0
  9
$PUCSORGFRONT
 10
0.0
 20
0.0
 30
0.0
  9
$PUCSORGBACK
 10
0.0
 20
0.0
 30
0.0
  9
$USERI1
 70
     0
  9
$USERI2
 70
     0
  9
$USERI3
 70
     0
  9
$USERI4
 70
     0
  9
$USERI5
 70
     0
  9
$USERR1
 40
0.0
  9
$USERR2
 40
0.0
  9
$USERR3
 40
0.0
  9
$USERR4
 40
0.0
  9
$USERR5
 40
0.0
  9
$WORLDVIEW
 70
     1
  9
$SHADEDGE
 70
     3
  9
$SHADEDIF
 70
    70
  9
$TILEMODE
 70
     1
  9
$MAXACTVP
 70
    64
  9
$PINSBASE
 10
0.0
 20
0.0
 30
0.0
  9
$PLIMCHECK
 70
     0
  9
$PEXTMIN
 10
1.000000000000000E+20
 20
1.000000000000000E+20
 30
1.000000000000000E+20
  9
$PEXTMAX
 10
-1.000000000000000E+20
 20
-1.000000000000000E+20
 30
-1.000000000000000E+20
  9
$PLIMMIN
 10
0.0
 20
0.0
  9
$PLIMMAX
 10
420.0
 20
297.0
  9
$UNITMODE
 70
     0
  9
$VISRETAIN
 70
     1
  9
$PLINEGEN
 70
     0
  9
$PSLTSCALE
 70
     1
  9
$TREEDEPTH
 70
  3020
  9
$CMLSTYLE
  2
Standard
  9
$CMLJUST
 70
     0
  9
$CMLSCALE
 40
20.0
  9
$PROXYGRAPHICS
 70
     1
  9
$MEASUREMENT
 70
     1
  9
$CELWEIGHT
370
    -1
  9
$ENDCAPS
280
     0
  9
$JOINSTYLE
280
     0
  9
$LWDISPLAY
290
     0
  9
$INSUNITS
 70
     4
  9
$HYPERLINKBASE
  1

  9
$STYLESHEET
  1

  9
$XEDIT
290
     1
  9
$CEPSNTYPE
380
     0
  9
$PSTYLEMODE
290
     1
  9
$FINGERPRINTGUID
  2
{19B5C71B-3CD3-43F0-BBF9-65CA84293057}
  9
$VERSIONGUID
  2
{80773112-E2AF-43E2-9188-64BE234FEEE6}
  9
$EXTNAMES
290
     1
  9
$PSVPSCALE
 40
0.0
  9
$OLESTARTUP
290
     0
  0
ENDSEC
  0
SECTION
  2
CLASSES
  0
CLASS
  1
ACDBDICTIONARYWDFLT
  2
AcDbDictionaryWithDefault
  3
ObjectDBX Classes
 90
        0
280
     0
281
     0
  0
CLASS
  1
ACDBPLACEHOLDER
  2
AcDbPlaceHolder
  3
ObjectDBX Classes
 90
        0
280
     0
281
     0
  0
CLASS
  1
LAYOUT
  2
AcDbLayout
  3
ObjectDBX Classes
 90
        0
280
     0
281
     0
  0
CLASS
  1
AMGSETTINGSOBJ
  2
AmgSettingsObj
  3
"AcadM|Product Description: AutoCAD Mechanical 2000|Company: Autodesk"
 90
        0
280
     0
281
     0
  0
CLASS
  1
ACME_DOCUMENT
  2
AcMeDbDoc
  3
AcMeServices
 90
        0
280
     0
281
     0
  0
CLASS
  1
ACMESCOPE
  2
AcMeScope
  3
AcMeServices
 90
        0
280
     0
281
     0
  0
CLASS
  1
ACMECOMMANDHISTORY
  2
AcMeCommandHistory
  3
AcMeServices
 90
        0
280
     0
281
     0
  0
CLASS
  1
DICTIONARYVAR
  2
AcDbDictionaryVar
  3
ObjectDBX Classes
 90
        0
280
     0
281
     0
  0
CLASS
  1
ACIMSYSVARMAN
  2
AcImSysVarManager
  3
AcMeServices
 90
        0
280
     0
281
     0
  0
CLASS
  1
ACIMREALSYSVAR
  2
AcImRealSysVar
  3
AcMeServices
 90
        0
280
     0
281
     0
  0
CLASS
  1
ACIMINTSYSVAR
  2
AcImIntSysVar
  3
AcMeServices
 90
        0
280
     0
281
     0
  0
CLASS
  1
ACMEDRAWINGMAN
  2
AcMeDrawingMan
  3
AcMeServices
 90
        0
280
     0
281
     0
  0
CLASS
  1
ACMEVIEW
  2
AcMeView
  3
AcMeServices
 90
        0
280
     0
281
     0
  0
CLASS
  1
ACDBENTITYCACHE
  2
AcMeEntityCache
  3
AcMeServices
 90
        0
280
     0
281
     0
  0
CLASS
  1
GSMANAGER
  2
AcMeGSManager
  3
AcMeServices
 90
        0
280
     0
281
     0
  0
CLASS
  1
AMDTINTERNALREACTOR
  2
AmdtInternalReactor
  3
AcMeServices
 90
        0
280
     0
281
     0
  0
CLASS
  1
ACMESTATEMGR
  2
AcMeStateMgr
  3
AcMeServices
 90
        0
280
     0
281
     0
  0
CLASS
  1
ACGREFMASTER
  2
AcGrefMaster
  3
AcAttribServices
 90
        0
280
     0
281
     0
  0
CLASS
  1
ACME_DATABASE
  2
AcMeDbDatabase
  3
AcMeServices
 90
        0
280
     0
281
     0
  0
CLASS
  1
ACRFINSADJUSTERMGR
  2
AcRfInsAdjusterMgr
  3
AcMeServices
 90
        0
280
     0
281
     0
  0
CLASS
  1
ACGREFACADMASTER
  2
AcGrefacadMaster
  3
AcGrefServices
 90
        0
280
     0
281
     0
  0
CLASS
  1
AMIMASTER
  2
AmiMaster
  3
AmiServices
 90
        0
280
     0
281
     0
  0
CLASS
  1
ACIMSTRSYSVAR
  2
AcImStrSysVar
  3
AcMeServices
 90
        0
280
     0
281
     0
  0
CLASS
  1
ACMSTANDARDDIN
  2
AcmStandardDIN
  3
"Amdt_StdImp|Product Description: AutoCAD Mechanical 2004 DX|Company: Autodesk"
 90
        0
280
     0
281
     0
  0
CLASS
  1
AMGOBJPROPCFG
  2
AmgObjPropCfg
  3
"AmgLay|Product Description: AutoCAD Mechanical 2000|Company: Autodesk"
 90
        1
280
     0
281
     0
  0
CLASS
  1
AMDTEDGESTANDARDDIN
  2
AmdtEdgeStdDIN
  3
"Amdt_StdImp|Product Description: AutoCAD Mechanical 2004 DX|Company: Autodesk"
 90
        0
280
     0
281
     0
  0
CLASS
  1
ACMSURFSTANDARDDIN
  2
AcmSurfTextStdDIN
  3
"Amdt_StdImp|Product Description: AutoCAD Mechanical 2004 DX|Company: Autodesk"
 90
        0
280
     0
281
     0
  0
CLASS
  1
ACMFCFSTANDARDDIN
  2
AcmFCFStdDIN
  3
"Amdt_StdImp|Product Description: AutoCAD Mechanical 2004 DX|Company: Autodesk"
 90
        0
280
     0
281
     0
  0
CLASS
  1
ACMWELDSTANDARDDIN
  2
AcmWeldingStdDIN
  3
"Amdt_StdImp|Product Description: AutoCAD Mechanical 2004 DX|Company: Autodesk"
 90
        0
280
     0
281
     0
  0
CLASS
  1
ACMIDSTANDARDDIN
  2
AcmIdStdDIN
  3
"Amdt_StdImp|Product Description: AutoCAD Mechanical 2004 DX|Company: Autodesk"
 90
        0
280
     0
281
     0
  0
CLASS
  1
ACMDATUMSTANDARDDIN
  2
AcmDatumStdDIN
  3
"Amdt_StdImp|Product Description: AutoCAD Mechanical 2004 DX|Company: Autodesk"
 90
        0
280
     0
281
     0
  0
CLASS
  1
ACMBOMSTANDARDDIN
  2
AcmBOMStdDIN
  3
"Amdt_StdImp|Product Description: AutoCAD Mechanical 2004 DX|Company: Autodesk"
 90
        0
280
     0
281
     0
  0
CLASS
  1
ACMDETAILSTANDARDDIN
  2
AmdtDetailSymStdDIN
  3
"Amdt_StdImp|Product Description: AutoCAD Mechanical 2004 DX|Company: Autodesk"
 90
        0
280
     0
281
     0
  0
CLASS
  1
ACMSECTIONSTANDARDDIN
  2
AmdtSectionSymStdDIN
  3
"Amdt_StdImp|Product Description: AutoCAD Mechanical 2004 DX|Company: Autodesk"
 90
        0
280
     0
281
     0
  0
CLASS
  1
ACMCENTERLINESTANDARDDIN
  2
AmdtCenterLineStdDIN
  3
"Amdt_StdImp|Product Description: AutoCAD Mechanical 2004 DX|Company: Autodesk"
 90
        0
280
     0
281
     0
  0
CLASS
  1
ACMTHREADLINESTANDARDDIN
  2
AmdtThreadLineStdDIN
  3
"Amdt_StdImp|Product Description: AutoCAD Mechanical 2004 DX|Company: Autodesk"
 90
        0
280
     0
281
     0
  0
CLASS
  1
ACAMGLAYSTD
  2
AcAmgLayStd
  3
"AcAmgLayStd|Product Description: AutoCAD Mechanical 2000|Company: Autodesk"
 90
        0
280
     0
281
     0
  0
CLASS
  1
ACAMGDIMSTD
  2
AcAmgDimStd
  3
"AcAmgDimStd|Product Description: AutoCAD Mechanical 2000|Company: Autodesk"
 90
        0
280
     0
281
     0
  0
CLASS
  1
ACAMGTITLESTD
  2
AcAmgTitleStd
  3
"TITLEAPP"
 90
        0
280
     0
281
     0
  0
CLASS
  1
ACMDATADICTIONARY
  2
AcmDataDictionary
  3
"AcmSymBB|Product Description: AutoCAD Mechanical 2004 DX|Company: Autodesk"
 90
        0
280
     0
281
     0
  0
CLASS
  1
ACMDATAENTRYBLOCK
  2
AcmDataEntryBlock
  3
"AcmSymBB|Product Description: AutoCAD Mechanical 2004 DX|Company: Autodesk"
 90
        0
280
     0
281
     0
  0
CLASS
  1
LAYER_INDEX
  2
AcDbLayerIndex
  3
ObjectDBX Classes
 90
    32768
280
     0
281
     0
  0
CLASS
  1
IDBUFFER
  2
AcDbIdBuffer
  3
ObjectDBX Classes
 90
    32768
280
     0
281
     0
  0
CLASS
  1
ACMNOTESTANDARDDIN
  2
AmdtNoteStdDIN
  3
"Amdt_StdImp|Product Description: AutoCAD Mechanical 2004 DX|Company: Autodesk"
 90
        0
280
     0
281
     0
  0
CLASS
  1
ACAMGHOLECHARTSTDDIN
  2
AcAmgHoleChartStdDIN
  3
ACMSYMBB_MODULE_NAME
 90
        0
280
     0
281
     0
  0
CLASS
  1
AM_DRAWING_MGR
  2
AcDmDwgMgr
  3
AcMechDwgViewMgmt
 90
        0
280
     0
281
     0
  0
CLASS
  1
AM_DWG_DOCUMENT
  2
AcDmDwgDocument
  3
AcMechDwgViewMgmt
 90
        0
280
     0
281
     0
  0
CLASS
  1
AM_DWG_SHEET
  2
AcDmSheet
  3
AcMechDwgViewMgmt
 90
        0
280
     0
281
     0
  0
CLASS
  1
AM_VIEWDIMPARMAP
  2
AcDmViewDimParMap
  3
AcMechDwgViewMgmt
 90
        0
280
     0
281
     0
  0
CLASS
  1
AM_DWGMGR_NAME
  2
AcDmDwgMgrName
  3
AcMechDwgViewMgmt
 90
        0
280
     0
281
     0
  0
CLASS
  1
AMDTMENUSTATEMGR
  2
AmdtMenuStateMgr
  3
McadcomServices
 90
        0
280
     0
281
     0
  0
CLASS
  1
AMDTMCOMMENUSTATE
  2
AmdtMcomMenuState
  3
McadcomServices
 90
        0
280
     0
281
     0
  0
CLASS
  1
MAPIAMMOUDLE
  2
MApiAmModule
  3
MApiAmServices
 90
        0
280
     0
281
     0
  0
CLASS
  1
AMDTADMENUSTATE
  2
AmdtAdMenuState
  3
DesignerServices
 90
        0
280
     0
281
     0
  0
CLASS
  1
ADAPPL
  2
AcAdAppl
  3
DesignerServices
 90
        0
280
     0
281
     0
  0
CLASS
  1
DEPMGR
  2
AcAdDepMgr
  3
DesignerServices
 90
        0
280
     0
281
     0
  0
CLASS
  1
PARAMMGR
  2
AcAdParamMgr
  3
DesignerServices
 90
        0
280
     0
281
     0
  0
CLASS
  1
PARAMSCOPE
  2
AcAdParamScope
  3
DesignerServices
 90
        0
280
     0
281
     0
  0
CLASS
  1
NAMEDAPPL
  2
AcAdNamedAppl
  3
DesignerServices
 90
        0
280
     0
281
     0
  0
CLASS
  1
AMDTDMMENUSTATE
  2
AmdtDmMenuState
  3
AcMechDwgViewMgmt
 90
        0
280
     0
281
     0
  0
CLASS
  1
AMDTAMMENUSTATE
  2
AmdtAmMenuState
  3
DesignerAssemblies
 90
        0
280
     0
281
     0
  0
CLASS
  1
ACAMPROJECT
  2
AcAmProject
  3
DesignerAssemblies
 90
        0
280
     0
281
     0
  0
CLASS
  1
ACAMGRCOMPDEF
  2
AcAmGrCompDef
  3
DesignerAssemblies
 90
        0
280
     0
281
     0
  0
CLASS
  1
ACCMCONTEXT
  2
AcCmContext
  3
DesignerAssemblies
 90
        0
280
     0
281
     0
  0
CLASS
  1
ACAMCOMPDEF
  2
AcAmCompDef
  3
DesignerAssemblies
 90
        0
280
     0
281
     0
  0
CLASS
  1
ACAMCOMPDEFMGR
  2
AcAmCompDefMgr
  3
DesignerAssemblies
 90
        0
280
     0
281
     0
  0
CLASS
  1
AMCONTEXTMGR
  2
AcAmContextMgr
  3
DesignerAssemblies
 90
        0
280
     0
281
     0
  0
CLASS
  1
ACAMCONTEXTMODELER
  2
AcAmContextModeler
  3
DesignerAssemblies
 90
        0
280
     0
281
     0
  0
CLASS
  1
CATALOGSTATE
  2
AcAmCatalogState
  3
DesignerAssemblies
 90
        0
280
     0
281
     0
  0
CLASS
  1
ACAMGRCOMPDEFSET
  2
AcAmGrCompDefSet
  3
DesignerAssemblies
 90
        0
280
     0
281
     0
  0
CLASS
  1
AMDTBROWSERDBTAB
  2
AmdtBrowserDbTab
  3
McadcomServices
 90
        0
280
     0
281
     0
  0
CLASS
  1
CBROWSERAPPOBJECT
  2
CBrowserAppObject
  3
McadcomServices
 90
        0
280
     0
281
     0
  0
CLASS
  1
DM_PLACEHOLDER
  2
AcDmSelsetPlaceholder
  3
AcMechDwgViewMgmt
 90
        0
280
     0
281
     0
  0
CLASS
  1
TABLESTYLE
  2
AcDbTableStyle
  3
ObjectDBX Classes
 90
     2047
280
     0
281
     0
  0
CLASS
  1
VAACXREFPANELOBJECT
  2
VaAcXREFPanelObject
  3
VAAC_ADDIN
 90
    32768
280
     0
281
     0
  0
CLASS
  1
VAACIMAGEINVENTORY
  2
VaAcImageInventory
  3
VAAC_ADDIN
 90
    32768
280
     0
281
     0
  0
CLASS
  1
AMDTNOTETEMPLATEDB
  2
AmdtNoteTemplateDB
  3
AMDT_STDIMP_MODULE_NAME
 90
        0
280
     0
281
     0
  0
CLASS
  1
ACAMGFILTERDAT
  2
AcAmgFilterDat
  3
"AcadM|Product Description: AutoCAD Mechanical 2000|Company: Autodesk"
 90
        0
280
     0
281
     0
  0
CLASS
  1
ACMBOM
  2
AcmBom
  3
"AcmSymBB|Product Description: AutoCAD Mechanical 2004 DX|Company: Autodesk"
 90
    32768
280
     0
281
     0
  0
CLASS
  1
AMDTFORMULAUPDATEDISPATCHER
  2
AmdtFormulaUpdateDispatcher
  3
AcMeServices
 90
    32768
280
     0
281
     0
  0
CLASS
  1
SORTENTSTABLE
  2
AcDbSortentsTable
  3
ObjectDBX Classes
 90
        0
280
     0
281
     0
  0
CLASS
  1
ACRFATTGENMGR
  2
AcRfAttGeneralMgr
  3
AcAttribServices
 90
        0
280
     0
281
     0
  0
ENDSEC
  0
SECTION
  2
TABLES
  0
TABLE
  2
VPORT
  5
8
330
0
100
AcDbSymbolTable
 70
     3
  0
VPORT
  5
B05
330
8
100
AcDbSymbolTableRecord
100
AcDbViewportTableRecord
  2
*Active
 70
     0
 10
0.0
 20
0.0
 11
1.0
 21
1.0
 12
1969.086111495187
 22
1696.750025151493
 13
0.0
 23
0.0
 14
2.5
 24
2.5
 15
10.0
 25
10.0
 16
0.0
 26
0.0
 36
1.0
 17
0.0
 27
0.0
 37
0.0
 40
1759.238242480339
 41
1.37880496054115
 42
50.0
 43
0.0
 44
0.0
 50
0.0
 51
0.0
 71
     0
 72
   100
 73
     1
 74
     3
 75
     0
 76
     0
 77
     0
 78
     0
281
     0
 65
     1
110
0.0
120
0.0
130
0.0
111
1.0
121
0.0
131
0.0
112
0.0
122
1.0
132
0.0
 79
     0
146
0.0
  0
ENDTAB
  0
TABLE
  2
LTYPE
  5
5
330
0
100
AcDbSymbolTable
 70
    23
  0
LTYPE
  5
14
330
5
100
AcDbSymbolTableRecord
100
AcDbLinetypeTableRecord
  2
ByBlock
 70
     0
  3

 72
    65
 73
     0
 40
0.0
  0
LTYPE
  5
15
330
5
100
AcDbSymbolTableRecord
100
AcDbLinetypeTableRecord
  2
ByLayer
 70
     0
  3

 72
    65
 73
     0
 40
0.0
  0
LTYPE
  5
16
330
5
100
AcDbSymbolTableRecord
100
AcDbLinetypeTableRecord
  2
Continuous
 70
     0
  3
Solid line
 72
    65
 73
     0
 40
0.0
  0
LTYPE
  5
4D
330
5
100
AcDbSymbolTableRecord
100
AcDbLinetypeTableRecord
  2
AM_ISO02W050
 70
     0
  3
__ __ __ __ __ __ __ __ __ __ __ __ __ __ __
 72
    65
 73
     2
 40
7.5
 49
6.0
 74
     0
 49
-1.5
 74
     0
  0
LTYPE
  5
4E
330
5
100
AcDbSymbolTableRecord
100
AcDbLinetypeTableRecord
  2
AM_ISO08W050
 70
     0
  3
____ . ____ . ____ . ____ . ____ . ____ . ____
 72
    65
 73
     4
 40
18.0
 49
12.0
 74
     0
 49
-1.5
 74
     0
 49
3.0
 74
     0
 49
-1.5
 74
     0
  0
LTYPE
  5
4F
330
5
100
AcDbSymbolTableRecord
100
AcDbLinetypeTableRecord
  2
AM_ISO09W050
 70
     0
  3
_____ . . _____ . . _____ . . ____ .. ____
 72
    65
 73
     6
 40
22.5
 49
12.0
 74
     0
 49
-1.5
 74
     0
 49
3.0
 74
     0
 49
-1.5
 74
     0
 49
3.0
 74
     0
 49
-1.5
 74
     0
  0
LTYPE
  5
50
330
5
100
AcDbSymbolTableRecord
100
AcDbLinetypeTableRecord
  2
Amconstr
 70
     0
  3
_______________________
 72
    65
 73
     2
 40
9999.0
 49
9999.0
 74
     0
 49
0.0
 74
     0
  0
LTYPE
  5
51
330
5
100
AcDbSymbolTableRecord
100
AcDbLinetypeTableRecord
  2
AM_ISO08W050x2
 70
     0
  3
__ . __ . __ . __ . __ . __
 72
    65
 73
     4
 40
9.0
 49
6.0
 74
     0
 49
-0.75
 74
     0
 49
1.5
 74
     0
 49
-0.75
 74
     0
  0
LTYPE
  5
52
330
5
100
AcDbSymbolTableRecord
100
AcDbLinetypeTableRecord
  2
AM_ISO02W050x2
 70
     0
  3
 _ _ _ _ _ _ _ _ _ _ _ _
 72
    65
 73
     2
 40
3.75
 49
3.0
 74
     0
 49
-0.75
 74
     0
  0
LTYPE
  5
55
330
5
100
AcDbSymbolTableRecord
100
AcDbLinetypeTableRecord
  2
Amzigzag
 70
     0
  3
/\/-/\/-/\/-/\/-/\/-/\/
 72
    65
 73
     2
 40
11.0001
 49
0.0001
 74
     4
 75
   136
340
285
 46
0.04
 50
0.0
 44
0.0
 45
0.0
 49
-11.0
 74
     0
  0
LTYPE
  5
56
330
5
100
AcDbSymbolTableRecord
100
AcDbLinetypeTableRecord
  2
AM_DIN_F_W050
 70
     0
  3
__ __ __ __ __ __ __ __ __ __ __ __ __ __ __
 72
    65
 73
     2
 40
6.25
 49
4.75
 74
     0
 49
-1.5
 74
     0
  0
LTYPE
  5
57
330
5
100
AcDbSymbolTableRecord
100
AcDbLinetypeTableRecord
  2
AM_DIN_G_W050
 70
     0
  3
____ . ____ . ____ . ____ . ____ . ____ . ____
 72
    65
 73
     4
 40
13.75
 49
9.75
 74
     0
 49
-1.5
 74
     0
 49
1.0
 74
     0
 49
-1.5
 74
     0
  0
LTYPE
  5
58
330
5
100
AcDbSymbolTableRecord
100
AcDbLinetypeTableRecord
  2
AM_DIN_K_W050
 70
     0
  3
_____ . . _____ . . _____ . . ____ .. ____
 72
    65
 73
     6
 40
16.25
 49
9.75
 74
     0
 49
-1.5
 74
     0
 49
1.0
 74
     0
 49
-1.5
 74
     0
 49
1.0
 74
     0
 49
-1.5
 74
     0
  0
LTYPE
  5
59
330
5
100
AcDbSymbolTableRecord
100
AcDbLinetypeTableRecord
  2
AM_DIN_G_W050x2
 70
     0
  3
__ . __ . __ . __ . __ . __
 72
    65
 73
     4
 40
6.875
 49
4.75
 74
     0
 49
-0.875
 74
     0
 49
0.375
 74
     0
 49
-0.875
 74
     0
  0
LTYPE
  5
5A
330
5
100
AcDbSymbolTableRecord
100
AcDbLinetypeTableRecord
  2
AM_DIN_F_W050x2
 70
     0
  3
 _ _ _ _ _ _ _ _ _ _ _ _
 72
    65
 73
     2
 40
3.125
 49
2.25
 74
     0
 49
-0.875
 74
     0
  0
LTYPE
  5
68
330
5
100
AcDbSymbolTableRecord
100
AcDbLinetypeTableRecord
  2
ACDINWELD
 70
     0
  3
_ _ _ _ _
 72
    65
 73
     2
 40
2.0
 49
2.0
 74
     0
 49
-1.0
 74
     0
  0
LTYPE
  5
69
330
5
100
AcDbSymbolTableRecord
100
AcDbLinetypeTableRecord
  2
ACDINTGB
 70
     0
  3
__ . . __ . .
 72
    65
 73
     6
 40
9.0
 49
4.0
 74
     0
 49
-1.0
 74
     0
 49
1.0
 74
     0
 49
-1.0
 74
     0
 49
1.0
 74
     0
 49
-1.0
 74
     0
  0
LTYPE
  5
6A
330
5
100
AcDbSymbolTableRecord
100
AcDbLinetypeTableRecord
  2
ACDINTGL
 70
     0
  3
_ _ _ _ _
 72
    65
 73
     2
 40
3.0
 49
2.0
 74
     0
 49
-1.0
 74
     0
  0
LTYPE
  5
6C
330
5
100
AcDbSymbolTableRecord
100
AcDbLinetypeTableRecord
  2
CENTER
 70
     0
  3
__ . __
 72
    65
 73
     4
 40
7.0
 49
4.0
 74
     0
 49
-1.0
 74
     0
 49
1.0
 74
     0
 49
-1.0
 74
     0
  0
LTYPE
  5
F2
330
5
100
AcDbSymbolTableRecord
100
AcDbLinetypeTableRecord
  2
HIDDEN
 70
     0
  3
Hidden __ __ __ __ __ __ __ __ __ __ __ __ __ _
 72
    65
 73
     2
 40
9.524999999999998
 49
6.349999999999999
 74
     0
 49
-3.174999999999999
 74
     0
  0
LTYPE
  5
F3
330
5
100
AcDbSymbolTableRecord
100
AcDbLinetypeTableRecord
  2
PHANTOM2
 70
     0
  3
Phantom (.5x) ___ _ _ ___ _ _ ___ _ _ ___ _ _
 72
    65
 73
     6
 40
31.75
 49
15.875
 74
     0
 49
-3.174999999999999
 74
     0
 49
3.174999999999999
 74
     0
 49
-3.174999999999999
 74
     0
 49
3.174999999999999
 74
     0
 49
-3.174999999999999
 74
     0
  0
LTYPE
  5
30F
330
5
100
AcDbSymbolTableRecord
100
AcDbLinetypeTableRecord
  2
MITTE
 70
     0
  3
Mitte ____ _ ____ _ ____ _ ____
 72
    65
 73
     4
 40
50.8
 49
31.75
 74
     0
 49
-6.349999999999999
 74
     0
 49
6.349999999999999
 74
     0
 49
-6.349999999999999
 74
     0
  0
LTYPE
  5
310
330
5
100
AcDbSymbolTableRecord
100
AcDbLinetypeTableRecord
  2
AUSGEZOGEN
 70
     0
  3
_______________________________________________
 72
    65
 73
     0
 40
0.0
  0
LTYPE
  5
311
330
5
100
AcDbSymbolTableRecord
100
AcDbLinetypeTableRecord
  2
PUNKT
 70
     0
  3
...............................................
 72
    65
 73
     2
 40
0.25
 49
0.0
 74
     0
 49
-0.25
 74
     0
  0
LTYPE
  5
312
330
5
100
AcDbSymbolTableRecord
100
AcDbLinetypeTableRecord
  2
GESTRICHELT
 70
     0
  3
__ __ __ __ __ __ __ __ __ __ __ __ __ __ __
 72
    65
 73
     2
 40
0.75
 49
0.5
 74
     0
 49
-0.25
 74
     0
  0
ENDTAB
  0
TABLE
  2
LAYER
  5
2
102
{ACAD_XDICTIONARY
360
C0
102
}
330
0
100
AcDbSymbolTable
 70
    15
  0
LAYER
  5
10
330
2
100
AcDbSymbolTableRecord
100
AcDbLayerTableRecord
  2
0
 70
     0
 62
     7
  6
Continuous
370
    -3
390
F
  0
LAYER
  5
82
330
2
100
AcDbSymbolTableRecord
100
AcDbLayerTableRecord
  2
AM_0
 70
     0
 62
     7
  6
Continuous
370
    50
390
F
1001
AcAecLayerStandard
1000

1000

  0
LAYER
  5
313
330
2
100
AcDbSymbolTableRecord
100
AcDbLayerTableRecord
  2
AM_7
 70
     0
 62
     4
  6
AM_DIN_G_W050
370
    25
390
F
  0
LAYER
  5
314
330
2
100
AcDbSymbolTableRecord
100
AcDbLayerTableRecord
  2
BILD
 70
     0
 62
     1
  6
PUNKT
370
    -3
390
F
  0
LAYER
  5
315
330
2
100
AcDbSymbolTableRecord
100
AcDbLayerTableRecord
  2
SCHRAFF
 70
     0
 62
     7
  6
AUSGEZOGEN
370
    -3
390
F
  0
LAYER
  5
316
330
2
100
AcDbSymbolTableRecord
100
AcDbLayerTableRecord
  2
TEXT
 70
     0
 62
     7
  6
AUSGEZOGEN
370
    -3
390
F
  0
LAYER
  5
317
330
2
100
AcDbSymbolTableRecord
100
AcDbLayerTableRecord
  2
KONTUR
 70
     0
 62
     7
  6
AUSGEZOGEN
370
    -3
390
F
  0
LAYER
  5
318
330
2
100
AcDbSymbolTableRecord
100
AcDbLayerTableRecord
  2
Z
 70
     0
 62
     7
  6
AUSGEZOGEN
370
    -3
390
F
  0
LAYER
  5
319
330
2
100
AcDbSymbolTableRecord
100
AcDbLayerTableRecord
  2
GEHAEUSE
 70
     0
 62
     7
  6
MITTE
370
    -3
390
F
  0
LAYER
  5
31A
330
2
100
AcDbSymbolTableRecord
100
AcDbLayerTableRecord
  2
MASSE
 70
     0
 62
     1
  6
AUSGEZOGEN
370
    -3
390
F
  0
LAYER
  5
31B
330
2
100
AcDbSymbolTableRecord
100
AcDbLayerTableRecord
  2
MITTE
 70
     0
 62
     1
  6
AUSGEZOGEN
370
    -3
390
F
  0
LAYER
  5
31C
330
2
100
AcDbSymbolTableRecord
100
AcDbLayerTableRecord
  2
LOGO2
 70
     0
 62
     7
  6
AUSGEZOGEN
370
    -3
390
F
  0
LAYER
  5
31D
330
2
100
AcDbSymbolTableRecord
100
AcDbLayerTableRecord
  2
PUMPE
 70
     0
 62
     1
  6
MITTE
370
    -3
390
F
  0
LAYER
  5
31E
330
2
100
AcDbSymbolTableRecord
100
AcDbLayerTableRecord
  2
DIN84
 70
     0
 62
     7
  6
AUSGEZOGEN
370
    -3
390
F
  0
LAYER
  5
31F
330
2
100
AcDbSymbolTableRecord
100
AcDbLayerTableRecord
  2
ANSCHLUS
 70
     0
 62
     2
  6
GESTRICHELT
370
    -3
390
F
  0
ENDTAB
  0
TABLE
  2
STYLE
  5
3
330
0
100
AcDbSymbolTable
 70
    10
  0
STYLE
  5
11
330
3
100
AcDbSymbolTableRecord
100
AcDbTextStyleTableRecord
  2
STANDARD
 70
     0
 40
0.0
 41
1.0
 50
0.0
 71
     0
 42
2.5
  3
ISOCP.SHX
  4
bigfont.shx
  0
STYLE
  5
54
330
3
100
AcDbSymbolTableRecord
100
AcDbTextStyleTableRecord
  2

 70
     1
 40
0.0
 41
1.0
 50
0.0
 71
     0
 42
2.5
  3
ltypeshp.shx
  4

  0
STYLE
  5
5B
330
3
100
AcDbSymbolTableRecord
100
AcDbTextStyleTableRecord
  2
ACDINTS
 70
     0
 40
1.0
 41
1.0
 50
0.0
 71
     0
 42
2.5
  3
isocp.shx
  4
bigfont.shx
  0
STYLE
  5
67
330
3
100
AcDbSymbolTableRecord
100
AcDbTextStyleTableRecord
  2
ACDINGDT
 70
     0
 40
0.0
 41
1.0
 50
0.0
 71
     0
 42
2.5
  3
AMGDT
  4
bigfont.shx
  0
STYLE
  5
7E
330
3
100
AcDbSymbolTableRecord
100
AcDbTextStyleTableRecord
  2
USER1
 70
     0
 40
0.0
 41
1.0
 50
0.0
 71
     0
 42
2.5
  3
TXT.SHX
  4
bigfont.shx
  0
STYLE
  5
7F
330
3
100
AcDbSymbolTableRecord
100
AcDbTextStyleTableRecord
  2
USER2
 70
     0
 40
0.0
 41
1.0
 50
0.0
 71
     0
 42
2.5
  3
SIMPLEX.SHX
  4
bigfont.shx
  0
STYLE
  5
80
330
3
100
AcDbSymbolTableRecord
100
AcDbTextStyleTableRecord
  2
USER3
 70
     0
 40
0.0
 41
1.0
 50
0.0
 71
     0
 42
2.5
  3
ITALIC.SHX
  4
bigfont.shx
  0
STYLE
  5
285
330
3
100
AcDbSymbolTableRecord
100
AcDbTextStyleTableRecord
  2

 70
     1
 40
0.0
 41
1.0
 50
0.0
 71
     0
 42
2.5
  3
genltshp.shx
  4

  0
STYLE
  5
320
330
3
100
AcDbSymbolTableRecord
100
AcDbTextStyleTableRecord
  2
SIMPLEX
 70
     0
 40
0.0
 41
1.0
 50
0.0
 71
     0
 42
3.5
  3
simplex
  4

  0
STYLE
  5
321
330
3
100
AcDbSymbolTableRecord
100
AcDbTextStyleTableRecord
  2
COMPLEX
 70
     0
 40
0.0
 41
1.0
 50
0.0
 71
     0
 42
3.5
  3
complex
  4

  0
ENDTAB
  0
TABLE
  2
VIEW
  5
6
330
0
100
AcDbSymbolTable
 70
     0
  0
ENDTAB
  0
TABLE
  2
UCS
  5
7
330
0
100
AcDbSymbolTable
 70
     0
  0
ENDTAB
  0
TABLE
  2
APPID
  5
9
330
0
100
AcDbSymbolTable
 70
    12
  0
APPID
  5
12
330
9
100
AcDbSymbolTableRecord
100
AcDbRegAppTableRecord
  2
ACAD
 70
     0
  0
APPID
  5
30
330
9
100
AcDbSymbolTableRecord
100
AcDbRegAppTableRecord
  2
MCAD_NO_VIS
 70
     0
  0
APPID
  5
31
330
9
100
AcDbSymbolTableRecord
100
AcDbRegAppTableRecord
  2
ACAD_TEMP_GRAPHIC
 70
     0
  0
APPID
  5
44
330
9
100
AcDbSymbolTableRecord
100
AcDbRegAppTableRecord
  2
ACATTRIBSERVICES
 70
     0
  0
APPID
  5
108
330
9
100
AcDbSymbolTableRecord
100
AcDbRegAppTableRecord
  2
AD_DRAW
 70
     0
  0
APPID
  5
126
330
9
100
AcDbSymbolTableRecord
100
AcDbRegAppTableRecord
  2
DESIGNERASSEMBLIES
 70
     0
  0
APPID
  5
12A
330
9
100
AcDbSymbolTableRecord
100
AcDbRegAppTableRecord
  2
ACADM_DIM_EDIT
 70
     0
  0
APPID
  5
12B
330
9
100
AcDbSymbolTableRecord
100
AcDbRegAppTableRecord
  2
AMDT_DM_ADJ
 70
     0
  0
APPID
  5
1A4
330
9
100
AcDbSymbolTableRecord
100
AcDbRegAppTableRecord
  2
ACAD_DSTYLE_DIMARC_LENGTH_SYMBOL
 70
     0
  0
APPID
  5
1A5
330
9
100
AcDbSymbolTableRecord
100
AcDbRegAppTableRecord
  2
ACAD_DSTYLE_DIMJOGGED_JOGANGLE_SYMBOL
 70
     0
  0
APPID
  5
22C
330
9
100
AcDbSymbolTableRecord
100
AcDbRegAppTableRecord
  2
AcAecLayerStandard
 70
     0
  0
APPID
  5
326
330
9
100
AcDbSymbolTableRecord
100
AcDbRegAppTableRecord
  2
ACAD_PSEXT
 70
     0
  0
ENDTAB
  0
TABLE
  2
DIMSTYLE
  5
A
330
0
100
AcDbSymbolTable
 70
    12
100
AcDbDimStyleTable
 71
     1
340
6F
  0
DIMSTYLE
105
27
330
A
100
AcDbSymbolTableRecord
100
AcDbDimStyleTableRecord
  2
ISO-25
 70
     0
 41
2.5
 42
0.625
 43
3.75
 44
1.25
 73
     0
 74
     0
 77
     1
 78
     8
140
2.5
141
2.5
143
0.03937007874016
147
0.625
171
     3
172
     1
271
     2
272
     2
274
     3
278
    44
283
     0
284
     8
340
11
  0
DIMSTYLE
105
6F
102
{ACAD_REACTORS
330
4B
102
}
330
A
100
AcDbSymbolTableRecord
100
AcDbDimStyleTableRecord
  2
AM_DIN
 70
     0
  4
"
 41
2.5
 42
1.0
 43
10.0
 44
1.0
 47
0.1
 48
0.1
 73
     0
 74
     0
 77
     1
 78
     8
 79
     2
140
3.5
141
0.0
143
0.0393701
146
0.71
147
1.5
172
     1
176
   256
177
   256
178
     2
271
     2
272
     3
274
     4
283
     0
284
     8
340
11
371
    -1
372
    -1
1001
ACAD_DSTYLE_DIMARC_LENGTH_SYMBOL
1070
   379
1070
     0
1001
ACAD_DSTYLE_DIMJOGGED_JOGANGLE_SYMBOL
1070
   384
1040
1.570796326794896
  0
DIMSTYLE
105
70
330
A
100
AcDbSymbolTableRecord
100
AcDbDimStyleTableRecord
  2
AM_DIN$3
 70
     0
  4
"
 41
2.5
 42
1.0
 43
10.0
 44
1.0
 47
0.1
 48
0.1
 73
     0
 77
     1
 78
     8
 79
     2
140
3.5
141
0.0
143
0.0393701
146
0.71
147
1.5
176
   256
177
   256
178
     2
271
     2
272
     3
274
     4
283
     0
284
     8
288
     1
289
     0
340
11
371
    -1
372
    -1
1001
ACAD_DSTYLE_DIMARC_LENGTH_SYMBOL
1070
   379
1070
     0
1001
ACAD_DSTYLE_DIMJOGGED_JOGANGLE_SYMBOL
1070
   384
1040
1.570796326794896
  0
DIMSTYLE
105
71
330
A
100
AcDbSymbolTableRecord
100
AcDbDimStyleTableRecord
  2
AM_DIN$4
 70
     0
  4
"
 41
2.5
 42
1.0
 43
10.0
 44
1.0
 47
0.1
 48
0.1
 73
     0
 77
     1
 78
     8
 79
     2
140
3.5
141
0.0
143
0.0393701
146
0.71
147
1.5
176
   256
177
   256
178
     2
271
     2
272
     3
274
     4
283
     0
284
     8
288
     1
289
     0
340
11
371
    -1
372
    -1
1001
ACAD_DSTYLE_DIMARC_LENGTH_SYMBOL
1070
   379
1070
     0
1001
ACAD_DSTYLE_DIMJOGGED_JOGANGLE_SYMBOL
1070
   384
1040
1.570796326794896
  0
DIMSTYLE
105
72
330
A
100
AcDbSymbolTableRecord
100
AcDbDimStyleTableRecord
  2
AM_DIN$6
 70
     0
  4
"
 41
2.5
 42
1.0
 43
10.0
 44
1.0
 47
0.1
 48
0.1
 73
     0
 74
     0
 78
     8
 79
     2
140
3.5
141
0.0
143
0.0393701
146
0.71
147
1.5
172
     1
176
   256
177
   256
178
     2
271
     2
272
     3
274
     4
283
     0
284
     8
340
11
371
    -1
372
    -1
1001
ACAD_DSTYLE_DIMARC_LENGTH_SYMBOL
1070
   379
1070
     0
1001
ACAD_DSTYLE_DIMJOGGED_JOGANGLE_SYMBOL
1070
   384
1040
1.570796326794896
  0
DIMSTYLE
105
73
330
A
100
AcDbSymbolTableRecord
100
AcDbDimStyleTableRecord
  2
AM_DIN$7
 70
     0
  4
"
 41
2.5
 42
1.0
 43
10.0
 44
1.0
 47
0.1
 48
0.1
 73
     0
 74
     0
 77
     1
 78
     8
 79
     2
140
5.0
141
0.0
143
0.0393701
146
0.71
147
1.5
172
     1
176
   256
177
   256
178
     2
271
     2
272
     3
274
     4
283
     0
284
     8
340
11
371
    -1
372
    -1
1001
ACAD_DSTYLE_DIMARC_LENGTH_SYMBOL
1070
   379
1070
     0
1001
ACAD_DSTYLE_DIMJOGGED_JOGANGLE_SYMBOL
1070
   384
1040
1.570796326794896
  0
DIMSTYLE
105
74
330
A
100
AcDbSymbolTableRecord
100
AcDbDimStyleTableRecord
  2
AM_DIN$SF
 70
     0
  4
"
 41
2.5
 42
1.0
 43
10.0
 44
1.0
 47
0.1
 48
0.1
 73
     0
 74
     0
 75
     1
 76
     1
 77
     1
 78
     8
 79
     2
140
3.5
141
0.0
143
0.0393701
146
0.71
147
1.5
172
     1
176
   256
177
   256
178
     2
271
     2
272
     3
274
     4
283
     0
284
     8
340
11
371
    -1
372
    -1
1001
ACAD_DSTYLE_DIMARC_LENGTH_SYMBOL
1070
   379
1070
     0
1001
ACAD_DSTYLE_DIMJOGGED_JOGANGLE_SYMBOL
1070
   384
1040
1.570796326794896
  0
DIMSTYLE
105
79
330
A
100
AcDbSymbolTableRecord
100
AcDbDimStyleTableRecord
  2
AM_DIN$SH
 70
     0
  4
"
 41
2.5
 42
1.0
 43
10.0
 44
1.0
 47
0.1
 48
0.1
 73
     0
 74
     0
 75
     1
 76
     1
 77
     1
 78
     8
 79
     2
140
3.5
141
0.0
143
0.0393701
144
2.0
146
0.71
147
1.5
172
     1
173
     1
176
   256
177
   256
178
     2
271
     2
272
     3
274
     4
283
     0
284
     8
340
11
343
75
371
    -1
372
    -1
1001
ACAD_DSTYLE_DIMARC_LENGTH_SYMBOL
1070
   379
1070
     0
1001
ACAD_DSTYLE_DIMJOGGED_JOGANGLE_SYMBOL
1070
   384
1040
1.570796326794896
  0
DIMSTYLE
105
322
330
A
100
AcDbSymbolTableRecord
100
AcDbDimStyleTableRecord
  2
AM_ISO
 70
     0
  4
"
 41
2.5
 42
1.0
 43
10.0
 44
1.0
 47
0.1
 48
0.1
 73
     0
 74
     0
 77
     1
 78
     8
 79
     2
140
3.5
141
0.0
143
0.0393701
146
0.71
147
1.5
172
     1
176
   256
177
   256
178
     2
271
     2
272
     3
274
     4
283
     0
284
     8
340
11
371
    -1
372
    -1
  0
DIMSTYLE
105
323
330
A
100
AcDbSymbolTableRecord
100
AcDbDimStyleTableRecord
  2
GEN-ISO
 70
     0
  4
"
 40
10.0
 41
2.5
 42
1.0
 43
7.0
 44
1.0
 47
0.1
 48
0.1
 73
     0
 74
     0
 77
     1
 78
     8
140
3.5
141
0.0
143
0.0393701
146
0.71
147
0.6
172
     1
176
     3
177
     3
178
     2
271
     2
272
     2
283
     0
340
11
  0
DIMSTYLE
105
324
330
A
100
AcDbSymbolTableRecord
100
AcDbDimStyleTableRecord
  2
GEN-ISO$0
 70
     0
  4
"
 40
10.0
 41
2.5
 42
1.0
 43
7.0
 44
1.0
 47
0.1
 48
0.1
 73
     0
 74
     0
 77
     1
 78
     8
140
3.5
141
0.0
143
0.0393701
146
0.71
147
0.6
172
     1
176
     3
177
     3
178
     2
271
     2
272
     2
283
     0
340
11
  0
DIMSTYLE
105
325
330
A
100
AcDbSymbolTableRecord
100
AcDbDimStyleTableRecord
  2
GEN-ISO$2
 70
     0
  4
"
 40
10.0
 41
2.5
 42
1.0
 43
7.0
 44
1.0
 47
0.1
 48
0.1
 73
     0
 74
     0
 77
     1
 78
     8
140
3.5
141
0.0
143
0.0393701
146
0.71
147
0.6
172
     1
176
     3
177
     3
178
     2
271
     2
272
     2
283
     0
340
11
  0
ENDTAB
  0
TABLE
  2
BLOCK_RECORD
  5
1
330
0
100
AcDbSymbolTable
 70
     4
  0
BLOCK_RECORD
  5
1F
102
{ACAD_XDICTIONARY
360
83
102
}
330
1
100
AcDbSymbolTableRecord
100
AcDbBlockTableRecord
  2
*Model_Space
340
22
  0
BLOCK_RECORD
  5
1B
330
1
100
AcDbSymbolTableRecord
100
AcDbBlockTableRecord
  2
*Paper_Space
340
1E
  0
BLOCK_RECORD
  5
23
330
1
100
AcDbSymbolTableRecord
100
AcDbBlockTableRecord
  2
*Paper_Space0
340
26
  0
BLOCK_RECORD
  5
75
330
1
100
AcDbSymbolTableRecord
100
AcDbBlockTableRecord
  2
GENAXEH
340
0
  0
ENDTAB
  0
ENDSEC
  0
SECTION
  2
BLOCKS
  0
BLOCK
  5
20
330
1F
100
AcDbEntity
  8
0
100
AcDbBlockBegin
  2
*Model_Space
 70
     0
 10
0.0
 20
0.0
 30
0.0
  3
*Model_Space
  1

  0
ENDBLK
  5
21
330
1F
100
AcDbEntity
  8
0
100
AcDbBlockEnd
  0
BLOCK
  5
1C
330
1B
100
AcDbEntity
 67
     1
  8
0
100
AcDbBlockBegin
  2
*Paper_Space
 70
     0
 10
0.0
 20
0.0
 30
0.0
  3
*Paper_Space
  1

  0
ENDBLK
  5
1D
330
1B
100
AcDbEntity
 67
     1
  8
0
100
AcDbBlockEnd
  0
BLOCK
  5
24
330
23
100
AcDbEntity
 67
     1
  8
0
100
AcDbBlockBegin
  2
*Paper_Space0
 70
     0
 10
0.0
 20
0.0
 30
0.0
  3
*Paper_Space0
  1

  0
ENDBLK
  5
25
330
23
100
AcDbEntity
 67
     1
  8
0
100
AcDbBlockEnd
  0
BLOCK
  5
77
330
75
100
AcDbEntity
  8
0
100
AcDbBlockBegin
  2
GENAXEH
 70
     0
 10
0.0
 20
0.0
 30
0.0
  3
GENAXEH
  1

  0
LINE
  5
76
330
75
100
AcDbEntity
  8
0
100
AcDbLine
 10
-1.0
 20
0.0
 30
0.0
 11
1.0
 21
0.0
 31
0.0
  0
ENDBLK
  5
78
330
75
100
AcDbEntity
  8
0
100
AcDbBlockEnd
  0
ENDSEC
  0
SECTION
  2
ENTITIES
  0
LINE
  5
714
330
1F
100
AcDbEntity
  8
BILD
  6
PUNKT
 62
     1
100
AcDbLine
 10
1702.179999913523
 20
1339.034998296492
 30
0.0
 11
1702.179999913523
 21
1043.034998296493
 31
0.0
  0
LINE
  5
715
330
1F
100
AcDbEntity
  8
BILD
  6
PUNKT
 62
     1
100
AcDbLine
 10
2089.180121983523
 20
1043.033960696492
 30
0.0
 11
1702.179999913523
 21
1043.033960696492
 31
0.0
  0
CIRCLE
  5
716
330
1F
100
AcDbEntity
  8
BILD
  6
AUSGEZOGEN
 62
     1
100
AcDbCircle
 10
1825.679755773523
 20
1072.034815186492
 30
0.0
 40
3.25
  0
CIRCLE
  5
717
330
1F
100
AcDbEntity
  8
BILD
  6
AUSGEZOGEN
 62
     1
100
AcDbCircle
 10
1811.679877843523
 20
1072.034815186492
 30
0.0
 40
3.25
  0
CIRCLE
  5
718
330
1F
100
AcDbEntity
  8
BILD
  6
AUSGEZOGEN
 62
     1
100
AcDbCircle
 10
1825.679755773523
 20
1086.035059336493
 30
0.0
 40
3.25
  0
CIRCLE
  5
719
330
1F
100
AcDbEntity
  8
BILD
  6
AUSGEZOGEN
 62
     1
100
AcDbCircle
 10
1811.679877843523
 20
1086.035059336493
 30
0.0
 40
3.25
  0
CIRCLE
  5
71A
330
1F
100
AcDbEntity
  8
BILD
  6
AUSGEZOGEN
 62
     1
100
AcDbCircle
 10
1797.679938873524
 20
1072.034815186492
 30
0.0
 40
3.25
  0
CIRCLE
  5
71B
330
1F
100
AcDbEntity
  8
BILD
  6
AUSGEZOGEN
 62
     1
100
AcDbCircle
 10
1783.679999913523
 20
1072.034815186492
 30
0.0
 40
3.25
  0
CIRCLE
  5
71C
330
1F
100
AcDbEntity
  8
BILD
  6
AUSGEZOGEN
 62
     1
100
AcDbCircle
 10
1797.679938873524
 20
1086.035059336493
 30
0.0
 40
3.25
  0
CIRCLE
  5
71D
330
1F
100
AcDbEntity
  8
BILD
  6
AUSGEZOGEN
 62
     1
100
AcDbCircle
 10
1783.679999913523
 20
1086.035059336493
 30
0.0
 40
3.25
  0
CIRCLE
  5
71E
330
1F
100
AcDbEntity
  8
BILD
  6
AUSGEZOGEN
 62
     1
100
AcDbCircle
 10
1769.680060943524
 20
1072.034815186492
 30
0.0
 40
3.25
  0
CIRCLE
  5
71F
330
1F
100
AcDbEntity
  8
BILD
  6
AUSGEZOGEN
 62
     1
100
AcDbCircle
 10
1755.680121983522
 20
1072.034815186492
 30
0.0
 40
3.25
  0
CIRCLE
  5
720
330
1F
100
AcDbEntity
  8
BILD
  6
AUSGEZOGEN
 62
     1
100
AcDbCircle
 10
1769.680060943524
 20
1086.035059336493
 30
0.0
 40
3.25
  0
CIRCLE
  5
721
330
1F
100
AcDbEntity
  8
BILD
  6
AUSGEZOGEN
 62
     1
100
AcDbCircle
 10
1755.680121983522
 20
1086.035059336493
 30
0.0
 40
3.25
  0
CIRCLE
  5
722
330
1F
100
AcDbEntity
  8
BILD
  6
AUSGEZOGEN
 62
     1
100
AcDbCircle
 10
1741.679877843523
 20
1072.034815186492
 30
0.0
 40
3.25
  0
CIRCLE
  5
723
330
1F
100
AcDbEntity
  8
BILD
  6
AUSGEZOGEN
 62
     1
100
AcDbCircle
 10
1727.679938873524
 20
1072.034815186492
 30
0.0
 40
3.25
  0
CIRCLE
  5
724
330
1F
100
AcDbEntity
  8
BILD
  6
AUSGEZOGEN
 62
     1
100
AcDbCircle
 10
1741.679877843523
 20
1086.035059336493
 30
0.0
 40
3.25
  0
CIRCLE
  5
725
330
1F
100
AcDbEntity
  8
BILD
  6
AUSGEZOGEN
 62
     1
100
AcDbCircle
 10
1727.679938873524
 20
1086.035059336493
 30
0.0
 40
3.25
  0
CIRCLE
  5
726
330
1F
100
AcDbEntity
  8
BILD
  6
AUSGEZOGEN
 62
     1
100
AcDbCircle
 10
1790.680121983522
 20
1051.034448976493
 30
0.0
 40
3.5
  0
CIRCLE
  5
727
330
1F
100
AcDbEntity
  8
BILD
  6
AUSGEZOGEN
 62
     1
100
AcDbCircle
 10
1790.680121983522
 20
1079.034326906492
 30
0.0
 40
3.5
  0
CIRCLE
  5
728
330
1F
100
AcDbEntity
  8
BILD
  6
AUSGEZOGEN
 62
     1
100
AcDbCircle
 10
1748.679999913523
 20
1051.034448976493
 30
0.0
 40
3.5
  0
CIRCLE
  5
729
330
1F
100
AcDbEntity
  8
BILD
  6
AUSGEZOGEN
 62
     1
100
AcDbCircle
 10
1748.679999913523
 20
1079.034326906492
 30
0.0
 40
3.5
  0
CIRCLE
  5
72A
330
1F
100
AcDbEntity
  8
BILD
  6
AUSGEZOGEN
 62
     1
100
AcDbCircle
 10
1706.679877843523
 20
1051.034448976493
 30
0.0
 40
3.5
  0
CIRCLE
  5
72B
330
1F
100
AcDbEntity
  8
BILD
  6
AUSGEZOGEN
 62
     1
100
AcDbCircle
 10
1706.679877843523
 20
1079.034326906492
 30
0.0
 40
3.5
  0
CIRCLE
  5
72C
330
1F
100
AcDbEntity
  8
BILD
  6
AUSGEZOGEN
 62
     1
100
AcDbCircle
 10
1853.679999913523
 20
1072.034815186492
 30
0.0
 40
3.25
  0
CIRCLE
  5
72D
330
1F
100
AcDbEntity
  8
BILD
  6
AUSGEZOGEN
 62
     1
100
AcDbCircle
 10
1839.680060943524
 20
1072.034815186492
 30
0.0
 40
3.25
  0
CIRCLE
  5
72E
330
1F
100
AcDbEntity
  8
BILD
  6
AUSGEZOGEN
 62
     1
100
AcDbCircle
 10
1853.679999913523
 20
1086.035059336493
 30
0.0
 40
3.25
  0
CIRCLE
  5
72F
330
1F
100
AcDbEntity
  8
BILD
  6
AUSGEZOGEN
 62
     1
100
AcDbCircle
 10
1839.680060943524
 20
1086.035059336493
 30
0.0
 40
3.25
  0
CIRCLE
  5
730
330
1F
100
AcDbEntity
  8
BILD
  6
AUSGEZOGEN
 62
     1
100
AcDbCircle
 10
1832.679938873524
 20
1051.034448976493
 30
0.0
 40
3.5
  0
CIRCLE
  5
731
330
1F
100
AcDbEntity
  8
BILD
  6
AUSGEZOGEN
 62
     1
100
AcDbCircle
 10
1832.679938873524
 20
1079.034326906492
 30
0.0
 40
3.5
  0
CIRCLE
  5
732
330
1F
100
AcDbEntity
  8
BILD
  6
AUSGEZOGEN
 62
     1
100
AcDbCircle
 10
2084.679999913523
 20
1051.034448976493
 30
0.0
 40
3.5
  0
CIRCLE
  5
733
330
1F
100
AcDbEntity
  8
BILD
  6
AUSGEZOGEN
 62
     1
100
AcDbCircle
 10
2084.679999913523
 20
1079.034326906492
 30
0.0
 40
3.5
  0
CIRCLE
  5
734
330
1F
100
AcDbEntity
  8
BILD
  6
AUSGEZOGEN
 62
     1
100
AcDbCircle
 10
2042.679999913523
 20
1051.034448976493
 30
0.0
 40
3.5
  0
CIRCLE
  5
735
330
1F
100
AcDbEntity
  8
BILD
  6
AUSGEZOGEN
 62
     1
100
AcDbCircle
 10
2042.679999913523
 20
1079.034326906492
 30
0.0
 40
3.5
  0
CIRCLE
  5
736
330
1F
100
AcDbEntity
  8
BILD
  6
AUSGEZOGEN
 62
     1
100
AcDbCircle
 10
2000.680488193525
 20
1051.034448976493
 30
0.0
 40
3.5
  0
CIRCLE
  5
737
330
1F
100
AcDbEntity
  8
BILD
  6
AUSGEZOGEN
 62
     1
100
AcDbCircle
 10
2000.680488193525
 20
1079.034326906492
 30
0.0
 40
3.5
  0
CIRCLE
  5
738
330
1F
100
AcDbEntity
  8
BILD
  6
AUSGEZOGEN
 62
     1
100
AcDbCircle
 10
1958.679999913522
 20
1051.034448976493
 30
0.0
 40
3.5
  0
CIRCLE
  5
739
330
1F
100
AcDbEntity
  8
BILD
  6
AUSGEZOGEN
 62
     1
100
AcDbCircle
 10
1958.679999913522
 20
1079.034326906492
 30
0.0
 40
3.5
  0
CIRCLE
  5
73A
330
1F
100
AcDbEntity
  8
BILD
  6
AUSGEZOGEN
 62
     1
100
AcDbCircle
 10
1916.679877843523
 20
1051.034448976493
 30
0.0
 40
3.5
  0
CIRCLE
  5
73B
330
1F
100
AcDbEntity
  8
BILD
  6
AUSGEZOGEN
 62
     1
100
AcDbCircle
 10
1916.679877843523
 20
1079.034326906492
 30
0.0
 40
3.5
  0
CIRCLE
  5
73C
330
1F
100
AcDbEntity
  8
BILD
  6
AUSGEZOGEN
 62
     1
100
AcDbCircle
 10
1874.680060943524
 20
1051.034448976493
 30
0.0
 40
3.5
  0
CIRCLE
  5
73D
330
1F
100
AcDbEntity
  8
BILD
  6
AUSGEZOGEN
 62
     1
100
AcDbCircle
 10
1874.680060943524
 20
1079.034326906492
 30
0.0
 40
3.5
  0
LINE
  5
73E
330
1F
100
AcDbEntity
  8
BILD
  6
AUSGEZOGEN
 62
     1
100
AcDbLine
 10
1683.679999913523
 20
1355.534021736493
 30
0.0
 11
1683.679999913523
 21
1026.534021736493
 31
0.0
  0
LINE
  5
73F
330
1F
100
AcDbEntity
  8
BILD
  6
AUSGEZOGEN
 62
     1
100
AcDbLine
 10
1685.680121983522
 20
1026.534326906492
 30
0.0
 11
1685.680121983522
 21
1024.534387946492
 31
0.0
  0
LINE
  5
740
330
1F
100
AcDbEntity
  8
BILD
  6
AUSGEZOGEN
 62
     1
100
AcDbLine
 10
1683.679999913523
 20
1026.534326906492
 30
0.0
 11
1685.680121983522
 21
1026.534326906492
 31
0.0
  0
LINE
  5
741
330
1F
100
AcDbEntity
  8
BILD
  6
AUSGEZOGEN
 62
     1
100
AcDbLine
 10
1685.680121983522
 20
1024.534204836493
 30
0.0
 11
2105.680121983523
 21
1024.534204836493
 31
0.0
  0
LINE
  5
742
330
1F
100
AcDbEntity
  8
BILD
  6
PUNKT
 62
     1
100
AcDbLine
 10
1740.679755773523
 20
1003.033960696492
 30
0.0
 11
1850.679755773523
 21
1003.033960696492
 31
0.0
  0
LINE
  5
743
330
1F
100
AcDbEntity
  8
BILD
  6
PUNKT
 62
     1
100
AcDbLine
 10
1850.679755773523
 20
1003.033960696492
 30
0.0
 11
1850.679755773523
 21
1043.033960696492
 31
0.0
  0
LINE
  5
744
330
1F
100
AcDbEntity
  8
BILD
  6
PUNKT
 62
     1
100
AcDbLine
 10
1740.679755773523
 20
1003.033960696492
 30
0.0
 11
1740.679755773523
 21
1043.033960696492
 31
0.0
  0
LINE
  5
745
330
1F
100
AcDbEntity
  8
BILD
  6
MITTE
 62
     1
100
AcDbLine
 10
1795.679755773523
 20
992.927149176493
 30
0.0
 11
1795.679755773523
 21
1048.564112066492
 31
0.0
  0
LINE
  5
746
330
1F
100
AcDbEntity
  8
BILD
  6
AUSGEZOGEN
 62
     1
100
AcDbLine
 10
2079.185004793523
 20
2404.869959236493
 30
0.0
 11
2051.701728423523
 21
2404.869959236493
 31
0.0
  0
LINE
  5
747
330
1F
100
AcDbEntity
  8
BILD
  6
AUSGEZOGEN
 62
     1
100
AcDbLine
 10
2023.877387603524
 20
2088.042566656493
 30
0.0
 11
2051.702094633522
 21
2404.870203376492
 31
0.0
  0
LINE
  5
748
330
1F
100
AcDbEntity
  8
BILD
  6
AUSGEZOGEN
 62
     1
100
AcDbLine
 10
1936.818061433522
 20
2498.473474856492
 30
0.0
 11
1893.661628323524
 21
2511.922693606493
 31
0.0
  0
LINE
  5
749
330
1F
100
AcDbEntity
  8
BILD
  6
AUSGEZOGEN
 62
     1
100
AcDbLine
 10
1965.685615143525
 20
2386.071131106493
 30
0.0
 11
2034.802802643525
 21
2516.715418216493
 31
0.0
  0
LINE
  5
74A
330
1F
100
AcDbEntity
  8
BILD
  6
AUSGEZOGEN
 62
     1
100
AcDbLine
 10
2076.951728423523
 20
2516.715662356493
 30
0.0
 11
2034.803046783524
 21
2516.715662356493
 31
0.0
  0
LINE
  5
74B
330
1F
100
AcDbEntity
  8
BILD
  6
AUSGEZOGEN
 62
     1
100
AcDbLine
 10
1982.121406163523
 20
2547.177088136493
 30
0.0
 11
1986.621528233522
 21
2552.177088136493
 31
0.0
  0
LINE
  5
74C
330
1F
100
AcDbEntity
  8
BILD
  6
AUSGEZOGEN
 62
     1
100
AcDbLine
 10
1934.121528233522
 20
2547.177088136493
 30
0.0
 11
1929.621406163523
 21
2552.177088136493
 31
0.0
  0
LINE
  5
74D
330
1F
100
AcDbEntity
  8
BILD
  6
AUSGEZOGEN
 62
     1
100
AcDbLine
 10
1934.121528233522
 20
2487.177088136493
 30
0.0
 11
1929.621406163523
 21
2482.177088136493
 31
0.0
  0
LINE
  5
74E
330
1F
100
AcDbEntity
  8
BILD
  6
AUSGEZOGEN
 62
     1
100
AcDbLine
 10
1982.121406163523
 20
2487.177088136493
 30
0.0
 11
1986.621528233522
 21
2482.177088136493
 31
0.0
  0
LINE
  5
74F
330
1F
100
AcDbEntity
  8
BILD
  6
AUSGEZOGEN
 62
     1
100
AcDbLine
 10
1962.166572173524
 20
2510.021326426493
 30
0.0
 11
1963.121162023523
 21
2506.738123296493
 31
0.0
  0
ARC
  5
750
330
1F
100
AcDbEntity
  8
BILD
  6
AUSGEZOGEN
 62
     1
100
AcDbCircle
 10
1954.994697173523
 20
2515.983240486493
 30
0.0
 40
9.32766151
100
AcDbArc
 50
320.2547912599697
 51
349.2044677700321
  0
ARC
  5
751
330
1F
100
AcDbEntity
  8
BILD
  6
AUSGEZOGEN
 62
     1
100
AcDbCircle
 10
1961.247993073525
 20
2515.983240486493
 30
0.0
 40
9.32766151
100
AcDbArc
 50
190.7955169700038
 51
219.7451782198851
  0
LINE
  5
752
330
1F
100
AcDbEntity
  8
BILD
  6
AUSGEZOGEN
 62
     1
100
AcDbLine
 10
1954.076118073525
 20
2510.021326426493
 30
0.0
 11
1962.166572173524
 21
2510.021326426493
 31
0.0
  0
LINE
  5
753
330
1F
100
AcDbEntity
  8
BILD
  6
AUSGEZOGEN
 62
     1
100
AcDbLine
 10
1954.076118073525
 20
2510.021326426493
 30
0.0
 11
1953.121528233522
 21
2506.738123296493
 31
0.0
  0
ARC
  5
754
330
1F
100
AcDbEntity
  8
BILD
  6
AUSGEZOGEN
 62
     1
100
AcDbCircle
 10
1979.760566313523
 20
2514.237635016493
 30
0.0
 40
27.67475128
100
AcDbArc
 50
164.2758789100102
 51
195.7240600600083
  0
ARC
  5
755
330
1F
100
AcDbEntity
  8
BILD
  6
AUSGEZOGEN
 62
     1
100
AcDbCircle
 10
1936.482368073525
 20
2514.237635016493
 30
0.0
 40
27.67474937
100
AcDbArc
 50
344.2759399399916
 51
15.72412108998979
  0
LINE
  5
756
330
1F
100
AcDbEntity
  8
BILD
  6
AUSGEZOGEN
 62
     1
100
AcDbLine
 10
1833.691596593523
 20
2363.588220956493
 30
0.0
 11
1900.269599523523
 21
2363.588220956493
 31
0.0
  0
LINE
  5
757
330
1F
100
AcDbEntity
  8
BILD
  6
AUSGEZOGEN
 62
     1
100
AcDbLine
 10
1963.900947173523
 20
2035.675623296492
 30
0.0
 11
1900.269965733522
 21
2363.588220956493
 31
0.0
  0
LINE
  5
758
330
1F
100
AcDbEntity
  8
BILD
  6
PUNKT
 62
     1
100
AcDbLine
 10
1960.507636633524
 20
2009.364588136493
 30
0.0
 11
2219.108954983525
 21
2009.364588136493
 31
0.0
  0
LINE
  5
759
330
1F
100
AcDbEntity
  8
BILD
  6
PUNKT
 62
     1
100
AcDbLine
 10
1960.507636633524
 20
2035.728113526493
 30
0.0
 11
2248.162665923524
 21
2035.728113526493
 31
0.0
  0
ARC
  5
75A
330
1F
100
AcDbEntity
  8
BILD
  6
PUNKT
 62
     1
100
AcDbCircle
 10
1975.680366123525
 20
2064.546472906493
 30
0.0
 40
23.00000191
100
AcDbArc
 50
248.9039611801091
 51
285.7417907699497
  0
ARC
  5
75B
330
1F
100
AcDbEntity
  8
BILD
  6
PUNKT
 62
     1
100
AcDbCircle
 10
1975.680366123525
 20
2064.546472906493
 30
0.0
 40
23.00000191
100
AcDbArc
 50
319.53930663998
 51
27.99728394003852
  0
LINE
  5
75C
330
1F
100
AcDbEntity
  8
BILD
  6
AUSGEZOGEN
 62
     1
100
AcDbLine
 10
1862.513618073525
 20
2116.096765876492
 30
0.0
 11
1786.529731353524
 21
2245.590906496493
 31
0.0
  0
LINE
  5
75D
330
1F
100
AcDbEntity
  8
BILD
  6
AUSGEZOGEN
 62
     1
100
AcDbLine
 10
2121.485419833524
 20
2118.356287356492
 30
0.0
 11
2156.182685453522
 21
2256.901697516493
 31
0.0
  0
ARC
  5
75E
330
1F
100
AcDbEntity
  8
BILD
  6
AUSGEZOGEN
 62
     1
100
AcDbCircle
 10
1975.680366123525
 20
2064.546472906493
 30
0.0
 40
23.00000191
100
AcDbArc
 50
149.1671142600625
 51
248.9039611801091
  0
ARC
  5
75F
330
1F
100
AcDbEntity
  8
BILD
  6
PUNKT
 62
     1
100
AcDbCircle
 10
1975.680366123525
 20
2064.546472906493
 30
0.0
 40
25.00000191
100
AcDbArc
 50
346.1134643599952
 51
127.62786864999
  0
LINE
  5
760
330
1F
100
AcDbEntity
  8
BILD
  6
AUSGEZOGEN
 62
     1
100
AcDbLine
 10
1679.679755773523
 20
2211.046717046492
 30
0.0
 11
1681.179694733525
 21
2211.046717046492
 31
0.0
  0
ARC
  5
761
330
1F
100
AcDbEntity
  8
BILD
  6
AUSGEZOGEN
 62
     1
100
AcDbCircle
 10
1681.179633703524
 20
2219.546472906492
 30
0.0
 40
1.500000119999999
100
AcDbArc
 50
90.00000762997665
 51
180.0
  0
ARC
  5
762
330
1F
100
AcDbEntity
  8
BILD
  6
AUSGEZOGEN
 62
     1
100
AcDbCircle
 10
1681.179633703524
 20
2219.546472906492
 30
0.0
 40
1.500000119999999
100
AcDbArc
 50
0.0
 51
90.00000762997665
  0
ARC
  5
763
330
1F
100
AcDbEntity
  8
BILD
  6
AUSGEZOGEN
 62
     1
100
AcDbCircle
 10
1684.179877843523
 20
2193.546717046493
 30
0.0
 40
1.500000119999999
100
AcDbArc
 50
180.0
 51
270.0
  0
ARC
  5
764
330
1F
100
AcDbEntity
  8
BILD
  6
AUSGEZOGEN
 62
     1
100
AcDbCircle
 10
1684.179877843523
 20
2193.546717046493
 30
0.0
 40
3.000000239999999
100
AcDbArc
 50
180.0
 51
270.0
  0
LINE
  5
765
330
1F
100
AcDbEntity
  8
BILD
  6
AUSGEZOGEN
 62
     1
100
AcDbLine
 10
1681.179999913523
 20
2219.546472906492
 30
0.0
 11
1681.179999913523
 21
2193.546472906493
 31
0.0
  0
ARC
  5
766
330
1F
100
AcDbEntity
  8
BILD
  6
AUSGEZOGEN
 62
     1
100
AcDbCircle
 10
1700.679755773523
 20
2189.045984626492
 30
0.0
 40
1.500000119999999
100
AcDbArc
 50
0.0
 51
90.00000762997665
  0
LINE
  5
767
330
1F
100
AcDbEntity
  8
BILD
  6
AUSGEZOGEN
 62
     1
100
AcDbLine
 10
1684.179877843523
 20
2190.546228766493
 30
0.0
 11
1700.679816803525
 21
2190.546228766493
 31
0.0
  0
ARC
  5
768
330
1F
100
AcDbEntity
  8
BILD
  6
AUSGEZOGEN
 62
     1
100
AcDbCircle
 10
1700.679755773523
 20
2189.045984626492
 30
0.0
 40
3.000000239999999
100
AcDbArc
 50
0.0
 51
90.00000762997665
  0
ARC
  5
769
330
1F
100
AcDbEntity
  8
BILD
  6
AUSGEZOGEN
 62
     1
100
AcDbCircle
 10
1705.179877843523
 20
1764.045984626492
 30
0.0
 40
1.500000119999999
100
AcDbArc
 50
180.0
 51
270.0
  0
ARC
  5
76A
330
1F
100
AcDbEntity
  8
BILD
  6
AUSGEZOGEN
 62
     1
100
AcDbCircle
 10
1705.179877843523
 20
1764.045984626492
 30
0.0
 40
3.000000239999999
100
AcDbArc
 50
180.0
 51
270.0
  0
LINE
  5
76B
330
1F
100
AcDbEntity
  8
BILD
  6
AUSGEZOGEN
 62
     1
100
AcDbLine
 10
1702.179999913523
 20
2189.045984626492
 30
0.0
 11
1702.179999913523
 21
1764.045862556492
 31
0.0
  0
LINE
  5
76C
330
1F
100
AcDbEntity
  8
BILD
  6
AUSGEZOGEN
 62
     1
100
AcDbLine
 10
1705.179877843523
 20
1762.545740486492
 30
0.0
 11
2086.179999913523
 21
1762.545740486492
 31
0.0
  0
LINE
  5
76D
330
1F
100
AcDbEntity
  8
BILD
  6
AUSGEZOGEN
 62
     1
100
AcDbLine
 10
2089.180121983523
 20
2072.346765876492
 30
0.0
 11
2089.180121983523
 21
1764.046594976492
 31
0.0
  0
ARC
  5
76E
330
1F
100
AcDbEntity
  8
BILD
  6
AUSGEZOGEN
 62
     1
100
AcDbCircle
 10
2110.179877843523
 20
2219.546472906492
 30
0.0
 40
1.500000119999999
100
AcDbArc
 50
90.00000762997665
 51
180.0
  0
ARC
  5
76F
330
1F
100
AcDbEntity
  8
BILD
  6
AUSGEZOGEN
 62
     1
100
AcDbCircle
 10
2110.179877843523
 20
2219.546472906492
 30
0.0
 40
1.500000119999999
100
AcDbArc
 50
0.0
 51
90.00000762997665
  0
LINE
  5
770
330
1F
100
AcDbEntity
  8
BILD
  6
AUSGEZOGEN
 62
     1
100
AcDbLine
 10
2111.680121983523
 20
2211.046717046492
 30
0.0
 11
2110.180244053522
 21
2211.046717046492
 31
0.0
  0
ARC
  5
771
330
1F
100
AcDbEntity
  8
BILD
  6
AUSGEZOGEN
 62
     1
100
AcDbCircle
 10
2107.179999913523
 20
2193.546717046493
 30
0.0
 40
1.500000119999999
100
AcDbArc
 50
270.0
 51
0.0
  0
ARC
  5
772
330
1F
100
AcDbEntity
  8
BILD
  6
AUSGEZOGEN
 62
     1
100
AcDbCircle
 10
2107.179999913523
 20
2193.546717046493
 30
0.0
 40
3.000000239999999
100
AcDbArc
 50
270.0
 51
0.0
  0
LINE
  5
773
330
1F
100
AcDbEntity
  8
BILD
  6
AUSGEZOGEN
 62
     1
100
AcDbLine
 10
2110.179877843523
 20
2219.546472906492
 30
0.0
 11
2110.179877843523
 21
2193.546472906493
 31
0.0
  0
ARC
  5
774
330
1F
100
AcDbEntity
  8
BILD
  6
AUSGEZOGEN
 62
     1
100
AcDbCircle
 10
2090.679755773523
 20
2189.045984626492
 30
0.0
 40
3.000000239999999
100
AcDbArc
 50
90.00000762997665
 51
180.0
  0
ARC
  5
775
330
1F
100
AcDbEntity
  8
BILD
  6
AUSGEZOGEN
 62
     1
100
AcDbCircle
 10
2090.679755773523
 20
2189.045984626492
 30
0.0
 40
1.500000119999999
100
AcDbArc
 50
90.00000762997665
 51
180.0
  0
ARC
  5
776
330
1F
100
AcDbEntity
  8
BILD
  6
AUSGEZOGEN
 62
     1
100
AcDbCircle
 10
2086.179633703524
 20
1764.045984626492
 30
0.0
 40
3.000000239999999
100
AcDbArc
 50
270.0
 51
0.0
  0
LINE
  5
777
330
1F
100
AcDbEntity
  8
BILD
  6
AUSGEZOGEN
 62
     1
100
AcDbLine
 10
2089.180121983523
 20
2189.045984626492
 30
0.0
 11
2089.180121983523
 21
2114.745935796493
 31
0.0
  0
ARC
  5
778
330
1F
100
AcDbEntity
  8
BILD
  6
AUSGEZOGEN
 62
     1
100
AcDbCircle
 10
2086.179633703524
 20
1764.045984626492
 30
0.0
 40
1.500000119999999
100
AcDbArc
 50
270.0
 51
0.0
  0
ARC
  5
779
330
1F
100
AcDbEntity
  8
BILD
  6
PUNKT
 62
     1
100
AcDbCircle
 10
1975.680366123525
 20
2064.546472906493
 30
0.0
 40
25.00000191
100
AcDbArc
 50
151.1862487799894
 51
346.1134643599952
  0
LINE
  5
77A
330
1F
100
AcDbEntity
  8
BILD
  6
AUSGEZOGEN
 62
     1
100
AcDbLine
 10
1643.244819243523
 20
2006.581385016493
 30
0.0
 11
1691.759833893525
 21
2038.645471926492
 31
0.0
  0
ARC
  5
77B
330
1F
100
AcDbEntity
  8
BILD
  6
AUSGEZOGEN
 62
     1
100
AcDbCircle
 10
1975.680366123525
 20
2064.546472906493
 30
0.0
 40
23.00000191
100
AcDbArc
 50
27.9972820299671
 51
122.2940826399632
  0
ARC
  5
77C
330
1F
100
AcDbEntity
  8
BILD
  6
AUSGEZOGEN
 62
     1
100
AcDbCircle
 10
1975.680366123525
 20
2064.546472906493
 30
0.0
 40
23.00000191
100
AcDbArc
 50
287.203613280073
 51
319.53930663998
  0
LINE
  5
77D
330
1F
100
AcDbEntity
  8
BILD
  6
PUNKT
 62
     7
100
AcDbLine
 10
1703.679999913523
 20
1809.092371346492
 30
0.0
 11
1803.679999913523
 21
1809.092371346492
 31
0.0
  0
LINE
  5
77E
330
1F
100
AcDbEntity
  8
BILD
  6
PUNKT
 62
     7
100
AcDbLine
 10
1703.679999913523
 20
1800.084802986493
 30
0.0
 11
1803.670539463525
 21
1800.084802986493
 31
0.0
  0
LINE
  5
77F
330
1F
100
AcDbEntity
  8
BILD
  6
PUNKT
 62
     7
100
AcDbLine
 10
1703.679999913523
 20
1792.229578376492
 30
0.0
 11
1803.679999913523
 21
1792.229578376492
 31
0.0
  0
LINE
  5
780
330
1F
100
AcDbEntity
  8
BILD
  6
PUNKT
 62
     7
100
AcDbLine
 10
1703.679999913523
 20
1783.879968996492
 30
0.0
 11
1803.679999913523
 21
1783.879968996492
 31
0.0
  0
LINE
  5
781
330
1F
100
AcDbEntity
  8
BILD
  6
PUNKT
 62
     7
100
AcDbLine
 10
1703.679999913523
 20
1777.586023686493
 30
0.0
 11
1803.679999913523
 21
1777.586023686493
 31
0.0
  0
LINE
  5
782
330
1F
100
AcDbEntity
  8
BILD
  6
PUNKT
 62
     7
100
AcDbLine
 10
1703.679999913523
 20
1769.974939706492
 30
0.0
 11
1803.679999913523
 21
1769.974939706492
 31
0.0
  0
LINE
  5
783
330
1F
100
AcDbEntity
  8
BILD
  6
PUNKT
 62
     1
100
AcDbLine
 10
2024.067206943525
 20
1900.125086186493
 30
0.0
 11
2075.241767483524
 21
1900.125086186493
 31
0.0
  0
LINE
  5
784
330
1F
100
AcDbEntity
  8
BILD
  6
PUNKT
 62
     1
100
AcDbLine
 10
2037.021918853524
 20
1893.873865486493
 30
0.0
 11
2066.662421783524
 21
1893.873865486493
 31
0.0
  0
LINE
  5
785
330
1F
100
AcDbEntity
  8
BILD
  6
PUNKT
 62
     1
100
AcDbLine
 10
2030.408149323525
 20
1825.377771736493
 30
0.0
 11
2070.243720613523
 21
1825.377771736493
 31
0.0
  0
LINE
  5
786
330
1F
100
AcDbEntity
  8
BILD
  6
PUNKT
 62
     1
100
AcDbLine
 10
2040.130439363523
 20
1818.484461186493
 30
0.0
 11
2063.827949133524
 21
1818.484461186493
 31
0.0
  0
LINE
  5
787
330
1F
100
AcDbEntity
  8
BILD
  6
AUSGEZOGEN
 62
     1
100
AcDbLine
 10
1733.600898343525
 20
1793.917810796493
 30
0.0
 11
1664.967780673524
 21
1840.136560796493
 31
0.0
  0
LINE
  5
788
330
1F
100
AcDbEntity
  8
BILD
  6
AUSGEZOGEN
 62
     1
100
AcDbLine
 10
2035.821967683522
 20
1477.871668216493
 30
0.0
 11
2142.539863193525
 21
1500.434412356492
 31
0.0
  0
LINE
  5
789
330
1F
100
AcDbEntity
  8
BILD
  6
PUNKT
 62
     1
100
AcDbLine
 10
2089.180121983523
 20
1339.034998296492
 30
0.0
 11
2089.180121983523
 21
1043.034998296493
 31
0.0
  0
LINE
  5
78A
330
1F
100
AcDbEntity
  8
BILD
  6
PUNKT
 62
     1
100
AcDbLine
 10
2089.180121983523
 20
1339.034998296492
 30
0.0
 11
1702.179999913523
 21
1339.034998296492
 31
0.0
  0
LINE
  5
78B
330
1F
100
AcDbEntity
  8
BILD
  6
AUSGEZOGEN
 62
     1
100
AcDbLine
 10
1988.243232333524
 20
1372.860681886493
 30
0.0
 11
2035.821967683522
 21
1477.871057866493
 31
0.0
  0
LINE
  5
78C
330
1F
100
AcDbEntity
  8
BILD
  6
AUSGEZOGEN
 62
     1
100
AcDbLine
 10
2089.180121983523
 20
2065.397302986493
 30
0.0
 11
2129.180121983523
 21
2065.397302986493
 31
0.0
  0
LINE
  5
78D
330
1F
100
AcDbEntity
  8
BILD
  6
AUSGEZOGEN
 62
     1
100
AcDbLine
 10
2089.180121983523
 20
2121.697351816492
 30
0.0
 11
2129.180121983523
 21
2121.697351816492
 31
0.0
  0
LINE
  5
78E
330
1F
100
AcDbEntity
  8
BILD
  6
AUSGEZOGEN
 62
     1
100
AcDbLine
 10
2089.180121983523
 20
2063.396570566492
 30
0.0
 11
2129.180121983523
 21
2063.396570566492
 31
0.0
  0
LINE
  5
78F
330
1F
100
AcDbEntity
  8
BILD
  6
AUSGEZOGEN
 62
     1
100
AcDbLine
 10
2089.180121983523
 20
2123.696863526493
 30
0.0
 11
2129.180121983523
 21
2123.696863526493
 31
0.0
  0
LINE
  5
790
330
1F
100
AcDbEntity
  8
BILD
  6
AUSGEZOGEN
 62
     1
100
AcDbLine
 10
2129.180121983523
 20
2123.696863526493
 30
0.0
 11
2129.180121983523
 21
2114.746668216493
 31
0.0
  0
LINE
  5
791
330
1F
100
AcDbEntity
  8
BILD
  6
AUSGEZOGEN
 62
     1
100
AcDbLine
 10
2129.180121983523
 20
2072.346765876492
 30
0.0
 11
2129.180121983523
 21
2063.396814706493
 31
0.0
  0
LINE
  5
792
330
1F
100
AcDbEntity
  8
BILD
  6
MITTE
 62
     1
100
AcDbLine
 10
2094.498725493523
 20
2167.046472906493
 30
0.0
 11
2081.237861233524
 21
2167.046472906493
 31
0.0
  0
LINE
  5
793
330
1F
100
AcDbEntity
  8
BILD
  6
PUNKT
 62
     1
100
AcDbLine
 10
2089.180121983523
 20
1210.884302496493
 30
0.0
 11
2129.180121983523
 21
1210.884302496493
 31
0.0
  0
LINE
  5
794
330
1F
100
AcDbEntity
  8
BILD
  6
PUNKT
 62
     1
100
AcDbLine
 10
2089.180121983523
 20
1271.184595466492
 30
0.0
 11
2129.180121983523
 21
1271.184595466492
 31
0.0
  0
LINE
  5
795
330
1F
100
AcDbEntity
  8
BILD
  6
PUNKT
 62
     1
100
AcDbLine
 10
2129.180121983523
 20
1271.184595466492
 30
0.0
 11
2129.180121983523
 21
1210.884607676492
 31
0.0
  0
LINE
  5
796
330
1F
100
AcDbEntity
  8
BILD
  6
PUNKT
 62
     1
100
AcDbLine
 10
2000.680366123525
 20
1339.034998296492
 30
0.0
 11
2000.680366123525
 21
1379.034998296492
 31
0.0
  0
LINE
  5
797
330
1F
100
AcDbEntity
  8
BILD
  6
PUNKT
 62
     1
100
AcDbLine
 10
1950.680366123525
 20
1339.034998296492
 30
0.0
 11
1950.680366123525
 21
1379.034998296492
 31
0.0
  0
LINE
  5
798
330
1F
100
AcDbEntity
  8
BILD
  6
PUNKT
 62
     1
100
AcDbLine
 10
1950.680366123525
 20
1379.034998296492
 30
0.0
 11
2000.680366123525
 21
1379.034998296492
 31
0.0
  0
LINE
  5
799
330
1F
100
AcDbEntity
  8
BILD
  6
PUNKT
 62
     1
100
AcDbLine
 10
2087.679877843523
 20
1165.784204836493
 30
0.0
 11
2089.179755773523
 21
1165.784204836493
 31
0.0
  0
LINE
  5
79A
330
1F
100
AcDbEntity
  8
BILD
  6
PUNKT
 62
     1
100
AcDbLine
 10
2087.679877843523
 20
1163.284204836493
 30
0.0
 11
2089.179755773523
 21
1163.284204836493
 31
0.0
  0
LINE
  5
79B
330
1F
100
AcDbEntity
  8
BILD
  6
AUSGEZOGEN
 62
     1
100
AcDbLine
 10
1783.520148833523
 20
1999.110681886493
 30
0.0
 11
1784.520209873525
 21
1997.378626226492
 31
0.0
  0
LINE
  5
79C
330
1F
100
AcDbEntity
  8
BILD
  6
AUSGEZOGEN
 62
     1
100
AcDbLine
 10
1887.400703033524
 20
2151.375086186493
 30
0.0
 11
1889.332465733522
 21
2150.857508066492
 31
0.0
  0
ARC
  5
79D
330
1F
100
AcDbEntity
  8
BILD
  6
AUSGEZOGEN
 62
     1
100
AcDbCircle
 10
2103.679633703524
 20
2217.046472906492
 30
0.0
 40
2.000000239999999
100
AcDbArc
 50
0.0
 51
90.00000762997665
  0
LINE
  5
79E
330
1F
100
AcDbEntity
  8
BILD
  6
AUSGEZOGEN
 62
     1
100
AcDbLine
 10
2105.680366123525
 20
2192.046472906493
 30
0.0
 11
2105.680366123525
 21
2217.046472906492
 31
0.0
  0
ARC
  5
79F
330
1F
100
AcDbEntity
  8
BILD
  6
AUSGEZOGEN
 62
     1
100
AcDbCircle
 10
1687.680183013523
 20
2217.046472906492
 30
0.0
 40
2.000000239999999
100
AcDbArc
 50
90.00000762997665
 51
180.0
  0
LINE
  5
7A0
330
1F
100
AcDbEntity
  8
BILD
  6
AUSGEZOGEN
 62
     1
100
AcDbLine
 10
1687.680183013523
 20
2219.045984626492
 30
0.0
 11
2103.680244053522
 21
2219.045984626492
 31
0.0
  0
LINE
  5
7A1
330
1F
100
AcDbEntity
  8
BILD
  6
AUSGEZOGEN
 62
     1
100
AcDbLine
 10
1685.680366123525
 20
2192.046472906493
 30
0.0
 11
1685.680366123525
 21
2217.046472906492
 31
0.0
  0
LINE
  5
7A2
330
1F
100
AcDbEntity
  8
BILD
  6
AUSGEZOGEN
 62
     1
100
AcDbLine
 10
1875.679755773523
 20
2219.045984626492
 30
0.0
 11
1875.679755773523
 21
2194.045984626492
 31
0.0
  0
LINE
  5
7A3
330
1F
100
AcDbEntity
  8
BILD
  6
AUSGEZOGEN
 62
     1
100
AcDbLine
 10
1873.679877843523
 20
2219.045984626492
 30
0.0
 11
1873.679877843523
 21
2194.045984626492
 31
0.0
  0
LINE
  5
7A4
330
1F
100
AcDbEntity
  8
BILD
  6
AUSGEZOGEN
 62
     1
100
AcDbLine
 10
1873.679877843523
 20
2194.045984626492
 30
0.0
 11
1875.679999913523
 21
2194.045984626492
 31
0.0
  0
LINE
  5
7A5
330
1F
100
AcDbEntity
  8
BILD
  6
AUSGEZOGEN
 62
     1
100
AcDbLine
 10
2001.680121983523
 20
2219.045984626492
 30
0.0
 11
2001.680121983523
 21
2194.045984626492
 31
0.0
  0
LINE
  5
7A6
330
1F
100
AcDbEntity
  8
BILD
  6
AUSGEZOGEN
 62
     1
100
AcDbLine
 10
1999.679999913523
 20
2219.045984626492
 30
0.0
 11
1999.679999913523
 21
2194.045984626492
 31
0.0
  0
LINE
  5
7A7
330
1F
100
AcDbEntity
  8
BILD
  6
AUSGEZOGEN
 62
     1
100
AcDbLine
 10
1999.679999913523
 20
2194.045984626492
 30
0.0
 11
2001.680121983523
 21
2194.045984626492
 31
0.0
  0
LINE
  5
7A8
330
1F
100
AcDbEntity
  8
BILD
  6
AUSGEZOGEN
 62
     1
100
AcDbLine
 10
1828.930244053522
 20
2221.046717046493
 30
0.0
 11
1828.930244053522
 21
2219.046717046493
 31
0.0
  0
LINE
  5
7A9
330
1F
100
AcDbEntity
  8
BILD
  6
AUSGEZOGEN
 62
     1
100
AcDbLine
 10
1822.429999913523
 20
2221.046717046493
 30
0.0
 11
1822.429999913523
 21
2219.046717046493
 31
0.0
  0
ARC
  5
7AA
330
1F
100
AcDbEntity
  8
BILD
  6
AUSGEZOGEN
 62
     1
100
AcDbCircle
 10
1832.680244053522
 20
2217.712976816493
 30
0.0
 40
4.833319659999999
100
AcDbArc
 50
43.60263823988503
 51
136.3973693799346
  0
LINE
  5
7AB
330
1F
100
AcDbEntity
  8
BILD
  6
AUSGEZOGEN
 62
     1
100
AcDbLine
 10
1842.930121983522
 20
2221.046717046493
 30
0.0
 11
1842.930121983522
 21
2219.046717046493
 31
0.0
  0
LINE
  5
7AC
330
1F
100
AcDbEntity
  8
BILD
  6
AUSGEZOGEN
 62
     1
100
AcDbLine
 10
1836.429877843523
 20
2221.046717046493
 30
0.0
 11
1836.429877843523
 21
2219.046717046493
 31
0.0
  0
ARC
  5
7AD
330
1F
100
AcDbEntity
  8
BILD
  6
AUSGEZOGEN
 62
     1
100
AcDbCircle
 10
1706.680121983522
 20
2217.712976816493
 30
0.0
 40
4.833319659999999
100
AcDbArc
 50
43.60263823988503
 51
136.3973693799346
  0
LINE
  5
7AE
330
1F
100
AcDbEntity
  8
BILD
  6
AUSGEZOGEN
 62
     1
100
AcDbLine
 10
1730.930366123525
 20
2221.046717046493
 30
0.0
 11
1730.930366123525
 21
2219.046717046493
 31
0.0
  0
LINE
  5
7AF
330
1F
100
AcDbEntity
  8
BILD
  6
AUSGEZOGEN
 62
     1
100
AcDbLine
 10
1724.430121983522
 20
2221.046717046493
 30
0.0
 11
1724.430121983522
 21
2219.046717046493
 31
0.0
  0
ARC
  5
7B0
330
1F
100
AcDbEntity
  8
BILD
  6
AUSGEZOGEN
 62
     1
100
AcDbCircle
 10
1748.679999913523
 20
2217.712976816493
 30
0.0
 40
4.833319659999999
100
AcDbArc
 50
43.60263823988503
 51
136.3973693799346
  0
LINE
  5
7B1
330
1F
100
AcDbEntity
  8
BILD
  6
AUSGEZOGEN
 62
     1
100
AcDbLine
 10
1744.930244053522
 20
2221.046717046493
 30
0.0
 11
1744.930244053522
 21
2219.046717046493
 31
0.0
  0
LINE
  5
7B2
330
1F
100
AcDbEntity
  8
BILD
  6
AUSGEZOGEN
 62
     1
100
AcDbLine
 10
1738.429999913523
 20
2221.046717046493
 30
0.0
 11
1738.429999913523
 21
2219.046717046493
 31
0.0
  0
LINE
  5
7B3
330
1F
100
AcDbEntity
  8
BILD
  6
AUSGEZOGEN
 62
     1
100
AcDbLine
 10
1758.930244053522
 20
2221.046717046493
 30
0.0
 11
1758.930244053522
 21
2219.046717046493
 31
0.0
  0
LINE
  5
7B4
330
1F
100
AcDbEntity
  8
BILD
  6
AUSGEZOGEN
 62
     1
100
AcDbLine
 10
1752.429999913523
 20
2221.046717046493
 30
0.0
 11
1752.429999913523
 21
2219.046717046493
 31
0.0
  0
LINE
  5
7B5
330
1F
100
AcDbEntity
  8
BILD
  6
AUSGEZOGEN
 62
     1
100
AcDbLine
 10
1772.930121983522
 20
2221.046717046493
 30
0.0
 11
1772.930121983522
 21
2219.046717046493
 31
0.0
  0
LINE
  5
7B6
330
1F
100
AcDbEntity
  8
BILD
  6
AUSGEZOGEN
 62
     1
100
AcDbLine
 10
1766.429877843523
 20
2221.046717046493
 30
0.0
 11
1766.429877843523
 21
2219.046717046493
 31
0.0
  0
LINE
  5
7B7
330
1F
100
AcDbEntity
  8
BILD
  6
AUSGEZOGEN
 62
     1
100
AcDbLine
 10
1786.930121983522
 20
2221.046717046493
 30
0.0
 11
1786.930121983522
 21
2219.046717046493
 31
0.0
  0
LINE
  5
7B8
330
1F
100
AcDbEntity
  8
BILD
  6
AUSGEZOGEN
 62
     1
100
AcDbLine
 10
1780.429877843523
 20
2221.046717046493
 30
0.0
 11
1780.429877843523
 21
2219.046717046493
 31
0.0
  0
ARC
  5
7B9
330
1F
100
AcDbEntity
  8
BILD
  6
AUSGEZOGEN
 62
     1
100
AcDbCircle
 10
1790.680121983522
 20
2217.712976816493
 30
0.0
 40
4.833319659999999
100
AcDbArc
 50
43.60263823988503
 51
136.3973693799346
  0
LINE
  5
7BA
330
1F
100
AcDbEntity
  8
BILD
  6
AUSGEZOGEN
 62
     1
100
AcDbLine
 10
1800.930366123525
 20
2221.046717046493
 30
0.0
 11
1800.930366123525
 21
2219.046717046493
 31
0.0
  0
LINE
  5
7BB
330
1F
100
AcDbEntity
  8
BILD
  6
AUSGEZOGEN
 62
     1
100
AcDbLine
 10
1794.430121983522
 20
2221.046717046493
 30
0.0
 11
1794.430121983522
 21
2219.046717046493
 31
0.0
  0
LINE
  5
7BC
330
1F
100
AcDbEntity
  8
BILD
  6
AUSGEZOGEN
 62
     1
100
AcDbLine
 10
1808.429999913523
 20
2221.046717046493
 30
0.0
 11
1808.429999913523
 21
2219.046717046493
 31
0.0
  0
LINE
  5
7BD
330
1F
100
AcDbEntity
  8
BILD
  6
AUSGEZOGEN
 62
     1
100
AcDbLine
 10
1814.930244053522
 20
2221.046717046493
 30
0.0
 11
1814.930244053522
 21
2219.046717046493
 31
0.0
  0
LINE
  5
7BE
330
1F
100
AcDbEntity
  8
BILD
  6
AUSGEZOGEN
 62
     1
100
AcDbLine
 10
1856.930121983522
 20
2221.046717046493
 30
0.0
 11
1856.930121983522
 21
2219.046717046493
 31
0.0
  0
LINE
  5
7BF
330
1F
100
AcDbEntity
  8
BILD
  6
AUSGEZOGEN
 62
     1
100
AcDbLine
 10
1850.429877843523
 20
2221.046717046493
 30
0.0
 11
1850.429877843523
 21
2219.046717046493
 31
0.0
  0
ARC
  5
7C0
330
1F
100
AcDbEntity
  8
BILD
  6
AUSGEZOGEN
 62
     1
100
AcDbCircle
 10
1874.679999913523
 20
2217.712976816493
 30
0.0
 40
4.833319659999999
100
AcDbArc
 50
43.60263823988503
 51
136.3973693799346
  0
ARC
  5
7C1
330
1F
100
AcDbEntity
  8
BILD
  6
AUSGEZOGEN
 62
     1
100
AcDbCircle
 10
1916.680121983522
 20
2217.712976816493
 30
0.0
 40
4.833319659999999
100
AcDbArc
 50
43.60263823988503
 51
136.3973693799346
  0
ARC
  5
7C2
330
1F
100
AcDbEntity
  8
BILD
  6
AUSGEZOGEN
 62
     1
100
AcDbCircle
 10
1958.679999913522
 20
2217.712976816493
 30
0.0
 40
4.833319659999999
100
AcDbArc
 50
43.60263823988503
 51
136.3973693799346
  0
ARC
  5
7C3
330
1F
100
AcDbEntity
  8
BILD
  6
AUSGEZOGEN
 62
     1
100
AcDbCircle
 10
2042.680488193525
 20
2217.712976816493
 30
0.0
 40
4.833319659999999
100
AcDbArc
 50
43.60263823988503
 51
136.3973693799346
  0
ARC
  5
7C4
330
1F
100
AcDbEntity
  8
BILD
  6
AUSGEZOGEN
 62
     1
100
AcDbCircle
 10
2000.679755773524
 20
2217.712976816493
 30
0.0
 40
4.833319659999999
100
AcDbArc
 50
43.60263823988503
 51
136.3973693799346
  0
ARC
  5
7C5
330
1F
100
AcDbEntity
  8
BILD
  6
AUSGEZOGEN
 62
     1
100
AcDbCircle
 10
2084.679999913523
 20
2217.712976816493
 30
0.0
 40
4.833319659999999
100
AcDbArc
 50
43.60263823988503
 51
136.3973693799346
  0
ARC
  5
7C6
330
1F
100
AcDbEntity
  8
BILD
  6
AUSGEZOGEN
 62
     1
100
AcDbCircle
 10
1687.680244053522
 20
2217.046472906492
 30
0.0
 40
4.000000479999999
100
AcDbArc
 50
90.00000762997665
 51
180.0
  0
LINE
  5
7C7
330
1F
100
AcDbEntity
  8
BILD
  6
AUSGEZOGEN
 62
     1
100
AcDbLine
 10
1687.680244053522
 20
2221.046717046493
 30
0.0
 11
2103.680244053522
 21
2221.046717046493
 31
0.0
  0
LINE
  5
7C8
330
1F
100
AcDbEntity
  8
BILD
  6
AUSGEZOGEN
 62
     1
100
AcDbLine
 10
1683.679999913523
 20
2192.810633066493
 30
0.0
 11
1683.679999913523
 21
2217.046717046493
 31
0.0
  0
ARC
  5
7C9
330
1F
100
AcDbEntity
  8
BILD
  6
AUSGEZOGEN
 62
     1
100
AcDbCircle
 10
2103.679633703524
 20
2217.046472906492
 30
0.0
 40
4.000000479999999
100
AcDbArc
 50
0.0
 51
90.00000762997665
  0
LINE
  5
7CA
330
1F
100
AcDbEntity
  8
BILD
  6
AUSGEZOGEN
 62
     1
100
AcDbLine
 10
2107.679877843523
 20
2192.810633066493
 30
0.0
 11
2107.679877843523
 21
2217.046717046493
 31
0.0
  0
LINE
  5
7CB
330
1F
100
AcDbEntity
  8
BILD
  6
AUSGEZOGEN
 62
     1
100
AcDbLine
 10
1696.179938873524
 20
1997.046472906492
 30
0.0
 11
1696.179938873524
 21
2132.046594976492
 31
0.0
  0
LINE
  5
7CC
330
1F
100
AcDbEntity
  8
BILD
  6
AUSGEZOGEN
 62
     1
100
AcDbLine
 10
1690.849738683523
 20
2132.814295176492
 30
0.0
 11
1691.849799713525
 21
2134.546228766494
 31
0.0
  0
ARC
  5
7CD
330
1F
100
AcDbEntity
  8
BILD
  6
PUNKT
 62
     1
100
AcDbCircle
 10
1692.179999913523
 20
2129.736902596492
 30
0.0
 40
2.000000239999999
100
AcDbArc
 50
0.0
 51
60.0004501298948
  0
LINE
  5
7CE
330
1F
100
AcDbEntity
  8
BILD
  6
PUNKT
 62
     1
100
AcDbLine
 10
1694.179816803525
 20
1999.356043216493
 30
0.0
 11
1694.179816803525
 21
2129.737146736493
 31
0.0
  0
LINE
  5
7CF
330
1F
100
AcDbEntity
  8
BILD
  6
PUNKT
 62
     1
100
AcDbLine
 10
1693.180060943524
 20
2131.469080326492
 30
0.0
 11
1690.850043853524
 21
2132.814539316493
 31
0.0
  0
ARC
  5
7D0
330
1F
100
AcDbEntity
  8
BILD
  6
AUSGEZOGEN
 62
     1
100
AcDbCircle
 10
1692.179999913523
 20
2129.736902596492
 30
0.0
 40
4.000000479999999
100
AcDbArc
 50
0.0
 51
59.9999580401108
  0
LINE
  5
7D1
330
1F
100
AcDbEntity
  8
BILD
  6
AUSGEZOGEN
 62
     1
100
AcDbLine
 10
1694.179816803525
 20
2133.201258066492
 30
0.0
 11
1691.849799713525
 21
2134.546717046493
 31
0.0
  0
LINE
  5
7D2
330
1F
100
AcDbEntity
  8
BILD
  6
AUSGEZOGEN
 62
     1
100
AcDbLine
 10
1690.849738683523
 20
1996.278650636493
 30
0.0
 11
1691.849799713525
 21
1994.546594976492
 31
0.0
  0
ARC
  5
7D3
330
1F
100
AcDbEntity
  8
BILD
  6
PUNKT
 62
     1
100
AcDbCircle
 10
1692.179999913523
 20
1999.356043216493
 30
0.0
 40
2.000000239999999
100
AcDbArc
 50
299.9995422398935
 51
0.0
  0
LINE
  5
7D4
330
1F
100
AcDbEntity
  8
BILD
  6
PUNKT
 62
     1
100
AcDbLine
 10
1693.180060943524
 20
1997.623865486493
 30
0.0
 11
1690.850043853524
 21
1996.278528566493
 31
0.0
  0
ARC
  5
7D5
330
1F
100
AcDbEntity
  8
BILD
  6
AUSGEZOGEN
 62
     1
100
AcDbCircle
 10
1692.179999913523
 20
1999.356043216493
 30
0.0
 40
4.000000479999999
100
AcDbArc
 50
300.0000305200441
 51
0.0
  0
LINE
  5
7D6
330
1F
100
AcDbEntity
  8
BILD
  6
AUSGEZOGEN
 62
     1
100
AcDbLine
 10
1694.179816803525
 20
1995.891687746492
 30
0.0
 11
1691.849799713525
 21
1994.546350836493
 31
0.0
  0
LINE
  5
7D7
330
1F
100
AcDbEntity
  8
BILD
  6
AUSGEZOGEN
 62
     1
100
AcDbLine
 10
1690.849738683523
 20
1996.278650636493
 30
0.0
 11
1690.849738683523
 21
2132.814783456493
 31
0.0
  0
LINE
  5
7D8
330
1F
100
AcDbEntity
  8
BILD
  6
AUSGEZOGEN
 62
     1
100
AcDbLine
 10
1696.179938873524
 20
2132.046472906492
 30
0.0
 11
1702.179999913523
 21
2132.046472906492
 31
0.0
  0
LINE
  5
7D9
330
1F
100
AcDbEntity
  8
BILD
  6
AUSGEZOGEN
 62
     1
100
AcDbLine
 10
1696.179938873524
 20
1997.046472906492
 30
0.0
 11
1702.179999913523
 21
1997.046472906492
 31
0.0
  0
LINE
  5
7DA
330
1F
100
AcDbEntity
  8
BILD
  6
MITTE
 62
     1
100
AcDbLine
 10
1868.179755773524
 20
2046.307947516493
 30
0.0
 11
1868.179755773524
 21
2082.993494386493
 31
0.0
  0
LINE
  5
7DB
330
1F
100
AcDbEntity
  8
BILD
  6
MITTE
 62
     1
100
AcDbLine
 10
1723.179755773523
 20
2046.625330326492
 30
0.0
 11
1723.179755773523
 21
2083.604334236493
 31
0.0
  0
ARC
  5
7DC
330
1F
100
AcDbEntity
  8
BILD
  6
PUNKT
 62
     1
100
AcDbCircle
 10
1795.679755773523
 20
2064.546472906493
 30
0.0
 40
70.00000763
100
AcDbArc
 50
223.6028289800001
 51
316.397155759984
  0
ARC
  5
7DD
330
1F
100
AcDbEntity
  8
BILD
  6
PUNKT
 62
     1
100
AcDbCircle
 10
1795.679755773523
 20
2064.546472906493
 30
0.0
 40
70.00000763
100
AcDbArc
 50
43.6028251599959
 51
136.3971862800206
  0
ARC
  5
7DE
330
1F
100
AcDbEntity
  8
BILD
  6
PUNKT
 62
     1
100
AcDbCircle
 10
1723.179755773523
 20
2064.546472906493
 30
0.0
 40
17.50003242
100
AcDbArc
 50
136.3971710199999
 51
223.6029205299902
  0
LINE
  5
7DF
330
1F
100
AcDbEntity
  8
BILD
  6
PUNKT
 62
     1
100
AcDbLine
 10
1744.990058503526
 20
2016.270105716493
 30
0.0
 11
1710.507026273525
 21
2052.476892826492
 31
0.0
  0
LINE
  5
7E0
330
1F
100
AcDbEntity
  8
BILD
  6
PUNKT
 62
     1
100
AcDbLine
 10
1744.990058503526
 20
2112.822840096493
 30
0.0
 11
1710.507026273525
 21
2076.615808846493
 31
0.0
  0
ARC
  5
7E1
330
1F
100
AcDbEntity
  8
BILD
  6
PUNKT
 62
     1
100
AcDbCircle
 10
1868.179755773524
 20
2064.546472906493
 30
0.0
 40
17.50003242
100
AcDbArc
 50
316.3970947300343
 51
43.602844240016
  0
LINE
  5
7E2
330
1F
100
AcDbEntity
  8
BILD
  6
PUNKT
 62
     1
100
AcDbLine
 10
1846.369086823525
 20
2016.270105716493
 30
0.0
 11
1880.851874913522
 21
2052.477136966493
 31
0.0
  0
LINE
  5
7E3
330
1F
100
AcDbEntity
  8
BILD
  6
PUNKT
 62
     1
100
AcDbLine
 10
1846.369086823525
 20
2112.822840096493
 30
0.0
 11
1880.851874913522
 21
2076.616052986493
 31
0.0
  0
LINE
  5
7E4
330
1F
100
AcDbEntity
  8
BILD
  6
PUNKT
 62
     1
100
AcDbLine
 10
1740.679755773523
 20
1379.034998296492
 30
0.0
 11
1850.679755773523
 21
1379.034998296492
 31
0.0
  0
LINE
  5
7E5
330
1F
100
AcDbEntity
  8
BILD
  6
PUNKT
 62
     1
100
AcDbLine
 10
1850.679755773523
 20
1379.034998296492
 30
0.0
 11
1850.679755773523
 21
1339.034998296492
 31
0.0
  0
LINE
  5
7E6
330
1F
100
AcDbEntity
  8
BILD
  6
PUNKT
 62
     1
100
AcDbLine
 10
1740.679755773523
 20
1379.034998296492
 30
0.0
 11
1740.679755773523
 21
1339.034998296492
 31
0.0
  0
LINE
  5
7E7
330
1F
100
AcDbEntity
  8
BILD
  6
MITTE
 62
     1
100
AcDbLine
 10
1795.679755773523
 20
1389.142420176492
 30
0.0
 11
1795.679755773523
 21
1333.505457276493
 31
0.0
  0
LINE
  5
7E8
330
1F
100
AcDbEntity
  8
BILD
  6
PUNKT
 62
     1
100
AcDbLine
 10
1662.179999913522
 20
1136.034448976493
 30
0.0
 11
1662.179999913522
 21
1246.034448976493
 31
0.0
  0
LINE
  5
7E9
330
1F
100
AcDbEntity
  8
BILD
  6
PUNKT
 62
     1
100
AcDbLine
 10
1662.179999913522
 20
1246.034448976493
 30
0.0
 11
1702.179999913523
 21
1246.034448976493
 31
0.0
  0
LINE
  5
7EA
330
1F
100
AcDbEntity
  8
BILD
  6
PUNKT
 62
     1
100
AcDbLine
 10
1662.179999913522
 20
1136.034448976493
 30
0.0
 11
1702.179999913523
 21
1136.034448976493
 31
0.0
  0
LINE
  5
7EB
330
1F
100
AcDbEntity
  8
BILD
  6
MITTE
 62
     1
100
AcDbLine
 10
1652.072883213525
 20
1191.034448976493
 30
0.0
 11
1707.709785063523
 21
1191.034448976493
 31
0.0
  0
LINE
  5
7EC
330
1F
100
AcDbEntity
  8
BILD
  6
AUSGEZOGEN
 62
     1
100
AcDbLine
 10
1929.621406163523
 20
2552.177088136493
 30
0.0
 11
1986.621528233522
 21
2552.177088136493
 31
0.0
  0
LINE
  5
7ED
330
1F
100
AcDbEntity
  8
BILD
  6
AUSGEZOGEN
 62
     1
100
AcDbLine
 10
1986.621528233522
 20
2552.177088136493
 30
0.0
 11
1986.621528233522
 21
2482.177088136493
 31
0.0
  0
LINE
  5
7EE
330
1F
100
AcDbEntity
  8
BILD
  6
AUSGEZOGEN
 62
     1
100
AcDbLine
 10
1986.621528233522
 20
2482.177088136493
 30
0.0
 11
1929.621406163523
 21
2482.177088136493
 31
0.0
  0
LINE
  5
7EF
330
1F
100
AcDbEntity
  8
BILD
  6
AUSGEZOGEN
 62
     1
100
AcDbLine
 10
1929.621406163523
 20
2482.177088136493
 30
0.0
 11
1929.621406163523
 21
2552.177088136493
 31
0.0
  0
LINE
  5
7F0
330
1F
100
AcDbEntity
  8
BILD
  6
AUSGEZOGEN
 62
     1
100
AcDbLine
 10
1934.121528233522
 20
2547.177088136493
 30
0.0
 11
1982.121406163523
 21
2547.177088136493
 31
0.0
  0
LINE
  5
7F1
330
1F
100
AcDbEntity
  8
BILD
  6
AUSGEZOGEN
 62
     1
100
AcDbLine
 10
1982.121406163523
 20
2547.177088136493
 30
0.0
 11
1982.121406163523
 21
2487.177088136493
 31
0.0
  0
LINE
  5
7F2
330
1F
100
AcDbEntity
  8
BILD
  6
AUSGEZOGEN
 62
     1
100
AcDbLine
 10
1982.121406163523
 20
2487.177088136493
 30
0.0
 11
1934.121528233522
 21
2487.177088136493
 31
0.0
  0
LINE
  5
7F3
330
1F
100
AcDbEntity
  8
BILD
  6
AUSGEZOGEN
 62
     1
100
AcDbLine
 10
1934.121528233522
 20
2487.177088136493
 30
0.0
 11
1934.121528233522
 21
2547.177088136493
 31
0.0
  0
LINE
  5
7F4
330
1F
100
AcDbEntity
  8
BILD
  6
AUSGEZOGEN
 62
     1
100
AcDbLine
 10
1950.621528233522
 20
2524.237635016493
 30
0.0
 11
1965.621528233522
 21
2524.237635016493
 31
0.0
  0
LINE
  5
7F5
330
1F
100
AcDbEntity
  8
BILD
  6
AUSGEZOGEN
 62
     1
100
AcDbLine
 10
1965.621528233522
 20
2524.237635016493
 30
0.0
 11
1965.621528233522
 21
2504.237635016493
 31
0.0
  0
LINE
  5
7F6
330
1F
100
AcDbEntity
  8
BILD
  6
AUSGEZOGEN
 62
     1
100
AcDbLine
 10
1965.621528233522
 20
2504.237635016493
 30
0.0
 11
1950.621528233522
 21
2504.237635016493
 31
0.0
  0
LINE
  5
7F7
330
1F
100
AcDbEntity
  8
BILD
  6
AUSGEZOGEN
 62
     1
100
AcDbLine
 10
1950.621528233522
 20
2504.237635016493
 30
0.0
 11
1950.621528233522
 21
2524.237635016493
 31
0.0
  0
LINE
  5
7F8
330
1F
100
AcDbEntity
  8
BILD
  6
AUSGEZOGEN
 62
     1
100
AcDbLine
 10
1963.121528233522
 20
2506.737635016493
 30
0.0
 11
1953.121528233522
 21
2506.737635016493
 31
0.0
  0
LINE
  5
7F9
330
1F
100
AcDbEntity
  8
BILD
  6
AUSGEZOGEN
 62
     1
100
AcDbLine
 10
1953.121528233522
 20
2521.737635016493
 30
0.0
 11
1963.121528233522
 21
2521.737635016493
 31
0.0
  0
LINE
  5
7FA
330
1F
100
AcDbEntity
  8
BILD
  6
PUNKT
 62
     1
100
AcDbLine
 10
2120.680366123525
 20
1219.834497806492
 30
0.0
 11
2120.680366123525
 21
1262.234400156492
 31
0.0
  0
LINE
  5
7FB
330
1F
100
AcDbEntity
  8
BILD
  6
PUNKT
 62
     1
100
AcDbLine
 10
2120.680366123525
 20
1261.234644296493
 30
0.0
 11
2142.680488193525
 21
1261.234644296493
 31
0.0
  0
LINE
  5
7FC
330
1F
100
AcDbEntity
  8
BILD
  6
PUNKT
 62
     1
100
AcDbLine
 10
2120.680366123525
 20
1220.834253666492
 30
0.0
 11
2142.680488193525
 21
1220.834253666492
 31
0.0
  0
LINE
  5
7FD
330
1F
100
AcDbEntity
  8
BILD
  6
PUNKT
 62
     1
100
AcDbLine
 10
2142.679877843523
 20
1219.834497806492
 30
0.0
 11
2142.679877843523
 21
1262.234400156492
 31
0.0
  0
LINE
  5
7FE
330
1F
100
AcDbEntity
  8
BILD
  6
PUNKT
 62
     1
100
AcDbLine
 10
2089.180121983523
 20
1262.234400156492
 30
0.0
 11
2142.680244053522
 21
1262.234400156492
 31
0.0
  0
LINE
  5
7FF
330
1F
100
AcDbEntity
  8
BILD
  6
PUNKT
 62
     1
100
AcDbLine
 10
2089.180121983523
 20
1219.834497806492
 30
0.0
 11
2142.680244053522
 21
1219.834497806492
 31
0.0
  0
LINE
  5
800
330
1F
100
AcDbEntity
  8
BILD
  6
AUSGEZOGEN
 62
     1
100
AcDbLine
 10
2082.679877843523
 20
2114.746668216493
 30
0.0
 11
2142.679877843523
 21
2114.746668216493
 31
0.0
  0
LINE
  5
801
330
1F
100
AcDbEntity
  8
BILD
  6
AUSGEZOGEN
 62
     1
100
AcDbLine
 10
2082.679877843523
 20
2113.746912356492
 30
0.0
 11
2084.679999913523
 21
2113.746912356492
 31
0.0
  0
LINE
  5
802
330
1F
100
AcDbEntity
  8
BILD
  6
AUSGEZOGEN
 62
     1
100
AcDbLine
 10
2084.679999913523
 20
2072.346765876492
 30
0.0
 11
2084.679999913523
 21
2114.746668216493
 31
0.0
  0
LINE
  5
803
330
1F
100
AcDbEntity
  8
BILD
  6
AUSGEZOGEN
 62
     1
100
AcDbLine
 10
2120.679755773524
 20
2072.346765876492
 30
0.0
 11
2120.679755773524
 21
2114.746668216493
 31
0.0
  0
LINE
  5
804
330
1F
100
AcDbEntity
  8
BILD
  6
AUSGEZOGEN
 62
     1
100
AcDbLine
 10
2120.679755773524
 20
2113.746912356492
 30
0.0
 11
2142.679877843523
 21
2113.746912356492
 31
0.0
  0
LINE
  5
805
330
1F
100
AcDbEntity
  8
BILD
  6
AUSGEZOGEN
 62
     1
100
AcDbLine
 10
2142.679877843523
 20
2072.346765876492
 30
0.0
 11
2142.679877843523
 21
2114.746668216493
 31
0.0
  0
LINE
  5
806
330
1F
100
AcDbEntity
  8
BILD
  6
AUSGEZOGEN
 62
     1
100
AcDbLine
 10
2120.679755773524
 20
2073.346521736493
 30
0.0
 11
2142.679877843523
 21
2073.346521736493
 31
0.0
  0
LINE
  5
807
330
1F
100
AcDbEntity
  8
BILD
  6
AUSGEZOGEN
 62
     1
100
AcDbLine
 10
2082.679877843523
 20
2072.346765876492
 30
0.0
 11
2142.679877843523
 21
2072.346765876492
 31
0.0
  0
LINE
  5
808
330
1F
100
AcDbEntity
  8
BILD
  6
AUSGEZOGEN
 62
     1
100
AcDbLine
 10
2082.679877843523
 20
2073.346521736493
 30
0.0
 11
2084.679999913523
 21
2073.346521736493
 31
0.0
  0
LINE
  5
809
330
1F
100
AcDbEntity
  8
BILD
  6
AUSGEZOGEN
 62
     1
100
AcDbLine
 10
1993.179755773524
 20
2028.546717046493
 30
0.0
 11
1993.179755773524
 21
2033.546717046493
 31
0.0
  0
LINE
  5
80A
330
1F
100
AcDbEntity
  8
BILD
  6
AUSGEZOGEN
 62
     1
100
AcDbLine
 10
2042.179999913523
 20
2028.546717046493
 30
0.0
 11
2042.179999913523
 21
2033.546717046493
 31
0.0
  0
LINE
  5
80B
330
1F
100
AcDbEntity
  8
BILD
  6
AUSGEZOGEN
 62
     1
100
AcDbLine
 10
2042.179999913523
 20
2043.546717046493
 30
0.0
 11
2042.179999913523
 21
2057.046717046493
 31
0.0
  0
LINE
  5
80C
330
1F
100
AcDbEntity
  8
BILD
  6
AUSGEZOGEN
 62
     1
100
AcDbLine
 10
1993.179755773524
 20
2043.546717046493
 30
0.0
 11
1993.179755773524
 21
2057.046717046493
 31
0.0
  0
LINE
  5
80D
330
1F
100
AcDbEntity
  8
BILD
  6
AUSGEZOGEN
 62
     1
100
AcDbLine
 10
2067.679877843523
 20
2118.046228766493
 30
0.0
 11
2054.179755773524
 21
2118.046228766493
 31
0.0
  0
LINE
  5
80E
330
1F
100
AcDbEntity
  8
BILD
  6
AUSGEZOGEN
 62
     1
100
AcDbLine
 10
2067.679877843523
 20
2069.047205326492
 30
0.0
 11
2054.179755773524
 21
2069.047205326492
 31
0.0
  0
LINE
  5
80F
330
1F
100
AcDbEntity
  8
BILD
  6
AUSGEZOGEN
 62
     1
100
AcDbLine
 10
2082.679877843523
 20
2069.047205326492
 30
0.0
 11
2077.679877843523
 21
2069.047205326492
 31
0.0
  0
ARC
  5
810
330
1F
100
AcDbEntity
  8
BILD
  6
AUSGEZOGEN
 62
     1
100
AcDbCircle
 10
2054.180121983522
 20
2057.046472906492
 30
0.0
 40
61.0
100
AcDbArc
 50
90.00000762997665
 51
180.0
  0
ARC
  5
811
330
1F
100
AcDbEntity
  8
BILD
  6
AUSGEZOGEN
 62
     1
100
AcDbCircle
 10
2054.180121983522
 20
2057.046472906492
 30
0.0
 40
12.0
100
AcDbArc
 50
90.00000762997665
 51
180.0
  0
LINE
  5
812
330
1F
100
AcDbEntity
  8
BILD
  6
AUSGEZOGEN
 62
     1
100
AcDbLine
 10
2082.679877843523
 20
2118.046228766493
 30
0.0
 11
2077.679877843523
 21
2118.046228766493
 31
0.0
  0
LINE
  5
813
330
1F
100
AcDbEntity
  8
BILD
  6
AUSGEZOGEN
 62
     1
100
AcDbLine
 10
2082.679877843523
 20
2118.046228766493
 30
0.0
 11
2082.679877843523
 21
2069.046228766493
 31
0.0
  0
LINE
  5
814
330
1F
100
AcDbEntity
  8
BILD
  6
AUSGEZOGEN
 62
     1
100
AcDbLine
 10
2042.179999913523
 20
2028.546717046493
 30
0.0
 11
1993.179999913523
 21
2028.546717046493
 31
0.0
  0
LINE
  5
815
330
1F
100
AcDbEntity
  8
BILD
  6
AUSGEZOGEN
 62
     1
100
AcDbLine
 10
2041.730170803524
 20
2019.587976816493
 30
0.0
 11
1993.730292883524
 21
2019.587976816493
 31
0.0
  0
LINE
  5
816
330
1F
100
AcDbEntity
  8
BILD
  6
AUSGEZOGEN
 62
     1
100
AcDbLine
 10
1993.730292883524
 20
2019.587976816493
 30
0.0
 11
1993.730292883524
 21
1999.587976816492
 31
0.0
  0
LINE
  5
817
330
1F
100
AcDbEntity
  8
BILD
  6
AUSGEZOGEN
 62
     1
100
AcDbLine
 10
2000.873847563523
 20
2018.163416266493
 30
0.0
 11
2000.873847563523
 21
2001.171839116493
 31
0.0
  0
LINE
  5
818
330
1F
100
AcDbEntity
  8
BILD
  6
AUSGEZOGEN
 62
     1
100
AcDbLine
 10
2004.874091703522
 20
2018.018152596493
 30
0.0
 11
2004.874091703522
 21
2001.199182866493
 31
0.0
  0
LINE
  5
819
330
1F
100
AcDbEntity
  8
BILD
  6
AUSGEZOGEN
 62
     1
100
AcDbLine
 10
2014.730048733524
 20
2017.736170176492
 30
0.0
 11
2014.730048733524
 21
2001.096643806492
 31
0.0
  0
LINE
  5
81A
330
1F
100
AcDbEntity
  8
BILD
  6
AUSGEZOGEN
 62
     1
100
AcDbLine
 10
2020.730414953524
 20
2017.783777596493
 30
0.0
 11
2020.730414953524
 21
2001.323694586493
 31
0.0
  0
LINE
  5
81B
330
1F
100
AcDbEntity
  8
BILD
  6
AUSGEZOGEN
 62
     1
100
AcDbLine
 10
2034.586616123525
 20
2017.715418216493
 30
0.0
 11
2034.586616123525
 21
2001.248377206493
 31
0.0
  0
LINE
  5
81C
330
1F
100
AcDbEntity
  8
BILD
  6
AUSGEZOGEN
 62
     1
100
AcDbLine
 10
2030.586982333524
 20
2017.859461186493
 30
0.0
 11
2030.586982333524
 21
2001.219934816493
 31
0.0
  0
LINE
  5
81D
330
1F
100
AcDbEntity
  8
BILD
  6
AUSGEZOGEN
 62
     1
100
AcDbLine
 10
2041.730170803524
 20
2019.587976816493
 30
0.0
 11
2041.730170803524
 21
1999.587976816492
 31
0.0
  0
LINE
  5
81E
330
1F
100
AcDbEntity
  8
BILD
  6
AUSGEZOGEN
 62
     1
100
AcDbLine
 10
1968.112617093525
 20
2074.861414316492
 30
0.0
 11
1948.380561433522
 21
2077.249597906492
 31
0.0
  0
LINE
  5
81F
330
1F
100
AcDbEntity
  8
BILD
  6
AUSGEZOGEN
 62
     1
100
AcDbLine
 10
1969.130073153524
 20
2083.300135016493
 30
0.0
 11
1949.925117093525
 21
2085.608240486493
 31
0.0
  0
ARC
  5
820
330
1F
100
AcDbEntity
  8
BILD
  6
AUSGEZOGEN
 62
     1
100
AcDbCircle
 10
1968.623115143525
 20
2079.080164316492
 30
0.0
 40
4.24995565
100
AcDbArc
 50
259.5295410200212
 51
83.14727783002807
  0
ARC
  5
821
330
1F
100
AcDbEntity
  8
BILD
  6
AUSGEZOGEN
 62
     1
100
AcDbCircle
 10
1944.746162023523
 20
2057.582361576492
 30
0.0
 40
28.50010872
100
AcDbArc
 50
79.53009033003434
 51
180.0
  0
ARC
  5
822
330
1F
100
AcDbEntity
  8
BILD
  6
AUSGEZOGEN
 62
     1
100
AcDbCircle
 10
1944.746162023523
 20
2057.582361576492
 30
0.0
 40
20.00010681
100
AcDbArc
 50
79.53009033003434
 51
180.0000152600054
  0
LINE
  5
823
330
1F
100
AcDbEntity
  8
BILD
  6
AUSGEZOGEN
 62
     1
100
AcDbLine
 10
1943.621406163523
 20
2368.077967046493
 30
0.0
 11
1972.621406163523
 21
2368.077967046493
 31
0.0
  0
LINE
  5
824
330
1F
100
AcDbEntity
  8
BILD
  6
AUSGEZOGEN
 62
     1
100
AcDbLine
 10
1972.621406163523
 20
2368.077967046493
 30
0.0
 11
1972.621406163523
 21
2333.077967046493
 31
0.0
  0
LINE
  5
825
330
1F
100
AcDbEntity
  8
BILD
  6
AUSGEZOGEN
 62
     1
100
AcDbLine
 10
1972.621406163523
 20
2333.077967046493
 30
0.0
 11
1943.621406163523
 21
2333.077967046493
 31
0.0
  0
LINE
  5
826
330
1F
100
AcDbEntity
  8
BILD
  6
AUSGEZOGEN
 62
     1
100
AcDbLine
 10
1943.621406163523
 20
2333.077967046493
 30
0.0
 11
1943.621406163523
 21
2368.077967046493
 31
0.0
  0
LINE
  5
827
330
1F
100
AcDbEntity
  8
BILD
  6
AUSGEZOGEN
 62
     1
100
AcDbLine
 10
1946.121406163523
 20
2368.077967046493
 30
0.0
 11
1946.121406163523
 21
2355.930750246493
 31
0.0
  0
LINE
  5
828
330
1F
100
AcDbEntity
  8
BILD
  6
AUSGEZOGEN
 62
     1
100
AcDbLine
 10
1949.121284093523
 20
2368.077967046493
 30
0.0
 11
1949.121284093523
 21
2355.930750246493
 31
0.0
  0
LINE
  5
829
330
1F
100
AcDbEntity
  8
BILD
  6
AUSGEZOGEN
 62
     1
100
AcDbLine
 10
1952.121528233522
 20
2368.077967046493
 30
0.0
 11
1952.121528233522
 21
2355.930750246493
 31
0.0
  0
LINE
  5
82A
330
1F
100
AcDbEntity
  8
BILD
  6
AUSGEZOGEN
 62
     1
100
AcDbLine
 10
1955.121406163523
 20
2368.077967046493
 30
0.0
 11
1955.121406163523
 21
2355.930750246493
 31
0.0
  0
LINE
  5
82B
330
1F
100
AcDbEntity
  8
BILD
  6
AUSGEZOGEN
 62
     1
100
AcDbLine
 10
1958.121528233522
 20
2368.077967046493
 30
0.0
 11
1958.121528233522
 21
2355.930750246493
 31
0.0
  0
LINE
  5
82C
330
1F
100
AcDbEntity
  8
BILD
  6
AUSGEZOGEN
 62
     1
100
AcDbLine
 10
1961.121406163522
 20
2368.077967046493
 30
0.0
 11
1961.121406163522
 21
2355.930750246493
 31
0.0
  0
LINE
  5
82D
330
1F
100
AcDbEntity
  8
BILD
  6
AUSGEZOGEN
 62
     1
100
AcDbLine
 10
1964.121284093523
 20
2368.077967046493
 30
0.0
 11
1964.121284093523
 21
2355.930750246493
 31
0.0
  0
LINE
  5
82E
330
1F
100
AcDbEntity
  8
BILD
  6
AUSGEZOGEN
 62
     1
100
AcDbLine
 10
1967.121528233522
 20
2368.077967046493
 30
0.0
 11
1967.121528233522
 21
2355.930750246493
 31
0.0
  0
LINE
  5
82F
330
1F
100
AcDbEntity
  8
BILD
  6
AUSGEZOGEN
 62
     1
100
AcDbLine
 10
1970.121406163523
 20
2368.077967046493
 30
0.0
 11
1970.121406163523
 21
2355.930750246493
 31
0.0
  0
LINE
  5
830
330
1F
100
AcDbEntity
  8
BILD
  6
AUSGEZOGEN
 62
     1
100
AcDbLine
 10
1943.621406163523
 20
2349.930994386493
 30
0.0
 11
1972.621406163523
 21
2349.930994386493
 31
0.0
  0
LINE
  5
831
330
1F
100
AcDbEntity
  8
BILD
  6
AUSGEZOGEN
 62
     1
100
AcDbLine
 10
1970.121406163523
 20
2333.077967046493
 30
0.0
 11
1970.121406163523
 21
2346.445886966493
 31
0.0
  0
LINE
  5
832
330
1F
100
AcDbEntity
  8
BILD
  6
AUSGEZOGEN
 62
     1
100
AcDbLine
 10
1967.121528233522
 20
2333.077967046493
 30
0.0
 11
1967.121528233522
 21
2346.445886966493
 31
0.0
  0
LINE
  5
833
330
1F
100
AcDbEntity
  8
BILD
  6
AUSGEZOGEN
 62
     1
100
AcDbLine
 10
1964.121284093523
 20
2333.077967046493
 30
0.0
 11
1964.121284093523
 21
2346.445886966493
 31
0.0
  0
LINE
  5
834
330
1F
100
AcDbEntity
  8
BILD
  6
AUSGEZOGEN
 62
     1
100
AcDbLine
 10
1961.121406163522
 20
2333.077967046493
 30
0.0
 11
1961.121406163522
 21
2346.445886966493
 31
0.0
  0
LINE
  5
835
330
1F
100
AcDbEntity
  8
BILD
  6
AUSGEZOGEN
 62
     1
100
AcDbLine
 10
1958.121528233522
 20
2333.077967046493
 30
0.0
 11
1958.121528233522
 21
2346.445886966493
 31
0.0
  0
LINE
  5
836
330
1F
100
AcDbEntity
  8
BILD
  6
AUSGEZOGEN
 62
     1
100
AcDbLine
 10
1955.121406163523
 20
2333.077967046493
 30
0.0
 11
1955.121406163523
 21
2346.445886966493
 31
0.0
  0
LINE
  5
837
330
1F
100
AcDbEntity
  8
BILD
  6
AUSGEZOGEN
 62
     1
100
AcDbLine
 10
1952.121528233522
 20
2333.077967046493
 30
0.0
 11
1952.121528233522
 21
2346.445886966493
 31
0.0
  0
LINE
  5
838
330
1F
100
AcDbEntity
  8
BILD
  6
AUSGEZOGEN
 62
     1
100
AcDbLine
 10
1949.121284093523
 20
2333.077967046493
 30
0.0
 11
1949.121284093523
 21
2346.445886966493
 31
0.0
  0
LINE
  5
839
330
1F
100
AcDbEntity
  8
BILD
  6
AUSGEZOGEN
 62
     1
100
AcDbLine
 10
1946.121406163523
 20
2333.077967046493
 30
0.0
 11
1946.121406163523
 21
2346.445886966493
 31
0.0
  0
LINE
  5
83A
330
1F
100
AcDbEntity
  8
BILD
  6
AUSGEZOGEN
 62
     1
100
AcDbLine
 10
1943.621406163523
 20
2346.444666266493
 30
0.0
 11
1972.621406163523
 21
2346.444666266493
 31
0.0
  0
LINE
  5
83B
330
1F
100
AcDbEntity
  8
BILD
  6
AUSGEZOGEN
 62
     1
100
AcDbLine
 10
1954.121528233523
 20
2293.077967046492
 30
0.0
 11
1954.121528233523
 21
2288.077967046493
 31
0.0
  0
LINE
  5
83C
330
1F
100
AcDbEntity
  8
BILD
  6
AUSGEZOGEN
 62
     1
100
AcDbLine
 10
1962.121406163523
 20
2293.077967046492
 30
0.0
 11
1962.121406163523
 21
2288.077967046493
 31
0.0
  0
LINE
  5
83D
330
1F
100
AcDbEntity
  8
BILD
  6
AUSGEZOGEN
 62
     1
100
AcDbLine
 10
1949.621406163523
 20
2288.077967046493
 30
0.0
 11
1949.621406163523
 21
2293.077967046492
 31
0.0
  0
LINE
  5
83E
330
1F
100
AcDbEntity
  8
BILD
  6
AUSGEZOGEN
 62
     1
100
AcDbLine
 10
1966.621528233522
 20
2288.077967046493
 30
0.0
 11
1949.621406163523
 21
2288.077967046493
 31
0.0
  0
LINE
  5
83F
330
1F
100
AcDbEntity
  8
BILD
  6
AUSGEZOGEN
 62
     1
100
AcDbLine
 10
1966.621528233522
 20
2293.077967046492
 30
0.0
 11
1966.621528233522
 21
2288.077967046493
 31
0.0
  0
LINE
  5
840
330
1F
100
AcDbEntity
  8
BILD
  6
AUSGEZOGEN
 62
     1
100
AcDbLine
 10
1949.621406163523
 20
2293.077967046492
 30
0.0
 11
1966.621528233522
 21
2293.077967046492
 31
0.0
  0
LINE
  5
841
330
1F
100
AcDbEntity
  8
BILD
  6
AUSGEZOGEN
 62
     1
100
AcDbLine
 10
1946.121406163523
 20
2333.077967046493
 30
0.0
 11
1946.121406163523
 21
2309.077967046492
 31
0.0
  0
LINE
  5
842
330
1F
100
AcDbEntity
  8
BILD
  6
AUSGEZOGEN
 62
     1
100
AcDbLine
 10
1970.121650303522
 20
2309.078943606492
 30
0.0
 11
1970.121650303522
 21
2333.078943606492
 31
0.0
  0
LINE
  5
843
330
1F
100
AcDbEntity
  8
BILD
  6
AUSGEZOGEN
 62
     1
100
AcDbLine
 10
1970.121650303522
 20
2309.078943606492
 30
0.0
 11
1946.121772373525
 21
2309.078943606492
 31
0.0
  0
LINE
  5
844
330
1F
100
AcDbEntity
  8
BILD
  6
AUSGEZOGEN
 62
     1
100
AcDbLine
 10
1967.621650303522
 20
2295.077478766494
 30
0.0
 11
1970.121650303522
 21
2309.077478766493
 31
0.0
  0
LINE
  5
845
330
1F
100
AcDbEntity
  8
BILD
  6
AUSGEZOGEN
 62
     1
100
AcDbLine
 10
1948.621406163523
 20
2295.077478766494
 30
0.0
 11
1946.121406163523
 21
2309.077478766493
 31
0.0
  0
LINE
  5
846
330
1F
100
AcDbEntity
  8
BILD
  6
AUSGEZOGEN
 62
     1
100
AcDbLine
 10
1967.621650303522
 20
2295.077478766494
 30
0.0
 11
1948.621772373525
 21
2295.077478766494
 31
0.0
  0
LINE
  5
847
330
1F
100
AcDbEntity
  8
BILD
  6
AUSGEZOGEN
 62
     1
100
AcDbLine
 10
1967.621650303522
 20
2411.078455326492
 30
0.0
 11
1948.621772373525
 21
2411.078455326492
 31
0.0
  0
LINE
  5
848
330
1F
100
AcDbEntity
  8
BILD
  6
AUSGEZOGEN
 62
     1
100
AcDbLine
 10
1948.621406163523
 20
2411.078455326492
 30
0.0
 11
1946.121406163523
 21
2397.078455326492
 31
0.0
  0
LINE
  5
849
330
1F
100
AcDbEntity
  8
BILD
  6
AUSGEZOGEN
 62
     1
100
AcDbLine
 10
1967.621650303522
 20
2411.078455326492
 30
0.0
 11
1970.121650303522
 21
2397.078455326492
 31
0.0
  0
LINE
  5
84A
330
1F
100
AcDbEntity
  8
BILD
  6
AUSGEZOGEN
 62
     1
100
AcDbLine
 10
1970.121650303522
 20
2397.076990486493
 30
0.0
 11
1946.121772373525
 21
2397.076990486493
 31
0.0
  0
LINE
  5
84B
330
1F
100
AcDbEntity
  8
BILD
  6
AUSGEZOGEN
 62
     1
100
AcDbLine
 10
1970.121650303522
 20
2397.076990486493
 30
0.0
 11
1970.121650303522
 21
2368.076990486493
 31
0.0
  0
LINE
  5
84C
330
1F
100
AcDbEntity
  8
BILD
  6
AUSGEZOGEN
 62
     1
100
AcDbLine
 10
1946.121406163523
 20
2368.077967046493
 30
0.0
 11
1946.121406163523
 21
2397.077967046493
 31
0.0
  0
LINE
  5
84D
330
1F
100
AcDbEntity
  8
BILD
  6
AUSGEZOGEN
 62
     1
100
AcDbLine
 10
1954.121528233523
 20
2413.077967046493
 30
0.0
 11
1954.121528233523
 21
2418.077967046493
 31
0.0
  0
LINE
  5
84E
330
1F
100
AcDbEntity
  8
BILD
  6
AUSGEZOGEN
 62
     1
100
AcDbLine
 10
1962.121406163523
 20
2413.077967046493
 30
0.0
 11
1962.121406163523
 21
2418.077967046493
 31
0.0
  0
LINE
  5
84F
330
1F
100
AcDbEntity
  8
BILD
  6
AUSGEZOGEN
 62
     1
100
AcDbLine
 10
1949.621406163523
 20
2418.077967046493
 30
0.0
 11
1949.621406163523
 21
2413.077967046493
 31
0.0
  0
LINE
  5
850
330
1F
100
AcDbEntity
  8
BILD
  6
AUSGEZOGEN
 62
     1
100
AcDbLine
 10
1966.621528233522
 20
2418.077967046493
 30
0.0
 11
1949.621406163523
 21
2418.077967046493
 31
0.0
  0
LINE
  5
851
330
1F
100
AcDbEntity
  8
BILD
  6
AUSGEZOGEN
 62
     1
100
AcDbLine
 10
1966.621528233522
 20
2413.077967046493
 30
0.0
 11
1966.621528233522
 21
2418.077967046493
 31
0.0
  0
LINE
  5
852
330
1F
100
AcDbEntity
  8
BILD
  6
AUSGEZOGEN
 62
     1
100
AcDbLine
 10
1949.621406163523
 20
2413.077967046493
 30
0.0
 11
1966.621528233522
 21
2413.077967046493
 31
0.0
  0
LINE
  5
853
330
1F
100
AcDbEntity
  8
BILD
  6
AUSGEZOGEN
 62
     1
100
AcDbLine
 10
1965.621528233522
 20
2411.078455326492
 30
0.0
 11
1965.621528233522
 21
2413.078455326492
 31
0.0
  0
LINE
  5
854
330
1F
100
AcDbEntity
  8
BILD
  6
AUSGEZOGEN
 62
     1
100
AcDbLine
 10
1950.621528233522
 20
2411.078455326492
 30
0.0
 11
1950.621528233522
 21
2413.078455326492
 31
0.0
  0
LINE
  5
855
330
1F
100
AcDbEntity
  8
BILD
  6
AUSGEZOGEN
 62
     1
100
AcDbLine
 10
1965.621528233522
 20
2293.077967046492
 30
0.0
 11
1965.621528233522
 21
2295.077967046493
 31
0.0
  0
LINE
  5
856
330
1F
100
AcDbEntity
  8
BILD
  6
AUSGEZOGEN
 62
     1
100
AcDbLine
 10
1950.621528233522
 20
2293.077967046492
 30
0.0
 11
1950.621528233522
 21
2295.077967046493
 31
0.0
  0
LINE
  5
857
330
1F
100
AcDbEntity
  8
BILD
  6
AUSGEZOGEN
 62
     1
100
AcDbLine
 10
1943.621406163523
 20
2355.929529546493
 30
0.0
 11
1972.621406163523
 21
2355.929529546493
 31
0.0
  0
LINE
  5
858
330
1F
100
AcDbEntity
  8
BILD
  6
AUSGEZOGEN
 62
     1
100
AcDbLine
 10
1953.121528233522
 20
2288.077967046493
 30
0.0
 11
1953.121528233522
 21
2226.611658456493
 31
0.0
  0
LINE
  5
859
330
1F
100
AcDbEntity
  8
BILD
  6
AUSGEZOGEN
 62
     1
100
AcDbLine
 10
1963.121528233522
 20
2288.077967046493
 30
0.0
 11
1963.121528233522
 21
2226.611658456493
 31
0.0
  0
LINE
  5
85A
330
1F
100
AcDbEntity
  8
BILD
  6
AUSGEZOGEN
 62
     1
100
AcDbLine
 10
1953.121528233522
 20
2418.077967046493
 30
0.0
 11
1953.121528233522
 21
2482.177332276493
 31
0.0
  0
LINE
  5
85B
330
1F
100
AcDbEntity
  8
BILD
  6
AUSGEZOGEN
 62
     1
100
AcDbLine
 10
1963.121528233522
 20
2418.077967046493
 30
0.0
 11
1963.121528233522
 21
2482.177332276493
 31
0.0
  0
CIRCLE
  5
85C
330
1F
100
AcDbEntity
  8
BILD
  6
AUSGEZOGEN
 62
     1
100
AcDbCircle
 10
1825.679755773523
 20
1100.034693116492
 30
0.0
 40
3.25
  0
CIRCLE
  5
85D
330
1F
100
AcDbEntity
  8
BILD
  6
AUSGEZOGEN
 62
     1
100
AcDbCircle
 10
1811.679877843523
 20
1100.034693116492
 30
0.0
 40
3.25
  0
CIRCLE
  5
85E
330
1F
100
AcDbEntity
  8
BILD
  6
AUSGEZOGEN
 62
     1
100
AcDbCircle
 10
1825.679755773523
 20
1114.034937256492
 30
0.0
 40
3.25
  0
CIRCLE
  5
85F
330
1F
100
AcDbEntity
  8
BILD
  6
AUSGEZOGEN
 62
     1
100
AcDbCircle
 10
1811.679877843523
 20
1114.034937256492
 30
0.0
 40
3.25
  0
CIRCLE
  5
860
330
1F
100
AcDbEntity
  8
BILD
  6
AUSGEZOGEN
 62
     1
100
AcDbCircle
 10
1825.679755773523
 20
1128.035181406492
 30
0.0
 40
3.25
  0
CIRCLE
  5
861
330
1F
100
AcDbEntity
  8
BILD
  6
AUSGEZOGEN
 62
     1
100
AcDbCircle
 10
1811.679877843523
 20
1128.035181406492
 30
0.0
 40
3.25
  0
CIRCLE
  5
862
330
1F
100
AcDbEntity
  8
BILD
  6
AUSGEZOGEN
 62
     1
100
AcDbCircle
 10
1825.679755773523
 20
1142.035425546493
 30
0.0
 40
3.25
  0
CIRCLE
  5
863
330
1F
100
AcDbEntity
  8
BILD
  6
AUSGEZOGEN
 62
     1
100
AcDbCircle
 10
1811.679877843523
 20
1142.035425546493
 30
0.0
 40
3.25
  0
CIRCLE
  5
864
330
1F
100
AcDbEntity
  8
BILD
  6
AUSGEZOGEN
 62
     1
100
AcDbCircle
 10
1825.679755773523
 20
1156.034448976493
 30
0.0
 40
3.25
  0
CIRCLE
  5
865
330
1F
100
AcDbEntity
  8
BILD
  6
AUSGEZOGEN
 62
     1
100
AcDbCircle
 10
1811.679877843523
 20
1156.034448976493
 30
0.0
 40
3.25
  0
CIRCLE
  5
866
330
1F
100
AcDbEntity
  8
BILD
  6
AUSGEZOGEN
 62
     1
100
AcDbCircle
 10
1825.679755773523
 20
1170.034693116492
 30
0.0
 40
3.25
  0
CIRCLE
  5
867
330
1F
100
AcDbEntity
  8
BILD
  6
AUSGEZOGEN
 62
     1
100
AcDbCircle
 10
1811.679877843523
 20
1170.034693116492
 30
0.0
 40
3.25
  0
CIRCLE
  5
868
330
1F
100
AcDbEntity
  8
BILD
  6
AUSGEZOGEN
 62
     1
100
AcDbCircle
 10
1825.679755773523
 20
1184.034937256492
 30
0.0
 40
3.25
  0
CIRCLE
  5
869
330
1F
100
AcDbEntity
  8
BILD
  6
AUSGEZOGEN
 62
     1
100
AcDbCircle
 10
1811.679877843523
 20
1184.034937256492
 30
0.0
 40
3.25
  0
CIRCLE
  5
86A
330
1F
100
AcDbEntity
  8
BILD
  6
AUSGEZOGEN
 62
     1
100
AcDbCircle
 10
1797.679938873524
 20
1100.034693116492
 30
0.0
 40
3.25
  0
CIRCLE
  5
86B
330
1F
100
AcDbEntity
  8
BILD
  6
AUSGEZOGEN
 62
     1
100
AcDbCircle
 10
1783.679999913523
 20
1100.034693116492
 30
0.0
 40
3.25
  0
CIRCLE
  5
86C
330
1F
100
AcDbEntity
  8
BILD
  6
AUSGEZOGEN
 62
     1
100
AcDbCircle
 10
1797.679938873524
 20
1114.034937256492
 30
0.0
 40
3.25
  0
CIRCLE
  5
86D
330
1F
100
AcDbEntity
  8
BILD
  6
AUSGEZOGEN
 62
     1
100
AcDbCircle
 10
1783.679999913523
 20
1114.034937256492
 30
0.0
 40
3.25
  0
CIRCLE
  5
86E
330
1F
100
AcDbEntity
  8
BILD
  6
AUSGEZOGEN
 62
     1
100
AcDbCircle
 10
1797.679938873524
 20
1128.035181406492
 30
0.0
 40
3.25
  0
CIRCLE
  5
86F
330
1F
100
AcDbEntity
  8
BILD
  6
AUSGEZOGEN
 62
     1
100
AcDbCircle
 10
1783.679999913523
 20
1128.035181406492
 30
0.0
 40
3.25
  0
CIRCLE
  5
870
330
1F
100
AcDbEntity
  8
BILD
  6
AUSGEZOGEN
 62
     1
100
AcDbCircle
 10
1797.679938873524
 20
1142.035425546493
 30
0.0
 40
3.25
  0
CIRCLE
  5
871
330
1F
100
AcDbEntity
  8
BILD
  6
AUSGEZOGEN
 62
     1
100
AcDbCircle
 10
1783.679999913523
 20
1142.035425546493
 30
0.0
 40
3.25
  0
CIRCLE
  5
872
330
1F
100
AcDbEntity
  8
BILD
  6
AUSGEZOGEN
 62
     1
100
AcDbCircle
 10
1797.679938873524
 20
1156.034448976493
 30
0.0
 40
3.25
  0
CIRCLE
  5
873
330
1F
100
AcDbEntity
  8
BILD
  6
AUSGEZOGEN
 62
     1
100
AcDbCircle
 10
1783.679999913523
 20
1156.034448976493
 30
0.0
 40
3.25
  0
CIRCLE
  5
874
330
1F
100
AcDbEntity
  8
BILD
  6
AUSGEZOGEN
 62
     1
100
AcDbCircle
 10
1797.679938873524
 20
1170.034693116492
 30
0.0
 40
3.25
  0
CIRCLE
  5
875
330
1F
100
AcDbEntity
  8
BILD
  6
AUSGEZOGEN
 62
     1
100
AcDbCircle
 10
1783.679999913523
 20
1170.034693116492
 30
0.0
 40
3.25
  0
CIRCLE
  5
876
330
1F
100
AcDbEntity
  8
BILD
  6
AUSGEZOGEN
 62
     1
100
AcDbCircle
 10
1797.679938873524
 20
1184.034937256492
 30
0.0
 40
3.25
  0
CIRCLE
  5
877
330
1F
100
AcDbEntity
  8
BILD
  6
AUSGEZOGEN
 62
     1
100
AcDbCircle
 10
1783.679999913523
 20
1184.034937256492
 30
0.0
 40
3.25
  0
CIRCLE
  5
878
330
1F
100
AcDbEntity
  8
BILD
  6
AUSGEZOGEN
 62
     1
100
AcDbCircle
 10
1769.680060943524
 20
1100.034693116492
 30
0.0
 40
3.25
  0
CIRCLE
  5
879
330
1F
100
AcDbEntity
  8
BILD
  6
AUSGEZOGEN
 62
     1
100
AcDbCircle
 10
1755.680121983522
 20
1100.034693116492
 30
0.0
 40
3.25
  0
CIRCLE
  5
87A
330
1F
100
AcDbEntity
  8
BILD
  6
AUSGEZOGEN
 62
     1
100
AcDbCircle
 10
1769.680060943524
 20
1114.034937256492
 30
0.0
 40
3.25
  0
CIRCLE
  5
87B
330
1F
100
AcDbEntity
  8
BILD
  6
AUSGEZOGEN
 62
     1
100
AcDbCircle
 10
1755.680121983522
 20
1114.034937256492
 30
0.0
 40
3.25
  0
CIRCLE
  5
87C
330
1F
100
AcDbEntity
  8
BILD
  6
AUSGEZOGEN
 62
     1
100
AcDbCircle
 10
1769.680060943524
 20
1128.035181406492
 30
0.0
 40
3.25
  0
CIRCLE
  5
87D
330
1F
100
AcDbEntity
  8
BILD
  6
AUSGEZOGEN
 62
     1
100
AcDbCircle
 10
1755.680121983522
 20
1128.035181406492
 30
0.0
 40
3.25
  0
CIRCLE
  5
87E
330
1F
100
AcDbEntity
  8
BILD
  6
AUSGEZOGEN
 62
     1
100
AcDbCircle
 10
1769.680060943524
 20
1142.035425546493
 30
0.0
 40
3.25
  0
CIRCLE
  5
87F
330
1F
100
AcDbEntity
  8
BILD
  6
AUSGEZOGEN
 62
     1
100
AcDbCircle
 10
1755.680121983522
 20
1142.035425546493
 30
0.0
 40
3.25
  0
CIRCLE
  5
880
330
1F
100
AcDbEntity
  8
BILD
  6
AUSGEZOGEN
 62
     1
100
AcDbCircle
 10
1769.680060943524
 20
1156.034448976493
 30
0.0
 40
3.25
  0
CIRCLE
  5
881
330
1F
100
AcDbEntity
  8
BILD
  6
AUSGEZOGEN
 62
     1
100
AcDbCircle
 10
1755.680121983522
 20
1156.034448976493
 30
0.0
 40
3.25
  0
CIRCLE
  5
882
330
1F
100
AcDbEntity
  8
BILD
  6
AUSGEZOGEN
 62
     1
100
AcDbCircle
 10
1769.680060943524
 20
1170.034693116492
 30
0.0
 40
3.25
  0
CIRCLE
  5
883
330
1F
100
AcDbEntity
  8
BILD
  6
AUSGEZOGEN
 62
     1
100
AcDbCircle
 10
1755.680121983522
 20
1170.034693116492
 30
0.0
 40
3.25
  0
CIRCLE
  5
884
330
1F
100
AcDbEntity
  8
BILD
  6
AUSGEZOGEN
 62
     1
100
AcDbCircle
 10
1769.680060943524
 20
1184.034937256492
 30
0.0
 40
3.25
  0
CIRCLE
  5
885
330
1F
100
AcDbEntity
  8
BILD
  6
AUSGEZOGEN
 62
     1
100
AcDbCircle
 10
1755.680121983522
 20
1184.034937256492
 30
0.0
 40
3.25
  0
CIRCLE
  5
886
330
1F
100
AcDbEntity
  8
BILD
  6
AUSGEZOGEN
 62
     1
100
AcDbCircle
 10
1741.679877843523
 20
1100.034693116492
 30
0.0
 40
3.25
  0
CIRCLE
  5
887
330
1F
100
AcDbEntity
  8
BILD
  6
AUSGEZOGEN
 62
     1
100
AcDbCircle
 10
1727.679938873524
 20
1100.034693116492
 30
0.0
 40
3.25
  0
CIRCLE
  5
888
330
1F
100
AcDbEntity
  8
BILD
  6
AUSGEZOGEN
 62
     1
100
AcDbCircle
 10
1741.679877843523
 20
1114.034937256492
 30
0.0
 40
3.25
  0
CIRCLE
  5
889
330
1F
100
AcDbEntity
  8
BILD
  6
AUSGEZOGEN
 62
     1
100
AcDbCircle
 10
1727.679938873524
 20
1114.034937256492
 30
0.0
 40
3.25
  0
CIRCLE
  5
88A
330
1F
100
AcDbEntity
  8
BILD
  6
AUSGEZOGEN
 62
     1
100
AcDbCircle
 10
1741.679877843523
 20
1128.035181406492
 30
0.0
 40
3.25
  0
CIRCLE
  5
88B
330
1F
100
AcDbEntity
  8
BILD
  6
AUSGEZOGEN
 62
     1
100
AcDbCircle
 10
1727.679938873524
 20
1128.035181406492
 30
0.0
 40
3.25
  0
CIRCLE
  5
88C
330
1F
100
AcDbEntity
  8
BILD
  6
AUSGEZOGEN
 62
     1
100
AcDbCircle
 10
1741.679877843523
 20
1142.035425546493
 30
0.0
 40
3.25
  0
CIRCLE
  5
88D
330
1F
100
AcDbEntity
  8
BILD
  6
AUSGEZOGEN
 62
     1
100
AcDbCircle
 10
1727.679938873524
 20
1142.035425546493
 30
0.0
 40
3.25
  0
CIRCLE
  5
88E
330
1F
100
AcDbEntity
  8
BILD
  6
AUSGEZOGEN
 62
     1
100
AcDbCircle
 10
1741.679877843523
 20
1156.034448976493
 30
0.0
 40
3.25
  0
CIRCLE
  5
88F
330
1F
100
AcDbEntity
  8
BILD
  6
AUSGEZOGEN
 62
     1
100
AcDbCircle
 10
1727.679938873524
 20
1156.034448976493
 30
0.0
 40
3.25
  0
CIRCLE
  5
890
330
1F
100
AcDbEntity
  8
BILD
  6
AUSGEZOGEN
 62
     1
100
AcDbCircle
 10
1741.679877843523
 20
1170.034693116492
 30
0.0
 40
3.25
  0
CIRCLE
  5
891
330
1F
100
AcDbEntity
  8
BILD
  6
AUSGEZOGEN
 62
     1
100
AcDbCircle
 10
1727.679938873524
 20
1170.034693116492
 30
0.0
 40
3.25
  0
CIRCLE
  5
892
330
1F
100
AcDbEntity
  8
BILD
  6
AUSGEZOGEN
 62
     1
100
AcDbCircle
 10
1741.679877843523
 20
1184.034937256492
 30
0.0
 40
3.25
  0
CIRCLE
  5
893
330
1F
100
AcDbEntity
  8
BILD
  6
AUSGEZOGEN
 62
     1
100
AcDbCircle
 10
1727.679938873524
 20
1184.034937256492
 30
0.0
 40
3.25
  0
CIRCLE
  5
894
330
1F
100
AcDbEntity
  8
BILD
  6
AUSGEZOGEN
 62
     1
100
AcDbCircle
 10
1790.680121983522
 20
1331.034510016493
 30
0.0
 40
3.5
  0
CIRCLE
  5
895
330
1F
100
AcDbEntity
  8
BILD
  6
AUSGEZOGEN
 62
     1
100
AcDbCircle
 10
1790.680121983522
 20
1303.034021736493
 30
0.0
 40
3.5
  0
CIRCLE
  5
896
330
1F
100
AcDbEntity
  8
BILD
  6
AUSGEZOGEN
 62
     1
100
AcDbCircle
 10
1790.680121983522
 20
1275.034754156492
 30
0.0
 40
3.5
  0
CIRCLE
  5
897
330
1F
100
AcDbEntity
  8
BILD
  6
AUSGEZOGEN
 62
     1
100
AcDbCircle
 10
1790.680121983522
 20
1247.034204836493
 30
0.0
 40
3.5
  0
CIRCLE
  5
898
330
1F
100
AcDbEntity
  8
BILD
  6
AUSGEZOGEN
 62
     1
100
AcDbCircle
 10
1790.680121983522
 20
1219.034937256492
 30
0.0
 40
3.5
  0
CIRCLE
  5
899
330
1F
100
AcDbEntity
  8
BILD
  6
AUSGEZOGEN
 62
     1
100
AcDbCircle
 10
1790.680121983522
 20
1107.034204836493
 30
0.0
 40
3.5
  0
CIRCLE
  5
89A
330
1F
100
AcDbEntity
  8
BILD
  6
AUSGEZOGEN
 62
     1
100
AcDbCircle
 10
1790.680121983522
 20
1135.034693116492
 30
0.0
 40
3.5
  0
CIRCLE
  5
89B
330
1F
100
AcDbEntity
  8
BILD
  6
AUSGEZOGEN
 62
     1
100
AcDbCircle
 10
1790.680121983522
 20
1163.033960696492
 30
0.0
 40
3.5
  0
CIRCLE
  5
89C
330
1F
100
AcDbEntity
  8
BILD
  6
AUSGEZOGEN
 62
     1
100
AcDbCircle
 10
1748.679999913523
 20
1331.034510016493
 30
0.0
 40
3.5
  0
CIRCLE
  5
89D
330
1F
100
AcDbEntity
  8
BILD
  6
AUSGEZOGEN
 62
     1
100
AcDbCircle
 10
1748.679999913523
 20
1303.034021736493
 30
0.0
 40
3.5
  0
CIRCLE
  5
89E
330
1F
100
AcDbEntity
  8
BILD
  6
AUSGEZOGEN
 62
     1
100
AcDbCircle
 10
1748.679999913523
 20
1275.034754156492
 30
0.0
 40
3.5
  0
CIRCLE
  5
89F
330
1F
100
AcDbEntity
  8
BILD
  6
AUSGEZOGEN
 62
     1
100
AcDbCircle
 10
1748.679999913523
 20
1247.034204836493
 30
0.0
 40
3.5
  0
CIRCLE
  5
8A0
330
1F
100
AcDbEntity
  8
BILD
  6
AUSGEZOGEN
 62
     1
100
AcDbCircle
 10
1748.679999913523
 20
1219.034937256492
 30
0.0
 40
3.5
  0
CIRCLE
  5
8A1
330
1F
100
AcDbEntity
  8
BILD
  6
AUSGEZOGEN
 62
     1
100
AcDbCircle
 10
1748.679999913523
 20
1107.034204836493
 30
0.0
 40
3.5
  0
CIRCLE
  5
8A2
330
1F
100
AcDbEntity
  8
BILD
  6
AUSGEZOGEN
 62
     1
100
AcDbCircle
 10
1748.679999913523
 20
1135.034693116492
 30
0.0
 40
3.5
  0
CIRCLE
  5
8A3
330
1F
100
AcDbEntity
  8
BILD
  6
AUSGEZOGEN
 62
     1
100
AcDbCircle
 10
1748.679999913523
 20
1163.033960696492
 30
0.0
 40
3.5
  0
CIRCLE
  5
8A4
330
1F
100
AcDbEntity
  8
BILD
  6
AUSGEZOGEN
 62
     1
100
AcDbCircle
 10
1706.679877843523
 20
1331.034510016493
 30
0.0
 40
3.5
  0
CIRCLE
  5
8A5
330
1F
100
AcDbEntity
  8
BILD
  6
AUSGEZOGEN
 62
     1
100
AcDbCircle
 10
1706.679877843523
 20
1303.034021736493
 30
0.0
 40
3.5
  0
CIRCLE
  5
8A6
330
1F
100
AcDbEntity
  8
BILD
  6
AUSGEZOGEN
 62
     1
100
AcDbCircle
 10
1706.679877843523
 20
1275.034754156492
 30
0.0
 40
3.5
  0
CIRCLE
  5
8A7
330
1F
100
AcDbEntity
  8
BILD
  6
AUSGEZOGEN
 62
     1
100
AcDbCircle
 10
1706.679877843523
 20
1247.034204836493
 30
0.0
 40
3.5
  0
CIRCLE
  5
8A8
330
1F
100
AcDbEntity
  8
BILD
  6
AUSGEZOGEN
 62
     1
100
AcDbCircle
 10
1706.679877843523
 20
1219.034937256492
 30
0.0
 40
3.5
  0
CIRCLE
  5
8A9
330
1F
100
AcDbEntity
  8
BILD
  6
AUSGEZOGEN
 62
     1
100
AcDbCircle
 10
1706.679877843523
 20
1107.034204836493
 30
0.0
 40
3.5
  0
CIRCLE
  5
8AA
330
1F
100
AcDbEntity
  8
BILD
  6
AUSGEZOGEN
 62
     1
100
AcDbCircle
 10
1706.679877843523
 20
1135.034693116492
 30
0.0
 40
3.5
  0
CIRCLE
  5
8AB
330
1F
100
AcDbEntity
  8
BILD
  6
AUSGEZOGEN
 62
     1
100
AcDbCircle
 10
1706.679877843523
 20
1163.033960696492
 30
0.0
 40
3.5
  0
CIRCLE
  5
8AC
330
1F
100
AcDbEntity
  8
BILD
  6
AUSGEZOGEN
 62
     1
100
AcDbCircle
 10
1853.679999913523
 20
1100.034693116492
 30
0.0
 40
3.25
  0
CIRCLE
  5
8AD
330
1F
100
AcDbEntity
  8
BILD
  6
AUSGEZOGEN
 62
     1
100
AcDbCircle
 10
1839.680060943524
 20
1100.034693116492
 30
0.0
 40
3.25
  0
CIRCLE
  5
8AE
330
1F
100
AcDbEntity
  8
BILD
  6
AUSGEZOGEN
 62
     1
100
AcDbCircle
 10
1853.679999913523
 20
1114.034937256492
 30
0.0
 40
3.25
  0
CIRCLE
  5
8AF
330
1F
100
AcDbEntity
  8
BILD
  6
AUSGEZOGEN
 62
     1
100
AcDbCircle
 10
1839.680060943524
 20
1114.034937256492
 30
0.0
 40
3.25
  0
CIRCLE
  5
8B0
330
1F
100
AcDbEntity
  8
BILD
  6
AUSGEZOGEN
 62
     1
100
AcDbCircle
 10
1853.679999913523
 20
1128.035181406492
 30
0.0
 40
3.25
  0
CIRCLE
  5
8B1
330
1F
100
AcDbEntity
  8
BILD
  6
AUSGEZOGEN
 62
     1
100
AcDbCircle
 10
1839.680060943524
 20
1128.035181406492
 30
0.0
 40
3.25
  0
CIRCLE
  5
8B2
330
1F
100
AcDbEntity
  8
BILD
  6
AUSGEZOGEN
 62
     1
100
AcDbCircle
 10
1853.679999913523
 20
1142.035425546493
 30
0.0
 40
3.25
  0
CIRCLE
  5
8B3
330
1F
100
AcDbEntity
  8
BILD
  6
AUSGEZOGEN
 62
     1
100
AcDbCircle
 10
1839.680060943524
 20
1142.035425546493
 30
0.0
 40
3.25
  0
CIRCLE
  5
8B4
330
1F
100
AcDbEntity
  8
BILD
  6
AUSGEZOGEN
 62
     1
100
AcDbCircle
 10
1853.679999913523
 20
1156.034448976493
 30
0.0
 40
3.25
  0
CIRCLE
  5
8B5
330
1F
100
AcDbEntity
  8
BILD
  6
AUSGEZOGEN
 62
     1
100
AcDbCircle
 10
1839.680060943524
 20
1156.034448976493
 30
0.0
 40
3.25
  0
CIRCLE
  5
8B6
330
1F
100
AcDbEntity
  8
BILD
  6
AUSGEZOGEN
 62
     1
100
AcDbCircle
 10
1853.679999913523
 20
1170.034693116492
 30
0.0
 40
3.25
  0
CIRCLE
  5
8B7
330
1F
100
AcDbEntity
  8
BILD
  6
AUSGEZOGEN
 62
     1
100
AcDbCircle
 10
1839.680060943524
 20
1170.034693116492
 30
0.0
 40
3.25
  0
CIRCLE
  5
8B8
330
1F
100
AcDbEntity
  8
BILD
  6
AUSGEZOGEN
 62
     1
100
AcDbCircle
 10
1853.679999913523
 20
1184.034937256492
 30
0.0
 40
3.25
  0
CIRCLE
  5
8B9
330
1F
100
AcDbEntity
  8
BILD
  6
AUSGEZOGEN
 62
     1
100
AcDbCircle
 10
1839.680060943524
 20
1184.034937256492
 30
0.0
 40
3.25
  0
CIRCLE
  5
8BA
330
1F
100
AcDbEntity
  8
BILD
  6
AUSGEZOGEN
 62
     1
100
AcDbCircle
 10
1832.679938873524
 20
1331.034510016493
 30
0.0
 40
3.5
  0
CIRCLE
  5
8BB
330
1F
100
AcDbEntity
  8
BILD
  6
AUSGEZOGEN
 62
     1
100
AcDbCircle
 10
1832.679938873524
 20
1303.034021736493
 30
0.0
 40
3.5
  0
CIRCLE
  5
8BC
330
1F
100
AcDbEntity
  8
BILD
  6
AUSGEZOGEN
 62
     1
100
AcDbCircle
 10
1832.679938873524
 20
1275.034754156492
 30
0.0
 40
3.5
  0
CIRCLE
  5
8BD
330
1F
100
AcDbEntity
  8
BILD
  6
AUSGEZOGEN
 62
     1
100
AcDbCircle
 10
1832.679938873524
 20
1247.034204836493
 30
0.0
 40
3.5
  0
CIRCLE
  5
8BE
330
1F
100
AcDbEntity
  8
BILD
  6
AUSGEZOGEN
 62
     1
100
AcDbCircle
 10
1832.679938873524
 20
1219.034937256492
 30
0.0
 40
3.5
  0
CIRCLE
  5
8BF
330
1F
100
AcDbEntity
  8
BILD
  6
AUSGEZOGEN
 62
     1
100
AcDbCircle
 10
1832.679938873524
 20
1107.034204836493
 30
0.0
 40
3.5
  0
CIRCLE
  5
8C0
330
1F
100
AcDbEntity
  8
BILD
  6
AUSGEZOGEN
 62
     1
100
AcDbCircle
 10
1832.679938873524
 20
1135.034693116492
 30
0.0
 40
3.5
  0
CIRCLE
  5
8C1
330
1F
100
AcDbEntity
  8
BILD
  6
AUSGEZOGEN
 62
     1
100
AcDbCircle
 10
1832.679938873524
 20
1163.033960696492
 30
0.0
 40
3.5
  0
CIRCLE
  5
8C2
330
1F
100
AcDbEntity
  8
BILD
  6
AUSGEZOGEN
 62
     1
100
AcDbCircle
 10
2084.679999913523
 20
1331.034510016493
 30
0.0
 40
3.5
  0
CIRCLE
  5
8C3
330
1F
100
AcDbEntity
  8
BILD
  6
AUSGEZOGEN
 62
     1
100
AcDbCircle
 10
2084.679999913523
 20
1303.034021736493
 30
0.0
 40
3.5
  0
CIRCLE
  5
8C4
330
1F
100
AcDbEntity
  8
BILD
  6
AUSGEZOGEN
 62
     1
100
AcDbCircle
 10
2084.679999913523
 20
1275.034754156492
 30
0.0
 40
3.5
  0
CIRCLE
  5
8C5
330
1F
100
AcDbEntity
  8
BILD
  6
AUSGEZOGEN
 62
     1
100
AcDbCircle
 10
2084.679999913523
 20
1247.034204836493
 30
0.0
 40
3.5
  0
CIRCLE
  5
8C6
330
1F
100
AcDbEntity
  8
BILD
  6
AUSGEZOGEN
 62
     1
100
AcDbCircle
 10
2084.679999913523
 20
1219.034937256492
 30
0.0
 40
3.5
  0
CIRCLE
  5
8C7
330
1F
100
AcDbEntity
  8
BILD
  6
AUSGEZOGEN
 62
     1
100
AcDbCircle
 10
2084.679999913523
 20
1107.034204836493
 30
0.0
 40
3.5
  0
CIRCLE
  5
8C8
330
1F
100
AcDbEntity
  8
BILD
  6
AUSGEZOGEN
 62
     1
100
AcDbCircle
 10
2084.679999913523
 20
1135.034693116492
 30
0.0
 40
3.5
  0
CIRCLE
  5
8C9
330
1F
100
AcDbEntity
  8
BILD
  6
AUSGEZOGEN
 62
     1
100
AcDbCircle
 10
2084.679999913523
 20
1163.033960696492
 30
0.0
 40
3.5
  0
CIRCLE
  5
8CA
330
1F
100
AcDbEntity
  8
BILD
  6
AUSGEZOGEN
 62
     1
100
AcDbCircle
 10
2042.679999913523
 20
1331.034510016493
 30
0.0
 40
3.5
  0
CIRCLE
  5
8CB
330
1F
100
AcDbEntity
  8
BILD
  6
AUSGEZOGEN
 62
     1
100
AcDbCircle
 10
2042.679999913523
 20
1303.034021736493
 30
0.0
 40
3.5
  0
CIRCLE
  5
8CC
330
1F
100
AcDbEntity
  8
BILD
  6
AUSGEZOGEN
 62
     1
100
AcDbCircle
 10
2042.679999913523
 20
1275.034754156492
 30
0.0
 40
3.5
  0
CIRCLE
  5
8CD
330
1F
100
AcDbEntity
  8
BILD
  6
AUSGEZOGEN
 62
     1
100
AcDbCircle
 10
2042.679999913523
 20
1247.034204836493
 30
0.0
 40
3.5
  0
CIRCLE
  5
8CE
330
1F
100
AcDbEntity
  8
BILD
  6
AUSGEZOGEN
 62
     1
100
AcDbCircle
 10
2042.679999913523
 20
1219.034937256492
 30
0.0
 40
3.5
  0
CIRCLE
  5
8CF
330
1F
100
AcDbEntity
  8
BILD
  6
AUSGEZOGEN
 62
     1
100
AcDbCircle
 10
2042.679999913523
 20
1107.034204836493
 30
0.0
 40
3.5
  0
CIRCLE
  5
8D0
330
1F
100
AcDbEntity
  8
BILD
  6
AUSGEZOGEN
 62
     1
100
AcDbCircle
 10
2042.679999913523
 20
1135.034693116492
 30
0.0
 40
3.5
  0
CIRCLE
  5
8D1
330
1F
100
AcDbEntity
  8
BILD
  6
AUSGEZOGEN
 62
     1
100
AcDbCircle
 10
2042.679999913523
 20
1163.033960696492
 30
0.0
 40
3.5
  0
CIRCLE
  5
8D2
330
1F
100
AcDbEntity
  8
BILD
  6
AUSGEZOGEN
 62
     1
100
AcDbCircle
 10
2000.680488193525
 20
1331.034510016493
 30
0.0
 40
3.5
  0
CIRCLE
  5
8D3
330
1F
100
AcDbEntity
  8
BILD
  6
AUSGEZOGEN
 62
     1
100
AcDbCircle
 10
2000.680488193525
 20
1303.034021736493
 30
0.0
 40
3.5
  0
CIRCLE
  5
8D4
330
1F
100
AcDbEntity
  8
BILD
  6
AUSGEZOGEN
 62
     1
100
AcDbCircle
 10
2000.680488193525
 20
1275.034754156492
 30
0.0
 40
3.5
  0
CIRCLE
  5
8D5
330
1F
100
AcDbEntity
  8
BILD
  6
AUSGEZOGEN
 62
     1
100
AcDbCircle
 10
2000.680488193525
 20
1247.034204836493
 30
0.0
 40
3.5
  0
CIRCLE
  5
8D6
330
1F
100
AcDbEntity
  8
BILD
  6
AUSGEZOGEN
 62
     1
100
AcDbCircle
 10
2000.680488193525
 20
1219.034937256492
 30
0.0
 40
3.5
  0
CIRCLE
  5
8D7
330
1F
100
AcDbEntity
  8
BILD
  6
AUSGEZOGEN
 62
     1
100
AcDbCircle
 10
2000.680488193525
 20
1107.034204836493
 30
0.0
 40
3.5
  0
CIRCLE
  5
8D8
330
1F
100
AcDbEntity
  8
BILD
  6
AUSGEZOGEN
 62
     1
100
AcDbCircle
 10
2000.680488193525
 20
1135.034693116492
 30
0.0
 40
3.5
  0
CIRCLE
  5
8D9
330
1F
100
AcDbEntity
  8
BILD
  6
AUSGEZOGEN
 62
     1
100
AcDbCircle
 10
2000.680488193525
 20
1163.033960696492
 30
0.0
 40
3.5
  0
CIRCLE
  5
8DA
330
1F
100
AcDbEntity
  8
BILD
  6
AUSGEZOGEN
 62
     1
100
AcDbCircle
 10
1958.679999913522
 20
1331.034510016493
 30
0.0
 40
3.5
  0
CIRCLE
  5
8DB
330
1F
100
AcDbEntity
  8
BILD
  6
AUSGEZOGEN
 62
     1
100
AcDbCircle
 10
1958.679999913522
 20
1303.034021736493
 30
0.0
 40
3.5
  0
CIRCLE
  5
8DC
330
1F
100
AcDbEntity
  8
BILD
  6
AUSGEZOGEN
 62
     1
100
AcDbCircle
 10
1958.679999913522
 20
1275.034754156492
 30
0.0
 40
3.5
  0
CIRCLE
  5
8DD
330
1F
100
AcDbEntity
  8
BILD
  6
AUSGEZOGEN
 62
     1
100
AcDbCircle
 10
1958.679999913522
 20
1247.034204836493
 30
0.0
 40
3.5
  0
CIRCLE
  5
8DE
330
1F
100
AcDbEntity
  8
BILD
  6
AUSGEZOGEN
 62
     1
100
AcDbCircle
 10
1958.679999913522
 20
1219.034937256492
 30
0.0
 40
3.5
  0
CIRCLE
  5
8DF
330
1F
100
AcDbEntity
  8
BILD
  6
AUSGEZOGEN
 62
     1
100
AcDbCircle
 10
1958.679999913522
 20
1107.034204836493
 30
0.0
 40
3.5
  0
CIRCLE
  5
8E0
330
1F
100
AcDbEntity
  8
BILD
  6
AUSGEZOGEN
 62
     1
100
AcDbCircle
 10
1958.679999913522
 20
1135.034693116492
 30
0.0
 40
3.5
  0
CIRCLE
  5
8E1
330
1F
100
AcDbEntity
  8
BILD
  6
AUSGEZOGEN
 62
     1
100
AcDbCircle
 10
1958.679999913522
 20
1163.033960696492
 30
0.0
 40
3.5
  0
CIRCLE
  5
8E2
330
1F
100
AcDbEntity
  8
BILD
  6
AUSGEZOGEN
 62
     1
100
AcDbCircle
 10
1916.679877843523
 20
1331.034510016493
 30
0.0
 40
3.5
  0
CIRCLE
  5
8E3
330
1F
100
AcDbEntity
  8
BILD
  6
AUSGEZOGEN
 62
     1
100
AcDbCircle
 10
1916.679877843523
 20
1303.034021736493
 30
0.0
 40
3.5
  0
CIRCLE
  5
8E4
330
1F
100
AcDbEntity
  8
BILD
  6
AUSGEZOGEN
 62
     1
100
AcDbCircle
 10
1916.679877843523
 20
1275.034754156492
 30
0.0
 40
3.5
  0
CIRCLE
  5
8E5
330
1F
100
AcDbEntity
  8
BILD
  6
AUSGEZOGEN
 62
     1
100
AcDbCircle
 10
1916.679877843523
 20
1247.034204836493
 30
0.0
 40
3.5
  0
CIRCLE
  5
8E6
330
1F
100
AcDbEntity
  8
BILD
  6
AUSGEZOGEN
 62
     1
100
AcDbCircle
 10
1916.679877843523
 20
1219.034937256492
 30
0.0
 40
3.5
  0
CIRCLE
  5
8E7
330
1F
100
AcDbEntity
  8
BILD
  6
AUSGEZOGEN
 62
     1
100
AcDbCircle
 10
1916.679877843523
 20
1107.034204836493
 30
0.0
 40
3.5
  0
CIRCLE
  5
8E8
330
1F
100
AcDbEntity
  8
BILD
  6
AUSGEZOGEN
 62
     1
100
AcDbCircle
 10
1916.679877843523
 20
1135.034693116492
 30
0.0
 40
3.5
  0
CIRCLE
  5
8E9
330
1F
100
AcDbEntity
  8
BILD
  6
AUSGEZOGEN
 62
     1
100
AcDbCircle
 10
1916.679877843523
 20
1163.033960696492
 30
0.0
 40
3.5
  0
CIRCLE
  5
8EA
330
1F
100
AcDbEntity
  8
BILD
  6
AUSGEZOGEN
 62
     1
100
AcDbCircle
 10
1874.680060943524
 20
1331.034510016493
 30
0.0
 40
3.5
  0
CIRCLE
  5
8EB
330
1F
100
AcDbEntity
  8
BILD
  6
AUSGEZOGEN
 62
     1
100
AcDbCircle
 10
1874.680060943524
 20
1303.034021736493
 30
0.0
 40
3.5
  0
CIRCLE
  5
8EC
330
1F
100
AcDbEntity
  8
BILD
  6
AUSGEZOGEN
 62
     1
100
AcDbCircle
 10
1874.680060943524
 20
1275.034754156492
 30
0.0
 40
3.5
  0
CIRCLE
  5
8ED
330
1F
100
AcDbEntity
  8
BILD
  6
AUSGEZOGEN
 62
     1
100
AcDbCircle
 10
1874.680060943524
 20
1247.034204836493
 30
0.0
 40
3.5
  0
CIRCLE
  5
8EE
330
1F
100
AcDbEntity
  8
BILD
  6
AUSGEZOGEN
 62
     1
100
AcDbCircle
 10
1874.680060943524
 20
1219.034937256492
 30
0.0
 40
3.5
  0
CIRCLE
  5
8EF
330
1F
100
AcDbEntity
  8
BILD
  6
AUSGEZOGEN
 62
     1
100
AcDbCircle
 10
1874.680060943524
 20
1107.034204836493
 30
0.0
 40
3.5
  0
CIRCLE
  5
8F0
330
1F
100
AcDbEntity
  8
BILD
  6
AUSGEZOGEN
 62
     1
100
AcDbCircle
 10
1874.680060943524
 20
1135.034693116492
 30
0.0
 40
3.5
  0
CIRCLE
  5
8F1
330
1F
100
AcDbEntity
  8
BILD
  6
AUSGEZOGEN
 62
     1
100
AcDbCircle
 10
1874.680060943524
 20
1163.033960696492
 30
0.0
 40
3.5
  0
CIRCLE
  5
8F2
330
1F
100
AcDbEntity
  8
BILD
  6
AUSGEZOGEN
 62
     1
100
AcDbCircle
 10
1825.679755773523
 20
1310.033533456492
 30
0.0
 40
3.25
  0
CIRCLE
  5
8F3
330
1F
100
AcDbEntity
  8
BILD
  6
AUSGEZOGEN
 62
     1
100
AcDbCircle
 10
1811.679877843523
 20
1310.033533456492
 30
0.0
 40
3.25
  0
CIRCLE
  5
8F4
330
1F
100
AcDbEntity
  8
BILD
  6
AUSGEZOGEN
 62
     1
100
AcDbCircle
 10
1825.679755773523
 20
1296.034510016493
 30
0.0
 40
3.25
  0
CIRCLE
  5
8F5
330
1F
100
AcDbEntity
  8
BILD
  6
AUSGEZOGEN
 62
     1
100
AcDbCircle
 10
1811.679877843523
 20
1296.034510016493
 30
0.0
 40
3.25
  0
CIRCLE
  5
8F6
330
1F
100
AcDbEntity
  8
BILD
  6
AUSGEZOGEN
 62
     1
100
AcDbCircle
 10
1825.679755773523
 20
1282.034265876492
 30
0.0
 40
3.25
  0
CIRCLE
  5
8F7
330
1F
100
AcDbEntity
  8
BILD
  6
AUSGEZOGEN
 62
     1
100
AcDbCircle
 10
1811.679877843523
 20
1282.034265876492
 30
0.0
 40
3.25
  0
CIRCLE
  5
8F8
330
1F
100
AcDbEntity
  8
BILD
  6
AUSGEZOGEN
 62
     1
100
AcDbCircle
 10
1825.679755773523
 20
1268.033960696492
 30
0.0
 40
3.25
  0
CIRCLE
  5
8F9
330
1F
100
AcDbEntity
  8
BILD
  6
AUSGEZOGEN
 62
     1
100
AcDbCircle
 10
1811.679877843523
 20
1268.033960696492
 30
0.0
 40
3.25
  0
CIRCLE
  5
8FA
330
1F
100
AcDbEntity
  8
BILD
  6
AUSGEZOGEN
 62
     1
100
AcDbCircle
 10
1825.679755773523
 20
1254.033716556492
 30
0.0
 40
3.25
  0
CIRCLE
  5
8FB
330
1F
100
AcDbEntity
  8
BILD
  6
AUSGEZOGEN
 62
     1
100
AcDbCircle
 10
1811.679877843523
 20
1254.033716556492
 30
0.0
 40
3.25
  0
CIRCLE
  5
8FC
330
1F
100
AcDbEntity
  8
BILD
  6
AUSGEZOGEN
 62
     1
100
AcDbCircle
 10
1825.679755773523
 20
1240.033472416492
 30
0.0
 40
3.25
  0
CIRCLE
  5
8FD
330
1F
100
AcDbEntity
  8
BILD
  6
AUSGEZOGEN
 62
     1
100
AcDbCircle
 10
1811.679877843523
 20
1240.033472416492
 30
0.0
 40
3.25
  0
CIRCLE
  5
8FE
330
1F
100
AcDbEntity
  8
BILD
  6
AUSGEZOGEN
 62
     1
100
AcDbCircle
 10
1825.679755773523
 20
1226.034448976493
 30
0.0
 40
3.25
  0
CIRCLE
  5
8FF
330
1F
100
AcDbEntity
  8
BILD
  6
AUSGEZOGEN
 62
     1
100
AcDbCircle
 10
1811.679877843523
 20
1226.034448976493
 30
0.0
 40
3.25
  0
CIRCLE
  5
900
330
1F
100
AcDbEntity
  8
BILD
  6
AUSGEZOGEN
 62
     1
100
AcDbCircle
 10
1825.679755773523
 20
1212.034204836493
 30
0.0
 40
3.25
  0
CIRCLE
  5
901
330
1F
100
AcDbEntity
  8
BILD
  6
AUSGEZOGEN
 62
     1
100
AcDbCircle
 10
1811.679877843523
 20
1212.034204836493
 30
0.0
 40
3.25
  0
CIRCLE
  5
902
330
1F
100
AcDbEntity
  8
BILD
  6
AUSGEZOGEN
 62
     1
100
AcDbCircle
 10
1825.679755773523
 20
1198.033960696492
 30
0.0
 40
3.25
  0
CIRCLE
  5
903
330
1F
100
AcDbEntity
  8
BILD
  6
AUSGEZOGEN
 62
     1
100
AcDbCircle
 10
1811.679877843523
 20
1198.033960696492
 30
0.0
 40
3.25
  0
CIRCLE
  5
904
330
1F
100
AcDbEntity
  8
BILD
  6
AUSGEZOGEN
 62
     1
100
AcDbCircle
 10
1797.679938873524
 20
1310.033533456492
 30
0.0
 40
3.25
  0
CIRCLE
  5
905
330
1F
100
AcDbEntity
  8
BILD
  6
AUSGEZOGEN
 62
     1
100
AcDbCircle
 10
1783.679999913523
 20
1310.033533456492
 30
0.0
 40
3.25
  0
CIRCLE
  5
906
330
1F
100
AcDbEntity
  8
BILD
  6
AUSGEZOGEN
 62
     1
100
AcDbCircle
 10
1797.679938873524
 20
1296.034510016493
 30
0.0
 40
3.25
  0
CIRCLE
  5
907
330
1F
100
AcDbEntity
  8
BILD
  6
AUSGEZOGEN
 62
     1
100
AcDbCircle
 10
1783.679999913523
 20
1296.034510016493
 30
0.0
 40
3.25
  0
CIRCLE
  5
908
330
1F
100
AcDbEntity
  8
BILD
  6
AUSGEZOGEN
 62
     1
100
AcDbCircle
 10
1797.679938873524
 20
1282.034265876492
 30
0.0
 40
3.25
  0
CIRCLE
  5
909
330
1F
100
AcDbEntity
  8
BILD
  6
AUSGEZOGEN
 62
     1
100
AcDbCircle
 10
1783.679999913523
 20
1282.034265876492
 30
0.0
 40
3.25
  0
CIRCLE
  5
90A
330
1F
100
AcDbEntity
  8
BILD
  6
AUSGEZOGEN
 62
     1
100
AcDbCircle
 10
1797.679938873524
 20
1268.033960696492
 30
0.0
 40
3.25
  0
CIRCLE
  5
90B
330
1F
100
AcDbEntity
  8
BILD
  6
AUSGEZOGEN
 62
     1
100
AcDbCircle
 10
1783.679999913523
 20
1268.033960696492
 30
0.0
 40
3.25
  0
CIRCLE
  5
90C
330
1F
100
AcDbEntity
  8
BILD
  6
AUSGEZOGEN
 62
     1
100
AcDbCircle
 10
1797.679938873524
 20
1254.033716556492
 30
0.0
 40
3.25
  0
CIRCLE
  5
90D
330
1F
100
AcDbEntity
  8
BILD
  6
AUSGEZOGEN
 62
     1
100
AcDbCircle
 10
1783.679999913523
 20
1254.033716556492
 30
0.0
 40
3.25
  0
CIRCLE
  5
90E
330
1F
100
AcDbEntity
  8
BILD
  6
AUSGEZOGEN
 62
     1
100
AcDbCircle
 10
1797.679938873524
 20
1240.033472416492
 30
0.0
 40
3.25
  0
CIRCLE
  5
90F
330
1F
100
AcDbEntity
  8
BILD
  6
AUSGEZOGEN
 62
     1
100
AcDbCircle
 10
1783.679999913523
 20
1240.033472416492
 30
0.0
 40
3.25
  0
CIRCLE
  5
910
330
1F
100
AcDbEntity
  8
BILD
  6
AUSGEZOGEN
 62
     1
100
AcDbCircle
 10
1797.679938873524
 20
1226.034448976493
 30
0.0
 40
3.25
  0
CIRCLE
  5
911
330
1F
100
AcDbEntity
  8
BILD
  6
AUSGEZOGEN
 62
     1
100
AcDbCircle
 10
1783.679999913523
 20
1226.034448976493
 30
0.0
 40
3.25
  0
CIRCLE
  5
912
330
1F
100
AcDbEntity
  8
BILD
  6
AUSGEZOGEN
 62
     1
100
AcDbCircle
 10
1797.679938873524
 20
1212.034204836493
 30
0.0
 40
3.25
  0
CIRCLE
  5
913
330
1F
100
AcDbEntity
  8
BILD
  6
AUSGEZOGEN
 62
     1
100
AcDbCircle
 10
1783.679999913523
 20
1212.034204836493
 30
0.0
 40
3.25
  0
CIRCLE
  5
914
330
1F
100
AcDbEntity
  8
BILD
  6
AUSGEZOGEN
 62
     1
100
AcDbCircle
 10
1797.679938873524
 20
1198.033960696492
 30
0.0
 40
3.25
  0
CIRCLE
  5
915
330
1F
100
AcDbEntity
  8
BILD
  6
AUSGEZOGEN
 62
     1
100
AcDbCircle
 10
1783.679999913523
 20
1198.033960696492
 30
0.0
 40
3.25
  0
CIRCLE
  5
916
330
1F
100
AcDbEntity
  8
BILD
  6
AUSGEZOGEN
 62
     1
100
AcDbCircle
 10
1769.680060943524
 20
1310.033533456492
 30
0.0
 40
3.25
  0
CIRCLE
  5
917
330
1F
100
AcDbEntity
  8
BILD
  6
AUSGEZOGEN
 62
     1
100
AcDbCircle
 10
1755.680121983522
 20
1310.033533456492
 30
0.0
 40
3.25
  0
CIRCLE
  5
918
330
1F
100
AcDbEntity
  8
BILD
  6
AUSGEZOGEN
 62
     1
100
AcDbCircle
 10
1769.680060943524
 20
1296.034510016493
 30
0.0
 40
3.25
  0
CIRCLE
  5
919
330
1F
100
AcDbEntity
  8
BILD
  6
AUSGEZOGEN
 62
     1
100
AcDbCircle
 10
1755.680121983522
 20
1296.034510016493
 30
0.0
 40
3.25
  0
CIRCLE
  5
91A
330
1F
100
AcDbEntity
  8
BILD
  6
AUSGEZOGEN
 62
     1
100
AcDbCircle
 10
1769.680060943524
 20
1282.034265876492
 30
0.0
 40
3.25
  0
CIRCLE
  5
91B
330
1F
100
AcDbEntity
  8
BILD
  6
AUSGEZOGEN
 62
     1
100
AcDbCircle
 10
1755.680121983522
 20
1282.034265876492
 30
0.0
 40
3.25
  0
CIRCLE
  5
91C
330
1F
100
AcDbEntity
  8
BILD
  6
AUSGEZOGEN
 62
     1
100
AcDbCircle
 10
1769.680060943524
 20
1268.033960696492
 30
0.0
 40
3.25
  0
CIRCLE
  5
91D
330
1F
100
AcDbEntity
  8
BILD
  6
AUSGEZOGEN
 62
     1
100
AcDbCircle
 10
1755.680121983522
 20
1268.033960696492
 30
0.0
 40
3.25
  0
CIRCLE
  5
91E
330
1F
100
AcDbEntity
  8
BILD
  6
AUSGEZOGEN
 62
     1
100
AcDbCircle
 10
1769.680060943524
 20
1254.033716556492
 30
0.0
 40
3.25
  0
CIRCLE
  5
91F
330
1F
100
AcDbEntity
  8
BILD
  6
AUSGEZOGEN
 62
     1
100
AcDbCircle
 10
1755.680121983522
 20
1254.033716556492
 30
0.0
 40
3.25
  0
CIRCLE
  5
920
330
1F
100
AcDbEntity
  8
BILD
  6
AUSGEZOGEN
 62
     1
100
AcDbCircle
 10
1769.680060943524
 20
1240.033472416492
 30
0.0
 40
3.25
  0
CIRCLE
  5
921
330
1F
100
AcDbEntity
  8
BILD
  6
AUSGEZOGEN
 62
     1
100
AcDbCircle
 10
1755.680121983522
 20
1240.033472416492
 30
0.0
 40
3.25
  0
CIRCLE
  5
922
330
1F
100
AcDbEntity
  8
BILD
  6
AUSGEZOGEN
 62
     1
100
AcDbCircle
 10
1769.680060943524
 20
1226.034448976493
 30
0.0
 40
3.25
  0
CIRCLE
  5
923
330
1F
100
AcDbEntity
  8
BILD
  6
AUSGEZOGEN
 62
     1
100
AcDbCircle
 10
1755.680121983522
 20
1226.034448976493
 30
0.0
 40
3.25
  0
CIRCLE
  5
924
330
1F
100
AcDbEntity
  8
BILD
  6
AUSGEZOGEN
 62
     1
100
AcDbCircle
 10
1769.680060943524
 20
1212.034204836493
 30
0.0
 40
3.25
  0
CIRCLE
  5
925
330
1F
100
AcDbEntity
  8
BILD
  6
AUSGEZOGEN
 62
     1
100
AcDbCircle
 10
1755.680121983522
 20
1212.034204836493
 30
0.0
 40
3.25
  0
CIRCLE
  5
926
330
1F
100
AcDbEntity
  8
BILD
  6
AUSGEZOGEN
 62
     1
100
AcDbCircle
 10
1769.680060943524
 20
1198.033960696492
 30
0.0
 40
3.25
  0
CIRCLE
  5
927
330
1F
100
AcDbEntity
  8
BILD
  6
AUSGEZOGEN
 62
     1
100
AcDbCircle
 10
1755.680121983522
 20
1198.033960696492
 30
0.0
 40
3.25
  0
CIRCLE
  5
928
330
1F
100
AcDbEntity
  8
BILD
  6
AUSGEZOGEN
 62
     1
100
AcDbCircle
 10
1741.679877843523
 20
1310.033533456492
 30
0.0
 40
3.25
  0
CIRCLE
  5
929
330
1F
100
AcDbEntity
  8
BILD
  6
AUSGEZOGEN
 62
     1
100
AcDbCircle
 10
1727.679938873524
 20
1310.033533456492
 30
0.0
 40
3.25
  0
CIRCLE
  5
92A
330
1F
100
AcDbEntity
  8
BILD
  6
AUSGEZOGEN
 62
     1
100
AcDbCircle
 10
1741.679877843523
 20
1296.034510016493
 30
0.0
 40
3.25
  0
CIRCLE
  5
92B
330
1F
100
AcDbEntity
  8
BILD
  6
AUSGEZOGEN
 62
     1
100
AcDbCircle
 10
1727.679938873524
 20
1296.034510016493
 30
0.0
 40
3.25
  0
CIRCLE
  5
92C
330
1F
100
AcDbEntity
  8
BILD
  6
AUSGEZOGEN
 62
     1
100
AcDbCircle
 10
1741.679877843523
 20
1282.034265876492
 30
0.0
 40
3.25
  0
CIRCLE
  5
92D
330
1F
100
AcDbEntity
  8
BILD
  6
AUSGEZOGEN
 62
     1
100
AcDbCircle
 10
1727.679938873524
 20
1282.034265876492
 30
0.0
 40
3.25
  0
CIRCLE
  5
92E
330
1F
100
AcDbEntity
  8
BILD
  6
AUSGEZOGEN
 62
     1
100
AcDbCircle
 10
1741.679877843523
 20
1268.033960696492
 30
0.0
 40
3.25
  0
CIRCLE
  5
92F
330
1F
100
AcDbEntity
  8
BILD
  6
AUSGEZOGEN
 62
     1
100
AcDbCircle
 10
1727.679938873524
 20
1268.033960696492
 30
0.0
 40
3.25
  0
CIRCLE
  5
930
330
1F
100
AcDbEntity
  8
BILD
  6
AUSGEZOGEN
 62
     1
100
AcDbCircle
 10
1741.679877843523
 20
1254.033716556492
 30
0.0
 40
3.25
  0
CIRCLE
  5
931
330
1F
100
AcDbEntity
  8
BILD
  6
AUSGEZOGEN
 62
     1
100
AcDbCircle
 10
1727.679938873524
 20
1254.033716556492
 30
0.0
 40
3.25
  0
CIRCLE
  5
932
330
1F
100
AcDbEntity
  8
BILD
  6
AUSGEZOGEN
 62
     1
100
AcDbCircle
 10
1741.679877843523
 20
1240.033472416492
 30
0.0
 40
3.25
  0
CIRCLE
  5
933
330
1F
100
AcDbEntity
  8
BILD
  6
AUSGEZOGEN
 62
     1
100
AcDbCircle
 10
1727.679938873524
 20
1240.033472416492
 30
0.0
 40
3.25
  0
CIRCLE
  5
934
330
1F
100
AcDbEntity
  8
BILD
  6
AUSGEZOGEN
 62
     1
100
AcDbCircle
 10
1741.679877843523
 20
1226.034448976493
 30
0.0
 40
3.25
  0
CIRCLE
  5
935
330
1F
100
AcDbEntity
  8
BILD
  6
AUSGEZOGEN
 62
     1
100
AcDbCircle
 10
1727.679938873524
 20
1226.034448976493
 30
0.0
 40
3.25
  0
CIRCLE
  5
936
330
1F
100
AcDbEntity
  8
BILD
  6
AUSGEZOGEN
 62
     1
100
AcDbCircle
 10
1741.679877843523
 20
1212.034204836493
 30
0.0
 40
3.25
  0
CIRCLE
  5
937
330
1F
100
AcDbEntity
  8
BILD
  6
AUSGEZOGEN
 62
     1
100
AcDbCircle
 10
1727.679938873524
 20
1212.034204836493
 30
0.0
 40
3.25
  0
CIRCLE
  5
938
330
1F
100
AcDbEntity
  8
BILD
  6
AUSGEZOGEN
 62
     1
100
AcDbCircle
 10
1741.679877843523
 20
1198.033960696492
 30
0.0
 40
3.25
  0
CIRCLE
  5
939
330
1F
100
AcDbEntity
  8
BILD
  6
AUSGEZOGEN
 62
     1
100
AcDbCircle
 10
1727.679938873524
 20
1198.033960696492
 30
0.0
 40
3.25
  0
CIRCLE
  5
93A
330
1F
100
AcDbEntity
  8
BILD
  6
AUSGEZOGEN
 62
     1
100
AcDbCircle
 10
1853.679999913523
 20
1310.033533456492
 30
0.0
 40
3.25
  0
CIRCLE
  5
93B
330
1F
100
AcDbEntity
  8
BILD
  6
AUSGEZOGEN
 62
     1
100
AcDbCircle
 10
1839.680060943524
 20
1310.033533456492
 30
0.0
 40
3.25
  0
CIRCLE
  5
93C
330
1F
100
AcDbEntity
  8
BILD
  6
AUSGEZOGEN
 62
     1
100
AcDbCircle
 10
1853.679999913523
 20
1296.034510016493
 30
0.0
 40
3.25
  0
CIRCLE
  5
93D
330
1F
100
AcDbEntity
  8
BILD
  6
AUSGEZOGEN
 62
     1
100
AcDbCircle
 10
1839.680060943524
 20
1296.034510016493
 30
0.0
 40
3.25
  0
CIRCLE
  5
93E
330
1F
100
AcDbEntity
  8
BILD
  6
AUSGEZOGEN
 62
     1
100
AcDbCircle
 10
1853.679999913523
 20
1282.034265876492
 30
0.0
 40
3.25
  0
CIRCLE
  5
93F
330
1F
100
AcDbEntity
  8
BILD
  6
AUSGEZOGEN
 62
     1
100
AcDbCircle
 10
1839.680060943524
 20
1282.034265876492
 30
0.0
 40
3.25
  0
CIRCLE
  5
940
330
1F
100
AcDbEntity
  8
BILD
  6
AUSGEZOGEN
 62
     1
100
AcDbCircle
 10
1853.679999913523
 20
1268.033960696492
 30
0.0
 40
3.25
  0
CIRCLE
  5
941
330
1F
100
AcDbEntity
  8
BILD
  6
AUSGEZOGEN
 62
     1
100
AcDbCircle
 10
1839.680060943524
 20
1268.033960696492
 30
0.0
 40
3.25
  0
CIRCLE
  5
942
330
1F
100
AcDbEntity
  8
BILD
  6
AUSGEZOGEN
 62
     1
100
AcDbCircle
 10
1853.679999913523
 20
1254.033716556492
 30
0.0
 40
3.25
  0
CIRCLE
  5
943
330
1F
100
AcDbEntity
  8
BILD
  6
AUSGEZOGEN
 62
     1
100
AcDbCircle
 10
1839.680060943524
 20
1254.033716556492
 30
0.0
 40
3.25
  0
CIRCLE
  5
944
330
1F
100
AcDbEntity
  8
BILD
  6
AUSGEZOGEN
 62
     1
100
AcDbCircle
 10
1853.679999913523
 20
1240.033472416492
 30
0.0
 40
3.25
  0
CIRCLE
  5
945
330
1F
100
AcDbEntity
  8
BILD
  6
AUSGEZOGEN
 62
     1
100
AcDbCircle
 10
1839.680060943524
 20
1240.033472416492
 30
0.0
 40
3.25
  0
CIRCLE
  5
946
330
1F
100
AcDbEntity
  8
BILD
  6
AUSGEZOGEN
 62
     1
100
AcDbCircle
 10
1853.679999913523
 20
1226.034448976493
 30
0.0
 40
3.25
  0
CIRCLE
  5
947
330
1F
100
AcDbEntity
  8
BILD
  6
AUSGEZOGEN
 62
     1
100
AcDbCircle
 10
1839.680060943524
 20
1226.034448976493
 30
0.0
 40
3.25
  0
CIRCLE
  5
948
330
1F
100
AcDbEntity
  8
BILD
  6
AUSGEZOGEN
 62
     1
100
AcDbCircle
 10
1853.679999913523
 20
1212.034204836493
 30
0.0
 40
3.25
  0
CIRCLE
  5
949
330
1F
100
AcDbEntity
  8
BILD
  6
AUSGEZOGEN
 62
     1
100
AcDbCircle
 10
1839.680060943524
 20
1212.034204836493
 30
0.0
 40
3.25
  0
CIRCLE
  5
94A
330
1F
100
AcDbEntity
  8
BILD
  6
AUSGEZOGEN
 62
     1
100
AcDbCircle
 10
1853.679999913523
 20
1198.033960696492
 30
0.0
 40
3.25
  0
CIRCLE
  5
94B
330
1F
100
AcDbEntity
  8
BILD
  6
AUSGEZOGEN
 62
     1
100
AcDbCircle
 10
1839.680060943524
 20
1198.033960696492
 30
0.0
 40
3.25
  0
LINE
  5
94C
330
1F
100
AcDbEntity
  8
BILD
  6
AUSGEZOGEN
 62
     1
100
AcDbLine
 10
2105.680488193525
 20
1355.534021736493
 30
0.0
 11
2107.680610263525
 21
1355.534021736493
 31
0.0
  0
LINE
  5
94D
330
1F
100
AcDbEntity
  8
BILD
  6
AUSGEZOGEN
 62
     1
100
AcDbLine
 10
2105.680488193525
 20
1357.534754156492
 30
0.0
 11
2105.680488193525
 21
1355.534754156492
 31
0.0
  0
LINE
  5
94E
330
1F
100
AcDbEntity
  8
BILD
  6
AUSGEZOGEN
 62
     1
100
AcDbLine
 10
2107.679999913523
 20
1355.534021736493
 30
0.0
 11
2107.679999913523
 21
1026.534021736493
 31
0.0
  0
LINE
  5
94F
330
1F
100
AcDbEntity
  8
BILD
  6
AUSGEZOGEN
 62
     1
100
AcDbLine
 10
2105.680488193525
 20
1026.534326906492
 30
0.0
 11
2107.680610263525
 21
1026.534326906492
 31
0.0
  0
LINE
  5
950
330
1F
100
AcDbEntity
  8
BILD
  6
AUSGEZOGEN
 62
     1
100
AcDbLine
 10
2105.680488193525
 20
1026.534326906492
 30
0.0
 11
2105.680488193525
 21
1024.534387946492
 31
0.0
  0
CIRCLE
  5
951
330
1F
100
AcDbEntity
  8
BILD
  6
AUSGEZOGEN
 62
     1
100
AcDbCircle
 10
2084.679999913523
 20
1191.034448976493
 30
0.0
 40
3.5
  0
CIRCLE
  5
952
330
1F
100
AcDbEntity
  8
BILD
  6
AUSGEZOGEN
 62
     1
100
AcDbCircle
 10
2042.679999913523
 20
1191.034448976493
 30
0.0
 40
3.5
  0
CIRCLE
  5
953
330
1F
100
AcDbEntity
  8
BILD
  6
AUSGEZOGEN
 62
     1
100
AcDbCircle
 10
2000.680488193525
 20
1191.034448976493
 30
0.0
 40
3.5
  0
CIRCLE
  5
954
330
1F
100
AcDbEntity
  8
BILD
  6
AUSGEZOGEN
 62
     1
100
AcDbCircle
 10
1958.679999913522
 20
1191.034448976493
 30
0.0
 40
3.5
  0
CIRCLE
  5
955
330
1F
100
AcDbEntity
  8
BILD
  6
AUSGEZOGEN
 62
     1
100
AcDbCircle
 10
1916.679877843523
 20
1191.034448976493
 30
0.0
 40
3.5
  0
CIRCLE
  5
956
330
1F
100
AcDbEntity
  8
BILD
  6
AUSGEZOGEN
 62
     1
100
AcDbCircle
 10
1874.680060943524
 20
1191.034448976493
 30
0.0
 40
3.5
  0
CIRCLE
  5
957
330
1F
100
AcDbEntity
  8
BILD
  6
AUSGEZOGEN
 62
     1
100
AcDbCircle
 10
1832.679938873524
 20
1191.034448976493
 30
0.0
 40
3.5
  0
LINE
  5
958
330
1F
100
AcDbEntity
  8
BILD
  6
AUSGEZOGEN
 62
     1
100
AcDbLine
 10
1683.679999913523
 20
1355.534021736493
 30
0.0
 11
1685.680121983522
 21
1355.534021736493
 31
0.0
  0
LINE
  5
959
330
1F
100
AcDbEntity
  8
BILD
  6
AUSGEZOGEN
 62
     1
100
AcDbLine
 10
1685.680121983522
 20
1357.534754156492
 30
0.0
 11
1685.680121983522
 21
1355.534754156492
 31
0.0
  0
LINE
  5
95A
330
1F
100
AcDbEntity
  8
BILD
  6
AUSGEZOGEN
 62
     1
100
AcDbLine
 10
1685.680121983522
 20
1357.534754156492
 30
0.0
 11
2105.680121983523
 21
1357.534754156492
 31
0.0
  0
CIRCLE
  5
95B
330
1F
100
AcDbEntity
  8
BILD
  6
AUSGEZOGEN
 62
     1
100
AcDbCircle
 10
1790.680121983522
 20
1191.034448976493
 30
0.0
 40
3.5
  0
CIRCLE
  5
95C
330
1F
100
AcDbEntity
  8
BILD
  6
AUSGEZOGEN
 62
     1
100
AcDbCircle
 10
1748.679999913523
 20
1191.034448976493
 30
0.0
 40
3.5
  0
CIRCLE
  5
95D
330
1F
100
AcDbEntity
  8
BILD
  6
AUSGEZOGEN
 62
     1
100
AcDbCircle
 10
1706.679877843523
 20
1191.034448976493
 30
0.0
 40
3.5
  0
LINE
  5
95E
330
1F
100
AcDbEntity
  8
SCHRAFF
  6
AUSGEZOGEN
 62
     1
100
AcDbLine
 10
1974.713813383522
 20
2029.016687746493
 30
0.0
 11
1968.446113193525
 21
2022.748865486493
 31
0.0
  0
LINE
  5
95F
330
1F
100
AcDbEntity
  8
SCHRAFF
  6
AUSGEZOGEN
 62
     1
100
AcDbLine
 10
1974.837104403524
 20
2031.968347906492
 30
0.0
 11
1965.494453033524
 21
2022.625574466493
 31
0.0
  0
LINE
  5
960
330
1F
100
AcDbEntity
  8
SCHRAFF
  6
AUSGEZOGEN
 62
     1
100
AcDbLine
 10
1974.212348543523
 20
2034.171717046493
 30
0.0
 11
1969.411933503526
 21
2029.371179936493
 31
0.0
  0
LINE
  5
961
330
1F
100
AcDbEntity
  8
SCHRAFF
  6
AUSGEZOGEN
 62
     1
100
AcDbLine
 10
1968.091132723523
 20
2028.049890876492
 30
0.0
 11
1963.290717683522
 21
2023.249353766493
 31
0.0
  0
LINE
  5
962
330
1F
100
AcDbEntity
  8
SCHRAFF
  6
AUSGEZOGEN
 62
     1
100
AcDbLine
 10
1973.153144443525
 20
2035.940515876492
 30
0.0
 11
1969.444037993523
 21
2032.231287356493
 31
0.0
  0
LINE
  5
963
330
1F
100
AcDbEntity
  8
SCHRAFF
  6
AUSGEZOGEN
 62
     1
100
AcDbLine
 10
1965.231025303522
 20
2028.018152596493
 30
0.0
 11
1961.521552643525
 21
2024.308924076492
 31
0.0
  0
LINE
  5
964
330
1F
100
AcDbEntity
  8
SCHRAFF
  6
AUSGEZOGEN
 62
     1
100
AcDbLine
 10
1971.738959873525
 20
2037.355310796493
 30
0.0
 11
1968.029853423523
 21
2033.646326426492
 31
0.0
  0
LINE
  5
965
330
1F
100
AcDbEntity
  8
SCHRAFF
  6
AUSGEZOGEN
 62
     1
100
AcDbLine
 10
1963.816596593523
 20
2029.432947516493
 30
0.0
 11
1960.107490143525
 21
2025.723718996493
 31
0.0
  0
LINE
  5
966
330
1F
100
AcDbEntity
  8
SCHRAFF
  6
AUSGEZOGEN
 62
     1
100
AcDbLine
 10
1969.970161043523
 20
2038.414881106493
 30
0.0
 11
1965.171577053524
 21
2033.616297126492
 31
0.0
  0
LINE
  5
967
330
1F
100
AcDbEntity
  8
SCHRAFF
  6
AUSGEZOGEN
 62
     1
100
AcDbLine
 10
1963.846503813522
 20
2032.290613526493
 30
0.0
 11
1959.047919833524
 21
2027.491785406493
 31
0.0
  0
LINE
  5
968
330
1F
100
AcDbEntity
  8
SCHRAFF
  6
AUSGEZOGEN
 62
     1
100
AcDbLine
 10
1967.766425693525
 20
2039.038660406493
 30
0.0
 11
1958.422919833524
 21
2029.695154546493
 31
0.0
  0
LINE
  5
969
330
1F
100
AcDbEntity
  8
SCHRAFF
  6
AUSGEZOGEN
 62
     1
100
AcDbLine
 10
1964.815375883522
 20
2038.916590096492
 30
0.0
 11
1958.545844633522
 21
2032.647058846492
 31
0.0
  0
TEXT
  5
96A
330
1F
100
AcDbEntity
  8
TEXT
  6
AUSGEZOGEN
 62
     7
100
AcDbText
 10
1712.796210843525
 20
957.8221687064925
 30
0.0
 40
25.0
  1
Zulauf rechts
 41
0.66045776
  7
SIMPLEX
100
AcDbText
  0
TEXT
  5
96B
330
1F
100
AcDbEntity
  8
TEXT
  6
AUSGEZOGEN
 62
     7
100
AcDbText
 10
1512.723579013524
 20
2545.465662356493
 30
0.0
 40
25.0
  1
Winkel-Schukostecker mit
 41
0.66045776
  7
SIMPLEX
100
AcDbText
  0
TEXT
  5
96C
330
1F
100
AcDbEntity
  8
TEXT
  6
AUSGEZOGEN
 62
     7
100
AcDbText
 10
1512.723579013524
 20
2507.965662356493
 30
0.0
 40
25.0
  1
Wahlschalter Hand/Auto und
 41
0.66045776
  7
SIMPLEX
100
AcDbText
  0
TEXT
  5
96D
330
1F
100
AcDbEntity
  8
TEXT
  6
AUSGEZOGEN
 62
     7
100
AcDbText
 10
1512.723579013524
 20
2470.465662356493
 30
0.0
 40
25.0
  1
akustischer Signalanlage
 41
0.66045776
  7
SIMPLEX
100
AcDbText
  0
TEXT
  5
96E
330
1F
100
AcDbEntity
  8
TEXT
  6
AUSGEZOGEN
 62
     7
100
AcDbText
 10
1512.723579013524
 20
2432.965662356493
 30
0.0
 40
25.0
  1
(intermittierend)
 41
0.66045776
  7
SIMPLEX
100
AcDbText
  0
TEXT
  5
96F
330
1F
100
AcDbEntity
  8
TEXT
  6
AUSGEZOGEN
 62
     7
100
AcDbText
 10
2084.166083893525
 20
2525.355799076493
 30
0.0
 40
25.0
  1
loesbare Kabel-
 41
0.6604580100000001
  7
SIMPLEX
100
AcDbText
  0
TEXT
  5
970
330
1F
100
AcDbEntity
  8
TEXT
  6
AUSGEZOGEN
 62
     7
100
AcDbText
 10
2084.166083893525
 20
2487.855799076493
 30
0.0
 40
25.0
  1
kupplung
 41
0.6604580100000001
  7
SIMPLEX
100
AcDbText
  0
TEXT
  5
971
330
1F
100
AcDbEntity
  8
TEXT
  6
AUSGEZOGEN
 62
     1
100
AcDbText
 10
1945.651435453522
 20
2529.511072516493
 30
0.0
 40
10.0
  1
AUTO
 41
0.66045776
  7
SIMPLEX
100
AcDbText
  0
TEXT
  5
972
330
1F
100
AcDbEntity
  8
TEXT
  6
AUSGEZOGEN
 62
     1
100
AcDbText
 10
1944.660468663523
 20
2490.028650636493
 30
0.0
 40
10.0
  1
HAND
 41
0.66045776
  7
SIMPLEX
100
AcDbText
  0
TEXT
  5
973
330
1F
100
AcDbEntity
  8
TEXT
  6
AUSGEZOGEN
 62
     7
100
AcDbText
 10
1652.511420803524
 20
2355.131189706492
 30
0.0
 40
25.0
  1
Alarmkontakt
 41
0.66045776
  7
SIMPLEX
100
AcDbText
  0
TEXT
  5
974
330
1F
100
AcDbEntity
  8
TEXT
  6
AUSGEZOGEN
 62
     7
100
AcDbText
 10
2084.166083893525
 20
2412.899744386493
 30
0.0
 40
25.0
  1
Schlauchwinkel
 41
0.66045776
  7
SIMPLEX
100
AcDbText
  0
TEXT
  5
975
330
1F
100
AcDbEntity
  8
TEXT
  6
AUSGEZOGEN
 62
     7
100
AcDbText
 10
2084.166083893525
 20
2375.399744386493
 30
0.0
 40
25.0
  1
R 1 1/4
 41
0.66045776
  7
SIMPLEX
100
AcDbText
  0
TEXT
  5
976
330
1F
100
AcDbEntity
  8
TEXT
  6
AUSGEZOGEN
 62
     7
100
AcDbText
 10
1652.511420803524
 20
2288.300135016493
 30
0.0
 40
25.0
  1
herausnehmbares
 41
0.66045776
  7
SIMPLEX
100
AcDbText
  0
TEXT
  5
977
330
1F
100
AcDbEntity
  8
TEXT
  6
AUSGEZOGEN
 62
     7
100
AcDbText
 10
1652.511420803524
 20
2250.800135016493
 30
0.0
 40
25.0
  1
Zulauf-Leitblech
 41
0.66045776
  7
SIMPLEX
100
AcDbText
  0
TEXT
  5
978
330
1F
100
AcDbEntity
  8
TEXT
  6
AUSGEZOGEN
 62
     7
100
AcDbText
 10
2084.166083893525
 20
2300.253260016493
 30
0.0
 40
25.0
  1
Druckleitung R 1 1/4
 41
0.66045776
  7
SIMPLEX
100
AcDbText
  0
TEXT
  5
979
330
1F
100
AcDbEntity
  8
TEXT
  6
AUSGEZOGEN
 62
     7
100
AcDbText
 10
2084.166083893525
 20
2262.753260016493
 30
0.0
 40
25.0
  1
und DN50/SML
 41
0.66045776
  7
SIMPLEX
100
AcDbText
  0
TEXT
  5
97A
330
1F
100
AcDbEntity
  8
TEXT
  6
AUSGEZOGEN
 62
     7
100
AcDbText
 10
2113.622871003526
 20
1841.438562746493
 30
0.0
 40
25.0
  1
AUS
 41
0.66045776
  7
SIMPLEX
100
AcDbText
  0
TEXT
  5
97B
330
1F
100
AcDbEntity
  8
TEXT
  6
AUSGEZOGEN
 62
     7
100
AcDbText
 10
2113.622871003526
 20
1912.365076426492
 30
0.0
 40
25.0
  1
EIN
 41
0.66045776
  7
SIMPLEX
100
AcDbText
  0
TEXT
  5
97C
330
1F
100
AcDbEntity
  8
TEXT
  6
AUSGEZOGEN
 62
     7
100
AcDbText
 10
1558.922553623525
 20
1992.531092046492
 30
0.0
 40
25.00009537
  1
Zulauf
 41
0.6604552400000001
  7
SIMPLEX
100
AcDbText
  0
TEXT
  5
97D
330
1F
100
AcDbEntity
  8
TEXT
  6
AUSGEZOGEN
 62
     7
100
AcDbText
 10
2112.734809483522
 20
1976.646082276493
 30
0.0
 40
25.0
  1
AUS
 41
0.66045776
  7
SIMPLEX
100
AcDbText
  0
TEXT
  5
97E
330
1F
100
AcDbEntity
  8
TEXT
  6
AUSGEZOGEN
 62
     7
100
AcDbText
 10
2140.221381743523
 20
2040.743982676492
 30
0.0
 40
25.0
  1
EIN     Alarmton + Autostart
 41
0.66045776
  7
SIMPLEX
100
AcDbText
  0
TEXT
  5
97F
330
1F
100
AcDbEntity
  8
TEXT
  6
AUSGEZOGEN
 62
     7
100
AcDbText
 10
1497.038764553524
 20
1873.368494386493
 30
0.0
 40
25.0
  1
Sinkstoff-
 41
0.66045776
  7
SIMPLEX
100
AcDbText
  0
TEXT
  5
980
330
1F
100
AcDbEntity
  8
TEXT
  6
AUSGEZOGEN
 62
     7
100
AcDbText
 10
1497.038764553524
 20
1835.868494386493
 30
0.0
 40
25.0
  1
Sammelraum
 41
0.66045776
  7
SIMPLEX
100
AcDbText
  0
TEXT
  5
981
330
1F
100
AcDbEntity
  8
TEXT
  6
AUSGEZOGEN
 62
     7
100
AcDbText
 10
2153.610053623525
 20
1530.005457276493
 30
0.0
 40
25.0
  1
Anschluss DN50 / Kunststoff
 41
0.66045776
  7
SIMPLEX
100
AcDbText
  0
TEXT
  5
982
330
1F
100
AcDbEntity
  8
TEXT
  6
AUSGEZOGEN
 62
     7
100
AcDbText
 10
2153.610053623525
 20
1492.505457276493
 30
0.0
 40
25.0
  1
Leerrohr fuer Netzkabel
 41
0.66045776
  7
SIMPLEX
100
AcDbText
  0
TEXT
  5
983
330
1F
100
AcDbEntity
  8
TEXT
  6
AUSGEZOGEN
 62
     7
100
AcDbText
 10
2153.610053623525
 20
1455.005457276493
 30
0.0
 40
25.0
  1
und Belueftung
 41
0.66045776
  7
SIMPLEX
100
AcDbText
  0
TEXT
  5
984
330
1F
100
AcDbEntity
  8
TEXT
  6
AUSGEZOGEN
 62
     7
100
AcDbText
 10
1638.555732333524
 20
1108.820093506492
 30
0.0
 40
25.0
  1
Zulauf mittig
 50
90.0
 41
0.66045776
  7
SIMPLEX
100
AcDbText
  0
TEXT
  5
985
330
1F
100
AcDbEntity
  8
TEXT
  6
AUSGEZOGEN
 62
     7
100
AcDbText
 10
1721.609321203524
 20
1404.329187746492
 30
0.0
 40
25.0
  1
Zulauf links
 41
0.66045776
  7
SIMPLEX
100
AcDbText
  0
TEXT
  5
986
330
1F
100
AcDbEntity
  8
TEXT
  6
AUSGEZOGEN
 62
     1
100
AcDbText
 10
2076.114326083525
 20
1096.783350346492
 30
0.0
 40
25.0
  1
ACO-passavant
 50
90.0
 41
0.66045776
  7
SIMPLEX
100
AcDbText
  0
LINE
  5
987
330
1F
100
AcDbEntity
  8
KONTUR
  6
AUSGEZOGEN
 62
     1
100
AcDbLine
 10
2041.066108303524
 20
1796.046717046493
 30
0.0
 11
2036.555244053522
 21
1796.046717046493
 31
0.0
  0
LINE
  5
988
330
1F
100
AcDbEntity
  8
KONTUR
  6
AUSGEZOGEN
 62
     1
100
AcDbLine
 10
1892.194037993523
 20
1796.046717046493
 30
0.0
 11
1896.704841213524
 21
1796.046717046493
 31
0.0
  0
LINE
  5
989
330
1F
100
AcDbEntity
  8
KONTUR
  6
AUSGEZOGEN
 62
     1
100
AcDbLine
 10
1883.431220613523
 20
1796.046717046493
 30
0.0
 11
1885.942206943525
 21
1796.046717046493
 31
0.0
  0
LINE
  5
98A
330
1F
100
AcDbEntity
  8
KONTUR
  6
AUSGEZOGEN
 62
     1
100
AcDbLine
 10
1904.687934483522
 20
1796.046717046493
 30
0.0
 11
1909.251533113523
 21
1796.046717046493
 31
0.0
  0
LINE
  5
98B
330
1F
100
AcDbEntity
  8
KONTUR
  6
AUSGEZOGEN
 62
     1
100
AcDbLine
 10
1934.681830963524
 20
1796.046717046493
 30
0.0
 11
1942.104926663525
 21
1796.046717046493
 31
0.0
  0
LINE
  5
98C
330
1F
100
AcDbEntity
  8
KONTUR
  6
AUSGEZOGEN
 62
     1
100
AcDbLine
 10
1917.723823153524
 20
1796.046717046493
 30
0.0
 11
1923.969306553522
 21
1796.046717046493
 31
0.0
  0
LINE
  5
98D
330
1F
100
AcDbEntity
  8
KONTUR
  6
AUSGEZOGEN
 62
     1
100
AcDbLine
 10
1889.723334873525
 20
1976.088220956492
 30
0.0
 11
2043.317939363523
 21
1976.088220956492
 31
0.0
  0
LINE
  5
98E
330
1F
100
AcDbEntity
  8
KONTUR
  6
AUSGEZOGEN
 62
     1
100
AcDbLine
 10
1916.245795803524
 20
2057.582361576492
 30
0.0
 11
1916.245795803524
 21
2044.588465096493
 31
0.0
  0
LINE
  5
98F
330
1F
100
AcDbEntity
  8
KONTUR
  6
AUSGEZOGEN
 62
     1
100
AcDbLine
 10
1924.746162023523
 20
2057.582361576492
 30
0.0
 11
1924.746162023523
 21
2044.588465096493
 31
0.0
  0
LINE
  5
990
330
1F
100
AcDbEntity
  8
KONTUR
  6
AUSGEZOGEN
 62
     1
100
AcDbLine
 10
1901.377631743523
 20
1846.616785406492
 30
0.0
 11
2030.461494053522
 21
1846.616785406492
 31
0.0
  0
LINE
  5
991
330
1F
100
AcDbEntity
  8
KONTUR
  6
AUSGEZOGEN
 62
     1
100
AcDbLine
 10
2030.461249913523
 20
1886.616785406492
 30
0.0
 11
1901.377387603524
 21
1886.616785406492
 31
0.0
  0
LINE
  5
992
330
1F
100
AcDbEntity
  8
KONTUR
  6
AUSGEZOGEN
 62
     1
100
AcDbLine
 10
2030.461249913523
 20
1846.616785406492
 30
0.0
 11
2030.461249913523
 21
1886.616785406492
 31
0.0
  0
LINE
  5
993
330
1F
100
AcDbEntity
  8
KONTUR
  6
AUSGEZOGEN
 62
     1
100
AcDbLine
 10
1901.377631743523
 20
1886.616785406492
 30
0.0
 11
1901.377631743523
 21
1846.616785406492
 31
0.0
  0
CIRCLE
  5
994
330
1F
100
AcDbEntity
  8
KONTUR
  6
AUSGEZOGEN
 62
     1
100
AcDbCircle
 10
1966.630073153524
 20
2030.831873296493
 30
0.0
 40
3.14250278
  0
CIRCLE
  5
995
330
1F
100
AcDbEntity
  8
KONTUR
  6
AUSGEZOGEN
 62
     1
100
AcDbCircle
 10
1966.630073153524
 20
2030.831873296493
 30
0.0
 40
8.28525066
  0
LINE
  5
996
330
1F
100
AcDbEntity
  8
KONTUR
  6
AUSGEZOGEN
 62
     1
100
AcDbLine
 10
1883.174872953522
 20
1936.564295176492
 30
0.0
 11
1885.496039953524
 21
1999.588953376492
 31
0.0
  0
LINE
  5
997
330
1F
100
AcDbEntity
  8
KONTUR
  6
AUSGEZOGEN
 62
     1
100
AcDbLine
 10
2050.085273343525
 20
1936.564295176492
 30
0.0
 11
2047.764106353524
 21
1999.588953376492
 31
0.0
  0
LINE
  5
998
330
1F
100
AcDbEntity
  8
KONTUR
  6
AUSGEZOGEN
 62
     1
100
AcDbLine
 10
2054.130073153524
 20
1796.046717046493
 30
0.0
 11
2050.135322173524
 21
1935.063440676492
 31
0.0
  0
LINE
  5
999
330
1F
100
AcDbEntity
  8
KONTUR
  6
AUSGEZOGEN
 62
     1
100
AcDbLine
 10
1879.130073153524
 20
1796.046717046493
 30
0.0
 11
1883.124824133524
 21
1935.063440676492
 31
0.0
  0
LINE
  5
99A
330
1F
100
AcDbEntity
  8
KONTUR
  6
AUSGEZOGEN
 62
     1
100
AcDbLine
 10
1925.996162023523
 20
2044.589197516494
 30
0.0
 11
1925.996162023523
 21
1999.589075446493
 31
0.0
  0
LINE
  5
99B
330
1F
100
AcDbEntity
  8
KONTUR
  6
AUSGEZOGEN
 62
     1
100
AcDbLine
 10
1914.996162023523
 20
2044.589197516494
 30
0.0
 11
1914.996162023523
 21
1999.589075446493
 31
0.0
  0
LINE
  5
99C
330
1F
100
AcDbEntity
  8
KONTUR
  6
AUSGEZOGEN
 62
     1
100
AcDbLine
 10
1925.996162023523
 20
2044.589197516494
 30
0.0
 11
1914.996039953524
 21
2044.589197516494
 31
0.0
  0
LINE
  5
99D
330
1F
100
AcDbEntity
  8
Z
  6
AUSGEZOGEN
 62
     1
100
AcDbLine
 10
1679.679755773523
 20
1358.534510016493
 30
0.0
 11
1679.679755773523
 21
1023.534510016492
 31
0.0
  0
LINE
  5
99E
330
1F
100
AcDbEntity
  8
Z
  6
AUSGEZOGEN
 62
     1
100
AcDbLine
 10
2111.680121983523
 20
1023.534448976493
 30
0.0
 11
1679.679999913522
 21
1023.534448976493
 31
0.0
  0
LINE
  5
99F
330
1F
100
AcDbEntity
  8
Z
  6
AUSGEZOGEN
 62
     1
100
AcDbLine
 10
2108.679633703524
 20
1020.533960696492
 30
0.0
 11
1682.679572663525
 21
1020.533960696492
 31
0.0
  0
LINE
  5
9A0
330
1F
100
AcDbEntity
  8
Z
  6
AUSGEZOGEN
 62
     1
100
AcDbLine
 10
1682.679633703524
 20
1361.534998296493
 30
0.0
 11
1682.679633703524
 21
1020.534937256492
 31
0.0
  0
LINE
  5
9A1
330
1F
100
AcDbEntity
  8
Z
  6
AUSGEZOGEN
 62
     1
100
AcDbLine
 10
1679.679755773523
 20
2219.546472906492
 30
0.0
 11
1679.679755773523
 21
2211.046472906493
 31
0.0
  0
LINE
  5
9A2
330
1F
100
AcDbEntity
  8
Z
  6
AUSGEZOGEN
 62
     1
100
AcDbLine
 10
1681.179999913523
 20
2221.046717046493
 30
0.0
 11
1686.671332913524
 21
2221.046717046493
 31
0.0
  0
LINE
  5
9A3
330
1F
100
AcDbEntity
  8
Z
  6
AUSGEZOGEN
 62
     1
100
AcDbLine
 10
1682.679877843523
 20
2219.546472906492
 30
0.0
 11
1682.679877843523
 21
2193.546472906493
 31
0.0
  0
LINE
  5
9A4
330
1F
100
AcDbEntity
  8
Z
  6
AUSGEZOGEN
 62
     1
100
AcDbLine
 10
1803.679999913523
 20
1762.545740486492
 30
0.0
 11
1803.679999913523
 21
1862.545740486493
 31
0.0
  0
CIRCLE
  5
9A5
330
1F
100
AcDbEntity
  8
Z
  6
AUSGEZOGEN
 62
     1
100
AcDbCircle
 10
1795.679755773523
 20
2064.546472906493
 30
0.0
 40
50.00001144
  0
LINE
  5
9A6
330
1F
100
AcDbEntity
  8
Z
  6
AUSGEZOGEN
 62
     1
100
AcDbLine
 10
1705.179877843523
 20
1761.046717046492
 30
0.0
 11
2086.179999913523
 21
1761.046717046492
 31
0.0
  0
LINE
  5
9A7
330
1F
100
AcDbEntity
  8
Z
  6
AUSGEZOGEN
 62
     1
100
AcDbLine
 10
1803.679999913523
 20
1862.545740486493
 30
0.0
 11
1805.179999913523
 21
1862.545740486493
 31
0.0
  0
LINE
  5
9A8
330
1F
100
AcDbEntity
  8
Z
  6
AUSGEZOGEN
 62
     1
100
AcDbLine
 10
1805.179877843523
 20
1762.545740486492
 30
0.0
 11
1805.179877843523
 21
1862.545740486493
 31
0.0
  0
LINE
  5
9A9
330
1F
100
AcDbEntity
  8
Z
  6
AUSGEZOGEN
 62
     1
100
AcDbLine
 10
2105.378852453524
 20
2221.046717046493
 30
0.0
 11
2110.179877843523
 21
2221.046717046493
 31
0.0
  0
LINE
  5
9AA
330
1F
100
AcDbEntity
  8
Z
  6
AUSGEZOGEN
 62
     1
100
AcDbLine
 10
2111.680121983523
 20
1211.655786866492
 30
0.0
 11
2111.680121983523
 21
1023.534632086493
 31
0.0
  0
LINE
  5
9AB
330
1F
100
AcDbEntity
  8
Z
  6
AUSGEZOGEN
 62
     1
100
AcDbLine
 10
2111.680121983523
 20
1358.534510016493
 30
0.0
 11
2111.680121983523
 21
1211.655725836493
 31
0.0
  0
LINE
  5
9AC
330
1F
100
AcDbEntity
  8
Z
  6
AUSGEZOGEN
 62
     1
100
AcDbLine
 10
2111.680121983523
 20
1358.534510016493
 30
0.0
 11
1679.679999913522
 21
1358.534510016493
 31
0.0
  0
LINE
  5
9AD
330
1F
100
AcDbEntity
  8
Z
  6
AUSGEZOGEN
 62
     1
100
AcDbLine
 10
2108.679633703524
 20
1361.534998296493
 30
0.0
 11
1682.679572663525
 21
1361.534998296493
 31
0.0
  0
LINE
  5
9AE
330
1F
100
AcDbEntity
  8
Z
  6
AUSGEZOGEN
 62
     1
100
AcDbLine
 10
2108.679633703524
 20
1361.534998296493
 30
0.0
 11
2108.679633703524
 21
1020.534937256492
 31
0.0
  0
LINE
  5
9AF
330
1F
100
AcDbEntity
  8
Z
  6
AUSGEZOGEN
 62
     1
100
AcDbLine
 10
2087.679877843523
 20
2072.346765876492
 30
0.0
 11
2087.679877843523
 21
1764.046594976492
 31
0.0
  0
LINE
  5
9B0
330
1F
100
AcDbEntity
  8
Z
  6
AUSGEZOGEN
 62
     1
100
AcDbLine
 10
2087.679877843523
 20
2189.047205326492
 30
0.0
 11
2087.679877843523
 21
2114.747156496493
 31
0.0
  0
LINE
  5
9B1
330
1F
100
AcDbEntity
  8
Z
  6
AUSGEZOGEN
 62
     1
100
AcDbLine
 10
2107.179999913523
 20
2190.546228766493
 30
0.0
 11
2090.679999913523
 21
2190.546228766493
 31
0.0
  0
LINE
  5
9B2
330
1F
100
AcDbEntity
  8
Z
  6
AUSGEZOGEN
 62
     1
100
AcDbLine
 10
2108.680244053522
 20
2219.546472906492
 30
0.0
 11
2108.680244053522
 21
2193.546472906493
 31
0.0
  0
LINE
  5
9B3
330
1F
100
AcDbEntity
  8
Z
  6
AUSGEZOGEN
 62
     1
100
AcDbLine
 10
2111.680121983523
 20
2219.546472906492
 30
0.0
 11
2111.680121983523
 21
2211.046472906493
 31
0.0
  0
CIRCLE
  5
9B4
330
1F
100
AcDbEntity
  8
Z
  6
AUSGEZOGEN
 62
     1
100
AcDbCircle
 10
1795.679755773523
 20
1997.545740486493
 30
0.0
 40
4.0
  0
LINE
  5
9B5
330
1F
100
AcDbEntity
  8
Z
  6
AUSGEZOGEN
 62
     1
100
AcDbLine
 10
1684.179816803524
 20
2192.045252206492
 30
0.0
 11
2107.179999913523
 21
2192.045252206492
 31
0.0
  0
LINE
  5
9B6
330
1F
100
AcDbEntity
  8
Z
  6
AUSGEZOGEN
 62
     1
100
AcDbLine
 10
1703.679938873524
 20
2189.045984626492
 30
0.0
 11
1703.679938873524
 21
1764.045862556492
 31
0.0
  0
LINE
  5
9B7
330
1F
100
AcDbEntity
  8
Z
  6
MITTE
 62
     1
100
AcDbLine
 10
1795.679755773523
 20
1989.888269776493
 30
0.0
 11
1795.679755773523
 21
2127.117517826492
 31
0.0
  0
CIRCLE
  5
9B8
330
1F
100
AcDbEntity
  8
Z
  6
AUSGEZOGEN
 62
     1
100
AcDbCircle
 10
1883.679999913523
 20
2162.545740486493
 30
0.0
 40
4.0
  0
LINE
  5
9B9
330
1F
100
AcDbEntity
  8
Z
  6
MITTE
 62
     1
100
AcDbLine
 10
1975.680366123525
 20
1383.147547126492
 30
0.0
 11
1975.680366123525
 21
1334.148767826492
 31
0.0
  0
LINE
  5
9BA
330
1F
100
AcDbEntity
  8
Z
  6
MITTE
 62
     1
100
AcDbLine
 10
2143.226752843523
 20
1241.034448976493
 30
0.0
 11
2085.320869053522
 21
1241.034448976493
 31
0.0
  0
LINE
  5
9BB
330
1F
100
AcDbEntity
  8
Z
  6
AUSGEZOGEN
 62
     1
100
AcDbLine
 10
1784.520209873525
 20
1997.378504156492
 30
0.0
 11
1841.529487213524
 21
2030.292932866493
 31
0.0
  0
LINE
  5
9BC
330
1F
100
AcDbEntity
  8
Z
  6
AUSGEZOGEN
 62
     1
100
AcDbLine
 10
1783.520148833523
 20
1999.110681886493
 30
0.0
 11
1839.811957913525
 21
2031.610803956493
 31
0.0
  0
LINE
  5
9BD
330
1F
100
AcDbEntity
  8
Z
  6
AUSGEZOGEN
 62
     1
100
AcDbLine
 10
1888.437995513523
 20
2169.375574466493
 30
0.0
 11
1891.609687413523
 21
2163.882166266493
 31
0.0
  0
LINE
  5
9BE
330
1F
100
AcDbEntity
  8
Z
  6
AUSGEZOGEN
 62
     1
100
AcDbLine
 10
1882.974128323524
 20
2170.840418216493
 30
0.0
 11
1877.480964263524
 21
2167.668787356493
 31
0.0
  0
ARC
  5
9BF
330
1F
100
AcDbEntity
  8
Z
  6
AUSGEZOGEN
 62
     1
100
AcDbCircle
 10
1888.145331943525
 20
2161.882898686493
 30
0.0
 40
4.000047679999999
100
AcDbArc
 50
344.9999999999771
 51
30.0006103499077
  0
ARC
  5
9C0
330
1F
100
AcDbEntity
  8
Z
  6
AUSGEZOGEN
 62
     1
100
AcDbCircle
 10
1888.145331943525
 20
2161.882898686493
 30
0.0
 40
2.00008869
100
AcDbArc
 50
344.9999694800058
 51
30.00616454996932
  0
LINE
  5
9C1
330
1F
100
AcDbEntity
  8
Z
  6
AUSGEZOGEN
 62
     1
100
AcDbLine
 10
1886.706122953522
 20
2168.375818606492
 30
0.0
 11
1889.877509673523
 21
2162.882410406492
 31
0.0
  0
ARC
  5
9C2
330
1F
100
AcDbEntity
  8
Z
  6
AUSGEZOGEN
 62
     1
100
AcDbCircle
 10
1884.973945223524
 20
2167.376062746493
 30
0.0
 40
3.999918459999999
100
AcDbArc
 50
30.00124358995383
 51
120.0000152600094
  0
ARC
  5
9C3
330
1F
100
AcDbEntity
  8
Z
  6
AUSGEZOGEN
 62
     1
100
AcDbCircle
 10
1884.973945223524
 20
2167.376062746493
 30
0.0
 40
1.999959229999999
100
AcDbArc
 50
29.99999999991005
 51
120.0000152600094
  0
LINE
  5
9C4
330
1F
100
AcDbEntity
  8
Z
  6
AUSGEZOGEN
 62
     1
100
AcDbLine
 10
1883.974189363523
 20
2169.108240486493
 30
0.0
 11
1878.480414953524
 21
2165.936609626492
 31
0.0
  0
ARC
  5
9C5
330
1F
100
AcDbEntity
  8
Z
  6
AUSGEZOGEN
 62
     1
100
AcDbCircle
 10
1879.480781163523
 20
2164.204676026493
 30
0.0
 40
4.00000477
100
AcDbArc
 50
119.9987792999595
 51
165.0000152600417
  0
ARC
  5
9C6
330
1F
100
AcDbEntity
  8
Z
  6
AUSGEZOGEN
 62
     1
100
AcDbCircle
 10
1879.480781163523
 20
2164.204676026493
 30
0.0
 40
2.00000238
100
AcDbArc
 50
120.0061645500218
 51
164.999999999977
  0
LINE
  5
9C7
330
1F
100
AcDbEntity
  8
Z
  6
AUSGEZOGEN
 62
     1
100
AcDbLine
 10
1890.077704983524
 20
2161.365320566492
 30
0.0
 11
1887.401069243523
 21
2151.374842046493
 31
0.0
  0
LINE
  5
9C8
330
1F
100
AcDbEntity
  8
Z
  6
AUSGEZOGEN
 62
     1
100
AcDbLine
 10
1892.009162503525
 20
2160.847742436493
 30
0.0
 11
1889.331855383524
 21
2150.857263926492
 31
0.0
  0
LINE
  5
9C9
330
1F
100
AcDbEntity
  8
Z
  6
AUSGEZOGEN
 62
     1
100
AcDbLine
 10
1875.616950593522
 20
2165.239832276493
 30
0.0
 11
1839.811286533525
 21
2031.610437746493
 31
0.0
  0
LINE
  5
9CA
330
1F
100
AcDbEntity
  8
Z
  6
AUSGEZOGEN
 62
     1
100
AcDbLine
 10
1877.548713293524
 20
2164.722254156492
 30
0.0
 11
1841.528510653524
 21
2030.293054936493
 31
0.0
  0
LINE
  5
9CB
330
1F
100
AcDbEntity
  8
Z
  6
PUNKT
 62
     1
100
AcDbLine
 10
1692.179694733525
 20
2053.767664316493
 30
0.0
 11
1694.179816803525
 21
2053.767664316493
 31
0.0
  0
LINE
  5
9CC
330
1F
100
AcDbEntity
  8
Z
  6
PUNKT
 62
     1
100
AcDbLine
 10
1692.179694733525
 20
2074.767420176492
 30
0.0
 11
1692.179694733525
 21
2053.767420176492
 31
0.0
  0
LINE
  5
9CD
330
1F
100
AcDbEntity
  8
Z
  6
PUNKT
 62
     1
100
AcDbLine
 10
1694.179511633524
 20
2074.767420176492
 30
0.0
 11
1692.179389553524
 21
2074.767420176492
 31
0.0
  0
LINE
  5
9CE
330
1F
100
AcDbEntity
  8
Z
  6
AUSGEZOGEN
 62
     1
100
AcDbLine
 10
2015.679755773524
 20
2043.546717046493
 30
0.0
 11
2015.679755773524
 21
2033.546717046493
 31
0.0
  0
LINE
  5
9CF
330
1F
100
AcDbEntity
  8
Z
  6
AUSGEZOGEN
 62
     1
100
AcDbLine
 10
2017.679877843523
 20
2043.546717046493
 30
0.0
 11
2017.679877843523
 21
2033.546717046493
 31
0.0
  0
LINE
  5
9D0
330
1F
100
AcDbEntity
  8
Z
  6
AUSGEZOGEN
 62
     1
100
AcDbLine
 10
2019.679999913523
 20
2043.546717046493
 30
0.0
 11
2019.679999913523
 21
2033.546717046493
 31
0.0
  0
LINE
  5
9D1
330
1F
100
AcDbEntity
  8
Z
  6
AUSGEZOGEN
 62
     1
100
AcDbLine
 10
2067.679877843523
 20
2095.546228766493
 30
0.0
 11
2077.679877843523
 21
2095.546228766493
 31
0.0
  0
LINE
  5
9D2
330
1F
100
AcDbEntity
  8
Z
  6
AUSGEZOGEN
 62
     1
100
AcDbLine
 10
2067.679877843523
 20
2093.546717046493
 30
0.0
 11
2077.679877843523
 21
2093.546717046493
 31
0.0
  0
LINE
  5
9D3
330
1F
100
AcDbEntity
  8
Z
  6
AUSGEZOGEN
 62
     1
100
AcDbLine
 10
2067.679877843523
 20
2091.547205326492
 30
0.0
 11
2077.679877843523
 21
2091.547205326492
 31
0.0
  0
LINE
  5
9D4
330
1F
100
AcDbEntity
  8
Z
  6
AUSGEZOGEN
 62
     1
100
AcDbLine
 10
1997.529731353524
 20
2027.169763926492
 30
0.0
 11
1997.529731353524
 21
2028.546472906493
 31
0.0
  0
LINE
  5
9D5
330
1F
100
AcDbEntity
  8
Z
  6
AUSGEZOGEN
 62
     1
100
AcDbLine
 10
2038.929877843523
 20
2019.587976816493
 30
0.0
 11
2038.929877843523
 21
2028.546717046493
 31
0.0
  0
LINE
  5
9D6
330
1F
100
AcDbEntity
  8
Z
  6
AUSGEZOGEN
 62
     1
100
AcDbLine
 10
2037.930121983523
 20
2027.169763926492
 30
0.0
 11
2037.930121983523
 21
2028.546472906493
 31
0.0
  0
LINE
  5
9D7
330
1F
100
AcDbEntity
  8
Z
  6
AUSGEZOGEN
 62
     1
100
AcDbLine
 10
1996.529975493523
 20
2028.546717046493
 30
0.0
 11
1996.529975493523
 21
2019.587976816493
 31
0.0
  0
LINE
  5
9D8
330
1F
100
AcDbEntity
  8
Z
  6
AUSGEZOGEN
 62
     1
100
AcDbLine
 10
2037.930121983523
 20
2019.587976816493
 30
0.0
 11
2037.930121983523
 21
2022.378992436493
 31
0.0
  0
LINE
  5
9D9
330
1F
100
AcDbEntity
  8
Z
  6
AUSGEZOGEN
 62
     1
100
AcDbLine
 10
1997.529731353524
 20
2019.587976816493
 30
0.0
 11
1997.529731353524
 21
2022.378992436493
 31
0.0
  0
LINE
  5
9DA
330
1F
100
AcDbEntity
  8
Z
  6
AUSGEZOGEN
 62
     1
100
AcDbLine
 10
1996.529975493523
 20
2022.379724856492
 30
0.0
 11
2038.930244053522
 21
2022.379724856492
 31
0.0
  0
LINE
  5
9DB
330
1F
100
AcDbEntity
  8
Z
  6
AUSGEZOGEN
 62
     1
100
AcDbLine
 10
1996.529975493523
 20
2027.169763926492
 30
0.0
 11
2038.930244053522
 21
2027.169763926492
 31
0.0
  0
CIRCLE
  5
9DC
330
1F
100
AcDbEntity
  8
GEHAEUSE
  6
PUNKT
 62
     1
100
AcDbCircle
 10
1868.179755773524
 20
2064.546472906493
 30
0.0
 40
5.00020456
  0
CIRCLE
  5
9DD
330
1F
100
AcDbEntity
  8
GEHAEUSE
  6
PUNKT
 62
     1
100
AcDbCircle
 10
1868.180366123525
 20
2064.546472906493
 30
0.0
 40
15.00000286
  0
LINE
  5
9DE
330
1F
100
AcDbEntity
  8
GEHAEUSE
  6
PUNKT
 62
     1
100
AcDbLine
 10
1868.180366123525
 20
2055.305750246493
 30
0.0
 11
1876.180244053522
 21
2059.925867436493
 31
0.0
  0
LINE
  5
9DF
330
1F
100
AcDbEntity
  8
GEHAEUSE
  6
PUNKT
 62
     1
100
AcDbLine
 10
1876.180244053522
 20
2059.926111576492
 30
0.0
 11
1876.180244053522
 21
2069.166345956492
 31
0.0
  0
LINE
  5
9E0
330
1F
100
AcDbEntity
  8
GEHAEUSE
  6
PUNKT
 62
     1
100
AcDbLine
 10
1876.180244053522
 20
2069.166834236493
 30
0.0
 11
1868.180366123525
 21
2073.786951426492
 31
0.0
  0
LINE
  5
9E1
330
1F
100
AcDbEntity
  8
GEHAEUSE
  6
PUNKT
 62
     1
100
AcDbLine
 10
1868.180366123525
 20
2073.787195566493
 30
0.0
 11
1860.180488193525
 21
2069.167078376492
 31
0.0
  0
LINE
  5
9E2
330
1F
100
AcDbEntity
  8
GEHAEUSE
  6
PUNKT
 62
     1
100
AcDbLine
 10
1860.180121983522
 20
2069.166834236493
 30
0.0
 11
1860.180121983522
 21
2059.926599856492
 31
0.0
  0
LINE
  5
9E3
330
1F
100
AcDbEntity
  8
GEHAEUSE
  6
PUNKT
 62
     1
100
AcDbLine
 10
1860.180121983522
 20
2059.926111576492
 30
0.0
 11
1868.179999913523
 21
2055.305994386493
 31
0.0
  0
CIRCLE
  5
9E4
330
1F
100
AcDbEntity
  8
GEHAEUSE
  6
PUNKT
 62
     1
100
AcDbCircle
 10
1723.179755773523
 20
2064.546472906493
 30
0.0
 40
5.000205039999999
  0
CIRCLE
  5
9E5
330
1F
100
AcDbEntity
  8
GEHAEUSE
  6
PUNKT
 62
     1
100
AcDbCircle
 10
1723.179145413524
 20
2064.546472906493
 30
0.0
 40
15.00000381
  0
LINE
  5
9E6
330
1F
100
AcDbEntity
  8
GEHAEUSE
  6
PUNKT
 62
     1
100
AcDbLine
 10
1723.179145413524
 20
2055.305750246493
 30
0.0
 11
1715.179267483524
 21
2059.925867436493
 31
0.0
  0
LINE
  5
9E7
330
1F
100
AcDbEntity
  8
GEHAEUSE
  6
PUNKT
 62
     1
100
AcDbLine
 10
1715.179267483524
 20
2059.926111576492
 30
0.0
 11
1715.179267483524
 21
2069.166345956492
 31
0.0
  0
LINE
  5
9E8
330
1F
100
AcDbEntity
  8
GEHAEUSE
  6
PUNKT
 62
     1
100
AcDbLine
 10
1715.179267483524
 20
2069.166834236493
 30
0.0
 11
1723.179145413524
 21
2073.786951426492
 31
0.0
  0
LINE
  5
9E9
330
1F
100
AcDbEntity
  8
GEHAEUSE
  6
PUNKT
 62
     1
100
AcDbLine
 10
1723.179145413524
 20
2073.787195566493
 30
0.0
 11
1731.179023343525
 21
2069.167078376492
 31
0.0
  0
LINE
  5
9EA
330
1F
100
AcDbEntity
  8
GEHAEUSE
  6
PUNKT
 62
     1
100
AcDbLine
 10
1731.179328523522
 20
2069.166834236493
 30
0.0
 11
1731.179328523522
 21
2059.926599856492
 31
0.0
  0
LINE
  5
9EB
330
1F
100
AcDbEntity
  8
GEHAEUSE
  6
PUNKT
 62
     1
100
AcDbLine
 10
1731.179328523522
 20
2059.926111576492
 30
0.0
 11
1723.179450593522
 21
2055.305994386493
 31
0.0
  0
LINE
  5
9EC
330
1F
100
AcDbEntity
  8
MASSE
  6
AUSGEZOGEN
 62
     1
100
AcDbLine
 10
1502.179999913523
 20
1020.533960696492
 30
0.0
 11
1506.095710363523
 21
1050.277368906492
 31
0.0
  0
LINE
  5
9ED
330
1F
100
AcDbEntity
  8
MASSE
  6
AUSGEZOGEN
 62
     1
100
AcDbLine
 10
1502.179999913523
 20
1020.533960696492
 30
0.0
 11
1498.264289463525
 21
1050.277368906492
 31
0.0
  0
LINE
  5
9EE
330
1F
100
AcDbEntity
  8
MASSE
  6
AUSGEZOGEN
 62
     1
100
AcDbLine
 10
1672.679877843523
 20
1020.533960696492
 30
0.0
 11
1482.179999913523
 21
1020.533960696492
 31
0.0
  0
LINE
  5
9EF
330
1F
100
AcDbEntity
  8
MASSE
  6
AUSGEZOGEN
 62
     1
100
AcDbLine
 10
1502.179999913523
 20
1020.533960696492
 30
0.0
 11
1502.179999913523
 21
1361.534021736493
 31
0.0
  0
TEXT
  5
9F0
330
1F
100
AcDbEntity
  8
MASSE
  6
AUSGEZOGEN
 62
     7
100
AcDbText
 10
1853.894111233524
 20
853.0345710464926
 30
0.0
 40
25.0
  1
 432
 41
0.66666669
  7
SIMPLEX
100
AcDbText
  0
LINE
  5
9F1
330
1F
100
AcDbEntity
  8
MASSE
  6
AUSGEZOGEN
 62
     1
100
AcDbLine
 10
2111.680244053522
 20
843.0345710464926
 30
0.0
 11
2081.936835843525
 21
839.1187995664923
 31
0.0
  0
LINE
  5
9F2
330
1F
100
AcDbEntity
  8
MASSE
  6
AUSGEZOGEN
 62
     1
100
AcDbLine
 10
2111.680244053522
 20
843.0345710464926
 30
0.0
 11
2081.936835843525
 21
846.9503425364928
 31
0.0
  0
LINE
  5
9F3
330
1F
100
AcDbEntity
  8
MASSE
  6
AUSGEZOGEN
 62
     1
100
AcDbLine
 10
1679.679755773523
 20
843.0345710464926
 30
0.0
 11
1709.423102933525
 21
839.1187995664923
 31
0.0
  0
LINE
  5
9F4
330
1F
100
AcDbEntity
  8
MASSE
  6
AUSGEZOGEN
 62
     1
100
AcDbLine
 10
1679.679755773523
 20
843.0345710464926
 30
0.0
 11
1709.423102933525
 21
846.9503425364928
 31
0.0
  0
LINE
  5
9F5
330
1F
100
AcDbEntity
  8
MASSE
  6
AUSGEZOGEN
 62
     1
100
AcDbLine
 10
1679.679755773523
 20
1013.534448976493
 30
0.0
 11
1679.679755773523
 21
823.0343879464927
 31
0.0
  0
LINE
  5
9F6
330
1F
100
AcDbEntity
  8
MASSE
  6
AUSGEZOGEN
 62
     1
100
AcDbLine
 10
1679.679755773523
 20
843.0345710464926
 30
0.0
 11
2111.679877843523
 21
843.0345710464926
 31
0.0
  0
LINE
  5
9F7
330
1F
100
AcDbEntity
  8
MASSE
  6
MITTE
 62
     1
100
AcDbLine
 10
1680.533027253526
 20
2064.546472906493
 30
0.0
 11
1876.593818273524
 21
2064.546472906493
 31
0.0
  0
LINE
  5
9F8
330
1F
100
AcDbEntity
  8
MASSE
  6
AUSGEZOGEN
 62
     1
100
AcDbLine
 10
1795.679755773523
 20
1524.656336186493
 30
0.0
 11
1975.680366123525
 21
1524.656336186493
 31
0.0
  0
LINE
  5
9F9
330
1F
100
AcDbEntity
  8
MASSE
  6
AUSGEZOGEN
 62
     1
100
AcDbLine
 10
1975.680366123525
 20
1393.146326426492
 30
0.0
 11
1975.680366123525
 21
1544.655359626492
 31
0.0
  0
LINE
  5
9FA
330
1F
100
AcDbEntity
  8
MASSE
  6
AUSGEZOGEN
 62
     1
100
AcDbLine
 10
1795.679755773523
 20
1524.656336186493
 30
0.0
 11
1825.423102933525
 21
1528.572107676492
 31
0.0
  0
LINE
  5
9FB
330
1F
100
AcDbEntity
  8
MASSE
  6
AUSGEZOGEN
 62
     1
100
AcDbLine
 10
1795.679755773523
 20
1524.656336186493
 30
0.0
 11
1825.423102933525
 21
1520.740564706492
 31
0.0
  0
LINE
  5
9FC
330
1F
100
AcDbEntity
  8
MASSE
  6
AUSGEZOGEN
 62
     1
100
AcDbLine
 10
1975.680366123525
 20
1524.656336186493
 30
0.0
 11
1945.937079983524
 21
1528.572107676492
 31
0.0
  0
LINE
  5
9FD
330
1F
100
AcDbEntity
  8
MASSE
  6
AUSGEZOGEN
 62
     1
100
AcDbLine
 10
1975.680366123525
 20
1524.656336186493
 30
0.0
 11
1945.937079983524
 21
1520.740564706492
 31
0.0
  0
TEXT
  5
9FE
330
1F
100
AcDbEntity
  8
MASSE
  6
AUSGEZOGEN
 62
     7
100
AcDbText
 10
1843.894416413525
 20
1534.656336186493
 30
0.0
 40
25.0
  1
 180
 41
0.66666669
  7
SIMPLEX
100
AcDbText
  0
LINE
  5
9FF
330
1F
100
AcDbEntity
  8
MASSE
  6
AUSGEZOGEN
 62
     1
100
AcDbLine
 10
1795.679755773523
 20
1432.880213136493
 30
0.0
 11
1795.679755773523
 21
1544.655847906492
 31
0.0
  0
LINE
  5
A00
330
1F
100
AcDbEntity
  8
MASSE
  6
AUSGEZOGEN
 62
     1
100
AcDbLine
 10
2111.680121983523
 20
1502.424890876492
 30
0.0
 11
2111.680121983523
 21
1544.656092046493
 31
0.0
  0
LINE
  5
A01
330
1F
100
AcDbEntity
  8
MASSE
  6
AUSGEZOGEN
 62
     1
100
AcDbLine
 10
1975.680366123525
 20
1524.656336186493
 30
0.0
 11
2111.679755773524
 21
1524.656336186493
 31
0.0
  0
LINE
  5
A02
330
1F
100
AcDbEntity
  8
MASSE
  6
AUSGEZOGEN
 62
     1
100
AcDbLine
 10
1975.680366123525
 20
1524.656336186493
 30
0.0
 11
2005.423652253526
 21
1528.572107676492
 31
0.0
  0
LINE
  5
A03
330
1F
100
AcDbEntity
  8
MASSE
  6
AUSGEZOGEN
 62
     1
100
AcDbLine
 10
1975.680366123525
 20
1524.656336186493
 30
0.0
 11
2005.423652253526
 21
1520.740564706492
 31
0.0
  0
LINE
  5
A04
330
1F
100
AcDbEntity
  8
MASSE
  6
AUSGEZOGEN
 62
     1
100
AcDbLine
 10
2111.680121983523
 20
1524.656336186493
 30
0.0
 11
2081.936835843525
 21
1528.572107676492
 31
0.0
  0
LINE
  5
A05
330
1F
100
AcDbEntity
  8
MASSE
  6
AUSGEZOGEN
 62
     1
100
AcDbLine
 10
2111.680121983523
 20
1524.656336186493
 30
0.0
 11
2081.936835843525
 21
1520.740564706492
 31
0.0
  0
TEXT
  5
A06
330
1F
100
AcDbEntity
  8
MASSE
  6
AUSGEZOGEN
 62
     7
100
AcDbText
 10
2001.894477453524
 20
1534.656336186493
 30
0.0
 40
25.0
  1
 136
 41
0.66666669
  7
SIMPLEX
100
AcDbText
  0
LINE
  5
A07
330
1F
100
AcDbEntity
  8
MASSE
  6
AUSGEZOGEN
 62
     1
100
AcDbLine
 10
2111.680121983523
 20
1368.534510016493
 30
0.0
 11
2111.680121983523
 21
1479.570886966493
 31
0.0
  0
LINE
  5
A08
330
1F
100
AcDbEntity
  8
MASSE
  6
AUSGEZOGEN
 62
     1
100
AcDbLine
 10
1442.179999913523
 20
1761.046717046492
 30
0.0
 11
1442.179999913523
 21
2221.046839116493
 31
0.0
  0
LINE
  5
A09
330
1F
100
AcDbEntity
  8
MASSE
  6
AUSGEZOGEN
 62
     1
100
AcDbLine
 10
1695.179877843523
 20
1761.046717046492
 30
0.0
 11
1422.179999913523
 21
1761.046717046492
 31
0.0
  0
LINE
  5
A0A
330
1F
100
AcDbEntity
  8
MASSE
  6
AUSGEZOGEN
 62
     1
100
AcDbLine
 10
1671.179938873524
 20
2221.046717046493
 30
0.0
 11
1422.179999913523
 21
2221.046717046493
 31
0.0
  0
LINE
  5
A0B
330
1F
100
AcDbEntity
  8
MASSE
  6
AUSGEZOGEN
 62
     1
100
AcDbLine
 10
1442.179999913523
 20
1761.046717046492
 30
0.0
 11
1438.264289463525
 21
1790.790125246493
 31
0.0
  0
LINE
  5
A0C
330
1F
100
AcDbEntity
  8
MASSE
  6
AUSGEZOGEN
 62
     1
100
AcDbLine
 10
1442.179999913523
 20
1761.046717046492
 30
0.0
 11
1446.095710363524
 21
1790.790125246493
 31
0.0
  0
LINE
  5
A0D
330
1F
100
AcDbEntity
  8
MASSE
  6
AUSGEZOGEN
 62
     1
100
AcDbLine
 10
1442.179999913523
 20
2221.046717046493
 30
0.0
 11
1438.264289463525
 21
2191.303308846493
 31
0.0
  0
LINE
  5
A0E
330
1F
100
AcDbEntity
  8
MASSE
  6
AUSGEZOGEN
 62
     1
100
AcDbLine
 10
1442.179999913523
 20
2221.046717046493
 30
0.0
 11
1446.095710363524
 21
2191.303308846493
 31
0.0
  0
TEXT
  5
A0F
330
1F
100
AcDbEntity
  8
MASSE
  6
AUSGEZOGEN
 62
     7
100
AcDbText
 10
1432.179999913523
 20
1949.260950446493
 30
0.0
 40
25.0
  1
 460
 50
90.0
 41
0.66666796
  7
SIMPLEX
100
AcDbText
  0
LINE
  5
A10
330
1F
100
AcDbEntity
  8
MASSE
  6
AUSGEZOGEN
 62
     1
100
AcDbLine
 10
1518.433723053525
 20
2064.546472906493
 30
0.0
 11
1518.433723053525
 21
2221.046472906492
 31
0.0
  0
LINE
  5
A11
330
1F
100
AcDbEntity
  8
MASSE
  6
AUSGEZOGEN
 62
     1
100
AcDbLine
 10
1670.533027253525
 20
2064.546472906493
 30
0.0
 11
1498.433723053525
 21
2064.546472906493
 31
0.0
  0
LINE
  5
A12
330
1F
100
AcDbEntity
  8
MASSE
  6
AUSGEZOGEN
 62
     1
100
AcDbLine
 10
1518.433723053525
 20
2064.546472906493
 30
0.0
 11
1514.518012603524
 21
2094.289881106492
 31
0.0
  0
LINE
  5
A13
330
1F
100
AcDbEntity
  8
MASSE
  6
AUSGEZOGEN
 62
     1
100
AcDbLine
 10
1518.433723053525
 20
2064.546472906493
 30
0.0
 11
1522.349433503525
 21
2094.289881106492
 31
0.0
  0
LINE
  5
A14
330
1F
100
AcDbEntity
  8
MASSE
  6
AUSGEZOGEN
 62
     1
100
AcDbLine
 10
1518.433723053525
 20
2221.046717046493
 30
0.0
 11
1514.518012603524
 21
2191.303308846493
 31
0.0
  0
LINE
  5
A15
330
1F
100
AcDbEntity
  8
MASSE
  6
AUSGEZOGEN
 62
     1
100
AcDbLine
 10
1518.433723053525
 20
2221.046717046493
 30
0.0
 11
1522.349433503525
 21
2191.303308846493
 31
0.0
  0
TEXT
  5
A16
330
1F
100
AcDbEntity
  8
MASSE
  6
AUSGEZOGEN
 62
     7
100
AcDbText
 10
1508.433723053524
 20
2109.903162356493
 30
0.0
 40
25.00002289
  1
 156
 50
90.0
 41
0.66666605
  7
SIMPLEX
100
AcDbText
  0
LINE
  5
A17
330
1F
100
AcDbEntity
  8
MASSE
  6
AUSGEZOGEN
 62
     1
100
AcDbLine
 10
2116.634345613523
 20
2221.046717046493
 30
0.0
 11
2135.908027253526
 21
2221.046717046493
 31
0.0
  0
LINE
  5
A18
330
1F
100
AcDbEntity
  8
MASSE
  6
AUSGEZOGEN
 62
     1
100
AcDbLine
 10
2127.581611233524
 20
2093.546717046493
 30
0.0
 11
2276.829902253526
 21
2093.546717046493
 31
0.0
  0
LINE
  5
A19
330
1F
100
AcDbEntity
  8
MASSE
  6
AUSGEZOGEN
 62
     1
100
AcDbLine
 10
2256.830268463525
 20
2093.546717046493
 30
0.0
 11
2256.830268463525
 21
2221.046717046493
 31
0.0
  0
LINE
  5
A1A
330
1F
100
AcDbEntity
  8
MASSE
  6
AUSGEZOGEN
 62
     1
100
AcDbLine
 10
2256.830268463525
 20
2093.546717046493
 30
0.0
 11
2252.914619053522
 21
2123.290125246493
 31
0.0
  0
LINE
  5
A1B
330
1F
100
AcDbEntity
  8
MASSE
  6
AUSGEZOGEN
 62
     1
100
AcDbLine
 10
2256.830268463525
 20
2093.546717046493
 30
0.0
 11
2260.745917883524
 21
2123.290125246493
 31
0.0
  0
LINE
  5
A1C
330
1F
100
AcDbEntity
  8
MASSE
  6
AUSGEZOGEN
 62
     1
100
AcDbLine
 10
2256.830268463525
 20
2221.046717046493
 30
0.0
 11
2252.914619053522
 21
2191.303308846493
 31
0.0
  0
LINE
  5
A1D
330
1F
100
AcDbEntity
  8
MASSE
  6
AUSGEZOGEN
 62
     1
100
AcDbLine
 10
2256.830268463525
 20
2221.046717046493
 30
0.0
 11
2260.745917883524
 21
2191.303308846493
 31
0.0
  0
TEXT
  5
A1E
330
1F
100
AcDbEntity
  8
MASSE
  6
AUSGEZOGEN
 62
     7
100
AcDbText
 10
2246.830268463525
 20
2124.403894776493
 30
0.0
 40
25.0
  1
 127
 50
90.0
 41
0.66666669
  7
SIMPLEX
100
AcDbText
  0
LINE
  5
A1F
330
1F
100
AcDbEntity
  8
MASSE
  6
AUSGEZOGEN
 62
     1
100
AcDbLine
 10
2157.414374913523
 20
2221.046717046493
 30
0.0
 11
2276.829658113523
 21
2221.046717046493
 31
0.0
  0
LINE
  5
A20
330
1F
100
AcDbEntity
  8
MASSE
  6
AUSGEZOGEN
 62
     1
100
AcDbLine
 10
2203.292670803524
 20
1832.545740486493
 30
0.0
 11
2199.377021393525
 21
1802.802332276493
 31
0.0
  0
LINE
  5
A21
330
1F
100
AcDbEntity
  8
MASSE
  6
AUSGEZOGEN
 62
     1
100
AcDbLine
 10
2203.292670803524
 20
1832.545740486493
 30
0.0
 11
2207.208320223523
 21
1802.802332276493
 31
0.0
  0
LINE
  5
A22
330
1F
100
AcDbEntity
  8
MASSE
  6
AUSGEZOGEN
 62
     1
100
AcDbLine
 10
2203.292670803524
 20
1762.545740486492
 30
0.0
 11
2207.208320223523
 21
1792.289148686492
 31
0.0
  0
LINE
  5
A23
330
1F
100
AcDbEntity
  8
MASSE
  6
AUSGEZOGEN
 62
     1
100
AcDbLine
 10
2203.292670803524
 20
1762.545740486492
 30
0.0
 11
2199.377021393525
 21
1792.289148686492
 31
0.0
  0
LINE
  5
A24
330
1F
100
AcDbEntity
  8
MASSE
  6
AUSGEZOGEN
 62
     1
100
AcDbLine
 10
2203.292670803524
 20
1762.545740486492
 30
0.0
 11
2203.292670803524
 21
1832.545740486493
 31
0.0
  0
TEXT
  5
A25
330
1F
100
AcDbEntity
  8
MASSE
  6
AUSGEZOGEN
 62
     7
100
AcDbText
 10
2190.492377843523
 20
1762.306482676492
 30
0.0
 40
25.0
  1
ca.70
 50
90.0
 41
0.66666669
  7
SIMPLEX
100
AcDbText
  0
LINE
  5
A26
330
1F
100
AcDbEntity
  8
MASSE
  6
AUSGEZOGEN
 62
     1
100
AcDbLine
 10
2011.641059483523
 20
1832.545740486493
 30
0.0
 11
2218.846870023526
 21
1832.545740486493
 31
0.0
  0
TEXT
  5
A27
330
1F
100
AcDbEntity
  8
MASSE
  6
AUSGEZOGEN
 62
     7
100
AcDbText
 10
2253.292670803524
 20
1793.259973886493
 30
0.0
 40
25.0
  1
 145
 50
90.0
 41
0.66666669
  7
SIMPLEX
100
AcDbText
  0
LINE
  5
A28
330
1F
100
AcDbEntity
  8
MASSE
  6
AUSGEZOGEN
 62
     1
100
AcDbLine
 10
2263.292670803524
 20
1907.545740486493
 30
0.0
 11
2267.208320223524
 21
1877.802332276493
 31
0.0
  0
LINE
  5
A29
330
1F
100
AcDbEntity
  8
MASSE
  6
AUSGEZOGEN
 62
     1
100
AcDbLine
 10
2263.292670803524
 20
1907.545740486493
 30
0.0
 11
2259.377021393525
 21
1877.802332276493
 31
0.0
  0
LINE
  5
A2A
330
1F
100
AcDbEntity
  8
MASSE
  6
AUSGEZOGEN
 62
     1
100
AcDbLine
 10
2263.292670803524
 20
1762.545740486492
 30
0.0
 11
2267.208320223524
 21
1792.289148686492
 31
0.0
  0
LINE
  5
A2B
330
1F
100
AcDbEntity
  8
MASSE
  6
AUSGEZOGEN
 62
     1
100
AcDbLine
 10
2263.292670803524
 20
1762.545740486492
 30
0.0
 11
2259.377021393525
 21
1792.289148686492
 31
0.0
  0
LINE
  5
A2C
330
1F
100
AcDbEntity
  8
MASSE
  6
AUSGEZOGEN
 62
     1
100
AcDbLine
 10
2263.292670803524
 20
1762.545740486492
 30
0.0
 11
2263.292670803524
 21
1907.545740486493
 31
0.0
  0
LINE
  5
A2D
330
1F
100
AcDbEntity
  8
MASSE
  6
AUSGEZOGEN
 62
     1
100
AcDbLine
 10
2009.872260653524
 20
1907.545740486493
 30
0.0
 11
2276.471015533525
 21
1907.545740486493
 31
0.0
  0
LINE
  5
A2E
330
1F
100
AcDbEntity
  8
MASSE
  6
AUSGEZOGEN
 62
     1
100
AcDbLine
 10
1960.507636633524
 20
2022.545740486493
 30
0.0
 11
2343.292670803524
 21
2022.545740486493
 31
0.0
  0
LINE
  5
A2F
330
1F
100
AcDbEntity
  8
MASSE
  6
AUSGEZOGEN
 62
     1
100
AcDbLine
 10
2100.865912993523
 20
1762.545740486492
 30
0.0
 11
2343.292670803524
 21
1762.545740486492
 31
0.0
  0
TEXT
  5
A30
330
1F
100
AcDbEntity
  8
MASSE
  6
AUSGEZOGEN
 62
     7
100
AcDbText
 10
2313.292670803524
 20
1850.759973886493
 30
0.0
 40
25.0
  1
 260
 50
90.0
 41
0.66666669
  7
SIMPLEX
100
AcDbText
  0
LINE
  5
A31
330
1F
100
AcDbEntity
  8
MASSE
  6
AUSGEZOGEN
 62
     1
100
AcDbLine
 10
2323.292670803524
 20
2022.545740486493
 30
0.0
 11
2327.208320223524
 21
1992.802332276493
 31
0.0
  0
LINE
  5
A32
330
1F
100
AcDbEntity
  8
MASSE
  6
AUSGEZOGEN
 62
     1
100
AcDbLine
 10
2323.292670803524
 20
2022.545740486493
 30
0.0
 11
2319.377021393525
 21
1992.802332276493
 31
0.0
  0
LINE
  5
A33
330
1F
100
AcDbEntity
  8
MASSE
  6
AUSGEZOGEN
 62
     1
100
AcDbLine
 10
2323.292670803524
 20
1762.545740486492
 30
0.0
 11
2327.208320223524
 21
1792.289148686492
 31
0.0
  0
LINE
  5
A34
330
1F
100
AcDbEntity
  8
MASSE
  6
AUSGEZOGEN
 62
     1
100
AcDbLine
 10
2323.292670803524
 20
1762.545740486492
 30
0.0
 11
2319.377021393525
 21
1792.289148686492
 31
0.0
  0
LINE
  5
A35
330
1F
100
AcDbEntity
  8
MASSE
  6
AUSGEZOGEN
 62
     1
100
AcDbLine
 10
2323.292670803524
 20
1762.545740486492
 30
0.0
 11
2323.292670803524
 21
2022.545862556492
 31
0.0
  0
LINE
  5
A36
330
1F
100
AcDbEntity
  8
MASSE
  6
AUSGEZOGEN
 62
     1
100
AcDbLine
 10
1702.179999913523
 20
1754.045984626492
 30
0.0
 11
1702.179999913523
 21
1657.929285406492
 31
0.0
  0
LINE
  5
A37
330
1F
100
AcDbEntity
  8
MASSE
  6
AUSGEZOGEN
 62
     1
100
AcDbLine
 10
2089.180121983523
 20
1754.045984626492
 30
0.0
 11
2089.180121983523
 21
1657.929285406492
 31
0.0
  0
LINE
  5
A38
330
1F
100
AcDbEntity
  8
MASSE
  6
AUSGEZOGEN
 62
     1
100
AcDbLine
 10
1702.179999913523
 20
1680.474207276493
 30
0.0
 11
2089.180121983523
 21
1680.474207276493
 31
0.0
  0
LINE
  5
A39
330
1F
100
AcDbEntity
  8
MASSE
  6
AUSGEZOGEN
 62
     1
100
AcDbLine
 10
1702.179999913523
 20
1680.474207276493
 30
0.0
 11
1731.923347073524
 21
1684.389978766493
 31
0.0
  0
LINE
  5
A3A
330
1F
100
AcDbEntity
  8
MASSE
  6
AUSGEZOGEN
 62
     1
100
AcDbLine
 10
1702.179999913523
 20
1680.474207276493
 30
0.0
 11
1731.923347073524
 21
1676.558435796492
 31
0.0
  0
LINE
  5
A3B
330
1F
100
AcDbEntity
  8
MASSE
  6
AUSGEZOGEN
 62
     1
100
AcDbLine
 10
2089.180121983523
 20
1680.474207276493
 30
0.0
 11
2059.436835843525
 21
1684.389978766493
 31
0.0
  0
LINE
  5
A3C
330
1F
100
AcDbEntity
  8
MASSE
  6
AUSGEZOGEN
 62
     1
100
AcDbLine
 10
2089.180121983523
 20
1680.474207276493
 30
0.0
 11
2059.436835843525
 21
1676.558435796492
 31
0.0
  0
TEXT
  5
A3D
330
1F
100
AcDbEntity
  8
MASSE
  6
AUSGEZOGEN
 62
     7
100
AcDbText
 10
1809.430121983522
 20
1690.474207276493
 30
0.0
 40
25.0
  1
 387 x 296
 41
0.66666669
  7
SIMPLEX
100
AcDbText
  0
TEXT
  5
A3E
330
1F
100
AcDbEntity
  8
MASSE
  6
AUSGEZOGEN
 62
     7
100
AcDbText
 10
2281.309028233522
 20
1268.391870856492
 30
0.0
 40
25.0
  1
 120
 50
90.0
 41
0.66666669
  7
SIMPLEX
100
AcDbText
  0
LINE
  5
A3F
330
1F
100
AcDbEntity
  8
MASSE
  6
AUSGEZOGEN
 62
     1
100
AcDbLine
 10
2291.309028233523
 20
1361.534998296493
 30
0.0
 11
2295.224677643525
 21
1331.791590096492
 31
0.0
  0
LINE
  5
A40
330
1F
100
AcDbEntity
  8
MASSE
  6
AUSGEZOGEN
 62
     1
100
AcDbLine
 10
2291.309028233523
 20
1361.534998296493
 30
0.0
 11
2287.393378813523
 21
1331.791590096492
 31
0.0
  0
LINE
  5
A41
330
1F
100
AcDbEntity
  8
MASSE
  6
AUSGEZOGEN
 62
     1
100
AcDbLine
 10
2291.309028233523
 20
1241.034448976493
 30
0.0
 11
2295.224677643525
 21
1270.777796146492
 31
0.0
  0
LINE
  5
A42
330
1F
100
AcDbEntity
  8
MASSE
  6
AUSGEZOGEN
 62
     1
100
AcDbLine
 10
2291.309028233523
 20
1241.034448976493
 30
0.0
 11
2287.393378813523
 21
1270.777796146492
 31
0.0
  0
LINE
  5
A43
330
1F
100
AcDbEntity
  8
MASSE
  6
AUSGEZOGEN
 62
     1
100
AcDbLine
 10
2118.680244053522
 20
1361.534998296493
 30
0.0
 11
2311.309028233523
 21
1361.534998296493
 31
0.0
  0
LINE
  5
A44
330
1F
100
AcDbEntity
  8
MASSE
  6
AUSGEZOGEN
 62
     1
100
AcDbLine
 10
2149.418769443525
 20
1241.034448976493
 30
0.0
 11
2311.309028233523
 21
1241.034448976493
 31
0.0
  0
LINE
  5
A45
330
1F
100
AcDbEntity
  8
MASSE
  6
AUSGEZOGEN
 62
     1
100
AcDbLine
 10
2291.309028233523
 20
1241.034448976493
 30
0.0
 11
2291.309028233523
 21
1361.534510016493
 31
0.0
  0
TEXT
  5
A46
330
1F
100
AcDbEntity
  8
MASSE
  6
AUSGEZOGEN
 62
     7
100
AcDbText
 10
1492.179999913522
 20
1149.248743416492
 30
0.0
 40
25.0
  1
 341
 50
90.0
 41
0.66666669
  7
SIMPLEX
100
AcDbText
  0
LINE
  5
A47
330
1F
100
AcDbEntity
  8
MASSE
  6
AUSGEZOGEN
 62
     1
100
AcDbLine
 10
1502.179999913523
 20
1361.533777596492
 30
0.0
 11
1506.095710363523
 21
1331.790369386492
 31
0.0
  0
LINE
  5
A48
330
1F
100
AcDbEntity
  8
MASSE
  6
AUSGEZOGEN
 62
     1
100
AcDbLine
 10
1502.179999913523
 20
1361.533777596492
 30
0.0
 11
1498.264289463525
 21
1331.790369386492
 31
0.0
  0
LINE
  5
A49
330
1F
100
AcDbEntity
  8
MASSE
  6
AUSGEZOGEN
 62
     1
100
AcDbLine
 10
1672.679877843523
 20
1361.533777596492
 30
0.0
 11
1482.179999913523
 21
1361.533777596492
 31
0.0
  0
LINE
  5
A4A
330
1F
100
AcDbEntity
  8
MASSE
  6
AUSGEZOGEN
 62
     1
100
AcDbLine
 10
2111.680244053522
 20
1013.534448976493
 30
0.0
 11
2111.680244053522
 21
823.0343879464927
 31
0.0
  0
LINE
  5
A4B
330
1F
100
AcDbEntity
  8
MITTE
  6
MITTE
 62
     1
100
AcDbLine
 10
1788.230109773522
 20
1997.545740486493
 30
0.0
 11
1802.995124423524
 21
1997.545740486493
 31
0.0
  0
LINE
  5
A4C
330
1F
100
AcDbEntity
  8
MITTE
  6
MITTE
 62
     1
100
AcDbLine
 10
1883.679999913523
 20
2154.357263926492
 30
0.0
 11
1883.679999913523
 21
2168.885828376492
 31
0.0
  0
LINE
  5
A4D
330
1F
100
AcDbEntity
  8
MITTE
  6
MITTE
 62
     1
100
AcDbLine
 10
1876.230414953524
 20
2162.545740486493
 30
0.0
 11
1890.995429593525
 21
2162.545740486493
 31
0.0
  0
LINE
  5
A4E
330
1F
100
AcDbEntity
  8
MITTE
  6
MITTE
 62
     1
100
AcDbLine
 10
1946.766181553522
 20
2064.546472906493
 30
0.0
 11
2004.197578033524
 21
2064.546472906493
 31
0.0
  0
LINE
  5
A4F
330
1F
100
AcDbEntity
  8
MITTE
  6
MITTE
 62
     1
100
AcDbLine
 10
1975.680366123525
 20
2035.343592046493
 30
0.0
 11
1975.680366123525
 21
2092.273767826492
 31
0.0
  0
LINE
  5
A50
330
1F
100
AcDbEntity
  8
LOGO2
  6
AUSGEZOGEN
 62
     1
100
AcDbLine
 10
1944.221259673523
 20
1863.951990486493
 30
0.0
 11
1943.535834873525
 21
1865.026453376492
 31
0.0
  0
LINE
  5
A51
330
1F
100
AcDbEntity
  8
LOGO2
  6
AUSGEZOGEN
 62
     1
100
AcDbLine
 10
1944.221259673523
 20
1875.425379156492
 30
0.0
 11
1943.535834873525
 21
1874.350916266493
 31
0.0
  0
ARC
  5
A52
330
1F
100
AcDbEntity
  8
LOGO2
  6
AUSGEZOGEN
 62
     1
100
AcDbCircle
 10
1941.233344633522
 20
1869.689295176492
 30
0.0
 40
6.467885019999999
100
AcDbArc
 50
62.48622130993364
 51
297.5137634300986
  0
ARC
  5
A53
330
1F
100
AcDbEntity
  8
LOGO2
  6
AUSGEZOGEN
 62
     1
100
AcDbCircle
 10
1942.524848543523
 20
1869.689295176492
 30
0.0
 40
4.77962542
100
AcDbArc
 50
77.72080231009948
 51
282.2791747999178
  0
LINE
  5
A54
330
1F
100
AcDbEntity
  8
LOGO2
  6
AUSGEZOGEN
 62
     1
100
AcDbLine
 10
1930.099311433522
 20
1876.156580326492
 30
0.0
 11
1934.223701083524
 21
1863.220789316492
 31
0.0
  0
LINE
  5
A55
330
1F
100
AcDbEntity
  8
LOGO2
  6
AUSGEZOGEN
 62
     1
100
AcDbLine
 10
1922.858100493523
 20
1863.220789316492
 30
0.0
 11
1927.172675693525
 21
1876.156580326492
 31
0.0
  0
POLYLINE
  5
A56
330
1F
100
AcDbEntity
  8
LOGO2
  6
AUSGEZOGEN
 62
     1
100
AcDb2dPolyline
 66
     1
 10
0.0
 20
0.0
 30
0.0
  0
VERTEX
  5
A57
330
A56
100
AcDbEntity
  8
LOGO2
  6
AUSGEZOGEN
 62
     1
100
AcDbVertex
100
AcDb2dVertex
 10
1948.013129793523
 20
1869.087488526493
 30
0.0
 42
0.08016688
 70
     2
 50
270.0
  0
VERTEX
  5
A58
330
A56
100
AcDbEntity
  8
LOGO2
  6
AUSGEZOGEN
 62
     1
100
AcDbVertex
100
AcDb2dVertex
 10
1948.257880773524
 20
1867.549890876492
 30
0.0
 42
0.08892263
 70
     2
 50
292.5
  0
VERTEX
  5
A59
330
A56
100
AcDbEntity
  8
LOGO2
  6
AUSGEZOGEN
 62
     1
100
AcDbVertex
100
AcDb2dVertex
 10
1948.954658113523
 20
1866.246302006492
 30
0.0
 42
0.10495682
 70
     2
 50
315.0
  0
VERTEX
  5
A5A
330
A56
100
AcDbEntity
  8
LOGO2
  6
AUSGEZOGEN
 62
     1
100
AcDbVertex
100
AcDb2dVertex
 10
1949.997504793523
 20
1865.375330326492
 30
0.0
 42
0.12001122
 70
     2
 50
337.5
  0
VERTEX
  5
A5B
330
A56
100
AcDbEntity
  8
LOGO2
  6
AUSGEZOGEN
 62
     1
100
AcDbVertex
100
AcDb2dVertex
 10
1951.227607333524
 20
1865.069422126492
 30
0.0
 42
0.12001122
 70
     2
  0
VERTEX
  5
A5C
330
A56
100
AcDbEntity
  8
LOGO2
  6
AUSGEZOGEN
 62
     1
100
AcDbVertex
100
AcDb2dVertex
 10
1952.457709873525
 20
1865.375330326492
 30
0.0
 42
0.10495682
 70
     2
 50
22.5
  0
VERTEX
  5
A5D
330
A56
100
AcDbEntity
  8
LOGO2
  6
AUSGEZOGEN
 62
     1
100
AcDbVertex
100
AcDb2dVertex
 10
1953.500556553522
 20
1866.246302006492
 30
0.0
 42
0.08892266
 70
     2
 50
45.00003051999999
  0
VERTEX
  5
A5E
330
A56
100
AcDbEntity
  8
LOGO2
  6
AUSGEZOGEN
 62
     1
100
AcDbVertex
100
AcDb2dVertex
 10
1954.197333893525
 20
1867.549890876492
 30
0.0
 42
0.08016685
 70
     2
 50
67.5
  0
VERTEX
  5
A5F
330
A56
100
AcDbEntity
  8
LOGO2
  6
AUSGEZOGEN
 62
     1
100
AcDbVertex
100
AcDb2dVertex
 10
1954.442084873525
 20
1869.087488526493
 30
0.0
 50
67.5
  0
SEQEND
  5
A60
330
A56
100
AcDbEntity
  8
LOGO2
 62
     1
  0
POLYLINE
  5
A61
330
1F
100
AcDbEntity
  8
LOGO2
  6
AUSGEZOGEN
 62
     1
100
AcDb2dPolyline
 66
     1
 10
0.0
 20
0.0
 30
0.0
  0
VERTEX
  5
A62
330
A61
100
AcDbEntity
  8
LOGO2
  6
AUSGEZOGEN
 62
     1
100
AcDbVertex
100
AcDb2dVertex
 10
1954.442084873525
 20
1870.291101816492
 30
0.0
 42
0.08016685
 70
     2
 50
90.0
  0
VERTEX
  5
A63
330
A61
100
AcDbEntity
  8
LOGO2
  6
AUSGEZOGEN
 62
     1
100
AcDbVertex
100
AcDb2dVertex
 10
1954.197333893525
 20
1871.828699466493
 30
0.0
 42
0.0889228
 70
     2
 50
112.5
  0
VERTEX
  5
A64
330
A61
100
AcDbEntity
  8
LOGO2
  6
AUSGEZOGEN
 62
     1
100
AcDbVertex
100
AcDb2dVertex
 10
1953.500556553522
 20
1873.132288336493
 30
0.0
 42
0.10495669
 70
     2
 50
135.00003052
  0
VERTEX
  5
A65
330
A61
100
AcDbEntity
  8
LOGO2
  6
AUSGEZOGEN
 62
     1
100
AcDbVertex
100
AcDb2dVertex
 10
1952.457709873525
 20
1874.003260016493
 30
0.0
 42
0.12001122
 70
     2
 50
157.5
  0
VERTEX
  5
A66
330
A61
100
AcDbEntity
  8
LOGO2
  6
AUSGEZOGEN
 62
     1
100
AcDbVertex
100
AcDb2dVertex
 10
1951.227607333524
 20
1874.309168216493
 30
0.0
 42
0.12001122
 70
     2
 50
180.0
  0
VERTEX
  5
A67
330
A61
100
AcDbEntity
  8
LOGO2
  6
AUSGEZOGEN
 62
     1
100
AcDbVertex
100
AcDb2dVertex
 10
1949.997504793523
 20
1874.003260016493
 30
0.0
 42
0.10495674
 70
     2
 50
202.5
  0
VERTEX
  5
A68
330
A61
100
AcDbEntity
  8
LOGO2
  6
AUSGEZOGEN
 62
     1
100
AcDbVertex
100
AcDb2dVertex
 10
1948.954658113523
 20
1873.132288336493
 30
0.0
 42
0.08892266
 70
     2
 50
225.0
  0
VERTEX
  5
A69
330
A61
100
AcDbEntity
  8
LOGO2
  6
AUSGEZOGEN
 62
     1
100
AcDbVertex
100
AcDb2dVertex
 10
1948.257880773524
 20
1871.828699466493
 30
0.0
 42
0.08016688
 70
     2
 50
247.5
  0
VERTEX
  5
A6A
330
A61
100
AcDbEntity
  8
LOGO2
  6
AUSGEZOGEN
 62
     1
100
AcDbVertex
100
AcDb2dVertex
 10
1948.013129793523
 20
1870.291101816492
 30
0.0
 50
247.5
  0
SEQEND
  5
A6B
330
A61
100
AcDbEntity
  8
LOGO2
 62
     1
  0
LINE
  5
A6C
330
1F
100
AcDbEntity
  8
LOGO2
  6
AUSGEZOGEN
 62
     1
100
AcDbLine
 10
1948.013251863523
 20
1870.291101816492
 30
0.0
 11
1948.013251863523
 21
1869.086756106492
 31
0.0
  0
LINE
  5
A6D
330
1F
100
AcDbEntity
  8
LOGO2
  6
AUSGEZOGEN
 62
     1
100
AcDbLine
 10
1954.442084873525
 20
1870.291101816492
 30
0.0
 11
1954.442084873525
 21
1869.086756106492
 31
0.0
  0
CIRCLE
  5
A6E
330
1F
100
AcDbEntity
  8
LOGO2
  6
AUSGEZOGEN
 62
     1
100
AcDbCircle
 10
1951.227607333524
 20
1869.689295176492
 30
0.0
 40
6.46788406
  0
LINE
  5
A6F
330
1F
100
AcDbEntity
  8
LOGO2
  6
AUSGEZOGEN
 62
     1
100
AcDbLine
 10
1925.719428623525
 20
1867.058679936493
 30
0.0
 11
1928.234443273523
 21
1874.598841066493
 31
0.0
  0
LINE
  5
A70
330
1F
100
AcDbEntity
  8
LOGO2
  6
AUSGEZOGEN
 62
     1
100
AcDbLine
 10
1928.234077053524
 20
1874.598963136493
 30
0.0
 11
1930.638251863523
 21
1867.058679936493
 31
0.0
  0
LINE
  5
A71
330
1F
100
AcDbEntity
  8
LOGO2
  6
AUSGEZOGEN
 62
     1
100
AcDbLine
 10
1925.719428623525
 20
1867.058679936493
 30
0.0
 11
1930.638496003525
 21
1867.058679936493
 31
0.0
  0
LINE
  5
A72
330
1F
100
AcDbEntity
  8
LOGO2
  6
AUSGEZOGEN
 62
     1
100
AcDbLine
 10
1925.218940343523
 20
1865.558435796492
 30
0.0
 11
1931.116767483524
 21
1865.558435796492
 31
0.0
  0
LINE
  5
A73
330
1F
100
AcDbEntity
  8
LOGO2
  6
AUSGEZOGEN
 62
     1
100
AcDbLine
 10
1931.116767483524
 20
1865.558435796492
 30
0.0
 11
1931.862372953522
 21
1863.220545176492
 31
0.0
  0
LINE
  5
A74
330
1F
100
AcDbEntity
  8
LOGO2
  6
AUSGEZOGEN
 62
     1
100
AcDbLine
 10
1924.439277253526
 20
1863.220789316492
 30
0.0
 11
1925.219062413523
 21
1865.558679936493
 31
0.0
  0
LINE
  5
A75
330
1F
100
AcDbEntity
  8
LOGO2
  6
AUSGEZOGEN
 62
     1
100
AcDbLine
 10
1927.172431553522
 20
1876.156580326492
 30
0.0
 11
1930.099433503525
 21
1876.156580326492
 31
0.0
  0
LINE
  5
A76
330
1F
100
AcDbEntity
  8
LOGO2
  6
AUSGEZOGEN
 62
     1
100
AcDbLine
 10
1922.858100493523
 20
1863.220789316492
 30
0.0
 11
1924.439521393525
 21
1863.220789316492
 31
0.0
  0
LINE
  5
A77
330
1F
100
AcDbEntity
  8
LOGO2
  6
AUSGEZOGEN
 62
     1
100
AcDbLine
 10
1934.224067293523
 20
1863.220789316492
 30
0.0
 11
1931.862617093525
 21
1863.220789316492
 31
0.0
  0
LINE
  5
A78
330
1F
100
AcDbEntity
  8
LOGO2
  6
AUSGEZOGEN
 62
     1
100
AcDbLine
 10
1903.602119053522
 20
1880.559656496492
 30
0.0
 11
1903.602119053522
 21
1867.963465096493
 31
0.0
  0
LINE
  5
A79
330
1F
100
AcDbEntity
  8
LOGO2
  6
AUSGEZOGEN
 62
     1
100
AcDbLine
 10
1907.720161043523
 20
1880.559656496492
 30
0.0
 11
1903.602119053522
 21
1880.559656496492
 31
0.0
  0
LINE
  5
A7A
330
1F
100
AcDbEntity
  8
LOGO2
  6
AUSGEZOGEN
 62
     1
100
AcDbLine
 10
1907.720161043523
 20
1867.963220956492
 30
0.0
 11
1907.720161043523
 21
1880.559412356492
 31
0.0
  0
LINE
  5
A7B
330
1F
100
AcDbEntity
  8
LOGO2
  6
AUSGEZOGEN
 62
     1
100
AcDbLine
 10
1903.602119053522
 20
1867.963220956492
 30
0.0
 11
1907.720161043523
 21
1867.963220956492
 31
0.0
  0
LINE
  5
A7C
330
1F
100
AcDbEntity
  8
LOGO2
  6
AUSGEZOGEN
 62
     1
100
AcDbLine
 10
1910.285468663523
 20
1880.559656496492
 30
0.0
 11
1910.285468663523
 21
1867.963465096493
 31
0.0
  0
LINE
  5
A7D
330
1F
100
AcDbEntity
  8
LOGO2
  6
AUSGEZOGEN
 62
     1
100
AcDbLine
 10
1914.403510653524
 20
1880.559656496492
 30
0.0
 11
1910.285468663523
 21
1880.559656496492
 31
0.0
  0
LINE
  5
A7E
330
1F
100
AcDbEntity
  8
LOGO2
  6
AUSGEZOGEN
 62
     1
100
AcDbLine
 10
1914.403510653524
 20
1867.963220956492
 30
0.0
 11
1914.403510653524
 21
1880.559412356492
 31
0.0
  0
LINE
  5
A7F
330
1F
100
AcDbEntity
  8
LOGO2
  6
AUSGEZOGEN
 62
     1
100
AcDbLine
 10
1910.285468663523
 20
1867.963220956492
 30
0.0
 11
1914.403510653524
 21
1867.963220956492
 31
0.0
  0
LINE
  5
A80
330
1F
100
AcDbEntity
  8
LOGO2
  6
AUSGEZOGEN
 62
     1
100
AcDbLine
 10
1916.968818273523
 20
1880.559656496492
 30
0.0
 11
1916.968818273523
 21
1867.963465096493
 31
0.0
  0
LINE
  5
A81
330
1F
100
AcDbEntity
  8
LOGO2
  6
AUSGEZOGEN
 62
     1
100
AcDbLine
 10
1921.086860263525
 20
1880.559656496492
 30
0.0
 11
1916.968818273523
 21
1880.559656496492
 31
0.0
  0
LINE
  5
A82
330
1F
100
AcDbEntity
  8
LOGO2
  6
AUSGEZOGEN
 62
     1
100
AcDbLine
 10
1921.086860263525
 20
1867.963220956492
 30
0.0
 11
1921.086860263525
 21
1880.559412356492
 31
0.0
  0
LINE
  5
A83
330
1F
100
AcDbEntity
  8
LOGO2
  6
AUSGEZOGEN
 62
     1
100
AcDbLine
 10
1916.968818273523
 20
1867.963220956492
 30
0.0
 11
1921.086860263525
 21
1867.963220956492
 31
0.0
  0
TEXT
  5
A84
330
1F
100
AcDbEntity
  8
LOGO2
  6
AUSGEZOGEN
 62
     1
100
AcDbText
 10
1960.906806553522
 20
1863.336756106492
 30
0.0
 40
10.0
  1
passavant
 41
0.57244445
100
AcDbText
  0
TEXT
  5
A85
330
1F
100
AcDbEntity
  8
LOGO2
  6
AUSGEZOGEN
 62
     1
100
AcDbText
 10
1922.191230383524
 20
1854.740564706492
 30
0.0
 40
5.0
  1
AWK Abwassertechnik
 41
0.7155591300000001
  7
COMPLEX
100
AcDbText
  0
LINE
  5
A86
330
1F
100
AcDbEntity
  8
PUMPE
  6
AUSGEZOGEN
 62
     1
100
AcDbLine
 10
1993.179755773524
 20
2043.546717046493
 30
0.0
 11
2042.179755773524
 21
2043.546717046493
 31
0.0
  0
LINE
  5
A87
330
1F
100
AcDbEntity
  8
PUMPE
  6
AUSGEZOGEN
 62
     1
100
AcDbLine
 10
2042.179999913523
 20
2033.546717046493
 30
0.0
 11
1993.179999913523
 21
2033.546717046493
 31
0.0
  0
LINE
  5
A88
330
1F
100
AcDbEntity
  8
PUMPE
  6
AUSGEZOGEN
 62
     1
100
AcDbLine
 10
1994.152656163523
 20
2043.546717046493
 30
0.0
 11
1994.152656163523
 21
2033.546717046493
 31
0.0
  0
LINE
  5
A89
330
1F
100
AcDbEntity
  8
PUMPE
  6
AUSGEZOGEN
 62
     1
100
AcDbLine
 10
2041.207099523524
 20
2043.546717046493
 30
0.0
 11
2041.207099523524
 21
2033.546717046493
 31
0.0
  0
LINE
  5
A8A
330
1F
100
AcDbEntity
  8
PUMPE
  6
AUSGEZOGEN
 62
     1
100
AcDbLine
 10
2067.679877843523
 20
2118.046228766493
 30
0.0
 11
2067.679877843523
 21
2069.046228766493
 31
0.0
  0
LINE
  5
A8B
330
1F
100
AcDbEntity
  8
PUMPE
  6
AUSGEZOGEN
 62
     1
100
AcDbLine
 10
2077.679877843523
 20
2069.047205326492
 30
0.0
 11
2077.679877843523
 21
2118.047205326492
 31
0.0
  0
LINE
  5
A8C
330
1F
100
AcDbEntity
  8
PUMPE
  6
AUSGEZOGEN
 62
     1
100
AcDbLine
 10
2067.679877843523
 20
2117.074549076492
 30
0.0
 11
2077.679877843523
 21
2117.074549076492
 31
0.0
  0
LINE
  5
A8D
330
1F
100
AcDbEntity
  8
PUMPE
  6
AUSGEZOGEN
 62
     1
100
AcDbLine
 10
2067.679877843523
 20
2070.018885016493
 30
0.0
 11
2077.679877843523
 21
2070.018885016493
 31
0.0
  0
LINE
  5
A8E
330
1F
100
AcDbEntity
  8
PUMPE
  6
AUSGEZOGEN
 62
     1
100
AcDbLine
 10
1883.174872953522
 20
1936.564295176492
 30
0.0
 11
1966.192451083524
 21
1936.564295176492
 31
0.0
  0
LINE
  5
A8F
330
1F
100
AcDbEntity
  8
PUMPE
  6
AUSGEZOGEN
 62
     1
100
AcDbLine
 10
1885.737495023525
 20
1936.564295176492
 30
0.0
 11
1885.737495023525
 21
1935.064295176492
 31
0.0
  0
LINE
  5
A90
330
1F
100
AcDbEntity
  8
PUMPE
  6
AUSGEZOGEN
 62
     1
100
AcDbLine
 10
1883.124824133524
 20
1935.064051026493
 30
0.0
 11
1966.192451083524
 21
1935.064051026493
 31
0.0
  0
LINE
  5
A91
330
1F
100
AcDbEntity
  8
PUMPE
  6
AUSGEZOGEN
 62
     1
100
AcDbLine
 10
2047.521796783524
 20
1936.564295176492
 30
0.0
 11
2047.521796783524
 21
1935.064295176492
 31
0.0
  0
LINE
  5
A92
330
1F
100
AcDbEntity
  8
PUMPE
  6
AUSGEZOGEN
 62
     1
100
AcDbLine
 10
2050.085273343525
 20
1936.564295176492
 30
0.0
 11
1967.066474523523
 21
1936.564295176492
 31
0.0
  0
LINE
  5
A93
330
1F
100
AcDbEntity
  8
PUMPE
  6
AUSGEZOGEN
 62
     1
100
AcDbLine
 10
2042.973456943525
 20
1762.546961186493
 30
0.0
 11
2050.220161043523
 21
1796.046961186493
 31
0.0
  0
LINE
  5
A94
330
1F
100
AcDbEntity
  8
PUMPE
  6
AUSGEZOGEN
 62
     1
100
AcDbLine
 10
2040.875068273523
 20
1762.546961186493
 30
0.0
 11
2047.709540923523
 21
1796.046961186493
 31
0.0
  0
LINE
  5
A95
330
1F
100
AcDbEntity
  8
PUMPE
  6
AUSGEZOGEN
 62
     1
100
AcDbLine
 10
2022.162299713524
 20
1762.546961186493
 30
0.0
 11
2028.570380773524
 21
1796.046961186493
 31
0.0
  0
LINE
  5
A96
330
1F
100
AcDbEntity
  8
PUMPE
  6
AUSGEZOGEN
 62
     1
100
AcDbLine
 10
2018.328681553522
 20
1762.546961186493
 30
0.0
 11
2024.007148343525
 21
1796.046961186493
 31
0.0
  0
LINE
  5
A97
330
1F
100
AcDbEntity
  8
PUMPE
  6
AUSGEZOGEN
 62
     1
100
AcDbLine
 10
2010.486884673523
 20
1762.546961186493
 30
0.0
 11
2015.537177643525
 21
1796.046961186493
 31
0.0
  0
LINE
  5
A98
330
1F
100
AcDbEntity
  8
PUMPE
  6
AUSGEZOGEN
 62
     1
100
AcDbLine
 10
2005.229316313523
 20
1762.546961186493
 30
0.0
 11
2009.290595613523
 21
1796.046961186493
 31
0.0
  0
LINE
  5
A99
330
1F
100
AcDbEntity
  8
PUMPE
  6
AUSGEZOGEN
 62
     1
100
AcDbLine
 10
1995.294623933522
 20
1762.546961186493
 30
0.0
 11
1998.577704983524
 21
1796.046961186493
 31
0.0
  0
LINE
  5
A9A
330
1F
100
AcDbEntity
  8
PUMPE
  6
AUSGEZOGEN
 62
     1
100
AcDbLine
 10
1989.036689363523
 20
1762.546961186493
 30
0.0
 11
1991.153388583524
 21
1796.046961186493
 31
0.0
  0
LINE
  5
A9B
330
1F
100
AcDbEntity
  8
PUMPE
  6
AUSGEZOGEN
 62
     1
100
AcDbLine
 10
1979.066962803522
 20
1762.546961186493
 30
0.0
 11
1979.066962803522
 21
1796.046961186493
 31
0.0
  0
LINE
  5
A9C
330
1F
100
AcDbEntity
  8
PUMPE
  6
AUSGEZOGEN
 62
     1
100
AcDbLine
 10
1971.066962803522
 20
1762.546961186493
 30
0.0
 11
1971.066962803522
 21
1796.046961186493
 31
0.0
  0
LINE
  5
A9D
330
1F
100
AcDbEntity
  8
PUMPE
  6
AUSGEZOGEN
 62
     1
100
AcDbLine
 10
2041.996894443525
 20
1768.047449466493
 30
0.0
 11
2044.162421783525
 21
1768.047449466493
 31
0.0
  0
LINE
  5
A9E
330
1F
100
AcDbEntity
  8
PUMPE
  6
AUSGEZOGEN
 62
     1
100
AcDbLine
 10
2047.067084873525
 20
1762.546961186493
 30
0.0
 11
2054.130683503526
 21
1796.046961186493
 31
0.0
  0
LINE
  5
A9F
330
1F
100
AcDbEntity
  8
PUMPE
  6
AUSGEZOGEN
 62
     1
100
AcDbLine
 10
1886.194037993523
 20
1762.546961186493
 30
0.0
 11
1879.130439363523
 21
1796.046961186493
 31
0.0
  0
LINE
  5
AA0
330
1F
100
AcDbEntity
  8
PUMPE
  6
AUSGEZOGEN
 62
     1
100
AcDbLine
 10
1989.384589753526
 20
1768.047449466493
 30
0.0
 11
1995.833320223523
 21
1768.047449466493
 31
0.0
  0
LINE
  5
AA1
330
1F
100
AcDbEntity
  8
PUMPE
  6
AUSGEZOGEN
 62
     1
100
AcDbLine
 10
2005.895820223523
 20
1768.047449466493
 30
0.0
 11
2011.316352453524
 21
1768.047449466493
 31
0.0
  0
LINE
  5
AA2
330
1F
100
AcDbEntity
  8
PUMPE
  6
AUSGEZOGEN
 62
     1
100
AcDbLine
 10
2019.261298733524
 20
1768.047449466493
 30
0.0
 11
2023.214545803524
 21
1768.047449466493
 31
0.0
  0
LINE
  5
AA3
330
1F
100
AcDbEntity
  8
PUMPE
  6
AUSGEZOGEN
 62
     1
100
AcDbLine
 10
1971.066962803522
 20
1768.047449466493
 30
0.0
 11
1979.066840733522
 21
1768.047449466493
 31
0.0
  0
LINE
  5
AA4
330
1F
100
AcDbEntity
  8
PUMPE
  6
AUSGEZOGEN
 62
     1
100
AcDbLine
 10
1879.329658113523
 20
1802.047693606492
 30
0.0
 11
1966.192451083524
 21
1802.047693606492
 31
0.0
  0
LINE
  5
AA5
330
1F
100
AcDbEntity
  8
PUMPE
  6
AUSGEZOGEN
 62
     1
100
AcDbLine
 10
2033.819404203522
 20
1762.546961186493
 30
0.0
 11
2041.066474523523
 21
1796.046961186493
 31
0.0
  0
LINE
  5
AA6
330
1F
100
AcDbEntity
  8
PUMPE
  6
AUSGEZOGEN
 62
     1
100
AcDbLine
 10
2029.720893463525
 20
1762.546961186493
 30
0.0
 11
2036.555244053522
 21
1796.046961186493
 31
0.0
  0
LINE
  5
AA7
330
1F
100
AcDbEntity
  8
PUMPE
  6
AUSGEZOGEN
 62
     1
100
AcDbLine
 10
1962.192451083524
 20
1762.546961186493
 30
0.0
 11
1962.192451083524
 21
1796.046961186493
 31
0.0
  0
LINE
  5
AA8
330
1F
100
AcDbEntity
  8
PUMPE
  6
AUSGEZOGEN
 62
     1
100
AcDbLine
 10
1954.192695223524
 20
1762.546961186493
 30
0.0
 11
1954.192695223524
 21
1796.046961186493
 31
0.0
  0
LINE
  5
AA9
330
1F
100
AcDbEntity
  8
PUMPE
  6
AUSGEZOGEN
 62
     1
100
AcDbLine
 10
1944.221625883522
 20
1762.546961186493
 30
0.0
 11
1942.104926663525
 21
1796.046961186493
 31
0.0
  0
LINE
  5
AAA
330
1F
100
AcDbEntity
  8
PUMPE
  6
AUSGEZOGEN
 62
     1
100
AcDbLine
 10
1937.964912023523
 20
1762.546961186493
 30
0.0
 11
1934.681830963524
 21
1796.046961186493
 31
0.0
  0
LINE
  5
AAB
330
1F
100
AcDbEntity
  8
PUMPE
  6
AUSGEZOGEN
 62
     1
100
AcDbLine
 10
1928.031440343523
 20
1762.546961186493
 30
0.0
 11
1923.969550693525
 21
1796.046961186493
 31
0.0
  0
LINE
  5
AAC
330
1F
100
AcDbEntity
  8
PUMPE
  6
AUSGEZOGEN
 62
     1
100
AcDbLine
 10
1922.773505773523
 20
1762.546961186493
 30
0.0
 11
1917.723701083524
 21
1796.046961186493
 31
0.0
  0
LINE
  5
AAD
330
1F
100
AcDbEntity
  8
PUMPE
  6
AUSGEZOGEN
 62
     1
100
AcDbLine
 10
1914.929267483524
 20
1762.546961186493
 30
0.0
 11
1909.251777253525
 21
1796.046961186493
 31
0.0
  0
LINE
  5
AAE
330
1F
100
AcDbEntity
  8
PUMPE
  6
AUSGEZOGEN
 62
     1
100
AcDbLine
 10
1911.096259673523
 20
1762.546961186493
 30
0.0
 11
1904.688178623525
 21
1796.046961186493
 31
0.0
  0
LINE
  5
AAF
330
1F
100
AcDbEntity
  8
PUMPE
  6
AUSGEZOGEN
 62
     1
100
AcDbLine
 10
1903.539252843523
 20
1762.546961186493
 30
0.0
 11
1896.704841213524
 21
1796.046961186493
 31
0.0
  0
LINE
  5
AB0
330
1F
100
AcDbEntity
  8
PUMPE
  6
AUSGEZOGEN
 62
     1
100
AcDbLine
 10
1899.440742093525
 20
1762.546961186493
 30
0.0
 11
1892.193732823523
 21
1796.046961186493
 31
0.0
  0
LINE
  5
AB1
330
1F
100
AcDbEntity
  8
PUMPE
  6
AUSGEZOGEN
 62
     1
100
AcDbLine
 10
1892.776557523525
 20
1762.546961186493
 30
0.0
 11
1885.942206943525
 21
1796.046961186493
 31
0.0
  0
LINE
  5
AB2
330
1F
100
AcDbEntity
  8
PUMPE
  6
AUSGEZOGEN
 62
     1
100
AcDbLine
 10
1890.678168853524
 20
1762.546961186493
 30
0.0
 11
1883.431220613523
 21
1796.046961186493
 31
0.0
  0
LINE
  5
AB3
330
1F
100
AcDbEntity
  8
PUMPE
  6
AUSGEZOGEN
 62
     1
100
AcDbLine
 10
2035.008979403524
 20
1768.047449466493
 30
0.0
 11
2030.843329983524
 21
1768.047449466493
 31
0.0
  0
LINE
  5
AB4
330
1F
100
AcDbEntity
  8
PUMPE
  6
AUSGEZOGEN
 62
     1
100
AcDbLine
 10
1898.251166903524
 20
1768.047449466493
 30
0.0
 11
1902.416816313523
 21
1768.047449466493
 31
0.0
  0
LINE
  5
AB5
330
1F
100
AcDbEntity
  8
PUMPE
  6
AUSGEZOGEN
 62
     1
100
AcDbLine
 10
1889.488349523523
 20
1768.047449466493
 30
0.0
 11
1891.653876863523
 21
1768.047449466493
 31
0.0
  0
LINE
  5
AB6
330
1F
100
AcDbEntity
  8
PUMPE
  6
AUSGEZOGEN
 62
     1
100
AcDbLine
 10
1962.192451083524
 20
1796.047937746493
 30
0.0
 11
1954.192573153524
 21
1796.047937746493
 31
0.0
  0
LINE
  5
AB7
330
1F
100
AcDbEntity
  8
PUMPE
  6
AUSGEZOGEN
 62
     1
100
AcDbLine
 10
1910.044013583524
 20
1768.047449466493
 30
0.0
 11
1913.997260653524
 21
1768.047449466493
 31
0.0
  0
LINE
  5
AB8
330
1F
100
AcDbEntity
  8
PUMPE
  6
AUSGEZOGEN
 62
     1
100
AcDbLine
 10
1921.944404203522
 20
1768.047449466493
 30
0.0
 11
1927.364936433522
 21
1768.047449466493
 31
0.0
  0
LINE
  5
AB9
330
1F
100
AcDbEntity
  8
PUMPE
  6
AUSGEZOGEN
 62
     1
100
AcDbLine
 10
1937.425971593523
 20
1768.047449466493
 30
0.0
 11
1943.874579983524
 21
1768.047449466493
 31
0.0
  0
LINE
  5
ABA
330
1F
100
AcDbEntity
  8
PUMPE
  6
AUSGEZOGEN
 62
     1
100
AcDbLine
 10
1954.192695223524
 20
1768.047449466493
 30
0.0
 11
1962.192573153524
 21
1768.047449466493
 31
0.0
  0
LINE
  5
ABB
330
1F
100
AcDbEntity
  8
PUMPE
  6
AUSGEZOGEN
 62
     1
100
AcDbLine
 10
1979.066962803522
 20
2040.969812746493
 30
0.0
 11
1979.066962803522
 21
2048.087976816492
 31
0.0
  0
ARC
  5
ABC
330
1F
100
AcDbEntity
  8
PUMPE
  6
AUSGEZOGEN
 62
     1
100
AcDbCircle
 10
1980.566840733522
 20
2048.088953376492
 30
0.0
 40
1.49999988
100
AcDbArc
 50
90.00000762997665
 51
180.0
  0
ARC
  5
ABD
330
1F
100
AcDbEntity
  8
PUMPE
  6
AUSGEZOGEN
 62
     1
100
AcDbCircle
 10
1952.606025303522
 20
2048.088953376492
 30
0.0
 40
1.50000727
100
AcDbArc
 50
89.99997711007008
 51
176.5661468499982
  0
ARC
  5
ABE
330
1F
100
AcDbEntity
  8
PUMPE
  6
AUSGEZOGEN
 62
     1
100
AcDbCircle
 10
1952.692939363523
 20
2048.088953376492
 30
0.0
 40
1.49999988
100
AcDbArc
 50
359.9999694799892
 51
90.0
  0
LINE
  5
ABF
330
1F
100
AcDbEntity
  8
PUMPE
  6
AUSGEZOGEN
 62
     1
100
AcDbLine
 10
1954.192939363523
 20
2040.969812746493
 30
0.0
 11
1954.192939363523
 21
2048.087976816492
 31
0.0
  0
ARC
  5
AC0
330
1F
100
AcDbEntity
  8
PUMPE
  6
AUSGEZOGEN
 62
     1
100
AcDbCircle
 10
1980.653876863523
 20
2048.088953376492
 30
0.0
 40
1.50000727
100
AcDbArc
 50
3.433815240021016
 51
90.00003051990656
  0
LINE
  5
AC1
330
1F
100
AcDbEntity
  8
PUMPE
  6
AUSGEZOGEN
 62
     1
100
AcDbLine
 10
1966.630439363523
 20
2043.088953376492
 30
0.0
 11
1954.193915923523
 21
2043.088953376492
 31
0.0
  0
LINE
  5
AC2
330
1F
100
AcDbEntity
  8
PUMPE
  6
AUSGEZOGEN
 62
     1
100
AcDbLine
 10
1966.630439363523
 20
2043.088953376492
 30
0.0
 11
1979.066962803522
 21
2043.088953376492
 31
0.0
  0
LINE
  5
AC3
330
1F
100
AcDbEntity
  8
PUMPE
  6
AUSGEZOGEN
 62
     1
100
AcDbLine
 10
1982.150458893525
 20
2048.178064706493
 30
0.0
 11
1985.035956943525
 21
1999.588220956492
 31
0.0
  0
LINE
  5
AC4
330
1F
100
AcDbEntity
  8
PUMPE
  6
AUSGEZOGEN
 62
     1
100
AcDbLine
 10
1951.108466703522
 20
2048.178064706493
 30
0.0
 11
1948.222724523524
 21
1999.588220956492
 31
0.0
  0
LINE
  5
AC5
330
1F
100
AcDbEntity
  8
PUMPE
  6
AUSGEZOGEN
 62
     1
100
AcDbLine
 10
1885.496039953524
 20
1999.589197516493
 30
0.0
 11
1948.222724523524
 21
1999.589197516493
 31
0.0
  0
LINE
  5
AC6
330
1F
100
AcDbEntity
  8
PUMPE
  6
AUSGEZOGEN
 62
     1
100
AcDbLine
 10
1985.065742093525
 20
1999.589197516493
 30
0.0
 11
2047.764106353524
 21
1999.589197516493
 31
0.0
  0
LINE
  5
AC7
330
1F
100
AcDbEntity
  8
PUMPE
  6
AUSGEZOGEN
 62
     1
100
AcDbLine
 10
2050.135322173524
 20
1935.064051026493
 30
0.0
 11
1967.067695223524
 21
1935.064051026493
 31
0.0
  0
LINE
  5
AC8
330
1F
100
AcDbEntity
  8
PUMPE
  6
AUSGEZOGEN
 62
     1
100
AcDbLine
 10
1998.577704983524
 20
1796.047937746493
 30
0.0
 11
1991.153998933522
 21
1796.047937746493
 31
0.0
  0
LINE
  5
AC9
330
1F
100
AcDbEntity
  8
PUMPE
  6
AUSGEZOGEN
 62
     1
100
AcDbLine
 10
2015.536323153524
 20
1796.047937746493
 30
0.0
 11
2009.289619053522
 21
1796.047937746493
 31
0.0
  0
LINE
  5
ACA
330
1F
100
AcDbEntity
  8
PUMPE
  6
AUSGEZOGEN
 62
     1
100
AcDbLine
 10
2028.570380773524
 20
1796.047937746493
 30
0.0
 11
2024.007392483524
 21
1796.047937746493
 31
0.0
  0
LINE
  5
ACB
330
1F
100
AcDbEntity
  8
PUMPE
  6
AUSGEZOGEN
 62
     1
100
AcDbLine
 10
1979.066596593523
 20
1796.047937746493
 30
0.0
 11
1971.066718663523
 21
1796.047937746493
 31
0.0
  0
LINE
  5
ACC
330
1F
100
AcDbEntity
  8
PUMPE
  6
AUSGEZOGEN
 62
     1
100
AcDbLine
 10
2054.130073153524
 20
1802.047693606492
 30
0.0
 11
1967.066474523523
 21
1802.047693606492
 31
0.0
  0
LINE
  5
ACD
330
1F
100
AcDbEntity
  8
PUMPE
  6
AUSGEZOGEN
 62
     1
100
AcDbLine
 10
2050.218940343523
 20
1796.047937746493
 30
0.0
 11
2047.708564363523
 21
1796.047937746493
 31
0.0
  0
LINE
  5
ACE
330
1F
100
AcDbEntity
  8
DIN84
  6
AUSGEZOGEN
 62
     1
100
AcDbLine
 10
2012.379584873525
 20
2037.971765876492
 30
0.0
 11
2014.179511633524
 21
2037.971765876492
 31
0.0
  0
LINE
  5
ACF
330
1F
100
AcDbEntity
  8
DIN84
  6
AUSGEZOGEN
 62
     1
100
AcDbLine
 10
2014.180121983523
 20
2037.971765876492
 30
0.0
 11
2014.180121983523
 21
2039.171472906493
 31
0.0
  0
LINE
  5
AD0
330
1F
100
AcDbEntity
  8
DIN84
  6
AUSGEZOGEN
 62
     1
100
AcDbLine
 10
2014.180121983523
 20
2039.171717046492
 30
0.0
 11
2012.380195223524
 21
2039.171717046492
 31
0.0
  0
ARC
  5
AD1
330
1F
100
AcDbEntity
  8
DIN84
  6
AUSGEZOGEN
 62
     1
100
AcDbCircle
 10
2012.579780183523
 20
2034.793054936493
 30
0.0
 40
0.1999768
100
AcDbArc
 50
180.0
 51
265.0098266600056
  0
LINE
  5
AD2
330
1F
100
AcDbEntity
  8
DIN84
  6
AUSGEZOGEN
 62
     1
100
AcDbLine
 10
2015.679755773524
 20
2034.321863526493
 30
0.0
 11
2012.562324133524
 21
2034.594812746493
 31
0.0
  0
LINE
  5
AD3
330
1F
100
AcDbEntity
  8
DIN84
  6
AUSGEZOGEN
 62
     1
100
AcDbLine
 10
2012.379584873525
 20
2034.794275636493
 30
0.0
 11
2012.379584873525
 21
2037.972498296493
 31
0.0
  0
ARC
  5
AD4
330
1F
100
AcDbEntity
  8
DIN84
  6
AUSGEZOGEN
 62
     1
100
AcDbCircle
 10
2012.579780183523
 20
2042.349207276493
 30
0.0
 40
0.20001227
100
AcDbArc
 50
95.00762177005565
 51
180.0
  0
LINE
  5
AD5
330
1F
100
AcDbEntity
  8
DIN84
  6
AUSGEZOGEN
 62
     1
100
AcDbLine
 10
2012.379584873525
 20
2039.171717046492
 30
0.0
 11
2012.379584873525
 21
2042.349939706493
 31
0.0
  0
LINE
  5
AD6
330
1F
100
AcDbEntity
  8
DIN84
  6
AUSGEZOGEN
 62
     1
100
AcDbLine
 10
2012.562690343523
 20
2042.549402596493
 30
0.0
 11
2015.679999913523
 21
2042.822107676492
 31
0.0
  0
LINE
  5
AD7
330
1F
100
AcDbEntity
  8
DIN84
  6
AUSGEZOGEN
 62
     1
100
AcDbLine
 10
2022.684150303522
 20
2041.071131106493
 30
0.0
 11
2022.684150303522
 21
2036.071131106492
 31
0.0
  0
LINE
  5
AD8
330
1F
100
AcDbEntity
  8
DIN84
  6
AUSGEZOGEN
 62
     1
100
AcDbLine
 10
2022.684150303522
 20
2036.071131106492
 30
0.0
 11
2019.679755773523
 21
2036.071131106492
 31
0.0
  0
LINE
  5
AD9
330
1F
100
AcDbEntity
  8
DIN84
  6
AUSGEZOGEN
 62
     1
100
AcDbLine
 10
2019.679999913523
 20
2041.071131106493
 30
0.0
 11
2022.684394443525
 21
2041.071131106493
 31
0.0
  0
LINE
  5
ADA
330
1F
100
AcDbEntity
  8
DIN84
  6
AUSGEZOGEN
 62
     1
100
AcDbLine
 10
2073.254829013524
 20
2098.847010016493
 30
0.0
 11
2073.254829013524
 21
2097.046961186493
 31
0.0
  0
LINE
  5
ADB
330
1F
100
AcDbEntity
  8
DIN84
  6
AUSGEZOGEN
 62
     1
100
AcDbLine
 10
2073.254829013524
 20
2097.046472906493
 30
0.0
 11
2072.055244053522
 21
2097.046472906493
 31
0.0
  0
LINE
  5
ADC
330
1F
100
AcDbEntity
  8
DIN84
  6
AUSGEZOGEN
 62
     1
100
AcDbLine
 10
2072.054877843523
 20
2097.046472906493
 30
0.0
 11
2072.054877843523
 21
2098.846521736493
 31
0.0
  0
ARC
  5
ADD
330
1F
100
AcDbEntity
  8
DIN84
  6
AUSGEZOGEN
 62
     1
100
AcDbCircle
 10
2076.432929593525
 20
2098.646814706492
 30
0.0
 40
0.1999768
100
AcDbArc
 50
4.990174290027037
 51
90.00000762997665
  0
LINE
  5
ADE
330
1F
100
AcDbEntity
  8
DIN84
  6
AUSGEZOGEN
 62
     1
100
AcDbLine
 10
2076.904731353524
 20
2095.546228766493
 30
0.0
 11
2076.631904203522
 21
2098.663660406492
 31
0.0
  0
LINE
  5
ADF
330
1F
100
AcDbEntity
  8
DIN84
  6
AUSGEZOGEN
 62
     1
100
AcDbLine
 10
2076.432929593525
 20
2098.847010016493
 30
0.0
 11
2073.254829013524
 21
2098.847010016493
 31
0.0
  0
ARC
  5
AE0
330
1F
100
AcDbEntity
  8
DIN84
  6
AUSGEZOGEN
 62
     1
100
AcDbCircle
 10
2068.876777253526
 20
2098.646814706492
 30
0.0
 40
0.20001227
100
AcDbArc
 50
90.00000762997665
 51
174.9923858600187
  0
LINE
  5
AE1
330
1F
100
AcDbEntity
  8
DIN84
  6
AUSGEZOGEN
 62
     1
100
AcDbLine
 10
2072.054877843523
 20
2098.847010016493
 30
0.0
 11
2068.876777253526
 21
2098.847010016493
 31
0.0
  0
LINE
  5
AE2
330
1F
100
AcDbEntity
  8
DIN84
  6
AUSGEZOGEN
 62
     1
100
AcDbLine
 10
2068.677802643525
 20
2098.663904546492
 30
0.0
 11
2068.404975493523
 21
2095.546472906493
 31
0.0
  0
LINE
  5
AE3
330
1F
100
AcDbEntity
  8
DIN84
  6
AUSGEZOGEN
 62
     1
100
AcDbLine
 10
2070.154853423524
 20
2088.541834236493
 30
0.0
 11
2075.154853423524
 21
2088.541834236493
 31
0.0
  0
LINE
  5
AE4
330
1F
100
AcDbEntity
  8
DIN84
  6
AUSGEZOGEN
 62
     1
100
AcDbLine
 10
2075.154853423524
 20
2088.541834236493
 30
0.0
 11
2075.154853423524
 21
2091.546228766493
 31
0.0
  0
LINE
  5
AE5
330
1F
100
AcDbEntity
  8
DIN84
  6
AUSGEZOGEN
 62
     1
100
AcDbLine
 10
2070.154853423524
 20
2091.547205326492
 30
0.0
 11
2070.154853423524
 21
2088.542810796493
 31
0.0
  0
LINE
  5
AE6
330
1F
100
AcDbEntity
  8
ANSCHLUS
  6
AUSGEZOGEN
 62
     1
100
AcDbLine
 10
1690.850043853524
 20
2055.306970956493
 30
0.0
 11
1686.116157133522
 21
2055.306970956493
 31
0.0
  0
LINE
  5
AE7
330
1F
100
AcDbEntity
  8
ANSCHLUS
  6
PUNKT
 62
     1
100
AcDbLine
 10
1690.850043853524
 20
2059.926111576492
 30
0.0
 11
1691.390204983524
 21
2059.926111576492
 31
0.0
  0
LINE
  5
AE8
330
1F
100
AcDbEntity
  8
ANSCHLUS
  6
PUNKT
 62
     1
100
AcDbLine
 10
1690.850043853524
 20
2069.166834236493
 30
0.0
 11
1691.390204983524
 21
2069.166834236493
 31
0.0
  0
LINE
  5
AE9
330
1F
100
AcDbEntity
  8
ANSCHLUS
  6
PUNKT
 62
     1
100
AcDbLine
 10
1690.850043853524
 20
2073.787195566493
 30
0.0
 11
1691.249213773525
 21
2073.787195566493
 31
0.0
  0
LINE
  5
AEA
330
1F
100
AcDbEntity
  8
ANSCHLUS
  6
AUSGEZOGEN
 62
     1
100
AcDbLine
 10
1683.184638583524
 20
2059.546472906493
 30
0.0
 11
1683.184638583524
 21
2069.546228766493
 31
0.0
  0
LINE
  5
AEB
330
1F
100
AcDbEntity
  8
ANSCHLUS
  6
AUSGEZOGEN
 62
     1
100
AcDbLine
 10
1685.182624423524
 20
2059.546472906493
 30
0.0
 11
1683.184638583524
 21
2059.546472906493
 31
0.0
  0
LINE
  5
AEC
330
1F
100
AcDbEntity
  8
ANSCHLUS
  6
AUSGEZOGEN
 62
     1
100
AcDbLine
 10
1685.182624423524
 20
2069.546472906492
 30
0.0
 11
1683.184638583524
 21
2069.546228766493
 31
0.0
  0
LINE
  5
AED
330
1F
100
AcDbEntity
  8
ANSCHLUS
  6
AUSGEZOGEN
 62
     1
100
AcDbLine
 10
1685.182624423524
 20
2057.698328376492
 30
0.0
 11
1685.182624423524
 21
2071.395349856492
 31
0.0
  0
ARC
  5
AEE
330
1F
100
AcDbEntity
  8
ANSCHLUS
  6
AUSGEZOGEN
 62
     1
100
AcDbCircle
 10
1688.711982333524
 20
2057.698328376492
 30
0.0
 40
3.529366969999999
100
AcDbArc
 50
140.8449707000693
 51
222.6565551801036
  0
ARC
  5
AEF
330
1F
100
AcDbEntity
  8
ANSCHLUS
  6
PUNKT
 62
     1
100
AcDbCircle
 10
1688.653388583524
 20
2057.698328376492
 30
0.0
 40
3.529366969999999
100
AcDbArc
 50
317.3434448198964
 51
39.15509032999756
  0
ARC
  5
AF0
330
1F
100
AcDbEntity
  8
ANSCHLUS
  6
AUSGEZOGEN
 62
     1
100
AcDbCircle
 10
1699.042487703523
 20
2064.546472906493
 30
0.0
 40
13.86007595
100
AcDbArc
 50
160.5291748000406
 51
199.4716186500661
  0
ARC
  5
AF1
330
1F
100
AcDbEntity
  8
ANSCHLUS
  6
PUNKT
 62
     1
100
AcDbCircle
 10
1678.323188383522
 20
2064.546472906493
 30
0.0
 40
13.86007595
100
AcDbArc
 50
340.5283203100936
 51
19.47082519995937
  0
ARC
  5
AF2
330
1F
100
AcDbEntity
  8
ANSCHLUS
  6
AUSGEZOGEN
 62
     1
100
AcDbCircle
 10
1688.712287503525
 20
2071.395838136493
 30
0.0
 40
3.529745339999999
100
AcDbArc
 50
137.3488464400044
 51
219.1500549300066
  0
ARC
  5
AF3
330
1F
100
AcDbEntity
  8
ANSCHLUS
  6
PUNKT
 62
     1
100
AcDbCircle
 10
1688.652778233522
 20
2071.395838136493
 30
0.0
 40
3.529745339999999
100
AcDbArc
 50
320.8499145500178
 51
42.65115355999557
  0
LINE
  5
AF4
330
1F
100
AcDbEntity
  8
ANSCHLUS
  6
AUSGEZOGEN
 62
     1
100
AcDbLine
 10
1686.116157133522
 20
2073.787195566493
 30
0.0
 11
1690.850043853524
 21
2073.787195566493
 31
0.0
  0
LINE
  5
AF5
330
1F
100
AcDbEntity
  8
ANSCHLUS
  6
PUNKT
 62
     1
100
AcDbLine
 10
1691.248908603524
 20
2055.306970956493
 30
0.0
 11
1690.849738683523
 21
2055.306970956493
 31
0.0
  0
LINE
  5
AF6
330
1F
100
AcDbEntity
  8
ANSCHLUS
  6
AUSGEZOGEN
 62
     1
100
AcDbLine
 10
1685.975165923523
 20
2059.926111576492
 30
0.0
 11
1690.850043853524
 21
2059.926111576492
 31
0.0
  0
LINE
  5
AF7
330
1F
100
AcDbEntity
  8
ANSCHLUS
  6
AUSGEZOGEN
 62
     1
100
AcDbLine
 10
1685.975165923523
 20
2069.166834236493
 30
0.0
 11
1690.850043853524
 21
2069.166834236493
 31
0.0
  0
ENDSEC
  0
SECTION
  2
OBJECTS
  0
DICTIONARY
  5
C
330
0
100
AcDbDictionary
281
     1
  3
ACAD_COLOR
350
D7
  3
ACAD_GROUP
350
D
  3
ACAD_LAYOUT
350
1A
  3
ACAD_MATERIAL
350
D6
  3
ACAD_MLINESTYLE
350
17
  3
ACAD_PLOTSETTINGS
350
19
  3
ACAD_PLOTSTYLENAME
350
E
  3
ACAD_TABLESTYLE
350
133
  3
ACDBHEADERROUNDTRIPXREC
350
B07
  3
AcDbVariableDictionary
350
34
  3
AcmDictionary
350
49
  3
AMG
350
2B
  3
AMGSNAPSETTINGS
350
2C4
  3
DWGPROPS
350
B06
  0
DICTIONARY
  5
C0
330
2
100
AcDbDictionary
280
     1
281
     1
  3
ACAD_LAYERSTATES
360
327
  3
AMLAYER_GROUPCOLORS
360
C1
  0
DICTIONARY
  5
83
330
1F
100
AcDbDictionary
280
     1
281
     1
  0
DICTIONARY
  5
D7
102
{ACAD_REACTORS
330
C
102
}
330
C
100
AcDbDictionary
281
     1
  0
DICTIONARY
  5
D
102
{ACAD_REACTORS
330
C
102
}
330
C
100
AcDbDictionary
281
     1
  0
DICTIONARY
  5
1A
102
{ACAD_REACTORS
330
C
102
}
330
C
100
AcDbDictionary
281
     1
  3
Layout1
350
1E
  3
Layout2
350
26
  3
Model
350
22
  0
DICTIONARY
  5
D6
102
{ACAD_REACTORS
330
C
102
}
330
C
100
AcDbDictionary
281
     1
  0
DICTIONARY
  5
17
102
{ACAD_REACTORS
330
C
102
}
330
C
100
AcDbDictionary
281
     1
  3
Standard
350
18
  0
DICTIONARY
  5
19
102
{ACAD_REACTORS
330
C
102
}
330
C
100
AcDbDictionary
281
     1
  0
ACDBDICTIONARYWDFLT
  5
E
102
{ACAD_REACTORS
330
C
102
}
330
C
100
AcDbDictionary
281
     1
  3
Normal
350
F
100
AcDbDictionaryWithDefault
340
F
  0
DICTIONARY
  5
133
102
{ACAD_REACTORS
330
C
102
}
330
C
100
AcDbDictionary
281
     1
  3
Standard
350
134
  0
DICTIONARY
  5
B07
102
{ACAD_REACTORS
330
C
102
}
330
C
100
AcDbDictionary
281
     1
  0
DICTIONARY
  5
34
102
{ACAD_REACTORS
330
C
102
}
330
C
100
AcDbDictionary
281
     1
  3
CTABLESTYLE
350
152
  3
DIMASSOC
350
AD
  3
INDEXCTL
350
35
  3
PROJECTNAME
350
B04
  0
DICTIONARY
  5
49
102
{ACAD_REACTORS
330
C
102
}
330
C
100
AcDbDictionary
281
     1
  3
AcmBOM
350
2CB
  3
AcmStdDictionary
350
4A
  3
AMDTSECTSYM_ARROWCOLOR
350
13D
  0
DICTIONARY
  5
2B
102
{ACAD_REACTORS
330
C
102
}
330
C
100
AcDbDictionary
281
     1
  0
DICTIONARY
  5
2C4
102
{ACAD_REACTORS
330
C
102
}
330
C
100
AcDbDictionary
281
     1
  0
XRECORD
  5
B06
102
{ACAD_REACTORS
330
C
102
}
330
C
100
AcDbXrecord
280
     1
  1
DWGPROPS COOKIE
  2

  3

  4

  6

  7

  8

  9

300
AmdtFileType=84
301
=
302
=
303
=
304
=
305
=
306
=
307
=
308
=
309
=
 40
0.0007354976851852
 41
2454055.59936559
 42
2454055.600100544
  1

 90
        1
  0
DICTIONARY
  5
327
102
{ACAD_REACTORS
330
C0
102
}
330
C0
100
AcDbDictionary
281
     1
  0
DICTIONARY
  5
C1
102
{ACAD_REACTORS
330
C0
102
}
330
C0
100
AcDbDictionary
280
     1
281
     1
  0
LAYOUT
  5
1E
102
{ACAD_XDICTIONARY
360
B08
102
}
102
{ACAD_REACTORS
330
1A
102
}
330
1A
100
AcDbPlotSettings
  1

  2
none_device
  4
Letter_(8.50_x_11.00_Inches)
  6

 40
6.349999904632568
 41
6.349999904632568
 42
6.350006103515625
 43
6.350006103515625
 44
215.8999938964844
 45
279.3999938964844
 46
0.0
 47
0.0
 48
0.0
 49
0.0
140
0.0
141
0.0
142
1.0
143
1.0
 70
 15024
 72
     1
 73
     1
 74
     5
  7

 75
    16
147
1.0
148
0.0
149
0.0
100
AcDbLayout
  1
Layout1
 70
     1
 71
     1
 10
0.0
 20
0.0
 11
420.0
 21
297.0
 12
0.0
 22
0.0
 32
0.0
 14
1.000000000000000E+20
 24
1.000000000000000E+20
 34
1.000000000000000E+20
 15
-1.000000000000000E+20
 25
-1.000000000000000E+20
 35
-1.000000000000000E+20
146
0.0
 13
0.0
 23
0.0
 33
0.0
 16
1.0
 26
0.0
 36
0.0
 17
0.0
 27
1.0
 37
0.0
 76
     0
330
1B
  0
LAYOUT
  5
26
102
{ACAD_XDICTIONARY
360
B0C
102
}
102
{ACAD_REACTORS
330
1A
102
}
330
1A
100
AcDbPlotSettings
  1

  2
none_device
  4
Letter_(8.50_x_11.00_Inches)
  6

 40
6.349999904632568
 41
6.349999904632568
 42
6.350006103515625
 43
6.350006103515625
 44
215.8999938964844
 45
279.3999938964844
 46
0.0
 47
0.0
 48
0.0
 49
0.0
140
0.0
141
0.0
142
1.0
143
1.0
 70
 15024
 72
     1
 73
     1
 74
     5
  7

 75
    16
147
1.0
148
0.0
149
0.0
100
AcDbLayout
  1
Layout2
 70
     1
 71
     2
 10
0.0
 20
0.0
 11
12.0
 21
9.0
 12
0.0
 22
0.0
 32
0.0
 14
0.0
 24
0.0
 34
0.0
 15
0.0
 25
0.0
 35
0.0
146
0.0
 13
0.0
 23
0.0
 33
0.0
 16
1.0
 26
0.0
 36
0.0
 17
0.0
 27
1.0
 37
0.0
 76
     0
330
23
  0
LAYOUT
  5
22
102
{ACAD_XDICTIONARY
360
B0A
102
}
102
{ACAD_REACTORS
330
1A
102
}
330
1A
100
AcDbPlotSettings
  1

  2
none_device
  4
Letter_(8.50_x_11.00_Inches)
  6

 40
6.349999904632568
 41
6.349999904632568
 42
6.350006103515625
 43
6.350006103515625
 44
215.8999938964844
 45
279.3999938964844
 46
0.0
 47
0.0
 48
0.0
 49
0.0
140
0.0
141
0.0
142
1.0
143
1.0
 70
 11952
 72
     1
 73
     1
 74
     0
  7

 75
     0
147
1.0
148
-131.3052631578947
149
0.0
100
AcDbLayout
  1
Model
 70
     1
 71
     0
 10
0.0
 20
0.0
 11
12.0
 21
9.0
 12
0.0
 22
0.0
 32
0.0
 14
0.0
 24
0.0
 34
0.0
 15
0.0
 25
0.0
 35
0.0
146
0.0
 13
0.0
 23
0.0
 33
0.0
 16
1.0
 26
0.0
 36
0.0
 17
0.0
 27
1.0
 37
0.0
 76
     0
330
1F
  0
MLINESTYLE
  5
18
102
{ACAD_REACTORS
330
17
102
}
330
17
100
AcDbMlineStyle
  2
STANDARD
 70
     0
  3

 62
   256
 51
90.0
 52
90.0
 71
     2
 49
0.5
 62
   256
  6
BYLAYER
 49
-0.5
 62
   256
  6
BYLAYER
  0
ACDBPLACEHOLDER
  5
F
102
{ACAD_REACTORS
330
E
102
}
330
E
  0
TABLESTYLE
  5
134
102
{ACAD_REACTORS
330
133
102
}
330
133
100
AcDbTableStyle
  3
Standard
 70
     0
 71
     0
 40
1.5
 41
1.5
280
     0
281
     0
  7
STANDARD
140
4.5
170
     2
 62
     0
 63
     7
283
     0
274
    -2
284
     1
 64
     0
275
    -2
285
     1
 65
     0
276
    -2
286
     1
 66
     0
277
    -2
287
     1
 67
     0
278
    -2
288
     1
 68
     0
279
    -2
289
     1
 69
     0
  7
STANDARD
140
6.0
170
     5
 62
     0
 63
     7
283
     0
274
    -2
284
     1
 64
     0
275
    -2
285
     1
 65
     0
276
    -2
286
     1
 66
     0
277
    -2
287
     1
 67
     0
278
    -2
288
     1
 68
     0
279
    -2
289
     1
 69
     0
  7
STANDARD
140
4.5
170
     5
 62
     0
 63
     7
283
     0
274
    -2
284
     1
 64
     0
275
    -2
285
     1
 65
     0
276
    -2
286
     1
 66
     0
277
    -2
287
     1
 67
     0
278
    -2
288
     1
 68
     0
279
    -2
289
     1
 69
     0
  0
DICTIONARYVAR
  5
152
102
{ACAD_REACTORS
330
34
102
}
330
34
100
DictionaryVariables
280
     0
  1
STANDARD
  0
DICTIONARYVAR
  5
AD
102
{ACAD_REACTORS
330
34
102
}
330
34
100
DictionaryVariables
280
     0
  1
2
  0
DICTIONARYVAR
  5
35
102
{ACAD_REACTORS
330
34
102
}
330
34
100
DictionaryVariables
280
     0
  1
0
  0
DICTIONARYVAR
  5
B04
102
{ACAD_REACTORS
330
34
102
}
330
34
100
DictionaryVariables
280
     0
  1

  0
DICTIONARY
  5
2CB
102
{ACAD_REACTORS
330
49
102
}
330
49
100
AcDbDictionary
281
     1
  0
DICTIONARY
  5
4A
102
{ACAD_REACTORS
330
49
102
}
330
49
100
AcDbDictionary
281
     1
  0
XRECORD
  5
13D
102
{ACAD_REACTORS
330
49
102
}
330
49
100
AcDbXrecord
280
     1
 90
-1023410169
  0
DICTIONARY
  5
B08
330
1E
100
AcDbDictionary
280
     1
281
     1
  3
ACAD_XREC_ROUNDTRIP
360
B09
  0
DICTIONARY
  5
B0C
330
26
100
AcDbDictionary
280
     1
281
     1
  3
ACAD_XREC_ROUNDTRIP
360
B0D
  0
DICTIONARY
  5
B0A
330
22
100
AcDbDictionary
280
     1
281
     1
  3
ACAD_XREC_ROUNDTRIP
360
B0B
  0
XRECORD
  5
B09
102
{ACAD_REACTORS
330
B08
102
}
330
B08
100
AcDbXrecord
280
     1
102
SHADEPLOT
 70
     0
102
SHADEPLOTRESLEVEL
 70
     2
102
SHADEPLOTCUSTOMDPI
 70
   300
  0
XRECORD
  5
B0D
102
{ACAD_REACTORS
330
B0C
102
}
330
B0C
100
AcDbXrecord
280
     1
102
SHADEPLOT
 70
     0
102
SHADEPLOTRESLEVEL
 70
     2
102
SHADEPLOTCUSTOMDPI
 70
   300
  0
XRECORD
  5
B0B
102
{ACAD_REACTORS
330
B0A
102
}
330
B0A
100
AcDbXrecord
280
     1
102
SHADEPLOT
 70
     0
102
SHADEPLOTRESLEVEL
 70
     2
102
SHADEPLOTCUSTOMDPI
 70
   300
  0
ENDSEC
  0
EOF
