  0
SECTION
  2
HEADER
  9
$ACADVER
  1
AC1015
  9
$ACADMAINTVER
 70
    20
  9
$DWGCODEPAGE
  3
ANSI_1252
  9
$INSBASE
 10
0.0
 20
0.0
 30
0.0
  9
$EXTMIN
 10
974.2729212624945
 20
759.1350038451946
 30
0.0
  9
$EXTMAX
 10
2098.085388565825
 20
2566.566705505197
 30
0.0
  9
$LIMMIN
 10
0.0
 20
0.0
  9
$LIMMAX
 10
420.0
 20
297.0
  9
$ORTHOMODE
 70
     0
  9
$REGENMODE
 70
     1
  9
$FILLMODE
 70
     1
  9
$QTEXTMODE
 70
     0
  9
$MIRRTEXT
 70
     1
  9
$LTSCALE
 40
1.0
  9
$ATTMODE
 70
     1
  9
$TEXTSIZE
 40
2.5
  9
$TRACEWID
 40
1.0
  9
$TEXTSTYLE
  7
STANDARD
  9
$CLAYER
  8
0
  9
$CELTYPE
  6
ByLayer
  9
$CECOLOR
 62
   256
  9
$CELTSCALE
 40
1.0
  9
$DISPSILH
 70
     0
  9
$DIMSCALE
 40
1.0
  9
$DIMASZ
 40
2.5
  9
$DIMEXO
 40
1.0
  9
$DIMDLI
 40
10.0
  9
$DIMRND
 40
0.0
  9
$DIMDLE
 40
0.0
  9
$DIMEXE
 40
1.0
  9
$DIMTP
 40
0.1
  9
$DIMTM
 40
0.1
  9
$DIMTXT
 40
3.5
  9
$DIMCEN
 40
0.0
  9
$DIMTSZ
 40
0.0
  9
$DIMTOL
 70
     0
  9
$DIMLIM
 70
     0
  9
$DIMTIH
 70
     0
  9
$DIMTOH
 70
     0
  9
$DIMSE1
 70
     0
  9
$DIMSE2
 70
     0
  9
$DIMTAD
 70
     1
  9
$DIMZIN
 70
     8
  9
$DIMBLK
  1

  9
$DIMASO
 70
     1
  9
$DIMSHO
 70
     1
  9
$DIMPOST
  1

  9
$DIMAPOST
  1
"
  9
$DIMALT
 70
     0
  9
$DIMALTD
 70
     2
  9
$DIMALTF
 40
0.0393701
  9
$DIMLFAC
 40
1.0
  9
$DIMTOFL
 70
     1
  9
$DIMTVP
 40
0.0
  9
$DIMTIX
 70
     0
  9
$DIMSOXD
 70
     0
  9
$DIMSAH
 70
     0
  9
$DIMBLK1
  1

  9
$DIMBLK2
  1

  9
$DIMSTYLE
  2
AM_DIN
  9
$DIMCLRD
 70
   256
  9
$DIMCLRE
 70
   256
  9
$DIMCLRT
 70
     2
  9
$DIMTFAC
 40
0.71
  9
$DIMGAP
 40
1.5
  9
$DIMJUST
 70
     0
  9
$DIMSD1
 70
     0
  9
$DIMSD2
 70
     0
  9
$DIMTOLJ
 70
     0
  9
$DIMTZIN
 70
     8
  9
$DIMALTZ
 70
     0
  9
$DIMALTTZ
 70
     0
  9
$DIMUPT
 70
     0
  9
$DIMDEC
 70
     2
  9
$DIMTDEC
 70
     3
  9
$DIMALTU
 70
     2
  9
$DIMALTTD
 70
     4
  9
$DIMTXSTY
  7
STANDARD
  9
$DIMAUNIT
 70
     0
  9
$DIMADEC
 70
     0
  9
$DIMALTRND
 40
0.0
  9
$DIMAZIN
 70
     2
  9
$DIMDSEP
 70
    46
  9
$DIMATFIT
 70
     3
  9
$DIMFRAC
 70
     0
  9
$DIMLDRBLK
  1

  9
$DIMLUNIT
 70
     2
  9
$DIMLWD
 70
    -1
  9
$DIMLWE
 70
    -1
  9
$DIMTMOVE
 70
     0
  9
$LUNITS
 70
     2
  9
$LUPREC
 70
     2
  9
$SKETCHINC
 40
1.0
  9
$FILLETRAD
 40
2.5
  9
$AUNITS
 70
     0
  9
$AUPREC
 70
     0
  9
$MENU
  1
.
  9
$ELEVATION
 40
0.0
  9
$PELEVATION
 40
0.0
  9
$THICKNESS
 40
0.0
  9
$LIMCHECK
 70
     0
  9
$CHAMFERA
 40
2.5
  9
$CHAMFERB
 40
2.5
  9
$CHAMFERC
 40
20.0
  9
$CHAMFERD
 40
0.0
  9
$SKPOLY
 70
     0
  9
$TDCREATE
 40
2454055.600931713
  9
$TDUCREATE
 40
2454055.559265047
  9
$TDUPDATE
 40
2454055.601177662
  9
$TDUUPDATE
 40
2454055.559510995
  9
$TDINDWG
 40
0.0002463079
  9
$TDUSRTIMER
 40
0.0002463079
  9
$USRTIMER
 70
     1
  9
$ANGBASE
 50
0.0
  9
$ANGDIR
 70
     0
  9
$PDMODE
 70
     0
  9
$PDSIZE
 40
0.0
  9
$PLINEWID
 40
0.0
  9
$SPLFRAME
 70
     0
  9
$SPLINETYPE
 70
     6
  9
$SPLINESEGS
 70
     8
  9
$HANDSEED
  5
B51
  9
$SURFTAB1
 70
     6
  9
$SURFTAB2
 70
     6
  9
$SURFTYPE
 70
     6
  9
$SURFU
 70
     6
  9
$SURFV
 70
     6
  9
$UCSBASE
  2

  9
$UCSNAME
  2

  9
$UCSORG
 10
0.0
 20
0.0
 30
0.0
  9
$UCSXDIR
 10
1.0
 20
0.0
 30
0.0
  9
$UCSYDIR
 10
0.0
 20
1.0
 30
0.0
  9
$UCSORTHOREF
  2

  9
$UCSORTHOVIEW
 70
     0
  9
$UCSORGTOP
 10
0.0
 20
0.0
 30
0.0
  9
$UCSORGBOTTOM
 10
0.0
 20
0.0
 30
0.0
  9
$UCSORGLEFT
 10
0.0
 20
0.0
 30
0.0
  9
$UCSORGRIGHT
 10
0.0
 20
0.0
 30
0.0
  9
$UCSORGFRONT
 10
0.0
 20
0.0
 30
0.0
  9
$UCSORGBACK
 10
0.0
 20
0.0
 30
0.0
  9
$PUCSBASE
  2

  9
$PUCSNAME
  2

  9
$PUCSORG
 10
0.0
 20
0.0
 30
0.0
  9
$PUCSXDIR
 10
1.0
 20
0.0
 30
0.0
  9
$PUCSYDIR
 10
0.0
 20
1.0
 30
0.0
  9
$PUCSORTHOREF
  2

  9
$PUCSORTHOVIEW
 70
     0
  9
$PUCSORGTOP
 10
0.0
 20
0.0
 30
0.0
  9
$PUCSORGBOTTOM
 10
0.0
 20
0.0
 30
0.0
  9
$PUCSORGLEFT
 10
0.0
 20
0.0
 30
0.0
  9
$PUCSORGRIGHT
 10
0.0
 20
0.0
 30
0.0
  9
$PUCSORGFRONT
 10
0.0
 20
0.0
 30
0.0
  9
$PUCSORGBACK
 10
0.0
 20
0.0
 30
0.0
  9
$USERI1
 70
     0
  9
$USERI2
 70
     0
  9
$USERI3
 70
     0
  9
$USERI4
 70
     0
  9
$USERI5
 70
     0
  9
$USERR1
 40
0.0
  9
$USERR2
 40
0.0
  9
$USERR3
 40
0.0
  9
$USERR4
 40
0.0
  9
$USERR5
 40
0.0
  9
$WORLDVIEW
 70
     1
  9
$SHADEDGE
 70
     3
  9
$SHADEDIF
 70
    70
  9
$TILEMODE
 70
     1
  9
$MAXACTVP
 70
    64
  9
$PINSBASE
 10
0.0
 20
0.0
 30
0.0
  9
$PLIMCHECK
 70
     0
  9
$PEXTMIN
 10
1.000000000000000E+20
 20
1.000000000000000E+20
 30
1.000000000000000E+20
  9
$PEXTMAX
 10
-1.000000000000000E+20
 20
-1.000000000000000E+20
 30
-1.000000000000000E+20
  9
$PLIMMIN
 10
0.0
 20
0.0
  9
$PLIMMAX
 10
420.0
 20
297.0
  9
$UNITMODE
 70
     0
  9
$VISRETAIN
 70
     1
  9
$PLINEGEN
 70
     0
  9
$PSLTSCALE
 70
     1
  9
$TREEDEPTH
 70
  3020
  9
$CMLSTYLE
  2
Standard
  9
$CMLJUST
 70
     0
  9
$CMLSCALE
 40
20.0
  9
$PROXYGRAPHICS
 70
     1
  9
$MEASUREMENT
 70
     1
  9
$CELWEIGHT
370
    -1
  9
$ENDCAPS
280
     0
  9
$JOINSTYLE
280
     0
  9
$LWDISPLAY
290
     0
  9
$INSUNITS
 70
     4
  9
$HYPERLINKBASE
  1

  9
$STYLESHEET
  1

  9
$XEDIT
290
     1
  9
$CEPSNTYPE
380
     0
  9
$PSTYLEMODE
290
     1
  9
$FINGERPRINTGUID
  2
{346DD47D-F53E-4517-9392-6433DDAC8FD9}
  9
$VERSIONGUID
  2
{437D8CB7-5665-41B3-9374-B06C26493E47}
  9
$EXTNAMES
290
     1
  9
$PSVPSCALE
 40
0.0
  9
$OLESTARTUP
290
     0
  0
ENDSEC
  0
SECTION
  2
CLASSES
  0
CLASS
  1
ACDBDICTIONARYWDFLT
  2
AcDbDictionaryWithDefault
  3
ObjectDBX Classes
 90
        0
280
     0
281
     0
  0
CLASS
  1
ACDBPLACEHOLDER
  2
AcDbPlaceHolder
  3
ObjectDBX Classes
 90
        0
280
     0
281
     0
  0
CLASS
  1
LAYOUT
  2
AcDbLayout
  3
ObjectDBX Classes
 90
        0
280
     0
281
     0
  0
CLASS
  1
AMGSETTINGSOBJ
  2
AmgSettingsObj
  3
"AcadM|Product Description: AutoCAD Mechanical 2000|Company: Autodesk"
 90
        0
280
     0
281
     0
  0
CLASS
  1
ACME_DOCUMENT
  2
AcMeDbDoc
  3
AcMeServices
 90
        0
280
     0
281
     0
  0
CLASS
  1
ACMESCOPE
  2
AcMeScope
  3
AcMeServices
 90
        0
280
     0
281
     0
  0
CLASS
  1
ACMECOMMANDHISTORY
  2
AcMeCommandHistory
  3
AcMeServices
 90
        0
280
     0
281
     0
  0
CLASS
  1
DICTIONARYVAR
  2
AcDbDictionaryVar
  3
ObjectDBX Classes
 90
        0
280
     0
281
     0
  0
CLASS
  1
ACIMSYSVARMAN
  2
AcImSysVarManager
  3
AcMeServices
 90
        0
280
     0
281
     0
  0
CLASS
  1
ACIMREALSYSVAR
  2
AcImRealSysVar
  3
AcMeServices
 90
        0
280
     0
281
     0
  0
CLASS
  1
ACIMINTSYSVAR
  2
AcImIntSysVar
  3
AcMeServices
 90
        0
280
     0
281
     0
  0
CLASS
  1
ACMEDRAWINGMAN
  2
AcMeDrawingMan
  3
AcMeServices
 90
        0
280
     0
281
     0
  0
CLASS
  1
ACMEVIEW
  2
AcMeView
  3
AcMeServices
 90
        0
280
     0
281
     0
  0
CLASS
  1
ACDBENTITYCACHE
  2
AcMeEntityCache
  3
AcMeServices
 90
        0
280
     0
281
     0
  0
CLASS
  1
GSMANAGER
  2
AcMeGSManager
  3
AcMeServices
 90
        0
280
     0
281
     0
  0
CLASS
  1
AMDTINTERNALREACTOR
  2
AmdtInternalReactor
  3
AcMeServices
 90
        0
280
     0
281
     0
  0
CLASS
  1
ACMESTATEMGR
  2
AcMeStateMgr
  3
AcMeServices
 90
        0
280
     0
281
     0
  0
CLASS
  1
ACGREFMASTER
  2
AcGrefMaster
  3
AcAttribServices
 90
        0
280
     0
281
     0
  0
CLASS
  1
ACME_DATABASE
  2
AcMeDbDatabase
  3
AcMeServices
 90
        0
280
     0
281
     0
  0
CLASS
  1
ACRFINSADJUSTERMGR
  2
AcRfInsAdjusterMgr
  3
AcMeServices
 90
        0
280
     0
281
     0
  0
CLASS
  1
ACGREFACADMASTER
  2
AcGrefacadMaster
  3
AcGrefServices
 90
        0
280
     0
281
     0
  0
CLASS
  1
AMIMASTER
  2
AmiMaster
  3
AmiServices
 90
        0
280
     0
281
     0
  0
CLASS
  1
ACIMSTRSYSVAR
  2
AcImStrSysVar
  3
AcMeServices
 90
        0
280
     0
281
     0
  0
CLASS
  1
ACMSTANDARDDIN
  2
AcmStandardDIN
  3
"Amdt_StdImp|Product Description: AutoCAD Mechanical 2004 DX|Company: Autodesk"
 90
        0
280
     0
281
     0
  0
CLASS
  1
AMGOBJPROPCFG
  2
AmgObjPropCfg
  3
"AmgLay|Product Description: AutoCAD Mechanical 2000|Company: Autodesk"
 90
        1
280
     0
281
     0
  0
CLASS
  1
AMDTEDGESTANDARDDIN
  2
AmdtEdgeStdDIN
  3
"Amdt_StdImp|Product Description: AutoCAD Mechanical 2004 DX|Company: Autodesk"
 90
        0
280
     0
281
     0
  0
CLASS
  1
ACMSURFSTANDARDDIN
  2
AcmSurfTextStdDIN
  3
"Amdt_StdImp|Product Description: AutoCAD Mechanical 2004 DX|Company: Autodesk"
 90
        0
280
     0
281
     0
  0
CLASS
  1
ACMFCFSTANDARDDIN
  2
AcmFCFStdDIN
  3
"Amdt_StdImp|Product Description: AutoCAD Mechanical 2004 DX|Company: Autodesk"
 90
        0
280
     0
281
     0
  0
CLASS
  1
ACMWELDSTANDARDDIN
  2
AcmWeldingStdDIN
  3
"Amdt_StdImp|Product Description: AutoCAD Mechanical 2004 DX|Company: Autodesk"
 90
        0
280
     0
281
     0
  0
CLASS
  1
ACMIDSTANDARDDIN
  2
AcmIdStdDIN
  3
"Amdt_StdImp|Product Description: AutoCAD Mechanical 2004 DX|Company: Autodesk"
 90
        0
280
     0
281
     0
  0
CLASS
  1
ACMDATUMSTANDARDDIN
  2
AcmDatumStdDIN
  3
"Amdt_StdImp|Product Description: AutoCAD Mechanical 2004 DX|Company: Autodesk"
 90
        0
280
     0
281
     0
  0
CLASS
  1
ACMBOMSTANDARDDIN
  2
AcmBOMStdDIN
  3
"Amdt_StdImp|Product Description: AutoCAD Mechanical 2004 DX|Company: Autodesk"
 90
        0
280
     0
281
     0
  0
CLASS
  1
ACMDETAILSTANDARDDIN
  2
AmdtDetailSymStdDIN
  3
"Amdt_StdImp|Product Description: AutoCAD Mechanical 2004 DX|Company: Autodesk"
 90
        0
280
     0
281
     0
  0
CLASS
  1
ACMSECTIONSTANDARDDIN
  2
AmdtSectionSymStdDIN
  3
"Amdt_StdImp|Product Description: AutoCAD Mechanical 2004 DX|Company: Autodesk"
 90
        0
280
     0
281
     0
  0
CLASS
  1
ACMCENTERLINESTANDARDDIN
  2
AmdtCenterLineStdDIN
  3
"Amdt_StdImp|Product Description: AutoCAD Mechanical 2004 DX|Company: Autodesk"
 90
        0
280
     0
281
     0
  0
CLASS
  1
ACMTHREADLINESTANDARDDIN
  2
AmdtThreadLineStdDIN
  3
"Amdt_StdImp|Product Description: AutoCAD Mechanical 2004 DX|Company: Autodesk"
 90
        0
280
     0
281
     0
  0
CLASS
  1
ACAMGLAYSTD
  2
AcAmgLayStd
  3
"AcAmgLayStd|Product Description: AutoCAD Mechanical 2000|Company: Autodesk"
 90
        0
280
     0
281
     0
  0
CLASS
  1
ACAMGDIMSTD
  2
AcAmgDimStd
  3
"AcAmgDimStd|Product Description: AutoCAD Mechanical 2000|Company: Autodesk"
 90
        0
280
     0
281
     0
  0
CLASS
  1
ACAMGTITLESTD
  2
AcAmgTitleStd
  3
"TITLEAPP"
 90
        0
280
     0
281
     0
  0
CLASS
  1
ACMDATADICTIONARY
  2
AcmDataDictionary
  3
"AcmSymBB|Product Description: AutoCAD Mechanical 2004 DX|Company: Autodesk"
 90
        0
280
     0
281
     0
  0
CLASS
  1
ACMDATAENTRYBLOCK
  2
AcmDataEntryBlock
  3
"AcmSymBB|Product Description: AutoCAD Mechanical 2004 DX|Company: Autodesk"
 90
        0
280
     0
281
     0
  0
CLASS
  1
LAYER_INDEX
  2
AcDbLayerIndex
  3
ObjectDBX Classes
 90
    32768
280
     0
281
     0
  0
CLASS
  1
IDBUFFER
  2
AcDbIdBuffer
  3
ObjectDBX Classes
 90
    32768
280
     0
281
     0
  0
CLASS
  1
ACMNOTESTANDARDDIN
  2
AmdtNoteStdDIN
  3
"Amdt_StdImp|Product Description: AutoCAD Mechanical 2004 DX|Company: Autodesk"
 90
        0
280
     0
281
     0
  0
CLASS
  1
ACAMGHOLECHARTSTDDIN
  2
AcAmgHoleChartStdDIN
  3
ACMSYMBB_MODULE_NAME
 90
        0
280
     0
281
     0
  0
CLASS
  1
AM_DRAWING_MGR
  2
AcDmDwgMgr
  3
AcMechDwgViewMgmt
 90
        0
280
     0
281
     0
  0
CLASS
  1
AM_DWG_DOCUMENT
  2
AcDmDwgDocument
  3
AcMechDwgViewMgmt
 90
        0
280
     0
281
     0
  0
CLASS
  1
AM_DWG_SHEET
  2
AcDmSheet
  3
AcMechDwgViewMgmt
 90
        0
280
     0
281
     0
  0
CLASS
  1
AM_VIEWDIMPARMAP
  2
AcDmViewDimParMap
  3
AcMechDwgViewMgmt
 90
        0
280
     0
281
     0
  0
CLASS
  1
AM_DWGMGR_NAME
  2
AcDmDwgMgrName
  3
AcMechDwgViewMgmt
 90
        0
280
     0
281
     0
  0
CLASS
  1
AMDTMENUSTATEMGR
  2
AmdtMenuStateMgr
  3
McadcomServices
 90
        0
280
     0
281
     0
  0
CLASS
  1
AMDTMCOMMENUSTATE
  2
AmdtMcomMenuState
  3
McadcomServices
 90
        0
280
     0
281
     0
  0
CLASS
  1
MAPIAMMOUDLE
  2
MApiAmModule
  3
MApiAmServices
 90
        0
280
     0
281
     0
  0
CLASS
  1
AMDTADMENUSTATE
  2
AmdtAdMenuState
  3
DesignerServices
 90
        0
280
     0
281
     0
  0
CLASS
  1
ADAPPL
  2
AcAdAppl
  3
DesignerServices
 90
        0
280
     0
281
     0
  0
CLASS
  1
DEPMGR
  2
AcAdDepMgr
  3
DesignerServices
 90
        0
280
     0
281
     0
  0
CLASS
  1
PARAMMGR
  2
AcAdParamMgr
  3
DesignerServices
 90
        0
280
     0
281
     0
  0
CLASS
  1
PARAMSCOPE
  2
AcAdParamScope
  3
DesignerServices
 90
        0
280
     0
281
     0
  0
CLASS
  1
NAMEDAPPL
  2
AcAdNamedAppl
  3
DesignerServices
 90
        0
280
     0
281
     0
  0
CLASS
  1
AMDTDMMENUSTATE
  2
AmdtDmMenuState
  3
AcMechDwgViewMgmt
 90
        0
280
     0
281
     0
  0
CLASS
  1
AMDTAMMENUSTATE
  2
AmdtAmMenuState
  3
DesignerAssemblies
 90
        0
280
     0
281
     0
  0
CLASS
  1
ACAMPROJECT
  2
AcAmProject
  3
DesignerAssemblies
 90
        0
280
     0
281
     0
  0
CLASS
  1
ACAMGRCOMPDEF
  2
AcAmGrCompDef
  3
DesignerAssemblies
 90
        0
280
     0
281
     0
  0
CLASS
  1
ACCMCONTEXT
  2
AcCmContext
  3
DesignerAssemblies
 90
        0
280
     0
281
     0
  0
CLASS
  1
ACAMCOMPDEF
  2
AcAmCompDef
  3
DesignerAssemblies
 90
        0
280
     0
281
     0
  0
CLASS
  1
ACAMCOMPDEFMGR
  2
AcAmCompDefMgr
  3
DesignerAssemblies
 90
        0
280
     0
281
     0
  0
CLASS
  1
AMCONTEXTMGR
  2
AcAmContextMgr
  3
DesignerAssemblies
 90
        0
280
     0
281
     0
  0
CLASS
  1
ACAMCONTEXTMODELER
  2
AcAmContextModeler
  3
DesignerAssemblies
 90
        0
280
     0
281
     0
  0
CLASS
  1
CATALOGSTATE
  2
AcAmCatalogState
  3
DesignerAssemblies
 90
        0
280
     0
281
     0
  0
CLASS
  1
ACAMGRCOMPDEFSET
  2
AcAmGrCompDefSet
  3
DesignerAssemblies
 90
        0
280
     0
281
     0
  0
CLASS
  1
AMDTBROWSERDBTAB
  2
AmdtBrowserDbTab
  3
McadcomServices
 90
        0
280
     0
281
     0
  0
CLASS
  1
CBROWSERAPPOBJECT
  2
CBrowserAppObject
  3
McadcomServices
 90
        0
280
     0
281
     0
  0
CLASS
  1
DM_PLACEHOLDER
  2
AcDmSelsetPlaceholder
  3
AcMechDwgViewMgmt
 90
        0
280
     0
281
     0
  0
CLASS
  1
TABLESTYLE
  2
AcDbTableStyle
  3
ObjectDBX Classes
 90
     2047
280
     0
281
     0
  0
CLASS
  1
VAACXREFPANELOBJECT
  2
VaAcXREFPanelObject
  3
VAAC_ADDIN
 90
    32768
280
     0
281
     0
  0
CLASS
  1
VAACIMAGEINVENTORY
  2
VaAcImageInventory
  3
VAAC_ADDIN
 90
    32768
280
     0
281
     0
  0
CLASS
  1
AMDTNOTETEMPLATEDB
  2
AmdtNoteTemplateDB
  3
AMDT_STDIMP_MODULE_NAME
 90
        0
280
     0
281
     0
  0
CLASS
  1
ACAMGFILTERDAT
  2
AcAmgFilterDat
  3
"AcadM|Product Description: AutoCAD Mechanical 2000|Company: Autodesk"
 90
        0
280
     0
281
     0
  0
CLASS
  1
ACMBOM
  2
AcmBom
  3
"AcmSymBB|Product Description: AutoCAD Mechanical 2004 DX|Company: Autodesk"
 90
    32768
280
     0
281
     0
  0
CLASS
  1
AMDTFORMULAUPDATEDISPATCHER
  2
AmdtFormulaUpdateDispatcher
  3
AcMeServices
 90
    32768
280
     0
281
     0
  0
CLASS
  1
SORTENTSTABLE
  2
AcDbSortentsTable
  3
ObjectDBX Classes
 90
        0
280
     0
281
     0
  0
CLASS
  1
ACRFATTGENMGR
  2
AcRfAttGeneralMgr
  3
AcAttribServices
 90
        0
280
     0
281
     0
  0
ENDSEC
  0
SECTION
  2
TABLES
  0
TABLE
  2
VPORT
  5
8
330
0
100
AcDbSymbolTable
 70
     3
  0
VPORT
  5
B48
330
8
100
AcDbSymbolTableRecord
100
AcDbViewportTableRecord
  2
*Active
 70
     0
 10
0.0
 20
0.0
 11
1.0
 21
1.0
 12
1536.179154914159
 22
1662.850854675196
 13
0.0
 23
0.0
 14
2.5
 24
2.5
 15
10.0
 25
10.0
 16
0.0
 26
0.0
 36
1.0
 17
0.0
 27
0.0
 37
0.0
 40
1819.64407802257
 41
1.378804960541149
 42
50.0
 43
0.0
 44
0.0
 50
0.0
 51
0.0
 71
     0
 72
   100
 73
     1
 74
     3
 75
     0
 76
     0
 77
     0
 78
     0
281
     0
 65
     1
110
0.0
120
0.0
130
0.0
111
1.0
121
0.0
131
0.0
112
0.0
122
1.0
132
0.0
 79
     0
146
0.0
  0
ENDTAB
  0
TABLE
  2
LTYPE
  5
5
330
0
100
AcDbSymbolTable
 70
    23
  0
LTYPE
  5
14
330
5
100
AcDbSymbolTableRecord
100
AcDbLinetypeTableRecord
  2
ByBlock
 70
     0
  3

 72
    65
 73
     0
 40
0.0
  0
LTYPE
  5
15
330
5
100
AcDbSymbolTableRecord
100
AcDbLinetypeTableRecord
  2
ByLayer
 70
     0
  3

 72
    65
 73
     0
 40
0.0
  0
LTYPE
  5
16
330
5
100
AcDbSymbolTableRecord
100
AcDbLinetypeTableRecord
  2
Continuous
 70
     0
  3
Solid line
 72
    65
 73
     0
 40
0.0
  0
LTYPE
  5
50
330
5
100
AcDbSymbolTableRecord
100
AcDbLinetypeTableRecord
  2
Amconstr
 70
     0
  3
_______________________
 72
    65
 73
     2
 40
9999.0
 49
9999.0
 74
     0
 49
0.0
 74
     0
  0
LTYPE
  5
55
330
5
100
AcDbSymbolTableRecord
100
AcDbLinetypeTableRecord
  2
Amzigzag
 70
     0
  3
/\/-/\/-/\/-/\/-/\/-/\/
 72
    65
 73
     2
 40
11.0001
 49
0.0001
 74
     4
 75
   136
340
285
 46
0.04
 50
0.0
 44
0.0
 45
0.0
 49
-11.0
 74
     0
  0
LTYPE
  5
56
330
5
100
AcDbSymbolTableRecord
100
AcDbLinetypeTableRecord
  2
AM_DIN_F_W050
 70
     0
  3
__ __ __ __ __ __ __ __ __ __ __ __ __ __ __
 72
    65
 73
     2
 40
6.25
 49
4.75
 74
     0
 49
-1.5
 74
     0
  0
LTYPE
  5
57
330
5
100
AcDbSymbolTableRecord
100
AcDbLinetypeTableRecord
  2
AM_DIN_G_W050
 70
     0
  3
____ . ____ . ____ . ____ . ____ . ____ . ____
 72
    65
 73
     4
 40
13.75
 49
9.75
 74
     0
 49
-1.5
 74
     0
 49
1.0
 74
     0
 49
-1.5
 74
     0
  0
LTYPE
  5
58
330
5
100
AcDbSymbolTableRecord
100
AcDbLinetypeTableRecord
  2
AM_DIN_K_W050
 70
     0
  3
_____ . . _____ . . _____ . . ____ .. ____
 72
    65
 73
     6
 40
16.25
 49
9.75
 74
     0
 49
-1.5
 74
     0
 49
1.0
 74
     0
 49
-1.5
 74
     0
 49
1.0
 74
     0
 49
-1.5
 74
     0
  0
LTYPE
  5
59
330
5
100
AcDbSymbolTableRecord
100
AcDbLinetypeTableRecord
  2
AM_DIN_G_W050x2
 70
     0
  3
__ . __ . __ . __ . __ . __
 72
    65
 73
     4
 40
6.875
 49
4.75
 74
     0
 49
-0.875
 74
     0
 49
0.375
 74
     0
 49
-0.875
 74
     0
  0
LTYPE
  5
5A
330
5
100
AcDbSymbolTableRecord
100
AcDbLinetypeTableRecord
  2
AM_DIN_F_W050x2
 70
     0
  3
 _ _ _ _ _ _ _ _ _ _ _ _
 72
    65
 73
     2
 40
3.125
 49
2.25
 74
     0
 49
-0.875
 74
     0
  0
LTYPE
  5
68
330
5
100
AcDbSymbolTableRecord
100
AcDbLinetypeTableRecord
  2
ACDINWELD
 70
     0
  3
_ _ _ _ _
 72
    65
 73
     2
 40
2.0
 49
2.0
 74
     0
 49
-1.0
 74
     0
  0
LTYPE
  5
69
330
5
100
AcDbSymbolTableRecord
100
AcDbLinetypeTableRecord
  2
ACDINTGB
 70
     0
  3
__ . . __ . .
 72
    65
 73
     6
 40
9.0
 49
4.0
 74
     0
 49
-1.0
 74
     0
 49
1.0
 74
     0
 49
-1.0
 74
     0
 49
1.0
 74
     0
 49
-1.0
 74
     0
  0
LTYPE
  5
6A
330
5
100
AcDbSymbolTableRecord
100
AcDbLinetypeTableRecord
  2
ACDINTGL
 70
     0
  3
_ _ _ _ _
 72
    65
 73
     2
 40
3.0
 49
2.0
 74
     0
 49
-1.0
 74
     0
  0
LTYPE
  5
6C
330
5
100
AcDbSymbolTableRecord
100
AcDbLinetypeTableRecord
  2
CENTER
 70
     0
  3
__ . __
 72
    65
 73
     4
 40
7.0
 49
4.0
 74
     0
 49
-1.0
 74
     0
 49
1.0
 74
     0
 49
-1.0
 74
     0
  0
LTYPE
  5
F2
330
5
100
AcDbSymbolTableRecord
100
AcDbLinetypeTableRecord
  2
HIDDEN
 70
     0
  3
Hidden __ __ __ __ __ __ __ __ __ __ __ __ __ _
 72
    65
 73
     2
 40
9.524999999999998
 49
6.349999999999999
 74
     0
 49
-3.174999999999999
 74
     0
  0
LTYPE
  5
F3
330
5
100
AcDbSymbolTableRecord
100
AcDbLinetypeTableRecord
  2
PHANTOM2
 70
     0
  3
Phantom (.5x) ___ _ _ ___ _ _ ___ _ _ ___ _ _
 72
    65
 73
     6
 40
31.75
 49
15.875
 74
     0
 49
-3.174999999999999
 74
     0
 49
3.174999999999999
 74
     0
 49
-3.174999999999999
 74
     0
 49
3.174999999999999
 74
     0
 49
-3.174999999999999
 74
     0
  0
LTYPE
  5
30F
330
5
100
AcDbSymbolTableRecord
100
AcDbLinetypeTableRecord
  2
MITTE
 70
     0
  3
Mitte ____ _ ____ _ ____ _ ____
 72
    65
 73
     4
 40
50.8
 49
31.75
 74
     0
 49
-6.349999999999999
 74
     0
 49
6.349999999999999
 74
     0
 49
-6.349999999999999
 74
     0
  0
LTYPE
  5
310
330
5
100
AcDbSymbolTableRecord
100
AcDbLinetypeTableRecord
  2
AUSGEZOGEN
 70
     0
  3
_______________________________________________
 72
    65
 73
     0
 40
0.0
  0
LTYPE
  5
311
330
5
100
AcDbSymbolTableRecord
100
AcDbLinetypeTableRecord
  2
PUNKT
 70
     0
  3
...............................................
 72
    65
 73
     2
 40
0.25
 49
0.0
 74
     0
 49
-0.25
 74
     0
  0
LTYPE
  5
312
330
5
100
AcDbSymbolTableRecord
100
AcDbLinetypeTableRecord
  2
GESTRICHELT
 70
     0
  3
__ __ __ __ __ __ __ __ __ __ __ __ __ __ __
 72
    65
 73
     2
 40
0.75
 49
0.5
 74
     0
 49
-0.25
 74
     0
  0
ENDTAB
  0
TABLE
  2
LAYER
  5
2
102
{ACAD_XDICTIONARY
360
C0
102
}
330
0
100
AcDbSymbolTable
 70
    15
  0
LAYER
  5
10
330
2
100
AcDbSymbolTableRecord
100
AcDbLayerTableRecord
  2
0
 70
     0
 62
     7
  6
Continuous
370
    -3
390
F
  0
LAYER
  5
314
330
2
100
AcDbSymbolTableRecord
100
AcDbLayerTableRecord
  2
BILD
 70
     0
 62
     1
  6
PUNKT
370
    -3
390
F
  0
LAYER
  5
315
330
2
100
AcDbSymbolTableRecord
100
AcDbLayerTableRecord
  2
SCHRAFF
 70
     0
 62
     7
  6
AUSGEZOGEN
370
    -3
390
F
  0
LAYER
  5
316
330
2
100
AcDbSymbolTableRecord
100
AcDbLayerTableRecord
  2
TEXT
 70
     0
 62
     7
  6
AUSGEZOGEN
370
    -3
390
F
  0
LAYER
  5
317
330
2
100
AcDbSymbolTableRecord
100
AcDbLayerTableRecord
  2
KONTUR
 70
     0
 62
     7
  6
AUSGEZOGEN
370
    -3
390
F
  0
LAYER
  5
318
330
2
100
AcDbSymbolTableRecord
100
AcDbLayerTableRecord
  2
Z
 70
     0
 62
     7
  6
AUSGEZOGEN
370
    -3
390
F
  0
LAYER
  5
319
330
2
100
AcDbSymbolTableRecord
100
AcDbLayerTableRecord
  2
GEHAEUSE
 70
     0
 62
     7
  6
MITTE
370
    -3
390
F
  0
LAYER
  5
31A
330
2
100
AcDbSymbolTableRecord
100
AcDbLayerTableRecord
  2
MASSE
 70
     0
 62
     1
  6
AUSGEZOGEN
370
    -3
390
F
  0
LAYER
  5
31B
330
2
100
AcDbSymbolTableRecord
100
AcDbLayerTableRecord
  2
MITTE
 70
     0
 62
     1
  6
AUSGEZOGEN
370
    -3
390
F
  0
LAYER
  5
31C
330
2
100
AcDbSymbolTableRecord
100
AcDbLayerTableRecord
  2
LOGO2
 70
     0
 62
     7
  6
AUSGEZOGEN
370
    -3
390
F
  0
LAYER
  5
31D
330
2
100
AcDbSymbolTableRecord
100
AcDbLayerTableRecord
  2
PUMPE
 70
     0
 62
     1
  6
MITTE
370
    -3
390
F
  0
LAYER
  5
31E
330
2
100
AcDbSymbolTableRecord
100
AcDbLayerTableRecord
  2
DIN84
 70
     0
 62
     7
  6
AUSGEZOGEN
370
    -3
390
F
  0
LAYER
  5
31F
330
2
100
AcDbSymbolTableRecord
100
AcDbLayerTableRecord
  2
ANSCHLUS
 70
     0
 62
     2
  6
GESTRICHELT
370
    -3
390
F
  0
ENDTAB
  0
TABLE
  2
STYLE
  5
3
330
0
100
AcDbSymbolTable
 70
    10
  0
STYLE
  5
11
330
3
100
AcDbSymbolTableRecord
100
AcDbTextStyleTableRecord
  2
STANDARD
 70
     0
 40
0.0
 41
1.0
 50
0.0
 71
     0
 42
2.5
  3
ISOCP.SHX
  4
bigfont.shx
  0
STYLE
  5
5B
330
3
100
AcDbSymbolTableRecord
100
AcDbTextStyleTableRecord
  2
ACDINTS
 70
     0
 40
1.0
 41
1.0
 50
0.0
 71
     0
 42
2.5
  3
isocp.shx
  4
bigfont.shx
  0
STYLE
  5
67
330
3
100
AcDbSymbolTableRecord
100
AcDbTextStyleTableRecord
  2
ACDINGDT
 70
     0
 40
0.0
 41
1.0
 50
0.0
 71
     0
 42
2.5
  3
AMGDT
  4
bigfont.shx
  0
STYLE
  5
285
330
3
100
AcDbSymbolTableRecord
100
AcDbTextStyleTableRecord
  2

 70
     1
 40
0.0
 41
1.0
 50
0.0
 71
     0
 42
2.5
  3
genltshp.shx
  4

  0
STYLE
  5
320
330
3
100
AcDbSymbolTableRecord
100
AcDbTextStyleTableRecord
  2
SIMPLEX
 70
     0
 40
0.0
 41
1.0
 50
0.0
 71
     0
 42
3.5
  3
simplex
  4

  0
STYLE
  5
321
330
3
100
AcDbSymbolTableRecord
100
AcDbTextStyleTableRecord
  2
COMPLEX
 70
     0
 40
0.0
 41
1.0
 50
0.0
 71
     0
 42
3.5
  3
complex
  4

  0
ENDTAB
  0
TABLE
  2
VIEW
  5
6
330
0
100
AcDbSymbolTable
 70
     0
  0
ENDTAB
  0
TABLE
  2
UCS
  5
7
330
0
100
AcDbSymbolTable
 70
     0
  0
ENDTAB
  0
TABLE
  2
APPID
  5
9
330
0
100
AcDbSymbolTable
 70
    12
  0
APPID
  5
12
330
9
100
AcDbSymbolTableRecord
100
AcDbRegAppTableRecord
  2
ACAD
 70
     0
  0
APPID
  5
30
330
9
100
AcDbSymbolTableRecord
100
AcDbRegAppTableRecord
  2
MCAD_NO_VIS
 70
     0
  0
APPID
  5
31
330
9
100
AcDbSymbolTableRecord
100
AcDbRegAppTableRecord
  2
ACAD_TEMP_GRAPHIC
 70
     0
  0
APPID
  5
44
330
9
100
AcDbSymbolTableRecord
100
AcDbRegAppTableRecord
  2
ACATTRIBSERVICES
 70
     0
  0
APPID
  5
108
330
9
100
AcDbSymbolTableRecord
100
AcDbRegAppTableRecord
  2
AD_DRAW
 70
     0
  0
APPID
  5
126
330
9
100
AcDbSymbolTableRecord
100
AcDbRegAppTableRecord
  2
DESIGNERASSEMBLIES
 70
     0
  0
APPID
  5
12A
330
9
100
AcDbSymbolTableRecord
100
AcDbRegAppTableRecord
  2
ACADM_DIM_EDIT
 70
     0
  0
APPID
  5
12B
330
9
100
AcDbSymbolTableRecord
100
AcDbRegAppTableRecord
  2
AMDT_DM_ADJ
 70
     0
  0
APPID
  5
1A4
330
9
100
AcDbSymbolTableRecord
100
AcDbRegAppTableRecord
  2
ACAD_DSTYLE_DIMARC_LENGTH_SYMBOL
 70
     0
  0
APPID
  5
1A5
330
9
100
AcDbSymbolTableRecord
100
AcDbRegAppTableRecord
  2
ACAD_DSTYLE_DIMJOGGED_JOGANGLE_SYMBOL
 70
     0
  0
APPID
  5
22C
330
9
100
AcDbSymbolTableRecord
100
AcDbRegAppTableRecord
  2
AcAecLayerStandard
 70
     0
  0
APPID
  5
326
330
9
100
AcDbSymbolTableRecord
100
AcDbRegAppTableRecord
  2
ACAD_PSEXT
 70
     0
  0
ENDTAB
  0
TABLE
  2
DIMSTYLE
  5
A
330
0
100
AcDbSymbolTable
 70
    12
100
AcDbDimStyleTable
 71
     1
340
6F
  0
DIMSTYLE
105
6F
102
{ACAD_REACTORS
330
4B
102
}
330
A
100
AcDbSymbolTableRecord
100
AcDbDimStyleTableRecord
  2
AM_DIN
 70
     0
  4
"
 41
2.5
 42
1.0
 43
10.0
 44
1.0
 47
0.1
 48
0.1
 73
     0
 74
     0
 77
     1
 78
     8
 79
     2
140
3.5
141
0.0
143
0.0393701
146
0.71
147
1.5
172
     1
176
   256
177
   256
178
     2
271
     2
272
     3
274
     4
283
     0
284
     8
340
11
371
    -1
372
    -1
1001
ACAD_DSTYLE_DIMARC_LENGTH_SYMBOL
1070
   379
1070
     0
1001
ACAD_DSTYLE_DIMJOGGED_JOGANGLE_SYMBOL
1070
   384
1040
1.570796326794896
  0
DIMSTYLE
105
70
330
A
100
AcDbSymbolTableRecord
100
AcDbDimStyleTableRecord
  2
AM_DIN$3
 70
     0
  4
"
 41
2.5
 42
1.0
 43
10.0
 44
1.0
 47
0.1
 48
0.1
 73
     0
 77
     1
 78
     8
 79
     2
140
3.5
141
0.0
143
0.0393701
146
0.71
147
1.5
176
   256
177
   256
178
     2
271
     2
272
     3
274
     4
283
     0
284
     8
288
     1
289
     0
340
11
371
    -1
372
    -1
1001
ACAD_DSTYLE_DIMARC_LENGTH_SYMBOL
1070
   379
1070
     0
1001
ACAD_DSTYLE_DIMJOGGED_JOGANGLE_SYMBOL
1070
   384
1040
1.570796326794896
  0
DIMSTYLE
105
71
330
A
100
AcDbSymbolTableRecord
100
AcDbDimStyleTableRecord
  2
AM_DIN$4
 70
     0
  4
"
 41
2.5
 42
1.0
 43
10.0
 44
1.0
 47
0.1
 48
0.1
 73
     0
 77
     1
 78
     8
 79
     2
140
3.5
141
0.0
143
0.0393701
146
0.71
147
1.5
176
   256
177
   256
178
     2
271
     2
272
     3
274
     4
283
     0
284
     8
288
     1
289
     0
340
11
371
    -1
372
    -1
1001
ACAD_DSTYLE_DIMARC_LENGTH_SYMBOL
1070
   379
1070
     0
1001
ACAD_DSTYLE_DIMJOGGED_JOGANGLE_SYMBOL
1070
   384
1040
1.570796326794896
  0
DIMSTYLE
105
72
330
A
100
AcDbSymbolTableRecord
100
AcDbDimStyleTableRecord
  2
AM_DIN$6
 70
     0
  4
"
 41
2.5
 42
1.0
 43
10.0
 44
1.0
 47
0.1
 48
0.1
 73
     0
 74
     0
 78
     8
 79
     2
140
3.5
141
0.0
143
0.0393701
146
0.71
147
1.5
172
     1
176
   256
177
   256
178
     2
271
     2
272
     3
274
     4
283
     0
284
     8
340
11
371
    -1
372
    -1
1001
ACAD_DSTYLE_DIMARC_LENGTH_SYMBOL
1070
   379
1070
     0
1001
ACAD_DSTYLE_DIMJOGGED_JOGANGLE_SYMBOL
1070
   384
1040
1.570796326794896
  0
DIMSTYLE
105
73
330
A
100
AcDbSymbolTableRecord
100
AcDbDimStyleTableRecord
  2
AM_DIN$7
 70
     0
  4
"
 41
2.5
 42
1.0
 43
10.0
 44
1.0
 47
0.1
 48
0.1
 73
     0
 74
     0
 77
     1
 78
     8
 79
     2
140
5.0
141
0.0
143
0.0393701
146
0.71
147
1.5
172
     1
176
   256
177
   256
178
     2
271
     2
272
     3
274
     4
283
     0
284
     8
340
11
371
    -1
372
    -1
1001
ACAD_DSTYLE_DIMARC_LENGTH_SYMBOL
1070
   379
1070
     0
1001
ACAD_DSTYLE_DIMJOGGED_JOGANGLE_SYMBOL
1070
   384
1040
1.570796326794896
  0
DIMSTYLE
105
74
330
A
100
AcDbSymbolTableRecord
100
AcDbDimStyleTableRecord
  2
AM_DIN$SF
 70
     0
  4
"
 41
2.5
 42
1.0
 43
10.0
 44
1.0
 47
0.1
 48
0.1
 73
     0
 74
     0
 75
     1
 76
     1
 77
     1
 78
     8
 79
     2
140
3.5
141
0.0
143
0.0393701
146
0.71
147
1.5
172
     1
176
   256
177
   256
178
     2
271
     2
272
     3
274
     4
283
     0
284
     8
340
11
371
    -1
372
    -1
1001
ACAD_DSTYLE_DIMARC_LENGTH_SYMBOL
1070
   379
1070
     0
1001
ACAD_DSTYLE_DIMJOGGED_JOGANGLE_SYMBOL
1070
   384
1040
1.570796326794896
  0
DIMSTYLE
105
79
330
A
100
AcDbSymbolTableRecord
100
AcDbDimStyleTableRecord
  2
AM_DIN$SH
 70
     0
  4
"
 41
2.5
 42
1.0
 43
10.0
 44
1.0
 47
0.1
 48
0.1
 73
     0
 74
     0
 75
     1
 76
     1
 77
     1
 78
     8
 79
     2
140
3.5
141
0.0
143
0.0393701
144
2.0
146
0.71
147
1.5
172
     1
173
     1
176
   256
177
   256
178
     2
271
     2
272
     3
274
     4
283
     0
284
     8
340
11
343
75
371
    -1
372
    -1
1001
ACAD_DSTYLE_DIMARC_LENGTH_SYMBOL
1070
   379
1070
     0
1001
ACAD_DSTYLE_DIMJOGGED_JOGANGLE_SYMBOL
1070
   384
1040
1.570796326794896
  0
ENDTAB
  0
TABLE
  2
BLOCK_RECORD
  5
1
330
0
100
AcDbSymbolTable
 70
     4
  0
BLOCK_RECORD
  5
1F
102
{ACAD_XDICTIONARY
360
83
102
}
330
1
100
AcDbSymbolTableRecord
100
AcDbBlockTableRecord
  2
*Model_Space
340
22
  0
BLOCK_RECORD
  5
1B
330
1
100
AcDbSymbolTableRecord
100
AcDbBlockTableRecord
  2
*Paper_Space
340
1E
  0
BLOCK_RECORD
  5
23
330
1
100
AcDbSymbolTableRecord
100
AcDbBlockTableRecord
  2
*Paper_Space0
340
26
  0
BLOCK_RECORD
  5
75
330
1
100
AcDbSymbolTableRecord
100
AcDbBlockTableRecord
  2
GENAXEH
340
0
  0
ENDTAB
  0
ENDSEC
  0
SECTION
  2
BLOCKS
  0
BLOCK
  5
20
330
1F
100
AcDbEntity
  8
0
100
AcDbBlockBegin
  2
*Model_Space
 70
     0
 10
0.0
 20
0.0
 30
0.0
  3
*Model_Space
  1

  0
ENDBLK
  5
21
330
1F
100
AcDbEntity
  8
0
100
AcDbBlockEnd
  0
BLOCK
  5
1C
330
1B
100
AcDbEntity
 67
     1
  8
0
100
AcDbBlockBegin
  2
*Paper_Space
 70
     0
 10
0.0
 20
0.0
 30
0.0
  3
*Paper_Space
  1

  0
ENDBLK
  5
1D
330
1B
100
AcDbEntity
 67
     1
  8
0
100
AcDbBlockEnd
  0
BLOCK
  5
24
330
23
100
AcDbEntity
 67
     1
  8
0
100
AcDbBlockBegin
  2
*Paper_Space0
 70
     0
 10
0.0
 20
0.0
 30
0.0
  3
*Paper_Space0
  1

  0
ENDBLK
  5
25
330
23
100
AcDbEntity
 67
     1
  8
0
100
AcDbBlockEnd
  0
BLOCK
  5
77
330
75
100
AcDbEntity
  8
0
100
AcDbBlockBegin
  2
GENAXEH
 70
     0
 10
0.0
 20
0.0
 30
0.0
  3
GENAXEH
  1

  0
LINE
  5
76
330
75
100
AcDbEntity
  8
0
100
AcDbLine
 10
-1.0
 20
0.0
 30
0.0
 11
1.0
 21
0.0
 31
0.0
  0
ENDBLK
  5
78
330
75
100
AcDbEntity
  8
0
100
AcDbBlockEnd
  0
ENDSEC
  0
SECTION
  2
ENTITIES
  0
LINE
  5
73B
330
1F
100
AcDbEntity
  8
BILD
  6
AUSGEZOGEN
 62
     1
100
AcDbLine
 10
1169.272921262494
 20
959.1350038451947
 30
0.0
 11
1189.272921262494
 21
939.1350038451946
 31
0.0
  0
LINE
  5
73C
330
1F
100
AcDbEntity
  8
BILD
  6
AUSGEZOGEN
 62
     1
100
AcDbLine
 10
1189.272921262494
 20
939.1350038451946
 30
0.0
 11
1736.273043332494
 21
939.1350038451946
 31
0.0
  0
LINE
  5
73D
330
1F
100
AcDbEntity
  8
BILD
  6
AUSGEZOGEN
 62
     1
100
AcDbLine
 10
1169.272921262494
 20
959.1350038451947
 30
0.0
 11
1169.272921262494
 21
1415.135064885195
 31
0.0
  0
LINE
  5
73E
330
1F
100
AcDbEntity
  8
BILD
  6
PUNKT
 62
     1
100
AcDbLine
 10
1269.273165402494
 20
1335.136041445194
 30
0.0
 11
1269.273165402494
 21
1039.136041445194
 31
0.0
  0
LINE
  5
73F
330
1F
100
AcDbEntity
  8
BILD
  6
PUNKT
 62
     1
100
AcDbLine
 10
1656.273287472493
 20
1039.135003845194
 30
0.0
 11
1269.273165402494
 21
1039.135003845194
 31
0.0
  0
CIRCLE
  5
740
330
1F
100
AcDbEntity
  8
BILD
  6
AUSGEZOGEN
 62
     1
100
AcDbCircle
 10
1392.772921262494
 20
1068.135858335195
 30
0.0
 40
3.25
  0
CIRCLE
  5
741
330
1F
100
AcDbEntity
  8
BILD
  6
AUSGEZOGEN
 62
     1
100
AcDbCircle
 10
1378.773043332494
 20
1068.135858335195
 30
0.0
 40
3.25
  0
CIRCLE
  5
742
330
1F
100
AcDbEntity
  8
BILD
  6
AUSGEZOGEN
 62
     1
100
AcDbCircle
 10
1392.772921262494
 20
1082.136102485195
 30
0.0
 40
3.25
  0
CIRCLE
  5
743
330
1F
100
AcDbEntity
  8
BILD
  6
AUSGEZOGEN
 62
     1
100
AcDbCircle
 10
1378.773043332494
 20
1082.136102485195
 30
0.0
 40
3.25
  0
CIRCLE
  5
744
330
1F
100
AcDbEntity
  8
BILD
  6
AUSGEZOGEN
 62
     1
100
AcDbCircle
 10
1364.773104362495
 20
1068.135858335195
 30
0.0
 40
3.25
  0
CIRCLE
  5
745
330
1F
100
AcDbEntity
  8
BILD
  6
AUSGEZOGEN
 62
     1
100
AcDbCircle
 10
1350.773165402493
 20
1068.135858335195
 30
0.0
 40
3.25
  0
CIRCLE
  5
746
330
1F
100
AcDbEntity
  8
BILD
  6
AUSGEZOGEN
 62
     1
100
AcDbCircle
 10
1364.773104362495
 20
1082.136102485195
 30
0.0
 40
3.25
  0
CIRCLE
  5
747
330
1F
100
AcDbEntity
  8
BILD
  6
AUSGEZOGEN
 62
     1
100
AcDbCircle
 10
1350.773165402493
 20
1082.136102485195
 30
0.0
 40
3.25
  0
CIRCLE
  5
748
330
1F
100
AcDbEntity
  8
BILD
  6
AUSGEZOGEN
 62
     1
100
AcDbCircle
 10
1336.773226432495
 20
1068.135858335195
 30
0.0
 40
3.25
  0
CIRCLE
  5
749
330
1F
100
AcDbEntity
  8
BILD
  6
AUSGEZOGEN
 62
     1
100
AcDbCircle
 10
1322.773287472493
 20
1068.135858335195
 30
0.0
 40
3.25
  0
CIRCLE
  5
74A
330
1F
100
AcDbEntity
  8
BILD
  6
AUSGEZOGEN
 62
     1
100
AcDbCircle
 10
1336.773226432495
 20
1082.136102485195
 30
0.0
 40
3.25
  0
CIRCLE
  5
74B
330
1F
100
AcDbEntity
  8
BILD
  6
AUSGEZOGEN
 62
     1
100
AcDbCircle
 10
1322.773287472493
 20
1082.136102485195
 30
0.0
 40
3.25
  0
CIRCLE
  5
74C
330
1F
100
AcDbEntity
  8
BILD
  6
AUSGEZOGEN
 62
     1
100
AcDbCircle
 10
1308.773043332494
 20
1068.135858335195
 30
0.0
 40
3.25
  0
CIRCLE
  5
74D
330
1F
100
AcDbEntity
  8
BILD
  6
AUSGEZOGEN
 62
     1
100
AcDbCircle
 10
1294.773104362495
 20
1068.135858335195
 30
0.0
 40
3.25
  0
CIRCLE
  5
74E
330
1F
100
AcDbEntity
  8
BILD
  6
AUSGEZOGEN
 62
     1
100
AcDbCircle
 10
1308.773043332494
 20
1082.136102485195
 30
0.0
 40
3.25
  0
CIRCLE
  5
74F
330
1F
100
AcDbEntity
  8
BILD
  6
AUSGEZOGEN
 62
     1
100
AcDbCircle
 10
1294.773104362495
 20
1082.136102485195
 30
0.0
 40
3.25
  0
CIRCLE
  5
750
330
1F
100
AcDbEntity
  8
BILD
  6
AUSGEZOGEN
 62
     1
100
AcDbCircle
 10
1357.773287472493
 20
1047.135492125195
 30
0.0
 40
3.5
  0
CIRCLE
  5
751
330
1F
100
AcDbEntity
  8
BILD
  6
AUSGEZOGEN
 62
     1
100
AcDbCircle
 10
1357.773287472493
 20
1075.135370055194
 30
0.0
 40
3.5
  0
CIRCLE
  5
752
330
1F
100
AcDbEntity
  8
BILD
  6
AUSGEZOGEN
 62
     1
100
AcDbCircle
 10
1315.773165402494
 20
1047.135492125195
 30
0.0
 40
3.5
  0
CIRCLE
  5
753
330
1F
100
AcDbEntity
  8
BILD
  6
AUSGEZOGEN
 62
     1
100
AcDbCircle
 10
1315.773165402494
 20
1075.135370055194
 30
0.0
 40
3.5
  0
CIRCLE
  5
754
330
1F
100
AcDbEntity
  8
BILD
  6
AUSGEZOGEN
 62
     1
100
AcDbCircle
 10
1273.773043332494
 20
1047.135492125195
 30
0.0
 40
3.5
  0
CIRCLE
  5
755
330
1F
100
AcDbEntity
  8
BILD
  6
AUSGEZOGEN
 62
     1
100
AcDbCircle
 10
1273.773043332494
 20
1075.135370055194
 30
0.0
 40
3.5
  0
CIRCLE
  5
756
330
1F
100
AcDbEntity
  8
BILD
  6
AUSGEZOGEN
 62
     1
100
AcDbCircle
 10
1420.773165402494
 20
1068.135858335195
 30
0.0
 40
3.25
  0
CIRCLE
  5
757
330
1F
100
AcDbEntity
  8
BILD
  6
AUSGEZOGEN
 62
     1
100
AcDbCircle
 10
1406.773226432495
 20
1068.135858335195
 30
0.0
 40
3.25
  0
CIRCLE
  5
758
330
1F
100
AcDbEntity
  8
BILD
  6
AUSGEZOGEN
 62
     1
100
AcDbCircle
 10
1420.773165402494
 20
1082.136102485195
 30
0.0
 40
3.25
  0
CIRCLE
  5
759
330
1F
100
AcDbEntity
  8
BILD
  6
AUSGEZOGEN
 62
     1
100
AcDbCircle
 10
1406.773226432495
 20
1082.136102485195
 30
0.0
 40
3.25
  0
CIRCLE
  5
75A
330
1F
100
AcDbEntity
  8
BILD
  6
AUSGEZOGEN
 62
     1
100
AcDbCircle
 10
1399.773104362495
 20
1047.135492125195
 30
0.0
 40
3.5
  0
CIRCLE
  5
75B
330
1F
100
AcDbEntity
  8
BILD
  6
AUSGEZOGEN
 62
     1
100
AcDbCircle
 10
1399.773104362495
 20
1075.135370055194
 30
0.0
 40
3.5
  0
CIRCLE
  5
75C
330
1F
100
AcDbEntity
  8
BILD
  6
AUSGEZOGEN
 62
     1
100
AcDbCircle
 10
1651.773165402494
 20
1047.135492125195
 30
0.0
 40
3.5
  0
CIRCLE
  5
75D
330
1F
100
AcDbEntity
  8
BILD
  6
AUSGEZOGEN
 62
     1
100
AcDbCircle
 10
1651.773165402494
 20
1075.135370055194
 30
0.0
 40
3.5
  0
CIRCLE
  5
75E
330
1F
100
AcDbEntity
  8
BILD
  6
AUSGEZOGEN
 62
     1
100
AcDbCircle
 10
1609.773165402494
 20
1047.135492125195
 30
0.0
 40
3.5
  0
CIRCLE
  5
75F
330
1F
100
AcDbEntity
  8
BILD
  6
AUSGEZOGEN
 62
     1
100
AcDbCircle
 10
1609.773165402494
 20
1075.135370055194
 30
0.0
 40
3.5
  0
CIRCLE
  5
760
330
1F
100
AcDbEntity
  8
BILD
  6
AUSGEZOGEN
 62
     1
100
AcDbCircle
 10
1567.773653682496
 20
1047.135492125195
 30
0.0
 40
3.5
  0
CIRCLE
  5
761
330
1F
100
AcDbEntity
  8
BILD
  6
AUSGEZOGEN
 62
     1
100
AcDbCircle
 10
1567.773653682496
 20
1075.135370055194
 30
0.0
 40
3.5
  0
CIRCLE
  5
762
330
1F
100
AcDbEntity
  8
BILD
  6
AUSGEZOGEN
 62
     1
100
AcDbCircle
 10
1525.773165402493
 20
1047.135492125195
 30
0.0
 40
3.5
  0
CIRCLE
  5
763
330
1F
100
AcDbEntity
  8
BILD
  6
AUSGEZOGEN
 62
     1
100
AcDbCircle
 10
1525.773165402493
 20
1075.135370055194
 30
0.0
 40
3.5
  0
CIRCLE
  5
764
330
1F
100
AcDbEntity
  8
BILD
  6
AUSGEZOGEN
 62
     1
100
AcDbCircle
 10
1483.773043332494
 20
1047.135492125195
 30
0.0
 40
3.5
  0
CIRCLE
  5
765
330
1F
100
AcDbEntity
  8
BILD
  6
AUSGEZOGEN
 62
     1
100
AcDbCircle
 10
1483.773043332494
 20
1075.135370055194
 30
0.0
 40
3.5
  0
CIRCLE
  5
766
330
1F
100
AcDbEntity
  8
BILD
  6
AUSGEZOGEN
 62
     1
100
AcDbCircle
 10
1441.773226432495
 20
1047.135492125195
 30
0.0
 40
3.5
  0
CIRCLE
  5
767
330
1F
100
AcDbEntity
  8
BILD
  6
AUSGEZOGEN
 62
     1
100
AcDbCircle
 10
1441.773226432495
 20
1075.135370055194
 30
0.0
 40
3.5
  0
LINE
  5
768
330
1F
100
AcDbEntity
  8
BILD
  6
AUSGEZOGEN
 62
     1
100
AcDbLine
 10
1250.773165402494
 20
1351.635064885195
 30
0.0
 11
1250.773165402494
 21
1022.635064885195
 31
0.0
  0
LINE
  5
769
330
1F
100
AcDbEntity
  8
BILD
  6
AUSGEZOGEN
 62
     1
100
AcDbLine
 10
1252.773287472493
 20
1022.635370055194
 30
0.0
 11
1252.773287472493
 21
1020.635431095195
 31
0.0
  0
LINE
  5
76A
330
1F
100
AcDbEntity
  8
BILD
  6
AUSGEZOGEN
 62
     1
100
AcDbLine
 10
1250.773165402494
 20
1022.635370055194
 30
0.0
 11
1252.773287472493
 21
1022.635370055194
 31
0.0
  0
LINE
  5
76B
330
1F
100
AcDbEntity
  8
BILD
  6
AUSGEZOGEN
 62
     1
100
AcDbLine
 10
1252.773287472493
 20
1020.635247985195
 30
0.0
 11
1672.773287472493
 21
1020.635247985195
 31
0.0
  0
LINE
  5
76C
330
1F
100
AcDbEntity
  8
BILD
  6
PUNKT
 62
     1
100
AcDbLine
 10
1307.772921262494
 20
999.1350038451946
 30
0.0
 11
1417.772921262494
 21
999.1350038451946
 31
0.0
  0
LINE
  5
76D
330
1F
100
AcDbEntity
  8
BILD
  6
PUNKT
 62
     1
100
AcDbLine
 10
1417.772921262494
 20
999.1350038451946
 30
0.0
 11
1417.772921262494
 21
1039.135003845194
 31
0.0
  0
LINE
  5
76E
330
1F
100
AcDbEntity
  8
BILD
  6
PUNKT
 62
     1
100
AcDbLine
 10
1307.772921262494
 20
999.1350038451946
 30
0.0
 11
1307.772921262494
 21
1039.135003845194
 31
0.0
  0
LINE
  5
76F
330
1F
100
AcDbEntity
  8
BILD
  6
MITTE
 62
     1
100
AcDbLine
 10
1362.772921262494
 20
989.0281923251951
 30
0.0
 11
1362.772921262494
 21
1044.665155215194
 31
0.0
  0
LINE
  5
770
330
1F
100
AcDbEntity
  8
BILD
  6
AUSGEZOGEN
 62
     1
100
AcDbLine
 10
1646.278170282494
 20
2400.971002385195
 30
0.0
 11
1618.794893912494
 21
2400.971002385195
 31
0.0
  0
LINE
  5
771
330
1F
100
AcDbEntity
  8
BILD
  6
AUSGEZOGEN
 62
     1
100
AcDbLine
 10
1590.970553092495
 20
2084.143609805195
 30
0.0
 11
1618.795260122493
 21
2400.971246525194
 31
0.0
  0
LINE
  5
772
330
1F
100
AcDbEntity
  8
BILD
  6
AUSGEZOGEN
 62
     1
100
AcDbLine
 10
1503.911226922493
 20
2494.574518005194
 30
0.0
 11
1460.754793812495
 21
2508.023736755195
 31
0.0
  0
LINE
  5
773
330
1F
100
AcDbEntity
  8
BILD
  6
AUSGEZOGEN
 62
     1
100
AcDbLine
 10
1532.778780632496
 20
2382.172174255194
 30
0.0
 11
1601.895968132495
 21
2512.816461365195
 31
0.0
  0
LINE
  5
774
330
1F
100
AcDbEntity
  8
BILD
  6
AUSGEZOGEN
 62
     1
100
AcDbLine
 10
1644.044893912494
 20
2512.816705505195
 30
0.0
 11
1601.896212272495
 21
2512.816705505195
 31
0.0
  0
LINE
  5
775
330
1F
100
AcDbEntity
  8
BILD
  6
AUSGEZOGEN
 62
     1
100
AcDbLine
 10
1549.214571652494
 20
2543.278131285195
 30
0.0
 11
1553.714693722493
 21
2548.278131285195
 31
0.0
  0
LINE
  5
776
330
1F
100
AcDbEntity
  8
BILD
  6
AUSGEZOGEN
 62
     1
100
AcDbLine
 10
1501.214693722493
 20
2543.278131285195
 30
0.0
 11
1496.714571652494
 21
2548.278131285195
 31
0.0
  0
LINE
  5
777
330
1F
100
AcDbEntity
  8
BILD
  6
AUSGEZOGEN
 62
     1
100
AcDbLine
 10
1501.214693722493
 20
2483.278131285195
 30
0.0
 11
1496.714571652494
 21
2478.278131285195
 31
0.0
  0
LINE
  5
778
330
1F
100
AcDbEntity
  8
BILD
  6
AUSGEZOGEN
 62
     1
100
AcDbLine
 10
1549.214571652494
 20
2483.278131285195
 30
0.0
 11
1553.714693722493
 21
2478.278131285195
 31
0.0
  0
LINE
  5
779
330
1F
100
AcDbEntity
  8
BILD
  6
AUSGEZOGEN
 62
     1
100
AcDbLine
 10
1529.259737662494
 20
2506.122369575195
 30
0.0
 11
1530.214327512494
 21
2502.839166445195
 31
0.0
  0
ARC
  5
77A
330
1F
100
AcDbEntity
  8
BILD
  6
AUSGEZOGEN
 62
     1
100
AcDbCircle
 10
1522.087862662494
 20
2512.084283635195
 30
0.0
 40
9.32766151
100
AcDbArc
 50
320.2547912599697
 51
349.2044677700321
  0
ARC
  5
77B
330
1F
100
AcDbEntity
  8
BILD
  6
AUSGEZOGEN
 62
     1
100
AcDbCircle
 10
1528.341158562496
 20
2512.084283635195
 30
0.0
 40
9.32766151
100
AcDbArc
 50
190.7955169700038
 51
219.7451782198851
  0
LINE
  5
77C
330
1F
100
AcDbEntity
  8
BILD
  6
AUSGEZOGEN
 62
     1
100
AcDbLine
 10
1521.169283562496
 20
2506.122369575195
 30
0.0
 11
1529.259737662494
 21
2506.122369575195
 31
0.0
  0
LINE
  5
77D
330
1F
100
AcDbEntity
  8
BILD
  6
AUSGEZOGEN
 62
     1
100
AcDbLine
 10
1521.169283562496
 20
2506.122369575195
 30
0.0
 11
1520.214693722493
 21
2502.839166445195
 31
0.0
  0
ARC
  5
77E
330
1F
100
AcDbEntity
  8
BILD
  6
AUSGEZOGEN
 62
     1
100
AcDbCircle
 10
1546.853731802493
 20
2510.338678165195
 30
0.0
 40
27.67475128
100
AcDbArc
 50
164.2758789100084
 51
195.7240600600101
  0
ARC
  5
77F
330
1F
100
AcDbEntity
  8
BILD
  6
AUSGEZOGEN
 62
     1
100
AcDbCircle
 10
1503.575533562496
 20
2510.338678165195
 30
0.0
 40
27.67474937
100
AcDbArc
 50
344.2759399399899
 51
15.72412108999156
  0
LINE
  5
780
330
1F
100
AcDbEntity
  8
BILD
  6
AUSGEZOGEN
 62
     1
100
AcDbLine
 10
1400.784762082494
 20
2359.689264105194
 30
0.0
 11
1467.362765012494
 21
2359.689264105194
 31
0.0
  0
LINE
  5
781
330
1F
100
AcDbEntity
  8
BILD
  6
AUSGEZOGEN
 62
     1
100
AcDbLine
 10
1530.994112662494
 20
2031.776666445195
 30
0.0
 11
1467.363131222493
 21
2359.689264105194
 31
0.0
  0
LINE
  5
782
330
1F
100
AcDbEntity
  8
BILD
  6
PUNKT
 62
     1
100
AcDbLine
 10
1527.600802122495
 20
2005.465631285195
 30
0.0
 11
1786.202120472495
 21
2005.465631285195
 31
0.0
  0
LINE
  5
783
330
1F
100
AcDbEntity
  8
BILD
  6
PUNKT
 62
     1
100
AcDbLine
 10
1527.600802122495
 20
2031.829156675195
 30
0.0
 11
1815.255831412494
 21
2031.829156675195
 31
0.0
  0
ARC
  5
784
330
1F
100
AcDbEntity
  8
BILD
  6
PUNKT
 62
     1
100
AcDbCircle
 10
1542.773531612496
 20
2060.647516055194
 30
0.0
 40
23.00000191
100
AcDbArc
 50
248.903961180103
 51
285.7417907699497
  0
ARC
  5
785
330
1F
100
AcDbEntity
  8
BILD
  6
PUNKT
 62
     1
100
AcDbCircle
 10
1542.773531612496
 20
2060.647516055194
 30
0.0
 40
23.00000191
100
AcDbArc
 50
319.5393066399842
 51
27.99728394003546
  0
LINE
  5
786
330
1F
100
AcDbEntity
  8
BILD
  6
AUSGEZOGEN
 62
     1
100
AcDbLine
 10
1429.606783562496
 20
2112.197809025194
 30
0.0
 11
1353.622896842495
 21
2241.691949645195
 31
0.0
  0
LINE
  5
787
330
1F
100
AcDbEntity
  8
BILD
  6
AUSGEZOGEN
 62
     1
100
AcDbLine
 10
1688.578585322495
 20
2114.457330505195
 30
0.0
 11
1723.275850942493
 21
2253.002740665195
 31
0.0
  0
ARC
  5
788
330
1F
100
AcDbEntity
  8
BILD
  6
AUSGEZOGEN
 62
     1
100
AcDbCircle
 10
1542.773531612496
 20
2060.647516055194
 30
0.0
 40
23.00000191
100
AcDbArc
 50
149.1671142600625
 51
248.903961180103
  0
ARC
  5
789
330
1F
100
AcDbEntity
  8
BILD
  6
PUNKT
 62
     1
100
AcDbCircle
 10
1542.773531612496
 20
2060.647516055194
 30
0.0
 40
25.00000191
100
AcDbArc
 50
346.1134643599968
 51
127.6278686499848
  0
LINE
  5
78A
330
1F
100
AcDbEntity
  8
BILD
  6
AUSGEZOGEN
 62
     1
100
AcDbLine
 10
1246.772921262494
 20
2207.147760195195
 30
0.0
 11
1248.272860222496
 21
2207.147760195195
 31
0.0
  0
ARC
  5
78B
330
1F
100
AcDbEntity
  8
BILD
  6
AUSGEZOGEN
 62
     1
100
AcDbCircle
 10
1248.272799192495
 20
2215.647516055195
 30
0.0
 40
1.500000119999999
100
AcDbArc
 50
90.00000762997665
 51
180.0
  0
ARC
  5
78C
330
1F
100
AcDbEntity
  8
BILD
  6
AUSGEZOGEN
 62
     1
100
AcDbCircle
 10
1248.272799192495
 20
2215.647516055195
 30
0.0
 40
1.500000119999999
100
AcDbArc
 50
0.0
 51
90.00000762997665
  0
ARC
  5
78D
330
1F
100
AcDbEntity
  8
BILD
  6
AUSGEZOGEN
 62
     1
100
AcDbCircle
 10
1251.273043332494
 20
2189.647760195195
 30
0.0
 40
1.500000119999999
100
AcDbArc
 50
180.0
 51
270.0
  0
ARC
  5
78E
330
1F
100
AcDbEntity
  8
BILD
  6
AUSGEZOGEN
 62
     1
100
AcDbCircle
 10
1251.273043332494
 20
2189.647760195195
 30
0.0
 40
3.000000239999999
100
AcDbArc
 50
180.0
 51
270.0
  0
LINE
  5
78F
330
1F
100
AcDbEntity
  8
BILD
  6
AUSGEZOGEN
 62
     1
100
AcDbLine
 10
1248.273165402494
 20
2215.647516055195
 30
0.0
 11
1248.273165402494
 21
2189.647516055194
 31
0.0
  0
ARC
  5
790
330
1F
100
AcDbEntity
  8
BILD
  6
AUSGEZOGEN
 62
     1
100
AcDbCircle
 10
1267.772921262494
 20
2185.147027775194
 30
0.0
 40
1.500000119999999
100
AcDbArc
 50
0.0
 51
90.00000762997665
  0
LINE
  5
791
330
1F
100
AcDbEntity
  8
BILD
  6
AUSGEZOGEN
 62
     1
100
AcDbLine
 10
1251.273043332494
 20
2186.647271915195
 30
0.0
 11
1267.772982292496
 21
2186.647271915195
 31
0.0
  0
ARC
  5
792
330
1F
100
AcDbEntity
  8
BILD
  6
AUSGEZOGEN
 62
     1
100
AcDbCircle
 10
1267.772921262494
 20
2185.147027775194
 30
0.0
 40
3.000000239999999
100
AcDbArc
 50
0.0
 51
90.00000762997665
  0
ARC
  5
793
330
1F
100
AcDbEntity
  8
BILD
  6
AUSGEZOGEN
 62
     1
100
AcDbCircle
 10
1272.273043332494
 20
1760.147027775194
 30
0.0
 40
1.500000119999999
100
AcDbArc
 50
180.0
 51
270.0
  0
ARC
  5
794
330
1F
100
AcDbEntity
  8
BILD
  6
AUSGEZOGEN
 62
     1
100
AcDbCircle
 10
1272.273043332494
 20
1760.147027775194
 30
0.0
 40
3.000000239999999
100
AcDbArc
 50
180.0
 51
270.0
  0
LINE
  5
795
330
1F
100
AcDbEntity
  8
BILD
  6
AUSGEZOGEN
 62
     1
100
AcDbLine
 10
1269.273165402494
 20
2185.147027775194
 30
0.0
 11
1269.273165402494
 21
1760.146905705195
 31
0.0
  0
LINE
  5
796
330
1F
100
AcDbEntity
  8
BILD
  6
AUSGEZOGEN
 62
     1
100
AcDbLine
 10
1272.273043332494
 20
1758.646783635195
 30
0.0
 11
1653.273165402494
 21
1758.646783635195
 31
0.0
  0
LINE
  5
797
330
1F
100
AcDbEntity
  8
BILD
  6
AUSGEZOGEN
 62
     1
100
AcDbLine
 10
1656.273287472493
 20
2068.447809025194
 30
0.0
 11
1656.273287472493
 21
1760.147638125194
 31
0.0
  0
ARC
  5
798
330
1F
100
AcDbEntity
  8
BILD
  6
AUSGEZOGEN
 62
     1
100
AcDbCircle
 10
1677.273043332494
 20
2215.647516055195
 30
0.0
 40
1.500000119999999
100
AcDbArc
 50
90.00000762997665
 51
180.0
  0
ARC
  5
799
330
1F
100
AcDbEntity
  8
BILD
  6
AUSGEZOGEN
 62
     1
100
AcDbCircle
 10
1677.273043332494
 20
2215.647516055195
 30
0.0
 40
1.500000119999999
100
AcDbArc
 50
0.0
 51
90.00000762997665
  0
LINE
  5
79A
330
1F
100
AcDbEntity
  8
BILD
  6
AUSGEZOGEN
 62
     1
100
AcDbLine
 10
1678.773287472493
 20
2207.147760195195
 30
0.0
 11
1677.273409542493
 21
2207.147760195195
 31
0.0
  0
ARC
  5
79B
330
1F
100
AcDbEntity
  8
BILD
  6
AUSGEZOGEN
 62
     1
100
AcDbCircle
 10
1674.273165402494
 20
2189.647760195195
 30
0.0
 40
1.500000119999999
100
AcDbArc
 50
270.0
 51
0.0
  0
ARC
  5
79C
330
1F
100
AcDbEntity
  8
BILD
  6
AUSGEZOGEN
 62
     1
100
AcDbCircle
 10
1674.273165402494
 20
2189.647760195195
 30
0.0
 40
3.000000239999999
100
AcDbArc
 50
270.0
 51
0.0
  0
LINE
  5
79D
330
1F
100
AcDbEntity
  8
BILD
  6
AUSGEZOGEN
 62
     1
100
AcDbLine
 10
1677.273043332494
 20
2215.647516055195
 30
0.0
 11
1677.273043332494
 21
2189.647516055194
 31
0.0
  0
ARC
  5
79E
330
1F
100
AcDbEntity
  8
BILD
  6
AUSGEZOGEN
 62
     1
100
AcDbCircle
 10
1657.772921262494
 20
2185.147027775194
 30
0.0
 40
3.000000239999999
100
AcDbArc
 50
90.00000762997665
 51
180.0
  0
ARC
  5
79F
330
1F
100
AcDbEntity
  8
BILD
  6
AUSGEZOGEN
 62
     1
100
AcDbCircle
 10
1657.772921262494
 20
2185.147027775194
 30
0.0
 40
1.500000119999999
100
AcDbArc
 50
90.00000762997665
 51
180.0
  0
ARC
  5
7A0
330
1F
100
AcDbEntity
  8
BILD
  6
AUSGEZOGEN
 62
     1
100
AcDbCircle
 10
1653.272799192495
 20
1760.147027775194
 30
0.0
 40
3.000000239999999
100
AcDbArc
 50
270.0
 51
0.0
  0
LINE
  5
7A1
330
1F
100
AcDbEntity
  8
BILD
  6
AUSGEZOGEN
 62
     1
100
AcDbLine
 10
1656.273287472493
 20
2185.147027775194
 30
0.0
 11
1656.273287472493
 21
2110.846978945195
 31
0.0
  0
ARC
  5
7A2
330
1F
100
AcDbEntity
  8
BILD
  6
AUSGEZOGEN
 62
     1
100
AcDbCircle
 10
1653.272799192495
 20
1760.147027775194
 30
0.0
 40
1.500000119999999
100
AcDbArc
 50
270.0
 51
0.0
  0
ARC
  5
7A3
330
1F
100
AcDbEntity
  8
BILD
  6
PUNKT
 62
     1
100
AcDbCircle
 10
1542.773531612496
 20
2060.647516055194
 30
0.0
 40
25.00000191
100
AcDbArc
 50
151.1862487799862
 51
346.1134643599968
  0
LINE
  5
7A4
330
1F
100
AcDbEntity
  8
BILD
  6
AUSGEZOGEN
 62
     1
100
AcDbLine
 10
1210.337984732494
 20
2002.682428165195
 30
0.0
 11
1258.852999382496
 21
2034.746515075194
 31
0.0
  0
ARC
  5
7A5
330
1F
100
AcDbEntity
  8
BILD
  6
AUSGEZOGEN
 62
     1
100
AcDbCircle
 10
1542.773531612496
 20
2060.647516055194
 30
0.0
 40
23.00000191
100
AcDbArc
 50
27.9972820299671
 51
122.2940826399687
  0
ARC
  5
7A6
330
1F
100
AcDbEntity
  8
BILD
  6
AUSGEZOGEN
 62
     1
100
AcDbCircle
 10
1542.773531612496
 20
2060.647516055194
 30
0.0
 40
23.00000191
100
AcDbArc
 50
287.2036132800668
 51
319.5393066399842
  0
LINE
  5
7A7
330
1F
100
AcDbEntity
  8
BILD
  6
PUNKT
 62
     7
100
AcDbLine
 10
1270.773165402494
 20
1805.193414495194
 30
0.0
 11
1370.773165402494
 21
1805.193414495194
 31
0.0
  0
LINE
  5
7A8
330
1F
100
AcDbEntity
  8
BILD
  6
PUNKT
 62
     7
100
AcDbLine
 10
1270.773165402494
 20
1796.185846135195
 30
0.0
 11
1370.763704952496
 21
1796.185846135195
 31
0.0
  0
LINE
  5
7A9
330
1F
100
AcDbEntity
  8
BILD
  6
PUNKT
 62
     7
100
AcDbLine
 10
1270.773165402494
 20
1788.330621525194
 30
0.0
 11
1370.773165402494
 21
1788.330621525194
 31
0.0
  0
LINE
  5
7AA
330
1F
100
AcDbEntity
  8
BILD
  6
PUNKT
 62
     7
100
AcDbLine
 10
1270.773165402494
 20
1779.981012145195
 30
0.0
 11
1370.773165402494
 21
1779.981012145195
 31
0.0
  0
LINE
  5
7AB
330
1F
100
AcDbEntity
  8
BILD
  6
PUNKT
 62
     7
100
AcDbLine
 10
1270.773165402494
 20
1773.687066835195
 30
0.0
 11
1370.773165402494
 21
1773.687066835195
 31
0.0
  0
LINE
  5
7AC
330
1F
100
AcDbEntity
  8
BILD
  6
PUNKT
 62
     7
100
AcDbLine
 10
1270.773165402494
 20
1766.075982855194
 30
0.0
 11
1370.773165402494
 21
1766.075982855194
 31
0.0
  0
LINE
  5
7AD
330
1F
100
AcDbEntity
  8
BILD
  6
PUNKT
 62
     1
100
AcDbLine
 10
1591.160372432496
 20
1896.226129335195
 30
0.0
 11
1642.334932972495
 21
1896.226129335195
 31
0.0
  0
LINE
  5
7AE
330
1F
100
AcDbEntity
  8
BILD
  6
PUNKT
 62
     1
100
AcDbLine
 10
1604.115084342495
 20
1889.974908635195
 30
0.0
 11
1633.755587272495
 21
1889.974908635195
 31
0.0
  0
LINE
  5
7AF
330
1F
100
AcDbEntity
  8
BILD
  6
PUNKT
 62
     1
100
AcDbLine
 10
1597.501314812496
 20
1821.478814885194
 30
0.0
 11
1637.336886102493
 21
1821.478814885194
 31
0.0
  0
LINE
  5
7B0
330
1F
100
AcDbEntity
  8
BILD
  6
PUNKT
 62
     1
100
AcDbLine
 10
1607.223604852494
 20
1814.585504335195
 30
0.0
 11
1630.921114622495
 21
1814.585504335195
 31
0.0
  0
LINE
  5
7B1
330
1F
100
AcDbEntity
  8
BILD
  6
AUSGEZOGEN
 62
     1
100
AcDbLine
 10
1300.694063832496
 20
1790.018853945194
 30
0.0
 11
1232.060946162495
 21
1836.237603945195
 31
0.0
  0
LINE
  5
7B2
330
1F
100
AcDbEntity
  8
BILD
  6
AUSGEZOGEN
 62
     1
100
AcDbLine
 10
1602.915133172493
 20
1473.972711365195
 30
0.0
 11
1709.633028682496
 21
1496.535455505194
 31
0.0
  0
LINE
  5
7B3
330
1F
100
AcDbEntity
  8
BILD
  6
AUSGEZOGEN
 62
     1
100
AcDbLine
 10
1756.273287472493
 20
959.1350038451947
 30
0.0
 11
1736.273287472493
 21
939.1350038451946
 31
0.0
  0
LINE
  5
7B4
330
1F
100
AcDbEntity
  8
BILD
  6
AUSGEZOGEN
 62
     1
100
AcDbLine
 10
1756.273287472493
 20
959.1350038451947
 30
0.0
 11
1756.273287472493
 21
1415.135064885195
 31
0.0
  0
LINE
  5
7B5
330
1F
100
AcDbEntity
  8
BILD
  6
AUSGEZOGEN
 62
     1
100
AcDbLine
 10
1169.272921262494
 20
1415.136041445195
 30
0.0
 11
1189.272921262494
 21
1435.136041445194
 31
0.0
  0
LINE
  5
7B6
330
1F
100
AcDbEntity
  8
BILD
  6
AUSGEZOGEN
 62
     1
100
AcDbLine
 10
1189.272921262494
 20
1435.136041445194
 30
0.0
 11
1736.273043332494
 21
1435.136041445194
 31
0.0
  0
LINE
  5
7B7
330
1F
100
AcDbEntity
  8
BILD
  6
AUSGEZOGEN
 62
     1
100
AcDbLine
 10
1756.273287472493
 20
1415.136041445195
 30
0.0
 11
1736.273287472493
 21
1435.136041445194
 31
0.0
  0
LINE
  5
7B8
330
1F
100
AcDbEntity
  8
BILD
  6
PUNKT
 62
     1
100
AcDbLine
 10
1656.273287472493
 20
1335.136041445194
 30
0.0
 11
1656.273287472493
 21
1039.136041445194
 31
0.0
  0
LINE
  5
7B9
330
1F
100
AcDbEntity
  8
BILD
  6
PUNKT
 62
     1
100
AcDbLine
 10
1656.273287472493
 20
1335.136041445194
 30
0.0
 11
1269.273165402494
 21
1335.136041445194
 31
0.0
  0
LINE
  5
7BA
330
1F
100
AcDbEntity
  8
BILD
  6
AUSGEZOGEN
 62
     1
100
AcDbLine
 10
1555.336397822495
 20
1368.961725035195
 30
0.0
 11
1602.915133172493
 21
1473.972101015195
 31
0.0
  0
LINE
  5
7BB
330
1F
100
AcDbEntity
  8
BILD
  6
AUSGEZOGEN
 62
     1
100
AcDbLine
 10
1819.656466182496
 20
1116.770501895195
 30
0.0
 11
1719.547579462494
 21
1116.770501895195
 31
0.0
  0
LINE
  5
7BC
330
1F
100
AcDbEntity
  8
BILD
  6
AUSGEZOGEN
 62
     1
100
AcDbLine
 10
1656.273287472493
 20
2061.498346135195
 30
0.0
 11
1696.273287472493
 21
2061.498346135195
 31
0.0
  0
LINE
  5
7BD
330
1F
100
AcDbEntity
  8
BILD
  6
AUSGEZOGEN
 62
     1
100
AcDbLine
 10
1656.273287472493
 20
2117.798394965194
 30
0.0
 11
1696.273287472493
 21
2117.798394965194
 31
0.0
  0
LINE
  5
7BE
330
1F
100
AcDbEntity
  8
BILD
  6
AUSGEZOGEN
 62
     1
100
AcDbLine
 10
1656.273287472493
 20
2059.497613715194
 30
0.0
 11
1696.273287472493
 21
2059.497613715194
 31
0.0
  0
LINE
  5
7BF
330
1F
100
AcDbEntity
  8
BILD
  6
AUSGEZOGEN
 62
     1
100
AcDbLine
 10
1656.273287472493
 20
2119.797906675195
 30
0.0
 11
1696.273287472493
 21
2119.797906675195
 31
0.0
  0
LINE
  5
7C0
330
1F
100
AcDbEntity
  8
BILD
  6
AUSGEZOGEN
 62
     1
100
AcDbLine
 10
1696.273287472493
 20
2119.797906675195
 30
0.0
 11
1696.273287472493
 21
2110.847711365195
 31
0.0
  0
LINE
  5
7C1
330
1F
100
AcDbEntity
  8
BILD
  6
AUSGEZOGEN
 62
     1
100
AcDbLine
 10
1696.273287472493
 20
2068.447809025194
 30
0.0
 11
1696.273287472493
 21
2059.497857855195
 31
0.0
  0
LINE
  5
7C2
330
1F
100
AcDbEntity
  8
BILD
  6
MITTE
 62
     1
100
AcDbLine
 10
1661.591890982494
 20
2163.147516055195
 30
0.0
 11
1648.331026722495
 21
2163.147516055195
 31
0.0
  0
LINE
  5
7C3
330
1F
100
AcDbEntity
  8
BILD
  6
AUSGEZOGEN
 62
     1
100
AcDbLine
 10
1756.273287472493
 20
2142.147760195195
 30
0.0
 11
1756.273287472493
 21
2139.147760195195
 31
0.0
  0
LINE
  5
7C4
330
1F
100
AcDbEntity
  8
BILD
  6
AUSGEZOGEN
 62
     1
100
AcDbLine
 10
1756.273287472493
 20
2142.147760195195
 30
0.0
 11
1656.273287472493
 21
2142.147760195195
 31
0.0
  0
LINE
  5
7C5
330
1F
100
AcDbEntity
  8
BILD
  6
AUSGEZOGEN
 62
     1
100
AcDbLine
 10
1756.273287472493
 20
2139.148492615195
 30
0.0
 11
1656.273287472493
 21
2139.148492615195
 31
0.0
  0
LINE
  5
7C6
330
1F
100
AcDbEntity
  8
BILD
  6
AUSGEZOGEN
 62
     1
100
AcDbLine
 10
1169.272860222496
 20
2142.147760195195
 30
0.0
 11
1169.272860222496
 21
2139.147760195195
 31
0.0
  0
LINE
  5
7C7
330
1F
100
AcDbEntity
  8
BILD
  6
AUSGEZOGEN
 62
     1
100
AcDbLine
 10
1269.272860222496
 20
2142.147760195195
 30
0.0
 11
1169.272860222496
 21
2142.147760195195
 31
0.0
  0
LINE
  5
7C8
330
1F
100
AcDbEntity
  8
BILD
  6
AUSGEZOGEN
 62
     1
100
AcDbLine
 10
1269.272860222496
 20
2139.148492615195
 30
0.0
 11
1169.272860222496
 21
2139.148492615195
 31
0.0
  0
LINE
  5
7C9
330
1F
100
AcDbEntity
  8
BILD
  6
PUNKT
 62
     1
100
AcDbLine
 10
1656.273287472493
 20
1206.985345645194
 30
0.0
 11
1696.273287472493
 21
1206.985345645194
 31
0.0
  0
LINE
  5
7CA
330
1F
100
AcDbEntity
  8
BILD
  6
PUNKT
 62
     1
100
AcDbLine
 10
1656.273287472493
 20
1267.285638615194
 30
0.0
 11
1696.273287472493
 21
1267.285638615194
 31
0.0
  0
LINE
  5
7CB
330
1F
100
AcDbEntity
  8
BILD
  6
PUNKT
 62
     1
100
AcDbLine
 10
1696.273287472493
 20
1267.285638615194
 30
0.0
 11
1696.273287472493
 21
1206.985650825194
 31
0.0
  0
LINE
  5
7CC
330
1F
100
AcDbEntity
  8
BILD
  6
PUNKT
 62
     1
100
AcDbLine
 10
1567.773531612496
 20
1335.136041445194
 30
0.0
 11
1567.773531612496
 21
1375.136041445194
 31
0.0
  0
LINE
  5
7CD
330
1F
100
AcDbEntity
  8
BILD
  6
PUNKT
 62
     1
100
AcDbLine
 10
1517.773531612496
 20
1335.136041445194
 30
0.0
 11
1517.773531612496
 21
1375.136041445194
 31
0.0
  0
LINE
  5
7CE
330
1F
100
AcDbEntity
  8
BILD
  6
PUNKT
 62
     1
100
AcDbLine
 10
1517.773531612496
 20
1375.136041445194
 30
0.0
 11
1567.773531612496
 21
1375.136041445194
 31
0.0
  0
LINE
  5
7CF
330
1F
100
AcDbEntity
  8
BILD
  6
PUNKT
 62
     1
100
AcDbLine
 10
1654.773043332494
 20
1161.885247985195
 30
0.0
 11
1656.272921262494
 21
1161.885247985195
 31
0.0
  0
LINE
  5
7D0
330
1F
100
AcDbEntity
  8
BILD
  6
PUNKT
 62
     1
100
AcDbLine
 10
1654.773043332494
 20
1159.385247985195
 30
0.0
 11
1656.272921262494
 21
1159.385247985195
 31
0.0
  0
LINE
  5
7D1
330
1F
100
AcDbEntity
  8
BILD
  6
AUSGEZOGEN
 62
     1
100
AcDbLine
 10
1350.613314322494
 20
1995.211725035195
 30
0.0
 11
1351.613375362496
 21
1993.479669375194
 31
0.0
  0
LINE
  5
7D2
330
1F
100
AcDbEntity
  8
BILD
  6
AUSGEZOGEN
 62
     1
100
AcDbLine
 10
1454.493868522495
 20
2147.476129335195
 30
0.0
 11
1456.425631222493
 21
2146.958551215194
 31
0.0
  0
ARC
  5
7D3
330
1F
100
AcDbEntity
  8
BILD
  6
AUSGEZOGEN
 62
     1
100
AcDbCircle
 10
1670.772799192494
 20
2213.147516055195
 30
0.0
 40
2.000000239999999
100
AcDbArc
 50
0.0
 51
90.00000762997665
  0
LINE
  5
7D4
330
1F
100
AcDbEntity
  8
BILD
  6
AUSGEZOGEN
 62
     1
100
AcDbLine
 10
1672.773531612496
 20
2188.147516055195
 30
0.0
 11
1672.773531612496
 21
2213.147516055195
 31
0.0
  0
ARC
  5
7D5
330
1F
100
AcDbEntity
  8
BILD
  6
AUSGEZOGEN
 62
     1
100
AcDbCircle
 10
1254.773348502495
 20
2213.147516055195
 30
0.0
 40
2.000000239999999
100
AcDbArc
 50
90.00000762997665
 51
180.0
  0
LINE
  5
7D6
330
1F
100
AcDbEntity
  8
BILD
  6
AUSGEZOGEN
 62
     1
100
AcDbLine
 10
1254.773348502495
 20
2215.147027775194
 30
0.0
 11
1670.773409542493
 21
2215.147027775194
 31
0.0
  0
LINE
  5
7D7
330
1F
100
AcDbEntity
  8
BILD
  6
AUSGEZOGEN
 62
     1
100
AcDbLine
 10
1252.773531612496
 20
2188.147516055195
 30
0.0
 11
1252.773531612496
 21
2213.147516055195
 31
0.0
  0
LINE
  5
7D8
330
1F
100
AcDbEntity
  8
BILD
  6
AUSGEZOGEN
 62
     1
100
AcDbLine
 10
1442.772921262494
 20
2215.147027775194
 30
0.0
 11
1442.772921262494
 21
2190.147027775194
 31
0.0
  0
LINE
  5
7D9
330
1F
100
AcDbEntity
  8
BILD
  6
AUSGEZOGEN
 62
     1
100
AcDbLine
 10
1440.773043332494
 20
2215.147027775194
 30
0.0
 11
1440.773043332494
 21
2190.147027775194
 31
0.0
  0
LINE
  5
7DA
330
1F
100
AcDbEntity
  8
BILD
  6
AUSGEZOGEN
 62
     1
100
AcDbLine
 10
1440.773043332494
 20
2190.147027775194
 30
0.0
 11
1442.773165402494
 21
2190.147027775194
 31
0.0
  0
LINE
  5
7DB
330
1F
100
AcDbEntity
  8
BILD
  6
AUSGEZOGEN
 62
     1
100
AcDbLine
 10
1568.773287472493
 20
2215.147027775194
 30
0.0
 11
1568.773287472493
 21
2190.147027775194
 31
0.0
  0
LINE
  5
7DC
330
1F
100
AcDbEntity
  8
BILD
  6
AUSGEZOGEN
 62
     1
100
AcDbLine
 10
1566.773165402494
 20
2215.147027775194
 30
0.0
 11
1566.773165402494
 21
2190.147027775194
 31
0.0
  0
LINE
  5
7DD
330
1F
100
AcDbEntity
  8
BILD
  6
AUSGEZOGEN
 62
     1
100
AcDbLine
 10
1566.773165402494
 20
2190.147027775194
 30
0.0
 11
1568.773287472493
 21
2190.147027775194
 31
0.0
  0
LINE
  5
7DE
330
1F
100
AcDbEntity
  8
BILD
  6
AUSGEZOGEN
 62
     1
100
AcDbLine
 10
1396.023409542493
 20
2217.147760195194
 30
0.0
 11
1396.023409542493
 21
2215.147760195195
 31
0.0
  0
LINE
  5
7DF
330
1F
100
AcDbEntity
  8
BILD
  6
AUSGEZOGEN
 62
     1
100
AcDbLine
 10
1389.523165402494
 20
2217.147760195194
 30
0.0
 11
1389.523165402494
 21
2215.147760195195
 31
0.0
  0
ARC
  5
7E0
330
1F
100
AcDbEntity
  8
BILD
  6
AUSGEZOGEN
 62
     1
100
AcDbCircle
 10
1399.773409542493
 20
2213.814019965195
 30
0.0
 40
4.833319659999999
100
AcDbArc
 50
43.60263823988953
 51
136.3973693799346
  0
LINE
  5
7E1
330
1F
100
AcDbEntity
  8
BILD
  6
AUSGEZOGEN
 62
     1
100
AcDbLine
 10
1410.023287472493
 20
2217.147760195194
 30
0.0
 11
1410.023287472493
 21
2215.147760195195
 31
0.0
  0
LINE
  5
7E2
330
1F
100
AcDbEntity
  8
BILD
  6
AUSGEZOGEN
 62
     1
100
AcDbLine
 10
1403.523043332494
 20
2217.147760195194
 30
0.0
 11
1403.523043332494
 21
2215.147760195195
 31
0.0
  0
ARC
  5
7E3
330
1F
100
AcDbEntity
  8
BILD
  6
AUSGEZOGEN
 62
     1
100
AcDbCircle
 10
1273.773287472493
 20
2213.814019965195
 30
0.0
 40
4.833319659999999
100
AcDbArc
 50
43.60263823988953
 51
136.3973693799346
  0
LINE
  5
7E4
330
1F
100
AcDbEntity
  8
BILD
  6
AUSGEZOGEN
 62
     1
100
AcDbLine
 10
1298.023531612496
 20
2217.147760195194
 30
0.0
 11
1298.023531612496
 21
2215.147760195195
 31
0.0
  0
LINE
  5
7E5
330
1F
100
AcDbEntity
  8
BILD
  6
AUSGEZOGEN
 62
     1
100
AcDbLine
 10
1291.523287472493
 20
2217.147760195194
 30
0.0
 11
1291.523287472493
 21
2215.147760195195
 31
0.0
  0
ARC
  5
7E6
330
1F
100
AcDbEntity
  8
BILD
  6
AUSGEZOGEN
 62
     1
100
AcDbCircle
 10
1315.773165402494
 20
2213.814019965195
 30
0.0
 40
4.833319659999999
100
AcDbArc
 50
43.60263823988953
 51
136.3973693799346
  0
LINE
  5
7E7
330
1F
100
AcDbEntity
  8
BILD
  6
AUSGEZOGEN
 62
     1
100
AcDbLine
 10
1312.023409542493
 20
2217.147760195194
 30
0.0
 11
1312.023409542493
 21
2215.147760195195
 31
0.0
  0
LINE
  5
7E8
330
1F
100
AcDbEntity
  8
BILD
  6
AUSGEZOGEN
 62
     1
100
AcDbLine
 10
1305.523165402494
 20
2217.147760195194
 30
0.0
 11
1305.523165402494
 21
2215.147760195195
 31
0.0
  0
LINE
  5
7E9
330
1F
100
AcDbEntity
  8
BILD
  6
AUSGEZOGEN
 62
     1
100
AcDbLine
 10
1326.023409542493
 20
2217.147760195194
 30
0.0
 11
1326.023409542493
 21
2215.147760195195
 31
0.0
  0
LINE
  5
7EA
330
1F
100
AcDbEntity
  8
BILD
  6
AUSGEZOGEN
 62
     1
100
AcDbLine
 10
1319.523165402493
 20
2217.147760195194
 30
0.0
 11
1319.523165402493
 21
2215.147760195195
 31
0.0
  0
LINE
  5
7EB
330
1F
100
AcDbEntity
  8
BILD
  6
AUSGEZOGEN
 62
     1
100
AcDbLine
 10
1340.023287472493
 20
2217.147760195194
 30
0.0
 11
1340.023287472493
 21
2215.147760195195
 31
0.0
  0
LINE
  5
7EC
330
1F
100
AcDbEntity
  8
BILD
  6
AUSGEZOGEN
 62
     1
100
AcDbLine
 10
1333.523043332494
 20
2217.147760195194
 30
0.0
 11
1333.523043332494
 21
2215.147760195195
 31
0.0
  0
LINE
  5
7ED
330
1F
100
AcDbEntity
  8
BILD
  6
AUSGEZOGEN
 62
     1
100
AcDbLine
 10
1354.023287472493
 20
2217.147760195194
 30
0.0
 11
1354.023287472493
 21
2215.147760195195
 31
0.0
  0
LINE
  5
7EE
330
1F
100
AcDbEntity
  8
BILD
  6
AUSGEZOGEN
 62
     1
100
AcDbLine
 10
1347.523043332494
 20
2217.147760195194
 30
0.0
 11
1347.523043332494
 21
2215.147760195195
 31
0.0
  0
ARC
  5
7EF
330
1F
100
AcDbEntity
  8
BILD
  6
AUSGEZOGEN
 62
     1
100
AcDbCircle
 10
1357.773287472493
 20
2213.814019965195
 30
0.0
 40
4.833319659999999
100
AcDbArc
 50
43.60263823988953
 51
136.3973693799346
  0
LINE
  5
7F0
330
1F
100
AcDbEntity
  8
BILD
  6
AUSGEZOGEN
 62
     1
100
AcDbLine
 10
1368.023531612496
 20
2217.147760195194
 30
0.0
 11
1368.023531612496
 21
2215.147760195195
 31
0.0
  0
LINE
  5
7F1
330
1F
100
AcDbEntity
  8
BILD
  6
AUSGEZOGEN
 62
     1
100
AcDbLine
 10
1361.523287472493
 20
2217.147760195194
 30
0.0
 11
1361.523287472493
 21
2215.147760195195
 31
0.0
  0
LINE
  5
7F2
330
1F
100
AcDbEntity
  8
BILD
  6
AUSGEZOGEN
 62
     1
100
AcDbLine
 10
1375.523165402493
 20
2217.147760195194
 30
0.0
 11
1375.523165402493
 21
2215.147760195195
 31
0.0
  0
LINE
  5
7F3
330
1F
100
AcDbEntity
  8
BILD
  6
AUSGEZOGEN
 62
     1
100
AcDbLine
 10
1382.023409542493
 20
2217.147760195194
 30
0.0
 11
1382.023409542493
 21
2215.147760195195
 31
0.0
  0
LINE
  5
7F4
330
1F
100
AcDbEntity
  8
BILD
  6
AUSGEZOGEN
 62
     1
100
AcDbLine
 10
1424.023287472493
 20
2217.147760195194
 30
0.0
 11
1424.023287472493
 21
2215.147760195195
 31
0.0
  0
LINE
  5
7F5
330
1F
100
AcDbEntity
  8
BILD
  6
AUSGEZOGEN
 62
     1
100
AcDbLine
 10
1417.523043332494
 20
2217.147760195194
 30
0.0
 11
1417.523043332494
 21
2215.147760195195
 31
0.0
  0
ARC
  5
7F6
330
1F
100
AcDbEntity
  8
BILD
  6
AUSGEZOGEN
 62
     1
100
AcDbCircle
 10
1441.773165402494
 20
2213.814019965195
 30
0.0
 40
4.833319659999999
100
AcDbArc
 50
43.60263823988953
 51
136.3973693799346
  0
ARC
  5
7F7
330
1F
100
AcDbEntity
  8
BILD
  6
AUSGEZOGEN
 62
     1
100
AcDbCircle
 10
1483.773287472493
 20
2213.814019965195
 30
0.0
 40
4.833319659999999
100
AcDbArc
 50
43.60263823988953
 51
136.3973693799346
  0
ARC
  5
7F8
330
1F
100
AcDbEntity
  8
BILD
  6
AUSGEZOGEN
 62
     1
100
AcDbCircle
 10
1525.773165402493
 20
2213.814019965195
 30
0.0
 40
4.833319659999999
100
AcDbArc
 50
43.60263823988953
 51
136.3973693799346
  0
ARC
  5
7F9
330
1F
100
AcDbEntity
  8
BILD
  6
AUSGEZOGEN
 62
     1
100
AcDbCircle
 10
1609.773653682496
 20
2213.814019965195
 30
0.0
 40
4.833319659999999
100
AcDbArc
 50
43.60263823988953
 51
136.3973693799346
  0
ARC
  5
7FA
330
1F
100
AcDbEntity
  8
BILD
  6
AUSGEZOGEN
 62
     1
100
AcDbCircle
 10
1567.772921262494
 20
2213.814019965195
 30
0.0
 40
4.833319659999999
100
AcDbArc
 50
43.60263823988953
 51
136.3973693799346
  0
ARC
  5
7FB
330
1F
100
AcDbEntity
  8
BILD
  6
AUSGEZOGEN
 62
     1
100
AcDbCircle
 10
1651.773165402494
 20
2213.814019965195
 30
0.0
 40
4.833319659999999
100
AcDbArc
 50
43.60263823988953
 51
136.3973693799346
  0
ARC
  5
7FC
330
1F
100
AcDbEntity
  8
BILD
  6
AUSGEZOGEN
 62
     1
100
AcDbCircle
 10
1254.773409542493
 20
2213.147516055195
 30
0.0
 40
4.000000479999999
100
AcDbArc
 50
90.00000762997665
 51
180.0
  0
LINE
  5
7FD
330
1F
100
AcDbEntity
  8
BILD
  6
AUSGEZOGEN
 62
     1
100
AcDbLine
 10
1254.773409542493
 20
2217.147760195194
 30
0.0
 11
1670.773409542493
 21
2217.147760195194
 31
0.0
  0
LINE
  5
7FE
330
1F
100
AcDbEntity
  8
BILD
  6
AUSGEZOGEN
 62
     1
100
AcDbLine
 10
1250.773165402494
 20
2188.911676215195
 30
0.0
 11
1250.773165402494
 21
2213.147760195194
 31
0.0
  0
ARC
  5
7FF
330
1F
100
AcDbEntity
  8
BILD
  6
AUSGEZOGEN
 62
     1
100
AcDbCircle
 10
1670.772799192494
 20
2213.147516055195
 30
0.0
 40
4.000000479999999
100
AcDbArc
 50
0.0
 51
90.00000762997665
  0
LINE
  5
800
330
1F
100
AcDbEntity
  8
BILD
  6
AUSGEZOGEN
 62
     1
100
AcDbLine
 10
1674.773043332494
 20
2188.911676215195
 30
0.0
 11
1674.773043332494
 21
2213.147760195194
 31
0.0
  0
LINE
  5
801
330
1F
100
AcDbEntity
  8
BILD
  6
AUSGEZOGEN
 62
     1
100
AcDbLine
 10
1263.273104362495
 20
1993.147516055194
 30
0.0
 11
1263.273104362495
 21
2128.147638125194
 31
0.0
  0
LINE
  5
802
330
1F
100
AcDbEntity
  8
BILD
  6
AUSGEZOGEN
 62
     1
100
AcDbLine
 10
1257.942904172494
 20
2128.915338325194
 30
0.0
 11
1258.942965202495
 21
2130.647271915195
 31
0.0
  0
ARC
  5
803
330
1F
100
AcDbEntity
  8
BILD
  6
PUNKT
 62
     1
100
AcDbCircle
 10
1259.273165402494
 20
2125.837945745195
 30
0.0
 40
2.000000239999999
100
AcDbArc
 50
0.0
 51
60.00045012990043
  0
LINE
  5
804
330
1F
100
AcDbEntity
  8
BILD
  6
PUNKT
 62
     1
100
AcDbLine
 10
1261.272982292496
 20
1995.457086365195
 30
0.0
 11
1261.272982292496
 21
2125.838189885195
 31
0.0
  0
LINE
  5
805
330
1F
100
AcDbEntity
  8
BILD
  6
PUNKT
 62
     1
100
AcDbLine
 10
1260.273226432495
 20
2127.570123475194
 30
0.0
 11
1257.943209342495
 21
2128.915582465194
 31
0.0
  0
ARC
  5
806
330
1F
100
AcDbEntity
  8
BILD
  6
AUSGEZOGEN
 62
     1
100
AcDbCircle
 10
1259.273165402494
 20
2125.837945745195
 30
0.0
 40
4.000000479999999
100
AcDbArc
 50
0.0
 51
59.9999580401108
  0
LINE
  5
807
330
1F
100
AcDbEntity
  8
BILD
  6
AUSGEZOGEN
 62
     1
100
AcDbLine
 10
1261.272982292496
 20
2129.302301215195
 30
0.0
 11
1258.942965202495
 21
2130.647760195195
 31
0.0
  0
LINE
  5
808
330
1F
100
AcDbEntity
  8
BILD
  6
AUSGEZOGEN
 62
     1
100
AcDbLine
 10
1257.942904172494
 20
1992.379693785195
 30
0.0
 11
1258.942965202495
 21
1990.647638125194
 31
0.0
  0
ARC
  5
809
330
1F
100
AcDbEntity
  8
BILD
  6
PUNKT
 62
     1
100
AcDbCircle
 10
1259.273165402494
 20
1995.457086365195
 30
0.0
 40
2.000000239999999
100
AcDbArc
 50
299.9995422398935
 51
0.0
  0
LINE
  5
80A
330
1F
100
AcDbEntity
  8
BILD
  6
PUNKT
 62
     1
100
AcDbLine
 10
1260.273226432495
 20
1993.724908635195
 30
0.0
 11
1257.943209342495
 21
1992.379571715195
 31
0.0
  0
ARC
  5
80B
330
1F
100
AcDbEntity
  8
BILD
  6
AUSGEZOGEN
 62
     1
100
AcDbCircle
 10
1259.273165402494
 20
1995.457086365195
 30
0.0
 40
4.000000479999999
100
AcDbArc
 50
300.0000305200441
 51
0.0
  0
LINE
  5
80C
330
1F
100
AcDbEntity
  8
BILD
  6
AUSGEZOGEN
 62
     1
100
AcDbLine
 10
1261.272982292496
 20
1991.992730895194
 30
0.0
 11
1258.942965202495
 21
1990.647393985195
 31
0.0
  0
LINE
  5
80D
330
1F
100
AcDbEntity
  8
BILD
  6
AUSGEZOGEN
 62
     1
100
AcDbLine
 10
1257.942904172494
 20
1992.379693785195
 30
0.0
 11
1257.942904172494
 21
2128.915826605195
 31
0.0
  0
LINE
  5
80E
330
1F
100
AcDbEntity
  8
BILD
  6
AUSGEZOGEN
 62
     1
100
AcDbLine
 10
1263.273104362495
 20
2128.147516055195
 30
0.0
 11
1269.273165402494
 21
2128.147516055195
 31
0.0
  0
LINE
  5
80F
330
1F
100
AcDbEntity
  8
BILD
  6
AUSGEZOGEN
 62
     1
100
AcDbLine
 10
1263.273104362495
 20
1993.147516055194
 30
0.0
 11
1269.273165402494
 21
1993.147516055194
 31
0.0
  0
LINE
  5
810
330
1F
100
AcDbEntity
  8
BILD
  6
MITTE
 62
     1
100
AcDbLine
 10
1435.272921262494
 20
2042.408990665196
 30
0.0
 11
1435.272921262494
 21
2079.094537535195
 31
0.0
  0
LINE
  5
811
330
1F
100
AcDbEntity
  8
BILD
  6
MITTE
 62
     1
100
AcDbLine
 10
1290.272921262494
 20
2042.726373475194
 30
0.0
 11
1290.272921262494
 21
2079.705377385195
 31
0.0
  0
ARC
  5
812
330
1F
100
AcDbEntity
  8
BILD
  6
PUNKT
 62
     1
100
AcDbCircle
 10
1362.772921262494
 20
2060.647516055194
 30
0.0
 40
70.00000763
100
AcDbArc
 50
223.6028289800001
 51
316.3971557599794
  0
ARC
  5
813
330
1F
100
AcDbEntity
  8
BILD
  6
PUNKT
 62
     1
100
AcDbCircle
 10
1362.772921262494
 20
2060.647516055194
 30
0.0
 40
70.00000763
100
AcDbArc
 50
43.6028251599914
 51
136.3971862800206
  0
ARC
  5
814
330
1F
100
AcDbEntity
  8
BILD
  6
PUNKT
 62
     1
100
AcDbCircle
 10
1290.272921262494
 20
2060.647516055194
 30
0.0
 40
17.50003242
100
AcDbArc
 50
136.3971710199999
 51
223.6029205299857
  0
LINE
  5
815
330
1F
100
AcDbEntity
  8
BILD
  6
PUNKT
 62
     1
100
AcDbLine
 10
1312.083223992497
 20
2012.371148865195
 30
0.0
 11
1277.600191762496
 21
2048.577935975194
 31
0.0
  0
LINE
  5
816
330
1F
100
AcDbEntity
  8
BILD
  6
PUNKT
 62
     1
100
AcDbLine
 10
1312.083223992497
 20
2108.923883245195
 30
0.0
 11
1277.600191762496
 21
2072.716851995195
 31
0.0
  0
ARC
  5
817
330
1F
100
AcDbEntity
  8
BILD
  6
PUNKT
 62
     1
100
AcDbCircle
 10
1435.272921262494
 20
2060.647516055194
 30
0.0
 40
17.50003242
100
AcDbArc
 50
316.3970947300343
 51
43.6028442400205
  0
LINE
  5
818
330
1F
100
AcDbEntity
  8
BILD
  6
PUNKT
 62
     1
100
AcDbLine
 10
1413.462252312496
 20
2012.371148865195
 30
0.0
 11
1447.945040402494
 21
2048.578180115195
 31
0.0
  0
LINE
  5
819
330
1F
100
AcDbEntity
  8
BILD
  6
PUNKT
 62
     1
100
AcDbLine
 10
1413.462252312496
 20
2108.923883245195
 30
0.0
 11
1447.945040402494
 21
2072.717096135195
 31
0.0
  0
LINE
  5
81A
330
1F
100
AcDbEntity
  8
BILD
  6
PUNKT
 62
     1
100
AcDbLine
 10
1307.772921262494
 20
1375.136041445194
 30
0.0
 11
1417.772921262494
 21
1375.136041445194
 31
0.0
  0
LINE
  5
81B
330
1F
100
AcDbEntity
  8
BILD
  6
PUNKT
 62
     1
100
AcDbLine
 10
1417.772921262494
 20
1375.136041445194
 30
0.0
 11
1417.772921262494
 21
1335.136041445194
 31
0.0
  0
LINE
  5
81C
330
1F
100
AcDbEntity
  8
BILD
  6
PUNKT
 62
     1
100
AcDbLine
 10
1307.772921262494
 20
1375.136041445194
 30
0.0
 11
1307.772921262494
 21
1335.136041445194
 31
0.0
  0
LINE
  5
81D
330
1F
100
AcDbEntity
  8
BILD
  6
MITTE
 62
     1
100
AcDbLine
 10
1362.772921262494
 20
1385.243463325194
 30
0.0
 11
1362.772921262494
 21
1329.606500425195
 31
0.0
  0
LINE
  5
81E
330
1F
100
AcDbEntity
  8
BILD
  6
PUNKT
 62
     1
100
AcDbLine
 10
1229.273165402493
 20
1132.135492125195
 30
0.0
 11
1229.273165402493
 21
1242.135492125195
 31
0.0
  0
LINE
  5
81F
330
1F
100
AcDbEntity
  8
BILD
  6
PUNKT
 62
     1
100
AcDbLine
 10
1229.273165402493
 20
1242.135492125195
 30
0.0
 11
1269.273165402494
 21
1242.135492125195
 31
0.0
  0
LINE
  5
820
330
1F
100
AcDbEntity
  8
BILD
  6
PUNKT
 62
     1
100
AcDbLine
 10
1229.273165402493
 20
1132.135492125195
 30
0.0
 11
1269.273165402494
 21
1132.135492125195
 31
0.0
  0
LINE
  5
821
330
1F
100
AcDbEntity
  8
BILD
  6
MITTE
 62
     1
100
AcDbLine
 10
1219.166048702496
 20
1187.135492125195
 30
0.0
 11
1274.802950552494
 21
1187.135492125195
 31
0.0
  0
LINE
  5
822
330
1F
100
AcDbEntity
  8
BILD
  6
AUSGEZOGEN
 62
     1
100
AcDbLine
 10
1496.714571652494
 20
2548.278131285195
 30
0.0
 11
1553.714693722493
 21
2548.278131285195
 31
0.0
  0
LINE
  5
823
330
1F
100
AcDbEntity
  8
BILD
  6
AUSGEZOGEN
 62
     1
100
AcDbLine
 10
1553.714693722493
 20
2548.278131285195
 30
0.0
 11
1553.714693722493
 21
2478.278131285195
 31
0.0
  0
LINE
  5
824
330
1F
100
AcDbEntity
  8
BILD
  6
AUSGEZOGEN
 62
     1
100
AcDbLine
 10
1553.714693722493
 20
2478.278131285195
 30
0.0
 11
1496.714571652494
 21
2478.278131285195
 31
0.0
  0
LINE
  5
825
330
1F
100
AcDbEntity
  8
BILD
  6
AUSGEZOGEN
 62
     1
100
AcDbLine
 10
1496.714571652494
 20
2478.278131285195
 30
0.0
 11
1496.714571652494
 21
2548.278131285195
 31
0.0
  0
LINE
  5
826
330
1F
100
AcDbEntity
  8
BILD
  6
AUSGEZOGEN
 62
     1
100
AcDbLine
 10
1501.214693722493
 20
2543.278131285195
 30
0.0
 11
1549.214571652494
 21
2543.278131285195
 31
0.0
  0
LINE
  5
827
330
1F
100
AcDbEntity
  8
BILD
  6
AUSGEZOGEN
 62
     1
100
AcDbLine
 10
1549.214571652494
 20
2543.278131285195
 30
0.0
 11
1549.214571652494
 21
2483.278131285195
 31
0.0
  0
LINE
  5
828
330
1F
100
AcDbEntity
  8
BILD
  6
AUSGEZOGEN
 62
     1
100
AcDbLine
 10
1549.214571652494
 20
2483.278131285195
 30
0.0
 11
1501.214693722493
 21
2483.278131285195
 31
0.0
  0
LINE
  5
829
330
1F
100
AcDbEntity
  8
BILD
  6
AUSGEZOGEN
 62
     1
100
AcDbLine
 10
1501.214693722493
 20
2483.278131285195
 30
0.0
 11
1501.214693722493
 21
2543.278131285195
 31
0.0
  0
LINE
  5
82A
330
1F
100
AcDbEntity
  8
BILD
  6
AUSGEZOGEN
 62
     1
100
AcDbLine
 10
1517.714693722493
 20
2520.338678165195
 30
0.0
 11
1532.714693722493
 21
2520.338678165195
 31
0.0
  0
LINE
  5
82B
330
1F
100
AcDbEntity
  8
BILD
  6
AUSGEZOGEN
 62
     1
100
AcDbLine
 10
1532.714693722493
 20
2520.338678165195
 30
0.0
 11
1532.714693722493
 21
2500.338678165195
 31
0.0
  0
LINE
  5
82C
330
1F
100
AcDbEntity
  8
BILD
  6
AUSGEZOGEN
 62
     1
100
AcDbLine
 10
1532.714693722493
 20
2500.338678165195
 30
0.0
 11
1517.714693722493
 21
2500.338678165195
 31
0.0
  0
LINE
  5
82D
330
1F
100
AcDbEntity
  8
BILD
  6
AUSGEZOGEN
 62
     1
100
AcDbLine
 10
1517.714693722493
 20
2500.338678165195
 30
0.0
 11
1517.714693722493
 21
2520.338678165195
 31
0.0
  0
LINE
  5
82E
330
1F
100
AcDbEntity
  8
BILD
  6
AUSGEZOGEN
 62
     1
100
AcDbLine
 10
1530.214693722493
 20
2502.838678165195
 30
0.0
 11
1520.214693722493
 21
2502.838678165195
 31
0.0
  0
LINE
  5
82F
330
1F
100
AcDbEntity
  8
BILD
  6
AUSGEZOGEN
 62
     1
100
AcDbLine
 10
1520.214693722493
 20
2517.838678165195
 30
0.0
 11
1530.214693722493
 21
2517.838678165195
 31
0.0
  0
LINE
  5
830
330
1F
100
AcDbEntity
  8
BILD
  6
PUNKT
 62
     1
100
AcDbLine
 10
1687.773531612496
 20
1215.935540955194
 30
0.0
 11
1687.773531612496
 21
1258.335443305194
 31
0.0
  0
LINE
  5
831
330
1F
100
AcDbEntity
  8
BILD
  6
PUNKT
 62
     1
100
AcDbLine
 10
1687.773531612496
 20
1257.335687445195
 30
0.0
 11
1709.773653682496
 21
1257.335687445195
 31
0.0
  0
LINE
  5
832
330
1F
100
AcDbEntity
  8
BILD
  6
PUNKT
 62
     1
100
AcDbLine
 10
1687.773531612496
 20
1216.935296815194
 30
0.0
 11
1709.773653682496
 21
1216.935296815194
 31
0.0
  0
LINE
  5
833
330
1F
100
AcDbEntity
  8
BILD
  6
PUNKT
 62
     1
100
AcDbLine
 10
1709.773043332494
 20
1215.935540955194
 30
0.0
 11
1709.773043332494
 21
1258.335443305194
 31
0.0
  0
LINE
  5
834
330
1F
100
AcDbEntity
  8
BILD
  6
PUNKT
 62
     1
100
AcDbLine
 10
1656.273287472493
 20
1258.335443305194
 30
0.0
 11
1709.773409542493
 21
1258.335443305194
 31
0.0
  0
LINE
  5
835
330
1F
100
AcDbEntity
  8
BILD
  6
PUNKT
 62
     1
100
AcDbLine
 10
1656.273287472493
 20
1215.935540955194
 30
0.0
 11
1709.773409542493
 21
1215.935540955194
 31
0.0
  0
LINE
  5
836
330
1F
100
AcDbEntity
  8
BILD
  6
AUSGEZOGEN
 62
     1
100
AcDbLine
 10
1649.773043332494
 20
2110.847711365195
 30
0.0
 11
1709.773043332494
 21
2110.847711365195
 31
0.0
  0
LINE
  5
837
330
1F
100
AcDbEntity
  8
BILD
  6
AUSGEZOGEN
 62
     1
100
AcDbLine
 10
1649.773043332494
 20
2109.847955505195
 30
0.0
 11
1651.773165402494
 21
2109.847955505195
 31
0.0
  0
LINE
  5
838
330
1F
100
AcDbEntity
  8
BILD
  6
AUSGEZOGEN
 62
     1
100
AcDbLine
 10
1651.773165402494
 20
2068.447809025194
 30
0.0
 11
1651.773165402494
 21
2110.847711365195
 31
0.0
  0
LINE
  5
839
330
1F
100
AcDbEntity
  8
BILD
  6
AUSGEZOGEN
 62
     1
100
AcDbLine
 10
1687.772921262494
 20
2068.447809025194
 30
0.0
 11
1687.772921262494
 21
2110.847711365195
 31
0.0
  0
LINE
  5
83A
330
1F
100
AcDbEntity
  8
BILD
  6
AUSGEZOGEN
 62
     1
100
AcDbLine
 10
1687.772921262494
 20
2109.847955505195
 30
0.0
 11
1709.773043332494
 21
2109.847955505195
 31
0.0
  0
LINE
  5
83B
330
1F
100
AcDbEntity
  8
BILD
  6
AUSGEZOGEN
 62
     1
100
AcDbLine
 10
1709.773043332494
 20
2068.447809025194
 30
0.0
 11
1709.773043332494
 21
2110.847711365195
 31
0.0
  0
LINE
  5
83C
330
1F
100
AcDbEntity
  8
BILD
  6
AUSGEZOGEN
 62
     1
100
AcDbLine
 10
1687.772921262494
 20
2069.447564885195
 30
0.0
 11
1709.773043332494
 21
2069.447564885195
 31
0.0
  0
LINE
  5
83D
330
1F
100
AcDbEntity
  8
BILD
  6
AUSGEZOGEN
 62
     1
100
AcDbLine
 10
1649.773043332494
 20
2068.447809025194
 30
0.0
 11
1709.773043332494
 21
2068.447809025194
 31
0.0
  0
LINE
  5
83E
330
1F
100
AcDbEntity
  8
BILD
  6
AUSGEZOGEN
 62
     1
100
AcDbLine
 10
1649.773043332494
 20
2069.447564885195
 30
0.0
 11
1651.773165402494
 21
2069.447564885195
 31
0.0
  0
LINE
  5
83F
330
1F
100
AcDbEntity
  8
BILD
  6
AUSGEZOGEN
 62
     1
100
AcDbLine
 10
1560.272921262494
 20
2024.647760195195
 30
0.0
 11
1560.272921262494
 21
2029.647760195194
 31
0.0
  0
LINE
  5
840
330
1F
100
AcDbEntity
  8
BILD
  6
AUSGEZOGEN
 62
     1
100
AcDbLine
 10
1609.273165402494
 20
2024.647760195195
 30
0.0
 11
1609.273165402494
 21
2029.647760195194
 31
0.0
  0
LINE
  5
841
330
1F
100
AcDbEntity
  8
BILD
  6
AUSGEZOGEN
 62
     1
100
AcDbLine
 10
1609.273165402494
 20
2039.647760195195
 30
0.0
 11
1609.273165402494
 21
2053.147760195195
 31
0.0
  0
LINE
  5
842
330
1F
100
AcDbEntity
  8
BILD
  6
AUSGEZOGEN
 62
     1
100
AcDbLine
 10
1560.272921262494
 20
2039.647760195195
 30
0.0
 11
1560.272921262494
 21
2053.147760195195
 31
0.0
  0
LINE
  5
843
330
1F
100
AcDbEntity
  8
BILD
  6
AUSGEZOGEN
 62
     1
100
AcDbLine
 10
1634.773043332494
 20
2114.147271915195
 30
0.0
 11
1621.272921262495
 21
2114.147271915195
 31
0.0
  0
LINE
  5
844
330
1F
100
AcDbEntity
  8
BILD
  6
AUSGEZOGEN
 62
     1
100
AcDbLine
 10
1634.773043332494
 20
2065.148248475194
 30
0.0
 11
1621.272921262495
 21
2065.148248475194
 31
0.0
  0
LINE
  5
845
330
1F
100
AcDbEntity
  8
BILD
  6
AUSGEZOGEN
 62
     1
100
AcDbLine
 10
1649.773043332494
 20
2065.148248475194
 30
0.0
 11
1644.773043332494
 21
2065.148248475194
 31
0.0
  0
ARC
  5
846
330
1F
100
AcDbEntity
  8
BILD
  6
AUSGEZOGEN
 62
     1
100
AcDbCircle
 10
1621.273287472493
 20
2053.147516055195
 30
0.0
 40
61.0
100
AcDbArc
 50
90.00000762997665
 51
180.0
  0
ARC
  5
847
330
1F
100
AcDbEntity
  8
BILD
  6
AUSGEZOGEN
 62
     1
100
AcDbCircle
 10
1621.273287472493
 20
2053.147516055195
 30
0.0
 40
12.0
100
AcDbArc
 50
90.00000762997665
 51
180.0
  0
LINE
  5
848
330
1F
100
AcDbEntity
  8
BILD
  6
AUSGEZOGEN
 62
     1
100
AcDbLine
 10
1649.773043332494
 20
2114.147271915195
 30
0.0
 11
1644.773043332494
 21
2114.147271915195
 31
0.0
  0
LINE
  5
849
330
1F
100
AcDbEntity
  8
BILD
  6
AUSGEZOGEN
 62
     1
100
AcDbLine
 10
1649.773043332494
 20
2114.147271915195
 30
0.0
 11
1649.773043332494
 21
2065.147271915195
 31
0.0
  0
LINE
  5
84A
330
1F
100
AcDbEntity
  8
BILD
  6
AUSGEZOGEN
 62
     1
100
AcDbLine
 10
1609.273165402494
 20
2024.647760195195
 30
0.0
 11
1560.273165402494
 21
2024.647760195195
 31
0.0
  0
LINE
  5
84B
330
1F
100
AcDbEntity
  8
BILD
  6
AUSGEZOGEN
 62
     1
100
AcDbLine
 10
1608.823336292495
 20
2015.689019965194
 30
0.0
 11
1560.823458372495
 21
2015.689019965194
 31
0.0
  0
LINE
  5
84C
330
1F
100
AcDbEntity
  8
BILD
  6
AUSGEZOGEN
 62
     1
100
AcDbLine
 10
1560.823458372495
 20
2015.689019965194
 30
0.0
 11
1560.823458372495
 21
1995.689019965194
 31
0.0
  0
LINE
  5
84D
330
1F
100
AcDbEntity
  8
BILD
  6
AUSGEZOGEN
 62
     1
100
AcDbLine
 10
1567.967013052494
 20
2014.264459415195
 30
0.0
 11
1567.967013052494
 21
1997.272882265195
 31
0.0
  0
LINE
  5
84E
330
1F
100
AcDbEntity
  8
BILD
  6
AUSGEZOGEN
 62
     1
100
AcDbLine
 10
1571.967257192493
 20
2014.119195745195
 30
0.0
 11
1571.967257192493
 21
1997.300226015195
 31
0.0
  0
LINE
  5
84F
330
1F
100
AcDbEntity
  8
BILD
  6
AUSGEZOGEN
 62
     1
100
AcDbLine
 10
1581.823214222495
 20
2013.837213325194
 30
0.0
 11
1581.823214222495
 21
1997.197686955194
 31
0.0
  0
LINE
  5
850
330
1F
100
AcDbEntity
  8
BILD
  6
AUSGEZOGEN
 62
     1
100
AcDbLine
 10
1587.823580442495
 20
2013.884820745195
 30
0.0
 11
1587.823580442495
 21
1997.424737735195
 31
0.0
  0
LINE
  5
851
330
1F
100
AcDbEntity
  8
BILD
  6
AUSGEZOGEN
 62
     1
100
AcDbLine
 10
1601.679781612496
 20
2013.816461365195
 30
0.0
 11
1601.679781612496
 21
1997.349420355195
 31
0.0
  0
LINE
  5
852
330
1F
100
AcDbEntity
  8
BILD
  6
AUSGEZOGEN
 62
     1
100
AcDbLine
 10
1597.680147822495
 20
2013.960504335195
 30
0.0
 11
1597.680147822495
 21
1997.320977965195
 31
0.0
  0
LINE
  5
853
330
1F
100
AcDbEntity
  8
BILD
  6
AUSGEZOGEN
 62
     1
100
AcDbLine
 10
1608.823336292495
 20
2015.689019965194
 30
0.0
 11
1608.823336292495
 21
1995.689019965194
 31
0.0
  0
LINE
  5
854
330
1F
100
AcDbEntity
  8
BILD
  6
AUSGEZOGEN
 62
     1
100
AcDbLine
 10
1535.205782582496
 20
2070.962457465194
 30
0.0
 11
1515.473726922493
 21
2073.350641055195
 31
0.0
  0
LINE
  5
855
330
1F
100
AcDbEntity
  8
BILD
  6
AUSGEZOGEN
 62
     1
100
AcDbLine
 10
1536.223238642495
 20
2079.401178165195
 30
0.0
 11
1517.018282582496
 21
2081.709283635195
 31
0.0
  0
ARC
  5
856
330
1F
100
AcDbEntity
  8
BILD
  6
AUSGEZOGEN
 62
     1
100
AcDbCircle
 10
1535.716280632496
 20
2075.181207465194
 30
0.0
 40
4.24995565
100
AcDbArc
 50
259.5295410200212
 51
83.14727783002807
  0
ARC
  5
857
330
1F
100
AcDbEntity
  8
BILD
  6
AUSGEZOGEN
 62
     1
100
AcDbCircle
 10
1511.839327512494
 20
2053.683404725194
 30
0.0
 40
28.50010872
100
AcDbArc
 50
79.53009033003434
 51
180.0
  0
ARC
  5
858
330
1F
100
AcDbEntity
  8
BILD
  6
AUSGEZOGEN
 62
     1
100
AcDbCircle
 10
1511.839327512494
 20
2053.683404725194
 30
0.0
 40
20.00010681
100
AcDbArc
 50
79.53009033003434
 51
180.0000152600054
  0
LINE
  5
859
330
1F
100
AcDbEntity
  8
BILD
  6
AUSGEZOGEN
 62
     1
100
AcDbLine
 10
1510.714571652494
 20
2364.179010195195
 30
0.0
 11
1539.714571652494
 21
2364.179010195195
 31
0.0
  0
LINE
  5
85A
330
1F
100
AcDbEntity
  8
BILD
  6
AUSGEZOGEN
 62
     1
100
AcDbLine
 10
1539.714571652494
 20
2364.179010195195
 30
0.0
 11
1539.714571652494
 21
2329.179010195195
 31
0.0
  0
LINE
  5
85B
330
1F
100
AcDbEntity
  8
BILD
  6
AUSGEZOGEN
 62
     1
100
AcDbLine
 10
1539.714571652494
 20
2329.179010195195
 30
0.0
 11
1510.714571652494
 21
2329.179010195195
 31
0.0
  0
LINE
  5
85C
330
1F
100
AcDbEntity
  8
BILD
  6
AUSGEZOGEN
 62
     1
100
AcDbLine
 10
1510.714571652494
 20
2329.179010195195
 30
0.0
 11
1510.714571652494
 21
2364.179010195195
 31
0.0
  0
LINE
  5
85D
330
1F
100
AcDbEntity
  8
BILD
  6
AUSGEZOGEN
 62
     1
100
AcDbLine
 10
1513.214571652494
 20
2364.179010195195
 30
0.0
 11
1513.214571652494
 21
2352.031793395195
 31
0.0
  0
LINE
  5
85E
330
1F
100
AcDbEntity
  8
BILD
  6
AUSGEZOGEN
 62
     1
100
AcDbLine
 10
1516.214449582494
 20
2364.179010195195
 30
0.0
 11
1516.214449582494
 21
2352.031793395195
 31
0.0
  0
LINE
  5
85F
330
1F
100
AcDbEntity
  8
BILD
  6
AUSGEZOGEN
 62
     1
100
AcDbLine
 10
1519.214693722493
 20
2364.179010195195
 30
0.0
 11
1519.214693722493
 21
2352.031793395195
 31
0.0
  0
LINE
  5
860
330
1F
100
AcDbEntity
  8
BILD
  6
AUSGEZOGEN
 62
     1
100
AcDbLine
 10
1522.214571652494
 20
2364.179010195195
 30
0.0
 11
1522.214571652494
 21
2352.031793395195
 31
0.0
  0
LINE
  5
861
330
1F
100
AcDbEntity
  8
BILD
  6
AUSGEZOGEN
 62
     1
100
AcDbLine
 10
1525.214693722493
 20
2364.179010195195
 30
0.0
 11
1525.214693722493
 21
2352.031793395195
 31
0.0
  0
LINE
  5
862
330
1F
100
AcDbEntity
  8
BILD
  6
AUSGEZOGEN
 62
     1
100
AcDbLine
 10
1528.214571652493
 20
2364.179010195195
 30
0.0
 11
1528.214571652493
 21
2352.031793395195
 31
0.0
  0
LINE
  5
863
330
1F
100
AcDbEntity
  8
BILD
  6
AUSGEZOGEN
 62
     1
100
AcDbLine
 10
1531.214449582494
 20
2364.179010195195
 30
0.0
 11
1531.214449582494
 21
2352.031793395195
 31
0.0
  0
LINE
  5
864
330
1F
100
AcDbEntity
  8
BILD
  6
AUSGEZOGEN
 62
     1
100
AcDbLine
 10
1534.214693722493
 20
2364.179010195195
 30
0.0
 11
1534.214693722493
 21
2352.031793395195
 31
0.0
  0
LINE
  5
865
330
1F
100
AcDbEntity
  8
BILD
  6
AUSGEZOGEN
 62
     1
100
AcDbLine
 10
1537.214571652494
 20
2364.179010195195
 30
0.0
 11
1537.214571652494
 21
2352.031793395195
 31
0.0
  0
LINE
  5
866
330
1F
100
AcDbEntity
  8
BILD
  6
AUSGEZOGEN
 62
     1
100
AcDbLine
 10
1510.714571652494
 20
2346.032037535195
 30
0.0
 11
1539.714571652494
 21
2346.032037535195
 31
0.0
  0
LINE
  5
867
330
1F
100
AcDbEntity
  8
BILD
  6
AUSGEZOGEN
 62
     1
100
AcDbLine
 10
1537.214571652494
 20
2329.179010195195
 30
0.0
 11
1537.214571652494
 21
2342.546930115195
 31
0.0
  0
LINE
  5
868
330
1F
100
AcDbEntity
  8
BILD
  6
AUSGEZOGEN
 62
     1
100
AcDbLine
 10
1534.214693722493
 20
2329.179010195195
 30
0.0
 11
1534.214693722493
 21
2342.546930115195
 31
0.0
  0
LINE
  5
869
330
1F
100
AcDbEntity
  8
BILD
  6
AUSGEZOGEN
 62
     1
100
AcDbLine
 10
1531.214449582494
 20
2329.179010195195
 30
0.0
 11
1531.214449582494
 21
2342.546930115195
 31
0.0
  0
LINE
  5
86A
330
1F
100
AcDbEntity
  8
BILD
  6
AUSGEZOGEN
 62
     1
100
AcDbLine
 10
1528.214571652493
 20
2329.179010195195
 30
0.0
 11
1528.214571652493
 21
2342.546930115195
 31
0.0
  0
LINE
  5
86B
330
1F
100
AcDbEntity
  8
BILD
  6
AUSGEZOGEN
 62
     1
100
AcDbLine
 10
1525.214693722493
 20
2329.179010195195
 30
0.0
 11
1525.214693722493
 21
2342.546930115195
 31
0.0
  0
LINE
  5
86C
330
1F
100
AcDbEntity
  8
BILD
  6
AUSGEZOGEN
 62
     1
100
AcDbLine
 10
1522.214571652494
 20
2329.179010195195
 30
0.0
 11
1522.214571652494
 21
2342.546930115195
 31
0.0
  0
LINE
  5
86D
330
1F
100
AcDbEntity
  8
BILD
  6
AUSGEZOGEN
 62
     1
100
AcDbLine
 10
1519.214693722493
 20
2329.179010195195
 30
0.0
 11
1519.214693722493
 21
2342.546930115195
 31
0.0
  0
LINE
  5
86E
330
1F
100
AcDbEntity
  8
BILD
  6
AUSGEZOGEN
 62
     1
100
AcDbLine
 10
1516.214449582494
 20
2329.179010195195
 30
0.0
 11
1516.214449582494
 21
2342.546930115195
 31
0.0
  0
LINE
  5
86F
330
1F
100
AcDbEntity
  8
BILD
  6
AUSGEZOGEN
 62
     1
100
AcDbLine
 10
1513.214571652494
 20
2329.179010195195
 30
0.0
 11
1513.214571652494
 21
2342.546930115195
 31
0.0
  0
LINE
  5
870
330
1F
100
AcDbEntity
  8
BILD
  6
AUSGEZOGEN
 62
     1
100
AcDbLine
 10
1510.714571652494
 20
2342.545709415195
 30
0.0
 11
1539.714571652494
 21
2342.545709415195
 31
0.0
  0
LINE
  5
871
330
1F
100
AcDbEntity
  8
BILD
  6
AUSGEZOGEN
 62
     1
100
AcDbLine
 10
1521.214693722493
 20
2289.179010195195
 30
0.0
 11
1521.214693722493
 21
2284.179010195195
 31
0.0
  0
LINE
  5
872
330
1F
100
AcDbEntity
  8
BILD
  6
AUSGEZOGEN
 62
     1
100
AcDbLine
 10
1529.214571652494
 20
2289.179010195195
 30
0.0
 11
1529.214571652494
 21
2284.179010195195
 31
0.0
  0
LINE
  5
873
330
1F
100
AcDbEntity
  8
BILD
  6
AUSGEZOGEN
 62
     1
100
AcDbLine
 10
1516.714571652494
 20
2284.179010195195
 30
0.0
 11
1516.714571652494
 21
2289.179010195195
 31
0.0
  0
LINE
  5
874
330
1F
100
AcDbEntity
  8
BILD
  6
AUSGEZOGEN
 62
     1
100
AcDbLine
 10
1533.714693722493
 20
2284.179010195195
 30
0.0
 11
1516.714571652494
 21
2284.179010195195
 31
0.0
  0
LINE
  5
875
330
1F
100
AcDbEntity
  8
BILD
  6
AUSGEZOGEN
 62
     1
100
AcDbLine
 10
1533.714693722493
 20
2289.179010195195
 30
0.0
 11
1533.714693722493
 21
2284.179010195195
 31
0.0
  0
LINE
  5
876
330
1F
100
AcDbEntity
  8
BILD
  6
AUSGEZOGEN
 62
     1
100
AcDbLine
 10
1516.714571652494
 20
2289.179010195195
 30
0.0
 11
1533.714693722493
 21
2289.179010195195
 31
0.0
  0
LINE
  5
877
330
1F
100
AcDbEntity
  8
BILD
  6
AUSGEZOGEN
 62
     1
100
AcDbLine
 10
1513.214571652494
 20
2329.179010195195
 30
0.0
 11
1513.214571652494
 21
2305.179010195195
 31
0.0
  0
LINE
  5
878
330
1F
100
AcDbEntity
  8
BILD
  6
AUSGEZOGEN
 62
     1
100
AcDbLine
 10
1537.214815792493
 20
2305.179986755195
 30
0.0
 11
1537.214815792493
 21
2329.179986755194
 31
0.0
  0
LINE
  5
879
330
1F
100
AcDbEntity
  8
BILD
  6
AUSGEZOGEN
 62
     1
100
AcDbLine
 10
1537.214815792493
 20
2305.179986755195
 30
0.0
 11
1513.214937862496
 21
2305.179986755195
 31
0.0
  0
LINE
  5
87A
330
1F
100
AcDbEntity
  8
BILD
  6
AUSGEZOGEN
 62
     1
100
AcDbLine
 10
1534.714815792493
 20
2291.178521915195
 30
0.0
 11
1537.214815792493
 21
2305.178521915195
 31
0.0
  0
LINE
  5
87B
330
1F
100
AcDbEntity
  8
BILD
  6
AUSGEZOGEN
 62
     1
100
AcDbLine
 10
1515.714571652494
 20
2291.178521915195
 30
0.0
 11
1513.214571652494
 21
2305.178521915195
 31
0.0
  0
LINE
  5
87C
330
1F
100
AcDbEntity
  8
BILD
  6
AUSGEZOGEN
 62
     1
100
AcDbLine
 10
1534.714815792493
 20
2291.178521915195
 30
0.0
 11
1515.714937862496
 21
2291.178521915195
 31
0.0
  0
LINE
  5
87D
330
1F
100
AcDbEntity
  8
BILD
  6
AUSGEZOGEN
 62
     1
100
AcDbLine
 10
1534.714815792493
 20
2407.179498475195
 30
0.0
 11
1515.714937862496
 21
2407.179498475195
 31
0.0
  0
LINE
  5
87E
330
1F
100
AcDbEntity
  8
BILD
  6
AUSGEZOGEN
 62
     1
100
AcDbLine
 10
1515.714571652494
 20
2407.179498475195
 30
0.0
 11
1513.214571652494
 21
2393.179498475194
 31
0.0
  0
LINE
  5
87F
330
1F
100
AcDbEntity
  8
BILD
  6
AUSGEZOGEN
 62
     1
100
AcDbLine
 10
1534.714815792493
 20
2407.179498475195
 30
0.0
 11
1537.214815792493
 21
2393.179498475194
 31
0.0
  0
LINE
  5
880
330
1F
100
AcDbEntity
  8
BILD
  6
AUSGEZOGEN
 62
     1
100
AcDbLine
 10
1537.214815792493
 20
2393.178033635195
 30
0.0
 11
1513.214937862496
 21
2393.178033635195
 31
0.0
  0
LINE
  5
881
330
1F
100
AcDbEntity
  8
BILD
  6
AUSGEZOGEN
 62
     1
100
AcDbLine
 10
1537.214815792493
 20
2393.178033635195
 30
0.0
 11
1537.214815792493
 21
2364.178033635195
 31
0.0
  0
LINE
  5
882
330
1F
100
AcDbEntity
  8
BILD
  6
AUSGEZOGEN
 62
     1
100
AcDbLine
 10
1513.214571652494
 20
2364.179010195195
 30
0.0
 11
1513.214571652494
 21
2393.179010195195
 31
0.0
  0
LINE
  5
883
330
1F
100
AcDbEntity
  8
BILD
  6
AUSGEZOGEN
 62
     1
100
AcDbLine
 10
1521.214693722493
 20
2409.179010195195
 30
0.0
 11
1521.214693722493
 21
2414.179010195195
 31
0.0
  0
LINE
  5
884
330
1F
100
AcDbEntity
  8
BILD
  6
AUSGEZOGEN
 62
     1
100
AcDbLine
 10
1529.214571652494
 20
2409.179010195195
 30
0.0
 11
1529.214571652494
 21
2414.179010195195
 31
0.0
  0
LINE
  5
885
330
1F
100
AcDbEntity
  8
BILD
  6
AUSGEZOGEN
 62
     1
100
AcDbLine
 10
1516.714571652494
 20
2414.179010195195
 30
0.0
 11
1516.714571652494
 21
2409.179010195195
 31
0.0
  0
LINE
  5
886
330
1F
100
AcDbEntity
  8
BILD
  6
AUSGEZOGEN
 62
     1
100
AcDbLine
 10
1533.714693722493
 20
2414.179010195195
 30
0.0
 11
1516.714571652494
 21
2414.179010195195
 31
0.0
  0
LINE
  5
887
330
1F
100
AcDbEntity
  8
BILD
  6
AUSGEZOGEN
 62
     1
100
AcDbLine
 10
1533.714693722493
 20
2409.179010195195
 30
0.0
 11
1533.714693722493
 21
2414.179010195195
 31
0.0
  0
LINE
  5
888
330
1F
100
AcDbEntity
  8
BILD
  6
AUSGEZOGEN
 62
     1
100
AcDbLine
 10
1516.714571652494
 20
2409.179010195195
 30
0.0
 11
1533.714693722493
 21
2409.179010195195
 31
0.0
  0
LINE
  5
889
330
1F
100
AcDbEntity
  8
BILD
  6
AUSGEZOGEN
 62
     1
100
AcDbLine
 10
1532.714693722493
 20
2407.179498475195
 30
0.0
 11
1532.714693722493
 21
2409.179498475194
 31
0.0
  0
LINE
  5
88A
330
1F
100
AcDbEntity
  8
BILD
  6
AUSGEZOGEN
 62
     1
100
AcDbLine
 10
1517.714693722493
 20
2407.179498475195
 30
0.0
 11
1517.714693722493
 21
2409.179498475194
 31
0.0
  0
LINE
  5
88B
330
1F
100
AcDbEntity
  8
BILD
  6
AUSGEZOGEN
 62
     1
100
AcDbLine
 10
1532.714693722493
 20
2289.179010195195
 30
0.0
 11
1532.714693722493
 21
2291.179010195195
 31
0.0
  0
LINE
  5
88C
330
1F
100
AcDbEntity
  8
BILD
  6
AUSGEZOGEN
 62
     1
100
AcDbLine
 10
1517.714693722493
 20
2289.179010195195
 30
0.0
 11
1517.714693722493
 21
2291.179010195195
 31
0.0
  0
LINE
  5
88D
330
1F
100
AcDbEntity
  8
BILD
  6
AUSGEZOGEN
 62
     1
100
AcDbLine
 10
1510.714571652494
 20
2352.030572695195
 30
0.0
 11
1539.714571652494
 21
2352.030572695195
 31
0.0
  0
LINE
  5
88E
330
1F
100
AcDbEntity
  8
BILD
  6
AUSGEZOGEN
 62
     1
100
AcDbLine
 10
1520.214693722493
 20
2284.179010195195
 30
0.0
 11
1520.214693722493
 21
2222.712701605194
 31
0.0
  0
LINE
  5
88F
330
1F
100
AcDbEntity
  8
BILD
  6
AUSGEZOGEN
 62
     1
100
AcDbLine
 10
1530.214693722493
 20
2284.179010195195
 30
0.0
 11
1530.214693722493
 21
2222.712701605194
 31
0.0
  0
LINE
  5
890
330
1F
100
AcDbEntity
  8
BILD
  6
AUSGEZOGEN
 62
     1
100
AcDbLine
 10
1520.214693722493
 20
2414.179010195195
 30
0.0
 11
1520.214693722493
 21
2478.278375425194
 31
0.0
  0
LINE
  5
891
330
1F
100
AcDbEntity
  8
BILD
  6
AUSGEZOGEN
 62
     1
100
AcDbLine
 10
1530.214693722493
 20
2414.179010195195
 30
0.0
 11
1530.214693722493
 21
2478.278375425194
 31
0.0
  0
CIRCLE
  5
892
330
1F
100
AcDbEntity
  8
BILD
  6
AUSGEZOGEN
 62
     1
100
AcDbCircle
 10
1392.772921262494
 20
1096.135736265194
 30
0.0
 40
3.25
  0
CIRCLE
  5
893
330
1F
100
AcDbEntity
  8
BILD
  6
AUSGEZOGEN
 62
     1
100
AcDbCircle
 10
1378.773043332494
 20
1096.135736265194
 30
0.0
 40
3.25
  0
CIRCLE
  5
894
330
1F
100
AcDbEntity
  8
BILD
  6
AUSGEZOGEN
 62
     1
100
AcDbCircle
 10
1392.772921262494
 20
1110.135980405194
 30
0.0
 40
3.25
  0
CIRCLE
  5
895
330
1F
100
AcDbEntity
  8
BILD
  6
AUSGEZOGEN
 62
     1
100
AcDbCircle
 10
1378.773043332494
 20
1110.135980405194
 30
0.0
 40
3.25
  0
CIRCLE
  5
896
330
1F
100
AcDbEntity
  8
BILD
  6
AUSGEZOGEN
 62
     1
100
AcDbCircle
 10
1392.772921262494
 20
1124.136224555194
 30
0.0
 40
3.25
  0
CIRCLE
  5
897
330
1F
100
AcDbEntity
  8
BILD
  6
AUSGEZOGEN
 62
     1
100
AcDbCircle
 10
1378.773043332494
 20
1124.136224555194
 30
0.0
 40
3.25
  0
CIRCLE
  5
898
330
1F
100
AcDbEntity
  8
BILD
  6
AUSGEZOGEN
 62
     1
100
AcDbCircle
 10
1392.772921262494
 20
1138.136468695194
 30
0.0
 40
3.25
  0
CIRCLE
  5
899
330
1F
100
AcDbEntity
  8
BILD
  6
AUSGEZOGEN
 62
     1
100
AcDbCircle
 10
1378.773043332494
 20
1138.136468695194
 30
0.0
 40
3.25
  0
CIRCLE
  5
89A
330
1F
100
AcDbEntity
  8
BILD
  6
AUSGEZOGEN
 62
     1
100
AcDbCircle
 10
1392.772921262494
 20
1152.135492125195
 30
0.0
 40
3.25
  0
CIRCLE
  5
89B
330
1F
100
AcDbEntity
  8
BILD
  6
AUSGEZOGEN
 62
     1
100
AcDbCircle
 10
1378.773043332494
 20
1152.135492125195
 30
0.0
 40
3.25
  0
CIRCLE
  5
89C
330
1F
100
AcDbEntity
  8
BILD
  6
AUSGEZOGEN
 62
     1
100
AcDbCircle
 10
1392.772921262494
 20
1166.135736265194
 30
0.0
 40
3.25
  0
CIRCLE
  5
89D
330
1F
100
AcDbEntity
  8
BILD
  6
AUSGEZOGEN
 62
     1
100
AcDbCircle
 10
1378.773043332494
 20
1166.135736265194
 30
0.0
 40
3.25
  0
CIRCLE
  5
89E
330
1F
100
AcDbEntity
  8
BILD
  6
AUSGEZOGEN
 62
     1
100
AcDbCircle
 10
1392.772921262494
 20
1180.135980405194
 30
0.0
 40
3.25
  0
CIRCLE
  5
89F
330
1F
100
AcDbEntity
  8
BILD
  6
AUSGEZOGEN
 62
     1
100
AcDbCircle
 10
1378.773043332494
 20
1180.135980405194
 30
0.0
 40
3.25
  0
CIRCLE
  5
8A0
330
1F
100
AcDbEntity
  8
BILD
  6
AUSGEZOGEN
 62
     1
100
AcDbCircle
 10
1364.773104362495
 20
1096.135736265194
 30
0.0
 40
3.25
  0
CIRCLE
  5
8A1
330
1F
100
AcDbEntity
  8
BILD
  6
AUSGEZOGEN
 62
     1
100
AcDbCircle
 10
1350.773165402493
 20
1096.135736265194
 30
0.0
 40
3.25
  0
CIRCLE
  5
8A2
330
1F
100
AcDbEntity
  8
BILD
  6
AUSGEZOGEN
 62
     1
100
AcDbCircle
 10
1364.773104362495
 20
1110.135980405194
 30
0.0
 40
3.25
  0
CIRCLE
  5
8A3
330
1F
100
AcDbEntity
  8
BILD
  6
AUSGEZOGEN
 62
     1
100
AcDbCircle
 10
1350.773165402493
 20
1110.135980405194
 30
0.0
 40
3.25
  0
CIRCLE
  5
8A4
330
1F
100
AcDbEntity
  8
BILD
  6
AUSGEZOGEN
 62
     1
100
AcDbCircle
 10
1364.773104362495
 20
1124.136224555194
 30
0.0
 40
3.25
  0
CIRCLE
  5
8A5
330
1F
100
AcDbEntity
  8
BILD
  6
AUSGEZOGEN
 62
     1
100
AcDbCircle
 10
1350.773165402493
 20
1124.136224555194
 30
0.0
 40
3.25
  0
CIRCLE
  5
8A6
330
1F
100
AcDbEntity
  8
BILD
  6
AUSGEZOGEN
 62
     1
100
AcDbCircle
 10
1364.773104362495
 20
1138.136468695194
 30
0.0
 40
3.25
  0
CIRCLE
  5
8A7
330
1F
100
AcDbEntity
  8
BILD
  6
AUSGEZOGEN
 62
     1
100
AcDbCircle
 10
1350.773165402493
 20
1138.136468695194
 30
0.0
 40
3.25
  0
CIRCLE
  5
8A8
330
1F
100
AcDbEntity
  8
BILD
  6
AUSGEZOGEN
 62
     1
100
AcDbCircle
 10
1364.773104362495
 20
1152.135492125195
 30
0.0
 40
3.25
  0
CIRCLE
  5
8A9
330
1F
100
AcDbEntity
  8
BILD
  6
AUSGEZOGEN
 62
     1
100
AcDbCircle
 10
1350.773165402493
 20
1152.135492125195
 30
0.0
 40
3.25
  0
CIRCLE
  5
8AA
330
1F
100
AcDbEntity
  8
BILD
  6
AUSGEZOGEN
 62
     1
100
AcDbCircle
 10
1364.773104362495
 20
1166.135736265194
 30
0.0
 40
3.25
  0
CIRCLE
  5
8AB
330
1F
100
AcDbEntity
  8
BILD
  6
AUSGEZOGEN
 62
     1
100
AcDbCircle
 10
1350.773165402493
 20
1166.135736265194
 30
0.0
 40
3.25
  0
CIRCLE
  5
8AC
330
1F
100
AcDbEntity
  8
BILD
  6
AUSGEZOGEN
 62
     1
100
AcDbCircle
 10
1364.773104362495
 20
1180.135980405194
 30
0.0
 40
3.25
  0
CIRCLE
  5
8AD
330
1F
100
AcDbEntity
  8
BILD
  6
AUSGEZOGEN
 62
     1
100
AcDbCircle
 10
1350.773165402493
 20
1180.135980405194
 30
0.0
 40
3.25
  0
CIRCLE
  5
8AE
330
1F
100
AcDbEntity
  8
BILD
  6
AUSGEZOGEN
 62
     1
100
AcDbCircle
 10
1336.773226432495
 20
1096.135736265194
 30
0.0
 40
3.25
  0
CIRCLE
  5
8AF
330
1F
100
AcDbEntity
  8
BILD
  6
AUSGEZOGEN
 62
     1
100
AcDbCircle
 10
1322.773287472493
 20
1096.135736265194
 30
0.0
 40
3.25
  0
CIRCLE
  5
8B0
330
1F
100
AcDbEntity
  8
BILD
  6
AUSGEZOGEN
 62
     1
100
AcDbCircle
 10
1336.773226432495
 20
1110.135980405194
 30
0.0
 40
3.25
  0
CIRCLE
  5
8B1
330
1F
100
AcDbEntity
  8
BILD
  6
AUSGEZOGEN
 62
     1
100
AcDbCircle
 10
1322.773287472493
 20
1110.135980405194
 30
0.0
 40
3.25
  0
CIRCLE
  5
8B2
330
1F
100
AcDbEntity
  8
BILD
  6
AUSGEZOGEN
 62
     1
100
AcDbCircle
 10
1336.773226432495
 20
1124.136224555194
 30
0.0
 40
3.25
  0
CIRCLE
  5
8B3
330
1F
100
AcDbEntity
  8
BILD
  6
AUSGEZOGEN
 62
     1
100
AcDbCircle
 10
1322.773287472493
 20
1124.136224555194
 30
0.0
 40
3.25
  0
CIRCLE
  5
8B4
330
1F
100
AcDbEntity
  8
BILD
  6
AUSGEZOGEN
 62
     1
100
AcDbCircle
 10
1336.773226432495
 20
1138.136468695194
 30
0.0
 40
3.25
  0
CIRCLE
  5
8B5
330
1F
100
AcDbEntity
  8
BILD
  6
AUSGEZOGEN
 62
     1
100
AcDbCircle
 10
1322.773287472493
 20
1138.136468695194
 30
0.0
 40
3.25
  0
CIRCLE
  5
8B6
330
1F
100
AcDbEntity
  8
BILD
  6
AUSGEZOGEN
 62
     1
100
AcDbCircle
 10
1336.773226432495
 20
1152.135492125195
 30
0.0
 40
3.25
  0
CIRCLE
  5
8B7
330
1F
100
AcDbEntity
  8
BILD
  6
AUSGEZOGEN
 62
     1
100
AcDbCircle
 10
1322.773287472493
 20
1152.135492125195
 30
0.0
 40
3.25
  0
CIRCLE
  5
8B8
330
1F
100
AcDbEntity
  8
BILD
  6
AUSGEZOGEN
 62
     1
100
AcDbCircle
 10
1336.773226432495
 20
1166.135736265194
 30
0.0
 40
3.25
  0
CIRCLE
  5
8B9
330
1F
100
AcDbEntity
  8
BILD
  6
AUSGEZOGEN
 62
     1
100
AcDbCircle
 10
1322.773287472493
 20
1166.135736265194
 30
0.0
 40
3.25
  0
CIRCLE
  5
8BA
330
1F
100
AcDbEntity
  8
BILD
  6
AUSGEZOGEN
 62
     1
100
AcDbCircle
 10
1336.773226432495
 20
1180.135980405194
 30
0.0
 40
3.25
  0
CIRCLE
  5
8BB
330
1F
100
AcDbEntity
  8
BILD
  6
AUSGEZOGEN
 62
     1
100
AcDbCircle
 10
1322.773287472493
 20
1180.135980405194
 30
0.0
 40
3.25
  0
CIRCLE
  5
8BC
330
1F
100
AcDbEntity
  8
BILD
  6
AUSGEZOGEN
 62
     1
100
AcDbCircle
 10
1308.773043332494
 20
1096.135736265194
 30
0.0
 40
3.25
  0
CIRCLE
  5
8BD
330
1F
100
AcDbEntity
  8
BILD
  6
AUSGEZOGEN
 62
     1
100
AcDbCircle
 10
1294.773104362495
 20
1096.135736265194
 30
0.0
 40
3.25
  0
CIRCLE
  5
8BE
330
1F
100
AcDbEntity
  8
BILD
  6
AUSGEZOGEN
 62
     1
100
AcDbCircle
 10
1308.773043332494
 20
1110.135980405194
 30
0.0
 40
3.25
  0
CIRCLE
  5
8BF
330
1F
100
AcDbEntity
  8
BILD
  6
AUSGEZOGEN
 62
     1
100
AcDbCircle
 10
1294.773104362495
 20
1110.135980405194
 30
0.0
 40
3.25
  0
CIRCLE
  5
8C0
330
1F
100
AcDbEntity
  8
BILD
  6
AUSGEZOGEN
 62
     1
100
AcDbCircle
 10
1308.773043332494
 20
1124.136224555194
 30
0.0
 40
3.25
  0
CIRCLE
  5
8C1
330
1F
100
AcDbEntity
  8
BILD
  6
AUSGEZOGEN
 62
     1
100
AcDbCircle
 10
1294.773104362495
 20
1124.136224555194
 30
0.0
 40
3.25
  0
CIRCLE
  5
8C2
330
1F
100
AcDbEntity
  8
BILD
  6
AUSGEZOGEN
 62
     1
100
AcDbCircle
 10
1308.773043332494
 20
1138.136468695194
 30
0.0
 40
3.25
  0
CIRCLE
  5
8C3
330
1F
100
AcDbEntity
  8
BILD
  6
AUSGEZOGEN
 62
     1
100
AcDbCircle
 10
1294.773104362495
 20
1138.136468695194
 30
0.0
 40
3.25
  0
CIRCLE
  5
8C4
330
1F
100
AcDbEntity
  8
BILD
  6
AUSGEZOGEN
 62
     1
100
AcDbCircle
 10
1308.773043332494
 20
1152.135492125195
 30
0.0
 40
3.25
  0
CIRCLE
  5
8C5
330
1F
100
AcDbEntity
  8
BILD
  6
AUSGEZOGEN
 62
     1
100
AcDbCircle
 10
1294.773104362495
 20
1152.135492125195
 30
0.0
 40
3.25
  0
CIRCLE
  5
8C6
330
1F
100
AcDbEntity
  8
BILD
  6
AUSGEZOGEN
 62
     1
100
AcDbCircle
 10
1308.773043332494
 20
1166.135736265194
 30
0.0
 40
3.25
  0
CIRCLE
  5
8C7
330
1F
100
AcDbEntity
  8
BILD
  6
AUSGEZOGEN
 62
     1
100
AcDbCircle
 10
1294.773104362495
 20
1166.135736265194
 30
0.0
 40
3.25
  0
CIRCLE
  5
8C8
330
1F
100
AcDbEntity
  8
BILD
  6
AUSGEZOGEN
 62
     1
100
AcDbCircle
 10
1308.773043332494
 20
1180.135980405194
 30
0.0
 40
3.25
  0
CIRCLE
  5
8C9
330
1F
100
AcDbEntity
  8
BILD
  6
AUSGEZOGEN
 62
     1
100
AcDbCircle
 10
1294.773104362495
 20
1180.135980405194
 30
0.0
 40
3.25
  0
CIRCLE
  5
8CA
330
1F
100
AcDbEntity
  8
BILD
  6
AUSGEZOGEN
 62
     1
100
AcDbCircle
 10
1357.773287472493
 20
1327.135553165195
 30
0.0
 40
3.5
  0
CIRCLE
  5
8CB
330
1F
100
AcDbEntity
  8
BILD
  6
AUSGEZOGEN
 62
     1
100
AcDbCircle
 10
1357.773287472493
 20
1299.135064885195
 30
0.0
 40
3.5
  0
CIRCLE
  5
8CC
330
1F
100
AcDbEntity
  8
BILD
  6
AUSGEZOGEN
 62
     1
100
AcDbCircle
 10
1357.773287472493
 20
1271.135797305194
 30
0.0
 40
3.5
  0
CIRCLE
  5
8CD
330
1F
100
AcDbEntity
  8
BILD
  6
AUSGEZOGEN
 62
     1
100
AcDbCircle
 10
1357.773287472493
 20
1243.135247985195
 30
0.0
 40
3.5
  0
CIRCLE
  5
8CE
330
1F
100
AcDbEntity
  8
BILD
  6
AUSGEZOGEN
 62
     1
100
AcDbCircle
 10
1357.773287472493
 20
1215.135980405194
 30
0.0
 40
3.5
  0
CIRCLE
  5
8CF
330
1F
100
AcDbEntity
  8
BILD
  6
AUSGEZOGEN
 62
     1
100
AcDbCircle
 10
1357.773287472493
 20
1103.135247985195
 30
0.0
 40
3.5
  0
CIRCLE
  5
8D0
330
1F
100
AcDbEntity
  8
BILD
  6
AUSGEZOGEN
 62
     1
100
AcDbCircle
 10
1357.773287472493
 20
1131.135736265194
 30
0.0
 40
3.5
  0
CIRCLE
  5
8D1
330
1F
100
AcDbEntity
  8
BILD
  6
AUSGEZOGEN
 62
     1
100
AcDbCircle
 10
1357.773287472493
 20
1159.135003845195
 30
0.0
 40
3.5
  0
CIRCLE
  5
8D2
330
1F
100
AcDbEntity
  8
BILD
  6
AUSGEZOGEN
 62
     1
100
AcDbCircle
 10
1315.773165402494
 20
1327.135553165195
 30
0.0
 40
3.5
  0
CIRCLE
  5
8D3
330
1F
100
AcDbEntity
  8
BILD
  6
AUSGEZOGEN
 62
     1
100
AcDbCircle
 10
1315.773165402494
 20
1299.135064885195
 30
0.0
 40
3.5
  0
CIRCLE
  5
8D4
330
1F
100
AcDbEntity
  8
BILD
  6
AUSGEZOGEN
 62
     1
100
AcDbCircle
 10
1315.773165402494
 20
1271.135797305194
 30
0.0
 40
3.5
  0
CIRCLE
  5
8D5
330
1F
100
AcDbEntity
  8
BILD
  6
AUSGEZOGEN
 62
     1
100
AcDbCircle
 10
1315.773165402494
 20
1243.135247985195
 30
0.0
 40
3.5
  0
CIRCLE
  5
8D6
330
1F
100
AcDbEntity
  8
BILD
  6
AUSGEZOGEN
 62
     1
100
AcDbCircle
 10
1315.773165402494
 20
1215.135980405194
 30
0.0
 40
3.5
  0
CIRCLE
  5
8D7
330
1F
100
AcDbEntity
  8
BILD
  6
AUSGEZOGEN
 62
     1
100
AcDbCircle
 10
1315.773165402494
 20
1103.135247985195
 30
0.0
 40
3.5
  0
CIRCLE
  5
8D8
330
1F
100
AcDbEntity
  8
BILD
  6
AUSGEZOGEN
 62
     1
100
AcDbCircle
 10
1315.773165402494
 20
1131.135736265194
 30
0.0
 40
3.5
  0
CIRCLE
  5
8D9
330
1F
100
AcDbEntity
  8
BILD
  6
AUSGEZOGEN
 62
     1
100
AcDbCircle
 10
1315.773165402494
 20
1159.135003845195
 30
0.0
 40
3.5
  0
CIRCLE
  5
8DA
330
1F
100
AcDbEntity
  8
BILD
  6
AUSGEZOGEN
 62
     1
100
AcDbCircle
 10
1273.773043332494
 20
1327.135553165195
 30
0.0
 40
3.5
  0
CIRCLE
  5
8DB
330
1F
100
AcDbEntity
  8
BILD
  6
AUSGEZOGEN
 62
     1
100
AcDbCircle
 10
1273.773043332494
 20
1299.135064885195
 30
0.0
 40
3.5
  0
CIRCLE
  5
8DC
330
1F
100
AcDbEntity
  8
BILD
  6
AUSGEZOGEN
 62
     1
100
AcDbCircle
 10
1273.773043332494
 20
1271.135797305194
 30
0.0
 40
3.5
  0
CIRCLE
  5
8DD
330
1F
100
AcDbEntity
  8
BILD
  6
AUSGEZOGEN
 62
     1
100
AcDbCircle
 10
1273.773043332494
 20
1243.135247985195
 30
0.0
 40
3.5
  0
CIRCLE
  5
8DE
330
1F
100
AcDbEntity
  8
BILD
  6
AUSGEZOGEN
 62
     1
100
AcDbCircle
 10
1273.773043332494
 20
1215.135980405194
 30
0.0
 40
3.5
  0
CIRCLE
  5
8DF
330
1F
100
AcDbEntity
  8
BILD
  6
AUSGEZOGEN
 62
     1
100
AcDbCircle
 10
1273.773043332494
 20
1103.135247985195
 30
0.0
 40
3.5
  0
CIRCLE
  5
8E0
330
1F
100
AcDbEntity
  8
BILD
  6
AUSGEZOGEN
 62
     1
100
AcDbCircle
 10
1273.773043332494
 20
1131.135736265194
 30
0.0
 40
3.5
  0
CIRCLE
  5
8E1
330
1F
100
AcDbEntity
  8
BILD
  6
AUSGEZOGEN
 62
     1
100
AcDbCircle
 10
1273.773043332494
 20
1159.135003845195
 30
0.0
 40
3.5
  0
CIRCLE
  5
8E2
330
1F
100
AcDbEntity
  8
BILD
  6
AUSGEZOGEN
 62
     1
100
AcDbCircle
 10
1420.773165402494
 20
1096.135736265194
 30
0.0
 40
3.25
  0
CIRCLE
  5
8E3
330
1F
100
AcDbEntity
  8
BILD
  6
AUSGEZOGEN
 62
     1
100
AcDbCircle
 10
1406.773226432495
 20
1096.135736265194
 30
0.0
 40
3.25
  0
CIRCLE
  5
8E4
330
1F
100
AcDbEntity
  8
BILD
  6
AUSGEZOGEN
 62
     1
100
AcDbCircle
 10
1420.773165402494
 20
1110.135980405194
 30
0.0
 40
3.25
  0
CIRCLE
  5
8E5
330
1F
100
AcDbEntity
  8
BILD
  6
AUSGEZOGEN
 62
     1
100
AcDbCircle
 10
1406.773226432495
 20
1110.135980405194
 30
0.0
 40
3.25
  0
CIRCLE
  5
8E6
330
1F
100
AcDbEntity
  8
BILD
  6
AUSGEZOGEN
 62
     1
100
AcDbCircle
 10
1420.773165402494
 20
1124.136224555194
 30
0.0
 40
3.25
  0
CIRCLE
  5
8E7
330
1F
100
AcDbEntity
  8
BILD
  6
AUSGEZOGEN
 62
     1
100
AcDbCircle
 10
1406.773226432495
 20
1124.136224555194
 30
0.0
 40
3.25
  0
CIRCLE
  5
8E8
330
1F
100
AcDbEntity
  8
BILD
  6
AUSGEZOGEN
 62
     1
100
AcDbCircle
 10
1420.773165402494
 20
1138.136468695194
 30
0.0
 40
3.25
  0
CIRCLE
  5
8E9
330
1F
100
AcDbEntity
  8
BILD
  6
AUSGEZOGEN
 62
     1
100
AcDbCircle
 10
1406.773226432495
 20
1138.136468695194
 30
0.0
 40
3.25
  0
CIRCLE
  5
8EA
330
1F
100
AcDbEntity
  8
BILD
  6
AUSGEZOGEN
 62
     1
100
AcDbCircle
 10
1420.773165402494
 20
1152.135492125195
 30
0.0
 40
3.25
  0
CIRCLE
  5
8EB
330
1F
100
AcDbEntity
  8
BILD
  6
AUSGEZOGEN
 62
     1
100
AcDbCircle
 10
1406.773226432495
 20
1152.135492125195
 30
0.0
 40
3.25
  0
CIRCLE
  5
8EC
330
1F
100
AcDbEntity
  8
BILD
  6
AUSGEZOGEN
 62
     1
100
AcDbCircle
 10
1420.773165402494
 20
1166.135736265194
 30
0.0
 40
3.25
  0
CIRCLE
  5
8ED
330
1F
100
AcDbEntity
  8
BILD
  6
AUSGEZOGEN
 62
     1
100
AcDbCircle
 10
1406.773226432495
 20
1166.135736265194
 30
0.0
 40
3.25
  0
CIRCLE
  5
8EE
330
1F
100
AcDbEntity
  8
BILD
  6
AUSGEZOGEN
 62
     1
100
AcDbCircle
 10
1420.773165402494
 20
1180.135980405194
 30
0.0
 40
3.25
  0
CIRCLE
  5
8EF
330
1F
100
AcDbEntity
  8
BILD
  6
AUSGEZOGEN
 62
     1
100
AcDbCircle
 10
1406.773226432495
 20
1180.135980405194
 30
0.0
 40
3.25
  0
CIRCLE
  5
8F0
330
1F
100
AcDbEntity
  8
BILD
  6
AUSGEZOGEN
 62
     1
100
AcDbCircle
 10
1399.773104362495
 20
1327.135553165195
 30
0.0
 40
3.5
  0
CIRCLE
  5
8F1
330
1F
100
AcDbEntity
  8
BILD
  6
AUSGEZOGEN
 62
     1
100
AcDbCircle
 10
1399.773104362495
 20
1299.135064885195
 30
0.0
 40
3.5
  0
CIRCLE
  5
8F2
330
1F
100
AcDbEntity
  8
BILD
  6
AUSGEZOGEN
 62
     1
100
AcDbCircle
 10
1399.773104362495
 20
1271.135797305194
 30
0.0
 40
3.5
  0
CIRCLE
  5
8F3
330
1F
100
AcDbEntity
  8
BILD
  6
AUSGEZOGEN
 62
     1
100
AcDbCircle
 10
1399.773104362495
 20
1243.135247985195
 30
0.0
 40
3.5
  0
CIRCLE
  5
8F4
330
1F
100
AcDbEntity
  8
BILD
  6
AUSGEZOGEN
 62
     1
100
AcDbCircle
 10
1399.773104362495
 20
1215.135980405194
 30
0.0
 40
3.5
  0
CIRCLE
  5
8F5
330
1F
100
AcDbEntity
  8
BILD
  6
AUSGEZOGEN
 62
     1
100
AcDbCircle
 10
1399.773104362495
 20
1103.135247985195
 30
0.0
 40
3.5
  0
CIRCLE
  5
8F6
330
1F
100
AcDbEntity
  8
BILD
  6
AUSGEZOGEN
 62
     1
100
AcDbCircle
 10
1399.773104362495
 20
1131.135736265194
 30
0.0
 40
3.5
  0
CIRCLE
  5
8F7
330
1F
100
AcDbEntity
  8
BILD
  6
AUSGEZOGEN
 62
     1
100
AcDbCircle
 10
1399.773104362495
 20
1159.135003845195
 30
0.0
 40
3.5
  0
CIRCLE
  5
8F8
330
1F
100
AcDbEntity
  8
BILD
  6
AUSGEZOGEN
 62
     1
100
AcDbCircle
 10
1651.773165402494
 20
1327.135553165195
 30
0.0
 40
3.5
  0
CIRCLE
  5
8F9
330
1F
100
AcDbEntity
  8
BILD
  6
AUSGEZOGEN
 62
     1
100
AcDbCircle
 10
1651.773165402494
 20
1299.135064885195
 30
0.0
 40
3.5
  0
CIRCLE
  5
8FA
330
1F
100
AcDbEntity
  8
BILD
  6
AUSGEZOGEN
 62
     1
100
AcDbCircle
 10
1651.773165402494
 20
1271.135797305194
 30
0.0
 40
3.5
  0
CIRCLE
  5
8FB
330
1F
100
AcDbEntity
  8
BILD
  6
AUSGEZOGEN
 62
     1
100
AcDbCircle
 10
1651.773165402494
 20
1243.135247985195
 30
0.0
 40
3.5
  0
CIRCLE
  5
8FC
330
1F
100
AcDbEntity
  8
BILD
  6
AUSGEZOGEN
 62
     1
100
AcDbCircle
 10
1651.773165402494
 20
1215.135980405194
 30
0.0
 40
3.5
  0
CIRCLE
  5
8FD
330
1F
100
AcDbEntity
  8
BILD
  6
AUSGEZOGEN
 62
     1
100
AcDbCircle
 10
1651.773165402494
 20
1103.135247985195
 30
0.0
 40
3.5
  0
CIRCLE
  5
8FE
330
1F
100
AcDbEntity
  8
BILD
  6
AUSGEZOGEN
 62
     1
100
AcDbCircle
 10
1651.773165402494
 20
1131.135736265194
 30
0.0
 40
3.5
  0
CIRCLE
  5
8FF
330
1F
100
AcDbEntity
  8
BILD
  6
AUSGEZOGEN
 62
     1
100
AcDbCircle
 10
1651.773165402494
 20
1159.135003845195
 30
0.0
 40
3.5
  0
CIRCLE
  5
900
330
1F
100
AcDbEntity
  8
BILD
  6
AUSGEZOGEN
 62
     1
100
AcDbCircle
 10
1609.773165402494
 20
1327.135553165195
 30
0.0
 40
3.5
  0
CIRCLE
  5
901
330
1F
100
AcDbEntity
  8
BILD
  6
AUSGEZOGEN
 62
     1
100
AcDbCircle
 10
1609.773165402494
 20
1299.135064885195
 30
0.0
 40
3.5
  0
CIRCLE
  5
902
330
1F
100
AcDbEntity
  8
BILD
  6
AUSGEZOGEN
 62
     1
100
AcDbCircle
 10
1609.773165402494
 20
1271.135797305194
 30
0.0
 40
3.5
  0
CIRCLE
  5
903
330
1F
100
AcDbEntity
  8
BILD
  6
AUSGEZOGEN
 62
     1
100
AcDbCircle
 10
1609.773165402494
 20
1243.135247985195
 30
0.0
 40
3.5
  0
CIRCLE
  5
904
330
1F
100
AcDbEntity
  8
BILD
  6
AUSGEZOGEN
 62
     1
100
AcDbCircle
 10
1609.773165402494
 20
1215.135980405194
 30
0.0
 40
3.5
  0
CIRCLE
  5
905
330
1F
100
AcDbEntity
  8
BILD
  6
AUSGEZOGEN
 62
     1
100
AcDbCircle
 10
1609.773165402494
 20
1103.135247985195
 30
0.0
 40
3.5
  0
CIRCLE
  5
906
330
1F
100
AcDbEntity
  8
BILD
  6
AUSGEZOGEN
 62
     1
100
AcDbCircle
 10
1609.773165402494
 20
1131.135736265194
 30
0.0
 40
3.5
  0
CIRCLE
  5
907
330
1F
100
AcDbEntity
  8
BILD
  6
AUSGEZOGEN
 62
     1
100
AcDbCircle
 10
1609.773165402494
 20
1159.135003845195
 30
0.0
 40
3.5
  0
CIRCLE
  5
908
330
1F
100
AcDbEntity
  8
BILD
  6
AUSGEZOGEN
 62
     1
100
AcDbCircle
 10
1567.773653682496
 20
1327.135553165195
 30
0.0
 40
3.5
  0
CIRCLE
  5
909
330
1F
100
AcDbEntity
  8
BILD
  6
AUSGEZOGEN
 62
     1
100
AcDbCircle
 10
1567.773653682496
 20
1299.135064885195
 30
0.0
 40
3.5
  0
CIRCLE
  5
90A
330
1F
100
AcDbEntity
  8
BILD
  6
AUSGEZOGEN
 62
     1
100
AcDbCircle
 10
1567.773653682496
 20
1271.135797305194
 30
0.0
 40
3.5
  0
CIRCLE
  5
90B
330
1F
100
AcDbEntity
  8
BILD
  6
AUSGEZOGEN
 62
     1
100
AcDbCircle
 10
1567.773653682496
 20
1243.135247985195
 30
0.0
 40
3.5
  0
CIRCLE
  5
90C
330
1F
100
AcDbEntity
  8
BILD
  6
AUSGEZOGEN
 62
     1
100
AcDbCircle
 10
1567.773653682496
 20
1215.135980405194
 30
0.0
 40
3.5
  0
CIRCLE
  5
90D
330
1F
100
AcDbEntity
  8
BILD
  6
AUSGEZOGEN
 62
     1
100
AcDbCircle
 10
1567.773653682496
 20
1103.135247985195
 30
0.0
 40
3.5
  0
CIRCLE
  5
90E
330
1F
100
AcDbEntity
  8
BILD
  6
AUSGEZOGEN
 62
     1
100
AcDbCircle
 10
1567.773653682496
 20
1131.135736265194
 30
0.0
 40
3.5
  0
CIRCLE
  5
90F
330
1F
100
AcDbEntity
  8
BILD
  6
AUSGEZOGEN
 62
     1
100
AcDbCircle
 10
1567.773653682496
 20
1159.135003845195
 30
0.0
 40
3.5
  0
CIRCLE
  5
910
330
1F
100
AcDbEntity
  8
BILD
  6
AUSGEZOGEN
 62
     1
100
AcDbCircle
 10
1525.773165402493
 20
1327.135553165195
 30
0.0
 40
3.5
  0
CIRCLE
  5
911
330
1F
100
AcDbEntity
  8
BILD
  6
AUSGEZOGEN
 62
     1
100
AcDbCircle
 10
1525.773165402493
 20
1299.135064885195
 30
0.0
 40
3.5
  0
CIRCLE
  5
912
330
1F
100
AcDbEntity
  8
BILD
  6
AUSGEZOGEN
 62
     1
100
AcDbCircle
 10
1525.773165402493
 20
1271.135797305194
 30
0.0
 40
3.5
  0
CIRCLE
  5
913
330
1F
100
AcDbEntity
  8
BILD
  6
AUSGEZOGEN
 62
     1
100
AcDbCircle
 10
1525.773165402493
 20
1243.135247985195
 30
0.0
 40
3.5
  0
CIRCLE
  5
914
330
1F
100
AcDbEntity
  8
BILD
  6
AUSGEZOGEN
 62
     1
100
AcDbCircle
 10
1525.773165402493
 20
1215.135980405194
 30
0.0
 40
3.5
  0
CIRCLE
  5
915
330
1F
100
AcDbEntity
  8
BILD
  6
AUSGEZOGEN
 62
     1
100
AcDbCircle
 10
1525.773165402493
 20
1103.135247985195
 30
0.0
 40
3.5
  0
CIRCLE
  5
916
330
1F
100
AcDbEntity
  8
BILD
  6
AUSGEZOGEN
 62
     1
100
AcDbCircle
 10
1525.773165402493
 20
1131.135736265194
 30
0.0
 40
3.5
  0
CIRCLE
  5
917
330
1F
100
AcDbEntity
  8
BILD
  6
AUSGEZOGEN
 62
     1
100
AcDbCircle
 10
1525.773165402493
 20
1159.135003845195
 30
0.0
 40
3.5
  0
CIRCLE
  5
918
330
1F
100
AcDbEntity
  8
BILD
  6
AUSGEZOGEN
 62
     1
100
AcDbCircle
 10
1483.773043332494
 20
1327.135553165195
 30
0.0
 40
3.5
  0
CIRCLE
  5
919
330
1F
100
AcDbEntity
  8
BILD
  6
AUSGEZOGEN
 62
     1
100
AcDbCircle
 10
1483.773043332494
 20
1299.135064885195
 30
0.0
 40
3.5
  0
CIRCLE
  5
91A
330
1F
100
AcDbEntity
  8
BILD
  6
AUSGEZOGEN
 62
     1
100
AcDbCircle
 10
1483.773043332494
 20
1271.135797305194
 30
0.0
 40
3.5
  0
CIRCLE
  5
91B
330
1F
100
AcDbEntity
  8
BILD
  6
AUSGEZOGEN
 62
     1
100
AcDbCircle
 10
1483.773043332494
 20
1243.135247985195
 30
0.0
 40
3.5
  0
CIRCLE
  5
91C
330
1F
100
AcDbEntity
  8
BILD
  6
AUSGEZOGEN
 62
     1
100
AcDbCircle
 10
1483.773043332494
 20
1215.135980405194
 30
0.0
 40
3.5
  0
CIRCLE
  5
91D
330
1F
100
AcDbEntity
  8
BILD
  6
AUSGEZOGEN
 62
     1
100
AcDbCircle
 10
1483.773043332494
 20
1103.135247985195
 30
0.0
 40
3.5
  0
CIRCLE
  5
91E
330
1F
100
AcDbEntity
  8
BILD
  6
AUSGEZOGEN
 62
     1
100
AcDbCircle
 10
1483.773043332494
 20
1131.135736265194
 30
0.0
 40
3.5
  0
CIRCLE
  5
91F
330
1F
100
AcDbEntity
  8
BILD
  6
AUSGEZOGEN
 62
     1
100
AcDbCircle
 10
1483.773043332494
 20
1159.135003845195
 30
0.0
 40
3.5
  0
CIRCLE
  5
920
330
1F
100
AcDbEntity
  8
BILD
  6
AUSGEZOGEN
 62
     1
100
AcDbCircle
 10
1441.773226432495
 20
1327.135553165195
 30
0.0
 40
3.5
  0
CIRCLE
  5
921
330
1F
100
AcDbEntity
  8
BILD
  6
AUSGEZOGEN
 62
     1
100
AcDbCircle
 10
1441.773226432495
 20
1299.135064885195
 30
0.0
 40
3.5
  0
CIRCLE
  5
922
330
1F
100
AcDbEntity
  8
BILD
  6
AUSGEZOGEN
 62
     1
100
AcDbCircle
 10
1441.773226432495
 20
1271.135797305194
 30
0.0
 40
3.5
  0
CIRCLE
  5
923
330
1F
100
AcDbEntity
  8
BILD
  6
AUSGEZOGEN
 62
     1
100
AcDbCircle
 10
1441.773226432495
 20
1243.135247985195
 30
0.0
 40
3.5
  0
CIRCLE
  5
924
330
1F
100
AcDbEntity
  8
BILD
  6
AUSGEZOGEN
 62
     1
100
AcDbCircle
 10
1441.773226432495
 20
1215.135980405194
 30
0.0
 40
3.5
  0
CIRCLE
  5
925
330
1F
100
AcDbEntity
  8
BILD
  6
AUSGEZOGEN
 62
     1
100
AcDbCircle
 10
1441.773226432495
 20
1103.135247985195
 30
0.0
 40
3.5
  0
CIRCLE
  5
926
330
1F
100
AcDbEntity
  8
BILD
  6
AUSGEZOGEN
 62
     1
100
AcDbCircle
 10
1441.773226432495
 20
1131.135736265194
 30
0.0
 40
3.5
  0
CIRCLE
  5
927
330
1F
100
AcDbEntity
  8
BILD
  6
AUSGEZOGEN
 62
     1
100
AcDbCircle
 10
1441.773226432495
 20
1159.135003845195
 30
0.0
 40
3.5
  0
CIRCLE
  5
928
330
1F
100
AcDbEntity
  8
BILD
  6
AUSGEZOGEN
 62
     1
100
AcDbCircle
 10
1392.772921262494
 20
1306.134576605194
 30
0.0
 40
3.25
  0
CIRCLE
  5
929
330
1F
100
AcDbEntity
  8
BILD
  6
AUSGEZOGEN
 62
     1
100
AcDbCircle
 10
1378.773043332494
 20
1306.134576605194
 30
0.0
 40
3.25
  0
CIRCLE
  5
92A
330
1F
100
AcDbEntity
  8
BILD
  6
AUSGEZOGEN
 62
     1
100
AcDbCircle
 10
1392.772921262494
 20
1292.135553165195
 30
0.0
 40
3.25
  0
CIRCLE
  5
92B
330
1F
100
AcDbEntity
  8
BILD
  6
AUSGEZOGEN
 62
     1
100
AcDbCircle
 10
1378.773043332494
 20
1292.135553165195
 30
0.0
 40
3.25
  0
CIRCLE
  5
92C
330
1F
100
AcDbEntity
  8
BILD
  6
AUSGEZOGEN
 62
     1
100
AcDbCircle
 10
1392.772921262494
 20
1278.135309025194
 30
0.0
 40
3.25
  0
CIRCLE
  5
92D
330
1F
100
AcDbEntity
  8
BILD
  6
AUSGEZOGEN
 62
     1
100
AcDbCircle
 10
1378.773043332494
 20
1278.135309025194
 30
0.0
 40
3.25
  0
CIRCLE
  5
92E
330
1F
100
AcDbEntity
  8
BILD
  6
AUSGEZOGEN
 62
     1
100
AcDbCircle
 10
1392.772921262494
 20
1264.135003845195
 30
0.0
 40
3.25
  0
CIRCLE
  5
92F
330
1F
100
AcDbEntity
  8
BILD
  6
AUSGEZOGEN
 62
     1
100
AcDbCircle
 10
1378.773043332494
 20
1264.135003845195
 30
0.0
 40
3.25
  0
CIRCLE
  5
930
330
1F
100
AcDbEntity
  8
BILD
  6
AUSGEZOGEN
 62
     1
100
AcDbCircle
 10
1392.772921262494
 20
1250.134759705194
 30
0.0
 40
3.25
  0
CIRCLE
  5
931
330
1F
100
AcDbEntity
  8
BILD
  6
AUSGEZOGEN
 62
     1
100
AcDbCircle
 10
1378.773043332494
 20
1250.134759705194
 30
0.0
 40
3.25
  0
CIRCLE
  5
932
330
1F
100
AcDbEntity
  8
BILD
  6
AUSGEZOGEN
 62
     1
100
AcDbCircle
 10
1392.772921262494
 20
1236.134515565194
 30
0.0
 40
3.25
  0
CIRCLE
  5
933
330
1F
100
AcDbEntity
  8
BILD
  6
AUSGEZOGEN
 62
     1
100
AcDbCircle
 10
1378.773043332494
 20
1236.134515565194
 30
0.0
 40
3.25
  0
CIRCLE
  5
934
330
1F
100
AcDbEntity
  8
BILD
  6
AUSGEZOGEN
 62
     1
100
AcDbCircle
 10
1392.772921262494
 20
1222.135492125195
 30
0.0
 40
3.25
  0
CIRCLE
  5
935
330
1F
100
AcDbEntity
  8
BILD
  6
AUSGEZOGEN
 62
     1
100
AcDbCircle
 10
1378.773043332494
 20
1222.135492125195
 30
0.0
 40
3.25
  0
CIRCLE
  5
936
330
1F
100
AcDbEntity
  8
BILD
  6
AUSGEZOGEN
 62
     1
100
AcDbCircle
 10
1392.772921262494
 20
1208.135247985195
 30
0.0
 40
3.25
  0
CIRCLE
  5
937
330
1F
100
AcDbEntity
  8
BILD
  6
AUSGEZOGEN
 62
     1
100
AcDbCircle
 10
1378.773043332494
 20
1208.135247985195
 30
0.0
 40
3.25
  0
CIRCLE
  5
938
330
1F
100
AcDbEntity
  8
BILD
  6
AUSGEZOGEN
 62
     1
100
AcDbCircle
 10
1392.772921262494
 20
1194.135003845194
 30
0.0
 40
3.25
  0
CIRCLE
  5
939
330
1F
100
AcDbEntity
  8
BILD
  6
AUSGEZOGEN
 62
     1
100
AcDbCircle
 10
1378.773043332494
 20
1194.135003845194
 30
0.0
 40
3.25
  0
CIRCLE
  5
93A
330
1F
100
AcDbEntity
  8
BILD
  6
AUSGEZOGEN
 62
     1
100
AcDbCircle
 10
1364.773104362495
 20
1306.134576605194
 30
0.0
 40
3.25
  0
CIRCLE
  5
93B
330
1F
100
AcDbEntity
  8
BILD
  6
AUSGEZOGEN
 62
     1
100
AcDbCircle
 10
1350.773165402493
 20
1306.134576605194
 30
0.0
 40
3.25
  0
CIRCLE
  5
93C
330
1F
100
AcDbEntity
  8
BILD
  6
AUSGEZOGEN
 62
     1
100
AcDbCircle
 10
1364.773104362495
 20
1292.135553165195
 30
0.0
 40
3.25
  0
CIRCLE
  5
93D
330
1F
100
AcDbEntity
  8
BILD
  6
AUSGEZOGEN
 62
     1
100
AcDbCircle
 10
1350.773165402493
 20
1292.135553165195
 30
0.0
 40
3.25
  0
CIRCLE
  5
93E
330
1F
100
AcDbEntity
  8
BILD
  6
AUSGEZOGEN
 62
     1
100
AcDbCircle
 10
1364.773104362495
 20
1278.135309025194
 30
0.0
 40
3.25
  0
CIRCLE
  5
93F
330
1F
100
AcDbEntity
  8
BILD
  6
AUSGEZOGEN
 62
     1
100
AcDbCircle
 10
1350.773165402493
 20
1278.135309025194
 30
0.0
 40
3.25
  0
CIRCLE
  5
940
330
1F
100
AcDbEntity
  8
BILD
  6
AUSGEZOGEN
 62
     1
100
AcDbCircle
 10
1364.773104362495
 20
1264.135003845195
 30
0.0
 40
3.25
  0
CIRCLE
  5
941
330
1F
100
AcDbEntity
  8
BILD
  6
AUSGEZOGEN
 62
     1
100
AcDbCircle
 10
1350.773165402493
 20
1264.135003845195
 30
0.0
 40
3.25
  0
CIRCLE
  5
942
330
1F
100
AcDbEntity
  8
BILD
  6
AUSGEZOGEN
 62
     1
100
AcDbCircle
 10
1364.773104362495
 20
1250.134759705194
 30
0.0
 40
3.25
  0
CIRCLE
  5
943
330
1F
100
AcDbEntity
  8
BILD
  6
AUSGEZOGEN
 62
     1
100
AcDbCircle
 10
1350.773165402493
 20
1250.134759705194
 30
0.0
 40
3.25
  0
CIRCLE
  5
944
330
1F
100
AcDbEntity
  8
BILD
  6
AUSGEZOGEN
 62
     1
100
AcDbCircle
 10
1364.773104362495
 20
1236.134515565194
 30
0.0
 40
3.25
  0
CIRCLE
  5
945
330
1F
100
AcDbEntity
  8
BILD
  6
AUSGEZOGEN
 62
     1
100
AcDbCircle
 10
1350.773165402493
 20
1236.134515565194
 30
0.0
 40
3.25
  0
CIRCLE
  5
946
330
1F
100
AcDbEntity
  8
BILD
  6
AUSGEZOGEN
 62
     1
100
AcDbCircle
 10
1364.773104362495
 20
1222.135492125195
 30
0.0
 40
3.25
  0
CIRCLE
  5
947
330
1F
100
AcDbEntity
  8
BILD
  6
AUSGEZOGEN
 62
     1
100
AcDbCircle
 10
1350.773165402493
 20
1222.135492125195
 30
0.0
 40
3.25
  0
CIRCLE
  5
948
330
1F
100
AcDbEntity
  8
BILD
  6
AUSGEZOGEN
 62
     1
100
AcDbCircle
 10
1364.773104362495
 20
1208.135247985195
 30
0.0
 40
3.25
  0
CIRCLE
  5
949
330
1F
100
AcDbEntity
  8
BILD
  6
AUSGEZOGEN
 62
     1
100
AcDbCircle
 10
1350.773165402493
 20
1208.135247985195
 30
0.0
 40
3.25
  0
CIRCLE
  5
94A
330
1F
100
AcDbEntity
  8
BILD
  6
AUSGEZOGEN
 62
     1
100
AcDbCircle
 10
1364.773104362495
 20
1194.135003845194
 30
0.0
 40
3.25
  0
CIRCLE
  5
94B
330
1F
100
AcDbEntity
  8
BILD
  6
AUSGEZOGEN
 62
     1
100
AcDbCircle
 10
1350.773165402493
 20
1194.135003845194
 30
0.0
 40
3.25
  0
CIRCLE
  5
94C
330
1F
100
AcDbEntity
  8
BILD
  6
AUSGEZOGEN
 62
     1
100
AcDbCircle
 10
1336.773226432495
 20
1306.134576605194
 30
0.0
 40
3.25
  0
CIRCLE
  5
94D
330
1F
100
AcDbEntity
  8
BILD
  6
AUSGEZOGEN
 62
     1
100
AcDbCircle
 10
1322.773287472493
 20
1306.134576605194
 30
0.0
 40
3.25
  0
CIRCLE
  5
94E
330
1F
100
AcDbEntity
  8
BILD
  6
AUSGEZOGEN
 62
     1
100
AcDbCircle
 10
1336.773226432495
 20
1292.135553165195
 30
0.0
 40
3.25
  0
CIRCLE
  5
94F
330
1F
100
AcDbEntity
  8
BILD
  6
AUSGEZOGEN
 62
     1
100
AcDbCircle
 10
1322.773287472493
 20
1292.135553165195
 30
0.0
 40
3.25
  0
CIRCLE
  5
950
330
1F
100
AcDbEntity
  8
BILD
  6
AUSGEZOGEN
 62
     1
100
AcDbCircle
 10
1336.773226432495
 20
1278.135309025194
 30
0.0
 40
3.25
  0
CIRCLE
  5
951
330
1F
100
AcDbEntity
  8
BILD
  6
AUSGEZOGEN
 62
     1
100
AcDbCircle
 10
1322.773287472493
 20
1278.135309025194
 30
0.0
 40
3.25
  0
CIRCLE
  5
952
330
1F
100
AcDbEntity
  8
BILD
  6
AUSGEZOGEN
 62
     1
100
AcDbCircle
 10
1336.773226432495
 20
1264.135003845195
 30
0.0
 40
3.25
  0
CIRCLE
  5
953
330
1F
100
AcDbEntity
  8
BILD
  6
AUSGEZOGEN
 62
     1
100
AcDbCircle
 10
1322.773287472493
 20
1264.135003845195
 30
0.0
 40
3.25
  0
CIRCLE
  5
954
330
1F
100
AcDbEntity
  8
BILD
  6
AUSGEZOGEN
 62
     1
100
AcDbCircle
 10
1336.773226432495
 20
1250.134759705194
 30
0.0
 40
3.25
  0
CIRCLE
  5
955
330
1F
100
AcDbEntity
  8
BILD
  6
AUSGEZOGEN
 62
     1
100
AcDbCircle
 10
1322.773287472493
 20
1250.134759705194
 30
0.0
 40
3.25
  0
CIRCLE
  5
956
330
1F
100
AcDbEntity
  8
BILD
  6
AUSGEZOGEN
 62
     1
100
AcDbCircle
 10
1336.773226432495
 20
1236.134515565194
 30
0.0
 40
3.25
  0
CIRCLE
  5
957
330
1F
100
AcDbEntity
  8
BILD
  6
AUSGEZOGEN
 62
     1
100
AcDbCircle
 10
1322.773287472493
 20
1236.134515565194
 30
0.0
 40
3.25
  0
CIRCLE
  5
958
330
1F
100
AcDbEntity
  8
BILD
  6
AUSGEZOGEN
 62
     1
100
AcDbCircle
 10
1336.773226432495
 20
1222.135492125195
 30
0.0
 40
3.25
  0
CIRCLE
  5
959
330
1F
100
AcDbEntity
  8
BILD
  6
AUSGEZOGEN
 62
     1
100
AcDbCircle
 10
1322.773287472493
 20
1222.135492125195
 30
0.0
 40
3.25
  0
CIRCLE
  5
95A
330
1F
100
AcDbEntity
  8
BILD
  6
AUSGEZOGEN
 62
     1
100
AcDbCircle
 10
1336.773226432495
 20
1208.135247985195
 30
0.0
 40
3.25
  0
CIRCLE
  5
95B
330
1F
100
AcDbEntity
  8
BILD
  6
AUSGEZOGEN
 62
     1
100
AcDbCircle
 10
1322.773287472493
 20
1208.135247985195
 30
0.0
 40
3.25
  0
CIRCLE
  5
95C
330
1F
100
AcDbEntity
  8
BILD
  6
AUSGEZOGEN
 62
     1
100
AcDbCircle
 10
1336.773226432495
 20
1194.135003845194
 30
0.0
 40
3.25
  0
CIRCLE
  5
95D
330
1F
100
AcDbEntity
  8
BILD
  6
AUSGEZOGEN
 62
     1
100
AcDbCircle
 10
1322.773287472493
 20
1194.135003845194
 30
0.0
 40
3.25
  0
CIRCLE
  5
95E
330
1F
100
AcDbEntity
  8
BILD
  6
AUSGEZOGEN
 62
     1
100
AcDbCircle
 10
1308.773043332494
 20
1306.134576605194
 30
0.0
 40
3.25
  0
CIRCLE
  5
95F
330
1F
100
AcDbEntity
  8
BILD
  6
AUSGEZOGEN
 62
     1
100
AcDbCircle
 10
1294.773104362495
 20
1306.134576605194
 30
0.0
 40
3.25
  0
CIRCLE
  5
960
330
1F
100
AcDbEntity
  8
BILD
  6
AUSGEZOGEN
 62
     1
100
AcDbCircle
 10
1308.773043332494
 20
1292.135553165195
 30
0.0
 40
3.25
  0
CIRCLE
  5
961
330
1F
100
AcDbEntity
  8
BILD
  6
AUSGEZOGEN
 62
     1
100
AcDbCircle
 10
1294.773104362495
 20
1292.135553165195
 30
0.0
 40
3.25
  0
CIRCLE
  5
962
330
1F
100
AcDbEntity
  8
BILD
  6
AUSGEZOGEN
 62
     1
100
AcDbCircle
 10
1308.773043332494
 20
1278.135309025194
 30
0.0
 40
3.25
  0
CIRCLE
  5
963
330
1F
100
AcDbEntity
  8
BILD
  6
AUSGEZOGEN
 62
     1
100
AcDbCircle
 10
1294.773104362495
 20
1278.135309025194
 30
0.0
 40
3.25
  0
CIRCLE
  5
964
330
1F
100
AcDbEntity
  8
BILD
  6
AUSGEZOGEN
 62
     1
100
AcDbCircle
 10
1308.773043332494
 20
1264.135003845195
 30
0.0
 40
3.25
  0
CIRCLE
  5
965
330
1F
100
AcDbEntity
  8
BILD
  6
AUSGEZOGEN
 62
     1
100
AcDbCircle
 10
1294.773104362495
 20
1264.135003845195
 30
0.0
 40
3.25
  0
CIRCLE
  5
966
330
1F
100
AcDbEntity
  8
BILD
  6
AUSGEZOGEN
 62
     1
100
AcDbCircle
 10
1308.773043332494
 20
1250.134759705194
 30
0.0
 40
3.25
  0
CIRCLE
  5
967
330
1F
100
AcDbEntity
  8
BILD
  6
AUSGEZOGEN
 62
     1
100
AcDbCircle
 10
1294.773104362495
 20
1250.134759705194
 30
0.0
 40
3.25
  0
CIRCLE
  5
968
330
1F
100
AcDbEntity
  8
BILD
  6
AUSGEZOGEN
 62
     1
100
AcDbCircle
 10
1308.773043332494
 20
1236.134515565194
 30
0.0
 40
3.25
  0
CIRCLE
  5
969
330
1F
100
AcDbEntity
  8
BILD
  6
AUSGEZOGEN
 62
     1
100
AcDbCircle
 10
1294.773104362495
 20
1236.134515565194
 30
0.0
 40
3.25
  0
CIRCLE
  5
96A
330
1F
100
AcDbEntity
  8
BILD
  6
AUSGEZOGEN
 62
     1
100
AcDbCircle
 10
1308.773043332494
 20
1222.135492125195
 30
0.0
 40
3.25
  0
CIRCLE
  5
96B
330
1F
100
AcDbEntity
  8
BILD
  6
AUSGEZOGEN
 62
     1
100
AcDbCircle
 10
1294.773104362495
 20
1222.135492125195
 30
0.0
 40
3.25
  0
CIRCLE
  5
96C
330
1F
100
AcDbEntity
  8
BILD
  6
AUSGEZOGEN
 62
     1
100
AcDbCircle
 10
1308.773043332494
 20
1208.135247985195
 30
0.0
 40
3.25
  0
CIRCLE
  5
96D
330
1F
100
AcDbEntity
  8
BILD
  6
AUSGEZOGEN
 62
     1
100
AcDbCircle
 10
1294.773104362495
 20
1208.135247985195
 30
0.0
 40
3.25
  0
CIRCLE
  5
96E
330
1F
100
AcDbEntity
  8
BILD
  6
AUSGEZOGEN
 62
     1
100
AcDbCircle
 10
1308.773043332494
 20
1194.135003845194
 30
0.0
 40
3.25
  0
CIRCLE
  5
96F
330
1F
100
AcDbEntity
  8
BILD
  6
AUSGEZOGEN
 62
     1
100
AcDbCircle
 10
1294.773104362495
 20
1194.135003845194
 30
0.0
 40
3.25
  0
CIRCLE
  5
970
330
1F
100
AcDbEntity
  8
BILD
  6
AUSGEZOGEN
 62
     1
100
AcDbCircle
 10
1420.773165402494
 20
1306.134576605194
 30
0.0
 40
3.25
  0
CIRCLE
  5
971
330
1F
100
AcDbEntity
  8
BILD
  6
AUSGEZOGEN
 62
     1
100
AcDbCircle
 10
1406.773226432495
 20
1306.134576605194
 30
0.0
 40
3.25
  0
CIRCLE
  5
972
330
1F
100
AcDbEntity
  8
BILD
  6
AUSGEZOGEN
 62
     1
100
AcDbCircle
 10
1420.773165402494
 20
1292.135553165195
 30
0.0
 40
3.25
  0
CIRCLE
  5
973
330
1F
100
AcDbEntity
  8
BILD
  6
AUSGEZOGEN
 62
     1
100
AcDbCircle
 10
1406.773226432495
 20
1292.135553165195
 30
0.0
 40
3.25
  0
CIRCLE
  5
974
330
1F
100
AcDbEntity
  8
BILD
  6
AUSGEZOGEN
 62
     1
100
AcDbCircle
 10
1420.773165402494
 20
1278.135309025194
 30
0.0
 40
3.25
  0
CIRCLE
  5
975
330
1F
100
AcDbEntity
  8
BILD
  6
AUSGEZOGEN
 62
     1
100
AcDbCircle
 10
1406.773226432495
 20
1278.135309025194
 30
0.0
 40
3.25
  0
CIRCLE
  5
976
330
1F
100
AcDbEntity
  8
BILD
  6
AUSGEZOGEN
 62
     1
100
AcDbCircle
 10
1420.773165402494
 20
1264.135003845195
 30
0.0
 40
3.25
  0
CIRCLE
  5
977
330
1F
100
AcDbEntity
  8
BILD
  6
AUSGEZOGEN
 62
     1
100
AcDbCircle
 10
1406.773226432495
 20
1264.135003845195
 30
0.0
 40
3.25
  0
CIRCLE
  5
978
330
1F
100
AcDbEntity
  8
BILD
  6
AUSGEZOGEN
 62
     1
100
AcDbCircle
 10
1420.773165402494
 20
1250.134759705194
 30
0.0
 40
3.25
  0
CIRCLE
  5
979
330
1F
100
AcDbEntity
  8
BILD
  6
AUSGEZOGEN
 62
     1
100
AcDbCircle
 10
1406.773226432495
 20
1250.134759705194
 30
0.0
 40
3.25
  0
CIRCLE
  5
97A
330
1F
100
AcDbEntity
  8
BILD
  6
AUSGEZOGEN
 62
     1
100
AcDbCircle
 10
1420.773165402494
 20
1236.134515565194
 30
0.0
 40
3.25
  0
CIRCLE
  5
97B
330
1F
100
AcDbEntity
  8
BILD
  6
AUSGEZOGEN
 62
     1
100
AcDbCircle
 10
1406.773226432495
 20
1236.134515565194
 30
0.0
 40
3.25
  0
CIRCLE
  5
97C
330
1F
100
AcDbEntity
  8
BILD
  6
AUSGEZOGEN
 62
     1
100
AcDbCircle
 10
1420.773165402494
 20
1222.135492125195
 30
0.0
 40
3.25
  0
CIRCLE
  5
97D
330
1F
100
AcDbEntity
  8
BILD
  6
AUSGEZOGEN
 62
     1
100
AcDbCircle
 10
1406.773226432495
 20
1222.135492125195
 30
0.0
 40
3.25
  0
CIRCLE
  5
97E
330
1F
100
AcDbEntity
  8
BILD
  6
AUSGEZOGEN
 62
     1
100
AcDbCircle
 10
1420.773165402494
 20
1208.135247985195
 30
0.0
 40
3.25
  0
CIRCLE
  5
97F
330
1F
100
AcDbEntity
  8
BILD
  6
AUSGEZOGEN
 62
     1
100
AcDbCircle
 10
1406.773226432495
 20
1208.135247985195
 30
0.0
 40
3.25
  0
CIRCLE
  5
980
330
1F
100
AcDbEntity
  8
BILD
  6
AUSGEZOGEN
 62
     1
100
AcDbCircle
 10
1420.773165402494
 20
1194.135003845194
 30
0.0
 40
3.25
  0
CIRCLE
  5
981
330
1F
100
AcDbEntity
  8
BILD
  6
AUSGEZOGEN
 62
     1
100
AcDbCircle
 10
1406.773226432495
 20
1194.135003845194
 30
0.0
 40
3.25
  0
LINE
  5
982
330
1F
100
AcDbEntity
  8
BILD
  6
AUSGEZOGEN
 62
     1
100
AcDbLine
 10
1672.773653682496
 20
1351.635064885195
 30
0.0
 11
1674.773775752495
 21
1351.635064885195
 31
0.0
  0
LINE
  5
983
330
1F
100
AcDbEntity
  8
BILD
  6
AUSGEZOGEN
 62
     1
100
AcDbLine
 10
1672.773653682496
 20
1353.635797305194
 30
0.0
 11
1672.773653682496
 21
1351.635797305194
 31
0.0
  0
LINE
  5
984
330
1F
100
AcDbEntity
  8
BILD
  6
AUSGEZOGEN
 62
     1
100
AcDbLine
 10
1674.773165402494
 20
1351.635064885195
 30
0.0
 11
1674.773165402494
 21
1022.635064885195
 31
0.0
  0
LINE
  5
985
330
1F
100
AcDbEntity
  8
BILD
  6
AUSGEZOGEN
 62
     1
100
AcDbLine
 10
1672.773653682496
 20
1022.635370055194
 30
0.0
 11
1674.773775752495
 21
1022.635370055194
 31
0.0
  0
LINE
  5
986
330
1F
100
AcDbEntity
  8
BILD
  6
AUSGEZOGEN
 62
     1
100
AcDbLine
 10
1672.773653682496
 20
1022.635370055194
 30
0.0
 11
1672.773653682496
 21
1020.635431095195
 31
0.0
  0
CIRCLE
  5
987
330
1F
100
AcDbEntity
  8
BILD
  6
AUSGEZOGEN
 62
     1
100
AcDbCircle
 10
1651.773165402494
 20
1187.135492125195
 30
0.0
 40
3.5
  0
CIRCLE
  5
988
330
1F
100
AcDbEntity
  8
BILD
  6
AUSGEZOGEN
 62
     1
100
AcDbCircle
 10
1609.773165402494
 20
1187.135492125195
 30
0.0
 40
3.5
  0
CIRCLE
  5
989
330
1F
100
AcDbEntity
  8
BILD
  6
AUSGEZOGEN
 62
     1
100
AcDbCircle
 10
1567.773653682496
 20
1187.135492125195
 30
0.0
 40
3.5
  0
CIRCLE
  5
98A
330
1F
100
AcDbEntity
  8
BILD
  6
AUSGEZOGEN
 62
     1
100
AcDbCircle
 10
1525.773165402493
 20
1187.135492125195
 30
0.0
 40
3.5
  0
CIRCLE
  5
98B
330
1F
100
AcDbEntity
  8
BILD
  6
AUSGEZOGEN
 62
     1
100
AcDbCircle
 10
1483.773043332494
 20
1187.135492125195
 30
0.0
 40
3.5
  0
CIRCLE
  5
98C
330
1F
100
AcDbEntity
  8
BILD
  6
AUSGEZOGEN
 62
     1
100
AcDbCircle
 10
1441.773226432495
 20
1187.135492125195
 30
0.0
 40
3.5
  0
CIRCLE
  5
98D
330
1F
100
AcDbEntity
  8
BILD
  6
AUSGEZOGEN
 62
     1
100
AcDbCircle
 10
1399.773104362495
 20
1187.135492125195
 30
0.0
 40
3.5
  0
LINE
  5
98E
330
1F
100
AcDbEntity
  8
BILD
  6
AUSGEZOGEN
 62
     1
100
AcDbLine
 10
1250.773165402494
 20
1351.635064885195
 30
0.0
 11
1252.773287472493
 21
1351.635064885195
 31
0.0
  0
LINE
  5
98F
330
1F
100
AcDbEntity
  8
BILD
  6
AUSGEZOGEN
 62
     1
100
AcDbLine
 10
1252.773287472493
 20
1353.635797305194
 30
0.0
 11
1252.773287472493
 21
1351.635797305194
 31
0.0
  0
LINE
  5
990
330
1F
100
AcDbEntity
  8
BILD
  6
AUSGEZOGEN
 62
     1
100
AcDbLine
 10
1252.773287472493
 20
1353.635797305194
 30
0.0
 11
1672.773287472493
 21
1353.635797305194
 31
0.0
  0
CIRCLE
  5
991
330
1F
100
AcDbEntity
  8
BILD
  6
AUSGEZOGEN
 62
     1
100
AcDbCircle
 10
1357.773287472493
 20
1187.135492125195
 30
0.0
 40
3.5
  0
CIRCLE
  5
992
330
1F
100
AcDbEntity
  8
BILD
  6
AUSGEZOGEN
 62
     1
100
AcDbCircle
 10
1315.773165402494
 20
1187.135492125195
 30
0.0
 40
3.5
  0
CIRCLE
  5
993
330
1F
100
AcDbEntity
  8
BILD
  6
AUSGEZOGEN
 62
     1
100
AcDbCircle
 10
1273.773043332494
 20
1187.135492125195
 30
0.0
 40
3.5
  0
LINE
  5
994
330
1F
100
AcDbEntity
  8
SCHRAFF
  6
AUSGEZOGEN
 62
     1
100
AcDbLine
 10
1541.806978872493
 20
2025.117730895195
 30
0.0
 11
1535.539278682496
 21
2018.849908635195
 31
0.0
  0
LINE
  5
995
330
1F
100
AcDbEntity
  8
SCHRAFF
  6
AUSGEZOGEN
 62
     1
100
AcDbLine
 10
1541.930269892494
 20
2028.069391055195
 30
0.0
 11
1532.587618522495
 21
2018.726617615195
 31
0.0
  0
LINE
  5
996
330
1F
100
AcDbEntity
  8
SCHRAFF
  6
AUSGEZOGEN
 62
     1
100
AcDbLine
 10
1541.305514032494
 20
2030.272760195195
 30
0.0
 11
1536.505098992497
 21
2025.472223085195
 31
0.0
  0
LINE
  5
997
330
1F
100
AcDbEntity
  8
SCHRAFF
  6
AUSGEZOGEN
 62
     1
100
AcDbLine
 10
1535.184298212494
 20
2024.150934025194
 30
0.0
 11
1530.383883172493
 21
2019.350396915195
 31
0.0
  0
LINE
  5
998
330
1F
100
AcDbEntity
  8
SCHRAFF
  6
AUSGEZOGEN
 62
     1
100
AcDbLine
 10
1540.246309932496
 20
2032.041559025194
 30
0.0
 11
1536.537203482494
 21
2028.332330505195
 31
0.0
  0
LINE
  5
999
330
1F
100
AcDbEntity
  8
SCHRAFF
  6
AUSGEZOGEN
 62
     1
100
AcDbLine
 10
1532.324190792493
 20
2024.119195745194
 30
0.0
 11
1528.614718132496
 21
2020.409967225194
 31
0.0
  0
LINE
  5
99A
330
1F
100
AcDbEntity
  8
SCHRAFF
  6
AUSGEZOGEN
 62
     1
100
AcDbLine
 10
1538.832125362496
 20
2033.456353945195
 30
0.0
 11
1535.123018912494
 21
2029.747369575194
 31
0.0
  0
LINE
  5
99B
330
1F
100
AcDbEntity
  8
SCHRAFF
  6
AUSGEZOGEN
 62
     1
100
AcDbLine
 10
1530.909762082494
 20
2025.533990665195
 30
0.0
 11
1527.200655632496
 21
2021.824762145195
 31
0.0
  0
LINE
  5
99C
330
1F
100
AcDbEntity
  8
SCHRAFF
  6
AUSGEZOGEN
 62
     1
100
AcDbLine
 10
1537.063326532494
 20
2034.515924255194
 30
0.0
 11
1532.264742542495
 21
2029.717340275194
 31
0.0
  0
LINE
  5
99D
330
1F
100
AcDbEntity
  8
SCHRAFF
  6
AUSGEZOGEN
 62
     1
100
AcDbLine
 10
1530.939669302493
 20
2028.391656675195
 30
0.0
 11
1526.141085322495
 21
2023.592828555194
 31
0.0
  0
LINE
  5
99E
330
1F
100
AcDbEntity
  8
SCHRAFF
  6
AUSGEZOGEN
 62
     1
100
AcDbLine
 10
1534.859591182496
 20
2035.139703555195
 30
0.0
 11
1525.516085322495
 21
2025.796197695195
 31
0.0
  0
LINE
  5
99F
330
1F
100
AcDbEntity
  8
SCHRAFF
  6
AUSGEZOGEN
 62
     1
100
AcDbLine
 10
1531.908541372493
 20
2035.017633245195
 30
0.0
 11
1525.639010122493
 21
2028.748101995195
 31
0.0
  0
TEXT
  5
9A0
330
1F
100
AcDbEntity
  8
TEXT
  6
AUSGEZOGEN
 62
     7
100
AcDbText
 10
1279.889376332496
 20
953.9232118551945
 30
0.0
 40
25.0
  1
Zulauf rechts
 41
0.66045776
  7
SIMPLEX
100
AcDbText
  0
TEXT
  5
9A1
330
1F
100
AcDbEntity
  8
TEXT
  6
AUSGEZOGEN
 62
     7
100
AcDbText
 10
1079.816744502495
 20
2541.566705505195
 30
0.0
 40
25.0
  1
Winkel-Schukostecker mit
 41
0.66045776
  7
SIMPLEX
100
AcDbText
  0
TEXT
  5
9A2
330
1F
100
AcDbEntity
  8
TEXT
  6
AUSGEZOGEN
 62
     7
100
AcDbText
 10
1079.816744502495
 20
2504.066705505195
 30
0.0
 40
25.0
  1
Wahlschalter Hand/Auto und
 41
0.66045776
  7
SIMPLEX
100
AcDbText
  0
TEXT
  5
9A3
330
1F
100
AcDbEntity
  8
TEXT
  6
AUSGEZOGEN
 62
     7
100
AcDbText
 10
1079.816744502495
 20
2466.566705505194
 30
0.0
 40
25.0
  1
akustischer Signalanlage
 41
0.66045776
  7
SIMPLEX
100
AcDbText
  0
TEXT
  5
9A4
330
1F
100
AcDbEntity
  8
TEXT
  6
AUSGEZOGEN
 62
     7
100
AcDbText
 10
1079.816744502495
 20
2429.066705505194
 30
0.0
 40
25.0
  1
(intermittierend)
 41
0.66045776
  7
SIMPLEX
100
AcDbText
  0
TEXT
  5
9A5
330
1F
100
AcDbEntity
  8
TEXT
  6
AUSGEZOGEN
 62
     7
100
AcDbText
 10
1651.259249382496
 20
2521.456842225195
 30
0.0
 40
25.0
  1
loesbare Kabel-
 41
0.6604580100000001
  7
SIMPLEX
100
AcDbText
  0
TEXT
  5
9A6
330
1F
100
AcDbEntity
  8
TEXT
  6
AUSGEZOGEN
 62
     7
100
AcDbText
 10
1651.259249382496
 20
2483.956842225195
 30
0.0
 40
25.0
  1
kupplung
 41
0.6604580100000001
  7
SIMPLEX
100
AcDbText
  0
TEXT
  5
9A7
330
1F
100
AcDbEntity
  8
TEXT
  6
AUSGEZOGEN
 62
     1
100
AcDbText
 10
1512.744600942493
 20
2525.612115665195
 30
0.0
 40
10.0
  1
AUTO
 41
0.66045776
  7
SIMPLEX
100
AcDbText
  0
TEXT
  5
9A8
330
1F
100
AcDbEntity
  8
TEXT
  6
AUSGEZOGEN
 62
     1
100
AcDbText
 10
1511.753634152493
 20
2486.129693785195
 30
0.0
 40
10.0
  1
HAND
 41
0.66045776
  7
SIMPLEX
100
AcDbText
  0
TEXT
  5
9A9
330
1F
100
AcDbEntity
  8
TEXT
  6
AUSGEZOGEN
 62
     7
100
AcDbText
 10
1219.604586292495
 20
2351.232232855195
 30
0.0
 40
25.0
  1
Alarmkontakt
 41
0.66045776
  7
SIMPLEX
100
AcDbText
  0
TEXT
  5
9AA
330
1F
100
AcDbEntity
  8
TEXT
  6
AUSGEZOGEN
 62
     7
100
AcDbText
 10
1651.259249382496
 20
2409.000787535195
 30
0.0
 40
25.0
  1
Schlauchwinkel
 41
0.66045776
  7
SIMPLEX
100
AcDbText
  0
TEXT
  5
9AB
330
1F
100
AcDbEntity
  8
TEXT
  6
AUSGEZOGEN
 62
     7
100
AcDbText
 10
1651.259249382496
 20
2371.500787535195
 30
0.0
 40
25.0
  1
R 1 1/4
 41
0.66045776
  7
SIMPLEX
100
AcDbText
  0
TEXT
  5
9AC
330
1F
100
AcDbEntity
  8
TEXT
  6
AUSGEZOGEN
 62
     7
100
AcDbText
 10
1219.604586292495
 20
2284.401178165195
 30
0.0
 40
25.0
  1
herausnehmbares
 41
0.66045776
  7
SIMPLEX
100
AcDbText
  0
TEXT
  5
9AD
330
1F
100
AcDbEntity
  8
TEXT
  6
AUSGEZOGEN
 62
     7
100
AcDbText
 10
1219.604586292495
 20
2246.901178165195
 30
0.0
 40
25.0
  1
Zulauf-Leitblech
 41
0.66045776
  7
SIMPLEX
100
AcDbText
  0
TEXT
  5
9AE
330
1F
100
AcDbEntity
  8
TEXT
  6
AUSGEZOGEN
 62
     7
100
AcDbText
 10
1651.259249382496
 20
2296.354303165195
 30
0.0
 40
25.0
  1
Druckleitung R 1 1/4
 41
0.66045776
  7
SIMPLEX
100
AcDbText
  0
TEXT
  5
9AF
330
1F
100
AcDbEntity
  8
TEXT
  6
AUSGEZOGEN
 62
     7
100
AcDbText
 10
1651.259249382496
 20
2258.854303165195
 30
0.0
 40
25.0
  1
und DN50/SML
 41
0.66045776
  7
SIMPLEX
100
AcDbText
  0
TEXT
  5
9B0
330
1F
100
AcDbEntity
  8
TEXT
  6
AUSGEZOGEN
 62
     7
100
AcDbText
 10
1680.716036492497
 20
1837.539605895194
 30
0.0
 40
25.0
  1
AUS
 41
0.66045776
  7
SIMPLEX
100
AcDbText
  0
TEXT
  5
9B1
330
1F
100
AcDbEntity
  8
TEXT
  6
AUSGEZOGEN
 62
     7
100
AcDbText
 10
1680.716036492497
 20
1908.466119575194
 30
0.0
 40
25.0
  1
EIN
 41
0.66045776
  7
SIMPLEX
100
AcDbText
  0
TEXT
  5
9B2
330
1F
100
AcDbEntity
  8
TEXT
  6
AUSGEZOGEN
 62
     7
100
AcDbText
 10
1126.015719112496
 20
1988.632135195194
 30
0.0
 40
25.00009537
  1
Zulauf
 41
0.6604552400000001
  7
SIMPLEX
100
AcDbText
  0
TEXT
  5
9B3
330
1F
100
AcDbEntity
  8
TEXT
  6
AUSGEZOGEN
 62
     7
100
AcDbText
 10
1679.827974972493
 20
1972.747125425195
 30
0.0
 40
25.0
  1
AUS
 41
0.66045776
  7
SIMPLEX
100
AcDbText
  0
TEXT
  5
9B4
330
1F
100
AcDbEntity
  8
TEXT
  6
AUSGEZOGEN
 62
     7
100
AcDbText
 10
1707.314547232494
 20
2036.845025825194
 30
0.0
 40
25.0
  1
EIN     Alarmton + Autostart
 41
0.66045776
  7
SIMPLEX
100
AcDbText
  0
TEXT
  5
9B5
330
1F
100
AcDbEntity
  8
TEXT
  6
AUSGEZOGEN
 62
     7
100
AcDbText
 10
1064.131930042495
 20
1869.469537535195
 30
0.0
 40
25.0
  1
Sinkstoff-
 41
0.66045776
  7
SIMPLEX
100
AcDbText
  0
TEXT
  5
9B6
330
1F
100
AcDbEntity
  8
TEXT
  6
AUSGEZOGEN
 62
     7
100
AcDbText
 10
1064.131930042495
 20
1831.969537535195
 30
0.0
 40
25.0
  1
Sammelraum
 41
0.66045776
  7
SIMPLEX
100
AcDbText
  0
TEXT
  5
9B7
330
1F
100
AcDbEntity
  8
TEXT
  6
AUSGEZOGEN
 62
     7
100
AcDbText
 10
1720.703219112496
 20
1526.106500425195
 30
0.0
 40
25.0
  1
Anschluss DN50 / Kunststoff
 41
0.66045776
  7
SIMPLEX
100
AcDbText
  0
TEXT
  5
9B8
330
1F
100
AcDbEntity
  8
TEXT
  6
AUSGEZOGEN
 62
     7
100
AcDbText
 10
1720.703219112496
 20
1488.606500425195
 30
0.0
 40
25.0
  1
Leerrohr fuer Netzkabel
 41
0.66045776
  7
SIMPLEX
100
AcDbText
  0
TEXT
  5
9B9
330
1F
100
AcDbEntity
  8
TEXT
  6
AUSGEZOGEN
 62
     7
100
AcDbText
 10
1720.703219112496
 20
1451.106500425195
 30
0.0
 40
25.0
  1
und Belueftung
 41
0.66045776
  7
SIMPLEX
100
AcDbText
  0
TEXT
  5
9BA
330
1F
100
AcDbEntity
  8
TEXT
  6
AUSGEZOGEN
 62
     7
100
AcDbText
 10
1205.648897822495
 20
1104.921136655194
 30
0.0
 40
25.0
  1
Zulauf mittig
 50
90.0
 41
0.66045776
  7
SIMPLEX
100
AcDbText
  0
TEXT
  5
9BB
330
1F
100
AcDbEntity
  8
TEXT
  6
AUSGEZOGEN
 62
     7
100
AcDbText
 10
1288.702486692495
 20
1400.430230895195
 30
0.0
 40
25.0
  1
Zulauf links
 41
0.66045776
  7
SIMPLEX
100
AcDbText
  0
TEXT
  5
9BC
330
1F
100
AcDbEntity
  8
TEXT
  6
AUSGEZOGEN
 62
     7
100
AcDbText
 10
1823.128756222493
 20
1125.229974555194
 30
0.0
 40
25.0
  1
Isolierrand
 41
0.66045776
  7
SIMPLEX
100
AcDbText
  0
TEXT
  5
9BD
330
1F
100
AcDbEntity
  8
TEXT
  6
AUSGEZOGEN
 62
     7
100
AcDbText
 10
1823.128756222493
 20
1087.729974555194
 30
0.0
 40
25.0
  1
nach DIN 19599
 41
0.66045776
  7
SIMPLEX
100
AcDbText
  0
TEXT
  5
9BE
330
1F
100
AcDbEntity
  8
TEXT
  6
AUSGEZOGEN
 62
     1
100
AcDbText
 10
1643.207491572495
 20
1092.884393495195
 30
0.0
 40
25.0
  1
ACO-passavant
 50
90.0
 41
0.66045776
  7
SIMPLEX
100
AcDbText
  0
LINE
  5
9BF
330
1F
100
AcDbEntity
  8
KONTUR
  6
AUSGEZOGEN
 62
     1
100
AcDbLine
 10
1608.159273792495
 20
1792.147760195194
 30
0.0
 11
1603.648409542493
 21
1792.147760195194
 31
0.0
  0
LINE
  5
9C0
330
1F
100
AcDbEntity
  8
KONTUR
  6
AUSGEZOGEN
 62
     1
100
AcDbLine
 10
1459.287203482494
 20
1792.147760195194
 30
0.0
 11
1463.798006702494
 21
1792.147760195194
 31
0.0
  0
LINE
  5
9C1
330
1F
100
AcDbEntity
  8
KONTUR
  6
AUSGEZOGEN
 62
     1
100
AcDbLine
 10
1450.524386102493
 20
1792.147760195194
 30
0.0
 11
1453.035372432496
 21
1792.147760195194
 31
0.0
  0
LINE
  5
9C2
330
1F
100
AcDbEntity
  8
KONTUR
  6
AUSGEZOGEN
 62
     1
100
AcDbLine
 10
1471.781099972493
 20
1792.147760195194
 30
0.0
 11
1476.344698602494
 21
1792.147760195194
 31
0.0
  0
LINE
  5
9C3
330
1F
100
AcDbEntity
  8
KONTUR
  6
AUSGEZOGEN
 62
     1
100
AcDbLine
 10
1501.774996452495
 20
1792.147760195194
 30
0.0
 11
1509.198092152495
 21
1792.147760195194
 31
0.0
  0
LINE
  5
9C4
330
1F
100
AcDbEntity
  8
KONTUR
  6
AUSGEZOGEN
 62
     1
100
AcDbLine
 10
1484.816988642495
 20
1792.147760195194
 30
0.0
 11
1491.062472042493
 21
1792.147760195194
 31
0.0
  0
LINE
  5
9C5
330
1F
100
AcDbEntity
  8
KONTUR
  6
AUSGEZOGEN
 62
     1
100
AcDbLine
 10
1456.816500362496
 20
1972.189264105194
 30
0.0
 11
1610.411104852494
 21
1972.189264105194
 31
0.0
  0
LINE
  5
9C6
330
1F
100
AcDbEntity
  8
KONTUR
  6
AUSGEZOGEN
 62
     1
100
AcDbLine
 10
1483.338961292495
 20
2053.683404725194
 30
0.0
 11
1483.338961292495
 21
2040.689508245195
 31
0.0
  0
LINE
  5
9C7
330
1F
100
AcDbEntity
  8
KONTUR
  6
AUSGEZOGEN
 62
     1
100
AcDbLine
 10
1491.839327512494
 20
2053.683404725194
 30
0.0
 11
1491.839327512494
 21
2040.689508245195
 31
0.0
  0
LINE
  5
9C8
330
1F
100
AcDbEntity
  8
KONTUR
  6
AUSGEZOGEN
 62
     1
100
AcDbLine
 10
1468.470797232494
 20
1842.717828555194
 30
0.0
 11
1597.554659542493
 21
1842.717828555194
 31
0.0
  0
LINE
  5
9C9
330
1F
100
AcDbEntity
  8
KONTUR
  6
AUSGEZOGEN
 62
     1
100
AcDbLine
 10
1597.554415402494
 20
1882.717828555194
 30
0.0
 11
1468.470553092495
 21
1882.717828555194
 31
0.0
  0
LINE
  5
9CA
330
1F
100
AcDbEntity
  8
KONTUR
  6
AUSGEZOGEN
 62
     1
100
AcDbLine
 10
1597.554415402494
 20
1842.717828555194
 30
0.0
 11
1597.554415402494
 21
1882.717828555194
 31
0.0
  0
LINE
  5
9CB
330
1F
100
AcDbEntity
  8
KONTUR
  6
AUSGEZOGEN
 62
     1
100
AcDbLine
 10
1468.470797232494
 20
1882.717828555194
 30
0.0
 11
1468.470797232494
 21
1842.717828555194
 31
0.0
  0
CIRCLE
  5
9CC
330
1F
100
AcDbEntity
  8
KONTUR
  6
AUSGEZOGEN
 62
     1
100
AcDbCircle
 10
1533.723238642495
 20
2026.932916445195
 30
0.0
 40
3.14250278
  0
CIRCLE
  5
9CD
330
1F
100
AcDbEntity
  8
KONTUR
  6
AUSGEZOGEN
 62
     1
100
AcDbCircle
 10
1533.723238642495
 20
2026.932916445195
 30
0.0
 40
8.28525066
  0
LINE
  5
9CE
330
1F
100
AcDbEntity
  8
KONTUR
  6
AUSGEZOGEN
 62
     1
100
AcDbLine
 10
1450.268038442493
 20
1932.665338325194
 30
0.0
 11
1452.589205442495
 21
1995.689996525194
 31
0.0
  0
LINE
  5
9CF
330
1F
100
AcDbEntity
  8
KONTUR
  6
AUSGEZOGEN
 62
     1
100
AcDbLine
 10
1617.178438832496
 20
1932.665338325194
 30
0.0
 11
1614.857271842495
 21
1995.689996525194
 31
0.0
  0
LINE
  5
9D0
330
1F
100
AcDbEntity
  8
KONTUR
  6
AUSGEZOGEN
 62
     1
100
AcDbLine
 10
1621.223238642494
 20
1792.147760195194
 30
0.0
 11
1617.228487662494
 21
1931.164483825194
 31
0.0
  0
LINE
  5
9D1
330
1F
100
AcDbEntity
  8
KONTUR
  6
AUSGEZOGEN
 62
     1
100
AcDbLine
 10
1446.223238642495
 20
1792.147760195194
 30
0.0
 11
1450.217989622495
 21
1931.164483825194
 31
0.0
  0
LINE
  5
9D2
330
1F
100
AcDbEntity
  8
KONTUR
  6
AUSGEZOGEN
 62
     1
100
AcDbLine
 10
1493.089327512494
 20
2040.690240665195
 30
0.0
 11
1493.089327512494
 21
1995.690118595194
 31
0.0
  0
LINE
  5
9D3
330
1F
100
AcDbEntity
  8
KONTUR
  6
AUSGEZOGEN
 62
     1
100
AcDbLine
 10
1482.089327512494
 20
2040.690240665195
 30
0.0
 11
1482.089327512494
 21
1995.690118595194
 31
0.0
  0
LINE
  5
9D4
330
1F
100
AcDbEntity
  8
KONTUR
  6
AUSGEZOGEN
 62
     1
100
AcDbLine
 10
1493.089327512494
 20
2040.690240665195
 30
0.0
 11
1482.089205442495
 21
2040.690240665195
 31
0.0
  0
LINE
  5
9D5
330
1F
100
AcDbEntity
  8
Z
  6
AUSGEZOGEN
 62
     1
100
AcDbLine
 10
1246.772921262494
 20
1354.635553165195
 30
0.0
 11
1246.772921262494
 21
1019.635553165194
 31
0.0
  0
LINE
  5
9D6
330
1F
100
AcDbEntity
  8
Z
  6
AUSGEZOGEN
 62
     1
100
AcDbLine
 10
1678.773287472493
 20
1019.635492125195
 30
0.0
 11
1246.773165402494
 21
1019.635492125195
 31
0.0
  0
LINE
  5
9D7
330
1F
100
AcDbEntity
  8
Z
  6
AUSGEZOGEN
 62
     1
100
AcDbLine
 10
1675.772799192495
 20
1016.635003845195
 30
0.0
 11
1249.772738152496
 21
1016.635003845195
 31
0.0
  0
LINE
  5
9D8
330
1F
100
AcDbEntity
  8
Z
  6
AUSGEZOGEN
 62
     1
100
AcDbLine
 10
1249.772799192495
 20
1357.636041445195
 30
0.0
 11
1249.772799192495
 21
1016.635980405194
 31
0.0
  0
LINE
  5
9D9
330
1F
100
AcDbEntity
  8
Z
  6
AUSGEZOGEN
 62
     1
100
AcDbLine
 10
1246.772921262494
 20
2215.647516055195
 30
0.0
 11
1246.772921262494
 21
2207.147516055194
 31
0.0
  0
LINE
  5
9DA
330
1F
100
AcDbEntity
  8
Z
  6
AUSGEZOGEN
 62
     1
100
AcDbLine
 10
1248.273165402494
 20
2217.147760195194
 30
0.0
 11
1253.764498402495
 21
2217.147760195194
 31
0.0
  0
LINE
  5
9DB
330
1F
100
AcDbEntity
  8
Z
  6
AUSGEZOGEN
 62
     1
100
AcDbLine
 10
1249.773043332494
 20
2215.647516055195
 30
0.0
 11
1249.773043332494
 21
2189.647516055194
 31
0.0
  0
LINE
  5
9DC
330
1F
100
AcDbEntity
  8
Z
  6
AUSGEZOGEN
 62
     1
100
AcDbLine
 10
1370.773165402494
 20
1758.646783635195
 30
0.0
 11
1370.773165402494
 21
1858.646783635195
 31
0.0
  0
CIRCLE
  5
9DD
330
1F
100
AcDbEntity
  8
Z
  6
AUSGEZOGEN
 62
     1
100
AcDbCircle
 10
1362.772921262494
 20
2060.647516055194
 30
0.0
 40
50.00001144
  0
LINE
  5
9DE
330
1F
100
AcDbEntity
  8
Z
  6
AUSGEZOGEN
 62
     1
100
AcDbLine
 10
1272.273043332494
 20
1757.147760195195
 30
0.0
 11
1653.273165402494
 21
1757.147760195195
 31
0.0
  0
LINE
  5
9DF
330
1F
100
AcDbEntity
  8
Z
  6
AUSGEZOGEN
 62
     1
100
AcDbLine
 10
1370.773165402494
 20
1858.646783635195
 30
0.0
 11
1372.273165402494
 21
1858.646783635195
 31
0.0
  0
LINE
  5
9E0
330
1F
100
AcDbEntity
  8
Z
  6
AUSGEZOGEN
 62
     1
100
AcDbLine
 10
1372.273043332494
 20
1758.646783635195
 30
0.0
 11
1372.273043332494
 21
1858.646783635195
 31
0.0
  0
LINE
  5
9E1
330
1F
100
AcDbEntity
  8
Z
  6
AUSGEZOGEN
 62
     1
100
AcDbLine
 10
1672.472017942495
 20
2217.147760195194
 30
0.0
 11
1677.273043332494
 21
2217.147760195194
 31
0.0
  0
LINE
  5
9E2
330
1F
100
AcDbEntity
  8
Z
  6
AUSGEZOGEN
 62
     1
100
AcDbLine
 10
1678.773287472493
 20
1207.756830015194
 30
0.0
 11
1678.773287472493
 21
1019.635675235195
 31
0.0
  0
LINE
  5
9E3
330
1F
100
AcDbEntity
  8
Z
  6
AUSGEZOGEN
 62
     1
100
AcDbLine
 10
1678.773287472493
 20
1354.635553165195
 30
0.0
 11
1678.773287472493
 21
1207.756768985195
 31
0.0
  0
LINE
  5
9E4
330
1F
100
AcDbEntity
  8
Z
  6
AUSGEZOGEN
 62
     1
100
AcDbLine
 10
1678.773287472493
 20
1354.635553165195
 30
0.0
 11
1246.773165402494
 21
1354.635553165195
 31
0.0
  0
LINE
  5
9E5
330
1F
100
AcDbEntity
  8
Z
  6
AUSGEZOGEN
 62
     1
100
AcDbLine
 10
1675.772799192495
 20
1357.636041445195
 30
0.0
 11
1249.772738152496
 21
1357.636041445195
 31
0.0
  0
LINE
  5
9E6
330
1F
100
AcDbEntity
  8
Z
  6
AUSGEZOGEN
 62
     1
100
AcDbLine
 10
1675.772799192495
 20
1357.636041445195
 30
0.0
 11
1675.772799192495
 21
1016.635980405194
 31
0.0
  0
LINE
  5
9E7
330
1F
100
AcDbEntity
  8
Z
  6
AUSGEZOGEN
 62
     1
100
AcDbLine
 10
1654.773043332494
 20
2068.447809025194
 30
0.0
 11
1654.773043332494
 21
1760.147638125194
 31
0.0
  0
LINE
  5
9E8
330
1F
100
AcDbEntity
  8
Z
  6
AUSGEZOGEN
 62
     1
100
AcDbLine
 10
1654.773043332494
 20
2185.148248475194
 30
0.0
 11
1654.773043332494
 21
2110.848199645195
 31
0.0
  0
LINE
  5
9E9
330
1F
100
AcDbEntity
  8
Z
  6
AUSGEZOGEN
 62
     1
100
AcDbLine
 10
1674.273165402494
 20
2186.647271915195
 30
0.0
 11
1657.773165402494
 21
2186.647271915195
 31
0.0
  0
LINE
  5
9EA
330
1F
100
AcDbEntity
  8
Z
  6
AUSGEZOGEN
 62
     1
100
AcDbLine
 10
1675.773409542493
 20
2215.647516055195
 30
0.0
 11
1675.773409542493
 21
2189.647516055194
 31
0.0
  0
LINE
  5
9EB
330
1F
100
AcDbEntity
  8
Z
  6
AUSGEZOGEN
 62
     1
100
AcDbLine
 10
1678.773287472493
 20
2215.647516055195
 30
0.0
 11
1678.773287472493
 21
2207.147516055194
 31
0.0
  0
CIRCLE
  5
9EC
330
1F
100
AcDbEntity
  8
Z
  6
AUSGEZOGEN
 62
     1
100
AcDbCircle
 10
1362.772921262494
 20
1993.646783635195
 30
0.0
 40
4.0
  0
LINE
  5
9ED
330
1F
100
AcDbEntity
  8
Z
  6
AUSGEZOGEN
 62
     1
100
AcDbLine
 10
1251.272982292495
 20
2188.146295355195
 30
0.0
 11
1674.273165402494
 21
2188.146295355195
 31
0.0
  0
LINE
  5
9EE
330
1F
100
AcDbEntity
  8
Z
  6
AUSGEZOGEN
 62
     1
100
AcDbLine
 10
1270.773104362495
 20
2185.147027775194
 30
0.0
 11
1270.773104362495
 21
1760.146905705195
 31
0.0
  0
LINE
  5
9EF
330
1F
100
AcDbEntity
  8
Z
  6
MITTE
 62
     1
100
AcDbLine
 10
1362.772921262494
 20
1985.989312925195
 30
0.0
 11
1362.772921262494
 21
2123.218560975194
 31
0.0
  0
CIRCLE
  5
9F0
330
1F
100
AcDbEntity
  8
Z
  6
AUSGEZOGEN
 62
     1
100
AcDbCircle
 10
1450.773165402494
 20
2158.646783635195
 30
0.0
 40
4.0
  0
LINE
  5
9F1
330
1F
100
AcDbEntity
  8
Z
  6
MITTE
 62
     1
100
AcDbLine
 10
1542.773531612496
 20
1379.248590275194
 30
0.0
 11
1542.773531612496
 21
1330.249810975194
 31
0.0
  0
LINE
  5
9F2
330
1F
100
AcDbEntity
  8
Z
  6
MITTE
 62
     1
100
AcDbLine
 10
1710.319918332494
 20
1237.135492125195
 30
0.0
 11
1652.414034542493
 21
1237.135492125195
 31
0.0
  0
LINE
  5
9F3
330
1F
100
AcDbEntity
  8
Z
  6
AUSGEZOGEN
 62
     1
100
AcDbLine
 10
1351.613375362496
 20
1993.479547305194
 30
0.0
 11
1408.622652702495
 21
2026.393976015195
 31
0.0
  0
LINE
  5
9F4
330
1F
100
AcDbEntity
  8
Z
  6
AUSGEZOGEN
 62
     1
100
AcDbLine
 10
1350.613314322494
 20
1995.211725035195
 30
0.0
 11
1406.905123402495
 21
2027.711847105194
 31
0.0
  0
LINE
  5
9F5
330
1F
100
AcDbEntity
  8
Z
  6
AUSGEZOGEN
 62
     1
100
AcDbLine
 10
1455.531161002494
 20
2165.476617615195
 30
0.0
 11
1458.702852902494
 21
2159.983209415195
 31
0.0
  0
LINE
  5
9F6
330
1F
100
AcDbEntity
  8
Z
  6
AUSGEZOGEN
 62
     1
100
AcDbLine
 10
1450.067293812495
 20
2166.941461365195
 30
0.0
 11
1444.574129752495
 21
2163.769830505195
 31
0.0
  0
ARC
  5
9F7
330
1F
100
AcDbEntity
  8
Z
  6
AUSGEZOGEN
 62
     1
100
AcDbCircle
 10
1455.238497432496
 20
2157.983941835195
 30
0.0
 40
4.000047679999999
100
AcDbArc
 50
344.9999999999787
 51
30.00061034990445
  0
ARC
  5
9F8
330
1F
100
AcDbEntity
  8
Z
  6
AUSGEZOGEN
 62
     1
100
AcDbCircle
 10
1455.238497432496
 20
2157.983941835195
 30
0.0
 40
2.00008869
100
AcDbArc
 50
344.9999694800058
 51
30.00616454997258
  0
LINE
  5
9F9
330
1F
100
AcDbEntity
  8
Z
  6
AUSGEZOGEN
 62
     1
100
AcDbLine
 10
1453.799288442493
 20
2164.476861755195
 30
0.0
 11
1456.970675162494
 21
2158.983453555194
 31
0.0
  0
ARC
  5
9FA
330
1F
100
AcDbEntity
  8
Z
  6
AUSGEZOGEN
 62
     1
100
AcDbCircle
 10
1452.067110712494
 20
2163.477105895195
 30
0.0
 40
3.999918459999999
100
AcDbArc
 50
30.00124358995383
 51
120.000015260015
  0
ARC
  5
9FB
330
1F
100
AcDbEntity
  8
Z
  6
AUSGEZOGEN
 62
     1
100
AcDbCircle
 10
1452.067110712494
 20
2163.477105895195
 30
0.0
 40
1.999959229999999
100
AcDbArc
 50
29.99999999991005
 51
120.000015260015
  0
LINE
  5
9FC
330
1F
100
AcDbEntity
  8
Z
  6
AUSGEZOGEN
 62
     1
100
AcDbLine
 10
1451.067354852494
 20
2165.209283635195
 30
0.0
 11
1445.573580442495
 21
2162.037652775194
 31
0.0
  0
ARC
  5
9FD
330
1F
100
AcDbEntity
  8
Z
  6
AUSGEZOGEN
 62
     1
100
AcDbCircle
 10
1446.573946652494
 20
2160.305719175195
 30
0.0
 40
4.00000477
100
AcDbArc
 50
119.9987792999595
 51
165.0000152600417
  0
ARC
  5
9FE
330
1F
100
AcDbEntity
  8
Z
  6
AUSGEZOGEN
 62
     1
100
AcDbCircle
 10
1446.573946652494
 20
2160.305719175195
 30
0.0
 40
2.00000238
100
AcDbArc
 50
120.0061645500162
 51
164.9999999999787
  0
LINE
  5
9FF
330
1F
100
AcDbEntity
  8
Z
  6
AUSGEZOGEN
 62
     1
100
AcDbLine
 10
1457.170870472495
 20
2157.466363715194
 30
0.0
 11
1454.494234732494
 21
2147.475885195195
 31
0.0
  0
LINE
  5
A00
330
1F
100
AcDbEntity
  8
Z
  6
AUSGEZOGEN
 62
     1
100
AcDbLine
 10
1459.102327992496
 20
2156.948785585195
 30
0.0
 11
1456.425020872495
 21
2146.958307075194
 31
0.0
  0
LINE
  5
A01
330
1F
100
AcDbEntity
  8
Z
  6
AUSGEZOGEN
 62
     1
100
AcDbLine
 10
1442.710116082493
 20
2161.340875425195
 30
0.0
 11
1406.904452022496
 21
2027.711480895195
 31
0.0
  0
LINE
  5
A02
330
1F
100
AcDbEntity
  8
Z
  6
AUSGEZOGEN
 62
     1
100
AcDbLine
 10
1444.641878782495
 20
2160.823297305194
 30
0.0
 11
1408.621676142495
 21
2026.394098085195
 31
0.0
  0
LINE
  5
A03
330
1F
100
AcDbEntity
  8
Z
  6
PUNKT
 62
     1
100
AcDbLine
 10
1259.272860222496
 20
2049.868707465194
 30
0.0
 11
1261.272982292496
 21
2049.868707465194
 31
0.0
  0
LINE
  5
A04
330
1F
100
AcDbEntity
  8
Z
  6
PUNKT
 62
     1
100
AcDbLine
 10
1259.272860222496
 20
2070.868463325194
 30
0.0
 11
1259.272860222496
 21
2049.868463325194
 31
0.0
  0
LINE
  5
A05
330
1F
100
AcDbEntity
  8
Z
  6
PUNKT
 62
     1
100
AcDbLine
 10
1261.272677122495
 20
2070.868463325194
 30
0.0
 11
1259.272555042495
 21
2070.868463325194
 31
0.0
  0
LINE
  5
A06
330
1F
100
AcDbEntity
  8
Z
  6
AUSGEZOGEN
 62
     1
100
AcDbLine
 10
1582.772921262494
 20
2039.647760195195
 30
0.0
 11
1582.772921262494
 21
2029.647760195194
 31
0.0
  0
LINE
  5
A07
330
1F
100
AcDbEntity
  8
Z
  6
AUSGEZOGEN
 62
     1
100
AcDbLine
 10
1584.773043332494
 20
2039.647760195195
 30
0.0
 11
1584.773043332494
 21
2029.647760195194
 31
0.0
  0
LINE
  5
A08
330
1F
100
AcDbEntity
  8
Z
  6
AUSGEZOGEN
 62
     1
100
AcDbLine
 10
1586.773165402494
 20
2039.647760195195
 30
0.0
 11
1586.773165402494
 21
2029.647760195194
 31
0.0
  0
LINE
  5
A09
330
1F
100
AcDbEntity
  8
Z
  6
AUSGEZOGEN
 62
     1
100
AcDbLine
 10
1634.773043332494
 20
2091.647271915195
 30
0.0
 11
1644.773043332494
 21
2091.647271915195
 31
0.0
  0
LINE
  5
A0A
330
1F
100
AcDbEntity
  8
Z
  6
AUSGEZOGEN
 62
     1
100
AcDbLine
 10
1634.773043332494
 20
2089.647760195195
 30
0.0
 11
1644.773043332494
 21
2089.647760195195
 31
0.0
  0
LINE
  5
A0B
330
1F
100
AcDbEntity
  8
Z
  6
AUSGEZOGEN
 62
     1
100
AcDbLine
 10
1634.773043332494
 20
2087.648248475194
 30
0.0
 11
1644.773043332494
 21
2087.648248475194
 31
0.0
  0
LINE
  5
A0C
330
1F
100
AcDbEntity
  8
Z
  6
AUSGEZOGEN
 62
     1
100
AcDbLine
 10
1564.622896842495
 20
2023.270807075194
 30
0.0
 11
1564.622896842495
 21
2024.647516055194
 31
0.0
  0
LINE
  5
A0D
330
1F
100
AcDbEntity
  8
Z
  6
AUSGEZOGEN
 62
     1
100
AcDbLine
 10
1606.023043332494
 20
2015.689019965194
 30
0.0
 11
1606.023043332494
 21
2024.647760195195
 31
0.0
  0
LINE
  5
A0E
330
1F
100
AcDbEntity
  8
Z
  6
AUSGEZOGEN
 62
     1
100
AcDbLine
 10
1605.023287472493
 20
2023.270807075194
 30
0.0
 11
1605.023287472493
 21
2024.647516055194
 31
0.0
  0
LINE
  5
A0F
330
1F
100
AcDbEntity
  8
Z
  6
AUSGEZOGEN
 62
     1
100
AcDbLine
 10
1563.623140982494
 20
2024.647760195195
 30
0.0
 11
1563.623140982494
 21
2015.689019965194
 31
0.0
  0
LINE
  5
A10
330
1F
100
AcDbEntity
  8
Z
  6
AUSGEZOGEN
 62
     1
100
AcDbLine
 10
1605.023287472493
 20
2015.689019965194
 30
0.0
 11
1605.023287472493
 21
2018.480035585195
 31
0.0
  0
LINE
  5
A11
330
1F
100
AcDbEntity
  8
Z
  6
AUSGEZOGEN
 62
     1
100
AcDbLine
 10
1564.622896842495
 20
2015.689019965194
 30
0.0
 11
1564.622896842495
 21
2018.480035585195
 31
0.0
  0
LINE
  5
A12
330
1F
100
AcDbEntity
  8
Z
  6
AUSGEZOGEN
 62
     1
100
AcDbLine
 10
1563.623140982494
 20
2018.480768005195
 30
0.0
 11
1606.023409542493
 21
2018.480768005195
 31
0.0
  0
LINE
  5
A13
330
1F
100
AcDbEntity
  8
Z
  6
AUSGEZOGEN
 62
     1
100
AcDbLine
 10
1563.623140982494
 20
2023.270807075194
 30
0.0
 11
1606.023409542493
 21
2023.270807075194
 31
0.0
  0
CIRCLE
  5
A14
330
1F
100
AcDbEntity
  8
GEHAEUSE
  6
PUNKT
 62
     1
100
AcDbCircle
 10
1435.272921262494
 20
2060.647516055194
 30
0.0
 40
5.00020456
  0
CIRCLE
  5
A15
330
1F
100
AcDbEntity
  8
GEHAEUSE
  6
PUNKT
 62
     1
100
AcDbCircle
 10
1435.273531612496
 20
2060.647516055194
 30
0.0
 40
15.00000286
  0
LINE
  5
A16
330
1F
100
AcDbEntity
  8
GEHAEUSE
  6
PUNKT
 62
     1
100
AcDbLine
 10
1435.273531612496
 20
2051.406793395194
 30
0.0
 11
1443.273409542493
 21
2056.026910585195
 31
0.0
  0
LINE
  5
A17
330
1F
100
AcDbEntity
  8
GEHAEUSE
  6
PUNKT
 62
     1
100
AcDbLine
 10
1443.273409542493
 20
2056.027154725194
 30
0.0
 11
1443.273409542493
 21
2065.267389105195
 31
0.0
  0
LINE
  5
A18
330
1F
100
AcDbEntity
  8
GEHAEUSE
  6
PUNKT
 62
     1
100
AcDbLine
 10
1443.273409542493
 20
2065.267877385195
 30
0.0
 11
1435.273531612496
 21
2069.887994575194
 31
0.0
  0
LINE
  5
A19
330
1F
100
AcDbEntity
  8
GEHAEUSE
  6
PUNKT
 62
     1
100
AcDbLine
 10
1435.273531612496
 20
2069.888238715194
 30
0.0
 11
1427.273653682496
 21
2065.268121525194
 31
0.0
  0
LINE
  5
A1A
330
1F
100
AcDbEntity
  8
GEHAEUSE
  6
PUNKT
 62
     1
100
AcDbLine
 10
1427.273287472493
 20
2065.267877385195
 30
0.0
 11
1427.273287472493
 21
2056.027643005195
 31
0.0
  0
LINE
  5
A1B
330
1F
100
AcDbEntity
  8
GEHAEUSE
  6
PUNKT
 62
     1
100
AcDbLine
 10
1427.273287472493
 20
2056.027154725194
 30
0.0
 11
1435.273165402494
 21
2051.407037535195
 31
0.0
  0
CIRCLE
  5
A1C
330
1F
100
AcDbEntity
  8
GEHAEUSE
  6
PUNKT
 62
     1
100
AcDbCircle
 10
1290.272921262494
 20
2060.647516055194
 30
0.0
 40
5.000205039999999
  0
CIRCLE
  5
A1D
330
1F
100
AcDbEntity
  8
GEHAEUSE
  6
PUNKT
 62
     1
100
AcDbCircle
 10
1290.272310902495
 20
2060.647516055194
 30
0.0
 40
15.00000381
  0
LINE
  5
A1E
330
1F
100
AcDbEntity
  8
GEHAEUSE
  6
PUNKT
 62
     1
100
AcDbLine
 10
1290.272310902495
 20
2051.406793395194
 30
0.0
 11
1282.272432972495
 21
2056.026910585195
 31
0.0
  0
LINE
  5
A1F
330
1F
100
AcDbEntity
  8
GEHAEUSE
  6
PUNKT
 62
     1
100
AcDbLine
 10
1282.272432972495
 20
2056.027154725194
 30
0.0
 11
1282.272432972495
 21
2065.267389105195
 31
0.0
  0
LINE
  5
A20
330
1F
100
AcDbEntity
  8
GEHAEUSE
  6
PUNKT
 62
     1
100
AcDbLine
 10
1282.272432972495
 20
2065.267877385195
 30
0.0
 11
1290.272310902495
 21
2069.887994575194
 31
0.0
  0
LINE
  5
A21
330
1F
100
AcDbEntity
  8
GEHAEUSE
  6
PUNKT
 62
     1
100
AcDbLine
 10
1290.272310902495
 20
2069.888238715194
 30
0.0
 11
1298.272188832496
 21
2065.268121525194
 31
0.0
  0
LINE
  5
A22
330
1F
100
AcDbEntity
  8
GEHAEUSE
  6
PUNKT
 62
     1
100
AcDbLine
 10
1298.272494012493
 20
2065.267877385195
 30
0.0
 11
1298.272494012493
 21
2056.027643005195
 31
0.0
  0
LINE
  5
A23
330
1F
100
AcDbEntity
  8
GEHAEUSE
  6
PUNKT
 62
     1
100
AcDbLine
 10
1298.272494012493
 20
2056.027154725194
 30
0.0
 11
1290.272616082493
 21
2051.407037535195
 31
0.0
  0
TEXT
  5
A24
330
1F
100
AcDbEntity
  8
MASSE
  6
AUSGEZOGEN
 62
     7
100
AcDbText
 10
1420.987276722495
 20
789.1350038451946
 30
0.0
 40
25.0
  1
 587
 41
0.66666669
  7
SIMPLEX
100
AcDbText
  0
LINE
  5
A25
330
1F
100
AcDbEntity
  8
MASSE
  6
AUSGEZOGEN
 62
     1
100
AcDbLine
 10
1169.272921262494
 20
779.1350038451946
 30
0.0
 11
1199.016268422496
 21
775.2192323651943
 31
0.0
  0
LINE
  5
A26
330
1F
100
AcDbEntity
  8
MASSE
  6
AUSGEZOGEN
 62
     1
100
AcDbLine
 10
1169.272921262494
 20
779.1350038451946
 30
0.0
 11
1199.016268422496
 21
783.0507753351948
 31
0.0
  0
LINE
  5
A27
330
1F
100
AcDbEntity
  8
MASSE
  6
AUSGEZOGEN
 62
     1
100
AcDbLine
 10
1169.272921262494
 20
949.1350038451946
 30
0.0
 11
1169.272921262494
 21
759.1350038451946
 31
0.0
  0
LINE
  5
A28
330
1F
100
AcDbEntity
  8
MASSE
  6
AUSGEZOGEN
 62
     1
100
AcDbLine
 10
1169.272921262494
 20
779.1350038451946
 30
0.0
 11
1756.273043332494
 21
779.1350038451946
 31
0.0
  0
LINE
  5
A29
330
1F
100
AcDbEntity
  8
MASSE
  6
AUSGEZOGEN
 62
     1
100
AcDbLine
 10
1179.272921262494
 20
939.1350038451946
 30
0.0
 11
989.2729212624944
 21
939.1350038451946
 31
0.0
  0
LINE
  5
A2A
330
1F
100
AcDbEntity
  8
MASSE
  6
AUSGEZOGEN
 62
     1
100
AcDbLine
 10
1009.272921262494
 20
939.1350038451946
 30
0.0
 11
1005.357210812493
 21
968.8783510151942
 31
0.0
  0
LINE
  5
A2B
330
1F
100
AcDbEntity
  8
MASSE
  6
AUSGEZOGEN
 62
     1
100
AcDbLine
 10
1009.272921262494
 20
939.1350038451946
 30
0.0
 11
1013.188631702494
 21
968.8783510151942
 31
0.0
  0
LINE
  5
A2C
330
1F
100
AcDbEntity
  8
MASSE
  6
AUSGEZOGEN
 62
     1
100
AcDbLine
 10
1069.273165402494
 20
1016.635003845195
 30
0.0
 11
1073.188875852495
 21
1046.378412055194
 31
0.0
  0
LINE
  5
A2D
330
1F
100
AcDbEntity
  8
MASSE
  6
AUSGEZOGEN
 62
     1
100
AcDbLine
 10
1069.273165402494
 20
1016.635003845195
 30
0.0
 11
1065.357454952496
 21
1046.378412055194
 31
0.0
  0
LINE
  5
A2E
330
1F
100
AcDbEntity
  8
MASSE
  6
AUSGEZOGEN
 62
     1
100
AcDbLine
 10
1239.773043332494
 20
1016.635003845195
 30
0.0
 11
1049.273165402494
 21
1016.635003845195
 31
0.0
  0
LINE
  5
A2F
330
1F
100
AcDbEntity
  8
MASSE
  6
AUSGEZOGEN
 62
     1
100
AcDbLine
 10
1069.273165402494
 20
1016.635003845195
 30
0.0
 11
1069.273165402494
 21
1357.635064885195
 31
0.0
  0
TEXT
  5
A30
330
1F
100
AcDbEntity
  8
MASSE
  6
AUSGEZOGEN
 62
     7
100
AcDbText
 10
1420.987276722495
 20
849.1356141951946
 30
0.0
 40
25.0
  1
 432
 41
0.66666669
  7
SIMPLEX
100
AcDbText
  0
LINE
  5
A31
330
1F
100
AcDbEntity
  8
MASSE
  6
AUSGEZOGEN
 62
     1
100
AcDbLine
 10
1678.773409542493
 20
839.1356141951947
 30
0.0
 11
1649.030001332496
 21
835.2198427151943
 31
0.0
  0
LINE
  5
A32
330
1F
100
AcDbEntity
  8
MASSE
  6
AUSGEZOGEN
 62
     1
100
AcDbLine
 10
1678.773409542493
 20
839.1356141951947
 30
0.0
 11
1649.030001332496
 21
843.0513856851948
 31
0.0
  0
LINE
  5
A33
330
1F
100
AcDbEntity
  8
MASSE
  6
AUSGEZOGEN
 62
     1
100
AcDbLine
 10
1246.772921262494
 20
839.1356141951947
 30
0.0
 11
1276.516268422496
 21
835.2198427151943
 31
0.0
  0
LINE
  5
A34
330
1F
100
AcDbEntity
  8
MASSE
  6
AUSGEZOGEN
 62
     1
100
AcDbLine
 10
1246.772921262494
 20
839.1356141951947
 30
0.0
 11
1276.516268422496
 21
843.0513856851948
 31
0.0
  0
LINE
  5
A35
330
1F
100
AcDbEntity
  8
MASSE
  6
AUSGEZOGEN
 62
     1
100
AcDbLine
 10
1246.772921262494
 20
1009.635492125195
 30
0.0
 11
1246.772921262494
 21
819.1354310951947
 31
0.0
  0
LINE
  5
A36
330
1F
100
AcDbEntity
  8
MASSE
  6
AUSGEZOGEN
 62
     1
100
AcDbLine
 10
1246.772921262494
 20
839.1356141951947
 30
0.0
 11
1678.773043332494
 21
839.1356141951947
 31
0.0
  0
LINE
  5
A37
330
1F
100
AcDbEntity
  8
MASSE
  6
AUSGEZOGEN
 62
     1
100
AcDbLine
 10
1009.272921262494
 20
939.1350038451946
 30
0.0
 11
1009.272921262494
 21
1435.135064885194
 31
0.0
  0
LINE
  5
A38
330
1F
100
AcDbEntity
  8
MASSE
  6
MITTE
 62
     1
100
AcDbLine
 10
1247.626192742496
 20
2060.647516055194
 30
0.0
 11
1443.686983762494
 21
2060.647516055194
 31
0.0
  0
LINE
  5
A39
330
1F
100
AcDbEntity
  8
MASSE
  6
AUSGEZOGEN
 62
     1
100
AcDbLine
 10
1362.772921262494
 20
1520.757379335195
 30
0.0
 11
1542.773531612496
 21
1520.757379335195
 31
0.0
  0
LINE
  5
A3A
330
1F
100
AcDbEntity
  8
MASSE
  6
AUSGEZOGEN
 62
     1
100
AcDbLine
 10
1542.773531612496
 20
1389.247369575194
 30
0.0
 11
1542.773531612496
 21
1540.756402775194
 31
0.0
  0
LINE
  5
A3B
330
1F
100
AcDbEntity
  8
MASSE
  6
AUSGEZOGEN
 62
     1
100
AcDbLine
 10
1362.772921262494
 20
1520.757379335195
 30
0.0
 11
1392.516268422496
 21
1524.673150825194
 31
0.0
  0
LINE
  5
A3C
330
1F
100
AcDbEntity
  8
MASSE
  6
AUSGEZOGEN
 62
     1
100
AcDbLine
 10
1362.772921262494
 20
1520.757379335195
 30
0.0
 11
1392.516268422496
 21
1516.841607855194
 31
0.0
  0
LINE
  5
A3D
330
1F
100
AcDbEntity
  8
MASSE
  6
AUSGEZOGEN
 62
     1
100
AcDbLine
 10
1542.773531612496
 20
1520.757379335195
 30
0.0
 11
1513.030245472495
 21
1524.673150825194
 31
0.0
  0
LINE
  5
A3E
330
1F
100
AcDbEntity
  8
MASSE
  6
AUSGEZOGEN
 62
     1
100
AcDbLine
 10
1542.773531612496
 20
1520.757379335195
 30
0.0
 11
1513.030245472495
 21
1516.841607855194
 31
0.0
  0
TEXT
  5
A3F
330
1F
100
AcDbEntity
  8
MASSE
  6
AUSGEZOGEN
 62
     7
100
AcDbText
 10
1410.987581902496
 20
1530.757379335195
 30
0.0
 40
25.0
  1
 180
 41
0.66666669
  7
SIMPLEX
100
AcDbText
  0
LINE
  5
A40
330
1F
100
AcDbEntity
  8
MASSE
  6
AUSGEZOGEN
 62
     1
100
AcDbLine
 10
1362.772921262494
 20
1428.981256285195
 30
0.0
 11
1362.772921262494
 21
1540.756891055194
 31
0.0
  0
LINE
  5
A41
330
1F
100
AcDbEntity
  8
MASSE
  6
AUSGEZOGEN
 62
     1
100
AcDbLine
 10
1678.773287472493
 20
1498.525934025194
 30
0.0
 11
1678.773287472493
 21
1540.757135195194
 31
0.0
  0
LINE
  5
A42
330
1F
100
AcDbEntity
  8
MASSE
  6
AUSGEZOGEN
 62
     1
100
AcDbLine
 10
1542.773531612496
 20
1520.757379335195
 30
0.0
 11
1678.772921262494
 21
1520.757379335195
 31
0.0
  0
LINE
  5
A43
330
1F
100
AcDbEntity
  8
MASSE
  6
AUSGEZOGEN
 62
     1
100
AcDbLine
 10
1542.773531612496
 20
1520.757379335195
 30
0.0
 11
1572.516817742497
 21
1524.673150825194
 31
0.0
  0
LINE
  5
A44
330
1F
100
AcDbEntity
  8
MASSE
  6
AUSGEZOGEN
 62
     1
100
AcDbLine
 10
1542.773531612496
 20
1520.757379335195
 30
0.0
 11
1572.516817742497
 21
1516.841607855194
 31
0.0
  0
LINE
  5
A45
330
1F
100
AcDbEntity
  8
MASSE
  6
AUSGEZOGEN
 62
     1
100
AcDbLine
 10
1678.773287472493
 20
1520.757379335195
 30
0.0
 11
1649.030001332496
 21
1524.673150825194
 31
0.0
  0
LINE
  5
A46
330
1F
100
AcDbEntity
  8
MASSE
  6
AUSGEZOGEN
 62
     1
100
AcDbLine
 10
1678.773287472493
 20
1520.757379335195
 30
0.0
 11
1649.030001332496
 21
1516.841607855194
 31
0.0
  0
TEXT
  5
A47
330
1F
100
AcDbEntity
  8
MASSE
  6
AUSGEZOGEN
 62
     7
100
AcDbText
 10
1568.987642942495
 20
1530.757379335195
 30
0.0
 40
25.0
  1
 136
 41
0.66666669
  7
SIMPLEX
100
AcDbText
  0
LINE
  5
A48
330
1F
100
AcDbEntity
  8
MASSE
  6
AUSGEZOGEN
 62
     1
100
AcDbLine
 10
1678.773287472493
 20
1364.635553165195
 30
0.0
 11
1678.773287472493
 21
1475.671930115195
 31
0.0
  0
LINE
  5
A49
330
1F
100
AcDbEntity
  8
MASSE
  6
AUSGEZOGEN
 62
     1
100
AcDbLine
 10
1009.273165402494
 20
1757.147760195195
 30
0.0
 11
1009.273165402494
 21
2217.147882265195
 31
0.0
  0
LINE
  5
A4A
330
1F
100
AcDbEntity
  8
MASSE
  6
AUSGEZOGEN
 62
     1
100
AcDbLine
 10
1262.273043332494
 20
1757.147760195195
 30
0.0
 11
989.2731654024938
 21
1757.147760195195
 31
0.0
  0
LINE
  5
A4B
330
1F
100
AcDbEntity
  8
MASSE
  6
AUSGEZOGEN
 62
     1
100
AcDbLine
 10
1238.273104362495
 20
2217.147760195194
 30
0.0
 11
989.2731654024938
 21
2217.147760195194
 31
0.0
  0
LINE
  5
A4C
330
1F
100
AcDbEntity
  8
MASSE
  6
AUSGEZOGEN
 62
     1
100
AcDbLine
 10
1009.273165402494
 20
1757.147760195195
 30
0.0
 11
1005.357454952496
 21
1786.891168395194
 31
0.0
  0
LINE
  5
A4D
330
1F
100
AcDbEntity
  8
MASSE
  6
AUSGEZOGEN
 62
     1
100
AcDbLine
 10
1009.273165402494
 20
1757.147760195195
 30
0.0
 11
1013.188875852494
 21
1786.891168395194
 31
0.0
  0
LINE
  5
A4E
330
1F
100
AcDbEntity
  8
MASSE
  6
AUSGEZOGEN
 62
     1
100
AcDbLine
 10
1009.273165402494
 20
2217.147760195194
 30
0.0
 11
1005.357454952496
 21
2187.404351995195
 31
0.0
  0
LINE
  5
A4F
330
1F
100
AcDbEntity
  8
MASSE
  6
AUSGEZOGEN
 62
     1
100
AcDbLine
 10
1009.273165402494
 20
2217.147760195194
 30
0.0
 11
1013.188875852494
 21
2187.404351995195
 31
0.0
  0
TEXT
  5
A50
330
1F
100
AcDbEntity
  8
MASSE
  6
AUSGEZOGEN
 62
     7
100
AcDbText
 10
999.2731654024938
 20
1945.361993595195
 30
0.0
 40
25.0
  1
 460
 50
90.0
 41
0.66666796
  7
SIMPLEX
100
AcDbText
  0
LINE
  5
A51
330
1F
100
AcDbEntity
  8
MASSE
  6
AUSGEZOGEN
 62
     1
100
AcDbLine
 10
1085.526888542496
 20
2060.647516055194
 30
0.0
 11
1085.526888542496
 21
2217.147516055195
 31
0.0
  0
LINE
  5
A52
330
1F
100
AcDbEntity
  8
MASSE
  6
AUSGEZOGEN
 62
     1
100
AcDbLine
 10
1237.626192742496
 20
2060.647516055194
 30
0.0
 11
1065.526888542495
 21
2060.647516055194
 31
0.0
  0
LINE
  5
A53
330
1F
100
AcDbEntity
  8
MASSE
  6
AUSGEZOGEN
 62
     1
100
AcDbLine
 10
1085.526888542496
 20
2060.647516055194
 30
0.0
 11
1081.611178092495
 21
2090.390924255194
 31
0.0
  0
LINE
  5
A54
330
1F
100
AcDbEntity
  8
MASSE
  6
AUSGEZOGEN
 62
     1
100
AcDbLine
 10
1085.526888542496
 20
2060.647516055194
 30
0.0
 11
1089.442598992496
 21
2090.390924255194
 31
0.0
  0
LINE
  5
A55
330
1F
100
AcDbEntity
  8
MASSE
  6
AUSGEZOGEN
 62
     1
100
AcDbLine
 10
1085.526888542496
 20
2217.147760195194
 30
0.0
 11
1081.611178092495
 21
2187.404351995195
 31
0.0
  0
LINE
  5
A56
330
1F
100
AcDbEntity
  8
MASSE
  6
AUSGEZOGEN
 62
     1
100
AcDbLine
 10
1085.526888542496
 20
2217.147760195194
 30
0.0
 11
1089.442598992496
 21
2187.404351995195
 31
0.0
  0
TEXT
  5
A57
330
1F
100
AcDbEntity
  8
MASSE
  6
AUSGEZOGEN
 62
     7
100
AcDbText
 10
1075.526888542496
 20
2106.004205505195
 30
0.0
 40
25.00002289
  1
 156
 50
90.0
 41
0.66666605
  7
SIMPLEX
100
AcDbText
  0
TEXT
  5
A58
330
1F
100
AcDbEntity
  8
MASSE
  6
AUSGEZOGEN
 62
     7
100
AcDbText
 10
1184.613436392494
 20
2155.658502385195
 30
0.0
 40
25.0
  1
 75
 50
90.0
 41
0.66666669
  7
SIMPLEX
100
AcDbText
  0
LINE
  5
A59
330
1F
100
AcDbEntity
  8
MASSE
  6
AUSGEZOGEN
 62
     1
100
AcDbLine
 10
1196.909273792495
 20
2142.147760195195
 30
0.0
 11
1200.824984242496
 21
2171.891168395195
 31
0.0
  0
LINE
  5
A5A
330
1F
100
AcDbEntity
  8
MASSE
  6
AUSGEZOGEN
 62
     1
100
AcDbLine
 10
1196.909273792495
 20
2142.147760195195
 30
0.0
 11
1192.993563352494
 21
2171.891168395195
 31
0.0
  0
LINE
  5
A5B
330
1F
100
AcDbEntity
  8
MASSE
  6
AUSGEZOGEN
 62
     1
100
AcDbLine
 10
1196.909273792495
 20
2217.147760195194
 30
0.0
 11
1200.824984242496
 21
2187.404351995195
 31
0.0
  0
LINE
  5
A5C
330
1F
100
AcDbEntity
  8
MASSE
  6
AUSGEZOGEN
 62
     1
100
AcDbLine
 10
1196.909273792495
 20
2217.147760195194
 30
0.0
 11
1192.993563352494
 21
2187.404351995195
 31
0.0
  0
LINE
  5
A5D
330
1F
100
AcDbEntity
  8
MASSE
  6
AUSGEZOGEN
 62
     1
100
AcDbLine
 10
1196.909273792495
 20
2142.147760195195
 30
0.0
 11
1196.909273792495
 21
2217.147760195194
 31
0.0
  0
LINE
  5
A5E
330
1F
100
AcDbEntity
  8
MASSE
  6
AUSGEZOGEN
 62
     1
100
AcDbLine
 10
1683.727511102494
 20
2217.147760195194
 30
0.0
 11
1703.001192742496
 21
2217.147760195194
 31
0.0
  0
LINE
  5
A5F
330
1F
100
AcDbEntity
  8
MASSE
  6
AUSGEZOGEN
 62
     1
100
AcDbLine
 10
1694.674776722495
 20
2089.647760195195
 30
0.0
 11
1843.923067742496
 21
2089.647760195195
 31
0.0
  0
LINE
  5
A60
330
1F
100
AcDbEntity
  8
MASSE
  6
AUSGEZOGEN
 62
     1
100
AcDbLine
 10
1823.923433952495
 20
2089.647760195195
 30
0.0
 11
1823.923433952495
 21
2217.147760195194
 31
0.0
  0
LINE
  5
A61
330
1F
100
AcDbEntity
  8
MASSE
  6
AUSGEZOGEN
 62
     1
100
AcDbLine
 10
1823.923433952495
 20
2089.647760195195
 30
0.0
 11
1820.007784542493
 21
2119.391168395194
 31
0.0
  0
LINE
  5
A62
330
1F
100
AcDbEntity
  8
MASSE
  6
AUSGEZOGEN
 62
     1
100
AcDbLine
 10
1823.923433952495
 20
2089.647760195195
 30
0.0
 11
1827.839083372495
 21
2119.391168395194
 31
0.0
  0
LINE
  5
A63
330
1F
100
AcDbEntity
  8
MASSE
  6
AUSGEZOGEN
 62
     1
100
AcDbLine
 10
1823.923433952495
 20
2217.147760195194
 30
0.0
 11
1820.007784542493
 21
2187.404351995195
 31
0.0
  0
LINE
  5
A64
330
1F
100
AcDbEntity
  8
MASSE
  6
AUSGEZOGEN
 62
     1
100
AcDbLine
 10
1823.923433952495
 20
2217.147760195194
 30
0.0
 11
1827.839083372495
 21
2187.404351995195
 31
0.0
  0
TEXT
  5
A65
330
1F
100
AcDbEntity
  8
MASSE
  6
AUSGEZOGEN
 62
     7
100
AcDbText
 10
1813.923433952496
 20
2120.504937925195
 30
0.0
 40
25.0
  1
 127
 50
90.0
 41
0.66666669
  7
SIMPLEX
100
AcDbText
  0
LINE
  5
A66
330
1F
100
AcDbEntity
  8
MASSE
  6
AUSGEZOGEN
 62
     1
100
AcDbLine
 10
1724.507540402494
 20
2217.147760195194
 30
0.0
 11
1843.922823602493
 21
2217.147760195194
 31
0.0
  0
LINE
  5
A67
330
1F
100
AcDbEntity
  8
MASSE
  6
AUSGEZOGEN
 62
     1
100
AcDbLine
 10
1770.385836292495
 20
1828.646783635195
 30
0.0
 11
1766.470186882496
 21
1798.903375425195
 31
0.0
  0
LINE
  5
A68
330
1F
100
AcDbEntity
  8
MASSE
  6
AUSGEZOGEN
 62
     1
100
AcDbLine
 10
1770.385836292495
 20
1828.646783635195
 30
0.0
 11
1774.301485712494
 21
1798.903375425195
 31
0.0
  0
LINE
  5
A69
330
1F
100
AcDbEntity
  8
MASSE
  6
AUSGEZOGEN
 62
     1
100
AcDbLine
 10
1770.385836292495
 20
1758.646783635195
 30
0.0
 11
1774.301485712494
 21
1788.390191835195
 31
0.0
  0
LINE
  5
A6A
330
1F
100
AcDbEntity
  8
MASSE
  6
AUSGEZOGEN
 62
     1
100
AcDbLine
 10
1770.385836292495
 20
1758.646783635195
 30
0.0
 11
1766.470186882496
 21
1788.390191835195
 31
0.0
  0
LINE
  5
A6B
330
1F
100
AcDbEntity
  8
MASSE
  6
AUSGEZOGEN
 62
     1
100
AcDbLine
 10
1770.385836292495
 20
1758.646783635195
 30
0.0
 11
1770.385836292495
 21
1828.646783635195
 31
0.0
  0
TEXT
  5
A6C
330
1F
100
AcDbEntity
  8
MASSE
  6
AUSGEZOGEN
 62
     7
100
AcDbText
 10
1757.585543332494
 20
1758.407525825194
 30
0.0
 40
25.0
  1
ca.70
 50
90.0
 41
0.66666669
  7
SIMPLEX
100
AcDbText
  0
LINE
  5
A6D
330
1F
100
AcDbEntity
  8
MASSE
  6
AUSGEZOGEN
 62
     1
100
AcDbLine
 10
1578.734224972493
 20
1828.646783635195
 30
0.0
 11
1785.940035512496
 21
1828.646783635195
 31
0.0
  0
TEXT
  5
A6E
330
1F
100
AcDbEntity
  8
MASSE
  6
AUSGEZOGEN
 62
     7
100
AcDbText
 10
1820.385836292494
 20
1789.361017035195
 30
0.0
 40
25.0
  1
 145
 50
90.0
 41
0.66666669
  7
SIMPLEX
100
AcDbText
  0
LINE
  5
A6F
330
1F
100
AcDbEntity
  8
MASSE
  6
AUSGEZOGEN
 62
     1
100
AcDbLine
 10
1830.385836292495
 20
1903.646783635195
 30
0.0
 11
1834.301485712494
 21
1873.903375425195
 31
0.0
  0
LINE
  5
A70
330
1F
100
AcDbEntity
  8
MASSE
  6
AUSGEZOGEN
 62
     1
100
AcDbLine
 10
1830.385836292495
 20
1903.646783635195
 30
0.0
 11
1826.470186882496
 21
1873.903375425195
 31
0.0
  0
LINE
  5
A71
330
1F
100
AcDbEntity
  8
MASSE
  6
AUSGEZOGEN
 62
     1
100
AcDbLine
 10
1830.385836292495
 20
1758.646783635195
 30
0.0
 11
1834.301485712494
 21
1788.390191835195
 31
0.0
  0
LINE
  5
A72
330
1F
100
AcDbEntity
  8
MASSE
  6
AUSGEZOGEN
 62
     1
100
AcDbLine
 10
1830.385836292495
 20
1758.646783635195
 30
0.0
 11
1826.470186882496
 21
1788.390191835195
 31
0.0
  0
LINE
  5
A73
330
1F
100
AcDbEntity
  8
MASSE
  6
AUSGEZOGEN
 62
     1
100
AcDbLine
 10
1830.385836292495
 20
1758.646783635195
 30
0.0
 11
1830.385836292495
 21
1903.646783635195
 31
0.0
  0
LINE
  5
A74
330
1F
100
AcDbEntity
  8
MASSE
  6
AUSGEZOGEN
 62
     1
100
AcDbLine
 10
1576.965426142495
 20
1903.646783635195
 30
0.0
 11
1843.564181022495
 21
1903.646783635195
 31
0.0
  0
LINE
  5
A75
330
1F
100
AcDbEntity
  8
MASSE
  6
AUSGEZOGEN
 62
     1
100
AcDbLine
 10
1527.600802122495
 20
2018.646783635195
 30
0.0
 11
1910.385836292495
 21
2018.646783635195
 31
0.0
  0
LINE
  5
A76
330
1F
100
AcDbEntity
  8
MASSE
  6
AUSGEZOGEN
 62
     1
100
AcDbLine
 10
1667.959078482494
 20
1758.646783635195
 30
0.0
 11
1910.385836292495
 21
1758.646783635195
 31
0.0
  0
TEXT
  5
A77
330
1F
100
AcDbEntity
  8
MASSE
  6
AUSGEZOGEN
 62
     7
100
AcDbText
 10
1880.385836292495
 20
1846.861017035195
 30
0.0
 40
25.0
  1
 260
 50
90.0
 41
0.66666669
  7
SIMPLEX
100
AcDbText
  0
LINE
  5
A78
330
1F
100
AcDbEntity
  8
MASSE
  6
AUSGEZOGEN
 62
     1
100
AcDbLine
 10
1890.385836292495
 20
2018.646783635195
 30
0.0
 11
1894.301485712494
 21
1988.903375425195
 31
0.0
  0
LINE
  5
A79
330
1F
100
AcDbEntity
  8
MASSE
  6
AUSGEZOGEN
 62
     1
100
AcDbLine
 10
1890.385836292495
 20
2018.646783635195
 30
0.0
 11
1886.470186882496
 21
1988.903375425195
 31
0.0
  0
LINE
  5
A7A
330
1F
100
AcDbEntity
  8
MASSE
  6
AUSGEZOGEN
 62
     1
100
AcDbLine
 10
1890.385836292495
 20
1758.646783635195
 30
0.0
 11
1894.301485712494
 21
1788.390191835195
 31
0.0
  0
LINE
  5
A7B
330
1F
100
AcDbEntity
  8
MASSE
  6
AUSGEZOGEN
 62
     1
100
AcDbLine
 10
1890.385836292495
 20
1758.646783635195
 30
0.0
 11
1886.470186882496
 21
1788.390191835195
 31
0.0
  0
LINE
  5
A7C
330
1F
100
AcDbEntity
  8
MASSE
  6
AUSGEZOGEN
 62
     1
100
AcDbLine
 10
1890.385836292495
 20
1758.646783635195
 30
0.0
 11
1890.385836292495
 21
2018.646905705194
 31
0.0
  0
LINE
  5
A7D
330
1F
100
AcDbEntity
  8
MASSE
  6
AUSGEZOGEN
 62
     1
100
AcDbLine
 10
1269.273165402494
 20
1750.147027775194
 30
0.0
 11
1269.273165402494
 21
1654.030328555194
 31
0.0
  0
LINE
  5
A7E
330
1F
100
AcDbEntity
  8
MASSE
  6
AUSGEZOGEN
 62
     1
100
AcDbLine
 10
1656.273287472493
 20
1750.147027775194
 30
0.0
 11
1656.273287472493
 21
1654.030328555194
 31
0.0
  0
LINE
  5
A7F
330
1F
100
AcDbEntity
  8
MASSE
  6
AUSGEZOGEN
 62
     1
100
AcDbLine
 10
1269.273165402494
 20
1676.575250425195
 30
0.0
 11
1656.273287472493
 21
1676.575250425195
 31
0.0
  0
LINE
  5
A80
330
1F
100
AcDbEntity
  8
MASSE
  6
AUSGEZOGEN
 62
     1
100
AcDbLine
 10
1269.273165402494
 20
1676.575250425195
 30
0.0
 11
1299.016512562495
 21
1680.491021915195
 31
0.0
  0
LINE
  5
A81
330
1F
100
AcDbEntity
  8
MASSE
  6
AUSGEZOGEN
 62
     1
100
AcDbLine
 10
1269.273165402494
 20
1676.575250425195
 30
0.0
 11
1299.016512562495
 21
1672.659478945195
 31
0.0
  0
LINE
  5
A82
330
1F
100
AcDbEntity
  8
MASSE
  6
AUSGEZOGEN
 62
     1
100
AcDbLine
 10
1656.273287472493
 20
1676.575250425195
 30
0.0
 11
1626.530001332496
 21
1680.491021915195
 31
0.0
  0
LINE
  5
A83
330
1F
100
AcDbEntity
  8
MASSE
  6
AUSGEZOGEN
 62
     1
100
AcDbLine
 10
1656.273287472493
 20
1676.575250425195
 30
0.0
 11
1626.530001332496
 21
1672.659478945195
 31
0.0
  0
TEXT
  5
A84
330
1F
100
AcDbEntity
  8
MASSE
  6
AUSGEZOGEN
 62
     7
100
AcDbText
 10
1376.523287472493
 20
1686.575250425195
 30
0.0
 40
25.0
  1
 387 x 296
 41
0.66666669
  7
SIMPLEX
100
AcDbText
  0
TEXT
  5
A85
330
1F
100
AcDbEntity
  8
MASSE
  6
AUSGEZOGEN
 62
     7
100
AcDbText
 10
1848.402193722493
 20
1264.492914005194
 30
0.0
 40
25.0
  1
 120
 50
90.0
 41
0.66666669
  7
SIMPLEX
100
AcDbText
  0
LINE
  5
A86
330
1F
100
AcDbEntity
  8
MASSE
  6
AUSGEZOGEN
 62
     1
100
AcDbLine
 10
1858.402193722493
 20
1357.636041445195
 30
0.0
 11
1862.317843132496
 21
1327.892633245195
 31
0.0
  0
LINE
  5
A87
330
1F
100
AcDbEntity
  8
MASSE
  6
AUSGEZOGEN
 62
     1
100
AcDbLine
 10
1858.402193722493
 20
1357.636041445195
 30
0.0
 11
1854.486544302494
 21
1327.892633245195
 31
0.0
  0
LINE
  5
A88
330
1F
100
AcDbEntity
  8
MASSE
  6
AUSGEZOGEN
 62
     1
100
AcDbLine
 10
1858.402193722493
 20
1237.135492125195
 30
0.0
 11
1862.317843132496
 21
1266.878839295195
 31
0.0
  0
LINE
  5
A89
330
1F
100
AcDbEntity
  8
MASSE
  6
AUSGEZOGEN
 62
     1
100
AcDbLine
 10
1858.402193722493
 20
1237.135492125195
 30
0.0
 11
1854.486544302494
 21
1266.878839295195
 31
0.0
  0
LINE
  5
A8A
330
1F
100
AcDbEntity
  8
MASSE
  6
AUSGEZOGEN
 62
     1
100
AcDbLine
 10
1685.773409542493
 20
1357.636041445195
 30
0.0
 11
1878.402193722493
 21
1357.636041445195
 31
0.0
  0
LINE
  5
A8B
330
1F
100
AcDbEntity
  8
MASSE
  6
AUSGEZOGEN
 62
     1
100
AcDbLine
 10
1716.511934932496
 20
1237.135492125195
 30
0.0
 11
1878.402193722493
 21
1237.135492125195
 31
0.0
  0
LINE
  5
A8C
330
1F
100
AcDbEntity
  8
MASSE
  6
AUSGEZOGEN
 62
     1
100
AcDbLine
 10
1858.402193722493
 20
1237.135492125195
 30
0.0
 11
1858.402193722493
 21
1357.635553165195
 31
0.0
  0
LINE
  5
A8D
330
1F
100
AcDbEntity
  8
MASSE
  6
AUSGEZOGEN
 62
     1
100
AcDbLine
 10
1756.273409542493
 20
779.1350038451946
 30
0.0
 11
1726.530001332496
 21
775.2192323651943
 31
0.0
  0
LINE
  5
A8E
330
1F
100
AcDbEntity
  8
MASSE
  6
AUSGEZOGEN
 62
     1
100
AcDbLine
 10
1756.273409542493
 20
779.1350038451946
 30
0.0
 11
1726.530001332496
 21
783.0507753351948
 31
0.0
  0
LINE
  5
A8F
330
1F
100
AcDbEntity
  8
MASSE
  6
AUSGEZOGEN
 62
     1
100
AcDbLine
 10
1756.273409542493
 20
949.1350038451946
 30
0.0
 11
1756.273409542493
 21
759.1350038451946
 31
0.0
  0
LINE
  5
A90
330
1F
100
AcDbEntity
  8
MASSE
  6
AUSGEZOGEN
 62
     1
100
AcDbLine
 10
1179.272921262494
 20
1435.134820745195
 30
0.0
 11
989.2729212624944
 21
1435.134820745195
 31
0.0
  0
LINE
  5
A91
330
1F
100
AcDbEntity
  8
MASSE
  6
AUSGEZOGEN
 62
     1
100
AcDbLine
 10
1009.272921262494
 20
1435.134820745195
 30
0.0
 11
1005.357210812493
 21
1405.391412535195
 31
0.0
  0
LINE
  5
A92
330
1F
100
AcDbEntity
  8
MASSE
  6
AUSGEZOGEN
 62
     1
100
AcDbLine
 10
1009.272921262494
 20
1435.134820745195
 30
0.0
 11
1013.188631702494
 21
1405.391412535195
 31
0.0
  0
TEXT
  5
A93
330
1F
100
AcDbEntity
  8
MASSE
  6
AUSGEZOGEN
 62
     7
100
AcDbText
 10
999.2729212624945
 20
1145.349786565194
 30
0.0
 40
25.0
  1
 496
 50
90.0
 41
0.66666669
  7
SIMPLEX
100
AcDbText
  0
TEXT
  5
A94
330
1F
100
AcDbEntity
  8
MASSE
  6
AUSGEZOGEN
 62
     7
100
AcDbText
 10
1059.273165402494
 20
1145.349786565194
 30
0.0
 40
25.0
  1
 341
 50
90.0
 41
0.66666669
  7
SIMPLEX
100
AcDbText
  0
LINE
  5
A95
330
1F
100
AcDbEntity
  8
MASSE
  6
AUSGEZOGEN
 62
     1
100
AcDbLine
 10
1069.273165402494
 20
1357.634820745194
 30
0.0
 11
1073.188875852495
 21
1327.891412535195
 31
0.0
  0
LINE
  5
A96
330
1F
100
AcDbEntity
  8
MASSE
  6
AUSGEZOGEN
 62
     1
100
AcDbLine
 10
1069.273165402494
 20
1357.634820745194
 30
0.0
 11
1065.357454952496
 21
1327.891412535195
 31
0.0
  0
LINE
  5
A97
330
1F
100
AcDbEntity
  8
MASSE
  6
AUSGEZOGEN
 62
     1
100
AcDbLine
 10
1239.773043332494
 20
1357.634820745194
 30
0.0
 11
1049.273165402494
 21
1357.634820745194
 31
0.0
  0
LINE
  5
A98
330
1F
100
AcDbEntity
  8
MASSE
  6
AUSGEZOGEN
 62
     1
100
AcDbLine
 10
1678.773409542493
 20
1009.635492125195
 30
0.0
 11
1678.773409542493
 21
819.1354310951947
 31
0.0
  0
LINE
  5
A99
330
1F
100
AcDbEntity
  8
MITTE
  6
MITTE
 62
     1
100
AcDbLine
 10
1355.323275262493
 20
1993.646783635195
 30
0.0
 11
1370.088289912495
 21
1993.646783635195
 31
0.0
  0
LINE
  5
A9A
330
1F
100
AcDbEntity
  8
MITTE
  6
MITTE
 62
     1
100
AcDbLine
 10
1450.773165402494
 20
2150.458307075194
 30
0.0
 11
1450.773165402494
 21
2164.986871525194
 31
0.0
  0
LINE
  5
A9B
330
1F
100
AcDbEntity
  8
MITTE
  6
MITTE
 62
     1
100
AcDbLine
 10
1443.323580442495
 20
2158.646783635195
 30
0.0
 11
1458.088595082496
 21
2158.646783635195
 31
0.0
  0
LINE
  5
A9C
330
1F
100
AcDbEntity
  8
MITTE
  6
MITTE
 62
     1
100
AcDbLine
 10
1513.859347042493
 20
2060.647516055194
 30
0.0
 11
1571.290743522495
 21
2060.647516055194
 31
0.0
  0
LINE
  5
A9D
330
1F
100
AcDbEntity
  8
MITTE
  6
MITTE
 62
     1
100
AcDbLine
 10
1542.773531612496
 20
2031.444635195195
 30
0.0
 11
1542.773531612496
 21
2088.374810975194
 31
0.0
  0
LINE
  5
A9E
330
1F
100
AcDbEntity
  8
LOGO2
  6
AUSGEZOGEN
 62
     1
100
AcDbLine
 10
1511.314425162494
 20
1860.053033635194
 30
0.0
 11
1510.629000362496
 21
1861.127496525194
 31
0.0
  0
LINE
  5
A9F
330
1F
100
AcDbEntity
  8
LOGO2
  6
AUSGEZOGEN
 62
     1
100
AcDbLine
 10
1511.314425162494
 20
1871.526422305194
 30
0.0
 11
1510.629000362496
 21
1870.451959415195
 31
0.0
  0
ARC
  5
AA0
330
1F
100
AcDbEntity
  8
LOGO2
  6
AUSGEZOGEN
 62
     1
100
AcDbCircle
 10
1508.326510122493
 20
1865.790338325194
 30
0.0
 40
6.467885019999999
100
AcDbArc
 50
62.48622130992786
 51
297.5137634301045
  0
ARC
  5
AA1
330
1F
100
AcDbEntity
  8
LOGO2
  6
AUSGEZOGEN
 62
     1
100
AcDbCircle
 10
1509.618014032494
 20
1865.790338325194
 30
0.0
 40
4.77962542
100
AcDbArc
 50
77.72080231009948
 51
282.2791747999178
  0
LINE
  5
AA2
330
1F
100
AcDbEntity
  8
LOGO2
  6
AUSGEZOGEN
 62
     1
100
AcDbLine
 10
1497.192476922493
 20
1872.257623475194
 30
0.0
 11
1501.316866572495
 21
1859.321832465194
 31
0.0
  0
LINE
  5
AA3
330
1F
100
AcDbEntity
  8
LOGO2
  6
AUSGEZOGEN
 62
     1
100
AcDbLine
 10
1489.951265982494
 20
1859.321832465194
 30
0.0
 11
1494.265841182496
 21
1872.257623475194
 31
0.0
  0
POLYLINE
  5
AA4
330
1F
100
AcDbEntity
  8
LOGO2
  6
AUSGEZOGEN
 62
     1
100
AcDb2dPolyline
 66
     1
 10
0.0
 20
0.0
 30
0.0
  0
VERTEX
  5
AA5
330
AA4
100
AcDbEntity
  8
LOGO2
  6
AUSGEZOGEN
 62
     1
100
AcDbVertex
100
AcDb2dVertex
 10
1515.106295282494
 20
1865.188531675195
 30
0.0
 42
0.08016688
 70
     2
 50
270.0
  0
VERTEX
  5
AA6
330
AA4
100
AcDbEntity
  8
LOGO2
  6
AUSGEZOGEN
 62
     1
100
AcDbVertex
100
AcDb2dVertex
 10
1515.351046262494
 20
1863.650934025194
 30
0.0
 42
0.08892263
 70
     2
 50
292.5
  0
VERTEX
  5
AA7
330
AA4
100
AcDbEntity
  8
LOGO2
  6
AUSGEZOGEN
 62
     1
100
AcDbVertex
100
AcDb2dVertex
 10
1516.047823602494
 20
1862.347345155194
 30
0.0
 42
0.10495682
 70
     2
 50
315.0
  0
VERTEX
  5
AA8
330
AA4
100
AcDbEntity
  8
LOGO2
  6
AUSGEZOGEN
 62
     1
100
AcDbVertex
100
AcDb2dVertex
 10
1517.090670282494
 20
1861.476373475194
 30
0.0
 42
0.12001122
 70
     2
 50
337.5
  0
VERTEX
  5
AA9
330
AA4
100
AcDbEntity
  8
LOGO2
  6
AUSGEZOGEN
 62
     1
100
AcDbVertex
100
AcDb2dVertex
 10
1518.320772822495
 20
1861.170465275194
 30
0.0
 42
0.12001122
 70
     2
  0
VERTEX
  5
AAA
330
AA4
100
AcDbEntity
  8
LOGO2
  6
AUSGEZOGEN
 62
     1
100
AcDbVertex
100
AcDb2dVertex
 10
1519.550875362496
 20
1861.476373475194
 30
0.0
 42
0.10495682
 70
     2
 50
22.5
  0
VERTEX
  5
AAB
330
AA4
100
AcDbEntity
  8
LOGO2
  6
AUSGEZOGEN
 62
     1
100
AcDbVertex
100
AcDb2dVertex
 10
1520.593722042493
 20
1862.347345155194
 30
0.0
 42
0.08892266
 70
     2
 50
45.00003051999999
  0
VERTEX
  5
AAC
330
AA4
100
AcDbEntity
  8
LOGO2
  6
AUSGEZOGEN
 62
     1
100
AcDbVertex
100
AcDb2dVertex
 10
1521.290499382496
 20
1863.650934025194
 30
0.0
 42
0.08016685
 70
     2
 50
67.5
  0
VERTEX
  5
AAD
330
AA4
100
AcDbEntity
  8
LOGO2
  6
AUSGEZOGEN
 62
     1
100
AcDbVertex
100
AcDb2dVertex
 10
1521.535250362496
 20
1865.188531675195
 30
0.0
 50
67.5
  0
SEQEND
  5
AAE
330
AA4
100
AcDbEntity
  8
LOGO2
 62
     1
  0
POLYLINE
  5
AAF
330
1F
100
AcDbEntity
  8
LOGO2
  6
AUSGEZOGEN
 62
     1
100
AcDb2dPolyline
 66
     1
 10
0.0
 20
0.0
 30
0.0
  0
VERTEX
  5
AB0
330
AAF
100
AcDbEntity
  8
LOGO2
  6
AUSGEZOGEN
 62
     1
100
AcDbVertex
100
AcDb2dVertex
 10
1521.535250362496
 20
1866.392144965194
 30
0.0
 42
0.08016685
 70
     2
 50
90.0
  0
VERTEX
  5
AB1
330
AAF
100
AcDbEntity
  8
LOGO2
  6
AUSGEZOGEN
 62
     1
100
AcDbVertex
100
AcDb2dVertex
 10
1521.290499382496
 20
1867.929742615195
 30
0.0
 42
0.0889228
 70
     2
 50
112.5
  0
VERTEX
  5
AB2
330
AAF
100
AcDbEntity
  8
LOGO2
  6
AUSGEZOGEN
 62
     1
100
AcDbVertex
100
AcDb2dVertex
 10
1520.593722042493
 20
1869.233331485195
 30
0.0
 42
0.10495669
 70
     2
 50
135.00003052
  0
VERTEX
  5
AB3
330
AAF
100
AcDbEntity
  8
LOGO2
  6
AUSGEZOGEN
 62
     1
100
AcDbVertex
100
AcDb2dVertex
 10
1519.550875362496
 20
1870.104303165195
 30
0.0
 42
0.12001122
 70
     2
 50
157.5
  0
VERTEX
  5
AB4
330
AAF
100
AcDbEntity
  8
LOGO2
  6
AUSGEZOGEN
 62
     1
100
AcDbVertex
100
AcDb2dVertex
 10
1518.320772822495
 20
1870.410211365195
 30
0.0
 42
0.12001122
 70
     2
 50
180.0
  0
VERTEX
  5
AB5
330
AAF
100
AcDbEntity
  8
LOGO2
  6
AUSGEZOGEN
 62
     1
100
AcDbVertex
100
AcDb2dVertex
 10
1517.090670282494
 20
1870.104303165195
 30
0.0
 42
0.10495674
 70
     2
 50
202.5
  0
VERTEX
  5
AB6
330
AAF
100
AcDbEntity
  8
LOGO2
  6
AUSGEZOGEN
 62
     1
100
AcDbVertex
100
AcDb2dVertex
 10
1516.047823602494
 20
1869.233331485195
 30
0.0
 42
0.08892266
 70
     2
 50
225.0
  0
VERTEX
  5
AB7
330
AAF
100
AcDbEntity
  8
LOGO2
  6
AUSGEZOGEN
 62
     1
100
AcDbVertex
100
AcDb2dVertex
 10
1515.351046262494
 20
1867.929742615195
 30
0.0
 42
0.08016688
 70
     2
 50
247.5
  0
VERTEX
  5
AB8
330
AAF
100
AcDbEntity
  8
LOGO2
  6
AUSGEZOGEN
 62
     1
100
AcDbVertex
100
AcDb2dVertex
 10
1515.106295282494
 20
1866.392144965194
 30
0.0
 50
247.5
  0
SEQEND
  5
AB9
330
AAF
100
AcDbEntity
  8
LOGO2
 62
     1
  0
LINE
  5
ABA
330
1F
100
AcDbEntity
  8
LOGO2
  6
AUSGEZOGEN
 62
     1
100
AcDbLine
 10
1515.106417352494
 20
1866.392144965194
 30
0.0
 11
1515.106417352494
 21
1865.187799255194
 31
0.0
  0
LINE
  5
ABB
330
1F
100
AcDbEntity
  8
LOGO2
  6
AUSGEZOGEN
 62
     1
100
AcDbLine
 10
1521.535250362496
 20
1866.392144965194
 30
0.0
 11
1521.535250362496
 21
1865.187799255194
 31
0.0
  0
CIRCLE
  5
ABC
330
1F
100
AcDbEntity
  8
LOGO2
  6
AUSGEZOGEN
 62
     1
100
AcDbCircle
 10
1518.320772822495
 20
1865.790338325194
 30
0.0
 40
6.46788406
  0
LINE
  5
ABD
330
1F
100
AcDbEntity
  8
LOGO2
  6
AUSGEZOGEN
 62
     1
100
AcDbLine
 10
1492.812594112496
 20
1863.159723085195
 30
0.0
 11
1495.327608762494
 21
1870.699884215195
 31
0.0
  0
LINE
  5
ABE
330
1F
100
AcDbEntity
  8
LOGO2
  6
AUSGEZOGEN
 62
     1
100
AcDbLine
 10
1495.327242542495
 20
1870.700006285195
 30
0.0
 11
1497.731417352493
 21
1863.159723085195
 31
0.0
  0
LINE
  5
ABF
330
1F
100
AcDbEntity
  8
LOGO2
  6
AUSGEZOGEN
 62
     1
100
AcDbLine
 10
1492.812594112496
 20
1863.159723085195
 30
0.0
 11
1497.731661492496
 21
1863.159723085195
 31
0.0
  0
LINE
  5
AC0
330
1F
100
AcDbEntity
  8
LOGO2
  6
AUSGEZOGEN
 62
     1
100
AcDbLine
 10
1492.312105832494
 20
1861.659478945195
 30
0.0
 11
1498.209932972495
 21
1861.659478945195
 31
0.0
  0
LINE
  5
AC1
330
1F
100
AcDbEntity
  8
LOGO2
  6
AUSGEZOGEN
 62
     1
100
AcDbLine
 10
1498.209932972495
 20
1861.659478945195
 30
0.0
 11
1498.955538442493
 21
1859.321588325194
 31
0.0
  0
LINE
  5
AC2
330
1F
100
AcDbEntity
  8
LOGO2
  6
AUSGEZOGEN
 62
     1
100
AcDbLine
 10
1491.532442742497
 20
1859.321832465194
 30
0.0
 11
1492.312227902494
 21
1861.659723085194
 31
0.0
  0
LINE
  5
AC3
330
1F
100
AcDbEntity
  8
LOGO2
  6
AUSGEZOGEN
 62
     1
100
AcDbLine
 10
1494.265597042493
 20
1872.257623475194
 30
0.0
 11
1497.192598992497
 21
1872.257623475194
 31
0.0
  0
LINE
  5
AC4
330
1F
100
AcDbEntity
  8
LOGO2
  6
AUSGEZOGEN
 62
     1
100
AcDbLine
 10
1489.951265982494
 20
1859.321832465194
 30
0.0
 11
1491.532686882496
 21
1859.321832465194
 31
0.0
  0
LINE
  5
AC5
330
1F
100
AcDbEntity
  8
LOGO2
  6
AUSGEZOGEN
 62
     1
100
AcDbLine
 10
1501.317232782494
 20
1859.321832465194
 30
0.0
 11
1498.955782582496
 21
1859.321832465194
 31
0.0
  0
LINE
  5
AC6
330
1F
100
AcDbEntity
  8
LOGO2
  6
AUSGEZOGEN
 62
     1
100
AcDbLine
 10
1470.695284542493
 20
1876.660699645195
 30
0.0
 11
1470.695284542493
 21
1864.064508245195
 31
0.0
  0
LINE
  5
AC7
330
1F
100
AcDbEntity
  8
LOGO2
  6
AUSGEZOGEN
 62
     1
100
AcDbLine
 10
1474.813326532494
 20
1876.660699645195
 30
0.0
 11
1470.695284542493
 21
1876.660699645195
 31
0.0
  0
LINE
  5
AC8
330
1F
100
AcDbEntity
  8
LOGO2
  6
AUSGEZOGEN
 62
     1
100
AcDbLine
 10
1474.813326532494
 20
1864.064264105195
 30
0.0
 11
1474.813326532494
 21
1876.660455505194
 31
0.0
  0
LINE
  5
AC9
330
1F
100
AcDbEntity
  8
LOGO2
  6
AUSGEZOGEN
 62
     1
100
AcDbLine
 10
1470.695284542493
 20
1864.064264105195
 30
0.0
 11
1474.813326532494
 21
1864.064264105195
 31
0.0
  0
LINE
  5
ACA
330
1F
100
AcDbEntity
  8
LOGO2
  6
AUSGEZOGEN
 62
     1
100
AcDbLine
 10
1477.378634152494
 20
1876.660699645195
 30
0.0
 11
1477.378634152494
 21
1864.064508245195
 31
0.0
  0
LINE
  5
ACB
330
1F
100
AcDbEntity
  8
LOGO2
  6
AUSGEZOGEN
 62
     1
100
AcDbLine
 10
1481.496676142494
 20
1876.660699645195
 30
0.0
 11
1477.378634152494
 21
1876.660699645195
 31
0.0
  0
LINE
  5
ACC
330
1F
100
AcDbEntity
  8
LOGO2
  6
AUSGEZOGEN
 62
     1
100
AcDbLine
 10
1481.496676142494
 20
1864.064264105195
 30
0.0
 11
1481.496676142494
 21
1876.660455505194
 31
0.0
  0
LINE
  5
ACD
330
1F
100
AcDbEntity
  8
LOGO2
  6
AUSGEZOGEN
 62
     1
100
AcDbLine
 10
1477.378634152494
 20
1864.064264105195
 30
0.0
 11
1481.496676142494
 21
1864.064264105195
 31
0.0
  0
LINE
  5
ACE
330
1F
100
AcDbEntity
  8
LOGO2
  6
AUSGEZOGEN
 62
     1
100
AcDbLine
 10
1484.061983762494
 20
1876.660699645195
 30
0.0
 11
1484.061983762494
 21
1864.064508245195
 31
0.0
  0
LINE
  5
ACF
330
1F
100
AcDbEntity
  8
LOGO2
  6
AUSGEZOGEN
 62
     1
100
AcDbLine
 10
1488.180025752495
 20
1876.660699645195
 30
0.0
 11
1484.061983762494
 21
1876.660699645195
 31
0.0
  0
LINE
  5
AD0
330
1F
100
AcDbEntity
  8
LOGO2
  6
AUSGEZOGEN
 62
     1
100
AcDbLine
 10
1488.180025752495
 20
1864.064264105195
 30
0.0
 11
1488.180025752495
 21
1876.660455505194
 31
0.0
  0
LINE
  5
AD1
330
1F
100
AcDbEntity
  8
LOGO2
  6
AUSGEZOGEN
 62
     1
100
AcDbLine
 10
1484.061983762494
 20
1864.064264105195
 30
0.0
 11
1488.180025752495
 21
1864.064264105195
 31
0.0
  0
TEXT
  5
AD2
330
1F
100
AcDbEntity
  8
LOGO2
  6
AUSGEZOGEN
 62
     1
100
AcDbText
 10
1527.999972042493
 20
1859.437799255194
 30
0.0
 40
10.0
  1
passavant
 41
0.57244445
100
AcDbText
  0
TEXT
  5
AD3
330
1F
100
AcDbEntity
  8
LOGO2
  6
AUSGEZOGEN
 62
     1
100
AcDbText
 10
1489.284395872495
 20
1850.841607855194
 30
0.0
 40
5.0
  1
AWK Abwassertechnik
 41
0.7155591300000001
  7
COMPLEX
100
AcDbText
  0
LINE
  5
AD4
330
1F
100
AcDbEntity
  8
PUMPE
  6
AUSGEZOGEN
 62
     1
100
AcDbLine
 10
1560.272921262494
 20
2039.647760195195
 30
0.0
 11
1609.272921262494
 21
2039.647760195195
 31
0.0
  0
LINE
  5
AD5
330
1F
100
AcDbEntity
  8
PUMPE
  6
AUSGEZOGEN
 62
     1
100
AcDbLine
 10
1609.273165402494
 20
2029.647760195194
 30
0.0
 11
1560.273165402494
 21
2029.647760195194
 31
0.0
  0
LINE
  5
AD6
330
1F
100
AcDbEntity
  8
PUMPE
  6
AUSGEZOGEN
 62
     1
100
AcDbLine
 10
1561.245821652494
 20
2039.647760195195
 30
0.0
 11
1561.245821652494
 21
2029.647760195194
 31
0.0
  0
LINE
  5
AD7
330
1F
100
AcDbEntity
  8
PUMPE
  6
AUSGEZOGEN
 62
     1
100
AcDbLine
 10
1608.300265012494
 20
2039.647760195195
 30
0.0
 11
1608.300265012494
 21
2029.647760195194
 31
0.0
  0
LINE
  5
AD8
330
1F
100
AcDbEntity
  8
PUMPE
  6
AUSGEZOGEN
 62
     1
100
AcDbLine
 10
1634.773043332494
 20
2114.147271915195
 30
0.0
 11
1634.773043332494
 21
2065.147271915195
 31
0.0
  0
LINE
  5
AD9
330
1F
100
AcDbEntity
  8
PUMPE
  6
AUSGEZOGEN
 62
     1
100
AcDbLine
 10
1644.773043332494
 20
2065.148248475194
 30
0.0
 11
1644.773043332494
 21
2114.148248475194
 31
0.0
  0
LINE
  5
ADA
330
1F
100
AcDbEntity
  8
PUMPE
  6
AUSGEZOGEN
 62
     1
100
AcDbLine
 10
1634.773043332494
 20
2113.175592225194
 30
0.0
 11
1644.773043332494
 21
2113.175592225194
 31
0.0
  0
LINE
  5
ADB
330
1F
100
AcDbEntity
  8
PUMPE
  6
AUSGEZOGEN
 62
     1
100
AcDbLine
 10
1634.773043332494
 20
2066.119928165195
 30
0.0
 11
1644.773043332494
 21
2066.119928165195
 31
0.0
  0
LINE
  5
ADC
330
1F
100
AcDbEntity
  8
PUMPE
  6
AUSGEZOGEN
 62
     1
100
AcDbLine
 10
1450.268038442493
 20
1932.665338325194
 30
0.0
 11
1533.285616572495
 21
1932.665338325194
 31
0.0
  0
LINE
  5
ADD
330
1F
100
AcDbEntity
  8
PUMPE
  6
AUSGEZOGEN
 62
     1
100
AcDbLine
 10
1452.830660512496
 20
1932.665338325194
 30
0.0
 11
1452.830660512496
 21
1931.165338325194
 31
0.0
  0
LINE
  5
ADE
330
1F
100
AcDbEntity
  8
PUMPE
  6
AUSGEZOGEN
 62
     1
100
AcDbLine
 10
1450.217989622495
 20
1931.165094175195
 30
0.0
 11
1533.285616572495
 21
1931.165094175195
 31
0.0
  0
LINE
  5
ADF
330
1F
100
AcDbEntity
  8
PUMPE
  6
AUSGEZOGEN
 62
     1
100
AcDbLine
 10
1614.614962272495
 20
1932.665338325194
 30
0.0
 11
1614.614962272495
 21
1931.165338325194
 31
0.0
  0
LINE
  5
AE0
330
1F
100
AcDbEntity
  8
PUMPE
  6
AUSGEZOGEN
 62
     1
100
AcDbLine
 10
1617.178438832496
 20
1932.665338325194
 30
0.0
 11
1534.159640012494
 21
1932.665338325194
 31
0.0
  0
LINE
  5
AE1
330
1F
100
AcDbEntity
  8
PUMPE
  6
AUSGEZOGEN
 62
     1
100
AcDbLine
 10
1610.066622432496
 20
1758.648004335195
 30
0.0
 11
1617.313326532494
 21
1792.148004335195
 31
0.0
  0
LINE
  5
AE2
330
1F
100
AcDbEntity
  8
PUMPE
  6
AUSGEZOGEN
 62
     1
100
AcDbLine
 10
1607.968233762494
 20
1758.648004335195
 30
0.0
 11
1614.802706412494
 21
1792.148004335195
 31
0.0
  0
LINE
  5
AE3
330
1F
100
AcDbEntity
  8
PUMPE
  6
AUSGEZOGEN
 62
     1
100
AcDbLine
 10
1589.255465202495
 20
1758.648004335195
 30
0.0
 11
1595.663546262494
 21
1792.148004335195
 31
0.0
  0
LINE
  5
AE4
330
1F
100
AcDbEntity
  8
PUMPE
  6
AUSGEZOGEN
 62
     1
100
AcDbLine
 10
1585.421847042493
 20
1758.648004335195
 30
0.0
 11
1591.100313832496
 21
1792.148004335195
 31
0.0
  0
LINE
  5
AE5
330
1F
100
AcDbEntity
  8
PUMPE
  6
AUSGEZOGEN
 62
     1
100
AcDbLine
 10
1577.580050162494
 20
1758.648004335195
 30
0.0
 11
1582.630343132496
 21
1792.148004335195
 31
0.0
  0
LINE
  5
AE6
330
1F
100
AcDbEntity
  8
PUMPE
  6
AUSGEZOGEN
 62
     1
100
AcDbLine
 10
1572.322481802493
 20
1758.648004335195
 30
0.0
 11
1576.383761102493
 21
1792.148004335195
 31
0.0
  0
LINE
  5
AE7
330
1F
100
AcDbEntity
  8
PUMPE
  6
AUSGEZOGEN
 62
     1
100
AcDbLine
 10
1562.387789422493
 20
1758.648004335195
 30
0.0
 11
1565.670870472495
 21
1792.148004335195
 31
0.0
  0
LINE
  5
AE8
330
1F
100
AcDbEntity
  8
PUMPE
  6
AUSGEZOGEN
 62
     1
100
AcDbLine
 10
1556.129854852494
 20
1758.648004335195
 30
0.0
 11
1558.246554072495
 21
1792.148004335195
 31
0.0
  0
LINE
  5
AE9
330
1F
100
AcDbEntity
  8
PUMPE
  6
AUSGEZOGEN
 62
     1
100
AcDbLine
 10
1546.160128292493
 20
1758.648004335195
 30
0.0
 11
1546.160128292493
 21
1792.148004335195
 31
0.0
  0
LINE
  5
AEA
330
1F
100
AcDbEntity
  8
PUMPE
  6
AUSGEZOGEN
 62
     1
100
AcDbLine
 10
1538.160128292493
 20
1758.648004335195
 30
0.0
 11
1538.160128292493
 21
1792.148004335195
 31
0.0
  0
LINE
  5
AEB
330
1F
100
AcDbEntity
  8
PUMPE
  6
AUSGEZOGEN
 62
     1
100
AcDbLine
 10
1609.090059932496
 20
1764.148492615195
 30
0.0
 11
1611.255587272495
 21
1764.148492615195
 31
0.0
  0
LINE
  5
AEC
330
1F
100
AcDbEntity
  8
PUMPE
  6
AUSGEZOGEN
 62
     1
100
AcDbLine
 10
1614.160250362496
 20
1758.648004335195
 30
0.0
 11
1621.223848992497
 21
1792.148004335195
 31
0.0
  0
LINE
  5
AED
330
1F
100
AcDbEntity
  8
PUMPE
  6
AUSGEZOGEN
 62
     1
100
AcDbLine
 10
1453.287203482494
 20
1758.648004335195
 30
0.0
 11
1446.223604852494
 21
1792.148004335195
 31
0.0
  0
LINE
  5
AEE
330
1F
100
AcDbEntity
  8
PUMPE
  6
AUSGEZOGEN
 62
     1
100
AcDbLine
 10
1556.477755242497
 20
1764.148492615195
 30
0.0
 11
1562.926485712494
 21
1764.148492615195
 31
0.0
  0
LINE
  5
AEF
330
1F
100
AcDbEntity
  8
PUMPE
  6
AUSGEZOGEN
 62
     1
100
AcDbLine
 10
1572.988985712494
 20
1764.148492615195
 30
0.0
 11
1578.409517942495
 21
1764.148492615195
 31
0.0
  0
LINE
  5
AF0
330
1F
100
AcDbEntity
  8
PUMPE
  6
AUSGEZOGEN
 62
     1
100
AcDbLine
 10
1586.354464222495
 20
1764.148492615195
 30
0.0
 11
1590.307711292495
 21
1764.148492615195
 31
0.0
  0
LINE
  5
AF1
330
1F
100
AcDbEntity
  8
PUMPE
  6
AUSGEZOGEN
 62
     1
100
AcDbLine
 10
1538.160128292493
 20
1764.148492615195
 30
0.0
 11
1546.160006222493
 21
1764.148492615195
 31
0.0
  0
LINE
  5
AF2
330
1F
100
AcDbEntity
  8
PUMPE
  6
AUSGEZOGEN
 62
     1
100
AcDbLine
 10
1446.422823602494
 20
1798.148736755194
 30
0.0
 11
1533.285616572495
 21
1798.148736755194
 31
0.0
  0
LINE
  5
AF3
330
1F
100
AcDbEntity
  8
PUMPE
  6
AUSGEZOGEN
 62
     1
100
AcDbLine
 10
1600.912569692493
 20
1758.648004335195
 30
0.0
 11
1608.159640012494
 21
1792.148004335195
 31
0.0
  0
LINE
  5
AF4
330
1F
100
AcDbEntity
  8
PUMPE
  6
AUSGEZOGEN
 62
     1
100
AcDbLine
 10
1596.814058952495
 20
1758.648004335195
 30
0.0
 11
1603.648409542493
 21
1792.148004335195
 31
0.0
  0
LINE
  5
AF5
330
1F
100
AcDbEntity
  8
PUMPE
  6
AUSGEZOGEN
 62
     1
100
AcDbLine
 10
1529.285616572495
 20
1758.648004335195
 30
0.0
 11
1529.285616572495
 21
1792.148004335195
 31
0.0
  0
LINE
  5
AF6
330
1F
100
AcDbEntity
  8
PUMPE
  6
AUSGEZOGEN
 62
     1
100
AcDbLine
 10
1521.285860712494
 20
1758.648004335195
 30
0.0
 11
1521.285860712494
 21
1792.148004335195
 31
0.0
  0
LINE
  5
AF7
330
1F
100
AcDbEntity
  8
PUMPE
  6
AUSGEZOGEN
 62
     1
100
AcDbLine
 10
1511.314791372493
 20
1758.648004335195
 30
0.0
 11
1509.198092152495
 21
1792.148004335195
 31
0.0
  0
LINE
  5
AF8
330
1F
100
AcDbEntity
  8
PUMPE
  6
AUSGEZOGEN
 62
     1
100
AcDbLine
 10
1505.058077512494
 20
1758.648004335195
 30
0.0
 11
1501.774996452495
 21
1792.148004335195
 31
0.0
  0
LINE
  5
AF9
330
1F
100
AcDbEntity
  8
PUMPE
  6
AUSGEZOGEN
 62
     1
100
AcDbLine
 10
1495.124605832494
 20
1758.648004335195
 30
0.0
 11
1491.062716182496
 21
1792.148004335195
 31
0.0
  0
LINE
  5
AFA
330
1F
100
AcDbEntity
  8
PUMPE
  6
AUSGEZOGEN
 62
     1
100
AcDbLine
 10
1489.866671262494
 20
1758.648004335195
 30
0.0
 11
1484.816866572495
 21
1792.148004335195
 31
0.0
  0
LINE
  5
AFB
330
1F
100
AcDbEntity
  8
PUMPE
  6
AUSGEZOGEN
 62
     1
100
AcDbLine
 10
1482.022432972495
 20
1758.648004335195
 30
0.0
 11
1476.344942742496
 21
1792.148004335195
 31
0.0
  0
LINE
  5
AFC
330
1F
100
AcDbEntity
  8
PUMPE
  6
AUSGEZOGEN
 62
     1
100
AcDbLine
 10
1478.189425162494
 20
1758.648004335195
 30
0.0
 11
1471.781344112496
 21
1792.148004335195
 31
0.0
  0
LINE
  5
AFD
330
1F
100
AcDbEntity
  8
PUMPE
  6
AUSGEZOGEN
 62
     1
100
AcDbLine
 10
1470.632418332494
 20
1758.648004335195
 30
0.0
 11
1463.798006702494
 21
1792.148004335195
 31
0.0
  0
LINE
  5
AFE
330
1F
100
AcDbEntity
  8
PUMPE
  6
AUSGEZOGEN
 62
     1
100
AcDbLine
 10
1466.533907582496
 20
1758.648004335195
 30
0.0
 11
1459.286898312493
 21
1792.148004335195
 31
0.0
  0
LINE
  5
AFF
330
1F
100
AcDbEntity
  8
PUMPE
  6
AUSGEZOGEN
 62
     1
100
AcDbLine
 10
1459.869723012496
 20
1758.648004335195
 30
0.0
 11
1453.035372432496
 21
1792.148004335195
 31
0.0
  0
LINE
  5
B00
330
1F
100
AcDbEntity
  8
PUMPE
  6
AUSGEZOGEN
 62
     1
100
AcDbLine
 10
1457.771334342495
 20
1758.648004335195
 30
0.0
 11
1450.524386102493
 21
1792.148004335195
 31
0.0
  0
LINE
  5
B01
330
1F
100
AcDbEntity
  8
PUMPE
  6
AUSGEZOGEN
 62
     1
100
AcDbLine
 10
1602.102144892494
 20
1764.148492615195
 30
0.0
 11
1597.936495472495
 21
1764.148492615195
 31
0.0
  0
LINE
  5
B02
330
1F
100
AcDbEntity
  8
PUMPE
  6
AUSGEZOGEN
 62
     1
100
AcDbLine
 10
1465.344332392495
 20
1764.148492615195
 30
0.0
 11
1469.509981802494
 21
1764.148492615195
 31
0.0
  0
LINE
  5
B03
330
1F
100
AcDbEntity
  8
PUMPE
  6
AUSGEZOGEN
 62
     1
100
AcDbLine
 10
1456.581515012494
 20
1764.148492615195
 30
0.0
 11
1458.747042352493
 21
1764.148492615195
 31
0.0
  0
LINE
  5
B04
330
1F
100
AcDbEntity
  8
PUMPE
  6
AUSGEZOGEN
 62
     1
100
AcDbLine
 10
1529.285616572495
 20
1792.148980895194
 30
0.0
 11
1521.285738642495
 21
1792.148980895194
 31
0.0
  0
LINE
  5
B05
330
1F
100
AcDbEntity
  8
PUMPE
  6
AUSGEZOGEN
 62
     1
100
AcDbLine
 10
1477.137179072495
 20
1764.148492615195
 30
0.0
 11
1481.090426142495
 21
1764.148492615195
 31
0.0
  0
LINE
  5
B06
330
1F
100
AcDbEntity
  8
PUMPE
  6
AUSGEZOGEN
 62
     1
100
AcDbLine
 10
1489.037569692493
 20
1764.148492615195
 30
0.0
 11
1494.458101922493
 21
1764.148492615195
 31
0.0
  0
LINE
  5
B07
330
1F
100
AcDbEntity
  8
PUMPE
  6
AUSGEZOGEN
 62
     1
100
AcDbLine
 10
1504.519137082494
 20
1764.148492615195
 30
0.0
 11
1510.967745472495
 21
1764.148492615195
 31
0.0
  0
LINE
  5
B08
330
1F
100
AcDbEntity
  8
PUMPE
  6
AUSGEZOGEN
 62
     1
100
AcDbLine
 10
1521.285860712494
 20
1764.148492615195
 30
0.0
 11
1529.285738642495
 21
1764.148492615195
 31
0.0
  0
LINE
  5
B09
330
1F
100
AcDbEntity
  8
PUMPE
  6
AUSGEZOGEN
 62
     1
100
AcDbLine
 10
1546.160128292493
 20
2037.070855895195
 30
0.0
 11
1546.160128292493
 21
2044.189019965195
 31
0.0
  0
ARC
  5
B0A
330
1F
100
AcDbEntity
  8
PUMPE
  6
AUSGEZOGEN
 62
     1
100
AcDbCircle
 10
1547.660006222493
 20
2044.189996525194
 30
0.0
 40
1.49999988
100
AcDbArc
 50
90.00000762997665
 51
180.0
  0
ARC
  5
B0B
330
1F
100
AcDbEntity
  8
PUMPE
  6
AUSGEZOGEN
 62
     1
100
AcDbCircle
 10
1519.699190792493
 20
2044.189996525194
 30
0.0
 40
1.50000727
100
AcDbArc
 50
89.99997711007008
 51
176.5661468499982
  0
ARC
  5
B0C
330
1F
100
AcDbEntity
  8
PUMPE
  6
AUSGEZOGEN
 62
     1
100
AcDbCircle
 10
1519.786104852494
 20
2044.189996525194
 30
0.0
 40
1.49999988
100
AcDbArc
 50
359.9999694799892
 51
90.0
  0
LINE
  5
B0D
330
1F
100
AcDbEntity
  8
PUMPE
  6
AUSGEZOGEN
 62
     1
100
AcDbLine
 10
1521.286104852493
 20
2037.070855895195
 30
0.0
 11
1521.286104852493
 21
2044.189019965195
 31
0.0
  0
ARC
  5
B0E
330
1F
100
AcDbEntity
  8
PUMPE
  6
AUSGEZOGEN
 62
     1
100
AcDbCircle
 10
1547.747042352494
 20
2044.189996525194
 30
0.0
 40
1.50000727
100
AcDbArc
 50
3.433815240021016
 51
90.00003051990656
  0
LINE
  5
B0F
330
1F
100
AcDbEntity
  8
PUMPE
  6
AUSGEZOGEN
 62
     1
100
AcDbLine
 10
1533.723604852494
 20
2039.189996525194
 30
0.0
 11
1521.287081412494
 21
2039.189996525194
 31
0.0
  0
LINE
  5
B10
330
1F
100
AcDbEntity
  8
PUMPE
  6
AUSGEZOGEN
 62
     1
100
AcDbLine
 10
1533.723604852494
 20
2039.189996525194
 30
0.0
 11
1546.160128292493
 21
2039.189996525194
 31
0.0
  0
LINE
  5
B11
330
1F
100
AcDbEntity
  8
PUMPE
  6
AUSGEZOGEN
 62
     1
100
AcDbLine
 10
1549.243624382496
 20
2044.279107855194
 30
0.0
 11
1552.129122432496
 21
1995.689264105195
 31
0.0
  0
LINE
  5
B12
330
1F
100
AcDbEntity
  8
PUMPE
  6
AUSGEZOGEN
 62
     1
100
AcDbLine
 10
1518.201632192493
 20
2044.279107855194
 30
0.0
 11
1515.315890012494
 21
1995.689264105195
 31
0.0
  0
LINE
  5
B13
330
1F
100
AcDbEntity
  8
PUMPE
  6
AUSGEZOGEN
 62
     1
100
AcDbLine
 10
1452.589205442495
 20
1995.690240665195
 30
0.0
 11
1515.315890012494
 21
1995.690240665195
 31
0.0
  0
LINE
  5
B14
330
1F
100
AcDbEntity
  8
PUMPE
  6
AUSGEZOGEN
 62
     1
100
AcDbLine
 10
1552.158907582496
 20
1995.690240665195
 30
0.0
 11
1614.857271842495
 21
1995.690240665195
 31
0.0
  0
LINE
  5
B15
330
1F
100
AcDbEntity
  8
PUMPE
  6
AUSGEZOGEN
 62
     1
100
AcDbLine
 10
1617.228487662494
 20
1931.165094175195
 30
0.0
 11
1534.160860712494
 21
1931.165094175195
 31
0.0
  0
LINE
  5
B16
330
1F
100
AcDbEntity
  8
PUMPE
  6
AUSGEZOGEN
 62
     1
100
AcDbLine
 10
1565.670870472495
 20
1792.148980895194
 30
0.0
 11
1558.247164422493
 21
1792.148980895194
 31
0.0
  0
LINE
  5
B17
330
1F
100
AcDbEntity
  8
PUMPE
  6
AUSGEZOGEN
 62
     1
100
AcDbLine
 10
1582.629488642495
 20
1792.148980895194
 30
0.0
 11
1576.382784542493
 21
1792.148980895194
 31
0.0
  0
LINE
  5
B18
330
1F
100
AcDbEntity
  8
PUMPE
  6
AUSGEZOGEN
 62
     1
100
AcDbLine
 10
1595.663546262494
 20
1792.148980895194
 30
0.0
 11
1591.100557972495
 21
1792.148980895194
 31
0.0
  0
LINE
  5
B19
330
1F
100
AcDbEntity
  8
PUMPE
  6
AUSGEZOGEN
 62
     1
100
AcDbLine
 10
1546.159762082494
 20
1792.148980895194
 30
0.0
 11
1538.159884152493
 21
1792.148980895194
 31
0.0
  0
LINE
  5
B1A
330
1F
100
AcDbEntity
  8
PUMPE
  6
AUSGEZOGEN
 62
     1
100
AcDbLine
 10
1621.223238642494
 20
1798.148736755194
 30
0.0
 11
1534.159640012494
 21
1798.148736755194
 31
0.0
  0
LINE
  5
B1B
330
1F
100
AcDbEntity
  8
PUMPE
  6
AUSGEZOGEN
 62
     1
100
AcDbLine
 10
1617.312105832494
 20
1792.148980895194
 30
0.0
 11
1614.801729852494
 21
1792.148980895194
 31
0.0
  0
LINE
  5
B1C
330
1F
100
AcDbEntity
  8
DIN84
  6
AUSGEZOGEN
 62
     1
100
AcDbLine
 10
1579.472750362496
 20
2034.072809025194
 30
0.0
 11
1581.272677122495
 21
2034.072809025194
 31
0.0
  0
LINE
  5
B1D
330
1F
100
AcDbEntity
  8
DIN84
  6
AUSGEZOGEN
 62
     1
100
AcDbLine
 10
1581.273287472493
 20
2034.072809025194
 30
0.0
 11
1581.273287472493
 21
2035.272516055194
 31
0.0
  0
LINE
  5
B1E
330
1F
100
AcDbEntity
  8
DIN84
  6
AUSGEZOGEN
 62
     1
100
AcDbLine
 10
1581.273287472493
 20
2035.272760195195
 30
0.0
 11
1579.473360712494
 21
2035.272760195195
 31
0.0
  0
ARC
  5
B1F
330
1F
100
AcDbEntity
  8
DIN84
  6
AUSGEZOGEN
 62
     1
100
AcDbCircle
 10
1579.672945672493
 20
2030.894098085195
 30
0.0
 40
0.1999768
100
AcDbArc
 50
180.0
 51
265.0098266600056
  0
LINE
  5
B20
330
1F
100
AcDbEntity
  8
DIN84
  6
AUSGEZOGEN
 62
     1
100
AcDbLine
 10
1582.772921262494
 20
2030.422906675195
 30
0.0
 11
1579.655489622495
 21
2030.695855895195
 31
0.0
  0
LINE
  5
B21
330
1F
100
AcDbEntity
  8
DIN84
  6
AUSGEZOGEN
 62
     1
100
AcDbLine
 10
1579.472750362496
 20
2030.895318785195
 30
0.0
 11
1579.472750362496
 21
2034.073541445195
 31
0.0
  0
ARC
  5
B22
330
1F
100
AcDbEntity
  8
DIN84
  6
AUSGEZOGEN
 62
     1
100
AcDbCircle
 10
1579.672945672493
 20
2038.450250425195
 30
0.0
 40
0.20001227
100
AcDbArc
 50
95.00762177005565
 51
180.0
  0
LINE
  5
B23
330
1F
100
AcDbEntity
  8
DIN84
  6
AUSGEZOGEN
 62
     1
100
AcDbLine
 10
1579.472750362496
 20
2035.272760195195
 30
0.0
 11
1579.472750362496
 21
2038.450982855195
 31
0.0
  0
LINE
  5
B24
330
1F
100
AcDbEntity
  8
DIN84
  6
AUSGEZOGEN
 62
     1
100
AcDbLine
 10
1579.655855832494
 20
2038.650445745195
 30
0.0
 11
1582.773165402494
 21
2038.923150825194
 31
0.0
  0
LINE
  5
B25
330
1F
100
AcDbEntity
  8
DIN84
  6
AUSGEZOGEN
 62
     1
100
AcDbLine
 10
1589.777315792493
 20
2037.172174255195
 30
0.0
 11
1589.777315792493
 21
2032.172174255194
 31
0.0
  0
LINE
  5
B26
330
1F
100
AcDbEntity
  8
DIN84
  6
AUSGEZOGEN
 62
     1
100
AcDbLine
 10
1589.777315792493
 20
2032.172174255194
 30
0.0
 11
1586.772921262494
 21
2032.172174255194
 31
0.0
  0
LINE
  5
B27
330
1F
100
AcDbEntity
  8
DIN84
  6
AUSGEZOGEN
 62
     1
100
AcDbLine
 10
1586.773165402494
 20
2037.172174255195
 30
0.0
 11
1589.777559932496
 21
2037.172174255195
 31
0.0
  0
LINE
  5
B28
330
1F
100
AcDbEntity
  8
DIN84
  6
AUSGEZOGEN
 62
     1
100
AcDbLine
 10
1640.347994502495
 20
2094.948053165195
 30
0.0
 11
1640.347994502495
 21
2093.148004335195
 31
0.0
  0
LINE
  5
B29
330
1F
100
AcDbEntity
  8
DIN84
  6
AUSGEZOGEN
 62
     1
100
AcDbLine
 10
1640.347994502495
 20
2093.147516055195
 30
0.0
 11
1639.148409542493
 21
2093.147516055195
 31
0.0
  0
LINE
  5
B2A
330
1F
100
AcDbEntity
  8
DIN84
  6
AUSGEZOGEN
 62
     1
100
AcDbLine
 10
1639.148043332494
 20
2093.147516055195
 30
0.0
 11
1639.148043332494
 21
2094.947564885195
 31
0.0
  0
ARC
  5
B2B
330
1F
100
AcDbEntity
  8
DIN84
  6
AUSGEZOGEN
 62
     1
100
AcDbCircle
 10
1643.526095082496
 20
2094.747857855194
 30
0.0
 40
0.1999768
100
AcDbArc
 50
4.990174290027037
 51
90.00000762997665
  0
LINE
  5
B2C
330
1F
100
AcDbEntity
  8
DIN84
  6
AUSGEZOGEN
 62
     1
100
AcDbLine
 10
1643.997896842495
 20
2091.647271915195
 30
0.0
 11
1643.725069692493
 21
2094.764703555195
 31
0.0
  0
LINE
  5
B2D
330
1F
100
AcDbEntity
  8
DIN84
  6
AUSGEZOGEN
 62
     1
100
AcDbLine
 10
1643.526095082496
 20
2094.948053165195
 30
0.0
 11
1640.347994502495
 21
2094.948053165195
 31
0.0
  0
ARC
  5
B2E
330
1F
100
AcDbEntity
  8
DIN84
  6
AUSGEZOGEN
 62
     1
100
AcDbCircle
 10
1635.969942742496
 20
2094.747857855194
 30
0.0
 40
0.20001227
100
AcDbArc
 50
90.00000762997665
 51
174.9923858600187
  0
LINE
  5
B2F
330
1F
100
AcDbEntity
  8
DIN84
  6
AUSGEZOGEN
 62
     1
100
AcDbLine
 10
1639.148043332494
 20
2094.948053165195
 30
0.0
 11
1635.969942742496
 21
2094.948053165195
 31
0.0
  0
LINE
  5
B30
330
1F
100
AcDbEntity
  8
DIN84
  6
AUSGEZOGEN
 62
     1
100
AcDbLine
 10
1635.770968132496
 20
2094.764947695195
 30
0.0
 11
1635.498140982494
 21
2091.647516055195
 31
0.0
  0
LINE
  5
B31
330
1F
100
AcDbEntity
  8
DIN84
  6
AUSGEZOGEN
 62
     1
100
AcDbLine
 10
1637.248018912494
 20
2084.642877385195
 30
0.0
 11
1642.248018912494
 21
2084.642877385195
 31
0.0
  0
LINE
  5
B32
330
1F
100
AcDbEntity
  8
DIN84
  6
AUSGEZOGEN
 62
     1
100
AcDbLine
 10
1642.248018912494
 20
2084.642877385195
 30
0.0
 11
1642.248018912494
 21
2087.647271915195
 31
0.0
  0
LINE
  5
B33
330
1F
100
AcDbEntity
  8
DIN84
  6
AUSGEZOGEN
 62
     1
100
AcDbLine
 10
1637.248018912494
 20
2087.648248475194
 30
0.0
 11
1637.248018912494
 21
2084.643853945195
 31
0.0
  0
LINE
  5
B34
330
1F
100
AcDbEntity
  8
ANSCHLUS
  6
AUSGEZOGEN
 62
     1
100
AcDbLine
 10
1257.943209342495
 20
2051.408014105195
 30
0.0
 11
1253.209322622493
 21
2051.408014105195
 31
0.0
  0
LINE
  5
B35
330
1F
100
AcDbEntity
  8
ANSCHLUS
  6
PUNKT
 62
     1
100
AcDbLine
 10
1257.943209342495
 20
2056.027154725194
 30
0.0
 11
1258.483370472495
 21
2056.027154725194
 31
0.0
  0
LINE
  5
B36
330
1F
100
AcDbEntity
  8
ANSCHLUS
  6
PUNKT
 62
     1
100
AcDbLine
 10
1257.943209342495
 20
2065.267877385195
 30
0.0
 11
1258.483370472495
 21
2065.267877385195
 31
0.0
  0
LINE
  5
B37
330
1F
100
AcDbEntity
  8
ANSCHLUS
  6
PUNKT
 62
     1
100
AcDbLine
 10
1257.943209342495
 20
2069.888238715194
 30
0.0
 11
1258.342379262496
 21
2069.888238715194
 31
0.0
  0
LINE
  5
B38
330
1F
100
AcDbEntity
  8
ANSCHLUS
  6
AUSGEZOGEN
 62
     1
100
AcDbLine
 10
1250.277804072495
 20
2055.647516055195
 30
0.0
 11
1250.277804072495
 21
2065.647271915195
 31
0.0
  0
LINE
  5
B39
330
1F
100
AcDbEntity
  8
ANSCHLUS
  6
AUSGEZOGEN
 62
     1
100
AcDbLine
 10
1252.275789912495
 20
2055.647516055195
 30
0.0
 11
1250.277804072495
 21
2055.647516055195
 31
0.0
  0
LINE
  5
B3A
330
1F
100
AcDbEntity
  8
ANSCHLUS
  6
AUSGEZOGEN
 62
     1
100
AcDbLine
 10
1252.275789912495
 20
2065.647516055195
 30
0.0
 11
1250.277804072495
 21
2065.647271915195
 31
0.0
  0
LINE
  5
B3B
330
1F
100
AcDbEntity
  8
ANSCHLUS
  6
AUSGEZOGEN
 62
     1
100
AcDbLine
 10
1252.275789912495
 20
2053.799371525194
 30
0.0
 11
1252.275789912495
 21
2067.496393005194
 31
0.0
  0
ARC
  5
B3C
330
1F
100
AcDbEntity
  8
ANSCHLUS
  6
AUSGEZOGEN
 62
     1
100
AcDbCircle
 10
1255.805147822495
 20
2053.799371525194
 30
0.0
 40
3.529366969999999
100
AcDbArc
 50
140.8449707000693
 51
222.6565551801036
  0
ARC
  5
B3D
330
1F
100
AcDbEntity
  8
ANSCHLUS
  6
PUNKT
 62
     1
100
AcDbCircle
 10
1255.746554072495
 20
2053.799371525194
 30
0.0
 40
3.529366969999999
100
AcDbArc
 50
317.3434448198964
 51
39.15509033000168
  0
ARC
  5
B3E
330
1F
100
AcDbEntity
  8
ANSCHLUS
  6
AUSGEZOGEN
 62
     1
100
AcDbCircle
 10
1266.135653192494
 20
2060.647516055194
 30
0.0
 40
13.86007595
100
AcDbArc
 50
160.5291748000406
 51
199.4716186500639
  0
ARC
  5
B3F
330
1F
100
AcDbEntity
  8
ANSCHLUS
  6
PUNKT
 62
     1
100
AcDbCircle
 10
1245.416353872493
 20
2060.647516055194
 30
0.0
 40
13.86007595
100
AcDbArc
 50
340.5283203100958
 51
19.47082519995937
  0
ARC
  5
B40
330
1F
100
AcDbEntity
  8
ANSCHLUS
  6
AUSGEZOGEN
 62
     1
100
AcDbCircle
 10
1255.805452992496
 20
2067.496881285195
 30
0.0
 40
3.529745339999999
100
AcDbArc
 50
137.3488464400088
 51
219.1500549300025
  0
ARC
  5
B41
330
1F
100
AcDbEntity
  8
ANSCHLUS
  6
PUNKT
 62
     1
100
AcDbCircle
 10
1255.745943722493
 20
2067.496881285195
 30
0.0
 40
3.529745339999999
100
AcDbArc
 50
320.8499145500178
 51
42.65115355999116
  0
LINE
  5
B42
330
1F
100
AcDbEntity
  8
ANSCHLUS
  6
AUSGEZOGEN
 62
     1
100
AcDbLine
 10
1253.209322622493
 20
2069.888238715194
 30
0.0
 11
1257.943209342495
 21
2069.888238715194
 31
0.0
  0
LINE
  5
B43
330
1F
100
AcDbEntity
  8
ANSCHLUS
  6
PUNKT
 62
     1
100
AcDbLine
 10
1258.342074092495
 20
2051.408014105195
 30
0.0
 11
1257.942904172494
 21
2051.408014105195
 31
0.0
  0
LINE
  5
B44
330
1F
100
AcDbEntity
  8
ANSCHLUS
  6
AUSGEZOGEN
 62
     1
100
AcDbLine
 10
1253.068331412494
 20
2056.027154725194
 30
0.0
 11
1257.943209342495
 21
2056.027154725194
 31
0.0
  0
LINE
  5
B45
330
1F
100
AcDbEntity
  8
ANSCHLUS
  6
AUSGEZOGEN
 62
     1
100
AcDbLine
 10
1253.068331412494
 20
2065.267877385195
 30
0.0
 11
1257.943209342495
 21
2065.267877385195
 31
0.0
  0
ENDSEC
  0
SECTION
  2
OBJECTS
  0
DICTIONARY
  5
C
330
0
100
AcDbDictionary
281
     1
  3
ACAD_COLOR
350
D7
  3
ACAD_GROUP
350
D
  3
ACAD_LAYOUT
350
1A
  3
ACAD_MATERIAL
350
D6
  3
ACAD_MLINESTYLE
350
17
  3
ACAD_PLOTSETTINGS
350
19
  3
ACAD_PLOTSTYLENAME
350
E
  3
ACAD_TABLESTYLE
350
133
  3
ACDBHEADERROUNDTRIPXREC
350
B4A
  3
AcDbVariableDictionary
350
34
  3
AcmDictionary
350
49
  3
AMG
350
2B
  3
AMGSNAPSETTINGS
350
2C4
  3
DWGPROPS
350
B49
  0
DICTIONARY
  5
C0
330
2
100
AcDbDictionary
280
     1
281
     1
  3
ACAD_LAYERSTATES
360
327
  3
AMLAYER_GROUPCOLORS
360
C1
  0
DICTIONARY
  5
83
330
1F
100
AcDbDictionary
280
     1
281
     1
  0
DICTIONARY
  5
D7
102
{ACAD_REACTORS
330
C
102
}
330
C
100
AcDbDictionary
281
     1
  0
DICTIONARY
  5
D
102
{ACAD_REACTORS
330
C
102
}
330
C
100
AcDbDictionary
281
     1
  0
DICTIONARY
  5
1A
102
{ACAD_REACTORS
330
C
102
}
330
C
100
AcDbDictionary
281
     1
  3
Layout1
350
1E
  3
Layout2
350
26
  3
Model
350
22
  0
DICTIONARY
  5
D6
102
{ACAD_REACTORS
330
C
102
}
330
C
100
AcDbDictionary
281
     1
  0
DICTIONARY
  5
17
102
{ACAD_REACTORS
330
C
102
}
330
C
100
AcDbDictionary
281
     1
  3
Standard
350
18
  0
DICTIONARY
  5
19
102
{ACAD_REACTORS
330
C
102
}
330
C
100
AcDbDictionary
281
     1
  0
ACDBDICTIONARYWDFLT
  5
E
102
{ACAD_REACTORS
330
C
102
}
330
C
100
AcDbDictionary
281
     1
  3
Normal
350
F
100
AcDbDictionaryWithDefault
340
F
  0
DICTIONARY
  5
133
102
{ACAD_REACTORS
330
C
102
}
330
C
100
AcDbDictionary
281
     1
  3
Standard
350
134
  0
DICTIONARY
  5
B4A
102
{ACAD_REACTORS
330
C
102
}
330
C
100
AcDbDictionary
281
     1
  0
DICTIONARY
  5
34
102
{ACAD_REACTORS
330
C
102
}
330
C
100
AcDbDictionary
281
     1
  3
CTABLESTYLE
350
152
  3
DIMASSOC
350
AD
  3
INDEXCTL
350
35
  3
PROJECTNAME
350
B47
  0
DICTIONARY
  5
49
102
{ACAD_REACTORS
330
C
102
}
330
C
100
AcDbDictionary
281
     1
  3
AcmBOM
350
2CB
  3
AcmStdDictionary
350
4A
  3
AMDTSECTSYM_ARROWCOLOR
350
13D
  0
DICTIONARY
  5
2B
102
{ACAD_REACTORS
330
C
102
}
330
C
100
AcDbDictionary
281
     1
  0
DICTIONARY
  5
2C4
102
{ACAD_REACTORS
330
C
102
}
330
C
100
AcDbDictionary
281
     1
  0
XRECORD
  5
B49
102
{ACAD_REACTORS
330
C
102
}
330
C
100
AcDbXrecord
280
     1
  1
DWGPROPS COOKIE
  2

  3

  4

  6

  7

  8

  9

300
AmdtFileType=84
301
=
302
=
303
=
304
=
305
=
306
=
307
=
308
=
309
=
 40
0.0002461226851852
 41
2454055.600931713
 42
2454055.601177662
  1

 90
        1
  0
DICTIONARY
  5
327
102
{ACAD_REACTORS
330
C0
102
}
330
C0
100
AcDbDictionary
281
     1
  0
DICTIONARY
  5
C1
102
{ACAD_REACTORS
330
C0
102
}
330
C0
100
AcDbDictionary
280
     1
281
     1
  0
LAYOUT
  5
1E
102
{ACAD_XDICTIONARY
360
B4B
102
}
102
{ACAD_REACTORS
330
1A
102
}
330
1A
100
AcDbPlotSettings
  1

  2
none_device
  4
Letter_(8.50_x_11.00_Inches)
  6

 40
6.349999904632568
 41
6.349999904632568
 42
6.350006103515625
 43
6.350006103515625
 44
215.8999938964844
 45
279.3999938964844
 46
0.0
 47
0.0
 48
0.0
 49
0.0
140
0.0
141
0.0
142
1.0
143
1.0
 70
 15024
 72
     1
 73
     1
 74
     5
  7

 75
    16
147
1.0
148
0.0
149
0.0
100
AcDbLayout
  1
Layout1
 70
     1
 71
     1
 10
0.0
 20
0.0
 11
420.0
 21
297.0
 12
0.0
 22
0.0
 32
0.0
 14
1.000000000000000E+20
 24
1.000000000000000E+20
 34
1.000000000000000E+20
 15
-1.000000000000000E+20
 25
-1.000000000000000E+20
 35
-1.000000000000000E+20
146
0.0
 13
0.0
 23
0.0
 33
0.0
 16
1.0
 26
0.0
 36
0.0
 17
0.0
 27
1.0
 37
0.0
 76
     0
330
1B
  0
LAYOUT
  5
26
102
{ACAD_XDICTIONARY
360
B4F
102
}
102
{ACAD_REACTORS
330
1A
102
}
330
1A
100
AcDbPlotSettings
  1

  2
none_device
  4
Letter_(8.50_x_11.00_Inches)
  6

 40
6.349999904632568
 41
6.349999904632568
 42
6.350006103515625
 43
6.350006103515625
 44
215.8999938964844
 45
279.3999938964844
 46
0.0
 47
0.0
 48
0.0
 49
0.0
140
0.0
141
0.0
142
1.0
143
1.0
 70
 15024
 72
     1
 73
     1
 74
     5
  7

 75
    16
147
1.0
148
0.0
149
0.0
100
AcDbLayout
  1
Layout2
 70
     1
 71
     2
 10
0.0
 20
0.0
 11
12.0
 21
9.0
 12
0.0
 22
0.0
 32
0.0
 14
0.0
 24
0.0
 34
0.0
 15
0.0
 25
0.0
 35
0.0
146
0.0
 13
0.0
 23
0.0
 33
0.0
 16
1.0
 26
0.0
 36
0.0
 17
0.0
 27
1.0
 37
0.0
 76
     0
330
23
  0
LAYOUT
  5
22
102
{ACAD_XDICTIONARY
360
B4D
102
}
102
{ACAD_REACTORS
330
1A
102
}
330
1A
100
AcDbPlotSettings
  1

  2
none_device
  4
Letter_(8.50_x_11.00_Inches)
  6

 40
6.349999904632568
 41
6.349999904632568
 42
6.350006103515625
 43
6.350006103515625
 44
215.8999938964844
 45
279.3999938964844
 46
0.0
 47
0.0
 48
0.0
 49
0.0
140
0.0
141
0.0
142
1.0
143
1.0
 70
 11952
 72
     1
 73
     1
 74
     0
  7

 75
     0
147
1.0
148
-131.3052631578947
149
0.0
100
AcDbLayout
  1
Model
 70
     1
 71
     0
 10
0.0
 20
0.0
 11
12.0
 21
9.0
 12
0.0
 22
0.0
 32
0.0
 14
0.0
 24
0.0
 34
0.0
 15
0.0
 25
0.0
 35
0.0
146
0.0
 13
0.0
 23
0.0
 33
0.0
 16
1.0
 26
0.0
 36
0.0
 17
0.0
 27
1.0
 37
0.0
 76
     0
330
1F
  0
MLINESTYLE
  5
18
102
{ACAD_REACTORS
330
17
102
}
330
17
100
AcDbMlineStyle
  2
STANDARD
 70
     0
  3

 62
   256
 51
90.0
 52
90.0
 71
     2
 49
0.5
 62
   256
  6
BYLAYER
 49
-0.5
 62
   256
  6
BYLAYER
  0
ACDBPLACEHOLDER
  5
F
102
{ACAD_REACTORS
330
E
102
}
330
E
  0
TABLESTYLE
  5
134
102
{ACAD_REACTORS
330
133
102
}
330
133
100
AcDbTableStyle
  3
Standard
 70
     0
 71
     0
 40
1.5
 41
1.5
280
     0
281
     0
  7
STANDARD
140
4.5
170
     2
 62
     0
 63
     7
283
     0
274
    -2
284
     1
 64
     0
275
    -2
285
     1
 65
     0
276
    -2
286
     1
 66
     0
277
    -2
287
     1
 67
     0
278
    -2
288
     1
 68
     0
279
    -2
289
     1
 69
     0
  7
STANDARD
140
6.0
170
     5
 62
     0
 63
     7
283
     0
274
    -2
284
     1
 64
     0
275
    -2
285
     1
 65
     0
276
    -2
286
     1
 66
     0
277
    -2
287
     1
 67
     0
278
    -2
288
     1
 68
     0
279
    -2
289
     1
 69
     0
  7
STANDARD
140
4.5
170
     5
 62
     0
 63
     7
283
     0
274
    -2
284
     1
 64
     0
275
    -2
285
     1
 65
     0
276
    -2
286
     1
 66
     0
277
    -2
287
     1
 67
     0
278
    -2
288
     1
 68
     0
279
    -2
289
     1
 69
     0
  0
DICTIONARYVAR
  5
152
102
{ACAD_REACTORS
330
34
102
}
330
34
100
DictionaryVariables
280
     0
  1
STANDARD
  0
DICTIONARYVAR
  5
AD
102
{ACAD_REACTORS
330
34
102
}
330
34
100
DictionaryVariables
280
     0
  1
2
  0
DICTIONARYVAR
  5
35
102
{ACAD_REACTORS
330
34
102
}
330
34
100
DictionaryVariables
280
     0
  1
0
  0
DICTIONARYVAR
  5
B47
102
{ACAD_REACTORS
330
34
102
}
330
34
100
DictionaryVariables
280
     0
  1

  0
DICTIONARY
  5
2CB
102
{ACAD_REACTORS
330
49
102
}
330
49
100
AcDbDictionary
281
     1
  0
DICTIONARY
  5
4A
102
{ACAD_REACTORS
330
49
102
}
330
49
100
AcDbDictionary
281
     1
  0
XRECORD
  5
13D
102
{ACAD_REACTORS
330
49
102
}
330
49
100
AcDbXrecord
280
     1
 90
-1023410169
  0
DICTIONARY
  5
B4B
330
1E
100
AcDbDictionary
280
     1
281
     1
  3
ACAD_XREC_ROUNDTRIP
360
B4C
  0
DICTIONARY
  5
B4F
330
26
100
AcDbDictionary
280
     1
281
     1
  3
ACAD_XREC_ROUNDTRIP
360
B50
  0
DICTIONARY
  5
B4D
330
22
100
AcDbDictionary
280
     1
281
     1
  3
ACAD_XREC_ROUNDTRIP
360
B4E
  0
XRECORD
  5
B4C
102
{ACAD_REACTORS
330
B4B
102
}
330
B4B
100
AcDbXrecord
280
     1
102
SHADEPLOT
 70
     0
102
SHADEPLOTRESLEVEL
 70
     2
102
SHADEPLOTCUSTOMDPI
 70
   300
  0
XRECORD
  5
B50
102
{ACAD_REACTORS
330
B4F
102
}
330
B4F
100
AcDbXrecord
280
     1
102
SHADEPLOT
 70
     0
102
SHADEPLOTRESLEVEL
 70
     2
102
SHADEPLOTCUSTOMDPI
 70
   300
  0
XRECORD
  5
B4E
102
{ACAD_REACTORS
330
B4D
102
}
330
B4D
100
AcDbXrecord
280
     1
102
SHADEPLOT
 70
     0
102
SHADEPLOTRESLEVEL
 70
     2
102
SHADEPLOTCUSTOMDPI
 70
   300
  0
ENDSEC
  0
EOF
