  0
SECTION
  2
HEADER
  9
$ACADVER
  1
AC1021
  9
$ACADMAINTVER
 70
    50
  9
$DWGCODEPAGE
  3
ANSI_1250
  9
$LASTSAVEDBY
  1
onovak
  9
$INSBASE
 10
0.0
 20
0.0
 30
0.0
  9
$EXTMIN
 10
494.2476730865737
 20
110.0299996862071
 30
-0.0015258207003583
  9
$EXTMAX
 10
894.3282265440949
 20
236.3922278461888
 30
0.0000000349246037
  9
$LIMMIN
 10
0.0
 20
0.0
  9
$LIMMAX
 10
420.0
 20
297.0
  9
$ORTHOMODE
 70
     1
  9
$REGENMODE
 70
     1
  9
$FILLMODE
 70
     1
  9
$QTEXTMODE
 70
     0
  9
$MIRRTEXT
 70
     1
  9
$LTSCALE
 40
1.0
  9
$ATTMODE
 70
     1
  9
$TEXTSIZE
 40
5.0
  9
$TRACEWID
 40
0.05
  9
$TEXTSTYLE
  7
STANDARD
  9
$CLAYER
  8
BEMASS
  9
$CELTYPE
  6
BYLAYER
  9
$CECOLOR
 62
   256
  9
$CELTSCALE
 40
1.0
  9
$DISPSILH
 70
     0
  9
$DIMSCALE
 40
1.0
  9
$DIMASZ
 40
0.12
  9
$DIMEXO
 40
0.05
  9
$DIMDLI
 40
0.5
  9
$DIMRND
 40
0.0
  9
$DIMDLE
 40
0.0
  9
$DIMEXE
 40
0.1
  9
$DIMTP
 40
0.1
  9
$DIMTM
 40
0.1
  9
$DIMTXT
 40
0.12
  9
$DIMCEN
 40
0.0
  9
$DIMTSZ
 40
0.0
  9
$DIMTOL
 70
     0
  9
$DIMLIM
 70
     0
  9
$DIMTIH
 70
     1
  9
$DIMTOH
 70
     1
  9
$DIMSE1
 70
     0
  9
$DIMSE2
 70
     0
  9
$DIMTAD
 70
     0
  9
$DIMZIN
 70
     7
  9
$DIMBLK
  1

  9
$DIMASO
 70
     1
  9
$DIMSHO
 70
     1
  9
$DIMPOST
  1

  9
$DIMAPOST
  1
mm
  9
$DIMALT
 70
     0
  9
$DIMALTD
 70
     2
  9
$DIMALTF
 40
25.4
  9
$DIMLFAC
 40
1.0
  9
$DIMTOFL
 70
     0
  9
$DIMTVP
 40
0.0
  9
$DIMTIX
 70
     0
  9
$DIMSOXD
 70
     0
  9
$DIMSAH
 70
     0
  9
$DIMBLK1
  1

  9
$DIMBLK2
  1

  9
$DIMSTYLE
  2
AM_ANSI
  9
$DIMCLRD
 70
   256
  9
$DIMCLRE
 70
   256
  9
$DIMCLRT
 70
     2
  9
$DIMTFAC
 40
0.71
  9
$DIMGAP
 40
0.06
  9
$DIMJUST
 70
     0
  9
$DIMSD1
 70
     0
  9
$DIMSD2
 70
     0
  9
$DIMTOLJ
 70
     1
  9
$DIMTZIN
 70
     7
  9
$DIMALTZ
 70
     0
  9
$DIMALTTZ
 70
     0
  9
$DIMUPT
 70
     0
  9
$DIMDEC
 70
     4
  9
$DIMTDEC
 70
     4
  9
$DIMALTU
 70
     2
  9
$DIMALTTD
 70
     4
  9
$DIMTXSTY
  7
STANDARD
  9
$DIMAUNIT
 70
     0
  9
$DIMADEC
 70
     0
  9
$DIMALTRND
 40
0.0
  9
$DIMAZIN
 70
     2
  9
$DIMDSEP
 70
    46
  9
$DIMATFIT
 70
     3
  9
$DIMFRAC
 70
     0
  9
$DIMLDRBLK
  1

  9
$DIMLUNIT
 70
     2
  9
$DIMLWD
 70
    -1
  9
$DIMLWE
 70
    -1
  9
$DIMTMOVE
 70
     0
  9
$DIMFXL
 40
1.0
  9
$DIMFXLON
 70
     0
  9
$DIMJOGANG
 40
0.7853981633974483
  9
$DIMTFILL
 70
     0
  9
$DIMTFILLCLR
 70
     0
  9
$DIMARCSYM
 70
     1
  9
$DIMLTYPE
  6
BYBLOCK
  9
$DIMLTEX1
  6
BYBLOCK
  9
$DIMLTEX2
  6
BYBLOCK
  9
$LUNITS
 70
     2
  9
$LUPREC
 70
     2
  9
$SKETCHINC
 40
0.1
  9
$FILLETRAD
 40
6.0
  9
$AUNITS
 70
     0
  9
$AUPREC
 70
     0
  9
$MENU
  1
acad
  9
$ELEVATION
 40
0.0
  9
$PELEVATION
 40
0.0
  9
$THICKNESS
 40
0.0
  9
$LIMCHECK
 70
     0
  9
$CHAMFERA
 40
0.0
  9
$CHAMFERB
 40
0.0
  9
$CHAMFERC
 40
0.0
  9
$CHAMFERD
 40
0.0
  9
$SKPOLY
 70
     0
  9
$TDCREATE
 40
2450039.320782986
  9
$TDUCREATE
 40
2450039.279116320
  9
$TDUPDATE
 40
2455895.298492245
  9
$TDUUPDATE
 40
2455895.256825579
  9
$TDINDWG
 40
0.5863854861
  9
$TDUSRTIMER
 40
0.5863854861
  9
$USRTIMER
 70
     1
  9
$ANGBASE
 50
0.0
  9
$ANGDIR
 70
     0
  9
$PDMODE
 70
     0
  9
$PDSIZE
 40
0.0
  9
$PLINEWID
 40
0.0
  9
$SPLFRAME
 70
     0
  9
$SPLINETYPE
 70
     6
  9
$SPLINESEGS
 70
     8
  9
$HANDSEED
  5
B9F
  9
$SURFTAB1
 70
     6
  9
$SURFTAB2
 70
     6
  9
$SURFTYPE
 70
     6
  9
$SURFU
 70
     6
  9
$SURFV
 70
     6
  9
$UCSBASE
  2

  9
$UCSNAME
  2

  9
$UCSORG
 10
0.0
 20
0.0
 30
0.0
  9
$UCSXDIR
 10
1.0
 20
0.0
 30
0.0
  9
$UCSYDIR
 10
0.0
 20
1.0
 30
0.0
  9
$UCSORTHOREF
  2

  9
$UCSORTHOVIEW
 70
     0
  9
$UCSORGTOP
 10
0.0
 20
0.0
 30
0.0
  9
$UCSORGBOTTOM
 10
0.0
 20
0.0
 30
0.0
  9
$UCSORGLEFT
 10
0.0
 20
0.0
 30
0.0
  9
$UCSORGRIGHT
 10
0.0
 20
0.0
 30
0.0
  9
$UCSORGFRONT
 10
0.0
 20
0.0
 30
0.0
  9
$UCSORGBACK
 10
0.0
 20
0.0
 30
0.0
  9
$PUCSBASE
  2

  9
$PUCSNAME
  2

  9
$PUCSORG
 10
0.0
 20
0.0
 30
0.0
  9
$PUCSXDIR
 10
1.0
 20
0.0
 30
0.0
  9
$PUCSYDIR
 10
0.0
 20
1.0
 30
0.0
  9
$PUCSORTHOREF
  2

  9
$PUCSORTHOVIEW
 70
     0
  9
$PUCSORGTOP
 10
0.0
 20
0.0
 30
0.0
  9
$PUCSORGBOTTOM
 10
0.0
 20
0.0
 30
0.0
  9
$PUCSORGLEFT
 10
0.0
 20
0.0
 30
0.0
  9
$PUCSORGRIGHT
 10
0.0
 20
0.0
 30
0.0
  9
$PUCSORGFRONT
 10
0.0
 20
0.0
 30
0.0
  9
$PUCSORGBACK
 10
0.0
 20
0.0
 30
0.0
  9
$USERI1
 70
     0
  9
$USERI2
 70
     0
  9
$USERI3
 70
     0
  9
$USERI4
 70
     0
  9
$USERI5
 70
     0
  9
$USERR1
 40
0.0
  9
$USERR2
 40
0.0
  9
$USERR3
 40
0.0
  9
$USERR4
 40
0.0
  9
$USERR5
 40
0.0
  9
$WORLDVIEW
 70
     1
  9
$SHADEDGE
 70
     3
  9
$SHADEDIF
 70
    70
  9
$TILEMODE
 70
     1
  9
$MAXACTVP
 70
    16
  9
$PINSBASE
 10
0.0
 20
0.0
 30
0.0
  9
$PLIMCHECK
 70
     0
  9
$PEXTMIN
 10
1.000000000000000E+20
 20
1.000000000000000E+20
 30
1.000000000000000E+20
  9
$PEXTMAX
 10
-1.000000000000000E+20
 20
-1.000000000000000E+20
 30
-1.000000000000000E+20
  9
$PLIMMIN
 10
0.0
 20
0.0
  9
$PLIMMAX
 10
12.0
 20
9.0
  9
$UNITMODE
 70
     0
  9
$VISRETAIN
 70
     0
  9
$PLINEGEN
 70
     0
  9
$PSLTSCALE
 70
     0
  9
$TREEDEPTH
 70
  3020
  9
$CMLSTYLE
  2
STANDARD
  9
$CMLJUST
 70
     0
  9
$CMLSCALE
 40
1.0
  9
$PROXYGRAPHICS
 70
     1
  9
$MEASUREMENT
 70
     0
  9
$CELWEIGHT
370
    -1
  9
$ENDCAPS
280
     0
  9
$JOINSTYLE
280
     0
  9
$LWDISPLAY
290
     0
  9
$INSUNITS
 70
     0
  9
$HYPERLINKBASE
  1

  9
$STYLESHEET
  1
monochrome.ctb
  9
$XEDIT
290
     1
  9
$CEPSNTYPE
380
     0
  9
$PSTYLEMODE
290
     1
  9
$FINGERPRINTGUID
  2

  9
$VERSIONGUID
  2
{CDB8CDF0-CD63-4E53-A09E-4D5CCDEFA125}
  9
$EXTNAMES
290
     1
  9
$PSVPSCALE
 40
0.0
  9
$OLESTARTUP
290
     0
  9
$SORTENTS
280
   127
  9
$INDEXCTL
280
     0
  9
$HIDETEXT
280
     0
  9
$XCLIPFRAME
290
     0
  9
$HALOGAP
280
     0
  9
$OBSCOLOR
 70
   257
  9
$OBSLTYPE
280
     0
  9
$INTERSECTIONDISPLAY
280
     0
  9
$INTERSECTIONCOLOR
 70
   257
  9
$DIMASSOC
280
     1
  9
$PROJECTNAME
  1

  9
$CAMERADISPLAY
290
     0
  9
$LENSLENGTH
 40
50.0
  9
$CAMERAHEIGHT
 40
0.0
  9
$STEPSPERSEC
 40
2.0
  9
$STEPSIZE
 40
6.0
  9
$3DDWFPREC
 40
2.0
  9
$PSOLWIDTH
 40
0.25
  9
$PSOLHEIGHT
 40
4.0
  9
$LOFTANG1
 40
1.570796326794896
  9
$LOFTANG2
 40
1.570796326794896
  9
$LOFTMAG1
 40
0.0
  9
$LOFTMAG2
 40
0.0
  9
$LOFTPARAM
 70
     7
  9
$LOFTNORMALS
280
     1
  9
$LATITUDE
 40
37.795
  9
$LONGITUDE
 40
-122.394
  9
$NORTHDIRECTION
 40
0.0
  9
$TIMEZONE
 70
 -8000
  9
$LIGHTGLYPHDISPLAY
280
     1
  9
$TILEMODELIGHTSYNCH
280
     1
  9
$CMATERIAL
347
5D8
  9
$SOLIDHIST
280
     1
  9
$SHOWHIST
280
     1
  9
$DWFFRAME
280
     2
  9
$DGNFRAME
280
     0
  9
$REALWORLDSCALE
290
     1
  9
$INTERFERECOLOR
 62
     1
  9
$INTERFEREOBJVS
345
5FA
  9
$INTERFEREVPVS
346
5F7
  9
$CSHADOW
280
     0
  9
$SHADOWPLANELOCATION
 40
0.0
  0
ENDSEC
  0
SECTION
  2
CLASSES
  0
CLASS
  1
DICTIONARYVAR
  2
AcDbDictionaryVar
  3
ObjectDBX Classes
 90
        0
 91
       21
280
     0
281
     0
  0
CLASS
  1
ACDBDICTIONARYWDFLT
  2
AcDbDictionaryWithDefault
  3
ObjectDBX Classes
 90
        0
 91
        1
280
     0
281
     0
  0
CLASS
  1
MATERIAL
  2
AcDbMaterial
  3
ObjectDBX Classes
 90
     1153
 91
        3
280
     0
281
     0
  0
CLASS
  1
VISUALSTYLE
  2
AcDbVisualStyle
  3
ObjectDBX Classes
 90
     4095
 91
       16
280
     0
281
     0
  0
CLASS
  1
TABLESTYLE
  2
AcDbTableStyle
  3
ObjectDBX Classes
 90
     4095
 91
        1
280
     0
281
     0
  0
CLASS
  1
SCALE
  2
AcDbScale
  3
ObjectDBX Classes
 90
     1153
 91
       33
280
     0
281
     0
  0
CLASS
  1
MLEADERSTYLE
  2
AcDbMLeaderStyle
  3
ACDB_MLEADERSTYLE_CLASS
 90
     4095
 91
        1
280
     0
281
     0
  0
CLASS
  1
ACME_DOCUMENT
  2
AcMeDbDoc
  3
AcMeServices
 90
     1024
 91
        2
280
     0
281
     0
  0
CLASS
  1
AMGSETTINGSOBJ
  2
AmgSettingsObj
  3
"AcadM|Product Description: AutoCAD Mechanical|Company: Autodesk, Inc."
 90
     1024
 91
        3
280
     0
281
     0
  0
CLASS
  1
AMGOBJPROPCFG
  2
AmgObjPropCfg
  3
"AmgLay|Product Description: AutoCAD Mechanical|Company: Autodesk, Inc."
 90
     1025
 91
        1
280
     0
281
     0
  0
CLASS
  1
EXACXREFPANELOBJECT
  2
ExAcXREFPanelObject
  3
EXAC_ESW
 90
     1025
 91
        1
280
     0
281
     0
  0
CLASS
  1
NPOCOLLECTION
  2
AcDbImpNonPersistentObjectsCollection
  3
ObjectDBX Classes
 90
     1153
 91
        1
280
     0
281
     0
  0
CLASS
  1
ACMECOMMANDHISTORY
  2
AcMeCommandHistory
  3
AcMeServices
 90
     1024
 91
        1
280
     0
281
     0
  0
CLASS
  1
ACMESCOPE
  2
AcMeScope
  3
AcMeServices
 90
     1024
 91
        1
280
     0
281
     0
  0
CLASS
  1
ACIMSYSVARMAN
  2
AcImSysVarManager
  3
AcMeServices
 90
     1024
 91
        5
280
     0
281
     0
  0
CLASS
  1
ACIMINTSYSVAR
  2
AcImIntSysVar
  3
AcMeServices
 90
     1024
 91
       27
280
     0
281
     0
  0
CLASS
  1
ACMEDRAWINGMAN
  2
AcMeDrawingMan
  3
AcMeServices
 90
     1024
 91
        1
280
     0
281
     0
  0
CLASS
  1
ACMEVIEW
  2
AcMeView
  3
AcMeServices
 90
     1024
 91
        1
280
     0
281
     0
  0
CLASS
  1
ACDBENTITYCACHE
  2
AcMeEntityCache
  3
AcMeServices
 90
     1024
 91
        1
280
     0
281
     0
  0
CLASS
  1
GSMANAGER
  2
AcMeGSManager
  3
AcMeServices
 90
     1024
 91
        1
280
     0
281
     0
  0
CLASS
  1
AMDTINTERNALREACTOR
  2
AmdtInternalReactor
  3
AcMeServices
 90
     1024
 91
        2
280
     0
281
     0
  0
CLASS
  1
ACMESTATEMGR
  2
AcMeStateMgr
  3
AcMeServices
 90
     1024
 91
        1
280
     0
281
     0
  0
CLASS
  1
ACGREFMASTER
  2
AcGrefMaster
  3
AcAttribServices
 90
     1024
 91
        1
280
     0
281
     0
  0
CLASS
  1
AM_DRAWING_MGR
  2
AcDmDwgMgr
  3
AcMechDwgViewMgmt
 90
     1024
 91
        1
280
     0
281
     0
  0
CLASS
  1
AM_DWG_DOCUMENT
  2
AcDmDwgDocument
  3
AcMechDwgViewMgmt
 90
     1024
 91
        1
280
     0
281
     0
  0
CLASS
  1
AM_DWG_SHEET
  2
AcDmSheet
  3
AcMechDwgViewMgmt
 90
     1024
 91
        1
280
     0
281
     0
  0
CLASS
  1
AM_VIEWDIMPARMAP
  2
AcDmViewDimParMap
  3
AcMechDwgViewMgmt
 90
     1024
 91
        1
280
     0
281
     0
  0
CLASS
  1
ACIMREALSYSVAR
  2
AcImRealSysVar
  3
AcMeServices
 90
     1024
 91
        1
280
     0
281
     0
  0
CLASS
  1
AM_DWGMGR_NAME
  2
AcDmDwgMgrName
  3
AcMechDwgViewMgmt
 90
     1024
 91
        1
280
     0
281
     0
  0
CLASS
  1
ACME_DATABASE
  2
AcMeDbDatabase
  3
AcMeServices
 90
     1024
 91
        2
280
     0
281
     0
  0
CLASS
  1
ACRFINSADJUSTERMGR
  2
AcRfInsAdjusterMgr
  3
AcMeServices
 90
     1024
 91
        1
280
     0
281
     0
  0
CLASS
  1
ACGREFACADMASTER
  2
AcGrefacadMaster
  3
AcGrefServices
 90
     1024
 91
        1
280
     0
281
     0
  0
CLASS
  1
AMDTMENUSTATEMGR
  2
AmdtMenuStateMgr
  3
McadcomServices
 90
     1024
 91
        1
280
     0
281
     0
  0
CLASS
  1
AMDTMCOMMENUSTATE
  2
AmdtMcomMenuState
  3
McadcomServices
 90
     1024
 91
        1
280
     0
281
     0
  0
CLASS
  1
AMIMASTER
  2
AmiMaster
  3
AmiServices
 90
     1024
 91
        1
280
     0
281
     0
  0
CLASS
  1
MAPIAMMOUDLE
  2
MApiAmModule
  3
MApiAmServices
 90
     1024
 91
        1
280
     0
281
     0
  0
CLASS
  1
ACIMSTRSYSVAR
  2
AcImStrSysVar
  3
AcMeServices
 90
     1024
 91
        5
280
     0
281
     0
  0
CLASS
  1
AMDTADMENUSTATE
  2
AmdtAdMenuState
  3
DesignerServices
 90
     1024
 91
        1
280
     0
281
     0
  0
CLASS
  1
ADAPPL
  2
AcAdAppl
  3
DesignerServices
 90
     1024
 91
        1
280
     0
281
     0
  0
CLASS
  1
DEPMGR
  2
AcAdDepMgr
  3
DesignerServices
 90
     1024
 91
        1
280
     0
281
     0
  0
CLASS
  1
PARAMMGR
  2
AcAdParamMgr
  3
DesignerServices
 90
     1024
 91
        1
280
     0
281
     0
  0
CLASS
  1
PARAMSCOPE
  2
AcAdParamScope
  3
DesignerServices
 90
     1024
 91
        1
280
     0
281
     0
  0
CLASS
  1
NAMEDAPPL
  2
AcAdNamedAppl
  3
DesignerServices
 90
     1024
 91
        1
280
     0
281
     0
  0
CLASS
  1
AMDTDMMENUSTATE
  2
AmdtDmMenuState
  3
AcMechDwgViewMgmt
 90
     1024
 91
        1
280
     0
281
     0
  0
CLASS
  1
AMDTAMMENUSTATE
  2
AmdtAmMenuState
  3
DesignerAssemblies
 90
     1024
 91
        1
280
     0
281
     0
  0
CLASS
  1
ACAMPROJECT
  2
AcAmProject
  3
DesignerAssemblies
 90
     1024
 91
        1
280
     0
281
     0
  0
CLASS
  1
ACAMGRCOMPDEF
  2
AcAmGrCompDef
  3
DesignerAssemblies
 90
     1024
 91
        1
280
     0
281
     0
  0
CLASS
  1
ACCMCONTEXT
  2
AcCmContext
  3
DesignerAssemblies
 90
     1024
 91
        1
280
     0
281
     0
  0
CLASS
  1
ACAMCOMPDEF
  2
AcAmCompDef
  3
DesignerAssemblies
 90
     1024
 91
        1
280
     0
281
     0
  0
CLASS
  1
ACAMCOMPDEFMGR
  2
AcAmCompDefMgr
  3
DesignerAssemblies
 90
     1024
 91
        1
280
     0
281
     0
  0
CLASS
  1
AMCONTEXTMGR
  2
AcAmContextMgr
  3
DesignerAssemblies
 90
     1024
 91
        1
280
     0
281
     0
  0
CLASS
  1
ACAMCONTEXTMODELER
  2
AcAmContextModeler
  3
DesignerAssemblies
 90
     1024
 91
        1
280
     0
281
     0
  0
CLASS
  1
ACMDATADICTIONARY
  2
AcmDataDictionary
  3
"AcmSymBB|Product Description: AutoCAD Mechanical|Company: Autodesk, Inc."
 90
     1024
 91
        1
280
     0
281
     0
  0
CLASS
  1
CATALOGSTATE
  2
AcAmCatalogState
  3
DesignerAssemblies
 90
     1024
 91
        1
280
     0
281
     0
  0
CLASS
  1
ACAMGRCOMPDEFSET
  2
AcAmGrCompDefSet
  3
DesignerAssemblies
 90
     1024
 91
        1
280
     0
281
     0
  0
CLASS
  1
AMDTBROWSERDBTAB
  2
AmdtBrowserDbTab
  3
McadcomServices
 90
     1024
 91
        1
280
     0
281
     0
  0
CLASS
  1
CBROWSERAPPOBJECT
  2
CBrowserAppObject
  3
McadcomServices
 90
     1024
 91
        3
280
     0
281
     0
  0
CLASS
  1
DM_PLACEHOLDER
  2
AcDmSelsetPlaceholder
  3
AcMechDwgViewMgmt
 90
     1024
 91
        1
280
     0
281
     0
  0
CLASS
  1
ACAMGFILTERDAT
  2
AcAmgFilterDat
  3
"AcadM|Product Description: AutoCAD Mechanical|Company: Autodesk, Inc."
 90
     1024
 91
        6
280
     0
281
     0
  0
CLASS
  1
ACMSTANDARDISO
  2
AcmStandardISO
  3
"Amdt_StdImp|Product Description: AutoCAD Mechanical|Company: Autodesk, Inc."
 90
     1024
 91
        1
280
     0
281
     0
  0
CLASS
  1
AMDTEDGESTANDARDISO13715
  2
AmdtEdgeStdISO13715
  3
"Amdt_StdImp|Product Description: AutoCAD Mechanical|Company: Autodesk, Inc."
 90
     1024
 91
        1
280
     0
281
     0
  0
CLASS
  1
ACMSURFSTANDARDISO2002
  2
AcmSurfTextStdISO2002
  3
"Amdt_StdImp|Product Description: AutoCAD Mechanical|Company: Autodesk, Inc."
 90
     1024
 91
        1
280
     0
281
     0
  0
CLASS
  1
ACMFCFSTANDARDISO
  2
AcmFCFStdISO
  3
"Amdt_StdImp|Product Description: AutoCAD Mechanical|Company: Autodesk, Inc."
 90
     1024
 91
        1
280
     0
281
     0
  0
CLASS
  1
ACMWELDSTANDARDISO
  2
AcmWeldingStdISO
  3
"Amdt_StdImp|Product Description: AutoCAD Mechanical|Company: Autodesk, Inc."
 90
     1024
 91
        1
280
     0
281
     0
  0
CLASS
  1
ACMIDSTANDARDISO
  2
AcmIdStdISO
  3
"Amdt_StdImp|Product Description: AutoCAD Mechanical|Company: Autodesk, Inc."
 90
     1024
 91
        1
280
     0
281
     0
  0
CLASS
  1
ACMDATUMSTANDARDISO
  2
AcmDatumStdISO
  3
"Amdt_StdImp|Product Description: AutoCAD Mechanical|Company: Autodesk, Inc."
 90
     1024
 91
        1
280
     0
281
     0
  0
CLASS
  1
ACMBOMSTANDARDISO
  2
AcmBOMStdISO
  3
"Amdt_StdImp|Product Description: AutoCAD Mechanical|Company: Autodesk, Inc."
 90
     1024
 91
        1
280
     0
281
     0
  0
CLASS
  1
ACMDETAILSTANDARDISO
  2
AmdtDetailSymStdISO
  3
"Amdt_StdImp|Product Description: AutoCAD Mechanical|Company: Autodesk, Inc."
 90
     1024
 91
        1
280
     0
281
     0
  0
CLASS
  1
ACMSECTIONSTANDARDISO2001
  2
AmdtSectionSymStdISO2001
  3
"Amdt_StdImp|Product Description: AutoCAD Mechanical|Company: Autodesk, Inc."
 90
     1024
 91
        1
280
     0
281
     0
  0
CLASS
  1
ACMCENTERLINESTANDARDISO
  2
AmdtCenterLineStdISO
  3
"Amdt_StdImp|Product Description: AutoCAD Mechanical|Company: Autodesk, Inc."
 90
     1024
 91
        1
280
     0
281
     0
  0
CLASS
  1
ACMTHREADLINESTANDARDISO
  2
AmdtThreadLineStdISO
  3
"Amdt_StdImp|Product Description: AutoCAD Mechanical|Company: Autodesk, Inc."
 90
     1024
 91
        1
280
     0
281
     0
  0
CLASS
  1
ACMNOTESTANDARDISO
  2
AmdtNoteStdISO
  3
"Amdt_StdImp|Product Description: AutoCAD Mechanical|Company: Autodesk, Inc."
 90
     1024
 91
        1
280
     0
281
     0
  0
CLASS
  1
AMDTNOTETEMPLATEDB
  2
AmdtNoteTemplateDB
  3
AcmSymBB|Product Description: AutoCAD Mechanical|Company: Autodesk, Inc.
 90
     1024
 91
       12
280
     0
281
     0
  0
CLASS
  1
ACMTAPERSTANDARDISO
  2
AcmTaperStdISO
  3
"Amdt_StdImp|Product Description: AutoCAD Mechanical|Company: Autodesk, Inc."
 90
     1024
 91
        1
280
     0
281
     0
  0
CLASS
  1
ACMANOOTATIONVIEWSTANDARDISO
  2
AmdtAnViewStdISO
  3
"Amdt_StdImp|Product Description: AutoCAD Mechanical|Company: Autodesk, Inc."
 90
     1024
 91
        1
280
     0
281
     0
  0
CLASS
  1
ACAMGLAYSTD
  2
AcAmgLayStd
  3
"AmgLay|Product Description: AutoCAD Mechanical|Company: Autodesk, Inc."
 90
     1024
 91
        2
280
     0
281
     0
  0
CLASS
  1
ACAMGDIMSTD
  2
AcAmgDimStd
  3
"AmgDim|Product Description: AutoCAD Mechanical|Company: Autodesk, Inc."
 90
     1024
 91
        2
280
     0
281
     0
  0
CLASS
  1
ACAMGHOLECHARTSTDISO
  2
AcAmgHoleChartStdISO
  3
AmgDim|Product Description: AutoCAD Mechanical|Company: Autodesk, Inc.
 90
     1024
 91
        1
280
     0
281
     0
  0
CLASS
  1
ACAMGTITLESTD
  2
AcAmgTitleStd
  3
"AmgTitle|Product Description: AutoCAD Mechanical|Company: Autodesk, Inc."
 90
     4095
 91
        2
280
     0
281
     0
  0
CLASS
  1
CELLSTYLEMAP
  2
AcDbCellStyleMap
  3
ObjectDBX Classes
 90
     1152
 91
        3
280
     0
281
     0
  0
CLASS
  1
ACMSTANDARDANSI
  2
AcmStandardANSI
  3
"Amdt_StdImp|Product Description: AutoCAD Mechanical|Company: Autodesk, Inc."
 90
     1024
 91
        1
280
     0
281
     0
  0
CLASS
  1
ACMSURFSTANDARDANSI
  2
AcmSurfTextStdANSI
  3
"Amdt_StdImp|Product Description: AutoCAD Mechanical|Company: Autodesk, Inc."
 90
     1024
 91
        1
280
     0
281
     0
  0
CLASS
  1
ACMFCFSTANDARDANSI
  2
AcmFCFStdANSI
  3
"Amdt_StdImp|Product Description: AutoCAD Mechanical|Company: Autodesk, Inc."
 90
     1024
 91
        1
280
     0
281
     0
  0
CLASS
  1
ACMWELDSTANDARDANSI
  2
AcmWeldingStdANSI
  3
"Amdt_StdImp|Product Description: AutoCAD Mechanical|Company: Autodesk, Inc."
 90
     1024
 91
        1
280
     0
281
     0
  0
CLASS
  1
ACMIDSTANDARDANSI
  2
AcmIdStdANSI
  3
"Amdt_StdImp|Product Description: AutoCAD Mechanical|Company: Autodesk, Inc."
 90
     1024
 91
        1
280
     0
281
     0
  0
CLASS
  1
ACMDATUMSTANDARDANSI
  2
AcmDatumStdANSI
  3
"Amdt_StdImp|Product Description: AutoCAD Mechanical|Company: Autodesk, Inc."
 90
     1024
 91
        1
280
     0
281
     0
  0
CLASS
  1
ACMBOMSTANDARDANSI
  2
AcmBOMStdANSI
  3
"Amdt_StdImp|Product Description: AutoCAD Mechanical|Company: Autodesk, Inc."
 90
     1024
 91
        1
280
     0
281
     0
  0
CLASS
  1
ACMDETAILSTANDARDANSI
  2
AmdtDetailSymStdANSI
  3
"Amdt_StdImp|Product Description: AutoCAD Mechanical|Company: Autodesk, Inc."
 90
     1024
 91
        1
280
     0
281
     0
  0
CLASS
  1
ACMSECTIONSTANDARDANSI
  2
AmdtSectionSymStdANSI
  3
"Amdt_StdImp|Product Description: AutoCAD Mechanical|Company: Autodesk, Inc."
 90
     1024
 91
        1
280
     0
281
     0
  0
CLASS
  1
ACMCENTERLINESTANDARDANSI
  2
AmdtCenterLineStdANSI
  3
"Amdt_StdImp|Product Description: AutoCAD Mechanical|Company: Autodesk, Inc."
 90
     1024
 91
        1
280
     0
281
     0
  0
CLASS
  1
ACMTHREADLINESTANDARDANSI
  2
AmdtThreadLineStdANSI
  3
"Amdt_StdImp|Product Description: AutoCAD Mechanical|Company: Autodesk, Inc."
 90
     1024
 91
        1
280
     0
281
     0
  0
CLASS
  1
ACMNOTESTANDARDANSI
  2
AmdtNoteStdANSI
  3
"Amdt_StdImp|Product Description: AutoCAD Mechanical|Company: Autodesk, Inc."
 90
     1024
 91
        1
280
     0
281
     0
  0
CLASS
  1
ACMTAPERSTANDARDANSI
  2
AcmTaperStdANSI
  3
"Amdt_StdImp|Product Description: AutoCAD Mechanical|Company: Autodesk, Inc."
 90
     1024
 91
        1
280
     0
281
     0
  0
CLASS
  1
ACMANOOTATIONVIEWSTANDARDANSI
  2
AmdtAnViewStdANSI
  3
"Amdt_StdImp|Product Description: AutoCAD Mechanical|Company: Autodesk, Inc."
 90
     1024
 91
        1
280
     0
281
     0
  0
CLASS
  1
ACAMGHOLECHARTSTDANSI
  2
AcAmgHoleChartStdANSI
  3
AmgDim|Product Description: AutoCAD Mechanical|Company: Autodesk, Inc.
 90
     1024
 91
        1
280
     0
281
     0
  0
ENDSEC
  0
SECTION
  2
TABLES
  0
TABLE
  2
VPORT
  5
199
330
0
100
AcDbSymbolTable
 70
     1
  0
VPORT
  5
5D5
330
199
100
AcDbSymbolTableRecord
100
AcDbViewportTableRecord
  2
*Active
 70
     0
 10
0.0
 20
0.0
 11
1.0
 21
1.0
 12
690.3670151908896
 22
175.0119026831598
 13
0.0
 23
0.0
 14
1.0
 24
1.0
 15
0.0
 25
0.0
 16
0.0
 26
0.0
 36
1.0
 17
0.0
 27
0.0
 37
0.0
 40
250.6803290890751
 41
1.800561797752808
 42
50.0
 43
0.0
 44
0.0
 50
0.0
 51
0.0
 71
     0
 72
   100
 73
     1
 74
     1
 75
     0
 76
     0
 77
     0
 78
     0
281
     0
 65
     1
110
0.0
120
0.0
130
0.0
111
1.0
121
0.0
131
0.0
112
0.0
122
1.0
132
0.0
 79
     0
146
0.0
348
5F6
 60
     3
 61
     5
292
     1
282
     1
141
0.0
142
0.0
 63
   250
421
  3355443
  0
ENDTAB
  0
TABLE
  2
LTYPE
  5
194
330
0
100
AcDbSymbolTable
 70
    24
  0
LTYPE
  5
195
330
194
100
AcDbSymbolTableRecord
100
AcDbLinetypeTableRecord
  2
BYBLOCK
 70
     0
  3

 72
    65
 73
     0
 40
0.0
  0
LTYPE
  5
196
330
194
100
AcDbSymbolTableRecord
100
AcDbLinetypeTableRecord
  2
BYLAYER
 70
     0
  3

 72
    65
 73
     0
 40
0.0
  0
LTYPE
  5
1B
330
194
100
AcDbSymbolTableRecord
100
AcDbLinetypeTableRecord
  2
CONTINUOUS
 70
     0
  3
Solid line
 72
    65
 73
     0
 40
0.0
  0
LTYPE
  5
8
330
194
100
AcDbSymbolTableRecord
100
AcDbLinetypeTableRecord
  2
AUSGEZOGEN
 70
     0
  3
Ausgezogene Linie
 72
    65
 73
     0
 40
0.0
  0
LTYPE
  5
C
330
194
100
AcDbSymbolTableRecord
100
AcDbLinetypeTableRecord
  2
STRICHPUNKT
 70
     0
  3
__ . __ . __ . __ . __ . __ . __ . __ . __ . __
 72
    65
 73
     4
 40
1.0
 49
0.5
 74
     0
 49
-0.25
 74
     0
 49
0.0
 74
     0
 49
-0.25
 74
     0
  0
LTYPE
  5
4C
330
194
100
AcDbSymbolTableRecord
100
AcDbLinetypeTableRecord
  2
VERDECKT
 70
     0
  3
__ __ __ __ __ __ __ __ __ __ __ __ __ __ __ __
 72
    65
 73
     2
 40
0.375
 49
0.25
 74
     0
 49
-0.125
 74
     0
  0
LTYPE
  5
25
330
194
100
AcDbSymbolTableRecord
100
AcDbLinetypeTableRecord
  2
ACAD_ISO10W100
 70
     0
  3
ISO čerchovaná __ . __ . __ . __ . __ . __ . __
 72
    65
 73
     4
 40
18.5
 49
12.0
 74
     0
 49
-3.0
 74
     0
 49
0.5
 74
     0
 49
-3.0
 74
     0
  0
LTYPE
  5
630
330
194
100
AcDbSymbolTableRecord
100
AcDbLinetypeTableRecord
  2
AM_ISO02W050
 70
     0
  3
__ __ __ __ __ __ __ __ __ __ __ __ __ __ __
 72
    65
 73
     2
 40
7.5
 49
6.0
 74
     0
 49
-1.5
 74
     0
  0
LTYPE
  5
631
330
194
100
AcDbSymbolTableRecord
100
AcDbLinetypeTableRecord
  2
AM_ISO08W050
 70
     0
  3
____ . ____ . ____ . ____ . ____ . ____ . ____
 72
    65
 73
     4
 40
18.0
 49
12.0
 74
     0
 49
-1.5
 74
     0
 49
3.0
 74
     0
 49
-1.5
 74
     0
  0
LTYPE
  5
632
330
194
100
AcDbSymbolTableRecord
100
AcDbLinetypeTableRecord
  2
AM_ISO09W050
 70
     0
  3
_____ . . _____ . . _____ . . ____ .. ____
 72
    65
 73
     6
 40
22.5
 49
12.0
 74
     0
 49
-1.5
 74
     0
 49
3.0
 74
     0
 49
-1.5
 74
     0
 49
3.0
 74
     0
 49
-1.5
 74
     0
  0
LTYPE
  5
633
330
194
100
AcDbSymbolTableRecord
100
AcDbLinetypeTableRecord
  2
Amconstr
 70
     0
  3
_______________________
 72
    65
 73
     2
 40
9999.0
 49
9999.0
 74
     0
 49
0.0
 74
     0
  0
LTYPE
  5
634
330
194
100
AcDbSymbolTableRecord
100
AcDbLinetypeTableRecord
  2
AM_ISO08W050x2
 70
     0
  3
__ . __ . __ . __ . __ . __
 72
    65
 73
     4
 40
9.0
 49
6.0
 74
     0
 49
-0.75
 74
     0
 49
1.5
 74
     0
 49
-0.75
 74
     0
  0
LTYPE
  5
635
330
194
100
AcDbSymbolTableRecord
100
AcDbLinetypeTableRecord
  2
AM_ISO02W050x2
 70
     0
  3
 _ _ _ _ _ _ _ _ _ _ _ _
 72
    65
 73
     2
 40
3.75
 49
3.0
 74
     0
 49
-0.75
 74
     0
  0
LTYPE
  5
638
330
194
100
AcDbSymbolTableRecord
100
AcDbLinetypeTableRecord
  2
Amzigzag
 70
     0
  3
/\/-/\/-/\/-/\/-/\/-/\/
 72
    65
 73
     2
 40
11.0001
 49
0.0001
 74
     4
 75
   136
340
637
 46
0.04
 50
0.0
 44
0.0
 45
0.0
 49
-11.0
 74
     0
  0
LTYPE
  5
66A
330
194
100
AcDbSymbolTableRecord
100
AcDbLinetypeTableRecord
  2
HIDDEN
 70
     0
  3
Skrytá __ __ __ __ __ __ __ __ __ __ __ __ __ __
 72
    65
 73
     2
 40
0.375
 49
0.25
 74
     0
 49
-0.125
 74
     0
  0
LTYPE
  5
66B
330
194
100
AcDbSymbolTableRecord
100
AcDbLinetypeTableRecord
  2
PHANTOM2
 70
     0
  3
Sdružená (.5x) ___ _ _ ___ _ _ ___ _ _ ___ _ _
 72
    65
 73
     6
 40
1.25
 49
0.625
 74
     0
 49
-0.125
 74
     0
 49
0.125
 74
     0
 49
-0.125
 74
     0
 49
0.125
 74
     0
 49
-0.125
 74
     0
  0
LTYPE
  5
66C
330
194
100
AcDbSymbolTableRecord
100
AcDbLinetypeTableRecord
  2
CENTER
 70
     0
  3
Středová ____ _ ____ _ ____ _ ____ _ ____ _ ____
 72
    65
 73
     4
 40
2.0
 49
1.25
 74
     0
 49
-0.25
 74
     0
 49
0.25
 74
     0
 49
-0.25
 74
     0
  0
LTYPE
  5
77B
330
194
100
AcDbSymbolTableRecord
100
AcDbLinetypeTableRecord
  2
ACISOWELD
 70
     0
  3
_ _ _ _ _
 72
    65
 73
     2
 40
2.0
 49
2.0
 74
     0
 49
-1.0
 74
     0
  0
LTYPE
  5
77C
330
194
100
AcDbSymbolTableRecord
100
AcDbLinetypeTableRecord
  2
ACISOTGB
 70
     0
  3
__ . . __ . .
 72
    65
 73
     6
 40
9.0
 49
4.0
 74
     0
 49
-1.0
 74
     0
 49
1.0
 74
     0
 49
-1.0
 74
     0
 49
1.0
 74
     0
 49
-1.0
 74
     0
  0
LTYPE
  5
77D
330
194
100
AcDbSymbolTableRecord
100
AcDbLinetypeTableRecord
  2
ACISOTGL
 70
     0
  3
_ _ _ _ _
 72
    65
 73
     2
 40
3.0
 49
2.0
 74
     0
 49
-1.0
 74
     0
  0
LTYPE
  5
B7A
330
194
100
AcDbSymbolTableRecord
100
AcDbLinetypeTableRecord
  2
CENTER2
 70
     0
  3
Center (.5x) ___ _ ___ _ ___ _ ___ _ ___ _ ___
 72
    65
 73
     4
 40
1.125
 49
0.75
 74
     0
 49
-0.125
 74
     0
 49
0.125
 74
     0
 49
-0.125
 74
     0
  0
LTYPE
  5
B7B
330
194
100
AcDbSymbolTableRecord
100
AcDbLinetypeTableRecord
  2
HIDDEN2
 70
     0
  3
Hidden (.5x) _ _ _ _ _ _ _ _ _ _ _ _ _ _ _ _ _
 72
    65
 73
     2
 40
0.1875
 49
0.125
 74
     0
 49
-0.0625
 74
     0
  0
LTYPE
  5
B7C
330
194
100
AcDbSymbolTableRecord
100
AcDbLinetypeTableRecord
  2
Amzigzag2
 70
     0
  3
/\/-/\/-/\/-/\/-/\/-/\/
 72
    65
 73
     2
 40
0.4401
 49
0.0001
 74
     4
 75
   136
340
637
 46
0.0016
 50
0.0
 44
0.0
 45
0.0
 49
-0.4400000000000001
 74
     0
  0
LTYPE
  5
B7E
330
194
100
AcDbSymbolTableRecord
100
AcDbLinetypeTableRecord
  2
ACANSTGB
 70
     0
  3
__ . . __ . .
 72
    65
 73
     6
 40
0.35433070866
 49
0.15748031496
 74
     0
 49
-0.03937007874
 74
     0
 49
0.03937007874
 74
     0
 49
-0.03937007874
 74
     0
 49
0.03937007874
 74
     0
 49
-0.03937007874
 74
     0
  0
LTYPE
  5
B7F
330
194
100
AcDbSymbolTableRecord
100
AcDbLinetypeTableRecord
  2
ACANSTGL
 70
     0
  3
_ _ _ _ _
 72
    65
 73
     2
 40
0.11811023622
 49
0.07874015748
 74
     0
 49
-0.03937007874
 74
     0
  0
ENDTAB
  0
TABLE
  2
LAYER
  5
191
102
{ACAD_XDICTIONARY
360
B5E
102
}
330
0
100
AcDbSymbolTable
 70
    19
  0
LAYER
  5
1F
330
191
100
AcDbSymbolTableRecord
100
AcDbLayerTableRecord
  2
0
 70
     0
 62
     7
  6
CONTINUOUS
370
    -3
390
5
347
5E8
  0
LAYER
  5
C0
330
191
100
AcDbSymbolTableRecord
100
AcDbLayerTableRecord
  2
SICHTBAR
 70
     0
 62
     7
  6
AUSGEZOGEN
370
    -3
390
5
347
5E8
  0
LAYER
  5
F
330
191
100
AcDbSymbolTableRecord
100
AcDbLayerTableRecord
  2
BEMASS
 70
     0
 62
     3
  6
AUSGEZOGEN
370
    -3
390
5
347
5E8
  0
LAYER
  5
8B
330
191
100
AcDbSymbolTableRecord
100
AcDbLayerTableRecord
  2
KOPF
 70
     0
 62
     9
  6
AUSGEZOGEN
370
    -3
390
5
347
5E8
  0
LAYER
  5
145
330
191
100
AcDbSymbolTableRecord
100
AcDbLayerTableRecord
  2
TEXT25
 70
     0
 62
     3
  6
AUSGEZOGEN
370
    -3
390
5
347
5E8
  0
LAYER
  5
B
330
191
100
AcDbSymbolTableRecord
100
AcDbLayerTableRecord
  2
MITTE
 70
     0
 62
     1
  6
STRICHPUNKT
370
    -3
390
5
347
5E8
  0
LAYER
  5
4B
330
191
100
AcDbSymbolTableRecord
100
AcDbLayerTableRecord
  2
VERDECKT
 70
     0
 62
    10
  6
VERDECKT
370
    -3
390
5
347
5E8
  0
LAYER
  5
11E
330
191
100
AcDbSymbolTableRecord
100
AcDbLayerTableRecord
  2
TEXT35
 70
     0
 62
    12
  6
AUSGEZOGEN
370
    -3
390
5
347
5E8
  0
LAYER
  5
11A
330
191
100
AcDbSymbolTableRecord
100
AcDbLayerTableRecord
  2
TEXT50
 70
     0
 62
     7
  6
AUSGEZOGEN
370
    -3
390
5
347
5E8
  0
LAYER
  5
4
330
191
100
AcDbSymbolTableRecord
100
AcDbLayerTableRecord
  2
SCHRAFF
 70
     0
 62
     6
  6
AUSGEZOGEN
370
    -3
390
5
347
5E8
  0
LAYER
  5
1A
330
191
100
AcDbSymbolTableRecord
100
AcDbLayerTableRecord
  2
DEFPOINTS
 70
     0
 62
     7
  6
CONTINUOUS
290
     0
370
    -3
390
5
347
5E8
  0
LAYER
  5
2AE
330
191
100
AcDbSymbolTableRecord
100
AcDbLayerTableRecord
  2
AM_BOR
 70
     0
 62
     7
  6
CONTINUOUS
370
    30
390
5
347
5E8
  0
LAYER
  5
358
330
191
100
AcDbSymbolTableRecord
100
AcDbLayerTableRecord
  2
Sperrlayer
 70
     1
 62
    -7
  6
CONTINUOUS
370
    50
390
5
347
5E8
  0
LAYER
  5
77E
330
191
100
AcDbSymbolTableRecord
100
AcDbLayerTableRecord
  2
Čára řezu (ISO)
 70
     0
 62
     3
420
    65280
  6
CONTINUOUS
370
    18
390
5
347
5E8
  0
LAYER
  5
77F
330
191
100
AcDbSymbolTableRecord
100
AcDbLayerTableRecord
  2
Kóta (ISO)
 70
     0
 62
     5
420
      255
  6
CONTINUOUS
370
     9
390
5
347
5E8
  0
LAYER
  5
780
330
191
100
AcDbSymbolTableRecord
100
AcDbLayerTableRecord
  2
Skrytá (ISO)
 70
     0
 62
   142
420
    32960
  6
CONTINUOUS
370
     9
390
5
347
5E8
  0
LAYER
  5
781
330
191
100
AcDbSymbolTableRecord
100
AcDbLayerTableRecord
  2
Středová značka (ISO)
 70
     0
 62
     1
420
 16711680
  6
CONTINUOUS
370
     9
390
5
347
5E8
  0
LAYER
  5
782
330
191
100
AcDbSymbolTableRecord
100
AcDbLayerTableRecord
  2
Viditelná (ISO)
 70
     0
 62
   250
420
  1973790
430
PANTONE(R) color bridge CMYK PC$PANTONE Process Black PC
  6
CONTINUOUS
370
    15
390
5
347
5E8
  0
LAYER
  5
783
330
191
100
AcDbSymbolTableRecord
100
AcDbLayerTableRecord
  2
Značka (ISO)
 70
     0
 62
     5
420
      255
  6
CONTINUOUS
370
     9
390
5
347
5E8
  0
ENDTAB
  0
TABLE
  2
STYLE
  5
192
330
0
100
AcDbSymbolTable
 70
    15
  0
STYLE
  5
11
330
192
100
AcDbSymbolTableRecord
100
AcDbTextStyleTableRecord
  2
STANDARD
 70
     0
 40
0.0
 41
0.8
 50
0.0
 71
     0
 42
5.0
  3
simplex.shx
  4

  0
STYLE
  5
9
330
192
100
AcDbSymbolTableRecord
100
AcDbTextStyleTableRecord
  2
BEMSTIL
 70
     0
 40
3.5
 41
0.8
 50
0.0
 71
     0
 42
3.5
  3
simplex
  4

  0
STYLE
  5
93
330
192
100
AcDbSymbolTableRecord
100
AcDbTextStyleTableRecord
  2
TEXT25
 70
     0
 40
2.5
 41
0.8
 50
0.0
 71
     0
 42
2.5
  3
din
  4

  0
STYLE
  5
359
330
192
100
AcDbSymbolTableRecord
100
AcDbTextStyleTableRecord
  2
TEXT20
 70
     0
 40
2.0
 41
0.8
 50
0.0
 71
     0
 42
2.0
  3
isocp3.shx
  4

  0
STYLE
  5
35A
330
192
100
AcDbSymbolTableRecord
100
AcDbTextStyleTableRecord
  2
TEXT35
 70
     0
 40
3.5
 41
0.8
 50
0.0
 71
     0
 42
3.5
  3
isocp3.shx
  4

  0
STYLE
  5
35B
330
192
100
AcDbSymbolTableRecord
100
AcDbTextStyleTableRecord
  2
TEXT50
 70
     0
 40
5.0
 41
0.8
 50
0.0
 71
     0
 42
5.0
  3
isocp3.shx
  4

  0
STYLE
  5
40E
330
192
100
AcDbSymbolTableRecord
100
AcDbTextStyleTableRecord
  2
ROMANS8
 70
     0
 40
2.1
 41
0.7
 50
0.0
 71
     0
 42
2.1
  3
ROMANS8.SHX
  4

  0
STYLE
  5
40F
330
192
100
AcDbSymbolTableRecord
100
AcDbTextStyleTableRecord
  2
ITALICC8
 70
     0
 40
3.0
 41
0.8
 50
0.0
 71
     0
 42
3.0
  3
italicc8
  4

  0
STYLE
  5
637
330
192
100
AcDbSymbolTableRecord
100
AcDbTextStyleTableRecord
  2

 70
     1
 40
0.0
 41
1.0
 50
0.0
 71
     0
 42
5.0
  3
genltshp.shx
  4

  0
STYLE
  5
784
330
192
100
AcDbSymbolTableRecord
100
AcDbTextStyleTableRecord
  2
Text popisu (ISO)
 70
     0
 40
0.0
 41
1.0
 50
0.0
 71
     0
 42
0.2
  3
TAHOMA.TTF
  4

1001
ACAD
1000
Tahoma
1071
      256
  0
STYLE
  5
785
330
192
100
AcDbSymbolTableRecord
100
AcDbTextStyleTableRecord
  2
Text poznámky (ISO)
 70
     0
 40
0.0
 41
1.0
 50
0.0
 71
     0
 42
0.2
  3
TAHOMA.TTF
  4

1001
ACAD
1000
Tahoma
1071
      256
  0
STYLE
  5
786
330
192
100
AcDbSymbolTableRecord
100
AcDbTextStyleTableRecord
  2
Styl textu104
 70
     0
 40
0.0
 41
1.0
 50
0.0
 71
     0
 42
0.2
  3

  4

1001
ACAD
1000
Tahoma
1071
 50331904
  0
STYLE
  5
787
330
192
100
AcDbSymbolTableRecord
100
AcDbTextStyleTableRecord
  2
ACISOGDT
 70
     0
 40
0.0
 41
1.0
 50
0.0
 71
     0
 42
0.2
  3
amgdt.shx
  4

  0
STYLE
  5
B79
330
192
100
AcDbSymbolTableRecord
100
AcDbTextStyleTableRecord
  2
ACANSTS
 70
     0
 40
1.0
 41
1.0
 50
0.0
 71
     0
 42
5.0
  3
romans.shx
  4

  0
STYLE
  5
B7D
330
192
100
AcDbSymbolTableRecord
100
AcDbTextStyleTableRecord
  2
ACANSGDT
 70
     0
 40
0.0
 41
1.0
 50
0.0
 71
     0
 42
5.0
  3
amgdt.shx
  4

  0
ENDTAB
  0
TABLE
  2
VIEW
  5
197
330
0
100
AcDbSymbolTable
 70
     0
  0
ENDTAB
  0
TABLE
  2
UCS
  5
198
330
0
100
AcDbSymbolTable
 70
     0
  0
ENDTAB
  0
TABLE
  2
APPID
  5
19B
330
0
100
AcDbSymbolTable
 70
    10
  0
APPID
  5
19C
330
19B
100
AcDbSymbolTableRecord
100
AcDbRegAppTableRecord
  2
ACAD
 70
     0
  0
APPID
  5
628
330
19B
100
AcDbSymbolTableRecord
100
AcDbRegAppTableRecord
  2
ACAD_MLEADERVER
 70
     0
  0
APPID
  5
63E
330
19B
100
AcDbSymbolTableRecord
100
AcDbRegAppTableRecord
  2
MCAD_NO_VIS
 70
     0
  0
APPID
  5
63F
330
19B
100
AcDbSymbolTableRecord
100
AcDbRegAppTableRecord
  2
ACAD_TEMP_GRAPHIC
 70
     0
  0
APPID
  5
66E
330
19B
100
AcDbSymbolTableRecord
100
AcDbRegAppTableRecord
  2
AD_DRAW
 70
     0
  0
APPID
  5
671
330
19B
100
AcDbSymbolTableRecord
100
AcDbRegAppTableRecord
  2
ACATTRIBSERVICES
 70
     0
  0
APPID
  5
692
330
19B
100
AcDbSymbolTableRecord
100
AcDbRegAppTableRecord
  2
DESIGNERASSEMBLIES
 70
     0
  0
APPID
  5
698
330
19B
100
AcDbSymbolTableRecord
100
AcDbRegAppTableRecord
  2
ACADM_DIM_EDIT
 70
     0
  0
APPID
  5
699
330
19B
100
AcDbSymbolTableRecord
100
AcDbRegAppTableRecord
  2
AMDT_DM_ADJ
 70
     0
  0
APPID
  5
B58
330
19B
100
AcDbSymbolTableRecord
100
AcDbRegAppTableRecord
  2
ACAD_EXEMPT_FROM_CAD_STANDARDS
 70
     0
  0
ENDTAB
  0
TABLE
  2
DIMSTYLE
  5
19D
330
0
100
AcDbSymbolTable
 70
    16
100
AcDbDimStyleTable
 71
     2
340
B71
340
10
  0
DIMSTYLE
105
10
330
19D
100
AcDbSymbolTableRecord
100
AcDbDimStyleTableRecord
  2
STANDARD
 70
     0
 41
3.5
 42
0.0
 43
7.0
 44
2.0
 73
     0
 74
     0
 77
     1
 78
     8
140
3.5
141
3.0
146
0.875
147
1.7
172
     1
174
     1
176
   256
177
   256
178
   256
271
     1
272
     1
284
     8
285
     8
286
     8
288
     1
340
11
371
    -1
372
    -1
  0
DIMSTYLE
105
788
102
{ACAD_REACTORS
330
920
330
930
330
931
330
932
330
933
330
935
102
}
330
19D
100
AcDbSymbolTableRecord
100
AcDbDimStyleTableRecord
  2
Výchozí (ISO)
 70
     0
 40
2.5
 41
2.5
 42
0.0
 43
5.999999999999999
 44
1.0
 45
0.00000001
 46
10.0
 73
     0
 74
     0
 77
     1
 78
     8
 79
     2
140
3.5
143
0.03937
146
1.001485756465366
147
0.762
171
     3
172
     1
176
   256
177
   256
178
   256
179
     2
271
     2
272
     2
274
     3
278
    44
284
     8
340
785
371
    -1
372
    -1
  0
DIMSTYLE
105
789
102
{ACAD_REACTORS
330
93B
102
}
330
19D
100
AcDbSymbolTableRecord
100
AcDbDimStyleTableRecord
  2
AM_ISO
 70
     0
  4
"
 41
3.5
 42
1.0
 43
10.0
 44
1.0
 47
0.1
 48
0.1
 73
     0
 74
     0
 77
     1
 78
     8
 79
     2
 90
     1
140
3.5
141
0.0
143
0.0393701
146
0.71
147
1.5
172
     1
176
   256
177
   256
178
     2
271
     2
272
     3
274
     4
283
     0
284
     8
340
11
345
195
346
195
347
195
371
    -1
372
    -1
  0
DIMSTYLE
105
78A
330
19D
100
AcDbSymbolTableRecord
100
AcDbDimStyleTableRecord
  2
AM_ISO$3
 70
     0
  4
"
 41
3.5
 42
1.0
 43
10.0
 44
1.0
 47
0.1
 48
0.1
 73
     0
 77
     1
 78
     8
 79
     2
 90
     1
140
3.5
141
0.0
143
0.0393701
146
0.71
147
1.5
176
   256
177
   256
178
     2
271
     2
272
     3
274
     4
283
     0
284
     8
288
     1
289
     0
340
11
345
195
346
195
347
195
371
    -1
372
    -1
  0
DIMSTYLE
105
78B
330
19D
100
AcDbSymbolTableRecord
100
AcDbDimStyleTableRecord
  2
AM_ISO$4
 70
     0
  4
"
 41
3.5
 42
1.0
 43
10.0
 44
1.0
 47
0.1
 48
0.1
 73
     0
 74
     0
 77
     1
 78
     8
 79
     2
 90
     1
140
3.5
141
0.0
143
0.0393701
146
0.71
147
1.5
172
     1
176
   256
177
   256
178
     2
271
     2
272
     3
274
     4
283
     0
284
     8
340
11
345
195
346
195
347
195
371
    -1
372
    -1
  0
DIMSTYLE
105
78C
330
19D
100
AcDbSymbolTableRecord
100
AcDbDimStyleTableRecord
  2
AM_ISO$6
 70
     0
  4
"
 41
3.5
 42
1.0
 43
10.0
 44
1.0
 47
0.1
 48
0.1
 73
     0
 74
     0
 78
     8
 79
     2
 90
     1
140
3.5
141
0.0
143
0.0393701
146
0.71
147
1.5
172
     1
176
   256
177
   256
178
     2
271
     2
272
     3
274
     4
283
     0
284
     8
340
11
345
195
346
195
347
195
371
    -1
372
    -1
  0
DIMSTYLE
105
78D
330
19D
100
AcDbSymbolTableRecord
100
AcDbDimStyleTableRecord
  2
AM_ISO$7
 70
     0
  4
"
 41
3.5
 42
1.0
 43
10.0
 44
1.0
 47
0.1
 48
0.1
 73
     0
 74
     0
 77
     1
 78
     8
 79
     2
 90
     1
140
3.5
141
0.0
143
0.0393701
146
0.71
147
1.5
172
     1
176
   256
177
   256
178
     2
271
     2
272
     3
274
     4
283
     0
284
     8
340
11
345
195
346
195
347
195
371
    -1
372
    -1
  0
DIMSTYLE
105
78E
330
19D
100
AcDbSymbolTableRecord
100
AcDbDimStyleTableRecord
  2
AM_ISO$SF
 70
     0
  4
"
 41
3.5
 42
1.0
 43
10.0
 44
1.0
 47
0.1
 48
0.1
 73
     0
 74
     0
 75
     1
 76
     1
 77
     1
 78
     8
 79
     2
 90
     1
140
3.5
141
0.0
143
0.0393701
146
0.71
147
1.5
172
     1
176
   256
177
   256
178
     2
271
     2
272
     3
274
     4
283
     0
284
     8
340
11
345
195
346
195
347
195
371
    -1
372
    -1
  0
DIMSTYLE
105
78F
330
19D
100
AcDbSymbolTableRecord
100
AcDbDimStyleTableRecord
  2
AM_ISO$SH
 70
     0
  4
"
 41
3.5
 42
1.0
 43
10.0
 44
1.0
 47
0.1
 48
0.1
 73
     0
 74
     0
 75
     1
 76
     1
 77
     1
 78
     8
 79
     2
 90
     1
140
3.5
141
0.0
143
0.0393701
144
2.0
146
0.71
147
1.5
172
     1
173
     1
176
   256
177
   256
178
     2
271
     2
272
     3
274
     4
283
     0
284
     8
340
11
343
777
345
195
346
195
347
195
371
    -1
372
    -1
  0
DIMSTYLE
105
B71
102
{ACAD_REACTORS
330
B61
102
}
330
19D
100
AcDbSymbolTableRecord
100
AcDbDimStyleTableRecord
  2
AM_ANSI
 70
     0
  4
mm
 41
0.12
 42
0.05
 43
0.5
 44
0.1
 47
0.1
 48
0.1
 78
     7
 79
     2
 90
     1
140
0.12
141
0.0
146
0.71
147
0.06
176
   256
177
   256
178
     2
274
     4
284
     7
340
11
345
195
346
195
347
195
371
    -1
372
    -1
  0
DIMSTYLE
105
B72
330
19D
100
AcDbSymbolTableRecord
100
AcDbDimStyleTableRecord
  2
AM_ANSI$3
 70
     0
  4
mm
 41
0.12
 42
0.05
 43
0.5
 44
0.1
 47
0.1
 48
0.1
 78
     7
 79
     2
 90
     1
140
0.12
141
0.0
146
0.71
147
0.06
176
   256
177
   256
178
     2
274
     4
284
     7
288
     1
289
     0
340
11
345
195
346
195
347
195
371
    -1
372
    -1
  0
DIMSTYLE
105
B73
330
19D
100
AcDbSymbolTableRecord
100
AcDbDimStyleTableRecord
  2
AM_ANSI$4
 70
     0
  4
mm
 41
0.12
 42
0.05
 43
0.5
 44
0.1
 47
0.1
 48
0.1
 78
     7
 79
     2
 90
     1
140
0.12
141
0.0
146
0.71
147
0.06
176
   256
177
   256
178
     2
274
     4
284
     7
340
11
345
195
346
195
347
195
371
    -1
372
    -1
  0
DIMSTYLE
105
B74
330
19D
100
AcDbSymbolTableRecord
100
AcDbDimStyleTableRecord
  2
AM_ANSI$7
 70
     0
  4
mm
 41
0.12
 42
0.05
 43
0.5
 44
0.1
 47
0.1
 48
0.1
 78
     7
 79
     2
 90
     1
140
0.12
141
0.0
146
0.71
147
0.06
176
   256
177
   256
178
     2
274
     4
284
     7
340
11
345
195
346
195
347
195
371
    -1
372
    -1
  0
DIMSTYLE
105
B75
330
19D
100
AcDbSymbolTableRecord
100
AcDbDimStyleTableRecord
  2
AM_ANSI$SF
 70
     0
  4
mm
 41
0.12
 42
0.05
 43
0.5
 44
0.1
 47
0.1
 48
0.1
 75
     1
 76
     1
 78
     7
 79
     2
 90
     1
140
0.12
141
0.0
146
0.71
147
0.06
176
   256
177
   256
178
     2
274
     4
284
     7
340
11
345
195
346
195
347
195
371
    -1
372
    -1
  0
DIMSTYLE
105
B76
330
19D
100
AcDbSymbolTableRecord
100
AcDbDimStyleTableRecord
  2
AM_ANSI$SH
 70
     0
  4
mm
 41
0.12
 42
0.05
 43
0.5
 44
0.1
 47
0.1
 48
0.1
 75
     1
 76
     1
 78
     7
 79
     2
 90
     1
140
0.12
141
0.0
146
0.71
147
0.06
173
     1
176
   256
177
   256
178
     2
274
     4
284
     7
340
11
343
777
345
195
346
195
347
195
371
    -1
372
    -1
  0
ENDTAB
  0
TABLE
  2
BLOCK_RECORD
  5
1
330
0
100
AcDbSymbolTable
 70
    39
  0
BLOCK_RECORD
  5
2
330
1
100
AcDbSymbolTableRecord
100
AcDbBlockTableRecord
  2
*MODEL_SPACE
340
18B
 70
     0
280
     1
281
     0
  0
BLOCK_RECORD
  5
18D
330
1
100
AcDbSymbolTableRecord
100
AcDbBlockTableRecord
  2
*PAPER_SPACE
340
190
 70
     0
280
     1
281
     0
  0
BLOCK_RECORD
  5
12
330
1
100
AcDbSymbolTableRecord
100
AcDbBlockTableRecord
  2
*D0
340
0
 70
     0
280
     1
281
     0
  0
BLOCK_RECORD
  5
2C
330
1
100
AcDbSymbolTableRecord
100
AcDbBlockTableRecord
  2
*D1
340
0
 70
     0
280
     1
281
     0
  0
BLOCK_RECORD
  5
39
330
1
100
AcDbSymbolTableRecord
100
AcDbBlockTableRecord
  2
*D2
340
0
 70
     0
280
     1
281
     0
  0
BLOCK_RECORD
  5
4E
330
1
100
AcDbSymbolTableRecord
100
AcDbBlockTableRecord
  2
*D3
340
0
 70
     0
280
     1
281
     0
  0
BLOCK_RECORD
  5
65
330
1
100
AcDbSymbolTableRecord
100
AcDbBlockTableRecord
  2
*D4
340
0
 70
     0
280
     1
281
     0
  0
BLOCK_RECORD
  5
76
330
1
100
AcDbSymbolTableRecord
100
AcDbBlockTableRecord
  2
*D5
340
0
 70
     0
280
     1
281
     0
  0
BLOCK_RECORD
  5
C4
330
1
100
AcDbSymbolTableRecord
100
AcDbBlockTableRecord
  2
*D6
340
0
 70
     0
280
     1
281
     0
  0
BLOCK_RECORD
  5
D3
330
1
100
AcDbSymbolTableRecord
100
AcDbBlockTableRecord
  2
*D7
340
0
 70
     0
280
     1
281
     0
  0
BLOCK_RECORD
  5
E0
330
1
100
AcDbSymbolTableRecord
100
AcDbBlockTableRecord
  2
*D8
340
0
 70
     0
280
     1
281
     0
  0
BLOCK_RECORD
  5
ED
330
1
100
AcDbSymbolTableRecord
100
AcDbBlockTableRecord
  2
*D9
340
0
 70
     0
280
     1
281
     0
  0
BLOCK_RECORD
  5
FC
330
1
100
AcDbSymbolTableRecord
100
AcDbBlockTableRecord
  2
*D10
340
0
 70
     0
280
     1
281
     0
  0
BLOCK_RECORD
  5
10B
330
1
100
AcDbSymbolTableRecord
100
AcDbBlockTableRecord
  2
*D11
340
0
 70
     0
280
     1
281
     0
  0
BLOCK_RECORD
  5
31D
330
1
100
AcDbSymbolTableRecord
100
AcDbBlockTableRecord
  2
RA_A3_AC
340
0
 70
     0
280
     1
281
     0
  0
BLOCK_RECORD
  5
35C
330
1
100
AcDbSymbolTableRecord
100
AcDbBlockTableRecord
  2
ACO-SF
340
0
 70
     0
280
     1
281
     0
  0
BLOCK_RECORD
  5
3FC
330
1
100
AcDbSymbolTableRecord
100
AcDbBlockTableRecord
  2
A$C17D61B2D
340
0
102
{BLKREFS
331
411
102
}
 70
     0
280
     1
281
     0
  0
BLOCK_RECORD
  5
410
330
1
100
AcDbSymbolTableRecord
100
AcDbBlockTableRecord
  2
logo_1200
340
0
 70
     0
280
     1
281
     0
  0
BLOCK_RECORD
  5
6A6
330
1
100
AcDbSymbolTableRecord
100
AcDbBlockTableRecord
  2
Pozice1
340
0
102
{BLKREFS
331
91F
102
}
 70
     0
280
     1
281
     0
  0
BLOCK_RECORD
  5
6B7
330
1
100
AcDbSymbolTableRecord
100
AcDbBlockTableRecord
  2
*D18
340
0
 70
     0
280
     1
281
     0
  0
BLOCK_RECORD
  5
6C3
330
1
100
AcDbSymbolTableRecord
100
AcDbBlockTableRecord
  2
Pozice3
340
0
102
{BLKREFS
331
921
102
}
 70
     0
280
     1
281
     0
  0
BLOCK_RECORD
  5
6D4
330
1
100
AcDbSymbolTableRecord
100
AcDbBlockTableRecord
  2
Pozice4
340
0
102
{BLKREFS
331
922
102
}
 70
     0
280
     1
281
     0
  0
BLOCK_RECORD
  5
6E5
330
1
100
AcDbSymbolTableRecord
100
AcDbBlockTableRecord
  2
2dPrevedenyRez0
340
0
102
{BLKREFS
331
923
102
}
 70
     0
280
     1
281
     0
  0
BLOCK_RECORD
  5
705
330
1
100
AcDbSymbolTableRecord
100
AcDbBlockTableRecord
  2
*D22
340
0
 70
     0
280
     1
281
     0
  0
BLOCK_RECORD
  5
715
330
1
100
AcDbSymbolTableRecord
100
AcDbBlockTableRecord
  2
*D23
340
0
 70
     0
280
     1
281
     0
  0
BLOCK_RECORD
  5
720
330
1
100
AcDbSymbolTableRecord
100
AcDbBlockTableRecord
  2
*D24
340
0
 70
     0
280
     1
281
     0
  0
BLOCK_RECORD
  5
72C
330
1
100
AcDbSymbolTableRecord
100
AcDbBlockTableRecord
  2
*D25
340
0
 70
     0
280
     1
281
     0
  0
BLOCK_RECORD
  5
737
330
1
100
AcDbSymbolTableRecord
100
AcDbBlockTableRecord
  2
Text s odkazem1
340
0
102
{BLKREFS
331
934
102
}
 70
     0
280
     1
281
     0
  0
BLOCK_RECORD
  5
749
330
1
100
AcDbSymbolTableRecord
100
AcDbBlockTableRecord
  2
*D27
340
0
 70
     0
280
     1
281
     0
  0
BLOCK_RECORD
  5
755
330
1
100
AcDbSymbolTableRecord
100
AcDbBlockTableRecord
  2
Pozice6
340
0
102
{BLKREFS
331
936
102
}
 70
     0
280
     1
281
     0
  0
BLOCK_RECORD
  5
766
330
1
100
AcDbSymbolTableRecord
100
AcDbBlockTableRecord
  2
Text s odkazem2
340
0
102
{BLKREFS
331
937
102
}
 70
     0
280
     1
281
     0
  0
BLOCK_RECORD
  5
777
330
1
100
AcDbSymbolTableRecord
100
AcDbBlockTableRecord
  2
GENAXEH
340
0
 70
     0
280
     1
281
     0
  0
BLOCK_RECORD
  5
B02
330
1
100
AcDbSymbolTableRecord
100
AcDbBlockTableRecord
  2
*D32
340
0
 70
     0
280
     1
281
     0
  0
BLOCK_RECORD
  5
B0E
330
1
100
AcDbSymbolTableRecord
100
AcDbBlockTableRecord
  2
*D33
340
0
 70
     0
280
     1
281
     0
  0
BLOCK_RECORD
  5
B1E
330
1
100
AcDbSymbolTableRecord
100
AcDbBlockTableRecord
  2
*D34
340
0
 70
     0
280
     1
281
     0
  0
BLOCK_RECORD
  5
B29
330
1
100
AcDbSymbolTableRecord
100
AcDbBlockTableRecord
  2
*D35
340
0
 70
     0
280
     1
281
     0
  0
BLOCK_RECORD
  5
B35
330
1
100
AcDbSymbolTableRecord
100
AcDbBlockTableRecord
  2
*D36
340
0
 70
     0
280
     1
281
     0
  0
BLOCK_RECORD
  5
B40
330
1
100
AcDbSymbolTableRecord
100
AcDbBlockTableRecord
  2
*D37
340
0
 70
     0
280
     1
281
     0
  0
ENDTAB
  0
ENDSEC
  0
SECTION
  2
BLOCKS
  0
BLOCK
  5
189
330
2
100
AcDbEntity
  8
0
100
AcDbBlockBegin
  2
*MODEL_SPACE
 70
     0
 10
0.0
 20
0.0
 30
0.0
  3
*MODEL_SPACE
  1

  0
ENDBLK
  5
18A
330
2
100
AcDbEntity
  8
0
100
AcDbBlockEnd
  0
BLOCK
  5
18E
330
18D
100
AcDbEntity
 67
     1
  8
0
100
AcDbBlockBegin
  2
*PAPER_SPACE
 70
     0
 10
0.0
 20
0.0
 30
0.0
  3
*PAPER_SPACE
  1

  0
ENDBLK
  5
18F
330
18D
100
AcDbEntity
 67
     1
  8
0
100
AcDbBlockEnd
  0
BLOCK
  5
1E
330
12
100
AcDbEntity
  8
0
100
AcDbBlockBegin
  2
*D0
 70
     1
 10
0.0
 20
0.0
 30
0.0
  3
*D0
  1

  0
LINE
  5
558
330
12
100
AcDbEntity
  8
BEMASS
100
AcDbLine
 10
263.3230240067167
 20
227.8079214656974
 30
0.0
 11
281.2552581755312
 21
227.8079214656974
 31
0.0
  0
LINE
  5
559
330
12
100
AcDbEntity
  8
BEMASS
100
AcDbLine
 10
265.3230240067166
 20
253.6079214656974
 30
0.0
 11
281.2552581755312
 21
253.6079214656974
 31
0.0
  0
LINE
  5
55A
330
12
100
AcDbEntity
  8
BEMASS
100
AcDbLine
 10
279.2552581755312
 20
231.3079214656974
 30
0.0
 11
279.2552581755312
 21
250.1079214656974
 31
0.0
  0
SOLID
  5
55B
330
12
100
AcDbEntity
  8
BEMASS
100
AcDbTrace
 10
278.671924842198
 20
231.3079214656974
 30
0.0
 11
279.8385915088646
 21
231.3079214656974
 31
0.0
 12
279.2552581755312
 22
227.8079214656974
 32
0.0
 13
279.2552581755312
 23
227.8079214656974
 33
0.0
  0
SOLID
  5
55C
330
12
100
AcDbEntity
  8
BEMASS
100
AcDbTrace
 10
278.671924842198
 20
250.1079214656974
 30
0.0
 11
279.8385915088646
 21
250.1079214656974
 31
0.0
 12
279.2552581755312
 22
253.6079214656974
 32
0.0
 13
279.2552581755312
 23
253.6079214656974
 33
0.0
  0
MTEXT
  5
55D
330
12
100
AcDbEntity
  8
BEMASS
100
AcDbMText
 10
275.8052581755312
 20
240.7079214656974
 30
0.0
 40
3.5
 41
0.0
 46
0.0
 71
     5
 72
     1
  1
\A1;25.8
 11
0.0000000000000001
 21
1.0
 31
0.0
 73
     1
 44
1.0
  0
POINT
  5
55E
330
12
100
AcDbEntity
  8
DEFPOINTS
 62
     0
100
AcDbPoint
 10
263.3230240067167
 20
227.8079214656974
 30
0.0
  0
POINT
  5
55F
330
12
100
AcDbEntity
  8
DEFPOINTS
 62
     0
100
AcDbPoint
 10
265.3230240067166
 20
253.6079214656974
 30
0.0
  0
POINT
  5
560
330
12
100
AcDbEntity
  8
DEFPOINTS
 62
     0
100
AcDbPoint
 10
279.2552581755312
 20
253.6079214656974
 30
0.0
  0
ENDBLK
  5
20
330
12
100
AcDbEntity
  8
0
100
AcDbBlockEnd
  0
BLOCK
  5
32
330
2C
100
AcDbEntity
  8
0
100
AcDbBlockBegin
  2
*D1
 70
     1
 10
0.0
 20
0.0
 30
0.0
  3
*D1
  1

  0
LINE
  5
561
330
2C
100
AcDbEntity
  8
BEMASS
100
AcDbLine
 10
84.63156856502981
 20
190.328489241658
 30
0.0
 11
75.94900488713526
 21
197.9705351560113
 31
0.0
  0
MTEXT
  5
562
330
2C
100
AcDbEntity
  8
BEMASS
100
AcDbMText
 10
83.88333094863307
 20
195.5830509024616
 30
0.0
 40
3.5
 41
0.0
 46
0.0
 71
     5
 72
     1
  1
\A1;R2
 11
0.7506539202790691
 21
-0.6606956121919269
 31
0.0
 73
     1
 44
1.0
  0
SOLID
  5
563
330
2C
100
AcDbEntity
  8
BEMASS
100
AcDbTrace
 10
76.33441066091387
 20
198.4084166095074
 30
0.0
 11
75.56359911335661
 21
197.5326537025152
 31
0.0
 12
73.32171616615852
 22
200.2829697986831
 32
0.0
 13
73.32171616615852
 23
200.2829697986831
 33
0.0
  0
POINT
  5
564
330
2C
100
AcDbEntity
  8
DEFPOINTS
 62
     0
100
AcDbPoint
 10
73.32171616615852
 20
200.2829697986831
 30
0.0
  0
POINT
  5
565
330
2C
100
AcDbEntity
  8
DEFPOINTS
 62
     0
100
AcDbPoint
 10
74.82302400671676
 20
198.9615785742991
 30
0.0
  0
ENDBLK
  5
33
330
2C
100
AcDbEntity
  8
0
100
AcDbBlockEnd
  0
BLOCK
  5
43
330
39
100
AcDbEntity
  8
0
100
AcDbBlockBegin
  2
*D2
 70
     1
 10
0.0
 20
0.0
 30
0.0
  3
*D2
  1

  0
LINE
  5
54F
330
39
100
AcDbEntity
  8
BEMASS
100
AcDbLine
 10
263.3230240067167
 20
200.9615785742991
 30
0.0
 11
281.2556357237843
 21
200.9615785742991
 31
0.0
  0
LINE
  5
550
330
39
100
AcDbEntity
  8
BEMASS
100
AcDbLine
 10
263.3230240067167
 20
145.3615785742991
 30
0.0
 11
281.2556357237843
 21
145.3615785742991
 31
0.0
  0
LINE
  5
551
330
39
100
AcDbEntity
  8
BEMASS
100
AcDbLine
 10
279.2556357237844
 20
197.4615785742991
 30
0.0
 11
279.2556357237844
 21
148.8615785742991
 31
0.0
  0
SOLID
  5
552
330
39
100
AcDbEntity
  8
BEMASS
100
AcDbTrace
 10
278.672302390451
 20
197.4615785742991
 30
0.0
 11
279.8389690571176
 21
197.4615785742991
 31
0.0
 12
279.2556357237844
 22
200.9615785742991
 32
0.0
 13
279.2556357237844
 23
200.9615785742991
 33
0.0
  0
SOLID
  5
553
330
39
100
AcDbEntity
  8
BEMASS
100
AcDbTrace
 10
278.672302390451
 20
148.8615785742991
 30
0.0
 11
279.8389690571176
 21
148.8615785742991
 31
0.0
 12
279.2556357237844
 22
145.3615785742991
 32
0.0
 13
279.2556357237844
 23
145.3615785742991
 33
0.0
  0
MTEXT
  5
554
330
39
100
AcDbEntity
  8
BEMASS
100
AcDbMText
 10
275.8056357237843
 20
173.1457581999536
 30
0.0
 40
3.5
 41
0.0
 46
0.0
 71
     5
 72
     1
  1
\A1;55.6
 11
0.0000000000000001
 21
1.0
 31
0.0
 73
     1
 44
1.0
  0
POINT
  5
555
330
39
100
AcDbEntity
  8
DEFPOINTS
 62
     0
100
AcDbPoint
 10
263.3230240067167
 20
200.9615785742991
 30
0.0
  0
POINT
  5
556
330
39
100
AcDbEntity
  8
DEFPOINTS
 62
     0
100
AcDbPoint
 10
263.3230240067167
 20
145.3615785742991
 30
0.0
  0
POINT
  5
557
330
39
100
AcDbEntity
  8
DEFPOINTS
 62
     0
100
AcDbPoint
 10
279.2556357237844
 20
145.3615785742991
 30
0.0
  0
ENDBLK
  5
44
330
39
100
AcDbEntity
  8
0
100
AcDbBlockEnd
  0
BLOCK
  5
58
330
4E
100
AcDbEntity
  8
0
100
AcDbBlockBegin
  2
*D3
 70
     1
 10
0.0
 20
0.0
 30
0.0
  3
*D3
  1

  0
LINE
  5
2CE
330
4E
100
AcDbEntity
  8
BEMASS
100
AcDbLine
 10
72.82302400671665
 20
253.6079214656974
 30
0.0
 11
72.82302400671665
 21
265.6079214656974
 31
0.0
  0
LINE
  5
2CF
330
4E
100
AcDbEntity
  8
BEMASS
100
AcDbLine
 10
265.3230240067166
 20
253.6079214656974
 30
0.0
 11
265.3230240067166
 21
265.6079214656974
 31
0.0
  0
LINE
  5
2D0
330
4E
100
AcDbEntity
  8
BEMASS
100
AcDbLine
 10
76.32302400671665
 20
263.6079214656974
 30
0.0
 11
261.8230240067167
 21
263.6079214656974
 31
0.0
  0
SOLID
  5
2D1
330
4E
100
AcDbEntity
  8
BEMASS
100
AcDbTrace
 10
76.32302400671665
 20
264.1912547990307
 30
0.0
 11
76.32302400671665
 21
263.0245881323641
 31
0.0
 12
72.82302400671665
 22
263.6079214656974
 32
0.0
 13
72.82302400671665
 23
263.6079214656974
 33
0.0
  0
SOLID
  5
2D2
330
4E
100
AcDbEntity
  8
BEMASS
100
AcDbTrace
 10
261.8230240067167
 20
264.1912547990307
 30
0.0
 11
261.8230240067167
 21
263.0245881323641
 31
0.0
 12
265.3230240067166
 22
263.6079214656974
 32
0.0
 13
265.3230240067166
 23
263.6079214656974
 33
0.0
  0
MTEXT
  5
2D3
330
4E
100
AcDbEntity
  8
BEMASS
100
AcDbMText
 10
169.0730240067166
 20
267.0579214656974
 30
0.0
 40
3.5
 41
0.0
 46
0.0
 71
     5
 72
     1
  1
\A1;192.5
 73
     1
 44
1.0
  0
POINT
  5
2D4
330
4E
100
AcDbEntity
  8
DEFPOINTS
 62
     0
100
AcDbPoint
 10
72.82302400671665
 20
253.6079214656974
 30
0.0
  0
POINT
  5
2D5
330
4E
100
AcDbEntity
  8
DEFPOINTS
 62
     0
100
AcDbPoint
 10
265.3230240067166
 20
253.6079214656974
 30
0.0
  0
POINT
  5
2D6
330
4E
100
AcDbEntity
  8
DEFPOINTS
 62
     0
100
AcDbPoint
 10
265.3230240067166
 20
263.6079214656974
 30
0.0
  0
ENDBLK
  5
59
330
4E
100
AcDbEntity
  8
0
100
AcDbBlockEnd
  0
BLOCK
  5
71
330
65
100
AcDbEntity
  8
0
100
AcDbBlockBegin
  2
*D4
 70
     1
 10
0.0
 20
0.0
 30
0.0
  3
*D4
  1

  0
LINE
  5
48A
330
65
100
AcDbEntity
  8
BEMASS
100
AcDbLine
 10
328.5419684522257
 20
255.2647757151899
 30
0.0
 11
342.8246369030045
 21
269.5474441659687
 31
0.0
  0
LINE
  5
48B
330
65
100
AcDbEntity
  8
BEMASS
100
AcDbLine
 10
336.5419684522257
 20
247.2647757151899
 30
0.0
 11
350.8246369030045
 21
261.5474441659687
 31
0.0
  0
LINE
  5
48C
330
65
100
AcDbEntity
  8
BEMASS
100
AcDbLine
 10
338.9355496064786
 20
270.6081043377485
 30
0.0
 11
336.4606758723256
 21
273.0829780719014
 31
0.0
  0
LINE
  5
48D
330
65
100
AcDbEntity
  8
BEMASS
100
AcDbLine
 10
351.8852970747844
 20
257.6583568694427
 30
0.0
 11
354.3601708089373
 21
255.1834831352898
 31
0.0
  0
LINE
  5
48E
330
65
100
AcDbEntity
  8
BEMASS
100
AcDbLine
 10
341.4104233406314
 20
268.1332306035956
 30
0.0
 11
349.4104233406315
 21
260.1332306035956
 31
0.0
  0
SOLID
  5
48F
330
65
100
AcDbEntity
  8
BEMASS
100
AcDbTrace
 10
339.3480285621707
 20
271.0205832934406
 30
0.0
 11
338.5230706507864
 21
270.1956253820563
 31
0.0
 12
341.4104233406314
 22
268.1332306035956
 32
0.0
 13
341.4104233406314
 23
268.1332306035956
 33
0.0
  0
SOLID
  5
490
330
65
100
AcDbEntity
  8
BEMASS
100
AcDbTrace
 10
352.2977760304765
 20
258.0708358251348
 30
0.0
 11
351.4728181190922
 21
257.2458779137505
 31
0.0
 12
349.4104233406315
 22
260.1332306035956
 32
0.0
 13
349.4104233406315
 23
260.1332306035956
 33
0.0
  0
MTEXT
  5
491
330
65
100
AcDbEntity
  8
BEMASS
100
AcDbMText
 10
348.0092303205945
 20
266.4134604138197
 30
0.0
 40
3.5
 41
0.0
 46
0.0
 71
     5
 72
     1
  1
\A1;11.3
 11
0.7071067811865476
 21
-0.7071067811865475
 31
0.0
 73
     1
 44
1.0
  0
POINT
  5
492
330
65
100
AcDbEntity
  8
DEFPOINTS
 62
     0
100
AcDbPoint
 10
328.5419684522257
 20
255.2647757151899
 30
0.0
  0
POINT
  5
493
330
65
100
AcDbEntity
  8
DEFPOINTS
 62
     0
100
AcDbPoint
 10
336.5419684522257
 20
247.2647757151899
 30
0.0
  0
POINT
  5
494
330
65
100
AcDbEntity
  8
DEFPOINTS
 62
     0
100
AcDbPoint
 10
349.4104233406315
 20
260.1332306035956
 30
0.0
  0
ENDBLK
  5
72
330
65
100
AcDbEntity
  8
0
100
AcDbBlockEnd
  0
BLOCK
  5
7C
330
76
100
AcDbEntity
  8
0
100
AcDbBlockBegin
  2
*D5
 70
     1
 10
0.0
 20
0.0
 30
0.0
  3
*D5
  1

  0
LINE
  5
318
330
76
100
AcDbEntity
  8
BEMASS
100
AcDbLine
 10
327.6633138335477
 20
237.1644474365337
 30
0.0
 11
328.9311584516169
 21
247.9568991723018
 31
0.0
  0
MTEXT
  5
319
330
76
100
AcDbEntity
  8
BEMASS
100
AcDbMText
 10
325.3210046114805
 20
240.7958657020781
 30
0.0
 40
3.5
 41
0.0
 46
0.0
 71
     5
 72
     1
  1
\A1;R2
 11
0.1166728176137338
 21
0.9931704051320057
 31
0.0
 73
     1
 44
1.0
  0
SOLID
  5
31A
330
76
100
AcDbEntity
  8
BEMASS
100
AcDbTrace
 10
328.3518090486233
 20
248.0249583159098
 30
0.0
 11
329.5105078546106
 21
247.8888400286937
 31
0.0
 12
329.339513313265
 22
251.4329955902638
 32
0.0
 13
329.339513313265
 23
251.4329955902638
 33
0.0
  0
POINT
  5
31B
330
76
100
AcDbEntity
  8
DEFPOINTS
 62
     0
100
AcDbPoint
 10
329.339513313265
 20
251.4329955902638
 30
0.0
  0
POINT
  5
31C
330
76
100
AcDbEntity
  8
DEFPOINTS
 62
     0
100
AcDbPoint
 10
329.1061676780375
 20
249.4466547799999
 30
0.0
  0
ENDBLK
  5
7D
330
76
100
AcDbEntity
  8
0
100
AcDbBlockEnd
  0
BLOCK
  5
D0
330
C4
100
AcDbEntity
  8
0
100
AcDbBlockBegin
  2
*D6
 70
     1
 10
0.0
 20
0.0
 30
0.0
  3
*D6
  1

  0
LINE
  5
5C3
330
C4
100
AcDbEntity
  8
BEMASS
100
AcDbLine
 10
320.5419684522257
 20
227.8079214656974
 30
0.0
 11
320.5419684522257
 21
218.3881176597428
 31
0.0
  0
LINE
  5
5C4
330
C4
100
AcDbEntity
  8
BEMASS
100
AcDbLine
 10
322.5419684522257
 20
227.8079214656974
 30
0.0
 11
322.5419684522257
 21
218.3881176597428
 31
0.0
  0
LINE
  5
5C5
330
C4
100
AcDbEntity
  8
BEMASS
100
AcDbLine
 10
317.0419684522257
 20
220.3881176597428
 30
0.0
 11
313.5419684522257
 21
220.3881176597428
 31
0.0
  0
LINE
  5
5C6
330
C4
100
AcDbEntity
  8
BEMASS
100
AcDbLine
 10
326.0419684522257
 20
220.3881176597428
 30
0.0
 11
334.8086351188924
 21
220.3881176597428
 31
0.0
  0
LINE
  5
5C7
330
C4
100
AcDbEntity
  8
BEMASS
100
AcDbLine
 10
320.5419684522257
 20
220.3881176597428
 30
0.0
 11
322.5419684522257
 21
220.3881176597428
 31
0.0
  0
SOLID
  5
5C8
330
C4
100
AcDbEntity
  8
BEMASS
100
AcDbTrace
 10
317.0419684522257
 20
220.9714509930761
 30
0.0
 11
317.0419684522257
 21
219.8047843264094
 31
0.0
 12
320.5419684522257
 22
220.3881176597428
 32
0.0
 13
320.5419684522257
 23
220.3881176597428
 33
0.0
  0
SOLID
  5
5C9
330
C4
100
AcDbEntity
  8
BEMASS
100
AcDbTrace
 10
326.0419684522257
 20
220.9714509930761
 30
0.0
 11
326.0419684522257
 21
219.8047843264094
 31
0.0
 12
322.5419684522257
 22
220.3881176597428
 32
0.0
 13
322.5419684522257
 23
220.3881176597428
 33
0.0
  0
MTEXT
  5
5CA
330
C4
100
AcDbEntity
  8
BEMASS
100
AcDbMText
 10
332.175301785559
 20
223.8381176597428
 30
0.0
 40
3.5
 41
0.0
 46
0.0
 71
     5
 72
     1
  1
\A1;2
 73
     1
 44
1.0
  0
POINT
  5
5CB
330
C4
100
AcDbEntity
  8
DEFPOINTS
 62
     0
100
AcDbPoint
 10
320.5419684522257
 20
227.8079214656974
 30
0.0
  0
POINT
  5
5CC
330
C4
100
AcDbEntity
  8
DEFPOINTS
 62
     0
100
AcDbPoint
 10
322.5419684522257
 20
227.8079214656974
 30
0.0
  0
POINT
  5
5CD
330
C4
100
AcDbEntity
  8
DEFPOINTS
 62
     0
100
AcDbPoint
 10
322.5419684522257
 20
220.3881176597428
 30
0.0
  0
ENDBLK
  5
D1
330
C4
100
AcDbEntity
  8
0
100
AcDbBlockEnd
  0
BLOCK
  5
DD
330
D3
100
AcDbEntity
  8
0
100
AcDbBlockBegin
  2
*D7
 70
     1
 10
0.0
 20
0.0
 30
0.0
  3
*D7
  1

  0
LINE
  5
5A4
330
D3
100
AcDbEntity
  8
BEMASS
100
AcDbLine
 10
320.5419684522257
 20
227.8079214656974
 30
0.0
 11
320.5419684522257
 21
209.2653488377375
 31
0.0
  0
LINE
  5
5A5
330
D3
100
AcDbEntity
  8
BEMASS
100
AcDbLine
 10
336.5419684522257
 20
227.8079214656974
 30
0.0
 11
336.5419684522257
 21
209.2653488377375
 31
0.0
  0
LINE
  5
5A6
330
D3
100
AcDbEntity
  8
BEMASS
100
AcDbLine
 10
324.0419684522257
 20
211.2653488377375
 30
0.0
 11
333.0419684522257
 21
211.2653488377375
 31
0.0
  0
SOLID
  5
5A7
330
D3
100
AcDbEntity
  8
BEMASS
100
AcDbTrace
 10
324.0419684522257
 20
211.8486821710709
 30
0.0
 11
324.0419684522257
 21
210.6820155044042
 31
0.0
 12
320.5419684522257
 22
211.2653488377375
 32
0.0
 13
320.5419684522257
 23
211.2653488377375
 33
0.0
  0
SOLID
  5
5A8
330
D3
100
AcDbEntity
  8
BEMASS
100
AcDbTrace
 10
333.0419684522257
 20
211.8486821710709
 30
0.0
 11
333.0419684522257
 21
210.6820155044042
 31
0.0
 12
336.5419684522257
 22
211.2653488377375
 32
0.0
 13
336.5419684522257
 23
211.2653488377375
 33
0.0
  0
MTEXT
  5
5A9
330
D3
100
AcDbEntity
  8
BEMASS
100
AcDbMText
 10
328.9315929463074
 20
214.7153488377375
 30
0.0
 40
3.5
 41
0.0
 46
0.0
 71
     5
 72
     1
  1
\A1;16
 73
     1
 44
1.0
  0
POINT
  5
5AA
330
D3
100
AcDbEntity
  8
DEFPOINTS
 62
     0
100
AcDbPoint
 10
320.5419684522257
 20
227.8079214656974
 30
0.0
  0
POINT
  5
5AB
330
D3
100
AcDbEntity
  8
DEFPOINTS
 62
     0
100
AcDbPoint
 10
336.5419684522257
 20
227.8079214656974
 30
0.0
  0
POINT
  5
5AC
330
D3
100
AcDbEntity
  8
DEFPOINTS
 62
     0
100
AcDbPoint
 10
336.5419684522257
 20
211.2653488377375
 30
0.0
  0
ENDBLK
  5
DE
330
D3
100
AcDbEntity
  8
0
100
AcDbBlockEnd
  0
BLOCK
  5
EA
330
E0
100
AcDbEntity
  8
0
100
AcDbBlockBegin
  2
*D8
 70
     1
 10
0.0
 20
0.0
 30
0.0
  3
*D8
  1

  0
LINE
  5
546
330
E0
100
AcDbEntity
  8
BEMASS
100
AcDbLine
 10
72.82302400671665
 20
147.3615785742991
 30
0.0
 11
72.82302400671665
 21
128.0644473668493
 31
0.0
  0
LINE
  5
547
330
E0
100
AcDbEntity
  8
BEMASS
100
AcDbLine
 10
265.3230240067166
 20
147.3615785742989
 30
0.0
 11
265.3230240067166
 21
128.0644473668493
 31
0.0
  0
LINE
  5
548
330
E0
100
AcDbEntity
  8
BEMASS
100
AcDbLine
 10
76.32302400671665
 20
130.0644473668493
 30
0.0
 11
261.8230240067166
 21
130.0644473668493
 31
0.0
  0
SOLID
  5
549
330
E0
100
AcDbEntity
  8
BEMASS
100
AcDbTrace
 10
76.32302400671665
 20
130.6477807001826
 30
0.0
 11
76.32302400671665
 21
129.481114033516
 31
0.0
 12
72.82302400671665
 22
130.0644473668493
 32
0.0
 13
72.82302400671665
 23
130.0644473668493
 33
0.0
  0
SOLID
  5
54A
330
E0
100
AcDbEntity
  8
BEMASS
100
AcDbTrace
 10
261.8230240067166
 20
130.6477807001826
 30
0.0
 11
261.8230240067166
 21
129.481114033516
 31
0.0
 12
265.3230240067166
 22
130.0644473668493
 32
0.0
 13
265.3230240067166
 23
130.0644473668493
 33
0.0
  0
MTEXT
  5
54B
330
E0
100
AcDbEntity
  8
BEMASS
100
AcDbMText
 10
166.0504548594599
 20
133.5144473668493
 30
0.0
 40
3.5
 41
0.0
 46
0.0
 71
     5
 72
     1
  1
\A1;192.5
 73
     1
 44
1.0
  0
POINT
  5
54C
330
E0
100
AcDbEntity
  8
DEFPOINTS
 62
     0
100
AcDbPoint
 10
72.82302400671665
 20
147.3615785742991
 30
0.0
  0
POINT
  5
54D
330
E0
100
AcDbEntity
  8
DEFPOINTS
 62
     0
100
AcDbPoint
 10
265.3230240067166
 20
147.3615785742989
 30
0.0
  0
POINT
  5
54E
330
E0
100
AcDbEntity
  8
DEFPOINTS
 62
     0
100
AcDbPoint
 10
265.3230240067166
 20
130.0644473668493
 30
0.0
  0
ENDBLK
  5
EB
330
E0
100
AcDbEntity
  8
0
100
AcDbBlockEnd
  0
BLOCK
  5
F9
330
ED
100
AcDbEntity
  8
0
100
AcDbBlockBegin
  2
*D9
 70
     1
 10
0.0
 20
0.0
 30
0.0
  3
*D9
  1

  0
LINE
  5
57A
330
ED
100
AcDbEntity
  8
BEMASS
100
AcDbLine
 10
336.5419684522257
 20
247.2647757151898
 30
0.0
 11
345.253227341928
 21
238.5535168254873
 31
0.0
  0
LINE
  5
57B
330
ED
100
AcDbEntity
  8
BEMASS
100
AcDbLine
 10
336.5419684522257
 20
247.2647757151898
 30
0.0
 11
336.5419684522257
 21
259.5843561823501
 31
0.0
  0
ARC
  5
57C
330
ED
100
AcDbEntity
  8
BEMASS
100
AcDbCircle
 10
336.5419684522257
 20
247.2647757151898
 30
0.0
 40
10.31958046716036
100
AcDbArc
 50
334.5268630210085
 51
70.47313697899109
  0
SOLID
  5
57D
330
ED
100
AcDbEntity
  8
BEMASS
100
AcDbTrace
 10
346.3348049981374
 20
242.4898929462663
 30
0.0
 11
345.3818986971094
 21
243.1630056356224
 31
0.0
 12
343.8390137795549
 22
239.9677303878604
 32
0.0
 13
343.8390137795549
 23
239.9677303878604
 33
0.0
  0
SOLID
  5
57E
330
ED
100
AcDbEntity
  8
BEMASS
100
AcDbTrace
 10
339.892353635469
 20
256.4159397746932
 30
0.0
 11
340.0901975956148
 21
257.565708829132
 31
0.0
 12
336.5419684522257
 22
257.5843561823501
 32
0.0
 13
336.5419684522257
 23
257.5843561823501
 33
0.0
  0
MTEXT
  5
57F
330
ED
100
AcDbEntity
  8
BEMASS
100
AcDbMText
 10
349.2634020171024
 20
252.5341660305899
 30
0.0
 40
3.5
 41
0.0
 46
0.0
 71
     5
 72
     1
  1
\A1;135°
 11
0.3826834323650885
 21
-0.9238795325112873
 31
0.0
 73
     1
 44
1.0
  0
POINT
  5
580
330
ED
100
AcDbEntity
  8
DEFPOINTS
 62
     0
100
AcDbPoint
 10
346.861548919386
 20
247.2647757151897
 30
0.0
  0
POINT
  5
581
330
ED
100
AcDbEntity
  8
DEFPOINTS
 62
     0
100
AcDbPoint
 10
331.3703955769719
 20
252.4363485904436
 30
0.0
  0
POINT
  5
582
330
ED
100
AcDbEntity
  8
DEFPOINTS
 62
     0
100
AcDbPoint
 10
336.5419684522257
 20
247.2647757151898
 30
0.0
  0
POINT
  5
583
330
ED
100
AcDbEntity
  8
DEFPOINTS
 62
     0
100
AcDbPoint
 10
336.5419684522257
 20
227.8079214656974
 30
0.0
  0
POINT
  5
584
330
ED
100
AcDbEntity
  8
DEFPOINTS
 62
     0
100
AcDbPoint
 10
336.5419684522257
 20
247.2647757151898
 30
0.0
  0
ENDBLK
  5
FA
330
ED
100
AcDbEntity
  8
0
100
AcDbBlockEnd
  0
BLOCK
  5
108
330
FC
100
AcDbEntity
  8
0
100
AcDbBlockBegin
  2
*D10
 70
     1
 10
0.0
 20
0.0
 30
0.0
  3
*D10
  1

  0
LINE
  5
599
330
FC
100
AcDbEntity
  8
BEMASS
100
AcDbLine
 10
336.5419684522257
 20
227.8079214656974
 30
0.0
 11
360.3075709069663
 21
227.8079214656974
 31
0.0
  0
LINE
  5
59A
330
FC
100
AcDbEntity
  8
BEMASS
100
AcDbLine
 10
336.5419684522257
 20
247.2647757151898
 30
0.0
 11
360.3075709069663
 21
247.2647757151898
 31
0.0
  0
LINE
  5
59B
330
FC
100
AcDbEntity
  8
BEMASS
100
AcDbLine
 10
358.3075709069663
 20
224.3079214656974
 30
0.0
 11
358.3075709069663
 21
220.8079214656974
 31
0.0
  0
LINE
  5
59C
330
FC
100
AcDbEntity
  8
BEMASS
100
AcDbLine
 10
358.3075709069663
 20
250.7647757151898
 30
0.0
 11
358.3075709069663
 21
254.2647757151898
 31
0.0
  0
LINE
  5
59D
330
FC
100
AcDbEntity
  8
BEMASS
100
AcDbLine
 10
358.3075709069663
 20
227.8079214656974
 30
0.0
 11
358.3075709069663
 21
247.2647757151898
 31
0.0
  0
SOLID
  5
59E
330
FC
100
AcDbEntity
  8
BEMASS
100
AcDbTrace
 10
357.724237573633
 20
224.3079214656974
 30
0.0
 11
358.8909042402996
 21
224.3079214656974
 31
0.0
 12
358.3075709069663
 22
227.8079214656974
 32
0.0
 13
358.3075709069663
 23
227.8079214656974
 33
0.0
  0
SOLID
  5
59F
330
FC
100
AcDbEntity
  8
BEMASS
100
AcDbTrace
 10
357.724237573633
 20
250.7647757151898
 30
0.0
 11
358.8909042402996
 21
250.7647757151898
 31
0.0
 12
358.3075709069663
 22
247.2647757151898
 32
0.0
 13
358.3075709069663
 23
247.2647757151898
 33
0.0
  0
MTEXT
  5
5A0
330
FC
100
AcDbEntity
  8
BEMASS
100
AcDbMText
 10
354.8575709069663
 20
238.2325841156571
 30
0.0
 40
3.5
 41
0.0
 46
0.0
 71
     5
 72
     1
  1
\A1;19.5
 11
0.0000000000000001
 21
1.0
 31
0.0
 73
     1
 44
1.0
  0
POINT
  5
5A1
330
FC
100
AcDbEntity
  8
DEFPOINTS
 62
     0
100
AcDbPoint
 10
336.5419684522257
 20
227.8079214656974
 30
0.0
  0
POINT
  5
5A2
330
FC
100
AcDbEntity
  8
DEFPOINTS
 62
     0
100
AcDbPoint
 10
336.5419684522257
 20
247.2647757151898
 30
0.0
  0
POINT
  5
5A3
330
FC
100
AcDbEntity
  8
DEFPOINTS
 62
     0
100
AcDbPoint
 10
358.3075709069663
 20
247.2647757151898
 30
0.0
  0
ENDBLK
  5
109
330
FC
100
AcDbEntity
  8
0
100
AcDbBlockEnd
  0
BLOCK
  5
117
330
10B
100
AcDbEntity
  8
0
100
AcDbBlockBegin
  2
*D11
 70
     1
 10
0.0
 20
0.0
 30
0.0
  3
*D11
  1

  0
LINE
  5
2FB
330
10B
100
AcDbEntity
  8
BEMASS
100
AcDbLine
 10
328.5419684522257
 20
255.2647757151899
 30
0.0
 11
337.7577434468327
 21
264.4805507097969
 31
0.0
  0
LINE
  5
2FC
330
10B
100
AcDbEntity
  8
BEMASS
100
AcDbLine
 10
328.5419684522257
 20
255.2647757151899
 30
0.0
 11
319.3261934576188
 21
264.480550709797
 31
0.0
  0
ARC
  5
2FD
330
10B
100
AcDbEntity
  8
BEMASS
100
AcDbCircle
 10
328.5419684522257
 20
255.2647757151899
 30
0.0
 40
11.03307398515202
100
AcDbArc
 50
63.2529139942422
 51
116.7470860057579
  0
SOLID
  5
2FE
330
10B
100
AcDbEntity
  8
BEMASS
100
AcDbTrace
 10
333.849269081482
 20
265.5900132012206
 30
0.0
 11
333.1656044587899
 21
264.6446488297793
 31
0.0
 12
336.3435298844596
 22
263.0663371474238
 32
0.0
 13
336.3435298844596
 23
263.0663371474238
 33
0.0
  0
SOLID
  5
2FF
330
10B
100
AcDbEntity
  8
BEMASS
100
AcDbTrace
 10
323.9183324456615
 20
264.6446488297793
 30
0.0
 11
323.2346678229695
 21
265.5900132012206
 31
0.0
 12
320.7404070199919
 22
263.0663371474238
 32
0.0
 13
320.7404070199919
 23
263.0663371474238
 33
0.0
  0
MTEXT
  5
300
330
10B
100
AcDbEntity
  8
BEMASS
100
AcDbMText
 10
329.1499771453293
 20
269.7350817758266
 30
0.0
 40
3.5
 41
0.0
 46
0.0
 71
     5
 72
     1
  1
\A1;90°
 11
0.9991184244084879
 21
-0.0419806384837175
 31
0.0
 73
     1
 44
1.0
  0
POINT
  5
301
330
10B
100
AcDbEntity
  8
DEFPOINTS
 62
     0
100
AcDbPoint
 10
325.6863987788432
 20
265.9219068208063
 30
0.0
  0
POINT
  5
302
330
10B
100
AcDbEntity
  8
DEFPOINTS
 62
     0
100
AcDbPoint
 10
321.7135413274795
 20
248.4363485904436
 30
0.0
  0
POINT
  5
303
330
10B
100
AcDbEntity
  8
DEFPOINTS
 62
     0
100
AcDbPoint
 10
331.3703955769719
 20
252.4363485904437
 30
0.0
  0
POINT
  5
304
330
10B
100
AcDbEntity
  8
DEFPOINTS
 62
     0
100
AcDbPoint
 10
336.5419684522258
 20
247.2647757151898
 30
0.0
  0
POINT
  5
305
330
10B
100
AcDbEntity
  8
DEFPOINTS
 62
     0
100
AcDbPoint
 10
325.7135413274795
 20
252.4363485904436
 30
0.0
  0
ENDBLK
  5
118
330
10B
100
AcDbEntity
  8
0
100
AcDbBlockEnd
  0
BLOCK
  5
354
330
31D
100
AcDbEntity
  8
0
100
AcDbBlockBegin
  2
RA_A3_AC
 70
     0
 10
0.0
 20
0.0
 30
0.0
  3
RA_A3_AC
  1

  0
LINE
  5
31E
330
31D
100
AcDbEntity
  8
KOPF
100
AcDbLine
 10
435.0
 20
312.0
 30
0.0
 11
435.0
 21
-15.0
 31
0.0
  0
LINE
  5
31F
330
31D
100
AcDbEntity
  8
KOPF
100
AcDbLine
 10
420.0
 20
0.0
 30
0.0
 11
0.0
 21
0.0
 31
0.0
  0
LINE
  5
320
330
31D
100
AcDbEntity
  8
KOPF
100
AcDbLine
 10
420.0
 20
297.0
 30
0.0
 11
420.0
 21
0.0
 31
0.0
  0
LINE
  5
321
330
31D
100
AcDbEntity
  8
KOPF
100
AcDbLine
 10
0.0
 20
297.0
 30
0.0
 11
420.0
 21
297.0
 31
0.0
  0
LINE
  5
322
330
31D
100
AcDbEntity
  8
KOPF
100
AcDbLine
 10
0.0
 20
0.0
 30
0.0
 11
0.0
 21
297.0
 31
0.0
  0
LWPOLYLINE
  5
323
330
31D
100
AcDbEntity
  8
KOPF
100
AcDbPolyline
 90
        4
 70
     1
 43
0.7
 10
414.0
 20
291.0
 10
414.0
 20
6.0
 10
21.0
 20
6.0
 10
21.0
 20
291.0
  0
LINE
  5
324
330
31D
100
AcDbEntity
  8
KOPF
100
AcDbLine
 10
0.0
 20
151.5
 30
0.0
 11
9.123329060608625
 21
151.5
 31
0.0
  0
TEXT
  5
325
330
31D
100
AcDbEntity
  8
KOPF
100
AcDbText
 10
405.4839301100292
 20
1.146414063727604
 30
0.0
 40
3.5
  1
A3
 41
0.8
  7
BEMSTIL
100
AcDbText
  0
LINE
  5
326
330
31D
100
AcDbEntity
  8
KOPF
100
AcDbLine
 10
91.0
 20
6.000000000000056
 30
0.0
 11
91.0
 21
3.000000000000056
 31
0.0
  0
LINE
  5
327
330
31D
100
AcDbEntity
  8
KOPF
100
AcDbLine
 10
161.0
 20
6.000000000000056
 30
0.0
 11
161.0
 21
3.000000000000056
 31
0.0
  0
LINE
  5
328
330
31D
100
AcDbEntity
  8
KOPF
100
AcDbLine
 10
231.0
 20
6.000000000000056
 30
0.0
 11
231.0
 21
3.000000000000056
 31
0.0
  0
LINE
  5
329
330
31D
100
AcDbEntity
  8
KOPF
100
AcDbLine
 10
301.0
 20
6.000000000000056
 30
0.0
 11
301.0
 21
3.000000000000056
 31
0.0
  0
TEXT
  5
32A
330
31D
100
AcDbEntity
  8
KOPF
100
AcDbText
 10
54.66443874747984
 20
2.709844013406931
 30
0.0
 40
2.5
  1
1
 41
0.8
  7
TEXT25
100
AcDbText
  0
TEXT
  5
32B
330
31D
100
AcDbEntity
  8
KOPF
100
AcDbText
 10
124.6644387474798
 20
2.709844013406931
 30
0.0
 40
2.5
  1
2
 41
0.8
  7
TEXT25
100
AcDbText
  0
TEXT
  5
32C
330
31D
100
AcDbEntity
  8
KOPF
100
AcDbText
 10
194.6644387474798
 20
2.709844013406931
 30
0.0
 40
2.5
  1
3
 41
0.8
  7
TEXT25
100
AcDbText
  0
TEXT
  5
32D
330
31D
100
AcDbEntity
  8
KOPF
100
AcDbText
 10
264.6644387474798
 20
2.709844013406931
 30
0.0
 40
2.5
  1
4
 41
0.8
  7
TEXT25
100
AcDbText
  0
LINE
  5
32E
330
31D
100
AcDbEntity
  8
KOPF
100
AcDbLine
 10
21.0
 20
6.000000000000056
 30
0.0
 11
21.0
 21
3.000000000000056
 31
0.0
  0
LINE
  5
32F
330
31D
100
AcDbEntity
  8
KOPF
100
AcDbLine
 10
21.0
 20
6.000000000000056
 30
0.0
 11
19.0
 21
6.000000000000056
 31
0.0
  0
LINE
  5
330
330
31D
100
AcDbEntity
  8
KOPF
100
AcDbLine
 10
413.9999999999999
 20
6.000000000000056
 30
0.0
 11
415.9999999999999
 21
6.000000000000056
 31
0.0
  0
LINE
  5
331
330
31D
100
AcDbEntity
  8
KOPF
100
AcDbLine
 10
413.9999999999999
 20
6.000000000000056
 30
0.0
 11
413.9999999999999
 21
3.000000000000056
 31
0.0
  0
LINE
  5
332
330
31D
100
AcDbEntity
  8
KOPF
100
AcDbLine
 10
413.9999999999999
 20
79.0
 30
0.0
 11
416.9999999999999
 21
79.0
 31
0.0
  0
LINE
  5
333
330
31D
100
AcDbEntity
  8
KOPF
100
AcDbLine
 10
413.9999999999999
 20
152.0
 30
0.0
 11
416.9999999999999
 21
152.0
 31
0.0
  0
LINE
  5
334
330
31D
100
AcDbEntity
  8
KOPF
100
AcDbLine
 10
413.9999999999999
 20
225.0
 30
0.0
 11
416.9999999999999
 21
225.0
 31
0.0
  0
LINE
  5
335
330
31D
100
AcDbEntity
  8
KOPF
100
AcDbLine
 10
413.9999999999999
 20
6.0
 30
0.0
 11
416.9999999999999
 21
6.0
 31
0.0
  0
TEXT
  5
336
330
31D
100
AcDbEntity
  8
KOPF
100
AcDbText
 10
415.6306257995392
 20
41.89443100952641
 30
0.0
 40
2.5
  1
A
 41
0.8
  7
TEXT25
100
AcDbText
  0
TEXT
  5
337
330
31D
100
AcDbEntity
  8
KOPF
100
AcDbText
 10
415.8972924662059
 20
114.8944310095264
 30
0.0
 40
2.5
  1
B
 41
0.8
  7
TEXT25
100
AcDbText
  0
TEXT
  5
338
330
31D
100
AcDbEntity
  8
KOPF
100
AcDbText
 10
415.7639591328726
 20
187.8944310095264
 30
0.0
 40
2.5
  1
C
 41
0.8
  7
TEXT25
100
AcDbText
  0
TEXT
  5
339
330
31D
100
AcDbEntity
  8
KOPF
100
AcDbText
 10
415.8972924662059
 20
260.8944310095264
 30
0.0
 40
2.5
  1
D
 41
0.8
  7
TEXT25
100
AcDbText
  0
LINE
  5
33A
330
31D
100
AcDbEntity
  8
KOPF
100
AcDbLine
 10
413.9999999999999
 20
291.0
 30
0.0
 11
413.9999999999999
 21
294.0
 31
0.0
  0
LINE
  5
33B
330
31D
100
AcDbEntity
  8
KOPF
100
AcDbLine
 10
413.9999999999999
 20
291.0
 30
0.0
 11
415.9999999999999
 21
291.0
 31
0.0
  0
LINE
  5
33C
330
31D
100
AcDbEntity
  8
KOPF
100
AcDbLine
 10
21.0
 20
291.0
 30
0.0
 11
19.0
 21
291.0
 31
0.0
  0
LINE
  5
33D
330
31D
100
AcDbEntity
  8
KOPF
100
AcDbLine
 10
21.0
 20
291.0
 30
0.0
 11
21.0
 21
294.0
 31
0.0
  0
TEXT
  5
33E
330
31D
100
AcDbEntity
  8
KOPF
100
AcDbText
 10
396.6125957292463
 20
292.3535859362725
 30
0.0
 40
2.5
  1
6
 41
0.8
  7
TEXT25
100
AcDbText
  0
TEXT
  5
33F
330
31D
100
AcDbEntity
  8
KOPF
100
AcDbText
 10
334.6644387474798
 20
292.3535859362725
 30
0.0
 40
2.5
  1
5
 41
0.8
  7
TEXT25
100
AcDbText
  0
TEXT
  5
340
330
31D
100
AcDbEntity
  8
KOPF
100
AcDbText
 10
264.6644387474798
 20
292.3535859362725
 30
0.0
 40
2.5
  1
4
 41
0.8
  7
TEXT25
100
AcDbText
  0
TEXT
  5
341
330
31D
100
AcDbEntity
  8
KOPF
100
AcDbText
 10
194.6644387474798
 20
292.3535859362725
 30
0.0
 40
2.5
  1
3
 41
0.8
  7
TEXT25
100
AcDbText
  0
TEXT
  5
342
330
31D
100
AcDbEntity
  8
KOPF
100
AcDbText
 10
124.6644387474798
 20
292.3535859362725
 30
0.0
 40
2.5
  1
2
 41
0.8
  7
TEXT25
100
AcDbText
  0
TEXT
  5
343
330
31D
100
AcDbEntity
  8
KOPF
100
AcDbText
 10
54.66443874747984
 20
292.3535859362725
 30
0.0
 40
2.5
  1
1
 41
0.8
  7
TEXT25
100
AcDbText
  0
LINE
  5
344
330
31D
100
AcDbEntity
  8
KOPF
100
AcDbLine
 10
371.0
 20
291.0
 30
0.0
 11
371.0
 21
294.0
 31
0.0
  0
LINE
  5
345
330
31D
100
AcDbEntity
  8
KOPF
100
AcDbLine
 10
301.0
 20
291.0
 30
0.0
 11
301.0
 21
294.0
 31
0.0
  0
LINE
  5
346
330
31D
100
AcDbEntity
  8
KOPF
100
AcDbLine
 10
231.0
 20
291.0
 30
0.0
 11
231.0
 21
294.0
 31
0.0
  0
LINE
  5
347
330
31D
100
AcDbEntity
  8
KOPF
100
AcDbLine
 10
161.0
 20
291.0
 30
0.0
 11
161.0
 21
294.0
 31
0.0
  0
LINE
  5
348
330
31D
100
AcDbEntity
  8
KOPF
100
AcDbLine
 10
91.0
 20
291.0
 30
0.0
 11
91.0
 21
294.0
 31
0.0
  0
TEXT
  5
349
330
31D
100
AcDbEntity
  8
KOPF
100
AcDbText
 10
17.47344808643044
 20
260.8944310095264
 30
0.0
 40
2.5
  1
D
 41
0.8
  7
TEXT25
100
AcDbText
  0
TEXT
  5
34A
330
31D
100
AcDbEntity
  8
KOPF
100
AcDbText
 10
17.47344808643044
 20
187.8944310095264
 30
0.0
 40
2.5
  1
C
 41
0.8
  7
TEXT25
100
AcDbText
  0
TEXT
  5
34B
330
31D
100
AcDbEntity
  8
KOPF
100
AcDbText
 10
17.47344808643044
 20
114.8944310095264
 30
0.0
 40
2.5
  1
B
 41
0.8
  7
TEXT25
100
AcDbText
  0
TEXT
  5
34C
330
31D
100
AcDbEntity
  8
KOPF
100
AcDbText
 10
17.47344808643044
 20
41.8944310095264
 30
0.0
 40
2.5
  1
A
 41
0.8
  7
TEXT25
100
AcDbText
  0
LINE
  5
34D
330
31D
100
AcDbEntity
  8
KOPF
100
AcDbLine
 10
21.0
 20
6.0
 30
0.0
 11
18.0
 21
6.0
 31
0.0
  0
LINE
  5
34E
330
31D
100
AcDbEntity
  8
KOPF
100
AcDbLine
 10
21.0
 20
225.0
 30
0.0
 11
18.0
 21
225.0
 31
0.0
  0
LINE
  5
34F
330
31D
100
AcDbEntity
  8
KOPF
100
AcDbLine
 10
21.0
 20
152.0
 30
0.0
 11
18.0
 21
152.0
 31
0.0
  0
LINE
  5
350
330
31D
100
AcDbEntity
  8
KOPF
100
AcDbLine
 10
21.0
 20
79.0
 30
0.0
 11
18.0
 21
79.0
 31
0.0
  0
LINE
  5
351
330
31D
100
AcDbEntity
  8
KOPF
100
AcDbLine
 10
-15.0
 20
312.0
 30
0.0
 11
435.0
 21
312.0
 31
0.0
  0
LINE
  5
352
330
31D
100
AcDbEntity
  8
KOPF
100
AcDbLine
 10
-15.0
 20
-15.0
 30
0.0
 11
-15.0
 21
312.0
 31
0.0
  0
LINE
  5
353
330
31D
100
AcDbEntity
  8
KOPF
100
AcDbLine
 10
435.0
 20
-15.0
 30
0.0
 11
-15.0
 21
-15.0
 31
0.0
  0
ENDBLK
  5
355
330
31D
100
AcDbEntity
  8
0
100
AcDbBlockEnd
  0
BLOCK
  5
3D8
330
35C
100
AcDbEntity
  8
0
100
AcDbBlockBegin
  2
ACO-SF
 70
     2
 10
0.0
 20
0.0
 30
0.0
  3
ACO-SF
  1

  0
LINE
  5
35D
330
35C
100
AcDbEntity
  8
KOPF
 62
    12
100
AcDbLine
 10
0.0
 20
5.0
 30
0.0
 11
-83.0
 21
5.0
 31
0.0
  0
LWPOLYLINE
  5
35E
330
35C
100
AcDbEntity
  8
KOPF
 62
    12
100
AcDbPolyline
 90
        2
 70
     0
 43
0.5
 10
-83.0
 20
10.0
 10
0.0
 20
10.0
  0
LINE
  5
35F
330
35C
100
AcDbEntity
  8
KOPF
100
AcDbLine
 10
-83.0
 20
10.0
 30
0.0
 11
0.0
 21
10.0
 31
0.0
  0
LINE
  5
360
330
35C
100
AcDbEntity
  8
KOPF
100
AcDbLine
 10
0.0
 20
5.0
 30
0.0
 11
-83.0
 21
5.0
 31
0.0
  0
LWPOLYLINE
  5
361
330
35C
100
AcDbEntity
  8
KOPF
 62
    12
100
AcDbPolyline
 90
        2
 70
     0
 43
0.5
 10
0.0
 20
68.49999999999997
 10
-182.0
 20
68.49999999999997
  0
LWPOLYLINE
  5
362
330
35C
100
AcDbEntity
  8
KOPF
 62
    12
100
AcDbPolyline
 90
        2
 70
     0
 43
0.5
 10
0.0
 20
46.99999999999997
 10
-182.0
 20
46.99999999999997
  0
LWPOLYLINE
  5
363
330
35C
100
AcDbEntity
  8
KOPF
 62
    12
100
AcDbPolyline
 90
        2
 70
     0
 43
0.5
 10
-0.2154115848244373
 20
27.23910754630094
 10
-182.1882840408789
 20
27.23910754630094
  0
LINE
  5
364
330
35C
100
AcDbEntity
  8
KOPF
 62
    12
100
AcDbLine
 10
0.0
 20
88.49999999999996
 30
0.0
 11
-182.0
 21
88.49999999999996
 31
0.0
  0
LINE
  5
365
330
35C
100
AcDbEntity
  8
KOPF
 62
    12
100
AcDbLine
 10
-182.0
 20
83.49999999999997
 30
0.0
 11
0.0
 21
83.49999999999997
 31
0.0
  0
LINE
  5
366
330
35C
100
AcDbEntity
  8
KOPF
 62
    12
100
AcDbLine
 10
0.0
 20
73.49999999999997
 30
0.0
 11
-182.0
 21
73.49999999999997
 31
0.0
  0
LINE
  5
367
330
35C
100
AcDbEntity
  8
KOPF
 62
    12
100
AcDbLine
 10
-162.682677
 20
78.49999999999997
 30
0.0
 11
0.0
 21
78.49999999999997
 31
0.0
  0
LINE
  5
368
330
35C
100
AcDbEntity
  8
KOPF
100
AcDbLine
 10
0.0
 20
68.49999999999997
 30
0.0
 11
-182.0
 21
68.49999999999997
 31
0.0
  0
LINE
  5
369
330
35C
100
AcDbEntity
  8
KOPF
100
AcDbLine
 10
0.0
 20
88.49999999999996
 30
0.0
 11
-182.0
 21
88.49999999999996
 31
0.0
  0
LINE
  5
36A
330
35C
100
AcDbEntity
  8
KOPF
100
AcDbLine
 10
-182.0
 20
83.49999999999997
 30
0.0
 11
0.0
 21
83.49999999999997
 31
0.0
  0
LINE
  5
36B
330
35C
100
AcDbEntity
  8
KOPF
100
AcDbLine
 10
0.0
 20
73.49999999999997
 30
0.0
 11
-182.0
 21
73.49999999999997
 31
0.0
  0
LINE
  5
36C
330
35C
100
AcDbEntity
  8
KOPF
100
AcDbLine
 10
-162.682677
 20
78.49999999999997
 30
0.0
 11
0.0
 21
78.49999999999997
 31
0.0
  0
LINE
  5
36D
330
35C
100
AcDbEntity
  8
KOPF
 62
    12
100
AcDbLine
 10
-182.0
 20
57.74999999999997
 30
0.0
 11
-100.0
 21
57.74999999999997
 31
0.0
  0
LINE
  5
36E
330
35C
100
AcDbEntity
  8
KOPF
 62
    12
100
AcDbLine
 10
-182.0
 20
41.99999999999996
 30
0.0
 11
-113.4
 21
41.99999999999996
 31
0.0
  0
LINE
  5
36F
330
35C
100
AcDbEntity
  8
KOPF
100
AcDbLine
 10
-182.0
 20
57.74999999999997
 30
0.0
 11
-100.0
 21
57.74999999999997
 31
0.0
  0
LINE
  5
370
330
35C
100
AcDbEntity
  8
KOPF
100
AcDbLine
 10
-182.0
 20
41.99999999999996
 30
0.0
 11
-113.4
 21
41.99999999999996
 31
0.0
  0
LINE
  5
371
330
35C
100
AcDbEntity
  8
KOPF
 62
    12
100
AcDbLine
 10
-142.0
 20
68.49999999999997
 30
0.0
 11
-142.0
 21
46.99999999999997
 31
0.0
  0
LINE
  5
372
330
35C
100
AcDbEntity
  8
KOPF
 62
    12
100
AcDbLine
 10
-142.0
 20
68.49999999999997
 30
0.0
 11
-142.0
 21
46.99999999999997
 31
0.0
  0
ATTDEF
  5
373
330
35C
100
AcDbEntity
  8
TEXT35
100
AcDbText
 10
-140.2
 20
49.4
 30
0.0
 40
3.5
  1

 41
0.8
  7
TEXT35
100
AcDbAttributeDefinition
  3
Oberfläche:
  2
F63
 70
     0
280
     0
  0
LWPOLYLINE
  5
374
330
35C
100
AcDbEntity
  8
KOPF
 62
    12
100
AcDbPolyline
 90
        2
 70
     0
 43
0.7
 10
-182.0
 20
88.49999999999996
 10
-182.0
 20
0.0
  0
LINE
  5
375
330
35C
100
AcDbEntity
  8
KOPF
100
AcDbLine
 10
-182.0
 20
88.49999999999996
 30
0.0
 11
-182.0
 21
0.0
 31
0.0
  0
TEXT
  5
376
330
35C
100
AcDbEntity
  8
KOPF
100
AcDbText
 10
-179.738589
 20
38.32439403633659
 30
0.0
 40
2.0
  1
Gezeichnet:
 41
0.8
  7
TEXT20
100
AcDbText
  0
ATTDEF
  5
377
330
35C
100
AcDbEntity
  8
TEXT35
100
AcDbText
 10
-176.6
 20
3.399999999999999
 30
0.0
 40
3.5
  1

 41
0.8
  7
TEXT35
100
AcDbAttributeDefinition
  3
Z-Titel 3
  2
F13
 70
     0
280
     0
  0
ATTDEF
  5
378
330
35C
100
AcDbEntity
  8
TEXT50
100
AcDbText
 10
-176.6
 20
10.63250279796295
 30
0.0
 40
5.0
  1

 41
0.8
  7
TEXT50
100
AcDbAttributeDefinition
  3
Z-Titel 2
  2
F3
 70
     0
280
     0
  0
ATTDEF
  5
379
330
35C
100
AcDbEntity
  8
TEXT50
100
AcDbText
 10
-176.6
 20
18.56318324460701
 30
0.0
 40
5.0
  1

 41
0.8
  7
TEXT50
100
AcDbAttributeDefinition
  3
Z-Titel 1
  2
F2
 70
     0
280
     0
  0
TEXT
  5
37A
330
35C
100
AcDbEntity
  8
KOPF
100
AcDbText
 10
-179.738589
 20
28.52395361420514
 30
0.0
 40
2.0
  1
Update:
 41
0.8
  7
TEXT20
100
AcDbText
  0
TEXT
  5
37B
330
35C
100
AcDbEntity
  8
KOPF
100
AcDbText
 10
-179.738589
 20
33.43577642824449
 30
0.0
 40
2.0
  1
Geprüft
 41
0.8
  7
TEXT20
100
AcDbText
  0
LINE
  5
37C
330
35C
100
AcDbEntity
  8
KOPF
 62
    12
100
AcDbLine
 10
-163.0
 20
46.99999999999997
 30
0.0
 11
-163.0
 21
27.0
 31
0.0
  0
LINE
  5
37D
330
35C
100
AcDbEntity
  8
KOPF
100
AcDbLine
 10
-163.0
 20
46.99999999999997
 30
0.0
 11
-163.0
 21
27.0
 31
0.0
  0
ATTDEF
  5
37E
330
35C
100
AcDbEntity
  8
TEXT25
100
AcDbText
 10
-161.5009557098303
 20
28.32091209119023
 30
0.0
 40
2.0
  1

 41
0.8
  7
TEXT20
100
AcDbAttributeDefinition
  3
Update am:
  2
F53
 70
     0
280
     0
  0
ATTDEF
  5
37F
330
35C
100
AcDbEntity
  8
TEXT25
100
AcDbText
 10
-161.5539333606331
 20
33.12227989587696
 30
0.0
 40
2.0
  1

 41
0.8
  7
TEXT20
100
AcDbAttributeDefinition
  3
Geprüft am:
  2
F22
 70
     0
280
     0
  0
ATTDEF
  5
380
330
35C
100
AcDbEntity
  8
TEXT25
100
AcDbText
 10
-161.5207141482394
 20
38.33983936444393
 30
0.0
 40
2.0
  1

 41
0.8
  7
TEXT20
100
AcDbAttributeDefinition
  3
Gezeichnet am:
  2
F9
 70
     0
280
     0
  0
TEXT
  5
381
330
35C
100
AcDbEntity
  8
KOPF
100
AcDbText
 10
-155.964455
 20
43.13467299999999
 30
0.0
 40
2.0
  1
Datum
 41
0.8
  7
TEXT20
100
AcDbText
  0
LINE
  5
382
330
35C
100
AcDbEntity
  8
KOPF
 62
    12
100
AcDbLine
 10
-138.4
 20
46.99999999999997
 30
0.0
 11
-138.4
 21
27.0
 31
0.0
  0
LINE
  5
383
330
35C
100
AcDbEntity
  8
KOPF
100
AcDbLine
 10
-138.4
 20
46.99999999999997
 30
0.0
 11
-138.4
 21
27.0
 31
0.0
  0
TEXT
  5
384
330
35C
100
AcDbEntity
  8
KOPF
100
AcDbText
 10
-130.065072
 20
43.14125800000002
 30
0.0
 40
2.0
  1
Name
 41
0.8
  7
TEXT20
100
AcDbText
  0
ATTDEF
  5
385
330
35C
100
AcDbEntity
  8
TEXT25
100
AcDbText
 10
-136.2746977811447
 20
33.28471223400234
 30
0.0
 40
2.0
  1

 41
0.8
  7
TEXT20
100
AcDbAttributeDefinition
  3
Geprüft von:
  2
F21
 70
     0
280
     0
  0
ATTDEF
  5
386
330
35C
100
AcDbEntity
  8
TEXT25
100
AcDbText
 10
-136.3996291720711
 20
28.23101841142455
 30
0.0
 40
2.0
  1

 41
0.8
  7
TEXT20
100
AcDbAttributeDefinition
  3
Update von:
  2
F52
 70
     0
280
     0
  0
ATTDEF
  5
387
330
35C
100
AcDbEntity
  8
TEXT25
100
AcDbText
 10
-136.1922113552417
 20
38.48172579575253
 30
0.0
 40
2.0
  1

 41
0.8
  7
TEXT20
100
AcDbAttributeDefinition
  3
Gezeichnet von
  2
F8
 70
     0
280
     0
  0
TEXT
  5
388
330
35C
100
AcDbEntity
  8
KOPF
100
AcDbText
 10
-174.6925639999999
 20
69.53813999999997
 30
0.0
 40
2.0
  1
Index
 41
0.8
  7
TEXT20
100
AcDbText
  0
LINE
  5
389
330
35C
100
AcDbEntity
  8
KOPF
100
AcDbLine
 10
-182.0
 20
78.49999999999997
 30
0.0
 11
-162.682677
 21
78.49999999999997
 31
0.0
  0
LINE
  5
38A
330
35C
100
AcDbEntity
  8
KOPF
100
AcDbLine
 10
-182.0
 20
78.49999999999997
 30
0.0
 11
-162.682677
 21
78.49999999999997
 31
0.0
  0
TEXT
  5
38B
330
35C
100
AcDbEntity
  8
KOPF
100
AcDbText
 10
-180.0
 20
65.166273
 30
0.0
 40
2.0
  1
Werkstoff:
 41
0.8
  7
TEXT20
100
AcDbText
  0
TEXT
  5
38C
330
35C
100
AcDbEntity
  8
KOPF
100
AcDbText
 10
-181.0
 20
54.49999999999997
 30
0.0
 40
2.0
  1
zul. Abweich.:
 41
0.8
  7
TEXT20
100
AcDbText
  0
ATTDEF
  5
38D
330
35C
100
AcDbEntity
  8
TEXT35
100
AcDbText
 10
-179.7
 20
59.6
 30
0.0
 40
3.5
  1

 41
0.8
  7
TEXT35
100
AcDbAttributeDefinition
  3
Werkstoff:
  2
F61
 70
     0
280
     0
  0
ATTDEF
  5
38E
330
35C
100
AcDbEntity
  8
TEXT35
100
AcDbText
 10
-179.7
 20
49.7
 30
0.0
 40
3.5
  1

 41
0.8
  7
TEXT35
100
AcDbAttributeDefinition
  3
zul. Abweichung
  2
F62
 70
     0
280
     0
  0
ATTDEF
  5
38F
330
35C
100
AcDbEntity
  8
TEXT25
100
AcDbText
 10
-174.360415155955
 20
74.59999999999999
 30
0.0
 40
2.0
  1

 41
0.8
  7
TEXT20
100
AcDbAttributeDefinition
  3
Index vv.:
  2
F72
 70
     0
280
     0
  0
ATTDEF
  5
390
330
35C
100
AcDbEntity
  8
TEXT25
100
AcDbText
 10
-174.4435409453564
 20
79.47378932523601
 30
0.0
 40
2.0
  1

 41
0.8
  7
TEXT20
100
AcDbAttributeDefinition
  3
Index v.:
  2
F68
 70
     0
280
     0
  0
ATTDEF
  5
391
330
35C
100
AcDbEntity
  8
TEXT25
100
AcDbText
 10
-174.3700408782365
 20
84.63034186138365
 30
0.0
 40
2.0
  1

 41
0.8
  7
TEXT20
100
AcDbAttributeDefinition
  3
Index l.:
  2
F64
 70
     0
280
     0
  0
LINE
  5
392
330
35C
100
AcDbEntity
  8
KOPF
100
AcDbLine
 10
-162.682677
 20
88.49999999999996
 30
0.0
 11
-162.682677
 21
68.49999999999997
 31
0.0
  0
LINE
  5
393
330
35C
100
AcDbEntity
  8
KOPF
100
AcDbLine
 10
-162.682677
 20
88.49999999999996
 30
0.0
 11
-162.682677
 21
68.49999999999997
 31
0.0
  0
TEXT
  5
394
330
35C
100
AcDbEntity
  8
KOPF
100
AcDbText
 10
-156.706568
 20
69.53813999999997
 30
0.0
 40
2.0
  1
Datum
 41
0.8
  7
TEXT20
100
AcDbText
  0
ATTDEF
  5
395
330
35C
100
AcDbEntity
  8
TEXT25
100
AcDbText
 10
-160.9
 20
75.09999999999999
 30
0.0
 40
2.0
  1

 41
0.8
  7
TEXT20
100
AcDbAttributeDefinition
  3
Datum vv.:
  2
F73
 70
     0
280
     0
  0
ATTDEF
  5
396
330
35C
100
AcDbEntity
  8
TEXT25
100
AcDbText
 10
-160.9
 20
79.40000000000001
 30
0.0
 40
2.0
  1

 41
0.8
  7
TEXT20
100
AcDbAttributeDefinition
  3
Datum v.:
  2
F69
 70
     0
280
     0
  0
ATTDEF
  5
397
330
35C
100
AcDbEntity
  8
TEXT25
100
AcDbText
 10
-160.6
 20
84.50000000000001
 30
0.0
 40
2.0
  1

 41
0.8
  7
TEXT20
100
AcDbAttributeDefinition
  3
Datum l.:
  2
F65
 70
     0
280
     0
  0
LINE
  5
398
330
35C
100
AcDbEntity
  8
KOPF
 62
    12
100
AcDbLine
 10
-142.0
 20
68.49999999999997
 30
0.0
 11
-142.0
 21
88.49999999999996
 31
0.0
  0
LINE
  5
399
330
35C
100
AcDbEntity
  8
KOPF
100
AcDbLine
 10
-142.0
 20
68.49999999999997
 30
0.0
 11
-142.0
 21
88.49999999999996
 31
0.0
  0
ATTDEF
  5
39A
330
35C
100
AcDbEntity
  8
TEXT35
100
AcDbText
 10
-139.9
 20
59.29999999999999
 30
0.0
 40
3.5
  1

 41
0.8
  7
TEXT35
100
AcDbAttributeDefinition
  3
Gewicht:
  2
F60
 70
     0
280
     0
  0
TEXT
  5
39B
330
35C
100
AcDbEntity
  8
KOPF
100
AcDbText
 10
-140.387393
 20
54.54752599999996
 30
0.0
 40
2.0
  1
Oberfläche
 41
0.8
  7
TEXT20
100
AcDbText
  0
TEXT
  5
39C
330
35C
100
AcDbEntity
  8
KOPF
100
AcDbText
 10
-140.1020469999999
 20
65.166273
 30
0.0
 40
2.0
  1
Gewicht:
 41
0.8
  7
TEXT20
100
AcDbText
  0
TEXT
  5
39D
330
35C
100
AcDbEntity
  8
KOPF
100
AcDbText
 10
-140.1020469999999
 20
65.166273
 30
0.0
 40
2.0
  1
Gewicht:
 41
0.8
  7
TEXT20
100
AcDbText
  0
ATTDEF
  5
39E
330
35C
100
AcDbEntity
  8
TEXT25
100
AcDbText
 10
-140.4
 20
74.59999999999999
 30
0.0
 40
2.0
  1

 41
0.8
  7
TEXT20
100
AcDbAttributeDefinition
  3
Bennenung vv.:
  2
F74
 70
     0
280
     0
  0
ATTDEF
  5
39F
330
35C
100
AcDbEntity
  8
TEXT25
100
AcDbText
 10
-140.5063960262479
 20
79.64480359078786
 30
0.0
 40
2.0
  1

 41
0.8
  7
TEXT20
100
AcDbAttributeDefinition
  3
Benennung v.:
  2
F70
 70
     0
280
     0
  0
ATTDEF
  5
3A0
330
35C
100
AcDbEntity
  8
TEXT25
100
AcDbText
 10
-140.390233442385
 20
84.56120109651198
 30
0.0
 40
2.0
  1

 41
0.8
  7
TEXT20
100
AcDbAttributeDefinition
  3
Bennenung l.:
  2
F66
 70
     0
280
     0
  0
LINE
  5
3A1
330
35C
100
AcDbEntity
  8
KOPF
 62
    12
100
AcDbLine
 10
-100.0
 20
68.49999999999997
 30
0.0
 11
-100.0
 21
46.99999999999997
 31
0.0
  0
LWPOLYLINE
  5
3A2
330
35C
100
AcDbEntity
  8
KOPF
 62
    12
100
AcDbPolyline
 90
        2
 70
     0
 43
0.5
 10
-83.0
 20
46.99999999999997
 10
-83.0
 20
0.0
  0
LINE
  5
3A3
330
35C
100
AcDbEntity
  8
KOPF
100
AcDbLine
 10
-83.0
 20
46.99999999999997
 30
0.0
 11
-83.0
 21
0.0
 31
0.0
  0
TEXT
  5
3A4
330
35C
100
AcDbEntity
  8
KOPF
100
AcDbText
 10
-81.0
 20
1.714285999999985
 30
0.0
 40
2.0
  1
Ersetzt durch:
 41
0.8
  7
TEXT20
100
AcDbText
  0
LINE
  5
3A5
330
35C
100
AcDbEntity
  8
KOPF
 62
    12
100
AcDbLine
 10
-113.4
 20
27.0
 30
0.0
 11
-113.4
 21
46.99999999999997
 31
0.0
  0
LWPOLYLINE
  5
3A6
330
35C
100
AcDbEntity
  8
KOPF
100
AcDbPolyline
 90
        2
 70
     0
 43
0.5
 10
-113.4
 20
27.0
 10
-113.4
 20
46.99999999999997
  0
LINE
  5
3A7
330
35C
100
AcDbEntity
  8
KOPF
100
AcDbLine
 10
-113.4
 20
27.0
 30
0.0
 11
-113.4
 21
46.99999999999997
 31
0.0
  0
LINE
  5
3A8
330
35C
100
AcDbEntity
  8
KOPF
100
AcDbLine
 10
-113.4
 20
27.0
 30
0.0
 11
-113.4
 21
46.99999999999997
 31
0.0
  0
ATTDEF
  5
3A9
330
35C
100
AcDbEntity
  8
TEXT35
100
AcDbText
 10
-104.4935632823758
 20
33.13408015176805
 30
0.0
 40
3.5
  1

 41
0.8
  7
TEXT35
100
AcDbAttributeDefinition
  3
Maßstab 2:
  2
F54
 70
     0
280
     0
  0
ATTDEF
  5
3AA
330
35C
100
AcDbEntity
  8
TEXT35
100
AcDbText
 10
-104.487948258847
 20
28.6
 30
0.0
 40
3.5
  1

 41
0.8
  7
TEXT35
100
AcDbAttributeDefinition
  3
Maßstab 3:
  2
F55
 70
     0
280
     0
  0
ATTDEF
  5
3AB
330
35C
100
AcDbEntity
  8
TEXT50
100
AcDbText
 10
-106.6
 20
37.8
 30
0.0
 40
5.0
  1

 41
0.8
  7
TEXT50
100
AcDbAttributeDefinition
  3
Maßstab 1:
  2
F25
 70
     0
280
     0
  0
TEXT
  5
3AC
330
35C
100
AcDbEntity
  8
KOPF
100
AcDbText
 10
-112.263457
 20
43.88678899999999
 30
0.0
 40
2.0
  1
Massstab:
 41
0.8
  7
TEXT20
100
AcDbText
  0
LINE
  5
3AD
330
35C
100
AcDbEntity
  8
KOPF
 62
    12
100
AcDbLine
 10
-57.80813400000011
 20
27.0
 30
0.0
 11
-57.80813400000011
 21
46.99999999999997
 31
0.0
  0
LINE
  5
3AE
330
35C
100
AcDbEntity
  8
KOPF
100
AcDbLine
 10
-57.80813400000011
 20
27.0
 30
0.0
 11
-57.80813400000011
 21
46.99999999999997
 31
0.0
  0
TEXT
  5
3AF
330
35C
100
AcDbEntity
  8
KOPF
100
AcDbText
 10
-81.59296000000006
 20
23.69783599999999
 30
0.0
 40
2.0
  1
Zeichnung Nr.:
 41
0.8
  7
TEXT20
100
AcDbText
  0
TEXT
  5
3B0
330
35C
100
AcDbEntity
  8
KOPF
100
AcDbText
 10
-81.00375700000006
 20
5.924711999999997
 30
0.0
 40
2.0
  1
Ersatz für:
 41
0.8
  7
TEXT20
100
AcDbText
  0
TEXT
  5
3B1
330
35C
100
AcDbEntity
  8
KOPF
100
AcDbText
 10
-81.59296000000006
 20
23.69783599999999
 30
0.0
 40
2.0
  1
Zeichnung Nr.:
 41
0.8
  7
TEXT20
100
AcDbText
  0
ATTDEF
  5
3B2
330
35C
100
AcDbEntity
  8
TEXT50
100
AcDbText
 10
-78.29193986361122
 20
14.50587824180555
 30
0.0
 40
5.0
  1

 41
0.8
  7
TEXT50
100
AcDbAttributeDefinition
  3
Standart:
  2
F1
 70
     0
280
     0
  0
TEXT
  5
3B3
330
35C
100
AcDbEntity
  8
KOPF
100
AcDbText
 10
-81.48889200000008
 20
43.86057200000001
 30
0.0
 40
2.0
  1
Masseinheit:
 41
0.8
  7
TEXT20
100
AcDbText
  0
LINE
  5
3B4
330
35C
100
AcDbEntity
  8
KOPF
 62
    12
100
AcDbLine
 10
-57.80813400000011
 20
36.213444
 30
0.0
 11
-83.0
 21
36.213444
 31
0.0
  0
LINE
  5
3B5
330
35C
100
AcDbEntity
  8
KOPF
100
AcDbLine
 10
-57.80813400000011
 20
36.213444
 30
0.0
 11
-83.0
 21
36.213444
 31
0.0
  0
ATTDEF
  5
3B6
330
35C
100
AcDbEntity
  8
TEXT35
100
AcDbText
 10
-79.40896486611496
 20
38.08722024605356
 30
0.0
 40
3.5
  1

 41
0.8
  7
TEXT35
100
AcDbAttributeDefinition
  3
Maßeinheit:
  2
F56
 70
     0
280
     0
  0
TEXT
  5
3B7
330
35C
100
AcDbEntity
  8
KOPF
100
AcDbText
 10
-33.57569784693112
 20
42.62823225872138
 30
0.0
 40
1.54
  1
Diese Zeichnung darf weder kopiert
 41
0.8
  7
TEXT20
100
AcDbText
  0
TEXT
  5
3B8
330
35C
100
AcDbEntity
  8
KOPF
100
AcDbText
 10
-33.57569784693112
 20
40.26106040199917
 30
0.0
 40
1.54
  1
noch dritten Personen, insbesondere
 41
0.8
  7
TEXT20
100
AcDbText
  0
TEXT
  5
3B9
330
35C
100
AcDbEntity
  8
KOPF
100
AcDbText
 10
-33.57569784693112
 20
35.63814072439632
 30
0.0
 40
1.54
  1
mitgeteilt werden und bleibt unser
 41
0.8
  7
TEXT20
100
AcDbText
  0
TEXT
  5
3BA
330
35C
100
AcDbEntity
  8
KOPF
100
AcDbText
 10
-33.57569784693112
 20
33.37532604459598
 30
0.0
 40
1.54
  1
Eigentum.
 41
0.8
  7
TEXT20
100
AcDbText
  0
TEXT
  5
3BB
330
35C
100
AcDbEntity
  8
KOPF
100
AcDbText
 10
-33.57569784693112
 20
37.97994933403727
 30
0.0
 40
1.54
  1
zum Zweck anderweitiger Benutzung
 41
0.8
  7
TEXT20
100
AcDbText
  0
TEXT
  5
3BC
330
35C
100
AcDbEntity
  8
KOPF
100
AcDbText
 10
-33.7904806989385
 20
30.30982488917614
 30
0.0
 40
1.54
  1
Schutzvermerk nach DIN 34 beachten
 41
0.75
  7
TEXT20
100
AcDbText
  0
LINE
  5
3BD
330
35C
100
AcDbEntity
  8
KOPF
100
AcDbLine
 10
-34.94281200000012
 20
47.01203199999999
 30
0.0
 11
-34.94281200000012
 21
27.0
 31
0.0
  0
LINE
  5
3BE
330
35C
100
AcDbEntity
  8
KOPF
100
AcDbLine
 10
-34.94281200000012
 20
47.01203199999999
 30
0.0
 11
-34.94281200000012
 21
27.0
 31
0.0
  0
LINE
  5
3BF
330
35C
100
AcDbEntity
  8
MITTE
100
AcDbLine
 10
-45.85521401410289
 20
36.04852954632858
 30
0.0
 11
-35.23444858652556
 21
36.04852954632858
 31
0.0
  0
LINE
  5
3C0
330
35C
100
AcDbEntity
  8
TEXT50
100
AcDbLine
 10
-45.05865660703466
 20
32.02559619470341
 30
0.0
 11
-36.50894043783512
 21
34.06858135367652
 31
0.0
  0
LINE
  5
3C1
330
35C
100
AcDbEntity
  8
TEXT50
100
AcDbLine
 10
-36.50894043783512
 20
38.02847773898061
 30
0.0
 11
-45.05865660703466
 21
40.07146289795374
 31
0.0
  0
TEXT
  5
3C2
330
35C
100
AcDbEntity
  8
KOPF
100
AcDbText
 10
-57.12244047883302
 20
43.82431699999997
 30
0.0
 40
2.0
  1
Projektion: ISO-E
 41
0.8
  7
TEXT20
100
AcDbText
  0
LINE
  5
3C3
330
35C
100
AcDbEntity
  8
TEXT50
100
AcDbLine
 10
-45.05865660703466
 20
40.07146289795374
 30
0.0
 11
-45.05865660703466
 21
32.02559619470346
 31
0.0
  0
LINE
  5
3C4
330
35C
100
AcDbEntity
  8
MITTE
100
AcDbLine
 10
-51.4945506424383
 20
40.07146289795374
 30
0.0
 11
-51.4945506424383
 21
30.76413131482123
 31
0.0
  0
CIRCLE
  5
3C5
330
35C
100
AcDbEntity
  8
TEXT50
100
AcDbCircle
 10
-51.4945506424383
 20
36.04852954632858
 30
0.0
 40
4.022933351625178
  0
CIRCLE
  5
3C6
330
35C
100
AcDbEntity
  8
TEXT50
100
AcDbCircle
 10
-51.4945506424383
 20
36.04852954632858
 30
0.0
 40
1.979948192651899
  0
LINE
  5
3C7
330
35C
100
AcDbEntity
  8
MITTE
100
AcDbLine
 10
-56.48631039339966
 20
36.04852954632858
 30
0.0
 11
-46.50279089147699
 21
36.04852954632858
 31
0.0
  0
LINE
  5
3C8
330
35C
100
AcDbEntity
  8
TEXT50
100
AcDbLine
 10
-36.50894043783512
 20
38.02847773898061
 30
0.0
 11
-36.50894043783512
 21
34.06858135367652
 31
0.0
  0
LWPOLYLINE
  5
3C9
330
35C
100
AcDbEntity
  8
KOPF
 62
    12
100
AcDbPolyline
 90
        2
 70
     0
 43
0.5
 10
-12.0
 20
27.0
 10
-12.0
 20
10.0
  0
LINE
  5
3CA
330
35C
100
AcDbEntity
  8
KOPF
100
AcDbLine
 10
-12.0
 20
27.0
 30
0.0
 11
-12.0
 21
10.0
 31
0.0
  0
ATTDEF
  5
3CB
330
35C
100
AcDbEntity
  8
TEXT50
100
AcDbText
 10
-5.58570360403041
 20
17.00587824180555
 30
0.0
 40
5.0
  1

 41
0.8
  7
TEXT50
 72
     4
 11
-5.58570360403041
 21
17.00587824180555
 31
0.0
100
AcDbAttributeDefinition
  3
Index:
  2
F1B
 70
     0
280
     0
  0
TEXT
  5
3CC
330
35C
100
AcDbEntity
  8
KOPF
100
AcDbText
 10
-8.353129999999964
 20
23.330072
 30
0.0
 40
2.0
  1
Index
 41
0.8
  7
TEXT20
100
AcDbText
  0
TEXT
  5
3CD
330
35C
100
AcDbEntity
  8
KOPF
100
AcDbText
 10
-94.40535829344497
 20
70.39773773357916
 30
0.0
 40
2.0
  1
Benennung
 41
0.8
  7
TEXT20
100
AcDbText
  0
LINE
  5
3CE
330
35C
100
AcDbEntity
  8
KOPF
100
AcDbLine
 10
-15.0
 20
88.49999999999996
 30
0.0
 11
-15.0
 21
68.49999999999997
 31
0.0
  0
LINE
  5
3CF
330
35C
100
AcDbEntity
  8
KOPF
100
AcDbLine
 10
-15.0
 20
88.49999999999996
 30
0.0
 11
-15.0
 21
68.49999999999997
 31
0.0
  0
TEXT
  5
3D0
330
35C
100
AcDbEntity
  8
KOPF
100
AcDbText
 10
-11.65833600000008
 20
69.53813999999997
 30
0.0
 40
2.0
  1
Name
 41
0.8
  7
TEXT20
100
AcDbText
  0
TEXT
  5
3D1
330
35C
100
AcDbEntity
  8
KOPF
100
AcDbText
 10
-11.65833600000008
 20
69.53813999999997
 30
0.0
 40
2.0
  1
Name
 41
0.8
  7
TEXT20
100
AcDbText
  0
ATTDEF
  5
3D2
330
35C
100
AcDbEntity
  8
TEXT25
100
AcDbText
 10
-13.39999999999998
 20
74.90000000000001
 30
0.0
 40
2.0
  1

 41
0.8
  7
TEXT20
100
AcDbAttributeDefinition
  3
Name vv.:
  2
F75
 70
     0
280
     0
  0
ATTDEF
  5
3D3
330
35C
100
AcDbEntity
  8
TEXT25
100
AcDbText
 10
-13.39999999999998
 20
79.7
 30
0.0
 40
2.0
  1

 41
0.8
  7
TEXT20
100
AcDbAttributeDefinition
  3
Name v.:
  2
F71
 70
     0
280
     0
  0
ATTDEF
  5
3D4
330
35C
100
AcDbEntity
  8
TEXT25
100
AcDbText
 10
-13.31006638105163
 20
84.29999999999999
 30
0.0
 40
2.0
  1

 41
0.8
  7
TEXT20
100
AcDbAttributeDefinition
  3
Name l.:
  2
F67
 70
     0
280
     0
  0
LINE
  5
3D5
330
35C
100
AcDbEntity
  8
KOPF
100
AcDbLine
 10
-182.0
 20
36.99999999999997
 30
0.0
 11
-113.4
 21
36.99999999999997
 31
0.0
  0
LINE
  5
3D6
330
35C
100
AcDbEntity
  8
KOPF
100
AcDbLine
 10
-182.0
 20
31.99999999999997
 30
0.0
 11
-113.4
 21
31.99999999999997
 31
0.0
  0
MTEXT
  5
3D7
330
35C
100
AcDbEntity
  8
Sperrlayer
 62
     1
100
AcDbMText
 10
-166.0749851709908
 20
9.027899370527848
 30
0.0
 40
10.0
 41
771.0
 46
0.0
 71
     1
 72
     5
  1
VORABZUG - nicht FREIGEGEBEN !
  7
TEXT20
 11
0.8660254037844387
 21
0.5
 31
0.0
 73
     1
 44
1.0
  0
ENDBLK
  5
3D9
330
35C
100
AcDbEntity
  8
0
100
AcDbBlockEnd
  0
BLOCK
  5
40C
330
3FC
100
AcDbEntity
  8
0
100
AcDbBlockBegin
  2
A$C17D61B2D
 70
     0
 10
0.0
 20
0.0
 30
0.0
  3
A$C17D61B2D
  1

  0
TEXT
  5
3FD
330
3FC
100
AcDbEntity
  8
TEXT25
100
AcDbText
 10
30.87850901831645
 20
0.9382700750549801
 30
0.0
 40
2.0
  1
582 22 Pribyslav
 41
0.8
  7
TEXT25
100
AcDbText
  0
CIRCLE
  5
3FE
330
3FC
100
AcDbEntity
  8
TEXT35
100
AcDbCircle
 10
15.72339699741562
 20
3.469033628030828
 30
0.0
 40
2.281499999999998
  0
CIRCLE
  5
3FF
330
3FC
100
AcDbEntity
  8
TEXT35
100
AcDbCircle
 10
15.72339699741562
 20
3.469033628030828
 30
0.0
 40
1.579499999999999
  0
LWPOLYLINE
  5
400
330
3FC
100
AcDbEntity
  8
TEXT35
100
AcDbPolyline
 90
        4
 70
     1
 43
0.0
 10
10.62677788559575
 20
2.679283628030795
 42
-3.664441495333134
 10
10.61199359762702
 20
4.283854443711881
 10
11.2200148949108
 20
4.634895703371711
 42
3.685001202565794
 10
11.23472771905243
 20
2.328283628030796
  0
LWPOLYLINE
  5
401
330
3FC
100
AcDbEntity
  8
TEXT35
100
AcDbPolyline
 90
        4
 70
     1
 43
0.0
 10
6.464506005892886
 20
13.23480232842506
 10
6.464506005892886
 20
0.0000000074210078
 10
12.05327551474352
 20
0.0000000074210078
 10
12.05327551474352
 20
13.23480232842506
  0
LWPOLYLINE
  5
402
330
3FC
100
AcDbEntity
  8
TEXT35
100
AcDbPolyline
 90
        4
 70
     1
 43
0.0
 10
18.51778175184091
 20
13.23480232842506
 10
18.51778175184091
 20
0.0000000074210078
 10
12.92901224299031
 20
0.0000000074210078
 10
12.92901224299031
 20
13.23480232842506
  0
TEXT
  5
403
330
3FC
100
AcDbEntity
  8
TEXT25
100
AcDbText
 10
56.32815580692983
 20
1.133682847130231
 30
0.0
 40
2.1
  1
Fax: 0451 / 482529
 41
0.7
  7
ROMANS8
100
AcDbText
  0
LWPOLYLINE
  5
404
330
3FC
100
AcDbEntity
  8
TEXT35
100
AcDbPolyline
 90
        7
 70
     1
 43
0.0
 10
1.214946902987747
 20
1.156826878358494
 42
-0.0323236910300514
 10
1.259126029445354
 20
1.78997874937292
 10
4.329643016996229
 20
1.78997874937292
 42
-0.0323236910300515
 10
4.373822143453722
 20
1.156826878358494
 10
5.075829941005736
 20
1.156826878358494
 42
0.2369604974400691
 10
2.794384523220728
 20
5.650978749372697
 42
0.2369604974400691
 10
0.5129391054357058
 20
1.156826878358494
  0
LWPOLYLINE
  5
405
330
3FC
100
AcDbEntity
  8
TEXT35
100
AcDbPolyline
 90
        4
 70
     1
 43
0.0
 10
-0.0000002312045524
 20
13.23480232842506
 10
-0.0000002312045524
 20
0.0000000074210078
 10
5.588769277646022
 20
0.0000000074210078
 10
5.588769277646022
 20
13.23480232842506
  0
LWPOLYLINE
  5
406
330
3FC
100
AcDbEntity
  8
TEXT25
100
AcDbPolyline
 90
        3
 70
     0
 43
0.0
 10
35.97331500896064
 20
6.576413418349517
 10
36.28329402847027
 20
6.233280786482978
 10
36.56006185210757
 20
6.598551176006488
  0
TEXT
  5
407
330
3FC
100
AcDbEntity
  8
TEXT25
100
AcDbText
 10
31.16484510745873
 20
4.564567807056448
 30
0.0
 40
2.0
  1
Havlickova 260
 41
0.8
  7
TEXT25
100
AcDbText
  0
TEXT
  5
408
330
3FC
100
AcDbEntity
  8
TEXT35
100
AcDbText
 10
30.60986516410871
 20
9.757637146467189
 30
0.0
 40
3.0
  1
ACO Stavebni prvky k.s
 41
0.8
  7
ITALICC8
100
AcDbText
  0
LWPOLYLINE
  5
409
330
3FC
100
AcDbEntity
  8
TEXT35
100
AcDbPolyline
 90
        3
 70
     1
 43
0.0
 10
2.794384523220813
 20
4.741568886939916
 42
-0.1369919174131033
 10
4.181964078490665
 20
2.491978749372925
 10
1.406804967950819
 20
2.491978749372925
 42
-0.136991917413112
  0
TEXT
  5
40A
330
3FC
100
AcDbEntity
  8
TEXT25
100
AcDbText
 10
56.27541966991671
 20
4.462289744237651
 30
0.0
 40
2.1
  1
Tel.: 0451 / 491660
 41
0.7
  7
ROMANS8
100
AcDbText
  0
LWPOLYLINE
  5
40B
330
3FC
100
AcDbEntity
  8
TEXT25
100
AcDbPolyline
 90
        3
 70
     0
 43
0.0
 10
39.25755894031892
 20
3.085395868142015
 10
39.56753795982848
 20
2.742263236275476
 10
39.84430578346579
 20
3.107533625798993
  0
ENDBLK
  5
40D
330
3FC
100
AcDbEntity
  8
0
100
AcDbBlockEnd
  0
BLOCK
  5
412
330
410
100
AcDbEntity
  8
0
100
AcDbBlockBegin
  2
logo_1200
 70
     0
 10
0.0
 20
0.0
 30
0.0
  3
logo_1200
  1

  0
INSERT
  5
411
330
410
100
AcDbEntity
  8
KOPF
100
AcDbBlockReference
  2
A$C17D61B2D
 10
-93.62972968665189
 20
51.4441636028745
 30
0.0
  0
ENDBLK
  5
413
330
410
100
AcDbEntity
  8
0
100
AcDbBlockEnd
  0
BLOCK
  5
6A7
330
6A6
100
AcDbEntity
  8
0
100
AcDbBlockBegin
  2
Pozice1
 70
     0
 10
0.0
 20
0.0
 30
0.0
  3
Pozice1
  1

  0
LINE
  5
6A8
330
6A6
100
AcDbEntity
  8
Značka (ISO)
100
AcDbLine
 10
88.29907221466394
 20
266.3951624226765
 30
0.0
 11
89.2375986551047
 21
264.0780158756076
 31
0.0
  0
POLYLINE
  5
6A9
330
6A6
100
AcDbEntity
  8
Značka (ISO)
100
AcDb2dPolyline
 66
     1
 10
0.0
 20
0.0
 30
0.0
 70
   128
  0
VERTEX
  5
6AA
330
6A9
100
AcDbEntity
  8
Značka (ISO)
100
AcDbVertex
100
AcDb2dVertex
 10
87.83564567565917
 20
266.2074661254883
 30
0.0
  0
VERTEX
  5
6AB
330
6A9
100
AcDbEntity
  8
Značka (ISO)
100
AcDbVertex
100
AcDb2dVertex
 10
89.23759460449218
 20
264.0780067443848
 30
0.0
  0
VERTEX
  5
6AC
330
6A9
100
AcDbEntity
  8
Značka (ISO)
100
AcDbVertex
100
AcDb2dVertex
 10
88.76250267028808
 20
266.5828704833984
 30
0.0
  0
VERTEX
  5
6AD
330
6A9
100
AcDbEntity
  8
Značka (ISO)
100
AcDbVertex
100
AcDb2dVertex
 10
87.83564567565917
 20
266.2074661254883
 30
0.0
  0
SEQEND
  5
6AE
330
6A9
100
AcDbEntity
  8
Značka (ISO)
  0
SOLID
  5
6AF
330
6A6
100
AcDbEntity
  8
Značka (ISO)
100
AcDbTrace
 10
87.83564567565917
 20
266.2074661254883
 30
0.0
 11
89.23759460449218
 21
264.0780067443848
 31
0.0
 12
88.76250267028808
 22
266.5828704833984
 32
0.0
 13
87.83564567565917
 23
266.2074661254883
 33
0.0
  0
LINE
  5
6B0
330
6A6
100
AcDbEntity
  8
Značka (ISO)
100
AcDbLine
 10
87.83564290525013
 20
266.2074571345884
 30
0.0
 11
89.2375986551047
 21
264.0780158756076
 31
0.0
  0
LINE
  5
6B1
330
6A6
100
AcDbEntity
  8
Značka (ISO)
100
AcDbLine
 10
89.2375986551047
 20
264.0780158756076
 30
0.0
 11
88.76250152407772
 21
266.5828677107647
 31
0.0
  0
LINE
  5
6B2
330
6A6
100
AcDbEntity
  8
Značka (ISO)
100
AcDbLine
 10
88.76250152407772
 20
266.5828677107647
 30
0.0
 11
87.83564290525013
 21
266.2074571345884
 31
0.0
  0
LINE
  5
6B3
330
6A6
100
AcDbEntity
  8
Značka (ISO)
100
AcDbLine
 10
88.29907221466394
 20
266.3951624226765
 30
0.0
 11
84.48473370130505
 21
275.8124584462502
 31
0.0
  0
MTEXT
  5
6B4
330
6A6
100
AcDbEntity
  8
Značka (ISO)
100
AcDbMText
 10
76.60973405893293
 20
282.540881958791
 30
0.0
 40
5.24999976158142
 41
0.0
 46
0.0
 71
     5
 72
     1
  1
5
  7
Text popisu (ISO)
 73
     1
 44
1.0
  0
LINE
  5
6B5
330
6A6
100
AcDbEntity
  8
Značka (ISO)
100
AcDbLine
 10
84.48473370130505
 20
275.8124584462502
 30
0.0
 11
68.7347344165608
 21
275.8124584462502
 31
0.0
  0
ENDBLK
  5
6B6
330
6A6
100
AcDbEntity
  8
0
100
AcDbBlockEnd
  0
BLOCK
  5
6B8
330
6B7
100
AcDbEntity
  8
0
100
AcDbBlockBegin
  2
*D18
 70
     1
 10
0.0
 20
0.0
 30
0.0
  3
*D18
  1

  0
LINE
  5
6B9
330
6B7
100
AcDbEntity
  8
Kóta (ISO)
440
 16777216
100
AcDbLine
 10
167.121513841028
 20
579.2168214940194
 30
0.0
 11
61.62151384102829
 21
579.2168214940194
 31
0.0
  0
LINE
  5
6BA
330
6B7
100
AcDbEntity
  8
Kóta (ISO)
440
 16777216
100
AcDbLine
 10
119.1215138410279
 20
671.3140434631077
 30
0.0
 11
61.62151384102831
 21
671.3140434631077
 31
0.0
  0
LINE
  5
6BB
330
6B7
100
AcDbEntity
  8
Kóta (ISO)
440
 16777216
100
AcDbLine
 10
64.12151384102829
 20
585.4668214940194
 30
0.0
 11
64.12151384102831
 21
665.0640434631077
 31
0.0
  0
SOLID
  5
6BC
330
6B7
100
AcDbEntity
  8
Kóta (ISO)
440
 16777216
100
AcDbTrace
 10
63.07984717436163
 20
585.4668214940194
 30
0.0
 11
65.16318050769496
 21
585.4668214940194
 31
0.0
 12
64.12151384102829
 22
579.2168214940194
 32
0.0
 13
64.12151384102829
 23
579.2168214940194
 33
0.0
  0
SOLID
  5
6BD
330
6B7
100
AcDbEntity
  8
Kóta (ISO)
440
 16777216
100
AcDbTrace
 10
63.07984717436164
 20
665.0640434631077
 30
0.0
 11
65.16318050769497
 21
665.0640434631077
 31
0.0
 12
64.12151384102831
 22
671.3140434631077
 32
0.0
 13
64.12151384102831
 23
671.3140434631077
 33
0.0
  0
MTEXT
  5
6BE
330
6B7
100
AcDbEntity
  8
Kóta (ISO)
440
 16777216
100
AcDbMText
 10
51.09679590953055
 20
606.8529609796518
 30
0.0
 40
8.75
 41
0.0
 46
0.0
 71
     1
 72
     1
  1
\A1;92,1{\H8.763000;±2}
  7
Text poznámky (ISO)
 11
0.0000000000000001
 21
1.0
 31
0.0
 73
     1
 44
1.0
  0
POINT
  5
6BF
330
6B7
100
AcDbEntity
  8
DEFPOINTS
 62
     0
440
 16777216
100
AcDbPoint
 10
167.121513841028
 20
579.2168214940194
 30
0.0
  0
POINT
  5
6C0
330
6B7
100
AcDbEntity
  8
DEFPOINTS
 62
     0
440
 16777216
100
AcDbPoint
 10
119.1215138410279
 20
671.3140434631077
 30
0.0
  0
POINT
  5
6C1
330
6B7
100
AcDbEntity
  8
DEFPOINTS
 62
     0
440
 16777216
100
AcDbPoint
 10
64.12151384102831
 20
671.3140434631077
 30
0.0
  0
ENDBLK
  5
6C2
330
6B7
100
AcDbEntity
  8
0
100
AcDbBlockEnd
  0
BLOCK
  5
6C4
330
6C3
100
AcDbEntity
  8
0
100
AcDbBlockBegin
  2
Pozice3
 70
     0
 10
0.0
 20
0.0
 30
0.0
  3
Pozice3
  1

  0
LINE
  5
6C5
330
6C3
100
AcDbEntity
  8
Značka (ISO)
100
AcDbLine
 10
186.0983869859351
 20
259.1354684178595
 30
0.0
 11
184.0205309157314
 21
260.5256173852431
 31
0.0
  0
POLYLINE
  5
6C6
330
6C3
100
AcDbEntity
  8
Značka (ISO)
100
AcDb2dPolyline
 66
     1
 10
0.0
 20
0.0
 30
0.0
 70
   128
  0
VERTEX
  5
6C7
330
6C6
100
AcDbEntity
  8
Značka (ISO)
100
AcDbVertex
100
AcDb2dVertex
 10
186.3764190673828
 20
259.5510482788086
 30
0.0
  0
VERTEX
  5
6C8
330
6C6
100
AcDbEntity
  8
Značka (ISO)
100
AcDbVertex
100
AcDb2dVertex
 10
184.0205383300781
 20
260.5256080627441
 30
0.0
  0
VERTEX
  5
6C9
330
6C6
100
AcDbEntity
  8
Značka (ISO)
100
AcDbVertex
100
AcDb2dVertex
 10
185.8203506469726
 20
258.7199020385742
 30
0.0
  0
VERTEX
  5
6CA
330
6C6
100
AcDbEntity
  8
Značka (ISO)
100
AcDbVertex
100
AcDb2dVertex
 10
186.3764190673828
 20
259.5510482788086
 30
0.0
  0
SEQEND
  5
6CB
330
6C6
100
AcDbEntity
  8
Značka (ISO)
  0
SOLID
  5
6CC
330
6C3
100
AcDbEntity
  8
Značka (ISO)
100
AcDbTrace
 10
186.3764190673828
 20
259.5510482788086
 30
0.0
 11
184.0205383300781
 21
260.5256080627441
 31
0.0
 12
185.8203506469726
 22
258.7199020385742
 32
0.0
 13
186.3764190673828
 23
259.5510482788086
 33
0.0
  0
LINE
  5
6CD
330
6C3
100
AcDbEntity
  8
Značka (ISO)
100
AcDbLine
 10
186.3764167794119
 20
259.5510396319003
 30
0.0
 11
184.0205309157314
 21
260.5256173852431
 31
0.0
  0
LINE
  5
6CE
330
6C3
100
AcDbEntity
  8
Značka (ISO)
100
AcDbLine
 10
184.0205309157314
 20
260.5256173852431
 30
0.0
 11
185.8203571924585
 21
258.7198972038188
 31
0.0
  0
LINE
  5
6CF
330
6C3
100
AcDbEntity
  8
Značka (ISO)
100
AcDbLine
 10
185.8203571924585
 20
258.7198972038188
 30
0.0
 11
186.3764167794119
 21
259.5510396319003
 31
0.0
  0
LINE
  5
6D0
330
6C3
100
AcDbEntity
  8
Značka (ISO)
100
AcDbLine
 10
186.0983869859351
 20
259.1354684178595
 30
0.0
 11
196.9295160414313
 21
251.8891133463945
 31
0.0
  0
MTEXT
  5
6D1
330
6C3
100
AcDbEntity
  8
Značka (ISO)
100
AcDbMText
 10
205.1125380636786
 20
258.6728446048688
 30
0.0
 40
5.24999976158142
 41
0.0
 46
0.0
 71
     5
 72
     1
  1
1.3
  7
Text popisu (ISO)
 73
     1
 44
1.0
  0
LINE
  5
6D2
330
6C3
100
AcDbEntity
  8
Značka (ISO)
100
AcDbLine
 10
196.9295160414313
 20
251.8891133463945
 30
0.0
 11
213.2955600859259
 21
251.8891133463945
 31
0.0
  0
ENDBLK
  5
6D3
330
6C3
100
AcDbEntity
  8
0
100
AcDbBlockEnd
  0
BLOCK
  5
6D5
330
6D4
100
AcDbEntity
  8
0
100
AcDbBlockBegin
  2
Pozice4
 70
     0
 10
0.0
 20
0.0
 30
0.0
  3
Pozice4
  1

  0
LINE
  5
6D6
330
6D4
100
AcDbEntity
  8
Značka (ISO)
100
AcDbLine
 10
57.12561386558615
 20
253.3484614558744
 30
0.0
 11
58.01230885566987
 21
255.6859327379569
 31
0.0
  0
POLYLINE
  5
6D7
330
6D4
100
AcDbEntity
  8
Značka (ISO)
100
AcDb2dPolyline
 66
     1
 10
0.0
 20
0.0
 30
0.0
 70
   128
  0
VERTEX
  5
6D8
330
6D7
100
AcDbEntity
  8
Značka (ISO)
100
AcDbVertex
100
AcDb2dVertex
 10
57.59310722351074
 20
253.1711196899414
 30
0.0
  0
VERTEX
  5
6D9
330
6D7
100
AcDbEntity
  8
Značka (ISO)
100
AcDbVertex
100
AcDb2dVertex
 10
58.01230907440185
 20
255.6859397888183
 30
0.0
  0
VERTEX
  5
6DA
330
6D7
100
AcDbEntity
  8
Značka (ISO)
100
AcDbVertex
100
AcDb2dVertex
 10
56.65812015533447
 20
253.5257911682129
 30
0.0
  0
VERTEX
  5
6DB
330
6D7
100
AcDbEntity
  8
Značka (ISO)
100
AcDbVertex
100
AcDb2dVertex
 10
57.59310722351074
 20
253.1711196899414
 30
0.0
  0
SEQEND
  5
6DC
330
6D7
100
AcDbEntity
  8
Značka (ISO)
  0
SOLID
  5
6DD
330
6D4
100
AcDbEntity
  8
Značka (ISO)
100
AcDbTrace
 10
57.59310722351074
 20
253.1711196899414
 30
0.0
 11
58.01230907440185
 21
255.6859397888183
 31
0.0
 12
56.65812015533447
 22
253.5257911682129
 32
0.0
 13
57.59310722351074
 23
253.1711196899414
 33
0.0
  0
LINE
  5
6DE
330
6D4
100
AcDbEntity
  8
Značka (ISO)
100
AcDbLine
 10
57.59310812200265
 20
253.1711224578577
 30
0.0
 11
58.01230885566987
 21
255.6859327379569
 31
0.0
  0
LINE
  5
6DF
330
6D4
100
AcDbEntity
  8
Značka (ISO)
100
AcDbLine
 10
58.01230885566987
 20
255.6859327379569
 30
0.0
 11
56.65811960916965
 21
253.5258004538912
 31
0.0
  0
LINE
  5
6E0
330
6D4
100
AcDbEntity
  8
Značka (ISO)
100
AcDbLine
 10
56.65811960916965
 20
253.5258004538912
 30
0.0
 11
57.59310812200265
 21
253.1711224578577
 31
0.0
  0
LINE
  5
6E1
330
6D4
100
AcDbEntity
  8
Značka (ISO)
100
AcDbLine
 10
57.12561386558615
 20
253.3484614558744
 30
0.0
 11
50.67245503668818
 21
236.3368919647218
 31
0.0
  0
MTEXT
  5
6E2
330
6D4
100
AcDbEntity
  8
Značka (ISO)
100
AcDbMText
 10
42.48943301444086
 20
242.9546994126321
 30
0.0
 40
5.24999976158142
 41
0.0
 46
0.0
 71
     5
 72
     1
  1
1.2
  7
Text popisu (ISO)
 73
     1
 44
1.0
  0
LINE
  5
6E3
330
6D4
100
AcDbEntity
  8
Značka (ISO)
100
AcDbLine
 10
50.67245503668818
 20
236.3368919647218
 30
0.0
 11
34.30641099219355
 21
236.3368919647218
 31
0.0
  0
ENDBLK
  5
6E4
330
6D4
100
AcDbEntity
  8
0
100
AcDbBlockEnd
  0
BLOCK
  5
6E6
330
6E5
100
AcDbEntity
  8
0
100
AcDbBlockBegin
  2
2dPrevedenyRez0
 70
     0
 10
0.0
 20
0.0
 30
0.0
  3
2dPrevedenyRez0
  1

  0
LINE
  5
6E7
330
6E5
100
AcDbEntity
  8
Čára řezu (ISO)
  6
Continuous
100
AcDbLine
 10
106.8486055364442
 20
274.3244552542615
 30
0.0
 11
106.8486055364443
 21
218.4507122978379
 31
0.0
  0
LINE
  5
6E8
330
6E5
100
AcDbEntity
  8
Čára řezu (ISO)
  6
Continuous
370
    35
100
AcDbLine
 10
106.8486055364442
 20
274.3244552542615
 30
0.0
 11
106.8486055364442
 21
271.6706164716597
 31
0.0
  0
LINE
  5
6E9
330
6E5
100
AcDbEntity
  8
Čára řezu (ISO)
  6
Continuous
370
    35
100
AcDbLine
 10
106.8486055364443
 20
221.1045510804395
 30
0.0
 11
106.8486055364443
 21
218.4507122978379
 31
0.0
  0
LINE
  5
6EA
330
6E5
100
AcDbEntity
  8
Čára řezu (ISO)
  6
Continuous
100
AcDbLine
 10
104.3486055364442
 20
272.9975358629606
 30
0.0
 11
106.8486055364442
 21
272.9975358629606
 31
0.0
  0
POLYLINE
  5
6EB
330
6E5
100
AcDbEntity
  8
Čára řezu (ISO)
  6
Continuous
100
AcDb2dPolyline
 66
     1
 10
0.0
 20
0.0
 30
0.0
 70
   128
  0
VERTEX
  5
6EC
330
6EB
100
AcDbEntity
  8
Čára řezu (ISO)
  6
Continuous
100
AcDbVertex
100
AcDb2dVertex
 10
104.3486055364442
 20
272.4975356495977
 30
0.0
  0
VERTEX
  5
6ED
330
6EB
100
AcDbEntity
  8
Čára řezu (ISO)
  6
Continuous
100
AcDbVertex
100
AcDb2dVertex
 10
106.8486055364442
 20
272.9975356495977
 30
0.0
  0
VERTEX
  5
6EE
330
6EB
100
AcDbEntity
  8
Čára řezu (ISO)
  6
Continuous
100
AcDbVertex
100
AcDb2dVertex
 10
104.3486055364442
 20
273.4975356495977
 30
0.0
  0
VERTEX
  5
6EF
330
6EB
100
AcDbEntity
  8
Čára řezu (ISO)
  6
Continuous
100
AcDbVertex
100
AcDb2dVertex
 10
104.3486055364442
 20
272.4975356495977
 30
0.0
  0
SEQEND
  5
6F0
330
6EB
100
AcDbEntity
  8
Čára řezu (ISO)
  6
Continuous
  0
SOLID
  5
6F1
330
6E5
100
AcDbEntity
  8
Čára řezu (ISO)
100
AcDbTrace
 10
104.3486055364442
 20
272.4975356495977
 30
0.0
 11
106.8486055364442
 21
272.9975356495977
 31
0.0
 12
104.3486055364442
 22
273.4975356495977
 32
0.0
 13
104.3486055364442
 23
272.4975356495977
 33
0.0
  0
LINE
  5
6F2
330
6E5
100
AcDbEntity
  8
Čára řezu (ISO)
  6
Continuous
100
AcDbLine
 10
104.3486055364442
 20
272.4975358629606
 30
0.0
 11
106.8486055364442
 21
272.9975358629606
 31
0.0
  0
LINE
  5
6F3
330
6E5
100
AcDbEntity
  8
Čára řezu (ISO)
  6
Continuous
100
AcDbLine
 10
106.8486055364442
 20
272.9975358629606
 30
0.0
 11
104.3486055364442
 21
273.4975358629606
 31
0.0
  0
LINE
  5
6F4
330
6E5
100
AcDbEntity
  8
Čára řezu (ISO)
  6
Continuous
100
AcDbLine
 10
104.3486055364442
 20
273.4975358629606
 30
0.0
 11
104.3486055364442
 21
272.4975358629606
 31
0.0
  0
LINE
  5
6F5
330
6E5
100
AcDbEntity
  8
Čára řezu (ISO)
  6
Continuous
100
AcDbLine
 10
101.6755295587487
 20
272.9975358629606
 30
0.0
 11
104.3486055364442
 21
272.9975358629606
 31
0.0
  0
LINE
  5
6F6
330
6E5
100
AcDbEntity
  8
Čára řezu (ISO)
  6
Continuous
100
AcDbLine
 10
104.3486055364443
 20
219.7776316891387
 30
0.0
 11
106.8486055364443
 21
219.7776316891387
 31
0.0
  0
POLYLINE
  5
6F7
330
6E5
100
AcDbEntity
  8
Čára řezu (ISO)
  6
Continuous
100
AcDb2dPolyline
 66
     1
 10
0.0
 20
0.0
 30
0.0
 70
   128
  0
VERTEX
  5
6F8
330
6F7
100
AcDbEntity
  8
Čára řezu (ISO)
  6
Continuous
100
AcDbVertex
100
AcDb2dVertex
 10
104.3486055364442
 20
219.2776317036749
 30
0.0
  0
VERTEX
  5
6F9
330
6F7
100
AcDbEntity
  8
Čára řezu (ISO)
  6
Continuous
100
AcDbVertex
100
AcDb2dVertex
 10
106.8486055364443
 20
219.7776317036749
 30
0.0
  0
VERTEX
  5
6FA
330
6F7
100
AcDbEntity
  8
Čára řezu (ISO)
  6
Continuous
100
AcDbVertex
100
AcDb2dVertex
 10
104.3486055364442
 20
220.2776317036748
 30
0.0
  0
VERTEX
  5
6FB
330
6F7
100
AcDbEntity
  8
Čára řezu (ISO)
  6
Continuous
100
AcDbVertex
100
AcDb2dVertex
 10
104.3486055364442
 20
219.2776317036749
 30
0.0
  0
SEQEND
  5
6FC
330
6F7
100
AcDbEntity
  8
Čára řezu (ISO)
  6
Continuous
  0
SOLID
  5
6FD
330
6E5
100
AcDbEntity
  8
Čára řezu (ISO)
100
AcDbTrace
 10
104.3486055364442
 20
219.2776317036749
 30
0.0
 11
106.8486055364443
 21
219.7776317036749
 31
0.0
 12
104.3486055364442
 22
220.2776317036748
 32
0.0
 13
104.3486055364442
 23
219.2776317036749
 33
0.0
  0
LINE
  5
6FE
330
6E5
100
AcDbEntity
  8
Čára řezu (ISO)
  6
Continuous
100
AcDbLine
 10
104.3486055364443
 20
219.2776316891387
 30
0.0
 11
106.8486055364443
 21
219.7776316891387
 31
0.0
  0
LINE
  5
6FF
330
6E5
100
AcDbEntity
  8
Čára řezu (ISO)
  6
Continuous
100
AcDbLine
 10
106.8486055364443
 20
219.7776316891387
 30
0.0
 11
104.3486055364443
 21
220.2776316891387
 31
0.0
  0
LINE
  5
700
330
6E5
100
AcDbEntity
  8
Čára řezu (ISO)
  6
Continuous
100
AcDbLine
 10
104.3486055364443
 20
220.2776316891387
 30
0.0
 11
104.3486055364443
 21
219.2776316891387
 31
0.0
  0
LINE
  5
701
330
6E5
100
AcDbEntity
  8
Čára řezu (ISO)
  6
Continuous
100
AcDbLine
 10
101.6755295587488
 20
219.7776316891387
 30
0.0
 11
104.3486055364443
 21
219.7776316891387
 31
0.0
  0
MTEXT
  5
702
330
6E5
100
AcDbEntity
  8
Čára řezu (ISO)
100
AcDbMText
 10
93.91589716128164
 20
270.3725359821699
 30
0.0
 40
5.24999976158142
 41
0.0
 46
0.0
 71
     7
 72
     1
  1
A
  7
Text popisu (ISO)
 73
     1
 44
1.0
  0
MTEXT
  5
703
330
6E5
100
AcDbEntity
  8
Čára řezu (ISO)
100
AcDbMText
 10
93.91589716128166
 20
217.152631808348
 30
0.0
 40
5.24999976158142
 41
0.0
 46
0.0
 71
     7
 72
     1
  1
A
  7
Text popisu (ISO)
 73
     1
 44
1.0
  0
ENDBLK
  5
704
330
6E5
100
AcDbEntity
  8
0
100
AcDbBlockEnd
  0
BLOCK
  5
706
330
705
100
AcDbEntity
  8
0
100
AcDbBlockBegin
  2
*D22
 70
     1
 10
0.0
 20
0.0
 30
0.0
  3
*D22
  1

  0
LINE
  5
707
330
705
100
AcDbEntity
  8
Kóta (ISO)
440
 16777216
100
AcDbLine
 10
193.3715138410279
 20
653.8140434631078
 30
0.0
 11
109.2161590086625
 21
653.8140434631078
 31
0.0
  0
LINE
  5
708
330
705
100
AcDbEntity
  8
Kóta (ISO)
440
 16777216
100
AcDbLine
 10
119.0710035838937
 20
671.3140434631077
 30
0.0
 11
109.2161590086625
 21
671.3140434631077
 31
0.0
  0
LINE
  5
709
330
705
100
AcDbEntity
  8
Kóta (ISO)
440
 16777216
100
AcDbLine
 10
111.7161590086625
 20
660.0640434631078
 30
0.0
 11
111.7161590086625
 21
665.0640434631077
 31
0.0
  0
SOLID
  5
70A
330
705
100
AcDbEntity
  8
Kóta (ISO)
440
 16777216
100
AcDbTrace
 10
110.6744923419958
 20
647.5640434631078
 30
0.0
 11
112.7578256753291
 21
647.5640434631078
 31
0.0
 12
111.7161590086625
 22
653.8140434631078
 32
0.0
 13
111.7161590086625
 23
653.8140434631078
 33
0.0
  0
LINE
  5
70B
330
705
100
AcDbEntity
  8
Kóta (ISO)
440
 16777216
100
AcDbLine
 10
111.7161590086625
 20
647.5640434631078
 30
0.0
 11
111.7161590086625
 21
641.3140434631078
 31
0.0
  0
LINE
  5
70C
330
705
100
AcDbEntity
  8
Kóta (ISO)
440
 16777216
100
AcDbLine
 10
111.7161590086625
 20
653.8140434631078
 30
0.0
 11
111.7161590086625
 21
660.0640434631078
 31
0.0
  0
SOLID
  5
70D
330
705
100
AcDbEntity
  8
Kóta (ISO)
440
 16777216
100
AcDbTrace
 10
110.6744923419958
 20
677.5640434631077
 30
0.0
 11
112.7578256753291
 21
677.5640434631077
 31
0.0
 12
111.7161590086625
 22
671.3140434631077
 32
0.0
 13
111.7161590086625
 23
671.3140434631077
 33
0.0
  0
LINE
  5
70E
330
705
100
AcDbEntity
  8
Kóta (ISO)
440
 16777216
100
AcDbLine
 10
111.7161590086625
 20
677.5640434631077
 30
0.0
 11
111.7161590086625
 21
683.8140434631077
 31
0.0
  0
LINE
  5
70F
330
705
100
AcDbEntity
  8
Kóta (ISO)
440
 16777216
100
AcDbLine
 10
111.7161590086625
 20
671.3140434631077
 30
0.0
 11
111.7161590086625
 21
665.0640434631077
 31
0.0
  0
MTEXT
  5
710
330
705
100
AcDbEntity
  8
Kóta (ISO)
440
 16777216
100
AcDbMText
 10
98.85749883404855
 20
651.866007868749
 30
0.0
 40
8.75
 41
0.0
 46
0.0
 71
     1
 72
     1
  1
\A1;17,5
  7
Text poznámky (ISO)
 11
0.0000000000000001
 21
1.0
 31
0.0
 73
     1
 44
1.0
  0
POINT
  5
711
330
705
100
AcDbEntity
  8
DEFPOINTS
 62
     0
440
 16777216
100
AcDbPoint
 10
193.3715138410279
 20
653.8140434631078
 30
0.0
  0
POINT
  5
712
330
705
100
AcDbEntity
  8
DEFPOINTS
 62
     0
440
 16777216
100
AcDbPoint
 10
119.0710035838937
 20
671.3140434631077
 30
0.0
  0
POINT
  5
713
330
705
100
AcDbEntity
  8
DEFPOINTS
 62
     0
440
 16777216
100
AcDbPoint
 10
111.7161590086625
 20
671.3140434631077
 30
0.0
  0
ENDBLK
  5
714
330
705
100
AcDbEntity
  8
0
100
AcDbBlockEnd
  0
BLOCK
  5
716
330
715
100
AcDbEntity
  8
0
100
AcDbBlockBegin
  2
*D23
 70
     1
 10
0.0
 20
0.0
 30
0.0
  3
*D23
  1

  0
LINE
  5
717
330
715
100
AcDbEntity
  8
Kóta (ISO)
440
 16777216
100
AcDbLine
 10
119.0710035838937
 20
671.3140434631077
 30
0.0
 11
87.37176441328626
 21
671.3140434631077
 31
0.0
  0
LINE
  5
718
330
715
100
AcDbEntity
  8
Kóta (ISO)
440
 16777216
100
AcDbLine
 10
89.87176441328626
 20
665.0640434631077
 30
0.0
 11
89.87176441328626
 21
657.5640434631077
 31
0.0
  0
SOLID
  5
719
330
715
100
AcDbEntity
  8
Kóta (ISO)
440
 16777216
100
AcDbTrace
 10
88.83009774661958
 20
665.0640434631077
 30
0.0
 11
90.91343107995292
 21
665.0640434631077
 31
0.0
 12
89.87176441328626
 22
671.3140434631077
 32
0.0
 13
89.87176441328626
 23
671.3140434631077
 33
0.0
  0
SOLID
  5
71A
330
715
100
AcDbEntity
  8
Kóta (ISO)
440
 16777216
100
AcDbTrace
 10
88.83009774661958
 20
657.5640434631077
 30
0.0
 11
90.91343107995292
 21
657.5640434631077
 31
0.0
 12
89.87176441328626
 22
651.3140434631077
 32
0.0
 13
89.87176441328626
 23
651.3140434631077
 33
0.0
  0
MTEXT
  5
71B
330
715
100
AcDbEntity
  8
Kóta (ISO)
440
 16777216
100
AcDbMText
 10
78.85242593108334
 20
655.3083349338936
 30
0.0
 40
8.75
 41
0.0
 46
0.0
 71
     1
 72
     1
  1
\A1;20
  7
Text poznámky (ISO)
 11
0.0000000000000001
 21
1.0
 31
0.0
 73
     1
 44
1.0
  0
POINT
  5
71C
330
715
100
AcDbEntity
  8
DEFPOINTS
 62
     0
440
 16777216
100
AcDbPoint
 10
119.0710035838937
 20
671.3140434631077
 30
0.0
  0
POINT
  5
71D
330
715
100
AcDbEntity
  8
DEFPOINTS
 62
     0
440
 16777216
100
AcDbPoint
 10
89.87176441328614
 20
651.3140434631077
 30
0.0
  0
POINT
  5
71E
330
715
100
AcDbEntity
  8
DEFPOINTS
 62
     0
440
 16777216
100
AcDbPoint
 10
89.87176441328626
 20
651.3140434631077
 30
0.0
  0
ENDBLK
  5
71F
330
715
100
AcDbEntity
  8
0
100
AcDbBlockEnd
  0
BLOCK
  5
721
330
720
100
AcDbEntity
  8
0
100
AcDbBlockBegin
  2
*D24
 70
     1
 10
0.0
 20
0.0
 30
0.0
  3
*D24
  1

  0
LINE
  5
722
330
720
100
AcDbEntity
  8
Kóta (ISO)
440
 16777216
100
AcDbLine
 10
267.121513841028
 20
613.8640434631078
 30
0.0
 11
267.121513841028
 21
589.8358161408124
 31
0.0
  0
LINE
  5
723
330
720
100
AcDbEntity
  8
Kóta (ISO)
440
 16777216
100
AcDbLine
 10
202.1215138410279
 20
645.0640434631077
 30
0.0
 11
202.1215138410279
 21
589.8358161408124
 31
0.0
  0
LINE
  5
724
330
720
100
AcDbEntity
  8
Kóta (ISO)
440
 16777216
100
AcDbLine
 10
260.871513841028
 20
592.3358161408124
 30
0.0
 11
208.3715138410279
 21
592.3358161408124
 31
0.0
  0
SOLID
  5
725
330
720
100
AcDbEntity
  8
Kóta (ISO)
440
 16777216
100
AcDbTrace
 10
260.871513841028
 20
593.377482807479
 30
0.0
 11
260.871513841028
 21
591.2941494741458
 31
0.0
 12
267.121513841028
 22
592.3358161408124
 32
0.0
 13
267.121513841028
 23
592.3358161408124
 33
0.0
  0
SOLID
  5
726
330
720
100
AcDbEntity
  8
Kóta (ISO)
440
 16777216
100
AcDbTrace
 10
208.3715138410279
 20
593.377482807479
 30
0.0
 11
208.3715138410279
 21
591.2941494741458
 31
0.0
 12
202.1215138410279
 22
592.3358161408124
 32
0.0
 13
202.1215138410279
 23
592.3358161408124
 33
0.0
  0
MTEXT
  5
727
330
720
100
AcDbEntity
  8
Kóta (ISO)
440
 16777216
100
AcDbMText
 10
228.6158053118137
 20
603.3375253416182
 30
0.0
 40
8.75
 41
0.0
 46
0.0
 71
     1
 72
     1
  1
\A1;65
  7
Text poznámky (ISO)
 73
     1
 44
1.0
  0
POINT
  5
728
330
720
100
AcDbEntity
  8
DEFPOINTS
 62
     0
440
 16777216
100
AcDbPoint
 10
267.121513841028
 20
613.8640434631078
 30
0.0
  0
POINT
  5
729
330
720
100
AcDbEntity
  8
DEFPOINTS
 62
     0
440
 16777216
100
AcDbPoint
 10
202.1215138410279
 20
645.0640434631077
 30
0.0
  0
POINT
  5
72A
330
720
100
AcDbEntity
  8
DEFPOINTS
 62
     0
440
 16777216
100
AcDbPoint
 10
202.1215138410279
 20
592.3358161408124
 30
0.0
  0
ENDBLK
  5
72B
330
720
100
AcDbEntity
  8
0
100
AcDbBlockEnd
  0
BLOCK
  5
72D
330
72C
100
AcDbEntity
  8
0
100
AcDbBlockBegin
  2
*D25
 70
     1
 10
0.0
 20
0.0
 30
0.0
  3
*D25
  1

  0
LINE
  5
72E
330
72C
100
AcDbEntity
  8
Kóta (ISO)
440
 16777216
100
AcDbLine
 10
332.121513841028
 20
645.0640434631077
 30
0.0
 11
332.121513841028
 21
589.8358161408124
 31
0.0
  0
LINE
  5
72F
330
72C
100
AcDbEntity
  8
Kóta (ISO)
440
 16777216
100
AcDbLine
 10
325.871513841028
 20
592.3358161408124
 30
0.0
 11
273.3715138411108
 21
592.3358161408124
 31
0.0
  0
SOLID
  5
730
330
72C
100
AcDbEntity
  8
Kóta (ISO)
440
 16777216
100
AcDbTrace
 10
325.871513841028
 20
593.377482807479
 30
0.0
 11
325.871513841028
 21
591.2941494741458
 31
0.0
 12
332.121513841028
 22
592.3358161408124
 32
0.0
 13
332.121513841028
 23
592.3358161408124
 33
0.0
  0
SOLID
  5
731
330
72C
100
AcDbEntity
  8
Kóta (ISO)
440
 16777216
100
AcDbTrace
 10
273.3715138411108
 20
593.377482807479
 30
0.0
 11
273.3715138411108
 21
591.2941494741458
 31
0.0
 12
267.1215138411108
 22
592.3358161408124
 32
0.0
 13
267.1215138411108
 23
592.3358161408124
 33
0.0
  0
MTEXT
  5
732
330
72C
100
AcDbEntity
  8
Kóta (ISO)
440
 16777216
100
AcDbMText
 10
293.6158053118551
 20
603.3375253416182
 30
0.0
 40
8.75
 41
0.0
 46
0.0
 71
     1
 72
     1
  1
\A1;65
  7
Text poznámky (ISO)
 73
     1
 44
1.0
  0
POINT
  5
733
330
72C
100
AcDbEntity
  8
DEFPOINTS
 62
     0
440
 16777216
100
AcDbPoint
 10
332.121513841028
 20
645.0640434631077
 30
0.0
  0
POINT
  5
734
330
72C
100
AcDbEntity
  8
DEFPOINTS
 62
     0
440
 16777216
100
AcDbPoint
 10
267.1215138411108
 20
592.3358161408124
 30
0.0
  0
POINT
  5
735
330
72C
100
AcDbEntity
  8
DEFPOINTS
 62
     0
440
 16777216
100
AcDbPoint
 10
267.1215138411108
 20
592.3358161408124
 30
0.0
  0
ENDBLK
  5
736
330
72C
100
AcDbEntity
  8
0
100
AcDbBlockEnd
  0
BLOCK
  5
738
330
737
100
AcDbEntity
  8
0
100
AcDbBlockBegin
  2
Text s odkazem1
 70
     0
 10
0.0
 20
0.0
 30
0.0
  3
Text s odkazem1
  1

  0
LINE
  5
739
330
737
100
AcDbEntity
  8
Značka (ISO)
100
AcDbLine
 10
168.9207339185428
 20
265.9242896012983
 30
0.0
 11
166.8486055364112
 21
264.5256173852431
 31
0.0
  0
POLYLINE
  5
73A
330
737
100
AcDbEntity
  8
Značka (ISO)
100
AcDb2dPolyline
 66
     1
 10
0.0
 20
0.0
 30
0.0
 70
   128
  0
VERTEX
  5
73B
330
73A
100
AcDbEntity
  8
Značka (ISO)
100
AcDbVertex
100
AcDb2dVertex
 10
168.6409950256347
 20
266.3387107849121
 30
0.0
  0
VERTEX
  5
73C
330
73A
100
AcDbEntity
  8
Značka (ISO)
100
AcDbVertex
100
AcDb2dVertex
 10
166.8486022949219
 20
264.5256233215332
 30
0.0
  0
VERTEX
  5
73D
330
73A
100
AcDbEntity
  8
Značka (ISO)
100
AcDbVertex
100
AcDb2dVertex
 10
169.2004776000976
 20
265.5098724365235
 30
0.0
  0
VERTEX
  5
73E
330
73A
100
AcDbEntity
  8
Značka (ISO)
100
AcDbVertex
100
AcDb2dVertex
 10
168.6409950256347
 20
266.3387107849121
 30
0.0
  0
SEQEND
  5
73F
330
73A
100
AcDbEntity
  8
Značka (ISO)
  0
SOLID
  5
740
330
737
100
AcDbEntity
  8
Značka (ISO)
100
AcDbTrace
 10
168.6409950256347
 20
266.3387107849121
 30
0.0
 11
166.8486022949219
 21
264.5256233215332
 31
0.0
 12
169.2004776000976
 22
265.5098724365235
 32
0.0
 13
168.6409950256347
 23
266.3387107849121
 33
0.0
  0
LINE
  5
741
330
737
100
AcDbEntity
  8
Značka (ISO)
100
AcDbLine
 10
168.6409994753318
 20
266.3387152777246
 30
0.0
 11
166.8486055364112
 21
264.5256173852431
 31
0.0
  0
LINE
  5
742
330
737
100
AcDbEntity
  8
Značka (ISO)
100
AcDbLine
 10
166.8486055364112
 20
264.5256173852431
 30
0.0
 11
169.2004683617538
 21
265.5098639248719
 31
0.0
  0
LINE
  5
743
330
737
100
AcDbEntity
  8
Značka (ISO)
100
AcDbLine
 10
169.2004683617538
 20
265.5098639248719
 30
0.0
 11
168.6409994753318
 21
266.3387152777246
 31
0.0
  0
LINE
  5
744
330
737
100
AcDbEntity
  8
Značka (ISO)
100
AcDbLine
 10
168.9207339185428
 20
265.9242896012983
 30
0.0
 11
181.7484631306496
 21
274.5829174154667
 31
0.0
  0
LINE
  5
745
330
737
100
AcDbEntity
  8
Značka (ISO)
100
AcDbLine
 10
181.7484631306496
 20
274.5829174154667
 30
0.0
 11
188.173454781286
 21
274.6203369527202
 31
0.0
  0
LINE
  5
746
330
737
100
AcDbEntity
  8
Značka (ISO)
100
AcDbLine
 10
188.173454781286
 20
274.6203369527202
 30
0.0
 11
190.6734547812861
 21
274.6203369527202
 31
0.0
  0
MTEXT
  5
747
330
737
100
AcDbEntity
  8
Značka (ISO)
100
AcDbMText
 10
192.3426570882744
 20
271.1118278532367
 30
0.0
 40
6.99999988079071
 41
0.0
 46
0.0
 71
     7
 72
     1
  1
1
  7
Styl textu104
 73
     1
 44
1.0
  0
ENDBLK
  5
748
330
737
100
AcDbEntity
  8
0
100
AcDbBlockEnd
  0
BLOCK
  5
74A
330
749
100
AcDbEntity
  8
0
100
AcDbBlockBegin
  2
*D27
 70
     1
 10
0.0
 20
0.0
 30
0.0
  3
*D27
  1

  0
LINE
  5
74B
330
749
100
AcDbEntity
  8
Kóta (ISO)
440
 16777216
100
AcDbLine
 10
167.121513841028
 20
568.8377084154
 30
0.0
 11
167.121513841028
 21
532.6510805806731
 31
0.0
  0
LINE
  5
74C
330
749
100
AcDbEntity
  8
Kóta (ISO)
440
 16777216
100
AcDbLine
 10
367.121513841028
 20
568.8377084154
 30
0.0
 11
367.121513841028
 21
532.6510805806731
 31
0.0
  0
LINE
  5
74D
330
749
100
AcDbEntity
  8
Kóta (ISO)
440
 16777216
100
AcDbLine
 10
173.371513841028
 20
535.1510805806731
 30
0.0
 11
360.871513841028
 21
535.1510805806731
 31
0.0
  0
SOLID
  5
74E
330
749
100
AcDbEntity
  8
Kóta (ISO)
440
 16777216
100
AcDbTrace
 10
173.371513841028
 20
536.1927472473397
 30
0.0
 11
173.371513841028
 21
534.1094139140064
 31
0.0
 12
167.121513841028
 22
535.1510805806731
 32
0.0
 13
167.121513841028
 23
535.1510805806731
 33
0.0
  0
SOLID
  5
74F
330
749
100
AcDbEntity
  8
Kóta (ISO)
440
 16777216
100
AcDbTrace
 10
360.871513841028
 20
536.1927472473397
 30
0.0
 11
360.871513841028
 21
534.1094139140064
 31
0.0
 12
367.121513841028
 22
535.1510805806731
 32
0.0
 13
367.121513841028
 23
535.1510805806731
 33
0.0
  0
MTEXT
  5
750
330
749
100
AcDbEntity
  8
Kóta (ISO)
440
 16777216
100
AcDbMText
 10
279.1050146912482
 20
550.2213236818557
 30
0.0
 40
8.75
 41
0.0
 46
0.0
 71
     1
 72
     1
  1
\A1;{\fAIGDT|b0|i0;\H8.7500;\ln\fTahoma|b0|i0;\H8.7500;}200
  7
Text poznámky (ISO)
 73
     1
 44
1.0
  0
POINT
  5
751
330
749
100
AcDbEntity
  8
DEFPOINTS
 62
     0
440
 16777216
100
AcDbPoint
 10
167.121513841028
 20
568.8377084154
 30
0.0
  0
POINT
  5
752
330
749
100
AcDbEntity
  8
DEFPOINTS
 62
     0
440
 16777216
100
AcDbPoint
 10
367.121513841028
 20
568.8377084154
 30
0.0
  0
POINT
  5
753
330
749
100
AcDbEntity
  8
DEFPOINTS
 62
     0
440
 16777216
100
AcDbPoint
 10
367.121513841028
 20
535.1510805806731
 30
0.0
  0
ENDBLK
  5
754
330
749
100
AcDbEntity
  8
0
100
AcDbBlockEnd
  0
BLOCK
  5
756
330
755
100
AcDbEntity
  8
0
100
AcDbBlockBegin
  2
Pozice6
 70
     0
 10
0.0
 20
0.0
 30
0.0
  3
Pozice6
  1

  0
LINE
  5
757
330
755
100
AcDbEntity
  8
Značka (ISO)
100
AcDbLine
 10
65.08083858344457
 20
231.8742638555066
 30
0.0
 11
66.8486055364112
 21
233.6420308084727
 31
0.0
  0
POLYLINE
  5
758
330
755
100
AcDbEntity
  8
Značka (ISO)
100
AcDb2dPolyline
 66
     1
 10
0.0
 20
0.0
 30
0.0
 70
   128
  0
VERTEX
  5
759
330
758
100
AcDbEntity
  8
Značka (ISO)
100
AcDbVertex
100
AcDb2dVertex
 10
65.43439388275146
 20
231.5207099914551
 30
0.0
  0
VERTEX
  5
75A
330
758
100
AcDbEntity
  8
Značka (ISO)
100
AcDbVertex
100
AcDb2dVertex
 10
66.84860706329345
 20
233.6420249938965
 30
0.0
  0
VERTEX
  5
75B
330
758
100
AcDbEntity
  8
Značka (ISO)
100
AcDbVertex
100
AcDb2dVertex
 10
64.72728729248046
 20
232.2278213500977
 30
0.0
  0
VERTEX
  5
75C
330
758
100
AcDbEntity
  8
Značka (ISO)
100
AcDbVertex
100
AcDb2dVertex
 10
65.43439388275146
 20
231.5207099914551
 30
0.0
  0
SEQEND
  5
75D
330
758
100
AcDbEntity
  8
Značka (ISO)
  0
SOLID
  5
75E
330
755
100
AcDbEntity
  8
Značka (ISO)
100
AcDbTrace
 10
65.43439388275146
 20
231.5207099914551
 30
0.0
 11
66.84860706329345
 21
233.6420249938965
 31
0.0
 12
64.72728729248046
 22
232.2278213500977
 32
0.0
 13
65.43439388275146
 23
231.5207099914551
 33
0.0
  0
LINE
  5
75F
330
755
100
AcDbEntity
  8
Značka (ISO)
100
AcDbLine
 10
65.43439197403779
 20
231.5207104649132
 30
0.0
 11
66.8486055364112
 21
233.6420308084727
 31
0.0
  0
LINE
  5
760
330
755
100
AcDbEntity
  8
Značka (ISO)
100
AcDbLine
 10
66.8486055364112
 20
233.6420308084727
 30
0.0
 11
64.72728519285135
 21
232.2278172460999
 31
0.0
  0
LINE
  5
761
330
755
100
AcDbEntity
  8
Značka (ISO)
100
AcDbLine
 10
64.72728519285135
 20
232.2278172460999
 30
0.0
 11
65.43439197403779
 21
231.5207104649132
 31
0.0
  0
LINE
  5
762
330
755
100
AcDbEntity
  8
Značka (ISO)
100
AcDbLine
 10
65.08083858344457
 20
231.8742638555066
 30
0.0
 11
52.91306333395457
 21
219.7064886060202
 31
0.0
  0
MTEXT
  5
763
330
755
100
AcDbEntity
  8
Značka (ISO)
100
AcDbMText
 10
44.73004131170725
 20
226.2774971690618
 30
0.0
 40
5.24999976158142
 41
0.0
 46
0.0
 71
     5
 72
     1
  1
1.1
  7
Text popisu (ISO)
 73
     1
 44
1.0
  0
LINE
  5
764
330
755
100
AcDbEntity
  8
Značka (ISO)
100
AcDbLine
 10
52.91306333395457
 20
219.7064886060202
 30
0.0
 11
36.54701928945994
 21
219.7064886060202
 31
0.0
  0
ENDBLK
  5
765
330
755
100
AcDbEntity
  8
0
100
AcDbBlockEnd
  0
BLOCK
  5
767
330
766
100
AcDbEntity
  8
0
100
AcDbBlockBegin
  2
Text s odkazem2
 70
     0
 10
0.0
 20
0.0
 30
0.0
  3
Text s odkazem2
  1

  0
LINE
  5
768
330
766
100
AcDbEntity
  8
Značka (ISO)
100
AcDbLine
 10
68.39964997395596
 20
231.1104768429631
 30
0.0
 11
67.44860553641119
 21
233.4225137107088
 31
0.0
  0
POLYLINE
  5
769
330
766
100
AcDbEntity
  8
Značka (ISO)
100
AcDb2dPolyline
 66
     1
 10
0.0
 20
0.0
 30
0.0
 70
   128
  0
VERTEX
  5
76A
330
769
100
AcDbEntity
  8
Značka (ISO)
100
AcDbVertex
100
AcDb2dVertex
 10
68.86205673217773
 20
231.3006782531738
 30
0.0
  0
VERTEX
  5
76B
330
769
100
AcDbEntity
  8
Značka (ISO)
100
AcDbVertex
100
AcDb2dVertex
 10
67.44860649108886
 20
233.4225082397461
 30
0.0
  0
VERTEX
  5
76C
330
769
100
AcDbEntity
  8
Značka (ISO)
100
AcDbVertex
100
AcDb2dVertex
 10
67.93724060058593
 20
230.9202766418457
 30
0.0
  0
VERTEX
  5
76D
330
769
100
AcDbEntity
  8
Značka (ISO)
100
AcDbVertex
100
AcDb2dVertex
 10
68.86205673217773
 20
231.3006782531738
 30
0.0
  0
SEQEND
  5
76E
330
769
100
AcDbEntity
  8
Značka (ISO)
  0
SOLID
  5
76F
330
766
100
AcDbEntity
  8
Značka (ISO)
100
AcDbTrace
 10
68.86205673217773
 20
231.3006782531738
 30
0.0
 11
67.44860649108886
 21
233.4225082397461
 31
0.0
 12
67.93724060058593
 22
230.9202766418457
 32
0.0
 13
68.86205673217773
 23
231.3006782531738
 33
0.0
  0
LINE
  5
770
330
766
100
AcDbEntity
  8
Značka (ISO)
100
AcDbLine
 10
68.86205734750508
 20
231.3006857304721
 30
0.0
 11
67.44860553641119
 21
233.4225137107088
 31
0.0
  0
LINE
  5
771
330
766
100
AcDbEntity
  8
Značka (ISO)
100
AcDbLine
 10
67.44860553641119
 20
233.4225137107088
 30
0.0
 11
67.93724260040682
 21
230.9202679554542
 31
0.0
  0
LINE
  5
772
330
766
100
AcDbEntity
  8
Značka (ISO)
100
AcDbLine
 10
67.93724260040682
 20
230.9202679554542
 30
0.0
 11
68.86205734750508
 21
231.3006857304721
 31
0.0
  0
LINE
  5
773
330
766
100
AcDbEntity
  8
Značka (ISO)
100
AcDbLine
 10
68.39964997395596
 20
231.1104768429631
 30
0.0
 11
76.46878377172355
 21
211.4940066816166
 31
0.0
  0
LINE
  5
774
330
766
100
AcDbEntity
  8
Značka (ISO)
100
AcDbLine
 10
76.46878377172355
 20
211.4940066816166
 30
0.0
 11
78.96878377172355
 21
211.4940066816166
 31
0.0
  0
MTEXT
  5
775
330
766
100
AcDbEntity
  8
Značka (ISO)
100
AcDbMText
 10
79.88758417046227
 20
209.0406030224517
 30
0.0
 40
3.499999940395355
 41
0.0
 46
0.0
 71
     7
 72
     1
  1
9 (Etiketu nalepit dovnitř výpusti)
  7
Text poznámky (ISO)
 73
     1
 44
1.0
  0
ENDBLK
  5
776
330
766
100
AcDbEntity
  8
0
100
AcDbBlockEnd
  0
BLOCK
  5
778
330
777
100
AcDbEntity
  8
0
100
AcDbBlockBegin
  2
GENAXEH
 70
     0
 10
0.0
 20
0.0
 30
0.0
  3
GENAXEH
  1

  0
LINE
  5
779
330
777
100
AcDbEntity
  8
0
100
AcDbLine
 10
-1.0
 20
0.0
 30
0.0
 11
1.0
 21
0.0
 31
0.0
  0
ENDBLK
  5
77A
330
777
100
AcDbEntity
  8
0
100
AcDbBlockEnd
  0
BLOCK
  5
B03
330
B02
100
AcDbEntity
  8
0
100
AcDbBlockBegin
  2
*D32
 70
     1
 10
0.0
 20
0.0
 30
0.0
  3
*D32
  1

  0
LINE
  5
B05
330
B02
100
AcDbEntity
  8
Kóta (ISO)
100
AcDbLine
 10
594.3004747785721
 20
137.7409782888081
 30
0.0
 11
488.8004747785724
 21
137.7409782888082
 31
0.0
  0
LINE
  5
B06
330
B02
100
AcDbEntity
  8
Kóta (ISO)
100
AcDbLine
 10
546.3004747785721
 20
229.8382002578965
 30
0.0
 11
488.8004747785724
 21
229.8382002578965
 31
0.0
  0
LINE
  5
B07
330
B02
100
AcDbEntity
  8
Kóta (ISO)
100
AcDbLine
 10
491.3004747785724
 20
143.9909782888082
 30
0.0
 11
491.3004747785724
 21
223.5882002578965
 31
0.0
  0
SOLID
  5
B08
330
B02
100
AcDbEntity
  8
Kóta (ISO)
100
AcDbTrace
 10
490.2588081119057
 20
143.9909782888082
 30
0.0
 11
492.342141445239
 21
143.9909782888082
 31
0.0
 12
491.3004747785724
 22
137.7409782888082
 32
0.0
 13
491.3004747785724
 23
137.7409782888082
 33
0.0
  0
SOLID
  5
B09
330
B02
100
AcDbEntity
  8
Kóta (ISO)
100
AcDbTrace
 10
490.2588081119057
 20
223.5882002578965
 30
0.0
 11
492.342141445239
 21
223.5882002578965
 31
0.0
 12
491.3004747785724
 22
229.8382002578965
 32
0.0
 13
491.3004747785724
 23
229.8382002578965
 33
0.0
  0
MTEXT
  5
B0A
330
B02
100
AcDbEntity
  8
Kóta (ISO)
100
AcDbMText
 10
478.2757568470747
 20
165.3771177744405
 30
0.0
 40
8.75
 41
0.0
 46
0.0
 71
     1
 72
     1
  1
\A1;92,1{\H8.763000;±2}
  7
Text poznámky (ISO)
 11
0.0000000000000001
 21
1.0
 31
0.0
 73
     1
 44
1.0
  0
POINT
  5
B0B
330
B02
100
AcDbEntity
  8
DEFPOINTS
 62
     0
100
AcDbPoint
 10
594.3004747785721
 20
137.7409782888081
 30
0.0
  0
POINT
  5
B0C
330
B02
100
AcDbEntity
  8
DEFPOINTS
 62
     0
100
AcDbPoint
 10
546.3004747785721
 20
229.8382002578965
 30
0.0
  0
POINT
  5
B0D
330
B02
100
AcDbEntity
  8
DEFPOINTS
 62
     0
100
AcDbPoint
 10
491.3004747785724
 20
229.8382002578965
 30
0.0
  0
ENDBLK
  5
B04
330
B02
100
AcDbEntity
  8
0
100
AcDbBlockEnd
  0
BLOCK
  5
B0F
330
B0E
100
AcDbEntity
  8
0
100
AcDbBlockBegin
  2
*D33
 70
     1
 10
0.0
 20
0.0
 30
0.0
  3
*D33
  1

  0
LINE
  5
B11
330
B0E
100
AcDbEntity
  8
Kóta (ISO)
100
AcDbLine
 10
620.5504747785721
 20
212.3382002578966
 30
0.0
 11
536.3951199462065
 21
212.3382002578966
 31
0.0
  0
LINE
  5
B12
330
B0E
100
AcDbEntity
  8
Kóta (ISO)
100
AcDbLine
 10
546.2499645214379
 20
229.8382002578965
 30
0.0
 11
536.3951199462065
 21
229.8382002578965
 31
0.0
  0
LINE
  5
B13
330
B0E
100
AcDbEntity
  8
Kóta (ISO)
100
AcDbLine
 10
538.8951199462066
 20
218.5882002578966
 30
0.0
 11
538.8951199462066
 21
223.5882002578965
 31
0.0
  0
SOLID
  5
B14
330
B0E
100
AcDbEntity
  8
Kóta (ISO)
100
AcDbTrace
 10
537.8534532795399
 20
206.0882002578966
 30
0.0
 11
539.9367866128732
 21
206.0882002578966
 31
0.0
 12
538.8951199462066
 22
212.3382002578966
 32
0.0
 13
538.8951199462066
 23
212.3382002578966
 33
0.0
  0
LINE
  5
B15
330
B0E
100
AcDbEntity
  8
Kóta (ISO)
100
AcDbLine
 10
538.8951199462066
 20
206.0882002578966
 30
0.0
 11
538.8951199462066
 21
199.8382002578966
 31
0.0
  0
LINE
  5
B16
330
B0E
100
AcDbEntity
  8
Kóta (ISO)
100
AcDbLine
 10
538.8951199462066
 20
212.3382002578966
 30
0.0
 11
538.8951199462066
 21
218.5882002578966
 31
0.0
  0
SOLID
  5
B17
330
B0E
100
AcDbEntity
  8
Kóta (ISO)
100
AcDbTrace
 10
537.8534532795399
 20
236.0882002578965
 30
0.0
 11
539.9367866128732
 21
236.0882002578965
 31
0.0
 12
538.8951199462066
 22
229.8382002578965
 32
0.0
 13
538.8951199462066
 23
229.8382002578965
 33
0.0
  0
LINE
  5
B18
330
B0E
100
AcDbEntity
  8
Kóta (ISO)
100
AcDbLine
 10
538.8951199462066
 20
236.0882002578965
 30
0.0
 11
538.8951199462066
 21
242.3382002578965
 31
0.0
  0
LINE
  5
B19
330
B0E
100
AcDbEntity
  8
Kóta (ISO)
100
AcDbLine
 10
538.8951199462066
 20
229.8382002578965
 30
0.0
 11
538.8951199462066
 21
223.5882002578965
 31
0.0
  0
MTEXT
  5
B1A
330
B0E
100
AcDbEntity
  8
Kóta (ISO)
100
AcDbMText
 10
526.0364597715928
 20
210.390164663538
 30
0.0
 40
8.75
 41
0.0
 46
0.0
 71
     1
 72
     1
  1
\A1;17,5
  7
Text poznámky (ISO)
 11
0.0000000000000001
 21
1.0
 31
0.0
 73
     1
 44
1.0
  0
POINT
  5
B1B
330
B0E
100
AcDbEntity
  8
DEFPOINTS
 62
     0
100
AcDbPoint
 10
620.5504747785721
 20
212.3382002578966
 30
0.0
  0
POINT
  5
B1C
330
B0E
100
AcDbEntity
  8
DEFPOINTS
 62
     0
100
AcDbPoint
 10
546.2499645214379
 20
229.8382002578965
 30
0.0
  0
POINT
  5
B1D
330
B0E
100
AcDbEntity
  8
DEFPOINTS
 62
     0
100
AcDbPoint
 10
538.8951199462066
 20
229.8382002578965
 30
0.0
  0
ENDBLK
  5
B10
330
B0E
100
AcDbEntity
  8
0
100
AcDbBlockEnd
  0
BLOCK
  5
B1F
330
B1E
100
AcDbEntity
  8
0
100
AcDbBlockBegin
  2
*D34
 70
     1
 10
0.0
 20
0.0
 30
0.0
  3
*D34
  1

  0
LINE
  5
B21
330
B1E
100
AcDbEntity
  8
Kóta (ISO)
100
AcDbLine
 10
546.2499645214379
 20
229.8382002578965
 30
0.0
 11
514.5507253508303
 21
229.8382002578965
 31
0.0
  0
LINE
  5
B22
330
B1E
100
AcDbEntity
  8
Kóta (ISO)
100
AcDbLine
 10
517.0507253508303
 20
223.5882002578965
 30
0.0
 11
517.0507253508303
 21
216.0882002578965
 31
0.0
  0
SOLID
  5
B23
330
B1E
100
AcDbEntity
  8
Kóta (ISO)
100
AcDbTrace
 10
516.0090586841637
 20
223.5882002578965
 30
0.0
 11
518.0923920174969
 21
223.5882002578965
 31
0.0
 12
517.0507253508303
 22
229.8382002578965
 32
0.0
 13
517.0507253508303
 23
229.8382002578965
 33
0.0
  0
SOLID
  5
B24
330
B1E
100
AcDbEntity
  8
Kóta (ISO)
100
AcDbTrace
 10
516.0090586841637
 20
216.0882002578965
 30
0.0
 11
518.0923920174969
 21
216.0882002578965
 31
0.0
 12
517.0507253508303
 22
209.8382002578965
 32
0.0
 13
517.0507253508303
 23
209.8382002578965
 33
0.0
  0
MTEXT
  5
B25
330
B1E
100
AcDbEntity
  8
Kóta (ISO)
100
AcDbMText
 10
506.0313868686275
 20
213.8324917286823
 30
0.0
 40
8.75
 41
0.0
 46
0.0
 71
     1
 72
     1
  1
\A1;20
  7
Text poznámky (ISO)
 11
0.0000000000000001
 21
1.0
 31
0.0
 73
     1
 44
1.0
  0
POINT
  5
B26
330
B1E
100
AcDbEntity
  8
DEFPOINTS
 62
     0
100
AcDbPoint
 10
546.2499645214379
 20
229.8382002578965
 30
0.0
  0
POINT
  5
B27
330
B1E
100
AcDbEntity
  8
DEFPOINTS
 62
     0
100
AcDbPoint
 10
517.0507253508303
 20
209.8382002578965
 30
0.0
  0
POINT
  5
B28
330
B1E
100
AcDbEntity
  8
DEFPOINTS
 62
     0
100
AcDbPoint
 10
517.0507253508303
 20
209.8382002578965
 30
0.0
  0
ENDBLK
  5
B20
330
B1E
100
AcDbEntity
  8
0
100
AcDbBlockEnd
  0
BLOCK
  5
B2A
330
B29
100
AcDbEntity
  8
0
100
AcDbBlockBegin
  2
*D35
 70
     1
 10
0.0
 20
0.0
 30
0.0
  3
*D35
  1

  0
LINE
  5
B2C
330
B29
100
AcDbEntity
  8
Kóta (ISO)
100
AcDbLine
 10
694.3004747785721
 20
172.3882002578965
 30
0.0
 11
694.3004747785721
 21
148.3599729356011
 31
0.0
  0
LINE
  5
B2D
330
B29
100
AcDbEntity
  8
Kóta (ISO)
100
AcDbLine
 10
629.3004747785722
 20
203.5882002578965
 30
0.0
 11
629.3004747785722
 21
148.3599729356011
 31
0.0
  0
LINE
  5
B2E
330
B29
100
AcDbEntity
  8
Kóta (ISO)
100
AcDbLine
 10
688.0504747785721
 20
150.8599729356011
 30
0.0
 11
635.5504747785722
 21
150.8599729356011
 31
0.0
  0
SOLID
  5
B2F
330
B29
100
AcDbEntity
  8
Kóta (ISO)
100
AcDbTrace
 10
688.0504747785721
 20
151.9016396022678
 30
0.0
 11
688.0504747785721
 21
149.8183062689345
 31
0.0
 12
694.3004747785721
 22
150.8599729356011
 32
0.0
 13
694.3004747785721
 23
150.8599729356011
 33
0.0
  0
SOLID
  5
B30
330
B29
100
AcDbEntity
  8
Kóta (ISO)
100
AcDbTrace
 10
635.5504747785722
 20
151.9016396022678
 30
0.0
 11
635.5504747785722
 21
149.8183062689345
 31
0.0
 12
629.3004747785722
 22
150.8599729356011
 32
0.0
 13
629.3004747785722
 23
150.8599729356011
 33
0.0
  0
MTEXT
  5
B31
330
B29
100
AcDbEntity
  8
Kóta (ISO)
100
AcDbMText
 10
655.7947662493579
 20
161.861682136407
 30
0.0
 40
8.75
 41
0.0
 46
0.0
 71
     1
 72
     1
  1
\A1;65
  7
Text poznámky (ISO)
 73
     1
 44
1.0
  0
POINT
  5
B32
330
B29
100
AcDbEntity
  8
DEFPOINTS
 62
     0
100
AcDbPoint
 10
694.3004747785721
 20
172.3882002578965
 30
0.0
  0
POINT
  5
B33
330
B29
100
AcDbEntity
  8
DEFPOINTS
 62
     0
100
AcDbPoint
 10
629.3004747785722
 20
203.5882002578965
 30
0.0
  0
POINT
  5
B34
330
B29
100
AcDbEntity
  8
DEFPOINTS
 62
     0
100
AcDbPoint
 10
629.3004747785722
 20
150.8599729356011
 30
0.0
  0
ENDBLK
  5
B2B
330
B29
100
AcDbEntity
  8
0
100
AcDbBlockEnd
  0
BLOCK
  5
B36
330
B35
100
AcDbEntity
  8
0
100
AcDbBlockBegin
  2
*D36
 70
     1
 10
0.0
 20
0.0
 30
0.0
  3
*D36
  1

  0
LINE
  5
B38
330
B35
100
AcDbEntity
  8
Kóta (ISO)
100
AcDbLine
 10
759.3004747785721
 20
203.5882002578965
 30
0.0
 11
759.3004747785721
 21
148.3599729356011
 31
0.0
  0
LINE
  5
B39
330
B35
100
AcDbEntity
  8
Kóta (ISO)
100
AcDbLine
 10
753.0504747785721
 20
150.8599729356011
 30
0.0
 11
700.5504747786549
 21
150.8599729356011
 31
0.0
  0
SOLID
  5
B3A
330
B35
100
AcDbEntity
  8
Kóta (ISO)
100
AcDbTrace
 10
753.0504747785721
 20
151.9016396022678
 30
0.0
 11
753.0504747785721
 21
149.8183062689345
 31
0.0
 12
759.3004747785721
 22
150.8599729356011
 32
0.0
 13
759.3004747785721
 23
150.8599729356011
 33
0.0
  0
SOLID
  5
B3B
330
B35
100
AcDbEntity
  8
Kóta (ISO)
100
AcDbTrace
 10
700.5504747786549
 20
151.9016396022678
 30
0.0
 11
700.5504747786549
 21
149.8183062689345
 31
0.0
 12
694.3004747786549
 22
150.8599729356011
 32
0.0
 13
694.3004747786549
 23
150.8599729356011
 33
0.0
  0
MTEXT
  5
B3C
330
B35
100
AcDbEntity
  8
Kóta (ISO)
100
AcDbMText
 10
720.7947662493993
 20
161.861682136407
 30
0.0
 40
8.75
 41
0.0
 46
0.0
 71
     1
 72
     1
  1
\A1;65
  7
Text poznámky (ISO)
 73
     1
 44
1.0
  0
POINT
  5
B3D
330
B35
100
AcDbEntity
  8
DEFPOINTS
 62
     0
100
AcDbPoint
 10
759.3004747785721
 20
203.5882002578965
 30
0.0
  0
POINT
  5
B3E
330
B35
100
AcDbEntity
  8
DEFPOINTS
 62
     0
100
AcDbPoint
 10
694.3004747786549
 20
150.8599729356011
 30
0.0
  0
POINT
  5
B3F
330
B35
100
AcDbEntity
  8
DEFPOINTS
 62
     0
100
AcDbPoint
 10
694.3004747786549
 20
150.8599729356011
 30
0.0
  0
ENDBLK
  5
B37
330
B35
100
AcDbEntity
  8
0
100
AcDbBlockEnd
  0
BLOCK
  5
B41
330
B40
100
AcDbEntity
  8
0
100
AcDbBlockBegin
  2
*D37
 70
     1
 10
0.0
 20
0.0
 30
0.0
  3
*D37
  1

  0
LINE
  5
B43
330
B40
100
AcDbEntity
  8
Kóta (ISO)
100
AcDbLine
 10
594.3004747785721
 20
127.3618652101887
 30
0.0
 11
594.3004747785721
 21
91.17523737546184
 31
0.0
  0
LINE
  5
B44
330
B40
100
AcDbEntity
  8
Kóta (ISO)
100
AcDbLine
 10
794.3004747785721
 20
127.3618652101887
 30
0.0
 11
794.3004747785721
 21
91.17523737546184
 31
0.0
  0
LINE
  5
B45
330
B40
100
AcDbEntity
  8
Kóta (ISO)
100
AcDbLine
 10
600.5504747785721
 20
93.67523737546184
 30
0.0
 11
788.0504747785721
 21
93.67523737546184
 31
0.0
  0
SOLID
  5
B46
330
B40
100
AcDbEntity
  8
Kóta (ISO)
100
AcDbTrace
 10
600.5504747785721
 20
94.71690404212852
 30
0.0
 11
600.5504747785721
 21
92.63357070879518
 31
0.0
 12
594.3004747785721
 22
93.67523737546184
 32
0.0
 13
594.3004747785721
 23
93.67523737546184
 33
0.0
  0
SOLID
  5
B47
330
B40
100
AcDbEntity
  8
Kóta (ISO)
100
AcDbTrace
 10
788.0504747785721
 20
94.71690404212852
 30
0.0
 11
788.0504747785721
 21
92.63357070879518
 31
0.0
 12
794.3004747785721
 22
93.67523737546184
 32
0.0
 13
794.3004747785721
 23
93.67523737546184
 33
0.0
  0
MTEXT
  5
B48
330
B40
100
AcDbEntity
  8
Kóta (ISO)
100
AcDbMText
 10
706.2839756287923
 20
108.7454804766445
 30
0.0
 40
8.75
 41
0.0
 46
0.0
 71
     1
 72
     1
  1
\A1;{\fAIGDT|b0|i0;\H8.7500;\ln\fTahoma|b0|i0;\H8.7500;}200
  7
Text poznámky (ISO)
 73
     1
 44
1.0
  0
POINT
  5
B49
330
B40
100
AcDbEntity
  8
DEFPOINTS
 62
     0
100
AcDbPoint
 10
594.3004747785721
 20
127.3618652101887
 30
0.0
  0
POINT
  5
B4A
330
B40
100
AcDbEntity
  8
DEFPOINTS
 62
     0
100
AcDbPoint
 10
794.3004747785721
 20
127.3618652101887
 30
0.0
  0
POINT
  5
B4B
330
B40
100
AcDbEntity
  8
DEFPOINTS
 62
     0
100
AcDbPoint
 10
794.3004747785721
 20
93.67523737546184
 30
0.0
  0
ENDBLK
  5
B42
330
B40
100
AcDbEntity
  8
0
100
AcDbBlockEnd
  0
ENDSEC
  0
SECTION
  2
ENTITIES
  0
MTEXT
  5
3
330
2
100
AcDbEntity
  8
SCHRAFF
 62
     3
100
AcDbMText
 10
115.1311110262691
 20
139.0338263891245
 30
0.0
 40
3.5
 41
0.0
 46
0.0
 71
     4
 72
     1
  1
\A1;
  7
BEMSTIL
 73
     1
 44
1.0
  0
CIRCLE
  5
95B
330
2
100
AcDbEntity
  8
SICHTBAR
100
AcDbCircle
 10
759.3004747785721
 20
212.3382002578966
 30
0.0
 40
2.5
  0
CIRCLE
  5
95C
330
2
100
AcDbEntity
  8
SICHTBAR
100
AcDbCircle
 10
629.3004747785722
 20
212.3382002578966
 30
0.0
 40
2.5
  0
LINE
  5
95D
330
2
100
AcDbEntity
  8
SICHTBAR
100
AcDbLine
 10
544.3004747785721
 20
227.8382002280941
 30
0.0
 11
545.3004785932693
 21
227.8382002280941
 31
0.0
  0
ARC
  5
95E
330
2
100
AcDbEntity
  8
SICHTBAR
100
AcDbCircle
 10
546.3004747785721
 20
227.8382002578966
 30
0.0
 40
2.0
100
AcDbArc
 50
131.4096221092784
 51
180.0
  0
LINE
  5
960
330
2
100
AcDbEntity
  8
SICHTBAR
100
AcDbLine
 10
545.3004747785721
 20
227.8382002578966
 30
0.0
 11
545.7504747785722
 21
227.8382002578966
 31
0.0
  0
LINE
  5
961
330
2
100
AcDbEntity
  8
SICHTBAR
100
AcDbLine
 10
545.7504747785722
 20
227.8382002578966
 30
0.0
 11
545.7504747785722
 21
219.8382002578966
 31
0.0
  0
LINE
  5
962
330
2
100
AcDbEntity
  8
SICHTBAR
100
AcDbLine
 10
545.5504747785721
 20
227.8382002578966
 30
0.0
 11
545.5504747785721
 21
219.8382002578966
 31
0.0
  0
LINE
  5
963
330
2
100
AcDbEntity
  8
SICHTBAR
100
AcDbLine
 10
544.3004747785721
 20
219.8382002578966
 30
0.0
 11
544.3004747785721
 21
227.8382002578966
 31
0.0
  0
LINE
  5
964
330
2
100
AcDbEntity
  8
SICHTBAR
100
AcDbLine
 10
545.5504747785721
 20
219.8382002578966
 30
0.0
 11
544.3004747785721
 21
219.8382002578966
 31
0.0
  0
LINE
  5
965
330
2
100
AcDbEntity
  8
SICHTBAR
100
AcDbLine
 10
842.8504747785721
 20
227.8382002578966
 30
0.0
 11
843.3004747785721
 21
227.8382002578966
 31
0.0
  0
LINE
  5
966
330
2
100
AcDbEntity
  8
SICHTBAR
100
AcDbLine
 10
842.8504747785721
 20
219.8382002578966
 30
0.0
 11
842.8504747785721
 21
227.8382002578966
 31
0.0
  0
LINE
  5
967
330
2
100
AcDbEntity
  8
SICHTBAR
100
AcDbLine
 10
843.0504747785722
 20
219.8382002578966
 30
0.0
 11
843.0504747785722
 21
227.8382002578966
 31
0.0
  0
LINE
  5
968
330
2
100
AcDbEntity
  8
SICHTBAR
100
AcDbLine
 10
844.3004747785721
 20
219.8382002578966
 30
0.0
 11
843.0504747785722
 21
219.8382002578966
 31
0.0
  0
LINE
  5
969
330
2
100
AcDbEntity
  8
SICHTBAR
100
AcDbLine
 10
844.3004747785721
 20
227.8382002578966
 30
0.0
 11
844.3004747785721
 21
219.8382002578966
 31
0.0
  0
LINE
  5
96A
330
2
100
AcDbEntity
  8
SICHTBAR
100
AcDbLine
 10
545.7504747785722
 20
219.8382002578966
 30
0.0
 11
842.8504747785721
 21
219.8382002578966
 31
0.0
  0
LINE
  5
96B
330
2
100
AcDbEntity
  8
SICHTBAR
100
AcDbLine
 10
843.3004709638748
 20
227.8382002280941
 30
0.0
 11
844.3004747785721
 21
227.8382002280941
 31
0.0
  0
ARC
  5
96C
330
2
100
AcDbEntity
  8
SICHTBAR
100
AcDbCircle
 10
842.3004747785721
 20
227.8382002578966
 30
0.0
 40
2.0
100
AcDbArc
 50
0.0
 51
48.59037789070077
  0
LINE
  5
970
330
2
100
AcDbEntity
  8
SICHTBAR
100
AcDbLine
 10
830.5504747786548
 20
202.884715158721
 30
0.0
 11
830.5504747786548
 21
207.8382002578966
 31
0.0
  0
LINE
  5
971
330
2
100
AcDbEntity
  8
SICHTBAR
100
AcDbLine
 10
830.5504747786548
 20
209.8382002578965
 30
0.0
 11
830.5504747786548
 21
219.8382002578966
 31
0.0
  0
LINE
  5
972
330
2
100
AcDbEntity
  8
SICHTBAR
100
AcDbLine
 10
558.0504747784894
 20
219.8382002578966
 30
0.0
 11
558.0504747784894
 21
209.8382002578965
 31
0.0
  0
LINE
  5
973
330
2
100
AcDbEntity
  8
SICHTBAR
100
AcDbLine
 10
558.0504747784894
 20
207.8382002578966
 30
0.0
 11
558.0504747784894
 21
202.884715158721
 31
0.0
  0
LINE
  5
978
330
2
100
AcDbEntity
  8
SICHTBAR
100
AcDbLine
 10
558.0504747785721
 20
202.884715245842
 30
0.0
 11
558.0504747785721
 21
202.7277046905747
 31
0.0
  0
LINE
  5
979
330
2
100
AcDbEntity
  8
SICHTBAR
100
AcDbLine
 10
830.5504747785722
 20
202.7277046905747
 30
0.0
 11
830.5504747785722
 21
202.884715245842
 31
0.0
  0
ARC
  5
97A
330
2
100
AcDbEntity
  8
SICHTBAR
100
AcDbCircle
 10
826.3004747786547
 20
202.7277051263487
 30
0.0
 40
4.25
100
AcDbArc
 50
274.1976683571465
 51
0.0
  0
ARC
  5
97B
330
2
100
AcDbEntity
  8
SICHTBAR
100
AcDbCircle
 10
562.3004747784895
 20
202.7277051263487
 30
0.0
 40
4.25
100
AcDbArc
 50
180.0
 51
265.8023316428502
  0
LINE
  5
A46
330
2
100
AcDbEntity
  8
SICHTBAR
100
AcDbLine
 10
685.3671281119036
 20
187.1382002578964
 30
0.0
 11
585.3004747785721
 21
187.1382002578964
 31
0.0
  0
LINE
  5
A47
330
2
100
AcDbEntity
  8
SICHTBAR
100
AcDbLine
 10
803.3004747785721
 20
187.1382002578964
 30
0.0
 11
703.2338214452408
 21
187.1382002578964
 31
0.0
  0
LINE
  5
A48
330
2
100
AcDbEntity
  8
SICHTBAR
100
AcDbLine
 10
803.3004747785721
 20
195.1519335473574
 30
0.0
 11
803.3004747785721
 21
187.1382002578964
 31
0.0
  0
LINE
  5
A49
330
2
100
AcDbEntity
  8
SICHTBAR
100
AcDbLine
 10
585.3004747785721
 20
195.1519335473574
 30
0.0
 11
585.3004747785721
 21
187.1382002578964
 31
0.0
  0
LINE
  5
A4A
330
2
100
AcDbEntity
  8
SICHTBAR
100
AcDbLine
 10
703.2338214452408
 20
187.1382002578964
 30
0.0
 11
685.3671281119036
 21
187.1382002578964
 31
0.0
  0
ARC
  5
A4D
330
2
100
AcDbEntity
  8
SICHTBAR
100
AcDbCircle
 10
805.0504747785721
 20
195.1519335473574
 30
0.0
 40
1.75
100
AcDbArc
 50
94.19766835714979
 51
180.0
  0
ARC
  5
A4E
330
2
100
AcDbEntity
  8
SICHTBAR
100
AcDbCircle
 10
583.5504747785721
 20
195.1519335473574
 30
0.0
 40
1.75
100
AcDbArc
 50
0.0
 51
85.80233164285344
  0
LINE
  5
A4F
330
2
100
AcDbEntity
  8
SICHTBAR
100
AcDbLine
 10
826.6115646275688
 20
198.4891059348818
 30
0.0
 11
804.922378958431
 21
196.8972390967849
 31
0.0
  0
LINE
  5
A50
330
2
100
AcDbEntity
  8
SICHTBAR
100
AcDbLine
 10
583.6785705987132
 20
196.8972390967849
 30
0.0
 11
561.9893849295753
 21
198.4891059348818
 31
0.0
  0
ARC
  5
A53
330
2
100
AcDbEntity
  8
SICHTBAR
100
AcDbCircle
 10
694.3004747785721
 20
187.1382002578965
 30
0.0
 40
8.999999999999992
100
AcDbArc
 50
189.5572168132379
 51
350.4427831867621
  0
CIRCLE
  5
A54
330
2
100
AcDbEntity
  8
SICHTBAR
100
AcDbCircle
 10
694.3004747785721
 20
187.1382002578965
 30
0.0
 40
8.500000000000001
  0
CIRCLE
  5
A55
330
2
100
AcDbEntity
  8
SICHTBAR
100
AcDbCircle
 10
694.3004747785721
 20
187.1382002578965
 30
0.0
 40
7.500000000000002
  0
LINE
  5
A8F
330
2
100
AcDbEntity
  8
SICHTBAR
100
AcDbLine
 10
494.3004747786547
 20
209.8382002578965
 30
0.0
 11
494.3004747786547
 21
207.8382002578966
 31
0.0
  0
LINE
  5
A90
330
2
100
AcDbEntity
  8
SICHTBAR
100
AcDbLine
 10
494.3004747786547
 20
207.8382002578966
 30
0.0
 11
496.3004747786547
 21
207.8382002578966
 31
0.0
  0
LINE
  5
A91
330
2
100
AcDbEntity
  8
SICHTBAR
100
AcDbLine
 10
496.3004747786547
 20
209.8382002578965
 30
0.0
 11
496.3004747786547
 21
207.8382002578966
 31
0.0
  0
LINE
  5
A92
330
2
100
AcDbEntity
  8
SICHTBAR
100
AcDbLine
 10
494.3004747786547
 20
209.8382002578965
 30
0.0
 11
496.3004747786547
 21
209.8382002578965
 31
0.0
  0
LINE
  5
A93
330
2
100
AcDbEntity
  8
SICHTBAR
100
AcDbLine
 10
496.3004747786547
 20
207.8382002578966
 30
0.0
 11
892.3004747786547
 21
207.8382002578966
 31
0.0
  0
LINE
  5
A94
330
2
100
AcDbEntity
  8
SICHTBAR
100
AcDbLine
 10
892.3004747786547
 20
209.8382002578965
 30
0.0
 11
892.3004747786547
 21
207.8382002578966
 31
0.0
  0
LINE
  5
A95
330
2
100
AcDbEntity
  8
SICHTBAR
100
AcDbLine
 10
496.3004747786547
 20
209.8382002578965
 30
0.0
 11
892.3004747786547
 21
209.8382002578965
 31
0.0
  0
LINE
  5
A96
330
2
100
AcDbEntity
  8
SICHTBAR
100
AcDbLine
 10
892.3004747786547
 20
207.8382002578966
 30
0.0
 11
894.3004747786547
 21
207.8382002578966
 31
0.0
  0
LINE
  5
A97
330
2
100
AcDbEntity
  8
SICHTBAR
100
AcDbLine
 10
894.3004747786547
 20
209.8382002578965
 30
0.0
 11
894.3004747786547
 21
207.8382002578966
 31
0.0
  0
LINE
  5
A98
330
2
100
AcDbEntity
  8
SICHTBAR
100
AcDbLine
 10
892.3004747786547
 20
209.8382002578965
 30
0.0
 11
894.3004747786547
 21
209.8382002578965
 31
0.0
  0
ARC
  5
A99
330
2
100
AcDbEntity
  8
SICHTBAR
100
AcDbCircle
 10
546.2499645214379
 20
227.8382002578966
 30
0.0
 40
2.499999999999968
100
AcDbArc
 50
90.0
 51
143.130102354156
  0
LINE
  5
A9A
330
2
100
AcDbEntity
  8
SICHTBAR
100
AcDbLine
 10
546.2499645214379
 20
229.3382002578966
 30
0.0
 11
544.2499645214379
 21
229.3382002578966
 31
0.0
  0
LINE
  5
A9B
330
2
100
AcDbEntity
  8
SICHTBAR
100
AcDbLine
 10
844.3509850358717
 20
229.3382002578966
 30
0.0
 11
842.3509850358716
 21
229.3382002578966
 31
0.0
  0
ARC
  5
A9C
330
2
100
AcDbEntity
  8
SICHTBAR
100
AcDbCircle
 10
842.3509850358716
 20
227.8382002578966
 30
0.0
 40
2.499999999999956
100
AcDbArc
 50
36.86989764584467
 51
90.0
  0
LINE
  5
A9D
330
2
100
AcDbEntity
  8
SICHTBAR
100
AcDbLine
 10
842.3509850358716
 20
230.3382002578965
 30
0.0
 11
546.2499645214378
 21
230.3382002578965
 31
0.0
  0
LINE
  5
A9E
330
2
100
AcDbEntity
  8
SICHTBAR
100
AcDbLine
 10
546.2499645214379
 20
229.3382002578966
 30
0.0
 11
842.3509850358716
 21
229.3382002578966
 31
0.0
  0
LINE
  5
AC8
330
2
100
AcDbEntity
  8
SICHTBAR
100
AcDbLine
 10
685.4984260672379
 20
185.6439082107589
 30
0.0
 11
585.300474778572
 21
185.6439082107589
 31
0.0
  0
LINE
  5
AC9
330
2
100
AcDbEntity
  8
SICHTBAR
100
AcDbLine
 10
803.3004747785721
 20
185.6439082107589
 30
0.0
 11
703.1025234899062
 21
185.6439082107589
 31
0.0
  0
LINE
  5
ACA
330
2
100
AcDbEntity
  8
SICHTBAR
100
AcDbLine
 10
685.3671281119038
 20
187.1382002578965
 30
0.0
 11
585.3004747785721
 21
187.1382002578965
 31
0.0
  0
LINE
  5
ACB
330
2
100
AcDbEntity
  8
SICHTBAR
100
AcDbLine
 10
803.3004747785721
 20
187.1382002578965
 30
0.0
 11
703.2338214452404
 21
187.1382002578965
 31
0.0
  0
LINE
  5
ACC
330
2
100
AcDbEntity
  8
SICHTBAR
100
AcDbLine
 10
793.8004747785721
 20
127.3662123712954
 30
0.0
 11
594.8004747785721
 21
127.3662123712954
 31
0.0
  0
ARC
  5
ACD
330
2
100
AcDbEntity
  8
SICHTBAR
100
AcDbCircle
 10
798.8004747785721
 20
180.961032069346
 30
0.0
 40
4.500000000000001
100
AcDbArc
 50
94.99999999999982
 51
180.0
  0
ARC
  5
ACE
330
2
100
AcDbEntity
  8
SICHTBAR
100
AcDbCircle
 10
589.8004747785721
 20
180.9610320693459
 30
0.0
 40
4.500000000000001
100
AcDbArc
 50
0.0
 51
85.00000000000019
  0
LINE
  5
ACF
330
2
100
AcDbEntity
  8
SICHTBAR
100
AcDbLine
 10
590.1926756209365
 20
185.4439082107589
 30
0.0
 11
587.9066651603843
 21
185.6439082107588
 31
0.0
  0
LINE
  5
AD0
330
2
100
AcDbEntity
  8
SICHTBAR
100
AcDbLine
 10
798.4082739362077
 20
185.443908210759
 30
0.0
 11
800.69428439676
 21
185.6439082107589
 31
0.0
  0
LINE
  5
AD1
330
2
100
AcDbEntity
  8
SICHTBAR
100
AcDbLine
 10
585.3004747785721
 20
185.6439082107588
 30
0.0
 11
585.3004747785721
 21
187.1382002578965
 31
0.0
  0
LINE
  5
AD2
330
2
100
AcDbEntity
  8
SICHTBAR
100
AcDbLine
 10
803.3004747785721
 20
185.6439082107589
 30
0.0
 11
803.3004747785721
 21
187.1382002578965
 31
0.0
  0
LINE
  5
AD3
330
2
100
AcDbEntity
  8
SICHTBAR
100
AcDbLine
 10
594.8004747785721
 20
127.3662123712954
 30
0.0
 11
594.3191896954044
 21
136.9919140346497
 31
0.0
  0
LINE
  5
AD4
330
2
100
AcDbEntity
  8
SICHTBAR
100
AcDbLine
 10
793.8004747785721
 20
127.3662123712954
 30
0.0
 11
794.2817598617398
 21
136.9919140346498
 31
0.0
  0
ARC
  5
AD5
330
2
100
AcDbEntity
  8
SICHTBAR
100
AcDbCircle
 10
779.3004747786285
 20
137.740978288807
 30
0.0
 40
15.0
100
AcDbArc
 50
357.1375947738809
 51
0.0
  0
ARC
  5
AD6
330
2
100
AcDbEntity
  8
SICHTBAR
100
AcDbCircle
 10
609.3004747785157
 20
137.7409782888069
 30
0.0
 40
15.0
100
AcDbArc
 50
180.0
 51
182.862405226119
  0
LINE
  5
AD7
330
2
100
AcDbEntity
  8
SICHTBAR
100
AcDbLine
 10
594.3004747785721
 20
137.7409782888081
 30
0.0
 11
594.3004747785721
 21
180.9610320693459
 31
0.0
  0
LINE
  5
AD8
330
2
100
AcDbEntity
  8
SICHTBAR
100
AcDbLine
 10
794.3004747785721
 20
137.7409782888081
 30
0.0
 11
794.3004747785721
 21
180.961032069346
 31
0.0
  0
LINE
  5
ADA
330
2
100
AcDbEntity
  8
SICHTBAR
100
AcDbLine
 10
703.2338214452404
 20
187.1382002578965
 30
0.0
 11
685.3671281119038
 21
187.1382002578965
 31
0.0
  0
ARC
  5
AE1
330
2
100
AcDbEntity
  8
SICHTBAR
100
AcDbCircle
 10
779.300474778565
 20
137.7035016970578
 30
0.0
 40
13.5
100
AcDbArc
 50
357.1375947738874
 51
0.0
  0
ARC
  5
AE2
330
2
100
AcDbEntity
  8
SICHTBAR
100
AcDbCircle
 10
609.3004747785792
 20
137.7035016970577
 30
0.0
 40
13.5
100
AcDbArc
 50
180.0
 51
182.8624052261125
  0
LINE
  5
AE5
330
2
100
AcDbEntity
  8
SICHTBAR
100
AcDbLine
 10
694.3004747785721
 20
187.1382002578965
 30
0.0
 11
709.5504747785721
 21
187.1382002578965
 31
0.0
  0
LINE
  5
AE6
330
2
100
AcDbEntity
  8
SICHTBAR
100
AcDbLine
 10
694.3004747785721
 20
187.1382002578965
 30
0.0
 11
679.0504747785721
 21
187.1382002578965
 31
0.0
  0
LINE
  5
AE7
330
2
100
AcDbEntity
  8
Středová značka (ISO)
100
AcDbLine
 10
694.3004747785721
 20
187.1382002578965
 30
0.0
 11
694.3004747785721
 21
236.3876714563902
 31
0.0
  0
LINE
  5
AE8
330
2
100
AcDbEntity
  8
SICHTBAR
100
AcDbLine
 10
694.3004747785721
 20
187.1382002578965
 30
0.0
 11
694.3004747785721
 21
171.8882002578965
 31
0.0
  0
LINE
  5
AF6
330
2
100
AcDbEntity
  8
SICHTBAR
100
AcDbLine
 10
694.3004747785721
 20
187.1382002578965
 30
0.0
 11
709.0504747785721
 21
187.1382002578965
 31
0.0
  0
LINE
  5
AF7
330
2
100
AcDbEntity
  8
SICHTBAR
100
AcDbLine
 10
694.3004747785721
 20
187.1382002578965
 30
0.0
 11
679.5504747785721
 21
187.1382002578965
 31
0.0
  0
LINE
  5
AF8
330
2
100
AcDbEntity
  8
Středová značka (ISO)
100
AcDbLine
 10
694.3004747785721
 20
187.1382002578965
 30
0.0
 11
694.3004747785721
 21
201.8882002578965
 31
0.0
  0
LINE
  5
AF9
330
2
100
AcDbEntity
  8
Středová značka (ISO)
100
AcDbLine
 10
694.3004747785721
 20
187.1382002578965
 30
0.0
 11
694.3004747785721
 21
110.054494892117
 31
0.0
  0
ENDSEC
  0
SECTION
  2
OBJECTS
  0
DICTIONARY
  5
7
330
0
100
AcDbDictionary
281
     1
  3
ACAD_COLOR
350
601
  3
ACAD_GROUP
350
1A0
  3
ACAD_LAYOUT
350
18C
  3
ACAD_MATERIAL
350
5D7
  3
ACAD_MLEADERSTYLE
350
626
  3
ACAD_MLINESTYLE
350
1A1
  3
ACAD_PLOTSETTINGS
350
1A2
  3
ACAD_PLOTSTYLENAME
350
6
  3
ACAD_SCALELIST
350
604
  3
ACAD_TABLESTYLE
350
602
  3
ACAD_VISUALSTYLE
350
5F0
  3
ACDB_RECOMPOSE_DATA
350
B9E
  3
AcDbVariableDictionary
350
B94
  3
AcmDictionary
350
693
  3
AMG
350
62C
  3
AMGSNAPSETTINGS
350
69E
  0
DICTIONARY
  5
B5E
330
191
100
AcDbDictionary
280
     1
281
     1
  3
ACAD_LAYERFILTERS
360
B88
  3
ACLYDICTIONARY
360
B87
  0
DICTIONARY
  5
601
102
{ACAD_REACTORS
330
7
102
}
330
7
100
AcDbDictionary
281
     1
  0
DICTIONARY
  5
1A0
102
{ACAD_REACTORS
330
7
102
}
330
7
100
AcDbDictionary
281
     1
  0
DICTIONARY
  5
18C
102
{ACAD_REACTORS
330
7
102
}
330
7
100
AcDbDictionary
281
     1
  3
Layout1
350
190
  3
Model
350
18B
  0
DICTIONARY
  5
5D7
102
{ACAD_REACTORS
330
7
102
}
330
7
100
AcDbDictionary
281
     1
  3
ByBlock
350
5E0
  3
ByLayer
350
5D8
  3
Global
350
5E8
  0
DICTIONARY
  5
626
102
{ACAD_REACTORS
330
7
102
}
330
7
100
AcDbDictionary
281
     1
  3
Standard
350
627
  0
DICTIONARY
  5
1A1
102
{ACAD_REACTORS
330
7
102
}
330
7
100
AcDbDictionary
281
     1
  3
STANDARD
350
1A3
  0
DICTIONARY
  5
1A2
102
{ACAD_REACTORS
330
7
102
}
330
7
100
AcDbDictionary
281
     1
  0
ACDBDICTIONARYWDFLT
  5
6
102
{ACAD_REACTORS
330
7
102
}
330
7
100
AcDbDictionary
281
     1
  3
Normal
350
5
100
AcDbDictionaryWithDefault
340
5
  0
DICTIONARY
  5
604
102
{ACAD_REACTORS
330
7
102
}
330
7
100
AcDbDictionary
281
     1
  3
A0
350
605
  3
A1
350
606
  3
A2
350
607
  3
A3
350
608
  3
A4
350
609
  3
A5
350
60A
  3
A6
350
60B
  3
A7
350
60C
  3
A8
350
60D
  3
A9
350
60E
  3
B0
350
60F
  3
B1
350
610
  3
B2
350
611
  3
B3
350
612
  3
B4
350
613
  3
B5
350
614
  3
B6
350
615
  3
B7
350
616
  3
B8
350
617
  3
B9
350
618
  3
C0
350
619
  3
C1
350
61A
  3
C2
350
61B
  3
C3
350
61C
  3
C4
350
61D
  3
C5
350
61E
  3
C6
350
61F
  3
C7
350
620
  3
C8
350
621
  3
C9
350
622
  3
D0
350
623
  3
D1
350
624
  3
D2
350
625
  0
DICTIONARY
  5
602
102
{ACAD_REACTORS
330
7
102
}
330
7
100
AcDbDictionary
281
     1
  3
Standard
350
603
  0
DICTIONARY
  5
5F0
102
{ACAD_REACTORS
330
7
102
}
330
7
100
AcDbDictionary
281
     1
  3
2dWireframe
350
5F6
  3
3D Hidden
350
5F8
  3
3dWireframe
350
5F7
  3
Basic
350
5F5
  3
Brighten
350
5FC
  3
ColorChange
350
600
  3
Conceptual
350
5F9
  3
Dim
350
5FB
  3
Facepattern
350
5FF
  3
Flat
350
5F1
  3
FlatWithEdges
350
5F2
  3
Gouraud
350
5F3
  3
GouraudWithEdges
350
5F4
  3
Linepattern
350
5FE
  3
Realistic
350
5FA
  3
Thicken
350
5FD
  0
XRECORD
  5
B9E
102
{ACAD_REACTORS
330
7
102
}
330
7
100
AcDbXrecord
280
     1
 90
        1
330
603
  0
DICTIONARY
  5
B94
102
{ACAD_REACTORS
330
7
102
}
330
7
100
AcDbDictionary
281
     1
  3
CANNOSCALE
350
B98
  3
CMLEADERSTYLE
350
B96
  3
CTABLESTYLE
350
B95
  3
LAYEREVAL
350
B9A
  3
LAYERNOTIFY
350
B9B
  3
LIGHTINGUNITS
350
B99
  3
MSLTSCALE
350
B97
  0
DICTIONARY
  5
693
102
{ACAD_REACTORS
330
7
102
}
330
7
100
AcDbDictionary
281
     1
  3
AcmStdDictionary
350
93A
  0
DICTIONARY
  5
62C
102
{ACAD_REACTORS
330
7
102
}
330
7
100
AcDbDictionary
281
     1
  0
DICTIONARY
  5
69E
102
{ACAD_REACTORS
330
7
102
}
330
7
100
AcDbDictionary
281
     1
  0
DICTIONARY
  5
B88
102
{ACAD_REACTORS
330
B5E
102
}
330
B5E
100
AcDbDictionary
281
     1
  0
DICTIONARY
  5
B87
102
{ACAD_REACTORS
330
B5E
102
}
330
B5E
100
AcDbDictionary
281
     1
1001
ACAD
1000
<All
  0
LAYOUT
  5
190
102
{ACAD_REACTORS
330
18C
102
}
330
18C
100
AcDbPlotSettings
  1

  2
HP LaserJet 5000 N PCL 6
  4

  6

 40
0.0
 41
0.0
 42
0.0
 43
0.0
 44
0.0
 45
0.0
 46
0.0
 47
0.0
 48
0.0
 49
0.0
140
0.0
141
0.0
142
1.0
143
1.0
 70
   688
 72
     0
 73
     0
 74
     5
  7
monochrome.ctb
 75
    16
147
1.0
 76
     0
 77
     2
 78
   300
148
0.0
149
0.0
100
AcDbLayout
  1
Layout1
 70
     0
 71
     1
 10
0.0
 20
0.0
 11
12.0
 21
9.0
 12
0.0
 22
0.0
 32
0.0
 14
1.000000000000000E+20
 24
1.000000000000000E+20
 34
1.000000000000000E+20
 15
-1.000000000000000E+20
 25
-1.000000000000000E+20
 35
-1.000000000000000E+20
146
0.0
 13
0.0
 23
0.0
 33
0.0
 16
1.0
 26
0.0
 36
0.0
 17
0.0
 27
1.0
 37
0.0
 76
     0
330
18D
  0
LAYOUT
  5
18B
102
{ACAD_REACTORS
330
18C
102
}
330
18C
100
AcDbPlotSettings
  1

  2
\\ACO_CAD_PRV\HPLJ5000N
  4
A4
  6

 40
6.720416545867919
 41
6.720423221588134
 42
7.694076538085937
 43
4.011077880859375
 44
209.9733276367187
 45
296.9683227539062
 46
0.0
 47
0.0
 48
0.0
 49
0.0
140
841.0
141
594.0
142
1.0
143
1.518886752977521
 70
 11952
 72
     1
 73
     1
 74
     1
  7
monochrome.ctb
 75
     0
147
0.6583769316834638
 76
     0
 77
     2
 78
   300
148
0.0192503363510923
149
0.0135924000612704
100
AcDbLayout
  1
Model
 70
     1
 71
     0
 10
0.0
 20
0.0
 11
12.0
 21
9.0
 12
0.0
 22
0.0
 32
0.0
 14
0.0
 24
0.0
 34
0.0
 15
0.0
 25
0.0
 35
0.0
146
0.0
 13
0.0
 23
0.0
 33
0.0
 16
1.0
 26
0.0
 36
0.0
 17
0.0
 27
1.0
 37
0.0
 76
     0
330
2
331
5D5
  0
MATERIAL
  5
5E0
102
{ACAD_XDICTIONARY
360
5E1
102
}
102
{ACAD_REACTORS
330
5D7
102
}
330
5D7
100
AcDbMaterial
  1
ByBlock
 72
     0
 43
0.0208333333333333
 43
0.0
 43
0.0
 43
0.0
 43
0.0
 43
0.0208333333333333
 43
0.0
 43
0.0
 43
0.0
 43
0.0
 43
1.0
 43
0.0
 43
0.0
 43
0.0
 43
0.0
 43
1.0
 77
     0
 47
0.0208333333333333
 47
0.0
 47
0.0
 47
0.0
 47
0.0
 47
0.0208333333333333
 47
0.0
 47
0.0
 47
0.0
 47
0.0
 47
1.0
 47
0.0
 47
0.0
 47
0.0
 47
0.0
 47
1.0
171
     0
 49
0.0208333333333333
 49
0.0
 49
0.0
 49
0.0
 49
0.0
 49
0.0208333333333333
 49
0.0
 49
0.0
 49
0.0
 49
0.0
 49
1.0
 49
0.0
 49
0.0
 49
0.0
 49
0.0
 49
1.0
175
     0
142
0.0208333333333333
142
0.0
142
0.0
142
0.0
142
0.0
142
0.0208333333333333
142
0.0
142
0.0
142
0.0
142
0.0
142
1.0
142
0.0
142
0.0
142
0.0
142
0.0
142
1.0
179
     0
144
0.0208333333333333
144
0.0
144
0.0
144
0.0
144
0.0
144
0.0208333333333333
144
0.0
144
0.0
144
0.0
144
0.0
144
1.0
144
0.0
144
0.0
144
0.0
144
0.0
144
1.0
147
0.0208333333333333
147
0.0
147
0.0
147
0.0
147
0.0
147
0.0208333333333333
147
0.0
147
0.0
147
0.0
147
0.0
147
1.0
147
0.0
147
0.0
147
0.0
147
0.0
147
1.0
  0
MATERIAL
  5
5D8
102
{ACAD_XDICTIONARY
360
5D9
102
}
102
{ACAD_REACTORS
330
5D7
102
}
330
5D7
100
AcDbMaterial
  1
ByLayer
 72
     0
 43
0.0208333333333333
 43
0.0
 43
0.0
 43
0.0
 43
0.0
 43
0.0208333333333333
 43
0.0
 43
0.0
 43
0.0
 43
0.0
 43
1.0
 43
0.0
 43
0.0
 43
0.0
 43
0.0
 43
1.0
 77
     0
 47
0.0208333333333333
 47
0.0
 47
0.0
 47
0.0
 47
0.0
 47
0.0208333333333333
 47
0.0
 47
0.0
 47
0.0
 47
0.0
 47
1.0
 47
0.0
 47
0.0
 47
0.0
 47
0.0
 47
1.0
171
     0
 49
0.0208333333333333
 49
0.0
 49
0.0
 49
0.0
 49
0.0
 49
0.0208333333333333
 49
0.0
 49
0.0
 49
0.0
 49
0.0
 49
1.0
 49
0.0
 49
0.0
 49
0.0
 49
0.0
 49
1.0
175
     0
142
0.0208333333333333
142
0.0
142
0.0
142
0.0
142
0.0
142
0.0208333333333333
142
0.0
142
0.0
142
0.0
142
0.0
142
1.0
142
0.0
142
0.0
142
0.0
142
0.0
142
1.0
179
     0
144
0.0208333333333333
144
0.0
144
0.0
144
0.0
144
0.0
144
0.0208333333333333
144
0.0
144
0.0
144
0.0
144
0.0
144
1.0
144
0.0
144
0.0
144
0.0
144
0.0
144
1.0
147
0.0208333333333333
147
0.0
147
0.0
147
0.0
147
0.0
147
0.0208333333333333
147
0.0
147
0.0
147
0.0
147
0.0
147
1.0
147
0.0
147
0.0
147
0.0
147
0.0
147
1.0
  0
MATERIAL
  5
5E8
102
{ACAD_XDICTIONARY
360
5E9
102
}
102
{ACAD_REACTORS
330
5D7
102
}
330
5D7
100
AcDbMaterial
  1
Global
 72
     0
 43
0.0208333333333333
 43
0.0
 43
0.0
 43
0.0
 43
0.0
 43
0.0208333333333333
 43
0.0
 43
0.0
 43
0.0
 43
0.0
 43
1.0
 43
0.0
 43
0.0
 43
0.0
 43
0.0
 43
1.0
 77
     0
 47
0.0208333333333333
 47
0.0
 47
0.0
 47
0.0
 47
0.0
 47
0.0208333333333333
 47
0.0
 47
0.0
 47
0.0
 47
0.0
 47
1.0
 47
0.0
 47
0.0
 47
0.0
 47
0.0
 47
1.0
171
     0
 49
0.0208333333333333
 49
0.0
 49
0.0
 49
0.0
 49
0.0
 49
0.0208333333333333
 49
0.0
 49
0.0
 49
0.0
 49
0.0
 49
1.0
 49
0.0
 49
0.0
 49
0.0
 49
0.0
 49
1.0
175
     0
142
0.0208333333333333
142
0.0
142
0.0
142
0.0
142
0.0
142
0.0208333333333333
142
0.0
142
0.0
142
0.0
142
0.0
142
1.0
142
0.0
142
0.0
142
0.0
142
0.0
142
1.0
179
     0
144
0.0208333333333333
144
0.0
144
0.0
144
0.0
144
0.0
144
0.0208333333333333
144
0.0
144
0.0
144
0.0
144
0.0
144
1.0
144
0.0
144
0.0
144
0.0
144
0.0
144
1.0
147
0.0208333333333333
147
0.0
147
0.0
147
0.0
147
0.0
147
0.0208333333333333
147
0.0
147
0.0
147
0.0
147
0.0
147
1.0
147
0.0
147
0.0
147
0.0
147
0.0
147
1.0
  0
MLEADERSTYLE
  5
627
102
{ACAD_REACTORS
330
626
102
}
330
626
100
AcDbMLeaderStyle
170
     2
171
     1
172
     0
 90
        2
 40
0.0
 41
0.0
173
     1
 91
-1056964608
340
195
 92
       -2
290
     1
 42
0.09
291
     1
 43
0.36
  3
Standard
 44
0.18
300

342
11
174
     1
178
     6
175
     1
176
     0
 93
-1056964608
 45
0.18
292
     0
297
     0
 46
0.18
 94
-1056964608
 47
1.0
 49
1.0
140
1.0
293
     1
141
0.0
294
     1
177
     0
142
1.0
295
     0
296
     0
143
0.125
1001
ACAD_MLEADERVER
1070
     2
  0
MLINESTYLE
  5
1A3
102
{ACAD_REACTORS
330
1A1
102
}
330
1A1
100
AcDbMlineStyle
  2
STANDARD
 70
     0
  3

 62
   256
 51
90.0
 52
90.0
 71
     2
 49
0.5
 62
   256
  6
BYLAYER
 49
-0.5
 62
   256
  6
BYLAYER
  0
ACDBPLACEHOLDER
  5
5
102
{ACAD_REACTORS
330
6
102
}
330
6
  0
SCALE
  5
605
102
{ACAD_REACTORS
330
604
102
}
330
604
100
AcDbScale
 70
     0
300
1:1
140
1.0
141
1.0
290
     1
  0
SCALE
  5
606
102
{ACAD_REACTORS
330
604
102
}
330
604
100
AcDbScale
 70
     0
300
1:2
140
1.0
141
2.0
290
     0
  0
SCALE
  5
607
102
{ACAD_REACTORS
330
604
102
}
330
604
100
AcDbScale
 70
     0
300
1:4
140
1.0
141
4.0
290
     0
  0
SCALE
  5
608
102
{ACAD_REACTORS
330
604
102
}
330
604
100
AcDbScale
 70
     0
300
1:5
140
1.0
141
5.0
290
     0
  0
SCALE
  5
609
102
{ACAD_REACTORS
330
604
102
}
330
604
100
AcDbScale
 70
     0
300
1:8
140
1.0
141
8.0
290
     0
  0
SCALE
  5
60A
102
{ACAD_REACTORS
330
604
102
}
330
604
100
AcDbScale
 70
     0
300
1:10
140
1.0
141
10.0
290
     0
  0
SCALE
  5
60B
102
{ACAD_REACTORS
330
604
102
}
330
604
100
AcDbScale
 70
     0
300
1:16
140
1.0
141
16.0
290
     0
  0
SCALE
  5
60C
102
{ACAD_REACTORS
330
604
102
}
330
604
100
AcDbScale
 70
     0
300
1:20
140
1.0
141
20.0
290
     0
  0
SCALE
  5
60D
102
{ACAD_REACTORS
330
604
102
}
330
604
100
AcDbScale
 70
     0
300
1:30
140
1.0
141
30.0
290
     0
  0
SCALE
  5
60E
102
{ACAD_REACTORS
330
604
102
}
330
604
100
AcDbScale
 70
     0
300
1:40
140
1.0
141
40.0
290
     0
  0
SCALE
  5
60F
102
{ACAD_REACTORS
330
604
102
}
330
604
100
AcDbScale
 70
     0
300
1:50
140
1.0
141
50.0
290
     0
  0
SCALE
  5
610
102
{ACAD_REACTORS
330
604
102
}
330
604
100
AcDbScale
 70
     0
300
1:100
140
1.0
141
100.0
290
     0
  0
SCALE
  5
611
102
{ACAD_REACTORS
330
604
102
}
330
604
100
AcDbScale
 70
     0
300
2:1
140
2.0
141
1.0
290
     0
  0
SCALE
  5
612
102
{ACAD_REACTORS
330
604
102
}
330
604
100
AcDbScale
 70
     0
300
4:1
140
4.0
141
1.0
290
     0
  0
SCALE
  5
613
102
{ACAD_REACTORS
330
604
102
}
330
604
100
AcDbScale
 70
     0
300
8:1
140
8.0
141
1.0
290
     0
  0
SCALE
  5
614
102
{ACAD_REACTORS
330
604
102
}
330
604
100
AcDbScale
 70
     0
300
10:1
140
10.0
141
1.0
290
     0
  0
SCALE
  5
615
102
{ACAD_REACTORS
330
604
102
}
330
604
100
AcDbScale
 70
     0
300
100:1
140
100.0
141
1.0
290
     0
  0
SCALE
  5
616
102
{ACAD_REACTORS
330
604
102
}
330
604
100
AcDbScale
 70
     0
300
1/128" = 1'-0"
140
0.0078125
141
12.0
290
     0
  0
SCALE
  5
617
102
{ACAD_REACTORS
330
604
102
}
330
604
100
AcDbScale
 70
     0
300
1/64" = 1'-0"
140
0.015625
141
12.0
290
     0
  0
SCALE
  5
618
102
{ACAD_REACTORS
330
604
102
}
330
604
100
AcDbScale
 70
     0
300
1/32" = 1'-0"
140
0.03125
141
12.0
290
     0
  0
SCALE
  5
619
102
{ACAD_REACTORS
330
604
102
}
330
604
100
AcDbScale
 70
     0
300
1/16" = 1'-0"
140
0.0625
141
12.0
290
     0
  0
SCALE
  5
61A
102
{ACAD_REACTORS
330
604
102
}
330
604
100
AcDbScale
 70
     0
300
3/32" = 1'-0"
140
0.09375
141
12.0
290
     0
  0
SCALE
  5
61B
102
{ACAD_REACTORS
330
604
102
}
330
604
100
AcDbScale
 70
     0
300
1/8" = 1'-0"
140
0.125
141
12.0
290
     0
  0
SCALE
  5
61C
102
{ACAD_REACTORS
330
604
102
}
330
604
100
AcDbScale
 70
     0
300
3/16" = 1'-0"
140
0.1875
141
12.0
290
     0
  0
SCALE
  5
61D
102
{ACAD_REACTORS
330
604
102
}
330
604
100
AcDbScale
 70
     0
300
1/4" = 1'-0"
140
0.25
141
12.0
290
     0
  0
SCALE
  5
61E
102
{ACAD_REACTORS
330
604
102
}
330
604
100
AcDbScale
 70
     0
300
3/8" = 1'-0"
140
0.375
141
12.0
290
     0
  0
SCALE
  5
61F
102
{ACAD_REACTORS
330
604
102
}
330
604
100
AcDbScale
 70
     0
300
1/2" = 1'-0"
140
0.5
141
12.0
290
     0
  0
SCALE
  5
620
102
{ACAD_REACTORS
330
604
102
}
330
604
100
AcDbScale
 70
     0
300
3/4" = 1'-0"
140
0.75
141
12.0
290
     0
  0
SCALE
  5
621
102
{ACAD_REACTORS
330
604
102
}
330
604
100
AcDbScale
 70
     0
300
1" = 1'-0"
140
1.0
141
12.0
290
     0
  0
SCALE
  5
622
102
{ACAD_REACTORS
330
604
102
}
330
604
100
AcDbScale
 70
     0
300
1-1/2" = 1'-0"
140
1.5
141
12.0
290
     0
  0
SCALE
  5
623
102
{ACAD_REACTORS
330
604
102
}
330
604
100
AcDbScale
 70
     0
300
3" = 1'-0"
140
3.0
141
12.0
290
     0
  0
SCALE
  5
624
102
{ACAD_REACTORS
330
604
102
}
330
604
100
AcDbScale
 70
     0
300
6" = 1'-0"
140
6.0
141
12.0
290
     0
  0
SCALE
  5
625
102
{ACAD_REACTORS
330
604
102
}
330
604
100
AcDbScale
 70
     0
300
1'-0" = 1'-0"
140
12.0
141
12.0
290
     0
  0
TABLESTYLE
  5
603
102
{ACAD_XDICTIONARY
360
B9C
102
}
102
{ACAD_REACTORS
330
602
102
}
330
602
100
AcDbTableStyle
  3
Standard
 70
     0
 71
     0
 40
0.06
 41
0.06
280
     0
281
     0
  7
STANDARD
140
0.18
170
     2
 62
     0
 63
     7
283
     0
 90
      512
 91
        0
  1

274
    -2
284
     1
 64
     0
275
    -2
285
     1
 65
     0
276
    -2
286
     1
 66
     0
277
    -2
287
     1
 67
     0
278
    -2
288
     1
 68
     0
279
    -2
289
     1
 69
     0
  7
STANDARD
140
0.25
170
     5
 62
     0
 63
     7
283
     0
 90
      512
 91
        0
  1

274
    -2
284
     1
 64
     0
275
    -2
285
     1
 65
     0
276
    -2
286
     1
 66
     0
277
    -2
287
     1
 67
     0
278
    -2
288
     1
 68
     0
279
    -2
289
     1
 69
     0
  7
STANDARD
140
0.18
170
     5
 62
     0
 63
     7
283
     0
 90
      512
 91
        0
  1

274
    -2
284
     1
 64
     0
275
    -2
285
     1
 65
     0
276
    -2
286
     1
 66
     0
277
    -2
287
     1
 67
     0
278
    -2
288
     1
 68
     0
279
    -2
289
     1
 69
     0
  0
VISUALSTYLE
  5
5F6
102
{ACAD_REACTORS
330
5F0
102
}
330
5F0
100
AcDbVisualStyle
  2
2dWireframe
 70
     4
 71
     0
 72
     2
 73
     0
 90
        0
 40
-0.6
 41
-30.0
 62
     5
 63
     7
421
 16777215
 74
     1
 91
        4
 64
     7
 65
   257
 75
     1
175
     1
 42
1.0
 92
        0
 66
   257
 43
1.0
 76
     1
 77
     6
 78
     2
 67
     7
 79
     5
170
     0
171
     0
290
     0
174
     0
 93
        1
 44
0.0
173
     0
291
     0
 45
0.0
  0
VISUALSTYLE
  5
5F8
102
{ACAD_REACTORS
330
5F0
102
}
330
5F0
100
AcDbVisualStyle
  2
3D Hidden
 70
     6
 71
     1
 72
     2
 73
     2
 90
        0
 40
-0.6
 41
-30.0
 62
     5
 63
     7
421
 16777215
 74
     2
 91
        2
 64
     7
 65
   257
 75
     2
175
     1
 42
40.0
 92
        0
 66
   257
 43
1.0
 76
     1
 77
     6
 78
     2
 67
     7
 79
     3
170
     0
171
     0
290
     0
174
     0
 93
        1
 44
0.0
173
     0
291
     0
 45
0.0
  0
VISUALSTYLE
  5
5F7
102
{ACAD_REACTORS
330
5F0
102
}
330
5F0
100
AcDbVisualStyle
  2
3dWireframe
 70
     5
 71
     0
 72
     2
 73
     0
 90
        0
 40
-0.6
 41
-30.0
 62
     5
 63
     7
421
 16777215
 74
     1
 91
        4
 64
     7
 65
   257
 75
     1
175
     1
 42
1.0
 92
        0
 66
   257
 43
1.0
 76
     1
 77
     6
 78
     2
 67
     7
 79
     5
170
     0
171
     0
290
     0
174
     0
 93
        1
 44
0.0
173
     0
291
     0
 45
0.0
  0
VISUALSTYLE
  5
5F5
102
{ACAD_REACTORS
330
5F0
102
}
330
5F0
100
AcDbVisualStyle
  2
Basic
 70
     7
 71
     1
 72
     0
 73
     1
 90
        0
 40
-0.6
 41
-30.0
 62
     5
 63
     7
421
 16777215
 74
     0
 91
        4
 64
     7
 65
   257
 75
     1
175
     1
 42
1.0
 92
        8
 66
     7
 43
1.0
 76
     1
 77
     6
 78
     2
 67
     7
 79
     5
170
     0
171
     0
290
     0
174
     0
 93
        1
 44
0.0
173
     0
291
     1
 45
0.0
  0
VISUALSTYLE
  5
5FC
102
{ACAD_REACTORS
330
5F0
102
}
330
5F0
100
AcDbVisualStyle
  2
Brighten
 70
    12
 71
     2
 72
     2
 73
     0
 90
        0
 40
-0.6
 41
-30.0
 62
     5
 63
     7
421
 16777215
 74
     1
 91
        4
 64
     7
 65
   257
 75
     1
175
     1
 42
1.0
 92
        8
 66
     7
 43
1.0
 76
     1
 77
     6
 78
     2
 67
     7
 79
     5
170
     0
171
     0
290
     0
174
     0
 93
        1
 44
50.0
173
     0
291
     1
 45
0.0
  0
VISUALSTYLE
  5
600
102
{ACAD_REACTORS
330
5F0
102
}
330
5F0
100
AcDbVisualStyle
  2
ColorChange
 70
    16
 71
     2
 72
     2
 73
     3
 90
        0
 40
-0.6
 41
-30.0
 62
     5
 63
     8
421
  8421504
 74
     1
 91
        4
 64
     7
 65
   257
 75
     1
175
     1
 42
1.0
 92
        8
 66
     8
424
  8421504
 43
1.0
 76
     1
 77
     6
 78
     2
 67
     7
 79
     5
170
     0
171
     0
290
     0
174
     0
 93
        1
 44
0.0
173
     0
291
     1
 45
0.0
  0
VISUALSTYLE
  5
5F9
102
{ACAD_REACTORS
330
5F0
102
}
330
5F0
100
AcDbVisualStyle
  2
Conceptual
 70
     9
 71
     3
 72
     2
 73
     0
 90
        0
 40
-0.6
 41
-30.0
 62
     5
 63
     7
421
 16777215
 74
     2
 91
        2
 64
     7
 65
   257
 75
     1
175
     1
 42
40.0
 92
        8
 66
     7
 43
1.0
 76
     1
 77
     6
 78
     2
 67
     7
 79
     3
170
     0
171
     0
290
     0
174
     0
 93
        1
 44
0.0
173
     0
291
     0
 45
0.0
  0
VISUALSTYLE
  5
5FB
102
{ACAD_REACTORS
330
5F0
102
}
330
5F0
100
AcDbVisualStyle
  2
Dim
 70
    11
 71
     2
 72
     2
 73
     0
 90
        0
 40
-0.6
 41
-30.0
 62
     5
 63
     7
421
 16777215
 74
     1
 91
        4
 64
     7
 65
   257
 75
     1
175
     1
 42
1.0
 92
        8
 66
     7
 43
1.0
 76
     1
 77
     6
 78
     2
 67
     7
 79
     5
170
     0
171
     0
290
     0
174
     0
 93
        1
 44
-50.0
173
     0
291
     1
 45
0.0
  0
VISUALSTYLE
  5
5FF
102
{ACAD_REACTORS
330
5F0
102
}
330
5F0
100
AcDbVisualStyle
  2
Facepattern
 70
    15
 71
     2
 72
     2
 73
     0
 90
        0
 40
-0.6
 41
-30.0
 62
     5
 63
     7
421
 16777215
 74
     1
 91
        4
 64
     7
 65
   257
 75
     1
175
     1
 42
1.0
 92
        8
 66
     7
 43
1.0
 76
     1
 77
     6
 78
     2
 67
     7
 79
     5
170
     0
171
     0
290
     0
174
     0
 93
        1
 44
0.0
173
     0
291
     1
 45
0.0
  0
VISUALSTYLE
  5
5F1
102
{ACAD_REACTORS
330
5F0
102
}
330
5F0
100
AcDbVisualStyle
  2
Flat
 70
     0
 71
     2
 72
     1
 73
     1
 90
        2
 40
-0.6
 41
30.0
 62
     5
 63
     7
421
 16777215
 74
     0
 91
        4
 64
     7
 65
   257
 75
     1
175
     1
 42
1.0
 92
        8
 66
     7
 43
1.0
 76
     1
 77
     6
 78
     2
 67
     7
 79
     5
170
     0
171
     0
290
     0
174
     0
 93
       13
 44
0.0
173
     0
291
     1
 45
0.0
  0
VISUALSTYLE
  5
5F2
102
{ACAD_REACTORS
330
5F0
102
}
330
5F0
100
AcDbVisualStyle
  2
FlatWithEdges
 70
     1
 71
     2
 72
     1
 73
     1
 90
        2
 40
-0.6
 41
30.0
 62
     5
 63
     7
421
 16777215
 74
     1
 91
        4
 64
     7
 65
   257
 75
     1
175
     1
 42
1.0
 92
        0
 66
   257
 43
1.0
 76
     1
 77
     6
 78
     2
 67
     7
 79
     5
170
     0
171
     0
290
     0
174
     0
 93
       13
 44
0.0
173
     0
291
     1
 45
0.0
  0
VISUALSTYLE
  5
5F3
102
{ACAD_REACTORS
330
5F0
102
}
330
5F0
100
AcDbVisualStyle
  2
Gouraud
 70
     2
 71
     2
 72
     2
 73
     1
 90
        2
 40
-0.6
 41
30.0
 62
     5
 63
     7
421
 16777215
 74
     0
 91
        4
 64
     7
 65
   257
 75
     1
175
     1
 42
1.0
 92
        0
 66
     7
 43
1.0
 76
     1
 77
     6
 78
     2
 67
     7
 79
     5
170
     0
171
     0
290
     0
174
     0
 93
       13
 44
0.0
173
     0
291
     1
 45
0.0
  0
VISUALSTYLE
  5
5F4
102
{ACAD_REACTORS
330
5F0
102
}
330
5F0
100
AcDbVisualStyle
  2
GouraudWithEdges
 70
     3
 71
     2
 72
     2
 73
     1
 90
        2
 40
-0.6
 41
30.0
 62
     5
 63
     7
421
 16777215
 74
     1
 91
        4
 64
     7
 65
   257
 75
     1
175
     1
 42
1.0
 92
        0
 66
   257
 43
1.0
 76
     1
 77
     6
 78
     2
 67
     7
 79
     5
170
     0
171
     0
290
     0
174
     0
 93
       13
 44
0.0
173
     0
291
     1
 45
0.0
  0
VISUALSTYLE
  5
5FE
102
{ACAD_REACTORS
330
5F0
102
}
330
5F0
100
AcDbVisualStyle
  2
Linepattern
 70
    14
 71
     2
 72
     2
 73
     0
 90
        0
 40
-0.6
 41
-30.0
 62
     5
 63
     7
421
 16777215
 74
     1
 91
        4
 64
     7
 65
   257
 75
     7
175
     7
 42
1.0
 92
        8
 66
     7
 43
1.0
 76
     1
 77
     6
 78
     2
 67
     7
 79
     5
170
     0
171
     0
290
     0
174
     0
 93
        1
 44
0.0
173
     0
291
     1
 45
0.0
  0
VISUALSTYLE
  5
5FA
102
{ACAD_REACTORS
330
5F0
102
}
330
5F0
100
AcDbVisualStyle
  2
Realistic
 70
     8
 71
     2
 72
     2
 73
     0
 90
        0
 40
-0.6
 41
-30.0
 62
     5
 63
     7
421
 16777215
 74
     1
 91
        0
 64
     7
 65
   257
 75
     1
175
     1
 42
1.0
 92
        8
 66
     8
424
  7895160
 43
1.0
 76
     1
 77
     6
 78
     2
 67
     7
 79
     5
170
     0
171
     0
290
     0
174
     0
 93
       13
 44
0.0
173
     0
291
     0
 45
0.0
  0
VISUALSTYLE
  5
5FD
102
{ACAD_REACTORS
330
5F0
102
}
330
5F0
100
AcDbVisualStyle
  2
Thicken
 70
    13
 71
     2
 72
     2
 73
     0
 90
        0
 40
-0.6
 41
-30.0
 62
     5
 63
     7
421
 16777215
 74
     1
 91
        4
 64
     7
 65
   257
 75
     1
175
     1
 42
1.0
 92
       12
 66
     7
 43
1.0
 76
     1
 77
     6
 78
     2
 67
     7
 79
     5
170
     0
171
     0
290
     0
174
     0
 93
        1
 44
0.0
173
     0
291
     1
 45
0.0
  0
DICTIONARYVAR
  5
B98
102
{ACAD_REACTORS
330
B94
102
}
330
B94
100
DictionaryVariables
280
     0
  1
1:1
  0
DICTIONARYVAR
  5
B96
102
{ACAD_REACTORS
330
B94
102
}
330
B94
100
DictionaryVariables
280
     0
  1
STANDARD
  0
DICTIONARYVAR
  5
B95
102
{ACAD_REACTORS
330
B94
102
}
330
B94
100
DictionaryVariables
280
     0
  1
STANDARD
  0
DICTIONARYVAR
  5
B9A
102
{ACAD_REACTORS
330
B94
102
}
330
B94
100
DictionaryVariables
280
     0
  1
1
  0
DICTIONARYVAR
  5
B9B
102
{ACAD_REACTORS
330
B94
102
}
330
B94
100
DictionaryVariables
280
     0
  1
15
  0
DICTIONARYVAR
  5
B99
102
{ACAD_REACTORS
330
B94
102
}
330
B94
100
DictionaryVariables
280
     0
  1
0
  0
DICTIONARYVAR
  5
B97
102
{ACAD_REACTORS
330
B94
102
}
330
B94
100
DictionaryVariables
280
     0
  1
0
  0
DICTIONARY
  5
93A
102
{ACAD_REACTORS
330
693
102
}
330
693
100
AcDbDictionary
281
     1
  0
DICTIONARY
  5
5E1
330
5E0
100
AcDbDictionary
280
     1
281
     1
  3
BUMPTILE
360
5E3
  3
DIFFUSETILE
360
5E2
  3
OPACITYTILE
360
5E6
  3
REFLECTIONTILE
360
5E5
  3
REFRACTIONTILE
360
5E7
  3
SPECULARTILE
360
5E4
  0
DICTIONARY
  5
5D9
330
5D8
100
AcDbDictionary
280
     1
281
     1
  3
BUMPTILE
360
5DB
  3
DIFFUSETILE
360
5DA
  3
OPACITYTILE
360
5DE
  3
REFLECTIONTILE
360
5DD
  3
REFRACTIONTILE
360
5DF
  3
SPECULARTILE
360
5DC
  0
DICTIONARY
  5
5E9
330
5E8
100
AcDbDictionary
280
     1
281
     1
  3
BUMPTILE
360
5EB
  3
DIFFUSETILE
360
5EA
  3
OPACITYTILE
360
5EE
  3
REFLECTIONTILE
360
5ED
  3
REFRACTIONTILE
360
5EF
  3
SPECULARTILE
360
5EC
  0
DICTIONARY
  5
B9C
330
603
100
AcDbDictionary
280
     1
281
     1
  3
ACAD_ROUNDTRIP_2008_TABLESTYLE_CELLSTYLEMAP
360
B9D
  0
XRECORD
  5
5E3
102
{ACAD_REACTORS
330
5E1
102
}
330
5E1
100
AcDbXrecord
280
     1
270
     1
271
     1
  0
XRECORD
  5
5E2
102
{ACAD_REACTORS
330
5E1
102
}
330
5E1
100
AcDbXrecord
280
     1
270
     1
271
     1
  0
XRECORD
  5
5E6
102
{ACAD_REACTORS
330
5E1
102
}
330
5E1
100
AcDbXrecord
280
     1
270
     1
271
     1
  0
XRECORD
  5
5E5
102
{ACAD_REACTORS
330
5E1
102
}
330
5E1
100
AcDbXrecord
280
     1
270
     1
271
     1
  0
XRECORD
  5
5E7
102
{ACAD_REACTORS
330
5E1
102
}
330
5E1
100
AcDbXrecord
280
     1
270
     1
271
     1
  0
XRECORD
  5
5E4
102
{ACAD_REACTORS
330
5E1
102
}
330
5E1
100
AcDbXrecord
280
     1
270
     1
271
     1
  0
XRECORD
  5
5DB
102
{ACAD_REACTORS
330
5D9
102
}
330
5D9
100
AcDbXrecord
280
     1
270
     1
271
     1
  0
XRECORD
  5
5DA
102
{ACAD_REACTORS
330
5D9
102
}
330
5D9
100
AcDbXrecord
280
     1
270
     1
271
     1
  0
XRECORD
  5
5DE
102
{ACAD_REACTORS
330
5D9
102
}
330
5D9
100
AcDbXrecord
280
     1
270
     1
271
     1
  0
XRECORD
  5
5DD
102
{ACAD_REACTORS
330
5D9
102
}
330
5D9
100
AcDbXrecord
280
     1
270
     1
271
     1
  0
XRECORD
  5
5DF
102
{ACAD_REACTORS
330
5D9
102
}
330
5D9
100
AcDbXrecord
280
     1
270
     1
271
     1
  0
XRECORD
  5
5DC
102
{ACAD_REACTORS
330
5D9
102
}
330
5D9
100
AcDbXrecord
280
     1
270
     1
271
     1
  0
XRECORD
  5
5EB
102
{ACAD_REACTORS
330
5E9
102
}
330
5E9
100
AcDbXrecord
280
     1
270
     1
271
     1
  0
XRECORD
  5
5EA
102
{ACAD_REACTORS
330
5E9
102
}
330
5E9
100
AcDbXrecord
280
     1
270
     1
271
     1
  0
XRECORD
  5
5EE
102
{ACAD_REACTORS
330
5E9
102
}
330
5E9
100
AcDbXrecord
280
     1
270
     1
271
     1
  0
XRECORD
  5
5ED
102
{ACAD_REACTORS
330
5E9
102
}
330
5E9
100
AcDbXrecord
280
     1
270
     1
271
     1
  0
XRECORD
  5
5EF
102
{ACAD_REACTORS
330
5E9
102
}
330
5E9
100
AcDbXrecord
280
     1
270
     1
271
     1
  0
XRECORD
  5
5EC
102
{ACAD_REACTORS
330
5E9
102
}
330
5E9
100
AcDbXrecord
280
     1
270
     1
271
     1
  0
CELLSTYLEMAP
  5
B9D
102
{ACAD_REACTORS
330
B9C
102
}
330
B9C
100
AcDbCellStyleMap
 90
        3
300
CELLSTYLE
  1
TABLEFORMAT_BEGIN
 90
        5
170
     1
 91
        0
 92
    32768
 62
   257
 93
        1
300
CONTENTFORMAT
  1
CONTENTFORMAT_BEGIN
 90
        0
 91
        0
 92
      512
 93
        0
300

 40
0.0
140
1.0
 94
        5
 62
     0
340
11
144
0.25
309
CONTENTFORMAT_END
171
     0
 94
        0
309
TABLEFORMAT_END
  1
CELLSTYLE_BEGIN
 90
        1
 91
        1
300
_TITLE
309
CELLSTYLE_END
300
CELLSTYLE
  1
TABLEFORMAT_BEGIN
 90
        5
170
     1
 91
        0
 92
        0
 62
   257
 93
        1
300
CONTENTFORMAT
  1
CONTENTFORMAT_BEGIN
 90
        0
 91
        0
 92
      512
 93
        0
300

 40
0.0
140
1.0
 94
        5
 62
     0
340
11
144
0.18
309
CONTENTFORMAT_END
171
     0
 94
        0
309
TABLEFORMAT_END
  1
CELLSTYLE_BEGIN
 90
        2
 91
        1
300
_HEADER
309
CELLSTYLE_END
300
CELLSTYLE
  1
TABLEFORMAT_BEGIN
 90
        5
170
     1
 91
        0
 92
        0
 62
   257
 93
        1
300
CONTENTFORMAT
  1
CONTENTFORMAT_BEGIN
 90
        0
 91
        0
 92
      512
 93
        0
300

 40
0.0
140
1.0
 94
        2
 62
     0
340
11
144
0.18
309
CONTENTFORMAT_END
171
     0
 94
        0
309
TABLEFORMAT_END
  1
CELLSTYLE_BEGIN
 90
        3
 91
        2
300
_DATA
309
CELLSTYLE_END
  0
ENDSEC
  0
EOF
