  0
SECTION
  2
HEADER
  9
$ACADVER
  1
AC1015
  9
$ACADMAINTVER
 70
     6
  9
$DWGCODEPAGE
  3
ANSI_1252
  9
$INSBASE
 10
0.0
 20
0.0
 30
0.0
  9
$EXTMIN
 10
0.0
 20
0.0
 30
0.0
  9
$EXTMAX
 10
2970.0
 20
2100.0
 30
0.0
  9
$LIMMIN
 10
0.0
 20
0.0
  9
$LIMMAX
 10
2970.0
 20
2100.0
  9
$ORTHOMODE
 70
     0
  9
$REGENMODE
 70
     1
  9
$FILLMODE
 70
     1
  9
$QTEXTMODE
 70
     0
  9
$MIRRTEXT
 70
     1
  9
$LTSCALE
 40
5.0
  9
$ATTMODE
 70
     1
  9
$TEXTSIZE
 40
12.5
  9
$TRACEWID
 40
1.0
  9
$TEXTSTYLE
  7
Standard
  9
$CLAYER
  8
0
  9
$CELTYPE
  6
ByLayer
  9
$CECOLOR
 62
   256
  9
$CELTSCALE
 40
1.0
  9
$DISPSILH
 70
     0
  9
$DIMSCALE
 40
1.0
  9
$DIMASZ
 40
12.5
  9
$DIMEXO
 40
0.0
  9
$DIMDLI
 40
3.75
  9
$DIMRND
 40
0.0
  9
$DIMDLE
 40
0.0
  9
$DIMEXE
 40
5.0
  9
$DIMTP
 40
0.0
  9
$DIMTM
 40
0.0
  9
$DIMTXT
 40
12.5
  9
$DIMCEN
 40
2.5
  9
$DIMTSZ
 40
0.0
  9
$DIMTOL
 70
     0
  9
$DIMLIM
 70
     0
  9
$DIMTIH
 70
     1
  9
$DIMTOH
 70
     1
  9
$DIMSE1
 70
     0
  9
$DIMSE2
 70
     0
  9
$DIMTAD
 70
     1
  9
$DIMZIN
 70
     0
  9
$DIMBLK
  1

  9
$DIMASO
 70
     1
  9
$DIMSHO
 70
     1
  9
$DIMPOST
  1

  9
$DIMAPOST
  1

  9
$DIMALT
 70
     0
  9
$DIMALTD
 70
     3
  9
$DIMALTF
 40
0.0393700787
  9
$DIMLFAC
 40
1.0
  9
$DIMTOFL
 70
     1
  9
$DIMTVP
 40
0.0
  9
$DIMTIX
 70
     0
  9
$DIMSOXD
 70
     0
  9
$DIMSAH
 70
     0
  9
$DIMBLK1
  1

  9
$DIMBLK2
  1

  9
$DIMSTYLE
  2
ISO-25
  9
$DIMCLRD
 70
     0
  9
$DIMCLRE
 70
     0
  9
$DIMCLRT
 70
     0
  9
$DIMTFAC
 40
1.0
  9
$DIMGAP
 40
7.62
  9
$DIMJUST
 70
     0
  9
$DIMSD1
 70
     0
  9
$DIMSD2
 70
     0
  9
$DIMTOLJ
 70
     0
  9
$DIMTZIN
 70
     0
  9
$DIMALTZ
 70
     0
  9
$DIMALTTZ
 70
     0
  9
$DIMUPT
 70
     0
  9
$DIMDEC
 70
     2
  9
$DIMTDEC
 70
     2
  9
$DIMALTU
 70
     2
  9
$DIMALTTD
 70
     3
  9
$DIMTXSTY
  7
Standard
  9
$DIMAUNIT
 70
     0
  9
$DIMADEC
 70
     2
  9
$DIMALTRND
 40
0.0
  9
$DIMAZIN
 70
     0
  9
$DIMDSEP
 70
    44
  9
$DIMATFIT
 70
     3
  9
$DIMFRAC
 70
     0
  9
$DIMLDRBLK
  1

  9
$DIMLUNIT
 70
     2
  9
$DIMLWD
 70
    -2
  9
$DIMLWE
 70
    -2
  9
$DIMTMOVE
 70
     0
  9
$LUNITS
 70
     2
  9
$LUPREC
 70
     1
  9
$SKETCHINC
 40
1.0
  9
$FILLETRAD
 40
10.0
  9
$AUNITS
 70
     0
  9
$AUPREC
 70
     2
  9
$MENU
  1
.
  9
$ELEVATION
 40
0.0
  9
$PELEVATION
 40
0.0
  9
$THICKNESS
 40
0.0
  9
$LIMCHECK
 70
     0
  9
$CHAMFERA
 40
0.0
  9
$CHAMFERB
 40
0.0
  9
$CHAMFERC
 40
0.0
  9
$CHAMFERD
 40
0.0
  9
$SKPOLY
 70
     0
  9
$TDCREATE
 40
2458906.672869421
  9
$TDUCREATE
 40
2458906.443702755
  9
$TDUPDATE
 40
2458906.672881921
  9
$TDUUPDATE
 40
2458906.443715255
  9
$TDINDWG
 40
0.0000000116
  9
$TDUSRTIMER
 40
0.0000000116
  9
$USRTIMER
 70
     1
  9
$ANGBASE
 50
0.0
  9
$ANGDIR
 70
     0
  9
$PDMODE
 70
     0
  9
$PDSIZE
 40
-1.0
  9
$PLINEWID
 40
0.0
  9
$SPLFRAME
 70
     0
  9
$SPLINETYPE
 70
     6
  9
$SPLINESEGS
 70
     8
  9
$HANDSEED
  5
397
  9
$SURFTAB1
 70
     6
  9
$SURFTAB2
 70
     6
  9
$SURFTYPE
 70
     6
  9
$SURFU
 70
     6
  9
$SURFV
 70
     6
  9
$UCSBASE
  2

  9
$UCSNAME
  2

  9
$UCSORG
 10
0.0
 20
0.0
 30
0.0
  9
$UCSXDIR
 10
1.0
 20
0.0
 30
0.0
  9
$UCSYDIR
 10
0.0
 20
1.0
 30
0.0
  9
$UCSORTHOREF
  2

  9
$UCSORTHOVIEW
 70
     0
  9
$UCSORGTOP
 10
0.0
 20
0.0
 30
0.0
  9
$UCSORGBOTTOM
 10
0.0
 20
0.0
 30
0.0
  9
$UCSORGLEFT
 10
0.0
 20
0.0
 30
0.0
  9
$UCSORGRIGHT
 10
0.0
 20
0.0
 30
0.0
  9
$UCSORGFRONT
 10
0.0
 20
0.0
 30
0.0
  9
$UCSORGBACK
 10
0.0
 20
0.0
 30
0.0
  9
$PUCSBASE
  2

  9
$PUCSNAME
  2

  9
$PUCSORG
 10
0.0
 20
0.0
 30
0.0
  9
$PUCSXDIR
 10
1.0
 20
0.0
 30
0.0
  9
$PUCSYDIR
 10
0.0
 20
1.0
 30
0.0
  9
$PUCSORTHOREF
  2

  9
$PUCSORTHOVIEW
 70
     0
  9
$PUCSORGTOP
 10
0.0
 20
0.0
 30
0.0
  9
$PUCSORGBOTTOM
 10
0.0
 20
0.0
 30
0.0
  9
$PUCSORGLEFT
 10
0.0
 20
0.0
 30
0.0
  9
$PUCSORGRIGHT
 10
0.0
 20
0.0
 30
0.0
  9
$PUCSORGFRONT
 10
0.0
 20
0.0
 30
0.0
  9
$PUCSORGBACK
 10
0.0
 20
0.0
 30
0.0
  9
$USERI1
 70
     0
  9
$USERI2
 70
     0
  9
$USERI3
 70
     0
  9
$USERI4
 70
     0
  9
$USERI5
 70
     0
  9
$USERR1
 40
0.0
  9
$USERR2
 40
0.0
  9
$USERR3
 40
0.0
  9
$USERR4
 40
0.0
  9
$USERR5
 40
0.0
  9
$WORLDVIEW
 70
     1
  9
$SHADEDGE
 70
     3
  9
$SHADEDIF
 70
    70
  9
$TILEMODE
 70
     1
  9
$MAXACTVP
 70
    64
  9
$PINSBASE
 10
0.0
 20
0.0
 30
0.0
  9
$PLIMCHECK
 70
     0
  9
$PEXTMIN
 10
1.0000000000E+20
 20
1.0000000000E+20
 30
1.0000000000E+20
  9
$PEXTMAX
 10
-1.0000000000E+20
 20
-1.0000000000E+20
 30
-1.0000000000E+20
  9
$PLIMMIN
 10
0.0
 20
0.0
  9
$PLIMMAX
 10
420.0
 20
297.0
  9
$UNITMODE
 70
     0
  9
$VISRETAIN
 70
     1
  9
$PLINEGEN
 70
     0
  9
$PSLTSCALE
 70
     1
  9
$TREEDEPTH
 70
  3020
  9
$CMLSTYLE
  2
Standard
  9
$CMLJUST
 70
     0
  9
$CMLSCALE
 40
20.0
  9
$PROXYGRAPHICS
 70
     1
  9
$MEASUREMENT
 70
     1
  9
$CELWEIGHT
370
    -1
  9
$ENDCAPS
280
     0
  9
$JOINSTYLE
280
     0
  9
$LWDISPLAY
290
     1
  9
$INSUNITS
 70
     4
  9
$HYPERLINKBASE
  1

  9
$STYLESHEET
  1

  9
$XEDIT
290
     1
  9
$CEPSNTYPE
380
     0
  9
$PSTYLEMODE
290
     1
  9
$FINGERPRINTGUID
  2
{6778caca-8131-4c39-b285-243a844010ab}
  9
$VERSIONGUID
  2
{FAEB1C32-E019-11D5-929B-00C0DF256EC4}
  9
$EXTNAMES
290
     1
  9
$PSVPSCALE
 40
0.0
  9
$OLESTARTUP
290
     0
  0
ENDSEC
  0
SECTION
  2
CLASSES
  0
CLASS
  1
ACDBDICTIONARYWDFLT
  2
AcDbDictionaryWithDefault
  3
ObjectDBX Classes
 90
        0
280
     0
281
     0
  0
CLASS
  1
VISUALSTYLE
  2
AcDbVisualStyle
  3
ObjectDBX Classes
 90
     4095
280
     0
281
     0
  0
CLASS
  1
MATERIAL
  2
AcDbMaterial
  3
ObjectDBX Classes
 90
     1153
280
     0
281
     0
  0
CLASS
  1
SCALE
  2
AcDbScale
  3
ObjectDBX Classes
 90
     1153
280
     0
281
     0
  0
CLASS
  1
TABLESTYLE
  2
AcDbTableStyle
  3
ObjectDBX Classes
 90
     4095
280
     0
281
     0
  0
CLASS
  1
MLEADERSTYLE
  2
AcDbMLeaderStyle
  3
ACDB_MLEADERSTYLE_CLASS
 90
     4095
280
     0
281
     0
  0
CLASS
  1
SUN
  2
AcDbSun
  3
SCENEOE
 90
     1153
280
     0
281
     0
  0
CLASS
  1
ACDBPLACEHOLDER
  2
AcDbPlaceHolder
  3
ObjectDBX Classes
 90
        0
280
     0
281
     0
  0
CLASS
  1
LAYOUT
  2
AcDbLayout
  3
ObjectDBX Classes
 90
        0
280
     0
281
     0
  0
ENDSEC
  0
SECTION
  2
TABLES
  0
TABLE
  2
VPORT
  5
8
330
0
100
AcDbSymbolTable
 70
     1
  0
VPORT
  5
29
330
8
100
AcDbSymbolTableRecord
100
AcDbViewportTableRecord
  2
*Active
 70
     0
 10
0.0
 20
0.0
 11
1.0
 21
1.0
 12
1485.0
 22
1050.0
 13
0.0
 23
0.0
 14
10.0
 24
10.0
 15
10.0
 25
10.0
 16
0.0
 26
0.0
 36
1.0
 17
0.0
 27
0.0
 37
0.0
 40
2100.0
 41
1.4142857143
 42
50.0
 43
0.0
 44
0.0
 50
0.0
 51
0.0
 71
     0
 72
  2000
 73
     1
 74
     3
 75
     0
 76
     0
 77
     0
 78
     0
281
     0
 65
     1
110
0.0
120
0.0
130
0.0
111
1.0
121
0.0
131
0.0
112
0.0
122
1.0
132
0.0
 79
     0
146
0.0
  0
ENDTAB
  0
TABLE
  2
LTYPE
  5
5
330
0
100
AcDbSymbolTable
 70
     6
  0
LTYPE
  5
14
330
5
100
AcDbSymbolTableRecord
100
AcDbLinetypeTableRecord
  2
ByBlock
 70
     0
  3

 72
    65
 73
     0
 40
0.0
  0
LTYPE
  5
15
330
5
100
AcDbSymbolTableRecord
100
AcDbLinetypeTableRecord
  2
ByLayer
 70
     0
  3

 72
    65
 73
     0
 40
0.0
  0
LTYPE
  5
16
330
5
100
AcDbSymbolTableRecord
100
AcDbLinetypeTableRecord
  2
Continuous
 70
     0
  3
Solid line
 72
    65
 73
     0
 40
0.0
  0
LTYPE
  5
6E
330
5
100
AcDbSymbolTableRecord
100
AcDbLinetypeTableRecord
  2
HIDDEN
 70
     0
  3
Hidden __ __ __ __ __ __ __ __ __ __ __ __ __ __
 72
    65
 73
     2
 40
1.905
 49
1.27
 74
     0
 49
-0.635
 74
     0
  0
LTYPE
  5
6F
330
5
100
AcDbSymbolTableRecord
100
AcDbLinetypeTableRecord
  2
PHANTOM
 70
     0
  3
Phantom ______  __  __  ______  __  __  ______
 72
    65
 73
     6
 40
12.7
 49
6.35
 74
     0
 49
-1.27
 74
     0
 49
1.27
 74
     0
 49
-1.27
 74
     0
 49
1.27
 74
     0
 49
-1.27
 74
     0
  0
LTYPE
  5
70
330
5
100
AcDbSymbolTableRecord
100
AcDbLinetypeTableRecord
  2
CENTER
 70
     0
  3
Center ____ _ ____ _ ____ _ ____ _ ____ _ ____
 72
    65
 73
     4
 40
10.16
 49
6.35
 74
     0
 49
-1.27
 74
     0
 49
1.27
 74
     0
 49
-1.27
 74
     0
  0
LTYPE
  5
71
330
5
100
AcDbSymbolTableRecord
100
AcDbLinetypeTableRecord
  2
CENTERX2
 70
     0
  3
Center (2x) ________  __  ________  __  _____
 72
    65
 73
     4
 40
20.32
 49
12.7
 74
     0
 49
-2.54
 74
     0
 49
2.54
 74
     0
 49
-2.54
 74
     0
  0
LTYPE
  5
72
330
5
100
AcDbSymbolTableRecord
100
AcDbLinetypeTableRecord
  2
DOT2
 70
     0
  3
Dot (.5x) ........................................
 72
    65
 73
     2
 40
0.635
 49
0.0
 74
     0
 49
-0.635
 74
     0
  0
ENDTAB
  0
TABLE
  2
LAYER
  5
2
330
0
100
AcDbSymbolTable
 70
    10
  0
LAYER
  5
10
330
2
100
AcDbSymbolTableRecord
100
AcDbLayerTableRecord
  2
0
 70
     0
 62
     7
  6
Continuous
370
    -3
390
F
  0
LAYER
  5
73
330
2
100
AcDbSymbolTableRecord
100
AcDbLayerTableRecord
  2
DIMENSION
 70
     0
 62
     7
  6
Continuous
370
    -3
390
F
  0
LAYER
  5
74
330
2
100
AcDbSymbolTableRecord
100
AcDbLayerTableRecord
  2
NOTES
 70
     0
 62
     7
  6
Continuous
370
    -3
390
F
  0
LAYER
  5
75
330
2
100
AcDbSymbolTableRecord
100
AcDbLayerTableRecord
  2
TABLES
 70
     0
 62
     7
  6
Continuous
370
    -3
390
F
  0
LAYER
  5
76
330
2
100
AcDbSymbolTableRecord
100
AcDbLayerTableRecord
  2
INVISIBLE
 70
     0
 62
    -7
  6
Continuous
290
     0
370
    -3
390
F
  0
LAYER
  5
77
330
2
100
AcDbSymbolTableRecord
100
AcDbLayerTableRecord
  2
WEP
 70
     0
 62
  -150
  6
Continuous
290
     0
370
    -3
390
F
  0
LAYER
  5
78
330
2
100
AcDbSymbolTableRecord
100
AcDbLayerTableRecord
  2
EMP
 70
     0
 62
     1
  6
Continuous
370
    -3
390
F
  0
LAYER
  5
79
330
2
100
AcDbSymbolTableRecord
100
AcDbLayerTableRecord
  2
MARKETING_DRW
 70
     0
 62
    -7
  6
Continuous
290
     0
370
    -3
390
F
  0
LAYER
  5
7A
330
2
100
AcDbSymbolTableRecord
100
AcDbLayerTableRecord
  2
SINGLE_ARTICLE_DRW
 70
     0
 62
    -7
  6
Continuous
290
     0
370
    -3
390
F
  0
LAYER
  5
7B
330
2
100
AcDbSymbolTableRecord
100
AcDbLayerTableRecord
  2
TABLE_DRW
 70
     0
 62
     7
  6
Continuous
370
    -3
390
F
  0
ENDTAB
  0
TABLE
  2
STYLE
  5
3
330
0
100
AcDbSymbolTable
 70
     2
  0
STYLE
  5
11
330
3
100
AcDbSymbolTableRecord
100
AcDbTextStyleTableRecord
  2
Standard
 70
     0
 40
0.0
 41
1.0
 50
0.0
 71
     0
 42
12.5
  3
txt
  4

  0
STYLE
  5
B5
330
3
100
AcDbSymbolTableRecord
100
AcDbTextStyleTableRecord
  2
SLDTEXTSTYLE0
 70
     0
 40
0.0
 41
0.605
 50
0.0
 71
     0
 42
12.5
  3
TXT
  4

  0
ENDTAB
  0
TABLE
  2
VIEW
  5
6
330
0
100
AcDbSymbolTable
 70
     0
  0
ENDTAB
  0
TABLE
  2
UCS
  5
7
330
0
100
AcDbSymbolTable
 70
     0
  0
ENDTAB
  0
TABLE
  2
APPID
  5
9
330
0
100
AcDbSymbolTable
 70
     1
  0
APPID
  5
12
330
9
100
AcDbSymbolTableRecord
100
AcDbRegAppTableRecord
  2
ACAD
 70
     0
  0
ENDTAB
  0
TABLE
  2
DIMSTYLE
  5
A
330
0
100
AcDbSymbolTable
 70
     1
100
AcDbDimStyleTable
  0
DIMSTYLE
105
27
330
A
100
AcDbSymbolTableRecord
100
AcDbDimStyleTableRecord
  2
ISO-25
 70
     0
 41
2.5
 42
0.625
 43
3.75
 44
1.25
 73
     0
 74
     0
 77
     1
 78
     8
140
2.5
141
2.5
143
0.0393700787
147
0.625
171
     3
172
     1
178
     0
271
     2
272
     2
274
     3
278
    44
283
     0
284
     8
340
11
  0
ENDTAB
  0
TABLE
  2
BLOCK_RECORD
  5
1
330
0
100
AcDbSymbolTable
 70
     3
  0
BLOCK_RECORD
  5
1F
330
1
100
AcDbSymbolTableRecord
100
AcDbBlockTableRecord
  2
*Model_Space
340
22
  0
BLOCK_RECORD
  5
1B
330
1
100
AcDbSymbolTableRecord
100
AcDbBlockTableRecord
  2
*Paper_Space
340
1E
  0
BLOCK_RECORD
  5
23
330
1
100
AcDbSymbolTableRecord
100
AcDbBlockTableRecord
  2
*Paper_Space0
340
26
  0
BLOCK_RECORD
  5
C8
330
1
100
AcDbSymbolTableRecord
100
AcDbBlockTableRecord
  2
SW_NOTE_0
340
0
102
{BLKREFS
331
CE
102
}
  0
BLOCK_RECORD
  5
E8
330
1
100
AcDbSymbolTableRecord
100
AcDbBlockTableRecord
  2
SW_NOTE_0_1
340
0
102
{BLKREFS
331
EE
102
}
  0
ENDTAB
  0
ENDSEC
  0
SECTION
  2
BLOCKS
  0
BLOCK
  5
20
330
1F
100
AcDbEntity
  8
0
100
AcDbBlockBegin
  2
*Model_Space
 70
     0
 10
0.0
 20
0.0
 30
0.0
  3
*Model_Space
  1

  0
ENDBLK
  5
21
330
1F
100
AcDbEntity
  8
0
100
AcDbBlockEnd
  0
BLOCK
  5
1C
330
1B
100
AcDbEntity
 67
     1
  8
0
100
AcDbBlockBegin
  2
*Paper_Space
 70
     0
 10
0.0
 20
0.0
 30
0.0
  3
*Paper_Space
  1

  0
ENDBLK
  5
1D
330
1B
100
AcDbEntity
 67
     1
  8
0
100
AcDbBlockEnd
  0
BLOCK
  5
24
330
23
100
AcDbEntity
  8
0
100
AcDbBlockBegin
  2
*Paper_Space0
 70
     0
 10
0.0
 20
0.0
 30
0.0
  3
*Paper_Space0
  1

  0
ENDBLK
  5
25
330
23
100
AcDbEntity
  8
0
100
AcDbBlockEnd
  0
BLOCK
  5
C9
330
C8
100
AcDbEntity
  8
0
100
AcDbBlockBegin
  2
SW_NOTE_0
 70
     0
 10
0.0
 20
0.0
 30
0.0
  3
SW_NOTE_0
  1

  0
MTEXT
  5
CB
330
C8
100
AcDbEntity
  8
SINGLE_ARTICLE_DRW
 62
     0
100
AcDbMText
 10
0.0
 20
11.6016096579
 30
0.0
 40
9.0
 41
0.0
 71
     1
 72
     1
  1
The reproduction, distribution and utilization of this document as well as the communication of its contents to
  7
SLDTEXTSTYLE0
 73
     1
 44
1.0
  0
MTEXT
  5
CC
330
C8
100
AcDbEntity
  8
SINGLE_ARTICLE_DRW
 62
     0
100
AcDbMText
 10
0.0
 20
0.0016098055
 30
0.0
 40
9.0
 41
0.0
 71
     1
 72
     1
  1
others without express authorization is prohibited. Offenders will be held liable for the payment of damages.
  7
SLDTEXTSTYLE0
 73
     1
 44
1.0
  0
MTEXT
  5
CD
330
C8
100
AcDbEntity
  8
SINGLE_ARTICLE_DRW
 62
     0
100
AcDbMText
 10
0.0
 20
-11.598390047
 30
0.0
 40
9.0
 41
0.0
 71
     1
 72
     1
  1
All rights reserved in the event of the grant of a patent, utility model or design. Observe copyright by ISO 16016
  7
SLDTEXTSTYLE0
 73
     1
 44
1.0
  0
ENDBLK
  5
CA
330
C8
100
AcDbEntity
  8
0
100
AcDbBlockEnd
  0
BLOCK
  5
E9
330
E8
100
AcDbEntity
  8
0
100
AcDbBlockBegin
  2
SW_NOTE_0_1
 70
     0
 10
0.0
 20
0.0
 30
0.0
  3
SW_NOTE_0_1
  1

  0
MTEXT
  5
EB
330
E8
100
AcDbEntity
  8
MARKETING_DRW
 62
     0
100
AcDbMText
 10
0.0
 20
11.6016096579
 30
0.0
 40
9.0
 41
0.0
 71
     1
 72
     1
  1
The reproduction, distribution and utilization of this document as well as the communication of its contents to
  7
SLDTEXTSTYLE0
 73
     1
 44
1.0
  0
MTEXT
  5
EC
330
E8
100
AcDbEntity
  8
MARKETING_DRW
 62
     0
100
AcDbMText
 10
0.0
 20
-0.0233903849
 30
0.0
 40
9.0
 41
0.0
 71
     1
 72
     1
  1
others without express authorization is prohibited. Offenders will be held liable for the payment of damages.
  7
SLDTEXTSTYLE0
 73
     1
 44
1.0
  0
MTEXT
  5
ED
330
E8
100
AcDbEntity
  8
MARKETING_DRW
 62
     0
100
AcDbMText
 10
0.0
 20
-11.6483904277
 30
0.0
 40
9.0
 41
0.0
 71
     1
 72
     1
  1
All rights reserved in the event of the grant of a patent, utility model or design. Observe copyright by ISO 16016
  7
SLDTEXTSTYLE0
 73
     1
 44
1.0
  0
ENDBLK
  5
EA
330
E8
100
AcDbEntity
  8
0
100
AcDbBlockEnd
  0
ENDSEC
  0
SECTION
  2
ENTITIES
  0
LINE
  5
7C
330
1F
100
AcDbEntity
  8
SINGLE_ARTICLE_DRW
  6
CENTERX2
 62
     7
100
AcDbLine
 10
2825.0
 20
200.0
 30
0.0
 11
2850.0
 21
200.0
 31
0.0
  0
LINE
  5
7D
330
1F
100
AcDbEntity
  8
SINGLE_ARTICLE_DRW
  6
CENTERX2
 62
     7
100
AcDbLine
 10
2837.5
 20
212.5
 30
0.0
 11
2837.5
 21
187.5
 31
0.0
  0
LINE
  5
7E
330
1F
100
AcDbEntity
  8
SINGLE_ARTICLE_DRW
  6
CENTERX2
 62
     7
100
AcDbLine
 10
2785.0
 20
200.0
 30
0.0
 11
2820.0
 21
200.0
 31
0.0
  0
LINE
  5
7F
330
1F
100
AcDbEntity
  8
SINGLE_ARTICLE_DRW
 62
     7
100
AcDbLine
 10
2790.0
 20
194.95
 30
0.0
 11
2815.0
 21
190.0
 31
0.0
  0
LINE
  5
80
330
1F
100
AcDbEntity
  8
SINGLE_ARTICLE_DRW
 62
     7
100
AcDbLine
 10
2790.0
 20
205.05
 30
0.0
 11
2790.0
 21
194.95
 31
0.0
  0
LINE
  5
81
330
1F
100
AcDbEntity
  8
SINGLE_ARTICLE_DRW
 62
     7
100
AcDbLine
 10
2815.0
 20
210.0
 30
0.0
 11
2790.0
 21
205.05
 31
0.0
  0
LINE
  5
82
330
1F
100
AcDbEntity
  8
SINGLE_ARTICLE_DRW
 62
     7
100
AcDbLine
 10
2815.0
 20
190.0
 30
0.0
 11
2815.0
 21
210.0
 31
0.0
  0
LINE
  5
83
330
1F
100
AcDbEntity
  8
SINGLE_ARTICLE_DRW
 62
     7
100
AcDbLine
 10
2920.0
 20
50.0
 30
0.0
 11
2920.0
 21
340.0
 31
0.0
  0
LINE
  5
84
330
1F
100
AcDbEntity
  8
SINGLE_ARTICLE_DRW
 62
     7
100
AcDbLine
 10
2020.0
 20
340.0
 30
0.0
 11
2020.0
 21
50.0
 31
0.0
  0
LINE
  5
85
330
1F
100
AcDbEntity
  8
SINGLE_ARTICLE_DRW
 62
     7
100
AcDbLine
 10
2570.0
 20
95.0
 30
0.0
 11
2570.0
 21
50.0
 31
0.0
  0
LINE
  5
86
330
1F
100
AcDbEntity
  8
SINGLE_ARTICLE_DRW
 62
     7
100
AcDbLine
 10
2720.0
 20
50.0
 30
0.0
 11
2720.0
 21
95.0
 31
0.0
  0
LINE
  5
87
330
1F
100
AcDbEntity
  8
SINGLE_ARTICLE_DRW
 62
     7
100
AcDbLine
 10
2870.0
 20
95.0
 30
0.0
 11
2870.0
 21
50.0
 31
0.0
  0
LINE
  5
88
330
1F
100
AcDbEntity
  8
SINGLE_ARTICLE_DRW
 62
     7
100
AcDbLine
 10
2770.0
 20
320.0
 30
0.0
 11
2770.0
 21
185.0
 31
0.0
  0
LINE
  5
89
330
1F
100
AcDbEntity
  8
SINGLE_ARTICLE_DRW
 62
     7
100
AcDbLine
 10
2920.0
 20
320.0
 30
0.0
 11
2020.0
 21
320.0
 31
0.0
  0
LINE
  5
8A
330
1F
100
AcDbEntity
  8
SINGLE_ARTICLE_DRW
 62
     7
100
AcDbLine
 10
2670.0
 20
95.0
 30
0.0
 11
2670.0
 21
50.0
 31
0.0
  0
LINE
  5
8B
330
1F
100
AcDbEntity
  8
SINGLE_ARTICLE_DRW
 62
     7
100
AcDbLine
 10
2920.0
 20
275.0
 30
0.0
 11
2270.0
 21
275.0
 31
0.0
  0
LINE
  5
8C
330
1F
100
AcDbEntity
  8
SINGLE_ARTICLE_DRW
 62
     7
100
AcDbLine
 10
2520.0
 20
230.0
 30
0.0
 11
2520.0
 21
185.0
 31
0.0
  0
LINE
  5
8D
330
1F
100
AcDbEntity
  8
SINGLE_ARTICLE_DRW
 62
     7
100
AcDbLine
 10
2920.0
 20
230.0
 30
0.0
 11
2270.0
 21
230.0
 31
0.0
  0
LINE
  5
8E
330
1F
100
AcDbEntity
  8
SINGLE_ARTICLE_DRW
 62
     7
100
AcDbLine
 10
2270.0
 20
320.0
 30
0.0
 11
2270.0
 21
185.0
 31
0.0
  0
LINE
  5
8F
330
1F
100
AcDbEntity
  8
SINGLE_ARTICLE_DRW
 62
     7
100
AcDbLine
 10
2870.0
 20
230.0
 30
0.0
 11
2870.0
 21
185.0
 31
0.0
  0
LINE
  5
90
330
1F
100
AcDbEntity
  8
SINGLE_ARTICLE_DRW
 62
     7
100
AcDbLine
 10
2920.0
 20
95.0
 30
0.0
 11
2020.0
 21
95.0
 31
0.0
  0
LINE
  5
91
330
1F
100
AcDbEntity
  8
SINGLE_ARTICLE_DRW
 62
     7
100
AcDbLine
 10
2520.0
 20
275.0
 30
0.0
 11
2520.0
 21
320.0
 31
0.0
  0
LINE
  5
92
330
1F
100
AcDbEntity
  8
SINGLE_ARTICLE_DRW
 62
     7
100
AcDbLine
 10
2020.0
 20
340.0
 30
0.0
 11
2920.0
 21
340.0
 31
0.0
  0
LINE
  5
93
330
1F
100
AcDbEntity
  8
SINGLE_ARTICLE_DRW
 62
     7
100
AcDbLine
 10
2020.0
 20
185.0
 30
0.0
 11
2920.0
 21
185.0
 31
0.0
  0
LINE
  5
94
330
1F
100
AcDbEntity
  8
SINGLE_ARTICLE_DRW
 62
     7
100
AcDbLine
 10
2020.0
 20
50.0
 30
0.0
 11
2920.0
 21
50.0
 31
0.0
  0
LINE
  5
95
330
1F
100
AcDbEntity
  8
SINGLE_ARTICLE_DRW
 62
     7
100
AcDbLine
 10
2270.0
 20
275.0
 30
0.0
 11
2020.0
 21
275.0
 31
0.0
  0
LINE
  5
96
330
1F
100
AcDbEntity
  8
MARKETING_DRW
  6
CENTERX2
100
AcDbLine
 10
2825.0
 20
200.0
 30
0.0
 11
2850.0
 21
200.0
 31
0.0
  0
LINE
  5
97
330
1F
100
AcDbEntity
  8
MARKETING_DRW
  6
CENTERX2
100
AcDbLine
 10
2837.5
 20
212.5
 30
0.0
 11
2837.5
 21
187.5
 31
0.0
  0
LINE
  5
98
330
1F
100
AcDbEntity
  8
MARKETING_DRW
  6
CENTERX2
100
AcDbLine
 10
2785.0
 20
200.0
 30
0.0
 11
2820.0
 21
200.0
 31
0.0
  0
LINE
  5
99
330
1F
100
AcDbEntity
  8
MARKETING_DRW
100
AcDbLine
 10
2790.0
 20
194.95
 30
0.0
 11
2815.0
 21
190.0
 31
0.0
  0
LINE
  5
9A
330
1F
100
AcDbEntity
  8
MARKETING_DRW
100
AcDbLine
 10
2790.0
 20
205.05
 30
0.0
 11
2790.0
 21
194.95
 31
0.0
  0
LINE
  5
9B
330
1F
100
AcDbEntity
  8
MARKETING_DRW
100
AcDbLine
 10
2815.0
 20
210.0
 30
0.0
 11
2790.0
 21
205.05
 31
0.0
  0
LINE
  5
9C
330
1F
100
AcDbEntity
  8
MARKETING_DRW
100
AcDbLine
 10
2815.0
 20
190.0
 30
0.0
 11
2815.0
 21
210.0
 31
0.0
  0
LINE
  5
9D
330
1F
100
AcDbEntity
  8
MARKETING_DRW
100
AcDbLine
 10
2920.0
 20
50.0
 30
0.0
 11
2920.0
 21
230.0
 31
0.0
  0
LINE
  5
9E
330
1F
100
AcDbEntity
  8
MARKETING_DRW
100
AcDbLine
 10
2020.0
 20
50.0
 30
0.0
 11
2920.0
 21
50.0
 31
0.0
  0
LINE
  5
9F
330
1F
100
AcDbEntity
  8
MARKETING_DRW
100
AcDbLine
 10
2020.0
 20
275.0
 30
0.0
 11
2020.0
 21
50.0
 31
0.0
  0
LINE
  5
A0
330
1F
100
AcDbEntity
  8
MARKETING_DRW
100
AcDbLine
 10
2020.0
 20
275.0
 30
0.0
 11
2520.0
 21
275.0
 31
0.0
  0
LINE
  5
A1
330
1F
100
AcDbEntity
  8
MARKETING_DRW
100
AcDbLine
 10
2720.0
 20
50.0
 30
0.0
 11
2720.0
 21
95.0
 31
0.0
  0
LINE
  5
A2
330
1F
100
AcDbEntity
  8
MARKETING_DRW
100
AcDbLine
 10
2870.0
 20
95.0
 30
0.0
 11
2870.0
 21
50.0
 31
0.0
  0
LINE
  5
A3
330
1F
100
AcDbEntity
  8
MARKETING_DRW
100
AcDbLine
 10
2520.0
 20
275.0
 30
0.0
 11
2520.0
 21
230.0
 31
0.0
  0
LINE
  5
A4
330
1F
100
AcDbEntity
  8
MARKETING_DRW
100
AcDbLine
 10
2920.0
 20
230.0
 30
0.0
 11
2270.0
 21
230.0
 31
0.0
  0
LINE
  5
A5
330
1F
100
AcDbEntity
  8
MARKETING_DRW
100
AcDbLine
 10
2270.0
 20
275.0
 30
0.0
 11
2270.0
 21
185.0
 31
0.0
  0
LINE
  5
A6
330
1F
100
AcDbEntity
  8
MARKETING_DRW
100
AcDbLine
 10
2870.0
 20
230.0
 30
0.0
 11
2870.0
 21
185.0
 31
0.0
  0
LINE
  5
A7
330
1F
100
AcDbEntity
  8
MARKETING_DRW
100
AcDbLine
 10
2920.0
 20
95.0
 30
0.0
 11
2020.0
 21
95.0
 31
0.0
  0
LINE
  5
A8
330
1F
100
AcDbEntity
  8
MARKETING_DRW
100
AcDbLine
 10
2020.0
 20
185.0
 30
0.0
 11
2920.0
 21
185.0
 31
0.0
  0
LINE
  5
A9
330
1F
100
AcDbEntity
  8
MARKETING_DRW
100
AcDbLine
 10
2020.0
 20
50.0
 30
0.0
 11
2920.0
 21
50.0
 31
0.0
  0
LINE
  5
AA
330
1F
100
AcDbEntity
  8
MARKETING_DRW
100
AcDbLine
 10
2770.0
 20
230.0
 30
0.0
 11
2770.0
 21
185.0
 31
0.0
  0
LINE
  5
AB
330
1F
100
AcDbEntity
  8
MARKETING_DRW
100
AcDbLine
 10
2520.0
 20
275.0
 30
0.0
 11
2770.0
 21
275.0
 31
0.0
  0
LINE
  5
AC
330
1F
100
AcDbEntity
  8
MARKETING_DRW
100
AcDbLine
 10
2770.0
 20
275.0
 30
0.0
 11
2770.0
 21
230.0
 31
0.0
  0
LINE
  5
AD
330
1F
100
AcDbEntity
  8
MARKETING_DRW
100
AcDbLine
 10
2770.0
 20
275.0
 30
0.0
 11
2920.0
 21
275.0
 31
0.0
  0
LINE
  5
AE
330
1F
100
AcDbEntity
  8
MARKETING_DRW
100
AcDbLine
 10
2920.0
 20
275.0
 30
0.0
 11
2920.0
 21
230.0
 31
0.0
  0
LINE
  5
AF
330
1F
100
AcDbEntity
  8
MARKETING_DRW
100
AcDbLine
 10
2695.0
 20
275.0
 30
0.0
 11
2695.0
 21
230.0
 31
0.0
  0
LINE
  5
B0
330
1F
100
AcDbEntity
  8
MARKETING_DRW
100
AcDbLine
 10
2520.0
 20
230.0
 30
0.0
 11
2520.0
 21
185.0
 31
0.0
  0
CIRCLE
  5
B1
330
1F
100
AcDbEntity
  8
SINGLE_ARTICLE_DRW
 62
     7
100
AcDbCircle
 10
2837.5
 20
200.0
 30
0.0
 40
5.000000000000224
  0
CIRCLE
  5
B2
330
1F
100
AcDbEntity
  8
SINGLE_ARTICLE_DRW
 62
     7
100
AcDbCircle
 10
2837.5
 20
200.0
 30
0.0
 40
10.00000000000046
  0
CIRCLE
  5
B3
330
1F
100
AcDbEntity
  8
MARKETING_DRW
100
AcDbCircle
 10
2837.5
 20
200.0
 30
0.0
 40
4.99999999999979
  0
CIRCLE
  5
B4
330
1F
100
AcDbEntity
  8
MARKETING_DRW
100
AcDbCircle
 10
2837.5
 20
200.0
 30
0.0
 40
10.00000000000002
  0
MTEXT
  5
B6
330
1F
100
AcDbEntity
  8
SINGLE_ARTICLE_DRW
100
AcDbMText
 10
2025.0
 20
179.9766099061
 30
0.0
 40
9.0
 41
0.0
 71
     1
 72
     1
  1
title:
  7
SLDTEXTSTYLE0
 73
     1
 44
1.0
  0
MTEXT
  5
B7
330
1F
100
AcDbEntity
  8
SINGLE_ARTICLE_DRW
100
AcDbMText
 10
2025.0
 20
314.9766099061
 30
0.0
 40
9.0
 41
0.0
 71
     1
 72
     1
  1
technical reference:
  7
SLDTEXTSTYLE0
 73
     1
 44
1.0
  0
MTEXT
  5
B8
330
1F
100
AcDbEntity
  8
SINGLE_ARTICLE_DRW
100
AcDbMText
 10
2894.7829862405
 20
69.9675136777
 30
0.0
 40
12.5
 41
0.0
 71
     2
 72
     1
  1
1/1
  7
SLDTEXTSTYLE0
 73
     1
 44
1.0
  0
MTEXT
  5
B9
330
1F
100
AcDbEntity
  8
SINGLE_ARTICLE_DRW
100
AcDbMText
 10
2894.7829862405
 20
204.9675136777
 30
0.0
 40
12.5
 41
0.0
 71
     2
 72
     1
  1
1:5
  7
SLDTEXTSTYLE0
 73
     1
 44
1.0
  0
MTEXT
  5
BA
330
1F
100
AcDbEntity
  8
SINGLE_ARTICLE_DRW
100
AcDbMText
 10
2275.0
 20
314.9766099061
 30
0.0
 40
9.0
 41
0.0
 71
     1
 72
     1
  1
general tolerance:
  7
SLDTEXTSTYLE0
 73
     1
 44
1.0
  0
MTEXT
  5
BB
330
1F
100
AcDbEntity
  8
SINGLE_ARTICLE_DRW
100
AcDbMText
 10
2775.0
 20
249.9675136777
 30
0.0
 40
12.5
 41
0.0
 71
     1
 72
     1
  1
production drw.
  7
SLDTEXTSTYLE0
 73
     1
 44
1.0
  0
MTEXT
  5
BC
330
1F
100
AcDbEntity
  8
SINGLE_ARTICLE_DRW
100
AcDbMText
 10
2275.0
 20
269.9766099061
 30
0.0
 40
9.0
 41
0.0
 71
     1
 72
     1
  1
material:
  7
SLDTEXTSTYLE0
 73
     1
 44
1.0
  0
MTEXT
  5
BD
330
1F
100
AcDbEntity
  8
SINGLE_ARTICLE_DRW
100
AcDbMText
 10
2775.0
 20
224.9766099061
 30
0.0
 40
9.0
 41
0.0
 71
     1
 72
     1
  1
projection:ISO-E
  7
SLDTEXTSTYLE0
 73
     1
 44
1.0
  0
MTEXT
  5
BE
330
1F
100
AcDbEntity
  8
SINGLE_ARTICLE_DRW
100
AcDbMText
 10
2894.7500000913
 20
89.9766099061
 30
0.0
 40
9.0
 41
0.0
 71
     2
 72
     1
  1
sheet:
  7
SLDTEXTSTYLE0
 73
     1
 44
1.0
  0
MTEXT
  5
BF
330
1F
100
AcDbEntity
  8
SINGLE_ARTICLE_DRW
100
AcDbMText
 10
2725.0
 20
89.9766099061
 30
0.0
 40
9.0
 41
0.0
 71
     1
 72
     1
  1
release date:
  7
SLDTEXTSTYLE0
 73
     1
 44
1.0
  0
MTEXT
  5
C0
330
1F
100
AcDbEntity
  8
SINGLE_ARTICLE_DRW
100
AcDbMText
 10
2525.0
 20
224.9766099061
 30
0.0
 40
9.0
 41
0.0
 71
     1
 72
     1
  1
reviewed by:
  7
SLDTEXTSTYLE0
 73
     1
 44
1.0
  0
MTEXT
  5
C1
330
1F
100
AcDbEntity
  8
SINGLE_ARTICLE_DRW
100
AcDbMText
 10
2694.8125000894
 20
89.9766099061
 30
0.0
 40
9.0
 41
0.0
 71
     2
 72
     1
  1
index:
  7
SLDTEXTSTYLE0
 73
     1
 44
1.0
  0
MTEXT
  5
C2
330
1F
100
AcDbEntity
  8
SINGLE_ARTICLE_DRW
100
AcDbMText
 10
2775.0
 20
269.9766099061
 30
0.0
 40
9.0
 41
0.0
 71
     1
 72
     1
  1
documenttype:
  7
SLDTEXTSTYLE0
 73
     1
 44
1.0
  0
MTEXT
  5
C3
330
1F
100
AcDbEntity
  8
SINGLE_ARTICLE_DRW
100
AcDbMText
 10
2619.034373872
 20
89.9766099061
 30
0.0
 40
9.0
 41
0.0
 71
     2
 72
     1
  1
drawing-no.:
  7
SLDTEXTSTYLE0
 73
     1
 44
1.0
  0
MTEXT
  5
C4
330
1F
100
AcDbEntity
  8
SINGLE_ARTICLE_DRW
100
AcDbMText
 10
2775.0
 20
314.9766099061
 30
0.0
 40
9.0
 41
0.0
 71
     1
 72
     1
  1
weight:
  7
SLDTEXTSTYLE0
 73
     1
 44
1.0
  0
MTEXT
  5
C5
330
1F
100
AcDbEntity
  8
SINGLE_ARTICLE_DRW
100
AcDbMText
 10
2894.8750000875
 20
224.9766099061
 30
0.0
 40
9.0
 41
0.0
 71
     2
 72
     1
  1
scale:
  7
SLDTEXTSTYLE0
 73
     1
 44
1.0
  0
MTEXT
  5
C6
330
1F
100
AcDbEntity
  8
SINGLE_ARTICLE_DRW
100
AcDbMText
 10
2525.0
 20
314.9766099061
 30
0.0
 40
9.0
 41
0.0
 71
     1
 72
     1
  1
surface:
  7
SLDTEXTSTYLE0
 73
     1
 44
1.0
  0
MTEXT
  5
C7
330
1F
100
AcDbEntity
  8
SINGLE_ARTICLE_DRW
100
AcDbMText
 10
2275.0
 20
224.9766099061
 30
0.0
 40
9.0
 41
0.0
 71
     1
 72
     1
  1
created by:
  7
SLDTEXTSTYLE0
 73
     1
 44
1.0
  0
INSERT
  5
CE
330
1F
100
AcDbEntity
  8
SINGLE_ARTICLE_DRW
100
AcDbBlockReference
  2
SW_NOTE_0
 10
2025.0
 20
78.4000001475
 30
0.0
  0
MTEXT
  5
CF
330
1F
100
AcDbEntity
  8
SINGLE_ARTICLE_DRW
100
AcDbMText
 10
2025.0
 20
114.9675136777
 30
0.0
 40
12.5
 41
0.0
 71
     1
 72
     1
  1
ZB Duschrinne C mit Spalt und Flansch, mit Seitenauslaß, mit FAT GV50 L880, International
  7
SLDTEXTSTYLE0
 73
     1
 44
1.0
  0
MTEXT
  5
D0
330
1F
100
AcDbEntity
  8
SINGLE_ARTICLE_DRW
100
AcDbMText
 10
2025.0
 20
137.4675136777
 30
0.0
 40
12.5
 41
0.0
 71
     1
 72
     1
  1
ASM Shower Channel C with gap and flange, with Side outlet, with FAT GV50 L880, International
  7
SLDTEXTSTYLE0
 73
     1
 44
1.0
  0
MTEXT
  5
D1
330
1F
100
AcDbEntity
  8
SINGLE_ARTICLE_DRW
100
AcDbMText
 10
2025.0
 20
295.0022357116
 30
0.0
 40
12.5
 41
0.0
 71
     1
 72
     1
  1
Tittmar, Alexander
  7
SLDTEXTSTYLE0
 73
     1
 44
1.0
  0
MTEXT
  5
D2
330
1F
100
AcDbEntity
  8
SINGLE_ARTICLE_DRW
100
AcDbMText
 10
2619.0407964215
 20
69.9675136777
 30
0.0
 40
12.5
 41
0.0
 71
     2
 72
     1
  1
1077051-O
  7
SLDTEXTSTYLE0
 73
     1
 44
1.0
  0
MTEXT
  5
D3
330
1F
100
AcDbEntity
  8
SINGLE_ARTICLE_DRW
100
AcDbMText
 10
2694.7395830229
 20
69.9675136777
 30
0.0
 40
12.5
 41
0.0
 71
     2
 72
     1
  1
001
  7
SLDTEXTSTYLE0
 73
     1
 44
1.0
  0
MTEXT
  5
D4
330
1F
100
AcDbEntity
  8
SINGLE_ARTICLE_DRW
100
AcDbMText
 10
2025.0
 20
159.9675136777
 30
0.0
 40
12.5
 41
0.0
 71
     1
 72
     1
  1
ACO ShowerDrain
  7
SLDTEXTSTYLE0
 73
     1
 44
1.0
  0
MTEXT
  5
D5
330
1F
100
AcDbEntity
  8
SINGLE_ARTICLE_DRW
100
AcDbMText
 10
2025.0
 20
334.9766099061
 30
0.0
 40
9.0
 41
0.0
 71
     1
 72
     1
  1
modification:
  7
SLDTEXTSTYLE0
 73
     1
 44
1.0
  0
MTEXT
  5
D6
330
1F
100
AcDbEntity
  8
SINGLE_ARTICLE_DRW
100
AcDbMText
 10
2775.0
 20
294.9675136777
 30
0.0
 40
12.5
 41
0.0
 71
     1
 72
     1
  1
1.980 kg
  7
SLDTEXTSTYLE0
 73
     1
 44
1.0
  0
MTEXT
  5
D7
330
1F
100
AcDbEntity
  8
MARKETING_DRW
100
AcDbMText
 10
2025.0
 20
114.9675136777
 30
0.0
 40
12.5
 41
0.0
 71
     1
 72
     1
  1
ZB Duschrinne C mit Spalt und Flansch, mit Seitenauslaß, mit FAT GV50 L880, International
  7
SLDTEXTSTYLE0
 73
     1
 44
1.0
  0
MTEXT
  5
D8
330
1F
100
AcDbEntity
  8
MARKETING_DRW
100
AcDbMText
 10
2025.0
 20
137.4675136777
 30
0.0
 40
12.5
 41
0.0
 71
     1
 72
     1
  1
ASM Shower Channel C with gap and flange, with Side outlet, with FAT GV50 L880, International
  7
SLDTEXTSTYLE0
 73
     1
 44
1.0
  0
MTEXT
  5
D9
330
1F
100
AcDbEntity
  8
MARKETING_DRW
100
AcDbMText
 10
2606.5407964215
 20
249.9675136777
 30
0.0
 40
12.5
 41
0.0
 71
     2
 72
     1
  1
1077051-O
  7
SLDTEXTSTYLE0
 73
     1
 44
1.0
  0
MTEXT
  5
DA
330
1F
100
AcDbEntity
  8
MARKETING_DRW
100
AcDbMText
 10
2732.2395830229
 20
252.0971433073
 30
0.0
 40
12.5
 41
0.0
 71
     2
 72
     1
  1
001
  7
SLDTEXTSTYLE0
 73
     1
 44
1.0
  0
MTEXT
  5
DB
330
1F
100
AcDbEntity
  8
MARKETING_DRW
100
AcDbMText
 10
2025.0
 20
159.9675136777
 30
0.0
 40
12.5
 41
0.0
 71
     1
 72
     1
  1
ACO ShowerDrain
  7
SLDTEXTSTYLE0
 73
     1
 44
1.0
  0
MTEXT
  5
DC
330
1F
100
AcDbEntity
  8
MARKETING_DRW
100
AcDbMText
 10
2775.0
 20
269.9766099061
 30
0.0
 40
9.0
 41
0.0
 71
     1
 72
     1
  1
documenttype:
  7
SLDTEXTSTYLE0
 73
     1
 44
1.0
  0
MTEXT
  5
DD
330
1F
100
AcDbEntity
  8
MARKETING_DRW
100
AcDbMText
 10
2275.0
 20
224.9766099061
 30
0.0
 40
9.0
 41
0.0
 71
     1
 72
     1
  1
created by:
  7
SLDTEXTSTYLE0
 73
     1
 44
1.0
  0
MTEXT
  5
DE
330
1F
100
AcDbEntity
  8
MARKETING_DRW
100
AcDbMText
 10
2606.534373872
 20
270.0578764559
 30
0.0
 40
9.0
 41
0.0
 71
     2
 72
     1
  1
drawing-no.:
  7
SLDTEXTSTYLE0
 73
     1
 44
1.0
  0
MTEXT
  5
DF
330
1F
100
AcDbEntity
  8
MARKETING_DRW
100
AcDbMText
 10
2525.0
 20
224.9766099061
 30
0.0
 40
9.0
 41
0.0
 71
     1
 72
     1
  1
reviewed by:
  7
SLDTEXTSTYLE0
 73
     1
 44
1.0
  0
MTEXT
  5
E0
330
1F
100
AcDbEntity
  8
MARKETING_DRW
100
AcDbMText
 10
2775.0
 20
224.9766099061
 30
0.0
 40
9.0
 41
0.0
 71
     1
 72
     1
  1
projection:ISO-E
  7
SLDTEXTSTYLE0
 73
     1
 44
1.0
  0
MTEXT
  5
E1
330
1F
100
AcDbEntity
  8
MARKETING_DRW
100
AcDbMText
 10
2894.7500000913
 20
89.9766099061
 30
0.0
 40
9.0
 41
0.0
 71
     2
 72
     1
  1
sheet:
  7
SLDTEXTSTYLE0
 73
     1
 44
1.0
  0
MTEXT
  5
E2
330
1F
100
AcDbEntity
  8
MARKETING_DRW
100
AcDbMText
 10
2894.7829862405
 20
69.9675136777
 30
0.0
 40
12.5
 41
0.0
 71
     2
 72
     1
  1
1/1
  7
SLDTEXTSTYLE0
 73
     1
 44
1.0
  0
MTEXT
  5
E3
330
1F
100
AcDbEntity
  8
MARKETING_DRW
100
AcDbMText
 10
2725.0
 20
89.9766099061
 30
0.0
 40
9.0
 41
0.0
 71
     1
 72
     1
  1
release date:
  7
SLDTEXTSTYLE0
 73
     1
 44
1.0
  0
MTEXT
  5
E4
330
1F
100
AcDbEntity
  8
MARKETING_DRW
100
AcDbMText
 10
2732.3125000894
 20
269.9766099061
 30
0.0
 40
9.0
 41
0.0
 71
     2
 72
     1
  1
index:
  7
SLDTEXTSTYLE0
 73
     1
 44
1.0
  0
MTEXT
  5
E5
330
1F
100
AcDbEntity
  8
MARKETING_DRW
100
AcDbMText
 10
2025.0
 20
179.9766099061
 30
0.0
 40
9.0
 41
0.0
 71
     1
 72
     1
  1
title:
  7
SLDTEXTSTYLE0
 73
     1
 44
1.0
  0
MTEXT
  5
E6
330
1F
100
AcDbEntity
  8
MARKETING_DRW
100
AcDbMText
 10
2894.8750000875
 20
224.9766099061
 30
0.0
 40
9.0
 41
0.0
 71
     2
 72
     1
  1
scale:
  7
SLDTEXTSTYLE0
 73
     1
 44
1.0
  0
MTEXT
  5
E7
330
1F
100
AcDbEntity
  8
MARKETING_DRW
100
AcDbMText
 10
2894.7829862405
 20
204.9675136777
 30
0.0
 40
12.5
 41
0.0
 71
     2
 72
     1
  1
1:5
  7
SLDTEXTSTYLE0
 73
     1
 44
1.0
  0
INSERT
  5
EE
330
1F
100
AcDbEntity
  8
MARKETING_DRW
100
AcDbBlockReference
  2
SW_NOTE_0_1
 10
2025.0
 20
78.3750002482
 30
0.0
  0
MTEXT
  5
EF
330
1F
100
AcDbEntity
  8
MARKETING_DRW
100
AcDbMText
 10
2775.0
 20
249.9675136777
 30
0.0
 40
12.5
 41
0.0
 71
     1
 72
     1
  1
marketing drw.
  7
SLDTEXTSTYLE0
 73
     1
 44
1.0
  0
LINE
  5
F0
330
1F
100
AcDbEntity
  8
0
  6
Continuous
 62
     7
370
    35
100
AcDbLine
 10
1732.7771318544
 20
1464.845687289
 30
0.0
 11
852.7771318544
 21
1464.845687289
 31
0.0
  0
LINE
  5
F1
330
1F
100
AcDbEntity
  8
0
  6
Continuous
 62
     7
370
    35
100
AcDbLine
 10
1211.7771318544
 20
1444.8605122774
 30
0.0
 11
1211.7771318544
 21
1441.8492487898
 31
0.0
  0
LINE
  5
F2
330
1F
100
AcDbEntity
  8
0
  6
Continuous
 62
     7
370
    35
100
AcDbLine
 10
1373.7771318544
 20
1441.8492487898
 30
0.0
 11
1373.7771318544
 21
1444.8605122774
 31
0.0
  0
ARC
  5
F3
330
1F
100
AcDbEntity
  8
0
  6
Continuous
 62
     7
370
    35
100
AcDbCircle
 10
1209.7771318544
 20
1444.8524706301
 30
0.0
 40
1.999999999999966
100
AcDbArc
 50
0.2172817996
 51
85.9305858724
  0
ARC
  5
F4
330
1F
100
AcDbEntity
  8
0
  6
Continuous
 62
     7
370
    35
100
AcDbCircle
 10
1375.7771318544
 20
1444.8524706301
 30
0.0
 40
1.999999999999998
100
AcDbArc
 50
94.065898605
 51
179.7696267909
  0
LINE
  5
F5
330
1F
100
AcDbEntity
  8
0
  6
Continuous
 62
     7
370
    35
100
AcDbLine
 10
1375.6362699108
 20
1446.8472982093
 30
0.0
 11
1732.7771318544
 21
1446.8472982093
 31
0.0
  0
LINE
  5
F6
330
1F
100
AcDbEntity
  8
0
  6
Continuous
 62
     7
370
    35
100
AcDbLine
 10
852.7771318544
 20
1446.8472982093
 30
0.0
 11
1209.9179937979
 21
1446.8472982093
 31
0.0
  0
LINE
  5
F7
330
1F
100
AcDbEntity
  8
0
  6
Continuous
 62
     7
370
    35
100
AcDbLine
 10
1384.2771318544
 20
1371.3492487894
 30
0.0
 11
1427.4655302001
 21
1371.3492487894
 31
0.0
  0
LINE
  5
F8
330
1F
100
AcDbEntity
  8
0
  6
Continuous
 62
     7
370
    35
100
AcDbLine
 10
1427.4655302001
 20
1421.4492487894
 30
0.0
 11
1384.2771318544
 21
1421.4492487894
 31
0.0
  0
ARC
  5
F9
330
1F
100
AcDbEntity
  8
0
  6
Continuous
 62
     7
370
    35
100
AcDbCircle
 10
1427.4655302001
 20
1418.4492487894
 30
0.0
 40
3.000000000000227
100
AcDbArc
 50
78.1402208791
 51
90.0
  0
ARC
  5
FA
330
1F
100
AcDbEntity
  8
0
  6
Continuous
 62
     7
370
    35
100
AcDbCircle
 10
1427.4655302001
 20
1374.3492487894
 30
0.0
 40
3.0
100
AcDbArc
 50
270.0
 51
281.8597791209
  0
LINE
  5
FB
330
1F
100
AcDbEntity
  8
0
  6
Continuous
 62
     7
370
    35
100
AcDbLine
 10
1428.0820819029
 20
1371.4132882996
 30
0.0
 11
1432.7771318544
 21
1372.3992487894
 31
0.0
  0
LINE
  5
FC
330
1F
100
AcDbEntity
  8
0
  6
Continuous
 62
     7
370
    35
100
AcDbLine
 10
1432.7771318544
 20
1420.3992487894
 30
0.0
 11
1428.0820819029
 21
1421.3852092792
 31
0.0
  0
LINE
  5
FD
330
1F
100
AcDbEntity
  8
0
  6
Continuous
 62
     7
370
    35
100
AcDbLine
 10
1384.2771318544
 20
1421.3992487894
 30
0.0
 11
1382.6749662809
 21
1421.3992487894
 31
0.0
  0
LINE
  5
FE
330
1F
100
AcDbEntity
  8
0
  6
Continuous
 62
     7
370
    35
100
AcDbLine
 10
1365.7771318543
 20
1371.3992487894
 30
0.0
 11
1384.2771318544
 21
1371.3992487894
 31
0.0
  0
LINE
  5
FF
330
1F
100
AcDbEntity
  8
0
  6
Continuous
 62
     7
370
    35
100
AcDbLine
 10
1361.8239142614
 20
1371.3992487894
 30
0.0
 11
1365.7771318544
 21
1371.3992487894
 31
0.0
  0
LINE
  5
100
330
1F
100
AcDbEntity
  8
0
  6
Continuous
 62
     7
370
    35
100
AcDbLine
 10
852.7771318544
 20
1452.845687289
 30
0.0
 11
852.7771318544
 21
1451.845687289
 31
0.0
  0
LINE
  5
101
330
1F
100
AcDbEntity
  8
0
  6
Continuous
 62
     7
370
    35
100
AcDbLine
 10
1732.7771318544
 20
1452.845687289
 30
0.0
 11
852.7771318544
 21
1452.845687289
 31
0.0
  0
LINE
  5
102
330
1F
100
AcDbEntity
  8
0
  6
Continuous
 62
     7
370
    35
100
AcDbLine
 10
1732.7771318544
 20
1452.845687289
 30
0.0
 11
1732.7771318544
 21
1451.845687289
 31
0.0
  0
LINE
  5
103
330
1F
100
AcDbEntity
  8
0
  6
Continuous
 62
     7
370
    35
100
AcDbLine
 10
1732.7771318544
 20
1451.845687289
 30
0.0
 11
852.7771318544
 21
1451.845687289
 31
0.0
  0
LINE
  5
104
330
1F
100
AcDbEntity
  8
0
  6
Continuous
 62
     7
370
    35
100
AcDbLine
 10
1732.7771318544
 20
1452.845687289
 30
0.0
 11
1732.7771318544
 21
1453.845687289
 31
0.0
  0
LINE
  5
105
330
1F
100
AcDbEntity
  8
0
  6
Continuous
 62
     7
370
    35
100
AcDbLine
 10
852.7771318544
 20
1453.845687289
 30
0.0
 11
852.7771318544
 21
1452.845687289
 31
0.0
  0
LINE
  5
106
330
1F
100
AcDbEntity
  8
0
  6
Continuous
 62
     7
370
    35
100
AcDbLine
 10
852.7771318544
 20
1453.845687289
 30
0.0
 11
852.7771318544
 21
1463.345687289
 31
0.0
  0
LINE
  5
107
330
1F
100
AcDbEntity
  8
0
  6
Continuous
 62
     7
370
    35
100
AcDbLine
 10
1732.7771318544
 20
1463.345687289
 30
0.0
 11
1732.7771318544
 21
1453.845687289
 31
0.0
  0
LINE
  5
108
330
1F
100
AcDbEntity
  8
0
  6
Continuous
 62
     7
370
    35
100
AcDbLine
 10
852.7771318544
 20
1463.845687289
 30
0.0
 11
852.7771318544
 21
1464.845687289
 31
0.0
  0
LINE
  5
109
330
1F
100
AcDbEntity
  8
0
  6
Continuous
 62
     7
370
    35
100
AcDbLine
 10
1732.7771318544
 20
1464.845687289
 30
0.0
 11
1732.7771318544
 21
1463.845687289
 31
0.0
  0
LINE
  5
10A
330
1F
100
AcDbEntity
  8
0
  6
Continuous
 62
     7
370
    35
100
AcDbLine
 10
852.7771318544
 20
1450.6076057783
 30
0.0
 11
852.7771318544
 21
1451.845687289
 31
0.0
  0
LINE
  5
10B
330
1F
100
AcDbEntity
  8
0
  6
Continuous
 62
     7
370
    35
100
AcDbLine
 10
1732.7771318544
 20
1450.6076057783
 30
0.0
 11
1732.7771318544
 21
1451.845687289
 31
0.0
  0
LINE
  5
10C
330
1F
100
AcDbEntity
  8
0
  6
Continuous
 62
     7
370
    35
100
AcDbLine
 10
852.7771318544
 20
1450.6076057783
 30
0.0
 11
852.7771318544
 21
1449.9116352329
 31
0.0
  0
LINE
  5
10D
330
1F
100
AcDbEntity
  8
0
  6
Continuous
 62
     7
370
    35
100
AcDbLine
 10
1732.7771318544
 20
1449.9116352329
 30
0.0
 11
1732.7771318544
 21
1450.6076057783
 31
0.0
  0
SPLINE
  5
10E
330
1F
100
AcDbEntity
  8
0
  6
Continuous
 62
     7
370
    35
100
AcDbSpline
210
0.0
220
0.0
230
1.0
 70
     8
 71
     3
 72
     8
 73
     4
 74
     0
 42
0.000000001
 43
0.00000001
 40
0.0000000000000255
 40
0.0000000000000255
 40
0.0000000000000255
 40
0.0000000000000255
 40
0.0000564308016788
 40
0.0000564308016788
 40
0.0000564308016788
 40
0.0000564308016788
 10
1375.648594633733
 20
1446.850514868187
 30
0.0
 10
1375.653757037545
 20
1446.851540327322
 30
0.0
 10
1375.656767805442
 20
1446.852615451586
 30
0.0
 10
1375.656590356858
 20
1446.853681810618
 30
0.0
  0
SPLINE
  5
10F
330
1F
100
AcDbEntity
  8
0
  6
Continuous
 62
     7
370
    35
100
AcDbSpline
210
0.0
220
0.0
230
1.0
 70
     8
 71
     3
 72
    14
 73
    10
 74
     0
 42
0.000000001
 43
0.00000001
 40
0.0
 40
0.0
 40
0.0
 40
0.0
 40
0.25
 40
0.25
 40
0.5
 40
0.5
 40
0.75
 40
0.75
 40
1.0
 40
1.0
 40
1.0
 40
1.0
 10
1375.656590356987
 20
1446.853681810618
 30
0.0
 10
1375.625217709108
 20
1447.042212514351
 30
0.0
 10
1375.036278796868
 20
1447.230207859257
 30
0.0
 10
1372.804558232291
 20
1447.585411183843
 30
0.0
 10
1371.164313112607
 20
1447.752195431164
 30
0.0
 10
1367.006895355524
 20
1448.046499171564
 30
0.0
 10
1364.49413398968
 20
1448.17369394909
 30
0.0
 10
1358.866321452153
 20
1448.374592502964
 30
0.0
 10
1355.757114990024
 20
1448.448087294021
 30
0.0
 10
1352.517463417073
 20
1448.490682172226
 30
0.0
  0
SPLINE
  5
110
330
1F
100
AcDbEntity
  8
0
  6
Continuous
 62
     7
370
    35
100
AcDbSpline
210
0.0
220
0.0
230
1.0
 70
     8
 71
     3
 72
    14
 73
    10
 74
     0
 42
0.000000001
 43
0.00000001
 40
0.0
 40
0.0
 40
0.0
 40
0.0
 40
0.125
 40
0.125
 40
0.2500000000000001
 40
0.2500000000000001
 40
0.5
 40
0.5
 40
1.0
 40
1.0
 40
1.0
 40
1.0
 10
1352.517463417046
 20
1448.490682172219
 30
0.0
 10
1352.2414169766
 20
1448.494311625648
 30
0.0
 10
1351.962122382704
 20
1448.496196581509
 30
0.0
 10
1351.402227342885
 20
1448.499265154521
 30
0.0
 10
1351.12152781939
 20
1448.500395559728
 30
0.0
 10
1350.278766001784
 20
1448.503430562809
 30
0.0
 10
1349.716228896772
 20
1448.504910581744
 30
0.0
 10
1348.028784866657
 20
1448.508501526054
 30
0.0
 10
1346.903230991923
 20
1448.509650136217
 30
0.0
 10
1345.777131854367
 20
1448.509650136217
 30
0.0
  0
LINE
  5
111
330
1F
100
AcDbEntity
  8
0
  6
Continuous
 62
     7
370
    35
100
AcDbLine
 10
1345.7771318544
 20
1448.5096501362
 30
0.0
 11
1239.7771318544
 21
1448.5096501362
 31
0.0
  0
SPLINE
  5
112
330
1F
100
AcDbEntity
  8
0
  6
Continuous
 62
     7
370
    35
100
AcDbSpline
210
0.0
220
0.0
230
1.0
 70
     8
 71
     3
 72
    14
 73
    10
 74
     0
 42
0.000000001
 43
0.00000001
 40
0.0
 40
0.0
 40
0.0
 40
0.0
 40
0.5000000000000031
 40
0.5000000000000031
 40
0.7500000000000031
 40
0.7500000000000031
 40
0.8750000000000016
 40
0.8750000000000016
 40
1.0
 40
1.0
 40
1.0
 40
1.0
 10
1239.777131854367
 20
1448.509650136217
 30
0.0
 10
1238.65122931807
 20
1448.509650136217
 30
0.0
 10
1237.525773895407
 20
1448.508501933056
 30
0.0
 10
1235.838318295655
 20
1448.504911295406
 30
0.0
 10
1235.275860939622
 20
1448.503431400367
 30
0.0
 10
1234.433513024142
 20
1448.500398593259
 30
0.0
 10
1234.152900550857
 20
1448.499269033453
 30
0.0
 10
1233.592835637158
 20
1448.496201241726
 30
0.0
 10
1233.312262521425
 20
1448.494303944457
 30
0.0
 10
1233.036800291688
 20
1448.490682172219
 30
0.0
  0
SPLINE
  5
113
330
1F
100
AcDbEntity
  8
0
  6
Continuous
 62
     7
370
    35
100
AcDbSpline
210
0.0
220
0.0
230
1.0
 70
     8
 71
     3
 72
    14
 73
    10
 74
     0
 42
0.000000001
 43
0.00000001
 40
0.0
 40
0.0
 40
0.0
 40
0.0
 40
0.25
 40
0.25
 40
0.5
 40
0.5
 40
0.75
 40
0.75
 40
1.0
 40
1.0
 40
1.0
 40
1.0
 10
1233.036800291661
 20
1448.490682172226
 30
0.0
 10
1229.797148622564
 20
1448.448087292757
 30
0.0
 10
1226.688272610438
 20
1448.37460323452
 30
0.0
 10
1221.060040189545
 20
1448.173691814304
 30
0.0
 10
1218.54747004286
 20
1448.046504927077
 30
0.0
 10
1214.390027894937
 20
1447.752202346188
 30
0.0
 10
1212.749688202627
 20
1447.585405779039
 30
0.0
 10
1210.518097219061
 20
1447.230228389574
 30
0.0
 10
1209.929046000355
 20
1447.042212518737
 30
0.0
 10
1209.897673351747
 20
1446.853681810618
 30
0.0
  0
SPLINE
  5
114
330
1F
100
AcDbEntity
  8
0
  6
Continuous
 62
     7
370
    35
100
AcDbSpline
210
0.0
220
0.0
230
1.0
 70
     8
 71
     3
 72
     8
 73
     4
 74
     0
 42
0.000000001
 43
0.00000001
 40
0.0000000000000194
 40
0.0000000000000194
 40
0.0000000000000194
 40
0.0000000000000194
 40
0.0000564308016788
 40
0.0000564308016788
 40
0.0000564308016788
 40
0.0000564308016788
 10
1209.897673351877
 20
1446.853681810618
 30
0.0
 10
1209.897495903293
 20
1446.852615451586
 30
0.0
 10
1209.900506671189
 20
1446.851540327322
 30
0.0
 10
1209.905669075002
 20
1446.850514868187
 30
0.0
  0
LINE
  5
115
330
1F
100
AcDbEntity
  8
0
  6
Continuous
 62
     7
370
    35
100
AcDbLine
 10
1211.7771318544
 20
1441.8492487895
 30
0.0
 11
1239.7771318544
 21
1441.8492487895
 31
0.0
  0
LINE
  5
116
330
1F
100
AcDbEntity
  8
0
  6
Continuous
 62
     7
370
    35
100
AcDbLine
 10
1239.7771318544
 20
1441.8492487895
 30
0.0
 11
1345.7771318544
 21
1441.8492487895
 31
0.0
  0
LINE
  5
117
330
1F
100
AcDbEntity
  8
0
  6
Continuous
 62
     7
370
    35
100
AcDbLine
 10
1345.7771318544
 20
1441.8492487895
 30
0.0
 11
1366.9312882037
 21
1441.8492487895
 31
0.0
  0
LINE
  5
118
330
1F
100
AcDbEntity
  8
0
  6
Continuous
 62
     7
370
    35
100
AcDbLine
 10
1367.5663381212
 20
1441.8492487895
 30
0.0
 11
1373.7771318544
 21
1441.8492487895
 31
0.0
  0
SPLINE
  5
119
330
1F
100
AcDbEntity
  8
0
  6
Continuous
 62
     7
370
    35
100
AcDbSpline
210
0.0
220
0.0
230
1.0
 70
    24
 71
     3
 72
     9
 73
     5
 74
     0
 42
0.000000001
 43
0.00000001
 40
0.0
 40
0.0
 40
0.0
 40
0.0
 40
0.1857572773134752
 40
0.9999999999999999
 40
0.9999999999999999
 40
0.9999999999999999
 40
0.9999999999999999
 10
1209.918062586271
 20
1446.847899191896
 30
0.0
 10
1209.919000238665
 20
1446.847701298411
 30
0.0
 10
1209.924047967657
 20
1446.846635964725
 30
0.0
 10
1209.913917629293
 20
1446.848773993674
 30
0.0
 10
1209.905669075002
 20
1446.850514868187
 30
0.0
  0
LINE
  5
11A
330
1F
100
AcDbEntity
  8
0
  6
Continuous
 62
     7
370
    35
100
AcDbLine
 10
1375.6485946337
 20
1446.8505148682
 30
0.0
 11
1375.636182947
 21
1446.8478953559
 31
0.0
  0
LINE
  5
11B
330
1F
100
AcDbEntity
  8
0
  6
Continuous
 62
     7
370
    35
100
AcDbLine
 10
1239.7771318544
 20
1444.8992487894
 30
0.0
 11
1211.9771318544
 21
1444.8992487894
 31
0.0
  0
LINE
  5
11C
330
1F
100
AcDbEntity
  8
0
  6
Continuous
 62
     7
370
    35
100
AcDbLine
 10
1345.7771318544
 20
1444.8992487894
 30
0.0
 11
1373.5771318544
 21
1444.8992487894
 31
0.0
  0
LINE
  5
11D
330
1F
100
AcDbEntity
  8
0
  6
Continuous
 62
     7
370
    35
100
AcDbLine
 10
1384.2771318544
 20
1396.3992487894
 30
0.0
 11
1384.2771318544
 21
1421.4492487894
 31
0.0
  0
LINE
  5
11E
330
1F
100
AcDbEntity
  8
0
  6
Continuous
 62
     7
370
    35
100
AcDbLine
 10
1384.2771318544
 20
1371.3492487894
 30
0.0
 11
1384.2771318544
 21
1396.3992487894
 31
0.0
  0
LINE
  5
11F
330
1F
100
AcDbEntity
  8
0
  6
Continuous
 62
     7
370
    35
100
AcDbLine
 10
1432.7771318544
 20
1396.3992487894
 30
0.0
 11
1432.7771318544
 21
1420.3992487894
 31
0.0
  0
LINE
  5
120
330
1F
100
AcDbEntity
  8
0
  6
Continuous
 62
     7
370
    35
100
AcDbLine
 10
1432.7771318544
 20
1372.3992487894
 30
0.0
 11
1432.7771318544
 21
1396.3992487894
 31
0.0
  0
ARC
  5
121
330
1F
100
AcDbEntity
  8
0
  6
Continuous
 62
     7
370
    35
100
AcDbCircle
 10
1292.7771318544
 20
1396.4492487894
 30
0.0
 40
25.0499999999999
100
AcDbArc
 50
237.7865374201
 51
302.2134625799
  0
SPLINE
  5
122
330
1F
100
AcDbEntity
  8
0
  6
Continuous
 62
     7
370
    35
100
AcDbSpline
210
0.0
220
0.0
230
1.0
 70
    24
 71
     3
 72
    10
 73
     6
 74
     0
 42
0.000000001
 43
0.00000001
 40
0.0
 40
0.0
 40
0.0
 40
0.0
 40
0.2125176675663204
 40
0.6062581077228346
 40
1.0
 40
1.0
 40
1.0
 40
1.0
 10
1292.777131854369
 20
1421.761255316385
 30
0.0
 10
1292.777131854368
 20
1421.844538825099
 30
0.0
 10
1292.777131854366
 20
1422.082125200741
 30
0.0
 10
1292.777131854369
 20
1422.693589765152
 30
0.0
 10
1292.777131854368
 20
1423.3184896035
 30
0.0
 10
1292.777131854367
 20
1423.630940098833
 30
0.0
  0
SPLINE
  5
123
330
1F
100
AcDbEntity
  8
0
  6
Continuous
 62
     7
370
    35
100
AcDbSpline
210
0.0
220
0.0
230
1.0
 70
    24
 71
     3
 72
    18
 73
    14
 74
     0
 42
0.000000001
 43
0.00000001
 40
0.0
 40
0.0
 40
0.0
 40
0.0
 40
0.1056000872447508
 40
0.3249463313005456
 40
0.5456095245813403
 40
0.6686132746948423
 40
0.7011918426142503
 40
0.7339487647370312
 40
0.7672437697818077
 40
0.8035947759165872
 40
0.8401179485066325
 40
0.8975115054529718
 40
1.0
 40
1.0
 40
1.0
 40
1.0
 10
1292.777131854367
 20
1423.630940098832
 30
0.0
 10
1292.777131854367
 20
1424.307148707962
 30
0.0
 10
1292.777131854367
 20
1426.387937772287
 30
0.0
 10
1292.777131854367
 20
1429.819927815814
 30
0.0
 10
1292.777131854367
 20
1433.466092251776
 30
0.0
 10
1292.777131854367
 20
1435.610253998199
 30
0.0
 10
1292.777131854367
 20
1436.392362727983
 30
0.0
 10
1292.777131854367
 20
1436.673981729256
 30
0.0
 10
1292.777131854367
 20
1437.158191331961
 30
0.0
 10
1292.777131854367
 20
1437.918341259014
 30
0.0
 10
1292.777131854367
 20
1438.77465011564
 30
0.0
 10
1292.777131854367
 20
1440.09624349944
 30
0.0
 10
1292.777131854367
 20
1441.164481098019
 30
0.0
 10
1292.777131854367
 20
1441.849248789417
 30
0.0
  0
SPLINE
  5
124
330
1F
100
AcDbEntity
  8
0
  6
Continuous
 62
     7
370
    35
100
AcDbSpline
210
0.0
220
0.0
230
1.0
 70
    24
 71
     3
 72
    19
 73
    15
 74
     0
 42
0.000000001
 43
0.00000001
 40
0.0
 40
0.0
 40
0.0
 40
0.0
 40
0.2409130132110047
 40
0.4882582803106248
 40
0.5391715029117174
 40
0.5899404478678678
 40
0.6400693120936225
 40
0.6899887491764568
 40
0.7400419496428569
 40
0.7904190820051351
 40
0.8413201884464373
 40
0.8929676784851881
 40
0.9456873805534199
 40
1.0
 40
1.0
 40
1.0
 40
1.0
 10
1292.777131854367
 20
1441.849248789417
 30
0.0
 10
1300.623174952649
 20
1441.849248789417
 30
0.0
 10
1316.524746475706
 20
1441.849248789417
 30
0.0
 10
1334.090171061006
 20
1441.849248789417
 30
0.0
 10
1345.452057864009
 20
1441.849248789417
 30
0.0
 10
1350.407830458253
 20
1441.849248789416
 30
0.0
 10
1355.192191221663
 20
1441.849248789416
 30
0.0
 10
1359.675769165794
 20
1441.849248789417
 30
0.0
 10
1363.754019456371
 20
1441.849248789417
 30
0.0
 10
1367.327271397867
 20
1441.849248789417
 30
0.0
 10
1370.293677142687
 20
1441.849248789417
 30
0.0
 10
1372.523703362051
 20
1441.849248789417
 30
0.0
 10
1373.997013459074
 20
1441.849248789417
 30
0.0
 10
1374.182837210154
 20
1441.849248789417
 30
0.0
 10
1374.277131854367
 20
1441.849248789417
 30
0.0
  0
SPLINE
  5
125
330
1F
100
AcDbEntity
  8
0
  6
Continuous
 62
     7
370
    35
100
AcDbSpline
210
0.0
220
0.0
230
1.0
 70
     8
 71
     3
 72
    16
 73
    12
 74
     0
 42
0.000000001
 43
0.00000001
 40
0.0
 40
0.0
 40
0.0
 40
0.0
 40
0.1465768179208892
 40
0.2110706177997897
 40
0.2609182759381881
 40
0.301662719675315
 40
0.3460236197864481
 40
0.4164469026261889
 40
0.5419712682998772
 40
0.7688489389603064
 40
1.0
 40
1.0
 40
1.0
 40
1.0
 10
1374.277131854367
 20
1441.849248789417
 30
0.0
 10
1374.270462008838
 20
1440.97019646081
 30
0.0
 10
1374.260857431276
 20
1439.704361107654
 30
0.0
 10
1374.300275293809
 20
1438.187301523432
 30
0.0
 10
1374.215605521433
 20
1437.185004668456
 30
0.0
 10
1374.895012543235
 20
1436.637989513438
 30
0.0
 10
1375.702975740369
 20
1436.218663129898
 30
0.0
 10
1376.773743545438
 20
1435.219193448665
 30
0.0
 10
1377.942870802888
 20
1432.93902471012
 30
0.0
 10
1378.545683803552
 20
1429.495799903321
 30
0.0
 10
1379.158904859729
 20
1426.840801494109
 30
0.0
 10
1379.468376052204
 20
1425.500916773188
 30
0.0
  0
SPLINE
  5
126
330
1F
100
AcDbEntity
  8
0
  6
Continuous
 62
     7
370
    35
100
AcDbSpline
210
0.0
220
0.0
230
1.0
 70
     8
 71
     3
 72
    25
 73
    21
 74
     0
 42
0.000000001
 43
0.00000001
 40
0.0
 40
0.0
 40
0.0
 40
0.0
 40
0.0403772850825327
 40
0.0581432905171142
 40
0.0718747463632702
 40
0.0830985540815625
 40
0.0953185813390222
 40
0.1147179721021833
 40
0.1492959713349548
 40
0.2292797835274531
 40
0.3102091618275117
 40
0.3726852819818989
 40
0.4313870265629148
 40
0.4804590282852343
 40
0.5235520429457714
 40
0.5708166295125219
 40
0.6751808706738784
 40
0.7818081507417537
 40
0.8902538127997789
 40
1.0
 40
1.0
 40
1.0
 40
1.0
 10
1211.277131854367
 20
1441.849248789417
 30
0.0
 10
1211.283802859897
 20
1440.970196113843
 30
0.0
 10
1211.29340910786
 20
1439.704360261056
 30
0.0
 10
1211.253984389883
 20
1438.187302727357
 30
0.0
 10
1211.338668887787
 20
1437.185001467849
 30
0.0
 10
1210.659217778455
 20
1436.637999499789
 30
0.0
 10
1209.851460552254
 20
1436.218611508577
 30
0.0
 10
1208.779075705065
 20
1435.219625498504
 30
0.0
 10
1207.451786785865
 20
1432.591947593109
 30
0.0
 10
1206.777568322104
 20
1428.388296308745
 30
0.0
 10
1205.678567146799
 20
1423.692759883584
 30
0.0
 10
1204.940042399197
 20
1419.383485307614
 30
0.0
 10
1204.378262304693
 20
1415.746621011658
 30
0.0
 10
1203.995721162379
 20
1412.506418742723
 30
0.0
 10
1203.803587760159
 20
1409.497180827958
 30
0.0
 10
1203.733004042986
 20
1405.2872588219
 30
0.0
 10
1204.089142467332
 20
1399.702027064172
 30
0.0
 10
1205.313865749771
 20
1392.895010676454
 30
0.0
 10
1207.289493718868
 20
1386.132078131724
 30
0.0
 10
1209.264156495628
 20
1381.842718448129
 30
0.0
 10
1210.257372839374
 20
1379.68525531463
 30
0.0
  0
SPLINE
  5
127
330
1F
100
AcDbEntity
  8
0
  6
Continuous
 62
     7
370
    35
100
AcDbSpline
210
0.0
220
0.0
230
1.0
 70
    24
 71
     3
 72
    19
 73
    15
 74
     0
 42
0.000000001
 43
0.00000001
 40
0.0
 40
0.0
 40
0.0
 40
0.0
 40
0.2409130132110047
 40
0.4882582803106248
 40
0.5391715029117174
 40
0.5899404478678678
 40
0.6400693120936225
 40
0.6899887491764568
 40
0.7400419496428569
 40
0.7904190820051351
 40
0.8413201884464373
 40
0.8929676784851881
 40
0.9456873805534199
 40
1.0
 40
1.0
 40
1.0
 40
1.0
 10
1292.777131854367
 20
1441.849248789417
 30
0.0
 10
1284.931088756086
 20
1441.849248789417
 30
0.0
 10
1269.029517233028
 20
1441.849248789417
 30
0.0
 10
1251.464092647728
 20
1441.849248789417
 30
0.0
 10
1240.102205844726
 20
1441.849248789417
 30
0.0
 10
1235.146433250481
 20
1441.849248789416
 30
0.0
 10
1230.362072487071
 20
1441.849248789416
 30
0.0
 10
1225.87849454294
 20
1441.849248789417
 30
0.0
 10
1221.800244252363
 20
1441.849248789417
 30
0.0
 10
1218.226992310868
 20
1441.849248789417
 30
0.0
 10
1215.260586566048
 20
1441.849248789417
 30
0.0
 10
1213.030560346683
 20
1441.849248789417
 30
0.0
 10
1211.557250249661
 20
1441.849248789417
 30
0.0
 10
1211.37142649858
 20
1441.849248789417
 30
0.0
 10
1211.277131854367
 20
1441.849248789417
 30
0.0
  0
SPLINE
  5
128
330
1F
100
AcDbEntity
  8
0
  6
Continuous
 62
     7
370
    35
100
AcDbSpline
210
0.0
220
0.0
230
1.0
 70
     8
 71
     3
 72
    14
 73
    10
 74
     0
 42
0.000000001
 43
0.00000001
 40
0.0
 40
0.0
 40
0.0
 40
0.0
 40
0.149783861674635
 40
0.3039198677007078
 40
0.4537011775423317
 40
0.6078081864720632
 40
0.757933700022959
 40
0.9123691506710971
 40
1.0
 40
1.0
 40
1.0
 40
1.0
 10
1210.257372839374
 20
1379.68525531463
 30
0.0
 10
1210.666219552486
 20
1378.960140801789
 30
0.0
 10
1211.495792495589
 20
1377.488842730377
 30
0.0
 10
1213.179327740525
 20
1375.594403933627
 30
0.0
 10
1215.149434912653
 20
1373.977924804683
 30
0.0
 10
1217.350748954541
 20
1372.727853147987
 30
0.0
 10
1219.751308718787
 20
1371.859955537705
 30
0.0
 10
1221.901820898939
 20
1371.451834123894
 30
0.0
 10
1223.244341272667
 20
1371.413225548185
 30
0.0
 10
1223.730349447296
 20
1371.399248789417
 30
0.0
  0
SPLINE
  5
129
330
1F
100
AcDbEntity
  8
0
  6
Continuous
 62
     7
370
    35
100
AcDbSpline
210
0.0
220
0.0
230
1.0
 70
    24
 71
     3
 72
    19
 73
    15
 74
     0
 42
0.000000001
 43
0.00000001
 40
0.0
 40
0.0
 40
0.0
 40
0.0
 40
0.0339082014123468
 40
0.0838890956615421
 40
0.133885640693628
 40
0.178763919083391
 40
0.2236368521988092
 40
0.2646138248638288
 40
0.3055644086924265
 40
0.3465596390526824
 40
0.387605999897298
 40
0.5510999779005354
 40
0.7146015071203452
 40
1.0
 40
1.0
 40
1.0
 40
1.0
 10
1223.730349447296
 20
1371.399248789417
 30
0.0
 10
1223.870779300726
 20
1371.399248789417
 30
0.0
 10
1224.218203608634
 20
1371.399248789417
 30
0.0
 10
1225.416079775432
 20
1371.399248789417
 30
0.0
 10
1227.266274595901
 20
1371.399248789417
 30
0.0
 10
1229.55862701638
 20
1371.399248789417
 30
0.0
 10
1232.08151854763
 20
1371.399248789417
 30
0.0
 10
1234.847136250979
 20
1371.399248789417
 30
0.0
 10
1237.775927258285
 20
1371.399248789417
 30
0.0
 10
1240.922369839038
 20
1371.399248789417
 30
0.0
 10
1247.413226390026
 20
1371.399248789417
 30
0.0
 10
1257.150835504039
 20
1371.399248789417
 30
0.0
 10
1273.353641721461
 20
1371.399248789417
 30
0.0
 10
1285.227838621013
 20
1371.399248789417
 30
0.0
 10
1292.777131854367
 20
1371.399248789417
 30
0.0
  0
SPLINE
  5
12A
330
1F
100
AcDbEntity
  8
0
  6
Continuous
 62
     7
370
    35
100
AcDbSpline
210
0.0
220
0.0
230
1.0
 70
    24
 71
     3
 72
    19
 73
    15
 74
     0
 42
0.000000001
 43
0.00000001
 40
0.0
 40
0.0
 40
0.0
 40
0.0
 40
0.0339064855174944
 40
0.0831372973791105
 40
0.1338840147718002
 40
0.1782456415880458
 40
0.2236320967859899
 40
0.2641259724126861
 40
0.305557060192373
 40
0.3459382551888677
 40
0.38763784298138
 40
0.551087819285942
 40
0.7146159494612702
 40
1.0
 40
1.0
 40
1.0
 40
1.0
 10
1361.823914261438
 20
1371.399248789417
 30
0.0
 10
1361.683328328638
 20
1371.399248789417
 30
0.0
 10
1361.338617447396
 20
1371.399248789417
 30
0.0
 10
1360.150346243288
 20
1371.399248789416
 30
0.0
 10
1358.305631964745
 20
1371.399248789418
 30
0.0
 10
1356.006359180461
 20
1371.399248789416
 30
0.0
 10
1353.492497969637
 20
1371.399248789417
 30
0.0
 10
1350.71979054067
 20
1371.399248789417
 30
0.0
 10
1347.802749991064
 20
1371.399248789417
 30
0.0
 10
1344.655340773871
 20
1371.399248789417
 30
0.0
 10
1338.153293093325
 20
1371.399248789417
 30
0.0
 10
1328.406607561382
 20
1371.399248789417
 30
0.0
 10
1312.200460011281
 20
1371.399248789417
 30
0.0
 10
1300.326003588198
 20
1371.399248789417
 30
0.0
 10
1292.777131854367
 20
1371.399248789417
 30
0.0
  0
LINE
  5
12B
330
1F
100
AcDbEntity
  8
0
  6
Continuous
 62
     7
370
    35
100
AcDbLine
 10
1379.4683760522
 20
1425.5009167732
 30
0.0
 11
1379.6904346402
 21
1424.080449284
 31
0.0
  0
SPLINE
  5
12C
330
1F
100
AcDbEntity
  8
0
  6
Continuous
 62
     7
370
    35
100
AcDbSpline
210
0.0
220
0.0
230
1.0
 70
     8
 71
     3
 72
    13
 73
     9
 74
     0
 42
0.000000001
 43
0.00000001
 40
0.0
 40
0.0
 40
0.0
 40
0.0
 40
0.0095081972613503
 40
0.0791116948017361
 40
0.3094644223199412
 40
0.5396843471459964
 40
0.7698410895023545
 40
1.0
 40
1.0
 40
1.0
 40
1.0
 10
1382.674966280894
 20
1421.399248789417
 30
0.0
 10
1382.66110005108
 20
1421.399310953349
 30
0.0
 10
1382.545727924172
 20
1421.399828180102
 30
0.0
 10
1382.094949584038
 20
1421.429363324802
 30
0.0
 10
1381.335475518002
 20
1421.649475011863
 30
0.0
 10
1380.506483384873
 20
1422.247515770914
 30
0.0
 10
1379.896827327572
 20
1423.085096696014
 30
0.0
 10
1379.759232418696
 20
1423.748664046149
 30
0.0
 10
1379.690434640214
 20
1424.080449283957
 30
0.0
  0
LINE
  5
12D
330
1F
100
AcDbEntity
  8
0
  6
Continuous
 62
     7
370
    35
100
AcDbLine
 10
1765.2771318544
 20
1452.845687289
 30
0.0
 11
1765.2771318544
 21
1451.845687289
 31
0.0
  0
LINE
  5
12E
330
1F
100
AcDbEntity
  8
0
  6
Continuous
 62
     7
370
    35
100
AcDbLine
 10
1765.2771318544
 20
1451.845687289
 30
0.0
 11
1755.2771318544
 21
1451.845687289
 31
0.0
  0
LINE
  5
12F
330
1F
100
AcDbEntity
  8
0
  6
Continuous
 62
     7
370
    35
100
AcDbLine
 10
1755.2771318544
 20
1452.845687289
 30
0.0
 11
1765.2771318544
 21
1452.845687289
 31
0.0
  0
LINE
  5
130
330
1F
100
AcDbEntity
  8
0
  6
Continuous
 62
     7
370
    35
100
AcDbLine
 10
1755.2771318544
 20
1451.845687289
 30
0.0
 11
1732.7771318544
 21
1451.845687289
 31
0.0
  0
LINE
  5
131
330
1F
100
AcDbEntity
  8
0
  6
Continuous
 62
     7
370
    35
100
AcDbLine
 10
1755.2771318544
 20
1452.845687289
 30
0.0
 11
1732.7771318544
 21
1452.845687289
 31
0.0
  0
LINE
  5
132
330
1F
100
AcDbEntity
  8
0
  6
Continuous
 62
     7
370
    35
100
AcDbLine
 10
830.2771318544
 20
1451.845687289
 30
0.0
 11
820.2771318544
 21
1451.845687289
 31
0.0
  0
LINE
  5
133
330
1F
100
AcDbEntity
  8
0
  6
Continuous
 62
     7
370
    35
100
AcDbLine
 10
820.2771318544
 20
1451.845687289
 30
0.0
 11
820.2771318544
 21
1452.845687289
 31
0.0
  0
LINE
  5
134
330
1F
100
AcDbEntity
  8
0
  6
Continuous
 62
     7
370
    35
100
AcDbLine
 10
820.2771318544
 20
1452.845687289
 30
0.0
 11
830.2771318544
 21
1452.845687289
 31
0.0
  0
LINE
  5
135
330
1F
100
AcDbEntity
  8
0
  6
Continuous
 62
     7
370
    35
100
AcDbLine
 10
852.7771318544
 20
1452.845687289
 30
0.0
 11
830.2771318544
 21
1452.845687289
 31
0.0
  0
LINE
  5
136
330
1F
100
AcDbEntity
  8
0
  6
Continuous
 62
     7
370
    35
100
AcDbLine
 10
852.7771318544
 20
1451.845687289
 30
0.0
 11
830.2771318544
 21
1451.845687289
 31
0.0
  0
ARC
  5
137
330
1F
100
AcDbEntity
  8
0
  6
Continuous
 62
     7
370
    35
100
AcDbCircle
 10
851.7771318544
 20
1463.845687289
 30
0.0
 40
1.0
100
AcDbArc
 50
0.0
 51
180.0
  0
LINE
  5
138
330
1F
100
AcDbEntity
  8
0
  6
Continuous
 62
     7
370
    35
100
AcDbLine
 10
850.7771318544
 20
1452.845687289
 30
0.0
 11
850.7771318544
 21
1463.845687289
 31
0.0
  0
LINE
  5
139
330
1F
100
AcDbEntity
  8
0
  6
Continuous
 62
     7
370
    35
100
AcDbLine
 10
852.7771318544
 20
1453.845687289
 30
0.0
 11
852.7771318544
 21
1463.845687289
 31
0.0
  0
LINE
  5
13A
330
1F
100
AcDbEntity
  8
0
  6
Continuous
 62
     7
370
    35
100
AcDbLine
 10
850.7771318544
 20
1446.1198278106
 30
0.0
 11
850.7771318544
 21
1451.845687289
 31
0.0
  0
LINE
  5
13B
330
1F
100
AcDbEntity
  8
0
  6
Continuous
 62
     7
370
    35
100
AcDbLine
 10
852.7771318544
 20
1446.1198278106
 30
0.0
 11
852.7771318544
 21
1449.9116352329
 31
0.0
  0
LINE
  5
13C
330
1F
100
AcDbEntity
  8
0
  6
Continuous
 62
     7
370
    35
100
AcDbLine
 10
850.7771318544
 20
1444.3072122365
 30
0.0
 11
850.7771318544
 21
1446.1198278106
 31
0.0
  0
LINE
  5
13D
330
1F
100
AcDbEntity
  8
0
  6
Continuous
 62
     7
370
    35
100
AcDbLine
 10
852.7771318544
 20
1446.1198278106
 30
0.0
 11
852.7771318544
 21
1444.3072122365
 31
0.0
  0
LINE
  5
13E
330
1F
100
AcDbEntity
  8
0
  6
Continuous
 62
     7
370
    35
100
AcDbLine
 10
850.7771318544
 20
1437.0489129519
 30
0.0
 11
850.7771318544
 21
1444.3072122365
 31
0.0
  0
LINE
  5
13F
330
1F
100
AcDbEntity
  8
0
  6
Continuous
 62
     7
370
    35
100
AcDbLine
 10
852.7771318544
 20
1437.0489129519
 30
0.0
 11
852.7771318544
 21
1444.3072122365
 31
0.0
  0
LINE
  5
140
330
1F
100
AcDbEntity
  8
0
  6
Continuous
 62
     7
370
    35
100
AcDbLine
 10
850.7771318544
 20
1435.2362973778
 30
0.0
 11
850.7771318544
 21
1437.0489129519
 31
0.0
  0
LINE
  5
141
330
1F
100
AcDbEntity
  8
0
  6
Continuous
 62
     7
370
    35
100
AcDbLine
 10
852.7771318544
 20
1437.0489129519
 30
0.0
 11
852.7771318544
 21
1435.2362973778
 31
0.0
  0
LINE
  5
142
330
1F
100
AcDbEntity
  8
0
  6
Continuous
 62
     7
370
    35
100
AcDbLine
 10
850.7771318544
 20
1400.945687289
 30
0.0
 11
850.7771318544
 21
1435.2362973778
 31
0.0
  0
LINE
  5
143
330
1F
100
AcDbEntity
  8
0
  6
Continuous
 62
     7
370
    35
100
AcDbLine
 10
852.7771318544
 20
1400.945687289
 30
0.0
 11
852.7771318544
 21
1435.2362973778
 31
0.0
  0
LINE
  5
144
330
1F
100
AcDbEntity
  8
0
  6
Continuous
 62
     7
370
    35
100
AcDbLine
 10
852.7771318544
 20
1398.945687289
 30
0.0
 11
850.7771318544
 21
1398.945687289
 31
0.0
  0
LINE
  5
145
330
1F
100
AcDbEntity
  8
0
  6
Continuous
 62
     7
370
    35
100
AcDbLine
 10
850.7771318544
 20
1398.945687289
 30
0.0
 11
850.7771318544
 21
1400.945687289
 31
0.0
  0
LINE
  5
146
330
1F
100
AcDbEntity
  8
0
  6
Continuous
 62
     7
370
    35
100
AcDbLine
 10
852.7771318544
 20
1400.945687289
 30
0.0
 11
852.7771318544
 21
1398.945687289
 31
0.0
  0
LINE
  5
147
330
1F
100
AcDbEntity
  8
0
  6
Continuous
 62
     7
370
    35
100
AcDbLine
 10
1732.7771318544
 20
1463.845687289
 30
0.0
 11
1732.7771318544
 21
1453.845687289
 31
0.0
  0
ARC
  5
148
330
1F
100
AcDbEntity
  8
0
  6
Continuous
 62
     7
370
    35
100
AcDbCircle
 10
1733.7771318544
 20
1463.845687289
 30
0.0
 40
1.000000000000227
100
AcDbArc
 50
0.0
 51
180.0
  0
LINE
  5
149
330
1F
100
AcDbEntity
  8
0
  6
Continuous
 62
     7
370
    35
100
AcDbLine
 10
1734.7771318544
 20
1463.845687289
 30
0.0
 11
1734.7771318544
 21
1452.845687289
 31
0.0
  0
LINE
  5
14A
330
1F
100
AcDbEntity
  8
0
  6
Continuous
 62
     7
370
    35
100
AcDbLine
 10
1732.7771318544
 20
1449.9116352329
 30
0.0
 11
1732.7771318544
 21
1446.1198278106
 31
0.0
  0
LINE
  5
14B
330
1F
100
AcDbEntity
  8
0
  6
Continuous
 62
     7
370
    35
100
AcDbLine
 10
1734.7771318544
 20
1451.845687289
 30
0.0
 11
1734.7771318544
 21
1446.1198278106
 31
0.0
  0
LINE
  5
14C
330
1F
100
AcDbEntity
  8
0
  6
Continuous
 62
     7
370
    35
100
AcDbLine
 10
1732.7771318544
 20
1444.3072122365
 30
0.0
 11
1732.7771318544
 21
1446.1198278106
 31
0.0
  0
LINE
  5
14D
330
1F
100
AcDbEntity
  8
0
  6
Continuous
 62
     7
370
    35
100
AcDbLine
 10
1734.7771318544
 20
1446.1198278106
 30
0.0
 11
1734.7771318544
 21
1444.3072122365
 31
0.0
  0
LINE
  5
14E
330
1F
100
AcDbEntity
  8
0
  6
Continuous
 62
     7
370
    35
100
AcDbLine
 10
1732.7771318544
 20
1444.3072122365
 30
0.0
 11
1732.7771318544
 21
1437.0489129519
 31
0.0
  0
LINE
  5
14F
330
1F
100
AcDbEntity
  8
0
  6
Continuous
 62
     7
370
    35
100
AcDbLine
 10
1734.7771318544
 20
1444.3072122365
 30
0.0
 11
1734.7771318544
 21
1437.0489129519
 31
0.0
  0
LINE
  5
150
330
1F
100
AcDbEntity
  8
0
  6
Continuous
 62
     7
370
    35
100
AcDbLine
 10
1732.7771318544
 20
1435.2362973778
 30
0.0
 11
1732.7771318544
 21
1437.0489129519
 31
0.0
  0
LINE
  5
151
330
1F
100
AcDbEntity
  8
0
  6
Continuous
 62
     7
370
    35
100
AcDbLine
 10
1734.7771318544
 20
1437.0489129519
 30
0.0
 11
1734.7771318544
 21
1435.2362973778
 31
0.0
  0
LINE
  5
152
330
1F
100
AcDbEntity
  8
0
  6
Continuous
 62
     7
370
    35
100
AcDbLine
 10
1732.7771318544
 20
1435.2362973778
 30
0.0
 11
1732.7771318544
 21
1400.945687289
 31
0.0
  0
LINE
  5
153
330
1F
100
AcDbEntity
  8
0
  6
Continuous
 62
     7
370
    35
100
AcDbLine
 10
1734.7771318544
 20
1435.2362973778
 30
0.0
 11
1734.7771318544
 21
1400.945687289
 31
0.0
  0
LINE
  5
154
330
1F
100
AcDbEntity
  8
0
  6
Continuous
 62
     7
370
    35
100
AcDbLine
 10
1734.7771318544
 20
1398.945687289
 30
0.0
 11
1732.7771318544
 21
1398.945687289
 31
0.0
  0
LINE
  5
155
330
1F
100
AcDbEntity
  8
0
  6
Continuous
 62
     7
370
    35
100
AcDbLine
 10
1732.7771318544
 20
1398.945687289
 30
0.0
 11
1732.7771318544
 21
1400.945687289
 31
0.0
  0
LINE
  5
156
330
1F
100
AcDbEntity
  8
0
  6
Continuous
 62
     7
370
    35
100
AcDbLine
 10
1734.7771318544
 20
1400.945687289
 30
0.0
 11
1734.7771318544
 21
1398.945687289
 31
0.0
  0
LINE
  5
157
330
1F
100
AcDbEntity
  8
0
  6
Continuous
 62
     8
370
    18
100
AcDbLine
 10
1732.7771318544
 20
1453.845687289
 30
0.0
 11
852.7771318544
 21
1453.845687289
 31
0.0
  0
LINE
  5
158
330
1F
100
AcDbEntity
  8
0
  6
Continuous
 62
     8
370
    18
100
AcDbLine
 10
852.7771318544
 20
1463.345687289
 30
0.0
 11
1732.7771318544
 21
1463.345687289
 31
0.0
  0
LINE
  5
159
330
1F
100
AcDbEntity
  8
0
  6
Continuous
 62
     8
370
    18
100
AcDbLine
 10
852.7771318544
 20
1450.6076057783
 30
0.0
 11
1732.7771318544
 21
1450.6076057783
 31
0.0
  0
LINE
  5
15A
330
1F
100
AcDbEntity
  8
0
  6
Continuous
 62
     8
370
    18
100
AcDbLine
 10
852.7771318544
 20
1448.6108224371
 30
0.0
 11
1732.7771318544
 21
1448.6108224371
 31
0.0
  0
LINE
  5
15B
330
1F
100
AcDbEntity
  8
0
  6
Continuous
 62
     8
370
    18
100
AcDbLine
 10
852.7771318544
 20
1446.8505148682
 30
0.0
 11
1209.905669075
 21
1446.8505148682
 31
0.0
  0
LINE
  5
15C
330
1F
100
AcDbEntity
  8
0
  6
Continuous
 62
     8
370
    18
100
AcDbLine
 10
1375.6485946337
 20
1446.8505148682
 30
0.0
 11
1732.7771318544
 21
1446.8505148682
 31
0.0
  0
SPLINE
  5
15D
330
1F
100
AcDbEntity
  8
0
  6
Continuous
 62
     8
370
    18
100
AcDbSpline
210
0.0
220
0.0
230
1.0
 70
     8
 71
     3
 72
    10
 73
     6
 74
     0
 42
0.000000001
 43
0.00000001
 40
0.0
 40
0.0
 40
0.0
 40
0.0
 40
0.5
 40
0.5
 40
1.0
 40
1.0
 40
1.0
 40
1.0
 10
1239.777131854367
 20
1446.62461570254
 30
0.0
 10
1238.710319597021
 20
1446.62461570254
 30
0.0
 10
1237.650802185565
 20
1446.606163085682
 30
0.0
 10
1235.545675750738
 20
1446.553139479285
 30
0.0
 10
1234.500063430031
 20
1446.518669502165
 30
0.0
 10
1233.461019747272
 20
1446.504032366221
 30
0.0
  0
ARC
  5
15E
330
1F
100
AcDbEntity
  8
0
  6
Continuous
 62
     8
370
    18
100
AcDbCircle
 10
1230.2904561738
 20
1446.8656235455
 30
0.0
 40
3.191116035875675
100
AcDbArc
 50
353.4937367838
 51
30.6135263841
  0
LINE
  5
15F
330
1F
100
AcDbEntity
  8
0
  6
Continuous
 62
     8
370
    18
100
AcDbLine
 10
1239.7771318544
 20
1446.6246157025
 30
0.0
 11
1239.7771318544
 21
1448.5096501362
 31
0.0
  0
SPLINE
  5
160
330
1F
100
AcDbEntity
  8
0
  6
Continuous
 62
     8
370
    18
100
AcDbSpline
210
0.0
220
0.0
230
1.0
 70
     8
 71
     3
 72
    10
 73
     6
 74
     0
 42
0.000000001
 43
0.00000001
 40
0.0
 40
0.0
 40
0.0
 40
0.0
 40
0.5
 40
0.5
 40
1.0
 40
1.0
 40
1.0
 40
1.0
 10
1352.093243961463
 20
1446.504032366356
 30
0.0
 10
1351.054200278704
 20
1446.5186695023
 30
0.0
 10
1350.008587957996
 20
1446.553139479285
 30
0.0
 10
1347.903461523169
 20
1446.606163085682
 30
0.0
 10
1346.843944111708
 20
1446.624615702243
 30
0.0
 10
1345.777131854365
 20
1446.624615702243
 30
0.0
  0
LINE
  5
161
330
1F
100
AcDbEntity
  8
0
  6
Continuous
 62
     8
370
    18
100
AcDbLine
 10
1345.7771318544
 20
1446.6246157024
 30
0.0
 11
1345.7771318544
 21
1448.5096501362
 31
0.0
  0
ARC
  5
162
330
1F
100
AcDbEntity
  8
0
  6
Continuous
 62
     8
370
    18
100
AcDbCircle
 10
1355.2638075346
 20
1446.8656235455
 30
0.0
 40
3.191116035543839
100
AcDbArc
 50
149.386473613
 51
186.5062632177
  0
LINE
  5
163
330
1F
100
AcDbEntity
  8
0
  6
Continuous
 62
     8
370
    18
100
AcDbLine
 10
1345.7771318544
 20
1446.6246157024
 30
0.0
 11
1239.7771318544
 21
1446.6246157025
 31
0.0
  0
ELLIPSE
  5
164
330
1F
100
AcDbEntity
  8
0
  6
Continuous
 62
     8
370
    18
100
AcDbEllipse
 10
1345.7771318544
 20
1444.8444160284
 30
0.0
 11
28.0
 21
0.0
 31
0.0
210
0.0
220
0.0
230
1.0
 40
0.0608401234
 41
0.0094489386178836
 42
1.343262674843461
  0
ARC
  5
165
330
1F
100
AcDbEntity
  8
0
  6
Continuous
 62
     8
370
    18
100
AcDbCircle
 10
1375.7752828035
 20
1444.8578052197
 30
0.0
 40
1.999402726573877
100
AcDbArc
 50
93.4033047991
 51
179.9224253183
  0
ELLIPSE
  5
166
330
1F
100
AcDbEntity
  8
0
  6
Continuous
 62
     8
370
    18
100
AcDbEllipse
 10
1239.7771318544
 20
1444.8444160284
 30
0.0
 11
28.0
 21
0.0
 31
0.0
210
0.0
220
0.0
230
1.0
 40
0.0608401234
 41
1.798329978746324
 42
3.132143714971907
  0
ARC
  5
167
330
1F
100
AcDbEntity
  8
0
  6
Continuous
 62
     8
370
    18
100
AcDbCircle
 10
1209.7789809052
 20
1444.8578052197
 30
0.0
 40
1.999402726574425
100
AcDbArc
 50
0.0775746817
 51
86.5966952045
  0
LINE
  5
168
330
1F
100
AcDbEntity
  8
0
  6
Continuous
 62
     8
370
    18
100
AcDbLine
 10
1239.7771318544
 20
1446.6246157025
 30
0.0
 11
1239.7771318544
 21
1441.8492487895
 31
0.0
  0
LINE
  5
169
330
1F
100
AcDbEntity
  8
0
  6
Continuous
 62
     8
370
    18
100
AcDbLine
 10
1345.7771318544
 20
1446.6246157024
 30
0.0
 11
1345.7771318544
 21
1441.8492487895
 31
0.0
  0
LINE
  5
16A
330
1F
100
AcDbEntity
  8
0
  6
Continuous
 62
     8
370
    18
100
AcDbLine
 10
1239.7771318544
 20
1444.5564472611
 30
0.0
 11
1211.8371042731
 21
1444.5564472611
 31
0.0
  0
LINE
  5
16B
330
1F
100
AcDbEntity
  8
0
  6
Continuous
 62
     8
370
    18
100
AcDbLine
 10
1345.7771318544
 20
1444.5564472611
 30
0.0
 11
1373.7171594356
 21
1444.5564472611
 31
0.0
  0
LINE
  5
16C
330
1F
100
AcDbEntity
  8
0
  6
Continuous
 62
     8
370
    18
100
AcDbLine
 10
1427.4655302001
 20
1371.3492487894
 30
0.0
 11
1427.4655302001
 21
1421.4492487894
 31
0.0
  0
LINE
  5
16D
330
1F
100
AcDbEntity
  8
0
  6
Continuous
 62
     8
370
    18
100
AcDbLine
 10
1428.0820819029
 20
1421.3852092792
 30
0.0
 11
1428.0820819029
 21
1371.4132882996
 31
0.0
  0
SPLINE
  5
16E
330
1F
100
AcDbEntity
  8
0
  6
Continuous
 62
     8
370
    18
100
AcDbSpline
210
0.0
220
0.0
230
1.0
 70
     8
 71
     3
 72
    33
 73
    29
 74
     0
 42
0.000000001
 43
0.00000001
 40
0.0
 40
0.0
 40
0.0
 40
0.0
 40
0.0420694805196953
 40
0.084388443038162
 40
0.1054254118363549
 40
0.1478084180885782
 40
0.1908708294596758
 40
0.2346249844283155
 40
0.2566774230954353
 40
0.2919631051304047
 40
0.3274716165362356
 40
0.3636903997735276
 40
0.4001608597629994
 40
0.4308871503519112
 40
0.4617758629698845
 40
0.4929198210567731
 40
0.524414595046751
 40
0.5762252118466479
 40
0.6285929245268294
 40
0.6833701247922489
 40
0.7388451995033064
 40
0.7691720205739078
 40
0.815060367563022
 40
0.8615324906874935
 40
0.8956623911437293
 40
0.9301881902968917
 40
0.9649049432978498
 40
1.0
 40
1.0
 40
1.0
 40
1.0
 10
1292.77713185437
 20
1421.761255316385
 30
0.0
 10
1293.594161418849
 20
1421.740497579755
 30
0.0
 10
1295.233065726932
 20
1421.698859008193
 30
0.0
 10
1297.26100256152
 20
1421.402041549557
 30
0.0
 10
1299.26482744592
 20
1420.976312329414
 30
0.0
 10
1301.247884406175
 20
1420.40354052315
 30
0.0
 10
1303.5729726148
 20
1419.486295263634
 30
0.0
 10
1305.446250257117
 20
1418.529556849835
 30
0.0
 10
1307.112458391849
 20
1417.51978492592
 30
0.0
 10
1308.580339222444
 20
1416.496990217485
 30
0.0
 10
1310.172776070607
 20
1415.185420261727
 30
0.0
 10
1311.67096693863
 20
1413.731373428566
 30
0.0
 10
1312.984076599308
 20
1412.225416889462
 30
0.0
 10
1314.115845470658
 20
1410.703195185459
 30
0.0
 10
1315.081696923718
 20
1409.188699783764
 30
0.0
 10
1315.943133118387
 20
1407.592876297615
 30
0.0
 10
1316.851812993692
 20
1405.56600258009
 30
0.0
 10
1317.689871954913
 20
1403.061237420101
 30
0.0
 10
1318.298627681351
 20
1400.026448885911
 30
0.0
 10
1318.517001600249
 20
1396.872478509751
 30
0.0
 10
1318.344885950839
 20
1394.157646712949
 30
0.0
 10
1317.930189786815
 20
1391.666536332703
 30
0.0
 10
1317.34067610203
 20
1389.401283126899
 30
0.0
 10
1316.495380291114
 20
1387.165049156216
 30
0.0
 10
1315.554095616855
 20
1385.225064994258
 30
0.0
 10
1314.583814993527
 20
1383.564680097814
 30
0.0
 10
1313.495391252081
 20
1381.968909080164
 30
0.0
 10
1312.675807362467
 20
1380.979751619708
 30
0.0
 10
1312.263794793239
 20
1380.482492813358
 30
0.0
  0
LINE
  5
16F
330
1F
100
AcDbEntity
  8
0
  6
Continuous
 62
     8
370
    18
100
AcDbLine
 10
1312.2637947932
 20
1380.4824928134
 30
0.0
 11
1303.6950356404
 21
1389.545136054
 31
0.0
  0
SPLINE
  5
170
330
1F
100
AcDbEntity
  8
0
  6
Continuous
 62
     8
370
    18
100
AcDbSpline
210
0.0
220
0.0
230
1.0
 70
     8
 71
     3
 72
    19
 73
    15
 74
     0
 42
0.000000001
 43
0.00000001
 40
0.0
 40
0.0
 40
0.0
 40
0.0
 40
0.0723119353046641
 40
0.1445206361806436
 40
0.2538055534572515
 40
0.3457400466261738
 40
0.4376020288244569
 40
0.5576187311953654
 40
0.6329165099067154
 40
0.7083141187347094
 40
0.8053610917388584
 40
0.9023999691423442
 40
0.9968144251432691
 40
1.0
 40
1.0
 40
1.0
 40
1.0
 10
1303.695035640389
 20
1389.545136053973
 30
0.0
 10
1304.227656734908
 20
1390.078709314645
 30
0.0
 10
1305.292138540004
 20
1391.145094092712
 30
0.0
 10
1306.854950464407
 20
1393.285996648678
 30
0.0
 10
1308.056263381689
 20
1395.922934495843
 30
0.0
 10
1308.275990846056
 20
1399.031377003751
 30
0.0
 10
1307.396432319267
 20
1402.123771951925
 30
0.0
 10
1305.676411127005
 20
1404.641764161731
 30
0.0
 10
1303.559718983857
 20
1406.520467635495
 30
0.0
 10
1301.373216707252
 20
1407.906792049471
 30
0.0
 10
1298.786186610546
 20
1409.027439367494
 30
0.0
 10
1295.858505694559
 20
1409.756688310397
 30
0.0
 10
1293.826376259473
 20
1409.90826235607
 30
0.0
 10
1292.810295782609
 20
1409.895947875668
 30
0.0
 10
1292.77713185437
 20
1409.895545942402
 30
0.0
  0
SPLINE
  5
171
330
1F
100
AcDbEntity
  8
0
  6
Continuous
 62
     8
370
    18
100
AcDbSpline
210
0.0
220
0.0
230
1.0
 70
    24
 71
     3
 72
    21
 73
    17
 74
     0
 42
0.000000001
 43
0.00000001
 40
0.0
 40
0.0
 40
0.0
 40
0.0
 40
0.0720514219264897
 40
0.1446031256582977
 40
0.2187326761060831
 40
0.2934074331762745
 40
0.3654588516753327
 40
0.4380105213676726
 40
0.5121399203051904
 40
0.5868144764983391
 40
0.6588679246026005
 40
0.7314216095207167
 40
0.8055529476989857
 40
0.8802294033636553
 40
0.9908667802310032
 40
1.0
 40
1.0
 40
1.0
 40
1.0
 10
1292.777131854366
 20
1421.761255316385
 30
0.0
 10
1292.777131854367
 20
1421.606702474415
 30
0.0
 10
1292.777131854369
 20
1421.296523668352
 30
0.0
 10
1292.777131854376
 20
1420.725859015623
 30
0.0
 10
1292.777131854351
 20
1420.076880246475
 30
0.0
 10
1292.777131854376
 20
1419.354039146253
 30
0.0
 10
1292.777131854365
 20
1418.56987690948
 30
0.0
 10
1292.777131854372
 20
1417.727116154842
 30
0.0
 10
1292.777131854363
 20
1416.818231901852
 30
0.0
 10
1292.777131854363
 20
1415.861261106668
 30
0.0
 10
1292.777131854361
 20
1414.868970275232
 30
0.0
 10
1292.777131854371
 20
1413.844494464356
 30
0.0
 10
1292.777131854366
 20
1412.779352622094
 30
0.0
 10
1292.777131854354
 20
1411.506773499198
 30
0.0
 10
1292.777131854406
 20
1410.537611341987
 30
0.0
 10
1292.777131854358
 20
1409.94103819053
 30
0.0
 10
1292.777131854355
 20
1409.895545942402
 30
0.0
  0
SPLINE
  5
172
330
1F
100
AcDbEntity
  8
0
  6
Continuous
 62
     8
370
    18
100
AcDbSpline
210
0.0
220
0.0
230
1.0
 70
     8
 71
     3
 72
    33
 73
    29
 74
     0
 42
0.000000001
 43
0.00000001
 40
0.0
 40
0.0
 40
0.0
 40
0.0
 40
0.0272519121761659
 40
0.0643955705395717
 40
0.1017679836315407
 40
0.1399161503387467
 40
0.1783602451249384
 40
0.230931335045729
 40
0.2840751350454411
 40
0.3463079719325252
 40
0.3778605917353931
 40
0.4098349893637236
 40
0.4664493290388059
 40
0.5237708874937607
 40
0.5552660258970178
 40
0.5869395080180234
 40
0.6191572696364612
 40
0.6515559584292161
 40
0.6730472716079227
 40
0.7163558120329138
 40
0.7603800963832681
 40
0.8051322093176837
 40
0.8276949767825338
 40
0.8487242154456203
 40
0.8910915758444982
 40
0.9341506962041374
 40
0.9779263650739449
 40
0.9999999999999999
 40
0.9999999999999999
 40
0.9999999999999999
 40
0.9999999999999999
 10
1273.290468915495
 20
1380.482492813358
 30
0.0
 10
1272.968998141659
 20
1380.867082030403
 30
0.0
 10
1272.209370936083
 20
1381.775856500791
 30
0.0
 10
1271.126251430338
 20
1383.315246807404
 30
0.0
 10
1270.05373001956
 20
1385.114498419351
 30
0.0
 10
1269.119234649355
 20
1387.033990671579
 30
0.0
 10
1268.244304065039
 20
1389.309552299547
 30
0.0
 10
1267.530977828533
 20
1391.96575207443
 30
0.0
 10
1267.086041631858
 20
1395.168101148755
 30
0.0
 10
1267.085387731572
 20
1398.022465232682
 30
0.0
 10
1267.359997382201
 20
1400.448264581296
 30
0.0
 10
1267.798424229029
 20
1402.741492405402
 30
0.0
 10
1268.625486783685
 20
1405.461133434056
 30
0.0
 10
1269.806389184144
 20
1408.032133946332
 30
0.0
 10
1270.995804823684
 20
1410.040666387926
 30
0.0
 10
1272.050689952997
 20
1411.555434967249
 30
0.0
 10
1273.224260980972
 20
1412.99944870225
 30
0.0
 10
1274.365518967531
 20
1414.208013318814
 30
0.0
 10
1275.73315821243
 20
1415.488550234479
 30
0.0
 10
1277.36665004193
 20
1416.806622579261
 30
0.0
 10
1279.496924837356
 20
1418.202211262566
 30
0.0
 10
1281.402733714138
 20
1419.199547766365
 30
0.0
 10
1282.969415913607
 20
1419.875593321148
 30
0.0
 10
1284.525023239743
 20
1420.459326239232
 30
0.0
 10
1286.502681657508
 20
1421.047078718363
 30
0.0
 10
1288.963213797889
 20
1421.526550230801
 30
0.0
 10
1291.070124171095
 20
1421.738647582504
 30
0.0
 10
1292.348576292368
 20
1421.75557949536
 30
0.0
 10
1292.777131854366
 20
1421.761255316385
 30
0.0
  0
SPLINE
  5
173
330
1F
100
AcDbEntity
  8
0
  6
Continuous
 62
     8
370
    18
100
AcDbSpline
210
0.0
220
0.0
230
1.0
 70
     8
 71
     3
 72
    20
 73
    16
 74
     0
 42
0.000000001
 43
0.00000001
 40
0.0
 40
0.0
 40
0.0
 40
0.0
 40
0.0031848875244883
 40
0.0996872166702683
 40
0.1961928561586085
 40
0.2929138960264281
 40
0.3894614585497524
 40
0.4531459406897251
 40
0.5167654851003682
 40
0.6214864979190137
 40
0.7268808125404118
 40
0.8182687157727466
 40
0.8939620144270484
 40
0.9698304221395906
 40
0.9999999999999999
 40
0.9999999999999999
 40
0.9999999999999999
 40
0.9999999999999999
 10
1292.77713185437
 20
1409.895545942402
 30
0.0
 10
1292.743967858784
 20
1409.895948589279
 30
0.0
 10
1291.705932327501
 20
1409.908551466495
 30
0.0
 10
1289.65739566296
 20
1409.747813856255
 30
0.0
 10
1286.717715530664
 20
1409.012289675398
 30
0.0
 10
1283.938099323526
 20
1407.802645553309
 30
0.0
 10
1281.695392600164
 20
1406.30963952551
 30
0.0
 10
1280.013585397624
 20
1404.681775715176
 30
0.0
 10
1278.562038766624
 20
1402.739522840491
 30
0.0
 10
1277.407999399361
 20
1400.07205353814
 30
0.0
 10
1277.308197635
 20
1396.847454925923
 30
0.0
 10
1278.254217569546
 20
1394.126624009538
 30
0.0
 10
1279.606081807977
 20
1391.975825371376
 30
0.0
 10
1280.841570745587
 20
1390.533305851616
 30
0.0
 10
1281.633819940777
 20
1389.76401278077
 30
0.0
 10
1281.859228068346
 20
1389.545136053973
 30
0.0
  0
LINE
  5
174
330
1F
100
AcDbEntity
  8
0
  6
Continuous
 62
     8
370
    18
100
AcDbLine
 10
1273.2904689155
 20
1380.4824928134
 30
0.0
 11
1281.8592280683
 21
1389.545136054
 31
0.0
  0
SPLINE
  5
175
330
1F
100
AcDbEntity
  8
0
  6
Continuous
 62
     8
370
    18
100
AcDbSpline
210
0.0
220
0.0
230
1.0
 70
     8
 71
     3
 72
     9
 73
     5
 74
     0
 42
0.000000001
 43
0.00000001
 40
0.0
 40
0.0
 40
0.0
 40
0.0
 40
0.5770474436019684
 40
1.0
 40
1.0
 40
1.0
 40
1.0
 10
1279.423600893073
 20
1375.255247023215
 30
0.0
 10
1278.163550499894
 20
1376.110043187875
 30
0.0
 10
1275.979933871576
 20
1377.591370545161
 30
0.0
 10
1274.089874400522
 20
1379.623147539551
 30
0.0
 10
1273.290468915495
 20
1380.482492813358
 30
0.0
  0
SPLINE
  5
176
330
1F
100
AcDbEntity
  8
0
  6
Continuous
 62
     8
370
    18
100
AcDbSpline
210
0.0
220
0.0
230
1.0
 70
     8
 71
     3
 72
    10
 73
     6
 74
     0
 42
0.000000001
 43
0.00000001
 40
0.0
 40
0.0
 40
0.0
 40
0.0
 40
0.2479681796226361
 40
0.4972688069878635
 40
1.0
 40
1.0
 40
1.0
 40
1.0
 10
1281.859228068346
 20
1389.545136053973
 30
0.0
 10
1282.203928216123
 20
1389.23864148401
 30
0.0
 10
1282.895180745033
 20
1388.624005406973
 30
0.0
 10
1284.39218760385
 20
1387.517935188869
 30
0.0
 10
1285.567730118959
 20
1386.76048412059
 30
0.0
 10
1286.353577040651
 20
1386.254130175336
 30
0.0
  0
LINE
  5
177
330
1F
100
AcDbEntity
  8
0
  6
Continuous
 62
     8
370
    18
100
AcDbLine
 10
1286.3535770407
 20
1386.2541301753
 30
0.0
 11
1279.4236008931
 21
1375.2552470232
 31
0.0
  0
ARC
  5
178
330
1F
100
AcDbEntity
  8
0
  6
Continuous
 62
     8
370
    18
100
AcDbCircle
 10
1292.7771318544
 20
1396.4492487894
 30
0.0
 40
12.04999999999996
100
AcDbArc
 50
237.7865374201
 51
302.2134625799
  0
LINE
  5
179
330
1F
100
AcDbEntity
  8
0
  6
Continuous
 62
     8
370
    18
100
AcDbLine
 10
1299.2006866681
 20
1386.2541301753
 30
0.0
 11
1306.1306628157
 21
1375.2552470232
 31
0.0
  0
SPLINE
  5
17A
330
1F
100
AcDbEntity
  8
0
  6
Continuous
 62
     8
370
    18
100
AcDbSpline
210
0.0
220
0.0
230
1.0
 70
     8
 71
     3
 72
    10
 73
     6
 74
     0
 42
0.000000001
 43
0.00000001
 40
0.0
 40
0.0
 40
0.0
 40
0.0
 40
0.3514670345888555
 40
0.7035972473579624
 40
1.0
 40
1.0
 40
1.0
 40
1.0
 10
1299.200686668084
 20
1386.254130175336
 30
0.0
 10
1299.750574273278
 20
1386.606965187206
 30
0.0
 10
1300.851387058816
 20
1387.313300970343
 30
0.0
 10
1302.374361194843
 20
1388.384936274364
 30
0.0
 10
1303.280773025985
 20
1389.181210337418
 30
0.0
 10
1303.695035640389
 20
1389.545136053973
 30
0.0
  0
SPLINE
  5
17B
330
1F
100
AcDbEntity
  8
0
  6
Continuous
 62
     8
370
    18
100
AcDbSpline
210
0.0
220
0.0
230
1.0
 70
     8
 71
     3
 72
     9
 73
     5
 74
     0
 42
0.000000001
 43
0.00000001
 40
0.0
 40
0.0
 40
0.0
 40
0.0
 40
0.3490261811818432
 40
1.0
 40
1.0
 40
1.0
 40
1.0
 10
1312.263794793239
 20
1380.482492813358
 30
0.0
 10
1311.608208835221
 20
1379.768349986434
 30
0.0
 10
1309.729879949409
 20
1377.722248961844
 30
0.0
 10
1307.549822886891
 20
1376.227978180255
 30
0.0
 10
1306.130662815661
 20
1375.255247023215
 30
0.0
  0
SPLINE
  5
17C
330
1F
100
AcDbEntity
  8
0
  6
Continuous
 62
     8
370
    18
100
AcDbSpline
210
0.0
220
0.0
230
1.0
 70
     8
 71
     3
 72
    25
 73
    21
 74
     0
 42
0.000000001
 43
0.00000001
 40
0.0
 40
0.0
 40
0.0
 40
0.0
 40
0.049254018115101
 40
0.1492409839198742
 40
0.2001416191492478
 40
0.2518526251234168
 40
0.3040335595223629
 40
0.3577923743443071
 40
0.4121322905460627
 40
0.4583035622698642
 40
0.5524517173646443
 40
0.600541640737576
 40
0.6462083951794702
 40
0.739026547546757
 40
0.7862778751716628
 40
0.8386307217057707
 40
0.8914004261034277
 40
0.945476810414539
 40
0.9999986794956643
 40
1.0
 40
1.0
 40
1.0
 40
1.0
 10
1271.285218475762
 20
1379.725802801558
 30
0.0
 10
1270.831849805398
 20
1380.257508882921
 30
0.0
 10
1269.45813068495
 20
1381.868592440681
 30
0.0
 10
1267.91817065344
 20
1384.308023352687
 30
0.0
 10
1266.659642186322
 20
1386.966547974391
 30
0.0
 10
1265.875770461864
 20
1389.097210006562
 30
0.0
 10
1265.271350624243
 20
1391.350559601202
 30
0.0
 10
1264.870109669874
 20
1393.708700828904
 30
0.0
 10
1264.702196473369
 20
1396.02133796746
 30
0.0
 10
1264.751832413313
 20
1398.957551509932
 30
0.0
 10
1265.15700096416
 20
1401.797573591311
 30
0.0
 10
1265.908161755104
 20
1404.54516955309
 30
0.0
 10
1266.872201011351
 20
1407.201977330708
 30
0.0
 10
1268.139417455154
 20
1409.722765783182
 30
0.0
 10
1269.746912592825
 20
1412.140478193518
 30
0.0
 10
1271.176407956913
 20
1413.937429758894
 30
0.0
 10
1272.825104516531
 20
1415.674216536947
 30
0.0
 10
1274.645846521235
 20
1417.274785438736
 30
0.0
 10
1275.963229933554
 20
1418.23585461214
 30
0.0
 10
1276.644971536894
 20
1418.686677287868
 30
0.0
 10
1276.644988048084
 20
1418.686688206402
 30
0.0
  0
SPLINE
  5
17D
330
1F
100
AcDbEntity
  8
0
  6
Continuous
 62
     8
370
    18
100
AcDbSpline
210
0.0
220
0.0
230
1.0
 70
     8
 71
     3
 72
    17
 73
    13
 74
     0
 42
0.000000001
 43
0.00000001
 40
0.0
 40
0.0
 40
0.0
 40
0.0
 40
0.0000034855140939
 40
0.123731181174398
 40
0.2481852880018888
 40
0.3749118306512847
 40
0.5024199211247031
 40
0.6249563428645111
 40
0.7482076745729954
 40
0.8737113440217107
 40
0.9999965144859068
 40
1.0
 40
1.0
 40
1.0
 40
1.0
 10
1276.644988048084
 20
1418.686688206402
 30
0.0
 10
1276.645004339147
 20
1418.686699438035
 30
0.0
 10
1277.223315708346
 20
1419.085407680236
 30
0.0
 10
1278.415190410626
 20
1419.841538493893
 30
0.0
 10
1280.299919915419
 20
1420.844020170084
 30
0.0
 10
1282.27914774135
 20
1421.708654474096
 30
0.0
 10
1284.312375613773
 20
1422.415110747408
 30
0.0
 10
1286.37718902543
 20
1422.961281173774
 30
0.0
 10
1288.468663309697
 20
1423.35110168435
 30
0.0
 10
1290.607325122922
 20
1423.585781190129
 30
0.0
 10
1292.052560833628
 20
1423.634199998624
 30
0.0
 10
1292.777111857062
 20
1423.630940188801
 30
0.0
 10
1292.777131854367
 20
1423.630940098832
 30
0.0
  0
ARC
  5
17E
330
1F
100
AcDbEntity
  8
0
  6
Continuous
 62
     8
370
    18
100
AcDbCircle
 10
1273.4211427527
 20
1377.1008724937
 30
0.0
 40
3.3841441515319
100
AcDbArc
 50
92.2129439008
 51
129.1354920666
  0
SPLINE
  5
17F
330
1F
100
AcDbEntity
  8
0
  6
Continuous
 62
     8
370
    18
100
AcDbSpline
210
0.0
220
0.0
230
1.0
 70
     8
 71
     3
 72
    13
 73
     9
 74
     0
 42
0.000000001
 43
0.00000001
 40
0.0
 40
0.0
 40
0.0
 40
0.0
 40
0.000003488132369
 40
0.2457799679353304
 40
0.4975795644761288
 40
0.7457645563596915
 40
0.9999965118676328
 40
1.0
 40
1.0
 40
1.0
 40
1.0
 10
1292.777131854367
 20
1423.630940098832
 30
0.0
 10
1292.777151851672
 20
1423.630940188801
 30
0.0
 10
1294.186197296876
 20
1423.637279592374
 30
0.0
 10
1297.04343282316
 20
1423.438681294598
 30
0.0
 10
1301.220397348275
 20
1422.506612125408
 30
0.0
 10
1305.240407704927
 20
1420.942772216747
 30
0.0
 10
1307.721871653057
 20
1419.505326384787
 30
0.0
 10
1308.909259369587
 20
1418.686699438035
 30
0.0
 10
1308.90927566065
 20
1418.686688206402
 30
0.0
  0
SPLINE
  5
180
330
1F
100
AcDbEntity
  8
0
  6
Continuous
 62
     8
370
    18
100
AcDbSpline
210
0.0
220
0.0
230
1.0
 70
     8
 71
     3
 72
    19
 73
    15
 74
     0
 42
0.000000001
 43
0.00000001
 40
0.0
 40
0.0
 40
0.0
 40
0.0
 40
0.0000013213841023
 40
0.0176852170218708
 40
0.1143733902378736
 40
0.2137145610419428
 40
0.3053523452007507
 40
0.3995000333270463
 40
0.4922123793434039
 40
0.5879403428335862
 40
0.6917200092822474
 40
0.7998090016712738
 40
0.898518958317874
 40
1.0
 40
1.0
 40
1.0
 40
1.0
 10
1308.90927566065
 20
1418.686688206402
 30
0.0
 10
1308.90929217184
 20
1418.686677287868
 30
0.0
 10
1309.130275593404
 20
1418.540545179545
 30
0.0
 10
1310.545275986646
 20
1417.574301897851
 30
0.0
 10
1313.016961658115
 20
1415.512647974835
 30
0.0
 10
1315.851864131875
 20
1412.223719593333
 30
0.0
 10
1318.105303829915
 20
1408.541386052582
 30
0.0
 10
1319.709180516402
 20
1404.62735774602
 30
0.0
 10
1320.682032429457
 20
1400.441291545759
 30
0.0
 10
1320.951721721995
 20
1396.015750511819
 30
0.0
 10
1320.413243698772
 20
1391.416505828614
 30
0.0
 10
1319.025426912238
 20
1387.038350369784
 30
0.0
 10
1316.977179096029
 20
1383.052744222134
 30
0.0
 10
1315.180048604142
 20
1380.84497009649
 30
0.0
 10
1314.269045232972
 20
1379.725802801558
 30
0.0
  0
ARC
  5
181
330
1F
100
AcDbEntity
  8
0
  6
Continuous
 62
     8
370
    18
100
AcDbCircle
 10
1312.133120956
 20
1377.1008724937
 30
0.0
 40
3.384144151536641
100
AcDbArc
 50
50.8645079334
 51
87.7870560992
  0
SPLINE
  5
182
330
1F
100
AcDbEntity
  8
0
  6
Continuous
 62
     8
370
    18
100
AcDbSpline
210
0.0
220
0.0
230
1.0
 70
     8
 71
     3
 72
    14
 73
    10
 74
     0
 42
0.000000001
 43
0.00000001
 40
0.0
 40
0.0
 40
0.0
 40
0.0
 40
0.070646935810895
 40
0.2691496022583709
 40
0.4748299235320574
 40
0.6841240356853442
 40
0.8123563766451366
 40
0.9412272031615675
 40
1.0
 40
1.0
 40
1.0
 40
1.0
 10
1259.127739037905
 20
1381.778404770869
 30
0.0
 10
1259.126262684286
 20
1382.590803640946
 30
0.0
 10
1259.120638095125
 20
1385.685868278171
 30
0.0
 10
1259.199465393692
 20
1391.40921755314
 30
0.0
 10
1259.325180415453
 20
1398.998411645903
 30
0.0
 10
1259.386326330048
 20
1405.779756061744
 30
0.0
 10
1259.364086638174
 20
1411.568726967684
 30
0.0
 10
1259.31835122885
 20
1415.462095586336
 30
0.0
 10
1259.282955700697
 20
1417.741975708308
 30
0.0
 10
1259.271869290469
 20
1418.456068352805
 30
0.0
  0
ARC
  5
183
330
1F
100
AcDbEntity
  8
0
  6
Continuous
 62
     8
370
    18
100
AcDbCircle
 10
1259.0666593761
 20
1375.4513069158
 30
0.0
 40
6.327392669383016
100
AcDbArc
 50
89.4469031132
 51
106.8009889676
  0
SPLINE
  5
184
330
1F
100
AcDbEntity
  8
0
  6
Continuous
 62
     8
370
    18
100
AcDbSpline
210
0.0
220
0.0
230
1.0
 70
     8
 71
     3
 72
    14
 73
    10
 74
     0
 42
0.000000001
 43
0.00000001
 40
0.0
 40
0.0
 40
0.0
 40
0.0
 40
0.0588507131428024
 40
0.1865507860318868
 40
0.3150706499745843
 40
0.5205160403891211
 40
0.7296050309949654
 40
0.9289213534635682
 40
1.0
 40
1.0
 40
1.0
 40
1.0
 10
1257.236441745226
 20
1418.608467591006
 30
0.0
 10
1257.23611421571
 20
1417.886599433433
 30
0.0
 10
1257.235075980396
 20
1415.598350659285
 30
0.0
 10
1257.231905257211
 20
1411.672228472995
 30
0.0
 10
1257.23043456695
 20
1405.86875594059
 30
0.0
 10
1257.23820481824
 20
1398.999370822202
 30
0.0
 10
1257.239341707807
 20
1391.321048846705
 30
0.0
 10
1257.237802523351
 20
1385.488345911544
 30
0.0
 10
1257.237750756922
 20
1382.337004037275
 30
0.0
 10
1257.237737149095
 20
1381.508611719101
 30
0.0
  0
ARC
  5
185
330
1F
100
AcDbEntity
  8
0
  6
Continuous
 62
     8
370
    18
100
AcDbCircle
 10
1259.0103579345
 20
1428.632024682
 30
0.0
 40
10.17931605774673
100
AcDbArc
 50
259.9640104619
 51
271.4721171424
  0
ARC
  5
186
330
1F
100
AcDbEntity
  8
0
  6
Continuous
 62
     8
370
    18
100
AcDbCircle
 10
1256.0492080182
 20
1385.5904465034
 30
0.0
 40
4.251349985711866
100
AcDbArc
 50
269.1903220348
 51
286.2342508995
  0
SPLINE
  5
187
330
1F
100
AcDbEntity
  8
0
  6
Continuous
 62
     8
370
    18
100
AcDbSpline
210
0.0
220
0.0
230
1.0
 70
     8
 71
     3
 72
    14
 73
    10
 74
     0
 42
0.000000001
 43
0.00000001
 40
0.0
 40
0.0
 40
0.0
 40
0.0
 40
0.2078011624980594
 40
0.4196948388477488
 40
0.5443918098789571
 40
0.669951265477286
 40
0.7982264655367505
 40
0.9274422558336508
 40
1.0
 40
1.0
 40
1.0
 40
1.0
 10
1255.884805352167
 20
1418.757081218049
 30
0.0
 10
1255.854621294991
 20
1416.169686024781
 30
0.0
 10
1255.793658724523
 20
1410.943938509125
 30
0.0
 10
1255.805328483333
 20
1403.980795099039
 30
0.0
 10
1255.861303904613
 20
1398.104600506159
 30
0.0
 10
1255.91590242794
 20
1393.329147839249
 30
0.0
 10
1255.966416671275
 20
1388.57625867704
 30
0.0
 10
1255.993872460953
 20
1384.5691008279
 30
0.0
 10
1255.990385705341
 20
1382.193710977678
 30
0.0
 10
1255.989131868347
 20
1381.339521009176
 30
0.0
  0
ARC
  5
188
330
1F
100
AcDbEntity
  8
0
  6
Continuous
 62
     8
370
    18
100
AcDbCircle
 10
1255.8851081888
 20
1412.5389828647
 30
0.0
 40
6.218098360717976
100
AcDbArc
 50
77.4481726938
 51
90.0027904448
  0
SPLINE
  5
189
330
1F
100
AcDbEntity
  8
0
  6
Continuous
 62
     8
370
    18
100
AcDbSpline
210
0.0
220
0.0
230
1.0
 70
     8
 71
     3
 72
    14
 73
    10
 74
     0
 42
0.000000001
 43
0.00000001
 40
0.0
 40
0.0
 40
0.0
 40
0.0
 40
0.0588507131428024
 40
0.1865507860318867
 40
0.3150706499745843
 40
0.5205160403891211
 40
0.7296050309949654
 40
0.9289213534635682
 40
1.0
 40
1.0
 40
1.0
 40
1.0
 10
1328.317821963508
 20
1418.608467591006
 30
0.0
 10
1328.318149493024
 20
1417.886599433433
 30
0.0
 10
1328.319187728338
 20
1415.598350659285
 30
0.0
 10
1328.322358451523
 20
1411.672228472995
 30
0.0
 10
1328.323829141784
 20
1405.86875594059
 30
0.0
 10
1328.316058890494
 20
1398.999370822202
 30
0.0
 10
1328.314922000927
 20
1391.321048846705
 30
0.0
 10
1328.316461185383
 20
1385.488345911544
 30
0.0
 10
1328.316512951813
 20
1382.337004037275
 30
0.0
 10
1328.316526559639
 20
1381.508611719101
 30
0.0
  0
ARC
  5
18A
330
1F
100
AcDbEntity
  8
0
  6
Continuous
 62
     8
370
    18
100
AcDbCircle
 10
1326.4876043326
 20
1375.4513069158
 30
0.0
 40
6.32739266938529
100
AcDbArc
 50
73.1990110324
 51
90.5530968868
  0
SPLINE
  5
18B
330
1F
100
AcDbEntity
  8
0
  6
Continuous
 62
     8
370
    18
100
AcDbSpline
210
0.0
220
0.0
230
1.0
 70
     8
 71
     3
 72
    14
 73
    10
 74
     0
 42
0.000000001
 43
0.00000001
 40
0.0
 40
0.0
 40
0.0
 40
0.0
 40
0.0706469358108949
 40
0.2691496022583709
 40
0.474829923532058
 40
0.6841240356853446
 40
0.8123563766451372
 40
0.9412272031615684
 40
1.0
 40
1.0
 40
1.0
 40
1.0
 10
1326.426524670829
 20
1381.778404770869
 30
0.0
 10
1326.428001024448
 20
1382.590803640946
 30
0.0
 10
1326.433625613609
 20
1385.685868278171
 30
0.0
 10
1326.354798315042
 20
1391.40921755314
 30
0.0
 10
1326.229083293282
 20
1398.998411645903
 30
0.0
 10
1326.167937378686
 20
1405.779756061744
 30
0.0
 10
1326.190177070561
 20
1411.568726967684
 30
0.0
 10
1326.235912479883
 20
1415.462095586336
 30
0.0
 10
1326.271308008038
 20
1417.741975708308
 30
0.0
 10
1326.282394418266
 20
1418.456068352805
 30
0.0
  0
ARC
  5
18C
330
1F
100
AcDbEntity
  8
0
  6
Continuous
 62
     8
370
    18
100
AcDbCircle
 10
1326.5439057742
 20
1428.632024682
 30
0.0
 40
10.17931605777004
100
AcDbArc
 50
268.5278828577
 51
280.0359895381
  0
SPLINE
  5
18D
330
1F
100
AcDbEntity
  8
0
  6
Continuous
 62
     8
370
    18
100
AcDbSpline
210
0.0
220
0.0
230
1.0
 70
     8
 71
     3
 72
    14
 73
    10
 74
     0
 42
0.000000001
 43
0.00000001
 40
0.0
 40
0.0
 40
0.0
 40
0.0
 40
0.2078011624980596
 40
0.4196948388477488
 40
0.544391809878957
 40
0.6699512654772861
 40
0.7982264655367507
 40
0.9274422558336509
 40
1.0
 40
1.0
 40
1.0
 40
1.0
 10
1329.669458356567
 20
1418.757081218049
 30
0.0
 10
1329.699642413743
 20
1416.169686024781
 30
0.0
 10
1329.760604984211
 20
1410.943938509125
 30
0.0
 10
1329.748935225402
 20
1403.980795099039
 30
0.0
 10
1329.692959804121
 20
1398.104600506159
 30
0.0
 10
1329.638361280794
 20
1393.329147839249
 30
0.0
 10
1329.587847037459
 20
1388.57625867704
 30
0.0
 10
1329.560391247781
 20
1384.5691008279
 30
0.0
 10
1329.563878003393
 20
1382.193710977678
 30
0.0
 10
1329.565131840387
 20
1381.339521009176
 30
0.0
  0
ARC
  5
18E
330
1F
100
AcDbEntity
  8
0
  6
Continuous
 62
     8
370
    18
100
AcDbCircle
 10
1329.5050556905
 20
1385.5904465034
 30
0.0
 40
4.251349985711866
100
AcDbArc
 50
253.7657491005
 51
270.8096779652
  0
ARC
  5
18F
330
1F
100
AcDbEntity
  8
0
  6
Continuous
 62
     8
370
    18
100
AcDbCircle
 10
1329.66915552
 20
1412.5389828647
 30
0.0
 40
6.218098360717976
100
AcDbArc
 50
89.9972095552
 51
102.5518273062
  0
SPLINE
  5
190
330
1F
100
AcDbEntity
  8
0
  6
Continuous
 62
     8
370
    18
100
AcDbSpline
210
0.0
220
0.0
230
1.0
 70
     8
 71
     3
 72
    14
 73
    10
 74
     0
 42
0.000000001
 43
0.00000001
 40
0.0
 40
0.0
 40
0.0
 40
0.0
 40
0.127247386060472
 40
0.2554745767697361
 40
0.3810919869018174
 40
0.507591609013154
 40
0.7089607368256273
 40
0.9137762176246973
 40
1.0
 40
1.0
 40
1.0
 40
1.0
 10
1248.303531042455
 20
1381.540592635884
 30
0.0
 10
1248.302086004476
 20
1383.030501999815
 30
0.0
 10
1248.299184801728
 20
1386.021793027158
 30
0.0
 10
1248.302886436225
 20
1390.66055563845
 30
0.0
 10
1248.30854023794
 20
1395.372131631928
 30
0.0
 10
1248.31708892287
 20
1401.063761957917
 30
0.0
 10
1248.325598409651
 20
1407.795829085213
 30
0.0
 10
1248.318968633608
 20
1413.978632011412
 30
0.0
 10
1248.314027433408
 20
1417.547908924634
 30
0.0
 10
1248.312563545113
 20
1418.605348915535
 30
0.0
  0
ARC
  5
191
330
1F
100
AcDbEntity
  8
0
  6
Continuous
 62
     8
370
    18
100
AcDbCircle
 10
1246.3924273435
 20
1375.7693894721
 30
0.0
 40
6.079399913267267
100
AcDbArc
 50
71.6779814803
 51
90.2649234322
  0
SPLINE
  5
192
330
1F
100
AcDbEntity
  8
0
  6
Continuous
 62
     8
370
    18
100
AcDbSpline
210
0.0
220
0.0
230
1.0
 70
     8
 71
     3
 72
    15
 73
    11
 74
     0
 42
0.000000001
 43
0.00000001
 40
0.0
 40
0.0
 40
0.0
 40
0.0
 40
0.1214527241786902
 40
0.2436356162157053
 40
0.3679634748124466
 40
0.4929996451849702
 40
0.6185865433805137
 40
0.745033726310406
 40
0.8719902588119084
 40
1.0
 40
1.0
 40
1.0
 40
1.0
 10
1246.263040469175
 20
1418.412210522999
 30
0.0
 10
1246.245828807492
 20
1416.938823768058
 30
0.0
 10
1246.211302008456
 20
1413.983192328816
 30
0.0
 10
1246.179423259779
 20
1409.438238334581
 30
0.0
 10
1246.182025002328
 20
1404.82450712679
 30
0.0
 10
1246.214594804192
 20
1400.160399147593
 30
0.0
 10
1246.263375582409
 20
1395.491379498271
 30
0.0
 10
1246.31598842218
 20
1390.85635494904
 30
0.0
 10
1246.359593376978
 20
1386.270848498732
 30
0.0
 10
1246.362738527323
 20
1383.326819473911
 30
0.0
 10
1246.364317598453
 20
1381.848724398575
 30
0.0
  0
ARC
  5
193
330
1F
100
AcDbEntity
  8
0
  6
Continuous
 62
     8
370
    18
100
AcDbCircle
 10
1246.4042995979
 20
1427.8842257487
 30
0.0
 40
9.473068487987907
100
AcDbArc
 50
269.1455934393
 51
281.6212347178
  0
SPLINE
  5
194
330
1F
100
AcDbEntity
  8
0
  6
Continuous
 62
     8
370
    18
100
AcDbSpline
210
0.0
220
0.0
230
1.0
 70
     8
 71
     3
 72
    15
 73
    11
 74
     0
 42
0.000000001
 43
0.00000001
 40
0.0
 40
0.0
 40
0.0
 40
0.0
 40
0.12145272417869
 40
0.2436356162157051
 40
0.3679634748124464
 40
0.4929996451849701
 40
0.6185865433805136
 40
0.7450337263104059
 40
0.8719902588119083
 40
1.0
 40
1.0
 40
1.0
 40
1.0
 10
1339.291223239559
 20
1418.412210522999
 30
0.0
 10
1339.308434901242
 20
1416.938823768058
 30
0.0
 10
1339.342961700278
 20
1413.983192328816
 30
0.0
 10
1339.374840448955
 20
1409.438238334581
 30
0.0
 10
1339.372238706406
 20
1404.82450712679
 30
0.0
 10
1339.339668904543
 20
1400.160399147593
 30
0.0
 10
1339.290888126325
 20
1395.491379498271
 30
0.0
 10
1339.238275286554
 20
1390.85635494904
 30
0.0
 10
1339.194670331756
 20
1386.270848498732
 30
0.0
 10
1339.191525181411
 20
1383.326819473911
 30
0.0
 10
1339.189946110282
 20
1381.848724398575
 30
0.0
  0
ARC
  5
195
330
1F
100
AcDbEntity
  8
0
  6
Continuous
 62
     8
370
    18
100
AcDbCircle
 10
1339.1618363653
 20
1375.7693894721
 30
0.0
 40
6.079399913268175
100
AcDbArc
 50
89.7350765678
 51
108.3220185197
  0
SPLINE
  5
196
330
1F
100
AcDbEntity
  8
0
  6
Continuous
 62
     8
370
    18
100
AcDbSpline
210
0.0
220
0.0
230
1.0
 70
     8
 71
     3
 72
    14
 73
    10
 74
     0
 42
0.000000001
 43
0.00000001
 40
0.0
 40
0.0
 40
0.0
 40
0.0
 40
0.1277343155302417
 40
0.2554736424753117
 40
0.3815295141037226
 40
0.5075900262814129
 40
0.7106819552125374
 40
0.9137761853290125
 40
1.0
 40
1.0
 40
1.0
 40
1.0
 10
1337.250732666279
 20
1381.540592635884
 30
0.0
 10
1337.252205036796
 20
1383.036345659712
 30
0.0
 10
1337.255149835594
 20
1386.027910390415
 30
0.0
 10
1337.251353484189
 20
1390.671845711174
 30
0.0
 10
1337.24569202583
 20
1395.377745798209
 30
0.0
 10
1337.236816206935
 20
1401.090860532115
 30
0.0
 10
1337.230939968052
 20
1407.817898063297
 30
0.0
 10
1337.235117121179
 20
1413.999730717944
 30
0.0
 10
1337.240188707528
 20
1417.547906289866
 30
0.0
 10
1337.241700163621
 20
1418.605348915535
 30
0.0
  0
ARC
  5
197
330
1F
100
AcDbEntity
  8
0
  6
Continuous
 62
     8
370
    18
100
AcDbCircle
 10
1339.1499641109
 20
1427.8842257487
 30
0.0
 40
9.473068487987453
100
AcDbArc
 50
258.3787652822
 51
270.8544065607
  0
SPLINE
  5
198
330
1F
100
AcDbEntity
  8
0
  6
Continuous
 62
     8
370
    18
100
AcDbSpline
210
0.0
220
0.0
230
1.0
 70
     8
 71
     3
 72
    14
 73
    10
 74
     0
 42
0.000000001
 43
0.00000001
 40
0.0
 40
0.0
 40
0.0
 40
0.0
 40
0.1296969008660539
 40
0.2603671951156628
 40
0.3853421446376522
 40
0.5111847557259621
 40
0.6397642884787735
 40
0.7692911603858884
 40
1.0
 40
1.0
 40
1.0
 40
1.0
 10
1335.908134333805
 20
1381.339521009176
 30
0.0
 10
1335.909240834337
 20
1382.873571993124
 30
0.0
 10
1335.911462139842
 20
1385.953187228243
 30
0.0
 10
1335.886099332924
 20
1390.689050619612
 30
0.0
 10
1335.855325205583
 20
1395.460389691037
 30
0.0
 10
1335.825007353942
 20
1400.269536378495
 30
0.0
 10
1335.802950981633
 20
1405.160916633393
 30
0.0
 10
1335.801686128369
 20
1411.389943045411
 30
0.0
 10
1335.831470226274
 20
1415.88089952584
 30
0.0
 10
1335.850545110987
 20
1418.757081218049
 30
0.0
  0
ARC
  5
199
330
1F
100
AcDbEntity
  8
0
  6
Continuous
 62
     8
370
    18
100
AcDbCircle
 10
1335.8894217268
 20
1412.6602638614
 30
0.0
 40
6.096941304602594
100
AcDbArc
 50
77.1854453734
 51
90.3653440292
  0
ARC
  5
19A
330
1F
100
AcDbEntity
  8
0
  6
Continuous
 62
     8
370
    18
100
AcDbCircle
 10
1335.9790519819
 20
1385.4489328548
 30
0.0
 40
4.11002372615128
100
AcDbArc
 50
269.0113235705
 51
288.0236522041
  0
ARC
  5
19B
330
1F
100
AcDbEntity
  8
0
  6
Continuous
 62
     8
370
    18
100
AcDbCircle
 10
1249.6648419819
 20
1412.6602638614
 30
0.0
 40
6.096941304600598
100
AcDbArc
 50
89.6346559708
 51
102.8145546266
  0
SPLINE
  5
19C
330
1F
100
AcDbEntity
  8
0
  6
Continuous
 62
     8
370
    18
100
AcDbSpline
210
0.0
220
0.0
230
1.0
 70
     8
 71
     3
 72
    14
 73
    10
 74
     0
 42
0.000000001
 43
0.00000001
 40
0.0
 40
0.0
 40
0.0
 40
0.0
 40
0.1296969008660539
 40
0.2603671951156628
 40
0.3853421446376522
 40
0.5111847557259621
 40
0.6397642884787735
 40
0.7692911603858884
 40
1.0
 40
1.0
 40
1.0
 40
1.0
 10
1249.646129374928
 20
1381.339521009176
 30
0.0
 10
1249.645022874397
 20
1382.873571993124
 30
0.0
 10
1249.642801568892
 20
1385.953187228243
 30
0.0
 10
1249.66816437581
 20
1390.689050619612
 30
0.0
 10
1249.698938503151
 20
1395.460389691037
 30
0.0
 10
1249.729256354792
 20
1400.269536378495
 30
0.0
 10
1249.751312727101
 20
1405.160916633393
 30
0.0
 10
1249.752577580366
 20
1411.389943045411
 30
0.0
 10
1249.72279348246
 20
1415.88089952584
 30
0.0
 10
1249.703718597747
 20
1418.757081218049
 30
0.0
  0
ARC
  5
19D
330
1F
100
AcDbEntity
  8
0
  6
Continuous
 62
     8
370
    18
100
AcDbCircle
 10
1249.5752117268
 20
1385.4489328548
 30
0.0
 40
4.110023726150415
100
AcDbArc
 50
251.9763477959
 51
270.9886764295
  0
LINE
  5
19E
330
1F
100
AcDbEntity
  8
0
  6
Continuous
 62
     8
370
    18
100
AcDbLine
 10
1255.9891318683
 20
1381.3395210092
 30
0.0
 11
1249.6461293749
 21
1381.3395210092
 31
0.0
  0
LINE
  5
19F
330
1F
100
AcDbEntity
  8
0
  6
Continuous
 62
     8
370
    18
100
AcDbLine
 10
1255.8848053522
 20
1418.757081218
 30
0.0
 11
1249.7037185977
 21
1418.757081218
 31
0.0
  0
LINE
  5
1A0
330
1F
100
AcDbEntity
  8
0
  6
Continuous
 62
     8
370
    18
100
AcDbLine
 10
1329.5651318404
 20
1381.3395210092
 30
0.0
 11
1335.9081343338
 21
1381.3395210092
 31
0.0
  0
LINE
  5
1A1
330
1F
100
AcDbEntity
  8
0
  6
Continuous
 62
     8
370
    18
100
AcDbLine
 10
1329.6694583566
 20
1418.757081218
 30
0.0
 11
1335.850545111
 21
1418.757081218
 31
0.0
  0
SPLINE
  5
1A2
330
1F
100
AcDbEntity
  8
0
  6
Continuous
 62
     8
370
    18
100
AcDbSpline
210
0.0
220
0.0
230
1.0
 70
     8
 71
     3
 72
    14
 73
    10
 74
     0
 42
0.000000001
 43
0.00000001
 40
0.0
 40
0.0
 40
0.0
 40
0.0
 40
0.083481340853267
 40
0.2549666805167995
 40
0.4263786377711391
 40
0.5910988460081824
 40
0.7558798437661323
 40
0.8779365795297039
 40
1.0
 40
1.0
 40
1.0
 40
1.0
 10
1339.118748886496
 20
1379.845490353135
 30
0.0
 10
1340.019835940088
 20
1379.861151126145
 30
0.0
 10
1342.771914099863
 20
1379.90898187812
 30
0.0
 10
1347.374478812423
 20
1379.99419498265
 30
0.0
 10
1352.67463094393
 20
1380.049744590326
 30
0.0
 10
1357.567402270903
 20
1380.11421452986
 30
0.0
 10
1361.59372512416
 20
1380.136477222257
 30
0.0
 10
1364.898692992625
 20
1380.132759811234
 30
0.0
 10
1366.611727223498
 20
1380.116381492648
 30
0.0
 10
1367.468267792819
 20
1380.108192109112
 30
0.0
  0
LINE
  5
1A3
330
1F
100
AcDbEntity
  8
0
  6
Continuous
 62
     8
370
    18
100
AcDbLine
 10
1339.1899461103
 20
1381.8487243986
 30
0.0
 11
1339.1187488865
 21
1379.8454903531
 31
0.0
  0
SPLINE
  5
1A4
330
1F
100
AcDbEntity
  8
0
  6
Continuous
 62
     8
370
    18
100
AcDbSpline
210
0.0
220
0.0
230
1.0
 70
     8
 71
     3
 72
    10
 73
     6
 74
     0
 42
0.000000001
 43
0.00000001
 40
0.0
 40
0.0
 40
0.0
 40
0.0
 40
0.0305940752880613
 40
0.8849546452569945
 40
0.9999999999999999
 40
0.9999999999999999
 40
0.9999999999999999
 40
0.9999999999999999
 10
1339.207967719813
 20
1429.191160938077
 30
0.0
 10
1339.208179856808
 20
1429.082722695901
 30
0.0
 10
1339.214316065145
 20
1425.94607204594
 30
0.0
 10
1339.254761633389
 20
1422.348285582506
 30
0.0
 10
1339.28735516499
 20
1418.829773912055
 30
0.0
 10
1339.291223239559
 20
1418.412210522999
 30
0.0
  0
SPLINE
  5
1A5
330
1F
100
AcDbEntity
  8
0
  6
Continuous
 62
     8
370
    18
100
AcDbSpline
210
0.0
220
0.0
230
1.0
 70
     8
 71
     3
 72
    12
 73
     8
 74
     0
 42
0.000000001
 43
0.00000001
 40
0.0
 40
0.0
 40
0.0
 40
0.0
 40
0.000011396415791
 40
0.016561542624936
 40
0.2254762501766393
 40
0.6569695733823675
 40
1.0
 40
1.0
 40
1.0
 40
1.0
 10
1338.00016454673
 20
1433.805318394074
 30
0.0
 10
1338.000177328212
 20
1433.805304585419
 30
0.0
 10
1338.018751682067
 20
1433.785237519229
 30
0.0
 10
1338.267361849712
 20
1433.508538540031
 30
0.0
 10
1338.819321774391
 20
1432.572302845961
 30
0.0
 10
1339.151515091966
 20
1430.997321798712
 30
0.0
 10
1339.190639728542
 20
1429.745557443969
 30
0.0
 10
1339.207967719813
 20
1429.191160938077
 30
0.0
  0
SPLINE
  5
1A6
330
1F
100
AcDbEntity
  8
0
  6
Continuous
 62
     8
370
    18
100
AcDbSpline
210
0.0
220
0.0
230
1.0
 70
     8
 71
     3
 72
    11
 73
     7
 74
     0
 42
0.000000001
 43
0.00000001
 40
0.0
 40
0.0
 40
0.0
 40
0.0
 40
0.2986044395549421
 40
0.5785107697797118
 40
0.9999675635115337
 40
1.0
 40
1.0
 40
1.0
 40
1.0
 10
1336.279503879907
 20
1434.346845267655
 30
0.0
 10
1336.464389805942
 20
1434.341009188559
 30
0.0
 10
1336.822584411324
 20
1434.329702475856
 30
0.0
 10
1337.415891833653
 20
1434.156268527546
 30
0.0
 10
1337.791263512453
 20
1433.950563623018
 30
0.0
 10
1338.000148471599
 20
1433.805329570831
 30
0.0
 10
1338.00016454673
 20
1433.805318394074
 30
0.0
  0
LINE
  5
1A7
330
1F
100
AcDbEntity
  8
0
  6
Continuous
 62
     8
370
    18
100
AcDbLine
 10
1329.1731130166
 20
1434.2239243475
 30
0.0
 11
1336.2795038799
 21
1434.3468452677
 31
0.0
  0
SPLINE
  5
1A8
330
1F
100
AcDbEntity
  8
0
  6
Continuous
 62
     8
370
    18
100
AcDbSpline
210
0.0
220
0.0
230
1.0
 70
     8
 71
     3
 72
    11
 73
     7
 74
     0
 42
0.000000001
 43
0.00000001
 40
0.0
 40
0.0
 40
0.0
 40
0.0
 40
0.0000403578891936
 40
0.1670896913901118
 40
0.6133765181115387
 40
1.0
 40
1.0
 40
1.0
 40
1.0
 10
1327.767141403351
 20
1433.833832346182
 30
0.0
 10
1327.767158476426
 20
1433.833841963303
 30
0.0
 10
1327.837844403221
 20
1433.873658758493
 30
0.0
 10
1328.102421779374
 20
1434.010391000451
 30
0.0
 10
1328.56815357494
 20
1434.18158095058
 30
0.0
 10
1328.981325361722
 20
1434.210500404945
 30
0.0
 10
1329.173113016614
 20
1434.223924347506
 30
0.0
  0
SPLINE
  5
1A9
330
1F
100
AcDbEntity
  8
0
  6
Continuous
 62
     8
370
    18
100
AcDbSpline
210
0.0
220
0.0
230
1.0
 70
     8
 71
     3
 72
    11
 73
     7
 74
     0
 42
0.000000001
 43
0.00000001
 40
0.0
 40
0.0
 40
0.0
 40
0.0
 40
0.5574252101166743
 40
0.8582360298869187
 40
0.9999887157359582
 40
1.0
 40
1.0
 40
1.0
 40
1.0
 10
1326.399929882457
 20
1429.251427017898
 30
0.0
 10
1326.441289721476
 20
1430.164819998858
 30
0.0
 10
1326.504969123469
 20
1431.571119447608
 30
0.0
 10
1327.117040227819
 20
1433.109411254768
 30
0.0
 10
1327.590892924714
 20
1433.67624289485
 30
0.0
 10
1327.767127375273
 20
1433.833819803225
 30
0.0
 10
1327.767141403351
 20
1433.833832346182
 30
0.0
  0
SPLINE
  5
1AA
330
1F
100
AcDbEntity
  8
0
  6
Continuous
 62
     8
370
    18
100
AcDbSpline
210
0.0
220
0.0
230
1.0
 70
     8
 71
     3
 72
     9
 73
     5
 74
     0
 42
0.000000001
 43
0.00000001
 40
0.0
 40
0.0
 40
0.0
 40
0.0
 40
0.8892351459143054
 40
1.0
 40
1.0
 40
1.0
 40
1.0
 10
1326.282394418266
 20
1418.456068352805
 30
0.0
 10
1326.331456924884
 20
1421.683056709157
 30
0.0
 10
1326.386630752464
 20
1425.312004992609
 30
0.0
 10
1326.398603700603
 20
1428.85859004236
 30
0.0
 10
1326.399929882457
 20
1429.251427017898
 30
0.0
  0
LINE
  5
1AB
330
1F
100
AcDbEntity
  8
0
  6
Continuous
 62
     8
370
    18
100
AcDbLine
 10
1326.5089442626
 20
1379.7209987407
 30
0.0
 11
1326.4265246708
 21
1381.7784047709
 31
0.0
  0
SPLINE
  5
1AC
330
1F
100
AcDbEntity
  8
0
  6
Continuous
 62
     8
370
    18
100
AcDbSpline
210
0.0
220
0.0
230
1.0
 70
     8
 71
     3
 72
     9
 73
     5
 74
     0
 42
0.000000001
 43
0.00000001
 40
0.0
 40
0.0
 40
0.0
 40
0.0
 40
0.0843934950201051
 40
1.0
 40
1.0
 40
1.0
 40
1.0
 10
1314.269045232972
 20
1379.725802801558
 30
0.0
 10
1314.613355626293
 20
1379.723998266577
 30
0.0
 10
1318.693177101144
 20
1379.702615872353
 30
0.0
 10
1322.773225451956
 20
1379.712212242117
 30
0.0
 10
1326.508944262591
 20
1379.720998740697
 30
0.0
  0
SPLINE
  5
1AD
330
1F
100
AcDbEntity
  8
0
  6
Continuous
 62
     8
370
    18
100
AcDbSpline
210
0.0
220
0.0
230
1.0
 70
     8
 71
     3
 72
    12
 73
     8
 74
     0
 42
0.000000001
 43
0.00000001
 40
0.0
 40
0.0
 40
0.0
 40
0.0
 40
0.3429907427795658
 40
0.6931111831538849
 40
0.8460382371952907
 40
0.9999906400284372
 40
1.0
 40
1.0
 40
1.0
 40
1.0
 10
1379.185974521678
 20
1423.125232690295
 30
0.0
 10
1379.226618939166
 20
1423.514761407324
 30
0.0
 10
1379.308752643608
 20
1424.301915916931
 30
0.0
 10
1379.391998225976
 20
1424.976758251807
 30
0.0
 10
1379.442085210446
 20
1425.340225670058
 30
0.0
 10
1379.460520692232
 20
1425.456658887284
 30
0.0
 10
1379.468375574673
 20
1425.500914082731
 30
0.0
 10
1379.468376052204
 20
1425.500916773188
 30
0.0
  0
SPLINE
  5
1AE
330
1F
100
AcDbEntity
  8
0
  6
Continuous
 62
     8
370
    18
100
AcDbSpline
210
0.0
220
0.0
230
1.0
 70
     8
 71
     3
 72
    20
 73
    16
 74
     0
 42
0.000000001
 43
0.00000001
 40
0.0
 40
0.0
 40
0.0
 40
0.0
 40
0.0777495206401191
 40
0.1580444463721884
 40
0.2279673988375376
 40
0.2994604618770939
 40
0.3760581917562253
 40
0.4543933132980215
 40
0.5398335171527775
 40
0.627731836877726
 40
0.7140713710304734
 40
0.8026163874373405
 40
0.8879068463690991
 40
0.97583557289479
 40
1.0
 40
1.0
 40
1.0
 40
1.0
 10
1367.468267792818
 20
1380.108192109112
 30
0.0
 10
1367.463637215613
 20
1381.273037046736
 30
0.0
 10
1367.454224462907
 20
1383.640862234088
 30
0.0
 10
1367.936090242953
 20
1387.45995524652
 30
0.0
 10
1368.705298387087
 20
1391.300187457085
 30
0.0
 10
1369.694622425382
 20
1395.148902674394
 30
0.0
 10
1370.867308315455
 20
1399.147261601613
 30
0.0
 10
1372.163682148562
 20
1403.327776069319
 30
0.0
 10
1373.451587655933
 20
1407.551421772855
 30
0.0
 10
1374.664541091194
 20
1411.627205996249
 30
0.0
 10
1375.83257537055
 20
1415.318884711647
 30
0.0
 10
1376.95619950011
 20
1418.48919225741
 30
0.0
 10
1378.067852101574
 20
1421.048917325625
 30
0.0
 10
1378.796341773712
 20
1422.463290877208
 30
0.0
 10
1379.116875598262
 20
1423.007841462564
 30
0.0
 10
1379.185974521678
 20
1423.125232690295
 30
0.0
  0
LINE
  5
1AF
330
1F
100
AcDbEntity
  8
0
  6
Continuous
 62
     8
370
    18
100
AcDbLine
 10
1259.0453194461
 20
1379.7209987407
 30
0.0
 11
1259.1277390379
 21
1381.7784047709
 31
0.0
  0
SPLINE
  5
1B0
330
1F
100
AcDbEntity
  8
0
  6
Continuous
 62
     8
370
    18
100
AcDbSpline
210
0.0
220
0.0
230
1.0
 70
     8
 71
     3
 72
     9
 73
     5
 74
     0
 42
0.000000001
 43
0.00000001
 40
0.0
 40
0.0
 40
0.0
 40
0.0
 40
0.889235145914304
 40
1.0
 40
1.0
 40
1.0
 40
1.0
 10
1259.271869290469
 20
1418.456068352805
 30
0.0
 10
1259.222806783851
 20
1421.683056709157
 30
0.0
 10
1259.16763295627
 20
1425.312004992609
 30
0.0
 10
1259.155660008131
 20
1428.85859004236
 30
0.0
 10
1259.154333826277
 20
1429.251427017898
 30
0.0
  0
SPLINE
  5
1B1
330
1F
100
AcDbEntity
  8
0
  6
Continuous
 62
     8
370
    18
100
AcDbSpline
210
0.0
220
0.0
230
1.0
 70
     8
 71
     3
 72
    11
 73
     7
 74
     0
 42
0.000000001
 43
0.00000001
 40
0.0
 40
0.0
 40
0.0
 40
0.0
 40
0.5574252101167221
 40
0.8582360298869939
 40
0.9999887157360463
 40
1.0
 40
1.0
 40
1.0
 40
1.0
 10
1259.154333826277
 20
1429.251427017898
 30
0.0
 10
1259.112973986914
 20
1430.164819998528
 30
0.0
 10
1259.04929458439
 20
1431.571119446769
 30
0.0
 10
1258.437223482278
 20
1433.109411256074
 30
0.0
 10
1257.963370782654
 20
1433.67624289354
 30
0.0
 10
1257.787136333462
 20
1433.833819803225
 30
0.0
 10
1257.787122305384
 20
1433.833832346182
 30
0.0
  0
SPLINE
  5
1B2
330
1F
100
AcDbEntity
  8
0
  6
Continuous
 62
     8
370
    18
100
AcDbSpline
210
0.0
220
0.0
230
1.0
 70
     8
 71
     3
 72
    11
 73
     7
 74
     0
 42
0.000000001
 43
0.00000001
 40
0.0
 40
0.0
 40
0.0
 40
0.0
 40
0.0000403578895606
 40
0.1670896913904174
 40
0.6133765181116806
 40
0.9999999999999999
 40
0.9999999999999999
 40
0.9999999999999999
 40
0.9999999999999999
 10
1257.787122305384
 20
1433.833832346182
 30
0.0
 10
1257.787105232309
 20
1433.833841963303
 30
0.0
 10
1257.716419305256
 20
1433.873658758107
 30
0.0
 10
1257.45184192969
 20
1434.010391000947
 30
0.0
 10
1256.9861101337
 20
1434.181580950438
 30
0.0
 10
1256.572938346982
 20
1434.2105004049
 30
0.0
 10
1256.38115069212
 20
1434.223924347506
 30
0.0
  0
LINE
  5
1B3
330
1F
100
AcDbEntity
  8
0
  6
Continuous
 62
     8
370
    18
100
AcDbLine
 10
1256.3811506921
 20
1434.2239243475
 30
0.0
 11
1249.2747598288
 21
1434.3468452677
 31
0.0
  0
SPLINE
  5
1B4
330
1F
100
AcDbEntity
  8
0
  6
Continuous
 62
     8
370
    18
100
AcDbSpline
210
0.0
220
0.0
230
1.0
 70
     8
 71
     3
 72
    11
 73
     7
 74
     0
 42
0.000000001
 43
0.00000001
 40
0.0
 40
0.0
 40
0.0
 40
0.0
 40
0.2986044395549176
 40
0.5785107697796643
 40
0.9999675635114516
 40
1.0
 40
1.0
 40
1.0
 40
1.0
 10
1249.274759828827
 20
1434.346845267655
 30
0.0
 10
1249.089873902798
 20
1434.341009188554
 30
0.0
 10
1248.731679297427
 20
1434.329702475841
 30
0.0
 10
1248.138371875007
 20
1434.156268527616
 30
0.0
 10
1247.76300019653
 20
1433.950563622782
 30
0.0
 10
1247.554115237135
 20
1433.805329570831
 30
0.0
 10
1247.554099162004
 20
1433.805318394074
 30
0.0
  0
SPLINE
  5
1B5
330
1F
100
AcDbEntity
  8
0
  6
Continuous
 62
     8
370
    18
100
AcDbSpline
210
0.0
220
0.0
230
1.0
 70
     8
 71
     3
 72
    12
 73
     8
 74
     0
 42
0.000000001
 43
0.00000001
 40
0.0
 40
0.0
 40
0.0
 40
0.0
 40
0.0000113964157658
 40
0.0165615426249112
 40
0.2254762501766195
 40
0.656969573382358
 40
1.0
 40
1.0
 40
1.0
 40
1.0
 10
1247.554099162004
 20
1433.805318394074
 30
0.0
 10
1247.554086380522
 20
1433.805304585419
 30
0.0
 10
1247.535512026708
 20
1433.785237519197
 30
0.0
 10
1247.286901858768
 20
1433.508538540231
 30
0.0
 10
1246.734941934581
 20
1432.572302845773
 30
0.0
 10
1246.402748616709
 20
1430.997321798759
 30
0.0
 10
1246.363623980174
 20
1429.745557443983
 30
0.0
 10
1246.346295988922
 20
1429.191160938077
 30
0.0
  0
SPLINE
  5
1B6
330
1F
100
AcDbEntity
  8
0
  6
Continuous
 62
     8
370
    18
100
AcDbSpline
210
0.0
220
0.0
230
1.0
 70
     8
 71
     3
 72
    10
 73
     6
 74
     0
 42
0.000000001
 43
0.00000001
 40
0.0
 40
0.0
 40
0.0
 40
0.0
 40
0.0305940752880608
 40
0.8849546452569952
 40
1.0
 40
1.0
 40
1.0
 40
1.0
 10
1246.346295988922
 20
1429.191160938077
 30
0.0
 10
1246.346083851926
 20
1429.082722695901
 30
0.0
 10
1246.339947643589
 20
1425.94607204594
 30
0.0
 10
1246.299502075346
 20
1422.348285582506
 30
0.0
 10
1246.266908543745
 20
1418.829773912055
 30
0.0
 10
1246.263040469175
 20
1418.412210522999
 30
0.0
  0
LINE
  5
1B7
330
1F
100
AcDbEntity
  8
0
  6
Continuous
 62
     8
370
    18
100
AcDbLine
 10
1246.3643175985
 20
1381.8487243986
 30
0.0
 11
1246.4355148222
 21
1379.8454903531
 31
0.0
  0
SPLINE
  5
1B8
330
1F
100
AcDbEntity
  8
0
  6
Continuous
 62
     8
370
    18
100
AcDbSpline
210
0.0
220
0.0
230
1.0
 70
     8
 71
     3
 72
    18
 73
    14
 74
     0
 42
0.000000001
 43
0.00000001
 40
0.0
 40
0.0
 40
0.0
 40
0.0
 40
0.0497884573626106
 40
0.1520626953526053
 40
0.2542931679105416
 40
0.3525326664708924
 40
0.4508084200367183
 40
0.5543273934134058
 40
0.6578565275353612
 40
0.7740307271289424
 40
0.8901694733964504
 40
0.9999988953086805
 40
1.0
 40
1.0
 40
1.0
 40
1.0
 10
1246.435514822238
 20
1379.845490353135
 30
0.0
 10
1245.534424547134
 20
1379.861151249329
 30
0.0
 10
1242.782336548296
 20
1379.908982377527
 30
0.0
 10
1238.179906140177
 20
1379.994190346558
 30
0.0
 10
1232.879196125958
 20
1380.049761286411
 30
0.0
 10
1227.988418574617
 20
1380.114154988459
 30
0.0
 10
1223.495246208815
 20
1380.139244641071
 30
0.0
 10
1219.463606860764
 20
1380.128093834256
 30
0.0
 10
1215.853409572627
 20
1380.081197170348
 30
0.0
 10
1212.941313727281
 20
1380.002315833823
 30
0.0
 10
1210.961497992548
 20
1379.877044512703
 30
0.0
 10
1210.369791726367
 20
1379.752684924064
 30
0.0
 10
1210.257373970089
 20
1379.68525599284
 30
0.0
 10
1210.257372839374
 20
1379.68525531463
 30
0.0
  0
SPLINE
  5
1B9
330
1F
100
AcDbEntity
  8
0
  6
Continuous
 62
     8
370
    18
100
AcDbSpline
210
0.0
220
0.0
230
1.0
 70
     8
 71
     3
 72
     9
 73
     5
 74
     0
 42
0.000000001
 43
0.00000001
 40
0.0
 40
0.0
 40
0.0
 40
0.0
 40
0.08439349502011
 40
1.0
 40
1.0
 40
1.0
 40
1.0
 10
1271.285218475762
 20
1379.725802801558
 30
0.0
 10
1270.940908082441
 20
1379.723998266577
 30
0.0
 10
1266.86108660759
 20
1379.702615872354
 30
0.0
 10
1262.781038256779
 20
1379.712212242117
 30
0.0
 10
1259.045319446144
 20
1379.720998740697
 30
0.0
  0
SPLINE
  5
1BA
330
1F
100
AcDbEntity
  8
0
  6
Continuous
 62
     8
370
    18
100
AcDbSpline
210
0.0
220
0.0
230
1.0
 70
     8
 71
     3
 72
     9
 73
     5
 74
     0
 42
0.000000001
 43
0.00000001
 40
0.0
 40
0.0
 40
0.0
 40
0.0
 40
0.3531288107769722
 40
1.0
 40
1.0
 40
1.0
 40
1.0
 10
1257.238117639166
 20
1429.467854754728
 30
0.0
 10
1257.238241077991
 20
1428.202861944926
 30
0.0
 10
1257.238590635493
 20
1424.620620079646
 30
0.0
 10
1257.237285803469
 20
1420.96996875489
 30
0.0
 10
1257.236441745226
 20
1418.608467591006
 30
0.0
  0
LINE
  5
1BB
330
1F
100
AcDbEntity
  8
0
  6
Continuous
 62
     8
370
    18
100
AcDbLine
 10
1255.9711385043
 20
1429.6167802527
 30
0.0
 11
1255.8848053522
 21
1418.757081218
 31
0.0
  0
ARC
  5
1BC
330
1F
100
AcDbEntity
  8
0
  6
Continuous
 62
     8
370
    18
100
AcDbCircle
 10
1256.018425127
 20
1424.5552138202
 30
0.0
 40
5.061787310429768
100
AcDbArc
 50
76.056743273
 51
90.5352582305
  0
LINE
  5
1BD
330
1F
100
AcDbEntity
  8
0
  6
Continuous
 62
     8
370
    18
100
AcDbLine
 10
1329.5831252044
 20
1429.6167802527
 30
0.0
 11
1329.6694583566
 21
1418.757081218
 31
0.0
  0
SPLINE
  5
1BE
330
1F
100
AcDbEntity
  8
0
  6
Continuous
 62
     8
370
    18
100
AcDbSpline
210
0.0
220
0.0
230
1.0
 70
     8
 71
     3
 72
     9
 73
     5
 74
     0
 42
0.000000001
 43
0.00000001
 40
0.0
 40
0.0
 40
0.0
 40
0.0
 40
0.3531288107769722
 40
1.0
 40
1.0
 40
1.0
 40
1.0
 10
1328.316146069568
 20
1429.467854754728
 30
0.0
 10
1328.316022630743
 20
1428.202861944926
 30
0.0
 10
1328.315673073241
 20
1424.620620079646
 30
0.0
 10
1328.316977905265
 20
1420.96996875489
 30
0.0
 10
1328.317821963508
 20
1418.608467591006
 30
0.0
  0
ARC
  5
1BF
330
1F
100
AcDbEntity
  8
0
  6
Continuous
 62
     8
370
    18
100
AcDbCircle
 10
1329.5358385817
 20
1424.5552138202
 30
0.0
 40
5.06178731042977
100
AcDbArc
 50
89.4647417695
 51
103.943256727
  0
SPLINE
  5
1C0
330
1F
100
AcDbEntity
  8
0
  6
Continuous
 62
     8
370
    18
100
AcDbSpline
210
0.0
220
0.0
230
1.0
 70
     8
 71
     3
 72
    10
 73
     6
 74
     0
 42
0.000000001
 43
0.00000001
 40
0.0
 40
0.0
 40
0.0
 40
0.0
 40
0.0049102993503903
 40
0.115164344171685
 40
1.0
 40
1.0
 40
1.0
 40
1.0
 10
1248.312563545113
 20
1418.605348915535
 30
0.0
 10
1248.312541447258
 20
1418.623284477621
 30
0.0
 10
1248.312023172339
 20
1419.043938514686
 30
0.0
 10
1248.306719348887
 20
1422.69272813986
 30
0.0
 10
1248.304305445301
 20
1426.266670430085
 30
0.0
 10
1248.302158997639
 20
1429.44462671704
 30
0.0
  0
ARC
  5
1C1
330
1F
100
AcDbEntity
  8
0
  6
Continuous
 62
     8
370
    18
100
AcDbCircle
 10
1249.5903992872
 20
1424.7222736686
 30
0.0
 40
4.894913825370225
100
AcDbArc
 50
89.2609157049
 51
105.2587981171
  0
SPLINE
  5
1C2
330
1F
100
AcDbEntity
  8
0
  6
Continuous
 62
     8
370
    18
100
AcDbSpline
210
0.0
220
0.0
230
1.0
 70
     8
 71
     3
 72
     9
 73
     5
 74
     0
 42
0.000000001
 43
0.00000001
 40
0.0
 40
0.0
 40
0.0
 40
0.0
 40
0.8536363424240656
 40
1.0
 40
1.0
 40
1.0
 40
1.0
 10
1249.703718597747
 20
1418.757081218049
 30
0.0
 10
1249.683070845233
 20
1421.868162100349
 30
0.0
 10
1249.658882849141
 20
1425.512665886897
 30
0.0
 10
1249.654221505116
 20
1429.092781445103
 30
0.0
 10
1249.653539253755
 20
1429.616780252746
 30
0.0
  0
SPLINE
  5
1C3
330
1F
100
AcDbEntity
  8
0
  6
Continuous
 62
     8
370
    18
100
AcDbSpline
210
0.0
220
0.0
230
1.0
 70
     8
 71
     3
 72
     9
 73
     5
 74
     0
 42
0.000000001
 43
0.00000001
 40
0.0
 40
0.0
 40
0.0
 40
0.0
 40
0.8536363424240656
 40
1.0
 40
1.0
 40
1.0
 40
1.0
 10
1335.850545110987
 20
1418.757081218049
 30
0.0
 10
1335.871192863501
 20
1421.868162100349
 30
0.0
 10
1335.895380859593
 20
1425.512665886897
 30
0.0
 10
1335.900042203618
 20
1429.092781445103
 30
0.0
 10
1335.900724454979
 20
1429.616780252746
 30
0.0
  0
ARC
  5
1C4
330
1F
100
AcDbEntity
  8
0
  6
Continuous
 62
     8
370
    18
100
AcDbCircle
 10
1335.9638644216
 20
1424.7222736686
 30
0.0
 40
4.894913825374772
100
AcDbArc
 50
74.7412018829
 51
90.7390842951
  0
SPLINE
  5
1C5
330
1F
100
AcDbEntity
  8
0
  6
Continuous
 62
     8
370
    18
100
AcDbSpline
210
0.0
220
0.0
230
1.0
 70
     8
 71
     3
 72
    10
 73
     6
 74
     0
 42
0.000000001
 43
0.00000001
 40
0.0
 40
0.0
 40
0.0
 40
0.0
 40
0.0049102993503903
 40
0.115164344171685
 40
1.0
 40
1.0
 40
1.0
 40
1.0
 10
1337.241700163621
 20
1418.605348915535
 30
0.0
 10
1337.241722261476
 20
1418.623284477621
 30
0.0
 10
1337.242240536395
 20
1419.043938514686
 30
0.0
 10
1337.247544359848
 20
1422.69272813986
 30
0.0
 10
1337.249958263433
 20
1426.266670430085
 30
0.0
 10
1337.252104711096
 20
1429.44462671704
 30
0.0
  0
LINE
  5
1C6
330
1F
100
AcDbEntity
  8
0
  6
Continuous
 62
     8
370
    18
100
AcDbLine
 10
1329.5831252044
 20
1429.6167802527
 30
0.0
 11
1335.900724455
 21
1429.6167802527
 31
0.0
  0
LINE
  5
1C7
330
1F
100
AcDbEntity
  8
0
  6
Continuous
 62
     8
370
    18
100
AcDbLine
 10
1255.9711385043
 20
1429.6167802527
 30
0.0
 11
1249.6535392538
 21
1429.6167802527
 31
0.0
  0
ARC
  5
1C8
330
1F
100
AcDbEntity
  8
0
  6
Continuous
 62
     8
370
    18
100
AcDbCircle
 10
1326.5060990976
 20
1436.9025699636
 30
0.0
 40
7.651879525836721
100
AcDbArc
 50
269.2050001421
 51
283.6829680609
  0
ARC
  5
1C9
330
1F
100
AcDbEntity
  8
0
  6
Continuous
 62
     8
370
    18
100
AcDbCircle
 10
1259.0481646111
 20
1436.9025699636
 30
0.0
 40
7.651879525836721
100
AcDbArc
 50
256.3170319391
 51
270.7949998579
  0
ARC
  5
1CA
330
1F
100
AcDbEntity
  8
0
  6
Continuous
 62
     8
370
    18
100
AcDbCircle
 10
1339.1590850772
 20
1436.4868785696
 30
0.0
 40
7.295881391044357
100
AcDbArc
 50
254.8481769985
 51
270.3838864582
  0
ARC
  5
1CB
330
1F
100
AcDbEntity
  8
0
  6
Continuous
 62
     8
370
    18
100
AcDbCircle
 10
1246.3951786315
 20
1436.4868785696
 30
0.0
 40
7.295881391048294
100
AcDbArc
 50
269.6161135418
 51
285.1518230015
  0
LINE
  5
1CC
330
1F
100
AcDbEntity
  8
0
  6
Continuous
 62
     8
370
    18
100
AcDbLine
 10
1246.4355148222
 20
1379.8454903531
 30
0.0
 11
1246.4493017735
 21
1379.6883784936
 31
0.0
  0
SPLINE
  5
1CD
330
1F
100
AcDbEntity
  8
0
  6
Continuous
 62
     8
370
    18
100
AcDbSpline
210
0.0
220
0.0
230
1.0
 70
     8
 71
     3
 72
    14
 73
    10
 74
     0
 42
0.000000001
 43
0.00000001
 40
0.0
 40
0.0
 40
0.0
 40
0.0
 40
0.2135072054013611
 40
0.6517504153255613
 40
0.8731400298126232
 40
0.9340362681777997
 40
0.9607431005770671
 40
0.9801118651181869
 40
1.0
 40
1.0
 40
1.0
 40
1.0
 10
1246.449301773456
 20
1379.68837849362
 30
0.0
 10
1246.505549024628
 20
1379.094509625091
 30
0.0
 10
1246.677248940999
 20
1377.281670189602
 30
0.0
 10
1247.034734913968
 20
1375.227646227521
 30
0.0
 10
1247.486458798425
 20
1373.896189834891
 30
0.0
 10
1247.985497880233
 20
1373.44561926443
 30
0.0
 10
1248.255700213259
 20
1373.336739955584
 30
0.0
 10
1248.455768443314
 20
1373.297294017118
 30
0.0
 10
1248.581621441748
 20
1373.29667429278
 30
0.0
 10
1248.645380461051
 20
1373.296360331123
 30
0.0
  0
LINE
  5
1CE
330
1F
100
AcDbEntity
  8
0
  6
Continuous
 62
     8
370
    18
100
AcDbLine
 10
1248.6453804611
 20
1373.2963603311
 30
0.0
 11
1256.9387300511
 21
1373.5148783726
 31
0.0
  0
SPLINE
  5
1CF
330
1F
100
AcDbEntity
  8
0
  6
Continuous
 62
     8
370
    18
100
AcDbSpline
210
0.0
220
0.0
230
1.0
 70
     8
 71
     3
 72
    16
 73
    12
 74
     0
 42
0.000000001
 43
0.00000001
 40
0.0
 40
0.0
 40
0.0
 40
0.0
 40
0.0145165189494729
 40
0.041073550409797
 40
0.066044914974584
 40
0.1244471088434255
 40
0.1776973916031254
 40
0.2535931192178166
 40
0.3633556422017156
 40
0.5223716192680048
 40
1.0
 40
1.0
 40
1.0
 40
1.0
 10
1256.938730051143
 20
1373.514878372575
 30
0.0
 10
1256.981392344789
 20
1373.516945522278
 30
0.0
 10
1257.10210254224
 20
1373.522794388513
 30
0.0
 10
1257.281263821937
 20
1373.56804976898
 30
0.0
 10
1257.520582988649
 20
1373.6821076241
 30
0.0
 10
1257.72815772866
 20
1373.87048273601
 30
0.0
 10
1257.93345153335
 20
1374.157865556243
 30
0.0
 10
1258.130517594656
 20
1374.557410149532
 30
0.0
 10
1258.345496838519
 20
1375.18640523677
 30
0.0
 10
1258.703941989378
 20
1376.678075226377
 30
0.0
 10
1258.884738562598
 20
1378.273057172557
 30
0.0
 10
1259.020377202054
 20
1379.469657181525
 30
0.0
  0
LINE
  5
1D0
330
1F
100
AcDbEntity
  8
0
  6
Continuous
 62
     8
370
    18
100
AcDbLine
 10
1259.0203772021
 20
1379.4696571815
 30
0.0
 11
1259.0453194461
 21
1379.7209987407
 31
0.0
  0
SPLINE
  5
1D1
330
1F
100
AcDbEntity
  8
0
  6
Continuous
 62
     8
370
    18
100
AcDbSpline
210
0.0
220
0.0
230
1.0
 70
     8
 71
     3
 72
     9
 73
     5
 74
     0
 42
0.000000001
 43
0.00000001
 40
0.0
 40
0.0
 40
0.0
 40
0.0
 40
0.0094533958096251
 40
1.0
 40
1.0
 40
1.0
 40
1.0
 10
1292.777131854367
 20
1371.399248789417
 30
0.0
 10
1292.767923762689
 20
1371.399248812394
 30
0.0
 10
1291.793872547278
 20
1371.399251242994
 30
0.0
 10
1290.822013958799
 20
1371.524574144216
 30
0.0
 10
1289.859342734227
 20
1371.648712318449
 30
0.0
  0
SPLINE
  5
1D2
330
1F
100
AcDbEntity
  8
0
  6
Continuous
 62
     8
370
    18
100
AcDbSpline
210
0.0
220
0.0
230
1.0
 70
     8
 71
     3
 72
    12
 73
     8
 74
     0
 42
0.000000001
 43
0.00000001
 40
0.0
 40
0.0
 40
0.0
 40
0.0
 40
0.0986927005379105
 40
0.3626715646535657
 40
0.6320534788937999
 40
0.8140997464528014
 40
1.0
 40
1.0
 40
1.0
 40
1.0
 10
1288.863776183429
 20
1371.734640396317
 30
0.0
 10
1288.249441209507
 20
1371.775620465097
 30
0.0
 10
1285.99191025738
 20
1371.926212206766
 30
0.0
 10
1282.110836822214
 20
1373.034367489115
 30
0.0
 10
1277.833578712307
 20
1374.850400833771
 30
0.0
 10
1274.179858912381
 20
1377.110037658234
 30
0.0
 10
1272.256812815067
 20
1378.847813751846
 30
0.0
 10
1271.285218475762
 20
1379.725802801558
 30
0.0
  0
LINE
  5
1D3
330
1F
100
AcDbEntity
  8
0
  6
Continuous
 62
     8
370
    18
100
AcDbLine
 10
1256.9242407475
 20
1373.6583373463
 30
0.0
 11
1248.6117829307
 21
1373.4398193048
 31
0.0
  0
SPLINE
  5
1D4
330
1F
100
AcDbEntity
  8
0
  6
Continuous
 62
     8
370
    18
100
AcDbSpline
210
0.0
220
0.0
230
1.0
 70
     8
 71
     3
 72
    10
 73
     6
 74
     0
 42
0.000000001
 43
0.00000001
 40
0.0
 40
0.0
 40
0.0
 40
0.0
 40
0.445489637819774
 40
0.7187778752024849
 40
1.0
 40
1.0
 40
1.0
 40
1.0
 10
1248.61178293072
 20
1373.439819304821
 30
0.0
 10
1248.836843765533
 20
1374.051479989299
 30
0.0
 10
1249.19996949261
 20
1375.038367516663
 30
0.0
 10
1249.435034029004
 20
1377.11507938561
 30
0.0
 10
1249.533839630119
 20
1378.477785907539
 30
0.0
 10
1249.583949281774
 20
1379.168887913398
 30
0.0
  0
LINE
  5
1D5
330
1F
100
AcDbEntity
  8
0
  6
Continuous
 62
     8
370
    18
100
AcDbLine
 10
1249.5839492818
 20
1379.1688879134
 30
0.0
 11
1249.6461293749
 21
1381.3395210092
 31
0.0
  0
LINE
  5
1D6
330
1F
100
AcDbEntity
  8
0
  6
Continuous
 62
     8
370
    18
100
AcDbLine
 10
1255.9891318683
 20
1381.3395210092
 30
0.0
 11
1256.0564582436
 21
1379.0416074789
 31
0.0
  0
SPLINE
  5
1D7
330
1F
100
AcDbEntity
  8
0
  6
Continuous
 62
     8
370
    18
100
AcDbSpline
210
0.0
220
0.0
230
1.0
 70
     8
 71
     3
 72
    10
 73
     6
 74
     0
 42
0.000000001
 43
0.00000001
 40
0.0
 40
0.0
 40
0.0
 40
0.0
 40
0.5085358280598293
 40
0.7966056673011384
 40
1.0
 40
1.0
 40
1.0
 40
1.0
 10
1256.056458243649
 20
1379.041607478934
 30
0.0
 10
1256.14550080832
 20
1377.916786087448
 30
0.0
 10
1256.284983235583
 20
1376.154788120504
 30
0.0
 10
1256.586906247086
 20
1374.523017805415
 30
0.0
 10
1256.825498449409
 20
1373.911440825342
 30
0.0
 10
1256.924240747523
 20
1373.658337346273
 30
0.0
  0
LINE
  5
1D8
330
1F
100
AcDbEntity
  8
0
  6
Continuous
 62
     8
370
    18
100
AcDbLine
 10
1329.5651318404
 20
1381.3395210092
 30
0.0
 11
1329.4978054651
 21
1379.0416074789
 31
0.0
  0
LINE
  5
1D9
330
1F
100
AcDbEntity
  8
0
  6
Continuous
 62
     8
370
    18
100
AcDbLine
 10
1335.970314427
 20
1379.1688879134
 30
0.0
 11
1335.9081343338
 21
1381.3395210092
 31
0.0
  0
SPLINE
  5
1DA
330
1F
100
AcDbEntity
  8
0
  6
Continuous
 62
     8
370
    18
100
AcDbSpline
210
0.0
220
0.0
230
1.0
 70
     8
 71
     3
 72
    10
 73
     6
 74
     0
 42
0.000000001
 43
0.00000001
 40
0.0
 40
0.0
 40
0.0
 40
0.0
 40
0.445489637819774
 40
0.718777875202486
 40
1.0
 40
1.0
 40
1.0
 40
1.0
 10
1336.942480778014
 20
1373.439819304821
 30
0.0
 10
1336.717419943201
 20
1374.051479989299
 30
0.0
 10
1336.354294216125
 20
1375.038367516663
 30
0.0
 10
1336.11922967973
 20
1377.11507938561
 30
0.0
 10
1336.020424078615
 20
1378.477785907539
 30
0.0
 10
1335.970314426961
 20
1379.168887913398
 30
0.0
  0
LINE
  5
1DB
330
1F
100
AcDbEntity
  8
0
  6
Continuous
 62
     8
370
    18
100
AcDbLine
 10
1328.6300229612
 20
1373.6583373463
 30
0.0
 11
1336.942480778
 21
1373.4398193048
 31
0.0
  0
SPLINE
  5
1DC
330
1F
100
AcDbEntity
  8
0
  6
Continuous
 62
     8
370
    18
100
AcDbSpline
210
0.0
220
0.0
230
1.0
 70
     8
 71
     3
 72
    10
 73
     6
 74
     0
 42
0.000000001
 43
0.00000001
 40
0.0
 40
0.0
 40
0.0
 40
0.0
 40
0.50853582805983
 40
0.7966056673011387
 40
1.0
 40
1.0
 40
1.0
 40
1.0
 10
1329.497805465086
 20
1379.041607478934
 30
0.0
 10
1329.408762900414
 20
1377.916786087448
 30
0.0
 10
1329.269280473151
 20
1376.154788120504
 30
0.0
 10
1328.967357461648
 20
1374.523017805415
 30
0.0
 10
1328.728765259326
 20
1373.911440825342
 30
0.0
 10
1328.630022961211
 20
1373.658337346273
 30
0.0
  0
LINE
  5
1DD
330
1F
100
AcDbEntity
  8
0
  6
Continuous
 62
     8
370
    18
100
AcDbLine
 10
1257.2377371491
 20
1381.5086117191
 30
0.0
 11
1257.2358808431
 21
1379.5752425265
 31
0.0
  0
LINE
  5
1DE
330
1F
100
AcDbEntity
  8
0
  6
Continuous
 62
     8
370
    18
100
AcDbLine
 10
1257.2358808431
 20
1379.5752425265
 30
0.0
 11
1257.2356861204
 21
1379.3159316451
 31
0.0
  0
ARC
  5
1DF
330
1F
100
AcDbEntity
  8
0
  6
Continuous
 62
     8
370
    18
100
AcDbCircle
 10
1255.9084963666
 20
1382.3493614021
 30
0.0
 40
3.31106157194486
100
AcDbArc
 50
272.5612375306
 51
293.6303960838
  0
LINE
  5
1E0
330
1F
100
AcDbEntity
  8
0
  6
Continuous
 62
     8
370
    18
100
AcDbLine
 10
1248.3023866102
 20
1379.4871036993
 30
0.0
 11
1248.3028390621
 21
1379.6506408761
 31
0.0
  0
LINE
  5
1E1
330
1F
100
AcDbEntity
  8
0
  6
Continuous
 62
     8
370
    18
100
AcDbLine
 10
1248.3028390621
 20
1379.6506408761
 30
0.0
 11
1248.3035310425
 21
1381.5405926359
 31
0.0
  0
ARC
  5
1E2
330
1F
100
AcDbEntity
  8
0
  6
Continuous
 62
     8
370
    18
100
AcDbCircle
 10
1249.7154932267
 20
1382.438411109
 30
0.0
 40
3.272168353910906
100
AcDbArc
 50
244.4145746888
 51
267.6960401779
  0
LINE
  5
1E3
330
1F
100
AcDbEntity
  8
0
  6
Continuous
 62
     8
370
    18
100
AcDbLine
 10
1337.2514246466
 20
1379.6506408761
 30
0.0
 11
1337.2507326663
 21
1381.5405926359
 31
0.0
  0
LINE
  5
1E4
330
1F
100
AcDbEntity
  8
0
  6
Continuous
 62
     8
370
    18
100
AcDbLine
 10
1337.2518770985
 20
1379.4871036993
 30
0.0
 11
1337.2514246466
 21
1379.6506408761
 31
0.0
  0
ARC
  5
1E5
330
1F
100
AcDbEntity
  8
0
  6
Continuous
 62
     8
370
    18
100
AcDbCircle
 10
1335.8387704821
 20
1382.4384111091
 30
0.0
 40
3.272168353913668
100
AcDbArc
 50
272.3039598221
 51
295.5854253112
  0
ARC
  5
1E6
330
1F
100
AcDbEntity
  8
0
  6
Continuous
 62
     8
370
    18
100
AcDbCircle
 10
1329.6457673421
 20
1382.3493614021
 30
0.0
 40
3.311061571944777
100
AcDbArc
 50
246.3696039162
 51
267.4387624694
  0
LINE
  5
1E7
330
1F
100
AcDbEntity
  8
0
  6
Continuous
 62
     8
370
    18
100
AcDbLine
 10
1328.3183828657
 20
1379.5752425265
 30
0.0
 11
1328.3185775883
 21
1379.3159316451
 31
0.0
  0
LINE
  5
1E8
330
1F
100
AcDbEntity
  8
0
  6
Continuous
 62
     8
370
    18
100
AcDbLine
 10
1328.3165265596
 20
1381.5086117191
 30
0.0
 11
1328.3183828657
 21
1379.5752425265
 31
0.0
  0
LINE
  5
1E9
330
1F
100
AcDbEntity
  8
0
  6
Continuous
 62
     8
370
    18
100
AcDbLine
 10
1326.5338865067
 20
1379.4696571815
 30
0.0
 11
1326.5089442626
 21
1379.7209987407
 31
0.0
  0
SPLINE
  5
1EA
330
1F
100
AcDbEntity
  8
0
  6
Continuous
 62
     8
370
    18
100
AcDbSpline
210
0.0
220
0.0
230
1.0
 70
     8
 71
     3
 72
    16
 73
    12
 74
     0
 42
0.000000001
 43
0.00000001
 40
0.0
 40
0.0
 40
0.0
 40
0.0
 40
0.0145165189495134
 40
0.0410735504098391
 40
0.0660449149746275
 40
0.1244471088434725
 40
0.1776973916031756
 40
0.2535931192178713
 40
0.3633556422018379
 40
0.5223716192680692
 40
1.0
 40
1.0
 40
1.0
 40
1.0
 10
1328.615533657592
 20
1373.514878372575
 30
0.0
 10
1328.572871363945
 20
1373.516945522278
 30
0.0
 10
1328.452161166495
 20
1373.522794388513
 30
0.0
 10
1328.272999886797
 20
1373.56804976898
 30
0.0
 10
1328.033680720086
 20
1373.6821076241
 30
0.0
 10
1327.826105980074
 20
1373.87048273601
 30
0.0
 10
1327.620812175384
 20
1374.157865556243
 30
0.0
 10
1327.423746114079
 20
1374.557410149532
 30
0.0
 10
1327.208766870216
 20
1375.186405236772
 30
0.0
 10
1326.850321719354
 20
1376.678075226376
 30
0.0
 10
1326.669525146151
 20
1378.273057172558
 30
0.0
 10
1326.533886506709
 20
1379.469657181527
 30
0.0
  0
LINE
  5
1EB
330
1F
100
AcDbEntity
  8
0
  6
Continuous
 62
     8
370
    18
100
AcDbLine
 10
1336.9088832477
 20
1373.2963603311
 30
0.0
 11
1328.6155336576
 21
1373.5148783726
 31
0.0
  0
SPLINE
  5
1EC
330
1F
100
AcDbEntity
  8
0
  6
Continuous
 62
     8
370
    18
100
AcDbSpline
210
0.0
220
0.0
230
1.0
 70
     8
 71
     3
 72
    14
 73
    10
 74
     0
 42
0.000000001
 43
0.00000001
 40
0.0
 40
0.0
 40
0.0
 40
0.0
 40
0.21350720540147
 40
0.6517504153256265
 40
0.8731400298126403
 40
0.9340362681778087
 40
0.9607431005770725
 40
0.9801118651181896
 40
1.0
 40
1.0
 40
1.0
 40
1.0
 10
1339.104961935258
 20
1379.688378493623
 30
0.0
 10
1339.048714684094
 20
1379.094509625093
 30
0.0
 10
1338.877014767747
 20
1377.281670189602
 30
0.0
 10
1338.519528794764
 20
1375.227646227521
 30
0.0
 10
1338.067804910309
 20
1373.896189834891
 30
0.0
 10
1337.568765828502
 20
1373.44561926443
 30
0.0
 10
1337.298563495475
 20
1373.336739955584
 30
0.0
 10
1337.09849526542
 20
1373.297294017118
 30
0.0
 10
1336.972642266987
 20
1373.29667429278
 30
0.0
 10
1336.908883247683
 20
1373.296360331123
 30
0.0
  0
LINE
  5
1ED
330
1F
100
AcDbEntity
  8
0
  6
Continuous
 62
     8
370
    18
100
AcDbLine
 10
1339.1187488865
 20
1379.8454903531
 30
0.0
 11
1339.1049619353
 21
1379.6883784936
 31
0.0
  0
SPLINE
  5
1EE
330
1F
100
AcDbEntity
  8
0
  6
Continuous
 62
     8
370
    18
100
AcDbSpline
210
0.0
220
0.0
230
1.0
 70
     8
 71
     3
 72
    15
 73
    11
 74
     0
 42
0.000000001
 43
0.00000001
 40
0.0
 40
0.0
 40
0.0
 40
0.0
 40
0.0014239395057858
 40
0.135106108557625
 40
0.289221605215442
 40
0.4462432513906067
 40
0.5840152296265024
 40
0.7248088485654306
 40
0.8605044118101306
 40
1.0
 40
1.0
 40
1.0
 40
1.0
 10
1361.823914261438
 20
1371.399248789417
 30
0.0
 10
1361.829414329353
 20
1371.39925170888
 30
0.0
 10
1362.351271311159
 20
1371.399528713135
 30
0.0
 10
1363.401301505687
 20
1371.485883151726
 30
0.0
 10
1364.795545239307
 20
1371.951695791395
 30
0.0
 10
1365.946641832927
 20
1372.842235110597
 30
0.0
 10
1366.803173617469
 20
1374.125996185716
 30
0.0
 10
1367.346519227737
 20
1375.742016574493
 30
0.0
 10
1367.621808201136
 20
1377.722565290264
 30
0.0
 10
1367.519916923409
 20
1379.305696189908
 30
0.0
 10
1367.468267792818
 20
1380.108192109112
 30
0.0
  0
SPLINE
  5
1EF
330
1F
100
AcDbEntity
  8
0
  6
Continuous
 62
     8
370
    18
100
AcDbSpline
210
0.0
220
0.0
230
1.0
 70
     8
 71
     3
 72
    12
 73
     8
 74
     0
 42
0.000000001
 43
0.00000001
 40
0.0
 40
0.0
 40
0.0
 40
0.0
 40
0.1729070209294322
 40
0.3500592529376602
 40
0.6008939024630688
 40
0.8574899875492359
 40
1.0
 40
1.0
 40
1.0
 40
1.0
 10
1314.269045232972
 20
1379.725802801558
 30
0.0
 10
1313.319819860546
 20
1378.866339029207
 30
0.0
 10
1311.398063745873
 20
1377.126309940401
 30
0.0
 10
1307.778124427852
 20
1374.88299819227
 30
0.0
 10
1303.47952608621
 20
1373.035861878844
 30
0.0
 10
1299.282402534368
 20
1371.867605060588
 30
0.0
 10
1296.670159620332
 20
1371.709008948726
 30
0.0
 10
1295.737398200497
 20
1371.652378558923
 30
0.0
  0
SPLINE
  5
1F0
330
1F
100
AcDbEntity
  8
0
  6
Continuous
 62
     8
370
    18
100
AcDbSpline
210
0.0
220
0.0
230
1.0
 70
     8
 71
     3
 72
     9
 73
     5
 74
     0
 42
0.000000001
 43
0.00000001
 40
0.0
 40
0.0
 40
0.0
 40
0.0
 40
0.9809099457843521
 40
1.0
 40
1.0
 40
1.0
 40
1.0
 10
1294.222042100461
 20
1371.521587064515
 30
0.0
 10
1293.749961621086
 20
1371.460907425149
 30
0.0
 10
1293.268693711218
 20
1371.399046864322
 30
0.0
 10
1292.786340012624
 20
1371.399245006865
 30
0.0
 10
1292.777131854367
 20
1371.399248789417
 30
0.0
  0
ARC
  5
1F1
330
1F
100
AcDbEntity
  8
0
  6
Continuous
 62
     8
370
    18
100
AcDbCircle
 10
1258.5880286512
 20
1374.0936788121
 30
0.0
 40
5.645869680600873
100
AcDbArc
 50
85.3542029002
 51
103.8566348578
  0
ARC
  5
1F2
330
1F
100
AcDbEntity
  8
0
  6
Continuous
 62
     8
370
    18
100
AcDbCircle
 10
1326.9662350576
 20
1374.0936788121
 30
0.0
 40
5.645869680600757
100
AcDbArc
 50
76.1433651422
 51
94.6457970998
  0
ARC
  5
1F3
330
1F
100
AcDbEntity
  8
0
  6
Continuous
 62
     8
370
    18
100
AcDbCircle
 10
1338.7506692978
 20
1374.3278510671
 30
0.0
 40
5.529902881133183
100
AcDbArc
 50
86.1834753415
 51
105.7306807766
  0
ARC
  5
1F4
330
1F
100
AcDbEntity
  8
0
  6
Continuous
 62
     8
370
    18
100
AcDbCircle
 10
1246.803594411
 20
1374.3278510671
 30
0.0
 40
5.529902881134545
100
AcDbArc
 50
74.2693192234
 51
93.8165246585
  0
SPLINE
  5
1F5
330
1F
100
AcDbEntity
  8
0
  6
Continuous
 62
     8
370
    18
100
AcDbSpline
210
0.0
220
0.0
230
1.0
 70
     8
 71
     3
 72
    15
 73
    11
 74
     0
 42
0.000000001
 43
0.00000001
 40
0.0
 40
0.0
 40
0.0
 40
0.0
 40
0.0247383799946505
 40
0.0492201071029638
 40
0.0751567027976506
 40
0.1186953964311377
 40
0.2418825692051104
 40
0.4816368506398225
 40
0.8380569172747737
 40
1.0
 40
1.0
 40
1.0
 40
1.0
 10
1329.194904292305
 20
1433.462919854542
 30
0.0
 10
1329.154831970734
 20
1433.463819495653
 30
0.0
 10
1329.075103065285
 20
1433.465609444382
 30
0.0
 10
1328.960591135674
 20
1433.425228417394
 30
0.0
 10
1328.8413812401
 20
1433.346364861528
 30
0.0
 10
1328.652557768164
 20
1433.136428185707
 30
0.0
 10
1328.428750884776
 20
1432.600703856889
 30
0.0
 10
1328.333712465666
 20
1431.596909677533
 30
0.0
 10
1328.317608513088
 20
1430.494964498255
 30
0.0
 10
1328.316494196045
 20
1429.712352468139
 30
0.0
 10
1328.316146069568
 20
1429.467854754728
 30
0.0
  0
SPLINE
  5
1F6
330
1F
100
AcDbEntity
  8
0
  6
Continuous
 62
     8
370
    18
100
AcDbSpline
210
0.0
220
0.0
230
1.0
 70
     8
 71
     3
 72
     9
 73
     5
 74
     0
 42
0.000000001
 43
0.00000001
 40
0.0
 40
0.0
 40
0.0
 40
0.0
 40
0.3204572925053681
 40
1.0
 40
1.0
 40
1.0
 40
1.0
 10
1329.194904292305
 20
1433.462919854542
 30
0.0
 10
1329.270092458014
 20
1433.107919495455
 30
0.0
 10
1329.504720183666
 20
1432.000126452858
 30
0.0
 10
1329.551402545729
 20
1430.581081739391
 30
0.0
 10
1329.583125204437
 20
1429.616780252746
 30
0.0
  0
SPLINE
  5
1F7
330
1F
100
AcDbEntity
  8
0
  6
Continuous
 62
     8
370
    18
100
AcDbSpline
210
0.0
220
0.0
230
1.0
 70
     8
 71
     3
 72
    15
 73
    11
 74
     0
 42
0.000000001
 43
0.00000001
 40
0.0
 40
0.0
 40
0.0
 40
0.0
 40
0.0247383799946505
 40
0.0492201071029638
 40
0.0751567027976506
 40
0.1186953964311377
 40
0.2418825692051104
 40
0.4816368506398225
 40
0.8380569172747737
 40
1.0
 40
1.0
 40
1.0
 40
1.0
 10
1256.359359416429
 20
1433.462919854542
 30
0.0
 10
1256.399431738
 20
1433.463819495653
 30
0.0
 10
1256.479160643449
 20
1433.465609444382
 30
0.0
 10
1256.59367257306
 20
1433.425228417394
 30
0.0
 10
1256.712882468634
 20
1433.346364861528
 30
0.0
 10
1256.901705940571
 20
1433.136428185707
 30
0.0
 10
1257.125512823958
 20
1432.600703856889
 30
0.0
 10
1257.220551243068
 20
1431.596909677533
 30
0.0
 10
1257.236655195646
 20
1430.494964498255
 30
0.0
 10
1257.237769512689
 20
1429.712352468139
 30
0.0
 10
1257.238117639166
 20
1429.467854754728
 30
0.0
  0
SPLINE
  5
1F8
330
1F
100
AcDbEntity
  8
0
  6
Continuous
 62
     8
370
    18
100
AcDbSpline
210
0.0
220
0.0
230
1.0
 70
     8
 71
     3
 72
     9
 73
     5
 74
     0
 42
0.000000001
 43
0.00000001
 40
0.0
 40
0.0
 40
0.0
 40
0.0
 40
0.3204572925053681
 40
1.0
 40
1.0
 40
1.0
 40
1.0
 10
1256.359359416429
 20
1433.462919854542
 30
0.0
 10
1256.28417125072
 20
1433.107919495455
 30
0.0
 10
1256.049543525068
 20
1432.000126452858
 30
0.0
 10
1256.002861163005
 20
1430.581081739391
 30
0.0
 10
1255.971138504297
 20
1429.616780252746
 30
0.0
  0
SPLINE
  5
1F9
330
1F
100
AcDbEntity
  8
0
  6
Continuous
 62
     8
370
    18
100
AcDbSpline
210
0.0
220
0.0
230
1.0
 70
     8
 71
     3
 72
    15
 73
    11
 74
     0
 42
0.000000001
 43
0.00000001
 40
0.0
 40
0.0
 40
0.0
 40
0.0
 40
0.3092031051605944
 40
0.6638382552574952
 40
0.8039861739636708
 40
0.9077221477257726
 40
0.9361281220494162
 40
0.9546919441403818
 40
0.9789089794125909
 40
1.0
 40
1.0
 40
1.0
 40
1.0
 10
1248.302158997639
 20
1429.44462671704
 30
0.0
 10
1248.302899047907
 20
1429.932346226768
 30
0.0
 10
1248.304487886024
 20
1430.979447187236
 30
0.0
 10
1248.314678554979
 20
1432.180633089925
 30
0.0
 10
1248.511684352496
 20
1433.03671077047
 30
0.0
 10
1248.716537872925
 20
1433.398840439458
 30
0.0
 10
1248.902626508645
 20
1433.548183136912
 30
0.0
 10
1249.008990190704
 20
1433.597542480337
 30
0.0
 10
1249.117660427184
 20
1433.618344201562
 30
0.0
 10
1249.19295448969
 20
1433.608303366966
 30
0.0
 10
1249.228004076177
 20
1433.603629331739
 30
0.0
  0
SPLINE
  5
1FA
330
1F
100
AcDbEntity
  8
0
  6
Continuous
 62
     8
370
    18
100
AcDbSpline
210
0.0
220
0.0
230
1.0
 70
     8
 71
     3
 72
     9
 73
     5
 74
     0
 42
0.000000001
 43
0.00000001
 40
0.0
 40
0.0
 40
0.0
 40
0.0
 40
0.6310361367052206
 40
1.0
 40
1.0
 40
1.0
 40
1.0
 10
1249.653539253755
 20
1429.616780252746
 30
0.0
 10
1249.623633518404
 20
1430.55326163083
 30
0.0
 10
1249.57624204015
 20
1432.037299269266
 30
0.0
 10
1249.321861356108
 20
1433.181471226226
 30
0.0
 10
1249.228004076177
 20
1433.603629331739
 30
0.0
  0
SPLINE
  5
1FB
330
1F
100
AcDbEntity
  8
0
  6
Continuous
 62
     8
370
    18
100
AcDbSpline
210
0.0
220
0.0
230
1.0
 70
     8
 71
     3
 72
     9
 73
     5
 74
     0
 42
0.000000001
 43
0.00000001
 40
0.0
 40
0.0
 40
0.0
 40
0.0
 40
0.6310361367052206
 40
1.0
 40
1.0
 40
1.0
 40
1.0
 10
1335.900724454979
 20
1429.616780252746
 30
0.0
 10
1335.93063019033
 20
1430.55326163083
 30
0.0
 10
1335.978021668585
 20
1432.037299269266
 30
0.0
 10
1336.232402352626
 20
1433.181471226226
 30
0.0
 10
1336.326259632558
 20
1433.603629331739
 30
0.0
  0
SPLINE
  5
1FC
330
1F
100
AcDbEntity
  8
0
  6
Continuous
 62
     8
370
    18
100
AcDbSpline
210
0.0
220
0.0
230
1.0
 70
     8
 71
     3
 72
    15
 73
    11
 74
     0
 42
0.000000001
 43
0.00000001
 40
0.0
 40
0.0
 40
0.0
 40
0.0
 40
0.3092031051605944
 40
0.6638382552574952
 40
0.8039861739636708
 40
0.9077221477257726
 40
0.9361281220494162
 40
0.9546919441403818
 40
0.9789089794125909
 40
1.0
 40
1.0
 40
1.0
 40
1.0
 10
1337.252104711096
 20
1429.44462671704
 30
0.0
 10
1337.251364660827
 20
1429.932346226768
 30
0.0
 10
1337.24977582271
 20
1430.979447187236
 30
0.0
 10
1337.239585153755
 20
1432.180633089925
 30
0.0
 10
1337.042579356238
 20
1433.03671077047
 30
0.0
 10
1336.837725835809
 20
1433.398840439458
 30
0.0
 10
1336.651637200089
 20
1433.548183136912
 30
0.0
 10
1336.54527351803
 20
1433.597542480337
 30
0.0
 10
1336.43660328155
 20
1433.618344201562
 30
0.0
 10
1336.361309219045
 20
1433.608303366966
 30
0.0
 10
1336.326259632558
 20
1433.603629331739
 30
0.0
  0
LINE
  5
1FD
330
1F
100
AcDbEntity
  8
0
  6
Continuous
 62
     8
370
    18
100
AcDbLine
 10
1336.3262596326
 20
1433.6036293317
 30
0.0
 11
1329.1949042923
 21
1433.4629198545
 31
0.0
  0
LINE
  5
1FE
330
1F
100
AcDbEntity
  8
0
  6
Continuous
 62
     8
370
    18
100
AcDbLine
 10
1249.2280040762
 20
1433.6036293317
 30
0.0
 11
1256.3593594164
 21
1433.4629198545
 31
0.0
  0
ARC
  5
1FF
330
1F
100
AcDbEntity
  8
0
  6
Continuous
 62
     8
370
    18
100
AcDbCircle
 10
1162.6036797547
 20
1436.5284171461
 30
0.0
 40
93.80578203116538
100
AcDbArc
 50
358.1272867192
 51
358.5922936384
  0
ARC
  5
200
330
1F
100
AcDbEntity
  8
0
  6
Continuous
 62
     8
370
    18
100
AcDbCircle
 10
1422.950583954
 20
1436.5284171461
 30
0.0
 40
93.80578203116538
100
AcDbArc
 50
181.4077063616
 51
181.8727132808
  0
ARC
  5
201
330
1F
100
AcDbEntity
  8
0
  6
Continuous
 62
     8
370
    18
100
AcDbCircle
 10
1376.8987427435
 20
1436.5291249967
 30
0.0
 40
40.6778184109905
100
AcDbArc
 50
183.0752748857
 51
184.1241982496
  0
ARC
  5
202
330
1F
100
AcDbEntity
  8
0
  6
Continuous
 62
     8
370
    18
100
AcDbCircle
 10
1208.6555209618
 20
1436.5291249969
 30
0.0
 40
40.67781841440339
100
AcDbArc
 50
355.8758017505
 51
356.9247251143
  0
SPLINE
  5
203
330
1F
100
AcDbEntity
  8
0
  6
Continuous
 62
     8
370
    18
100
AcDbSpline
210
0.0
220
0.0
230
1.0
 70
     8
 71
     3
 72
    19
 73
    15
 74
     0
 42
0.000000001
 43
0.00000001
 40
0.0
 40
0.0
 40
0.0
 40
0.0
 40
0.5108655809785174
 40
0.6773161886274564
 40
0.7897294814090562
 40
0.8649135704138771
 40
0.9149987759643977
 40
0.9638937301973748
 40
0.9805048002912535
 40
0.9864047265890652
 40
0.9923573643452019
 40
0.9937773259466396
 40
0.9978992913798034
 40
1.0
 40
1.0
 40
1.0
 40
1.0
 10
1328.318577588292
 20
1379.31593164512
 30
0.0
 10
1328.317627950273
 20
1378.136834223326
 30
0.0
 10
1328.31636890048
 20
1376.573562393151
 30
0.0
 10
1328.314602057239
 20
1375.151661282555
 30
0.0
 10
1328.321692132836
 20
1374.569742971775
 30
0.0
 10
1328.338792474792
 20
1374.208439620244
 30
0.0
 10
1328.371980181212
 20
1373.958449652705
 30
0.0
 10
1328.413654345052
 20
1373.800261703339
 30
0.0
 10
1328.481889280796
 20
1373.709429362528
 30
0.0
 10
1328.527177327414
 20
1373.678124520764
 30
0.0
 10
1328.556084246661
 20
1373.666321218732
 30
0.0
 10
1328.585294643161
 20
1373.65982924944
 30
0.0
 10
1328.606793112416
 20
1373.657514271074
 30
0.0
 10
1328.624160063213
 20
1373.658129613283
 30
0.0
 10
1328.630022961211
 20
1373.658337346273
 30
0.0
  0
ARC
  5
204
330
1F
100
AcDbEntity
  8
0
  6
Continuous
 62
     8
370
    18
100
AcDbCircle
 10
1326.9617101492
 20
1373.9998837204
 30
0.0
 40
5.486479270454864
100
AcDbArc
 50
75.6815438811
 51
94.4723396601
  0
ARC
  5
205
330
1F
100
AcDbEntity
  8
0
  6
Continuous
 62
     8
370
    18
100
AcDbCircle
 10
1335.8109306998
 20
1372.8606071098
 30
0.0
 40
7.225081970514093
100
AcDbArc
 50
173.6609778953
 51
174.8044317994
  0
SPLINE
  5
206
330
1F
100
AcDbEntity
  8
0
  6
Continuous
 62
     8
370
    18
100
AcDbSpline
210
0.0
220
0.0
230
1.0
 70
     8
 71
     3
 72
    19
 73
    15
 74
     0
 42
0.000000001
 43
0.00000001
 40
0.0
 40
0.0
 40
0.0
 40
0.0
 40
0.5108655809785173
 40
0.6773161886274562
 40
0.7897294814090561
 40
0.864913570413877
 40
0.9149987759643976
 40
0.9638937301973747
 40
0.9805048002912534
 40
0.9864047265890651
 40
0.9923573643452023
 40
0.9937773259466397
 40
0.9978992913798035
 40
1.0
 40
1.0
 40
1.0
 40
1.0
 10
1257.235686120442
 20
1379.31593164512
 30
0.0
 10
1257.236635758461
 20
1378.136834223326
 30
0.0
 10
1257.237894808253
 20
1376.573562393151
 30
0.0
 10
1257.239661651495
 20
1375.151661282555
 30
0.0
 10
1257.232571575898
 20
1374.569742971775
 30
0.0
 10
1257.215471233942
 20
1374.208439620244
 30
0.0
 10
1257.182283527522
 20
1373.958449652705
 30
0.0
 10
1257.140609363682
 20
1373.800261703339
 30
0.0
 10
1257.072374427938
 20
1373.709429362528
 30
0.0
 10
1257.02708638132
 20
1373.678124520764
 30
0.0
 10
1256.998179462073
 20
1373.666321218731
 30
0.0
 10
1256.968969065573
 20
1373.65982924944
 30
0.0
 10
1256.947470596318
 20
1373.657514271074
 30
0.0
 10
1256.930103645521
 20
1373.658129613283
 30
0.0
 10
1256.924240747523
 20
1373.658337346273
 30
0.0
  0
ARC
  5
207
330
1F
100
AcDbEntity
  8
0
  6
Continuous
 62
     8
370
    18
100
AcDbCircle
 10
1258.5925535595
 20
1373.9998837204
 30
0.0
 40
5.486479270481278
100
AcDbArc
 50
85.5276603397
 51
104.3184561189
  0
ARC
  5
208
330
1F
100
AcDbEntity
  8
0
  6
Continuous
 62
     8
370
    18
100
AcDbCircle
 10
1249.743333009
 20
1372.8606071098
 30
0.0
 40
7.225081970398487
100
AcDbArc
 50
5.1955682008
 51
6.3390221049
  0
SPLINE
  5
209
330
1F
100
AcDbEntity
  8
0
  6
Continuous
 62
     8
370
    18
100
AcDbSpline
210
0.0
220
0.0
230
1.0
 70
     8
 71
     3
 72
    17
 73
    13
 74
     0
 42
0.000000001
 43
0.00000001
 40
0.0
 40
0.0
 40
0.0
 40
0.0
 40
0.0045109817899505
 40
0.0089278415503376
 40
0.0130797684277631
 40
0.0177777921768899
 40
0.0339670776357902
 40
0.0840600072516062
 40
0.3047425979556591
 40
0.7692822253149071
 40
0.8273200843747955
 40
1.0
 40
1.0
 40
1.0
 40
1.0
 10
1336.942480778014
 20
1373.439819304821
 30
0.0
 10
1336.955450269035
 20
1373.438055516009
 30
0.0
 10
1336.981118641513
 20
1373.434564739995
 30
0.0
 10
1337.021994651606
 20
1373.436279275792
 30
0.0
 10
1337.059355341708
 20
1373.444600181642
 30
0.0
 10
1337.115285364628
 20
1373.469270233078
 30
0.0
 10
1337.199791495508
 20
1373.56248242489
 30
0.0
 10
1337.294066486647
 20
1373.966426366216
 30
0.0
 10
1337.26126638155
 20
1375.157539735467
 30
0.0
 10
1337.26060906484
 20
1376.754652262039
 30
0.0
 10
1337.254683369288
 20
1378.441302098978
 30
0.0
 10
1337.253078361222
 20
1379.039433976732
 30
0.0
 10
1337.25187709852
 20
1379.487103699294
 30
0.0
  0
ARC
  5
20A
330
1F
100
AcDbEntity
  8
0
  6
Continuous
 62
     8
370
    18
100
AcDbCircle
 10
1339.7073755069
 20
1372.7166280855
 30
0.0
 40
2.857909795941849
100
AcDbArc
 50
165.3419899914
 51
168.2962236796
  0
ARC
  5
20B
330
1F
100
AcDbEntity
  8
0
  6
Continuous
 62
     8
370
    18
100
AcDbCircle
 10
1338.7564755032
 20
1374.2657295324
 30
0.0
 40
5.433835160342873
100
AcDbArc
 50
86.3229443242
 51
106.0749385639
  0
SPLINE
  5
20C
330
1F
100
AcDbEntity
  8
0
  6
Continuous
 62
     8
370
    18
100
AcDbSpline
210
0.0
220
0.0
230
1.0
 70
     8
 71
     3
 72
    17
 73
    13
 74
     0
 42
0.000000001
 43
0.00000001
 40
0.0
 40
0.0
 40
0.0
 40
0.0
 40
0.0045109817899505
 40
0.0089278415503376
 40
0.0130797684277631
 40
0.0177777921768899
 40
0.0339670776357902
 40
0.0840600072516062
 40
0.3047425979556591
 40
0.7692822253149071
 40
0.8273200843747955
 40
1.0
 40
1.0
 40
1.0
 40
1.0
 10
1248.61178293072
 20
1373.439819304821
 30
0.0
 10
1248.598813439699
 20
1373.438055516009
 30
0.0
 10
1248.573145067221
 20
1373.434564739995
 30
0.0
 10
1248.532269057128
 20
1373.436279275792
 30
0.0
 10
1248.494908367026
 20
1373.444600181642
 30
0.0
 10
1248.438978344106
 20
1373.469270233078
 30
0.0
 10
1248.354472213226
 20
1373.56248242489
 30
0.0
 10
1248.260197222087
 20
1373.966426366216
 30
0.0
 10
1248.292997327184
 20
1375.157539735467
 30
0.0
 10
1248.293654643894
 20
1376.754652262039
 30
0.0
 10
1248.299580339446
 20
1378.441302098978
 30
0.0
 10
1248.301185347512
 20
1379.039433976732
 30
0.0
 10
1248.302386610214
 20
1379.487103699294
 30
0.0
  0
ARC
  5
20D
330
1F
100
AcDbEntity
  8
0
  6
Continuous
 62
     8
370
    18
100
AcDbCircle
 10
1245.8468882023
 20
1372.7166280856
 30
0.0
 40
2.857909795439329
100
AcDbArc
 50
11.7037763201
 51
14.6580100088
  0
ARC
  5
20E
330
1F
100
AcDbEntity
  8
0
  6
Continuous
 62
     8
370
    18
100
AcDbCircle
 10
1246.7977882056
 20
1374.2657295324
 30
0.0
 40
5.433835160399935
100
AcDbArc
 50
73.9250614362
 51
93.6770556759
  0
SPLINE
  5
20F
330
1F
100
AcDbEntity
  8
0
  6
Continuous
 62
     8
370
    18
100
AcDbSpline
210
0.0
220
0.0
230
1.0
 70
     8
 71
     3
 72
    20
 73
    16
 74
     0
 42
0.000000001
 43
0.00000001
 40
0.0
 40
0.0
 40
0.0
 40
0.0
 40
0.0177553498927665
 40
0.0895541770723949
 40
0.1635124813712812
 40
0.2505819007214778
 40
0.3150328805895259
 40
0.3805147797652316
 40
0.4675444081230345
 40
0.5694410813320726
 40
0.6754503316775967
 40
0.7871440412594523
 40
0.8785532165774713
 40
0.9388623767392659
 40
1.0
 40
1.0
 40
1.0
 40
1.0
 10
1368.915678989604
 20
1380.661304829767
 30
0.0
 10
1368.904975059403
 20
1380.910413188909
 30
0.0
 10
1368.850986731022
 20
1382.166862329006
 30
0.0
 10
1368.915769039702
 20
1384.650009286296
 30
0.0
 10
1369.358777981705
 20
1388.445890759832
 30
0.0
 10
1370.113640796204
 20
1392.299033860006
 30
0.0
 10
1371.02393238418
 20
1396.052848933287
 30
0.0
 10
1372.020898749254
 20
1399.80400011207
 30
0.0
 10
1373.224796353765
 20
1404.140737053517
 30
0.0
 10
1374.500741651659
 20
1408.958207703365
 30
0.0
 10
1375.771918308055
 20
1413.697118058224
 30
0.0
 10
1376.963614314485
 20
1417.613585967783
 30
0.0
 10
1377.969209749837
 20
1420.293796760605
 30
0.0
 10
1378.699189791943
 20
1422.045479664923
 30
0.0
 10
1379.022976695323
 20
1422.76368191562
 30
0.0
 10
1379.185974521678
 20
1423.125232690295
 30
0.0
  0
ARC
  5
210
330
1F
100
AcDbEntity
  8
0
  6
Continuous
 62
     8
370
    18
100
AcDbCircle
 10
1369.5454591891
 20
1376.8428836282
 30
0.0
 40
3.870008213483283
100
AcDbArc
 50
99.3655973717
 51
122.4620469832
  0
ARC
  5
211
330
1F
100
AcDbEntity
  8
0
  6
Continuous
 62
     8
370
    18
100
AcDbCircle
 10
1371.9358826193
 20
1420.049967854
 30
0.0
 40
7.87534674831254
100
AcDbArc
 50
22.4525517109
 51
22.9851555298
  0
SPLINE
  5
212
330
1F
100
AcDbEntity
  8
0
  6
Continuous
 62
     8
370
    18
100
AcDbSpline
210
0.0
220
0.0
230
1.0
 70
     8
 71
     3
 72
    19
 73
    15
 74
     0
 42
0.000000001
 43
0.00000001
 40
0.0
 40
0.0
 40
0.0
 40
0.0
 40
0.0812843755281375
 40
0.1625926981205919
 40
0.2503967158277944
 40
0.3382767484838726
 40
0.4242704765567137
 40
0.510246220949112
 40
0.5965701789596967
 40
0.6829065819723052
 40
0.7657398742054035
 40
0.8485711078275142
 40
0.9243009273350651
 40
1.0
 40
1.0
 40
1.0
 40
1.0
 10
1368.981736290311
 20
1380.670823614972
 30
0.0
 10
1368.972865802521
 20
1381.848782035023
 30
0.0
 10
1368.955122213619
 20
1384.205045911636
 30
0.0
 10
1369.434698243503
 20
1388.30046461618
 30
0.0
 10
1370.290451071972
 20
1392.678268577816
 30
0.0
 10
1371.414195143903
 20
1397.215630737947
 30
0.0
 10
1372.630211761236
 20
1401.687282779343
 30
0.0
 10
1373.81363363268
 20
1406.012254221171
 30
0.0
 10
1374.886424046325
 20
1410.106609738267
 30
0.0
 10
1375.887124757164
 20
1413.803848376089
 30
0.0
 10
1376.86005043586
 20
1417.01294291783
 30
0.0
 10
1377.770772385443
 20
1419.617806815201
 30
0.0
 10
1378.608302328151
 20
1421.690724598829
 30
0.0
 10
1379.012293173382
 20
1422.602107341202
 30
0.0
 10
1379.214247581886
 20
1423.057706186645
 30
0.0
  0
ARC
  5
213
330
1F
100
AcDbEntity
  8
0
  6
Continuous
 62
     8
370
    18
100
AcDbCircle
 10
1365.8774223793
 20
1401.9797938252
 30
0.0
 40
21.53390295043999
100
AcDbArc
 50
278.1110275313
 51
278.2886032807
  0
SPLINE
  5
214
330
1F
100
AcDbEntity
  8
0
  6
Continuous
 62
     8
370
    18
100
AcDbSpline
210
0.0
220
0.0
230
1.0
 70
     8
 71
     3
 72
    30
 73
    26
 74
     0
 42
0.000000001
 43
0.00000001
 40
0.0
 40
0.0
 40
0.0
 40
0.0
 40
0.0367442153817575
 40
0.0737232841850677
 40
0.1110413367406516
 40
0.148808577200663
 40
0.188870720856045
 40
0.2291780738353257
 40
0.2702466874566161
 40
0.3115759369700019
 40
0.3541334999732086
 40
0.3969808370193868
 40
0.4407360718523627
 40
0.4848040276228703
 40
0.5276706400319179
 40
0.570826668246634
 40
0.6148725539342165
 40
0.6592220198760967
 40
0.7025795290829526
 40
0.7462563583192048
 40
0.7910386023489433
 40
0.8362596963443323
 40
0.9039599048262004
 40
0.9728711860774644
 40
1.0
 40
1.0
 40
1.0
 40
1.0
 10
1382.093629523497
 20
1420.733582501935
 30
0.0
 10
1381.979109314627
 20
1420.576301278571
 30
0.0
 10
1381.749336932341
 20
1420.260733557051
 30
0.0
 10
1381.330465347754
 20
1419.616533346848
 30
0.0
 10
1380.86773609827
 20
1418.847591882977
 30
0.0
 10
1380.356458544092
 20
1417.926819343546
 30
0.0
 10
1379.80833731209
 20
1416.852656325767
 30
0.0
 10
1379.231933938994
 20
1415.616543297328
 30
0.0
 10
1378.651706610122
 20
1414.238638848261
 30
0.0
 10
1378.062282351011
 20
1412.712026291877
 30
0.0
 10
1377.459138252566
 20
1411.048483053177
 30
0.0
 10
1376.834102418034
 20
1409.247456237782
 30
0.0
 10
1376.187369830697
 20
1407.331996374375
 30
0.0
 10
1375.522261272261
 20
1405.337894891025
 30
0.0
 10
1374.831416401603
 20
1403.294958266576
 30
0.0
 10
1374.114349196833
 20
1401.210305877341
 30
0.0
 10
1373.380042935823
 20
1399.06896818537
 30
0.0
 10
1372.653217991496
 20
1396.901178089738
 30
0.0
 10
1371.95777866101
 20
1394.726121026088
 30
0.0
 10
1371.311232884185
 20
1392.540577802479
 30
0.0
 10
1370.732241732914
 20
1390.333364546863
 30
0.0
 10
1370.168914787527
 20
1387.760649453509
 30
0.0
 10
1369.733215063309
 20
1384.876840521441
 30
0.0
 10
1369.602851171302
 20
1382.430417246972
 30
0.0
 10
1369.653991450206
 20
1381.112778164374
 30
0.0
 10
1369.668437240871
 20
1380.740579600596
 30
0.0
  0
ARC
  5
215
330
1F
100
AcDbEntity
  8
0
  6
Continuous
 62
     8
370
    18
100
AcDbCircle
 10
1369.8038178551
 20
1375.9929147228
 30
0.0
 40
4.749594688244458
100
AcDbArc
 50
91.6333580123
 51
99.9672112785
  0
ARC
  5
216
330
1F
100
AcDbEntity
  8
0
  6
Continuous
 62
     8
370
    18
100
AcDbCircle
 10
1382.2065448711
 20
1423.8191850857
 30
0.0
 40
3.087667919413792
100
AcDbArc
 50
194.2775571614
 51
267.9042384386
  0
SPLINE
  5
217
330
1F
100
AcDbEntity
  8
0
  6
Continuous
 62
     8
370
    18
100
AcDbSpline
210
0.0
220
0.0
230
1.0
 70
     8
 71
     3
 72
     9
 73
     5
 74
     0
 42
0.000000001
 43
0.00000001
 40
0.0
 40
0.0
 40
0.0
 40
0.0
 40
0.4955319650024687
 40
1.0
 40
1.0
 40
1.0
 40
1.0
 10
1382.674966280894
 20
1421.399248789417
 30
0.0
 10
1382.628711172317
 20
1421.371161270589
 30
0.0
 10
1382.53536682353
 20
1421.314479722655
 30
0.0
 10
1382.241749884016
 20
1420.928365024831
 30
0.0
 10
1382.093629523497
 20
1420.733582501935
 30
0.0
  0
SPLINE
  5
218
330
1F
100
AcDbEntity
  8
0
  6
Continuous
 62
     8
370
    18
100
AcDbSpline
210
0.0
220
0.0
230
1.0
 70
     8
 71
     3
 72
    10
 73
     6
 74
     0
 42
0.000000001
 43
0.00000001
 40
0.0
 40
0.0
 40
0.0
 40
0.0
 40
0.4337470054426096
 40
0.8726448366891221
 40
1.0
 40
1.0
 40
1.0
 40
1.0
 10
1366.005833642817
 20
1372.169820009773
 30
0.0
 10
1365.972874691708
 20
1371.975737426004
 30
0.0
 10
1365.906565395858
 20
1371.585267491937
 30
0.0
 10
1365.830119723699
 20
1371.414270103979
 30
0.0
 10
1365.786861092231
 20
1371.402006891304
 30
0.0
 10
1365.777131854367
 20
1371.399248789417
 30
0.0
  0
SPLINE
  5
219
330
1F
100
AcDbEntity
  8
0
  6
Continuous
 62
     8
370
    18
100
AcDbSpline
210
0.0
220
0.0
230
1.0
 70
     8
 71
     3
 72
    13
 73
     9
 74
     0
 42
0.000000001
 43
0.00000001
 40
0.0
 40
0.0
 40
0.0
 40
0.0
 40
0.1663795665670601
 40
0.3327993424822734
 40
0.5326933616013211
 40
0.7327069656730665
 40
0.9440944502581979
 40
1.0
 40
1.0
 40
1.0
 40
1.0
 10
1369.668437240871
 20
1380.740579600596
 30
0.0
 10
1369.67843183329
 20
1380.037854064328
 30
0.0
 10
1369.698423433545
 20
1378.632233162431
 30
0.0
 10
1369.365656595593
 20
1376.676905170309
 30
0.0
 10
1368.699151646532
 20
1374.916051628019
 30
0.0
 10
1367.719020197844
 20
1373.420504683654
 30
0.0
 10
1366.535294161789
 20
1372.612447361892
 30
0.0
 10
1366.097417526035
 20
1372.246383852162
 30
0.0
 10
1366.005833642817
 20
1372.169820009773
 30
0.0
  0
SPLINE
  5
21A
330
1F
100
AcDbEntity
  8
0
  6
Continuous
 62
     8
370
    18
100
AcDbSpline
210
0.0
220
0.0
230
1.0
 70
     8
 71
     3
 72
    12
 73
     8
 74
     0
 42
0.000000001
 43
0.00000001
 40
0.0
 40
0.0
 40
0.0
 40
0.0
 40
0.258425414975085
 40
0.5253727836647584
 40
0.6325637335472097
 40
0.8141005554129469
 40
1.0
 40
1.0
 40
1.0
 40
1.0
 10
1365.777131854368
 20
1372.168653138069
 30
0.0
 10
1366.283437501325
 20
1372.550878715131
 30
0.0
 10
1367.312744959928
 20
1373.327934313274
 30
0.0
 10
1368.158856009696
 20
1374.943010518293
 30
0.0
 10
1368.670075089537
 20
1376.669299986201
 30
0.0
 10
1368.952291880338
 20
1378.351322373781
 30
0.0
 10
1368.927979507926
 20
1379.885239871359
 30
0.0
 10
1368.915678989604
 20
1380.661304829767
 30
0.0
  0
SPLINE
  5
21B
330
1F
100
AcDbEntity
  8
0
  6
Continuous
 62
     8
370
    18
100
AcDbSpline
210
0.0
220
0.0
230
1.0
 70
     8
 71
     3
 72
    11
 73
     7
 74
     0
 42
0.000000001
 43
0.00000001
 40
0.0
 40
0.0
 40
0.0
 40
0.0
 40
0.282197853171518
 40
0.5662711511816111
 40
0.995686545031333
 40
1.0
 40
1.0
 40
1.0
 40
1.0
 10
1365.777131854368
 20
1372.168653138069
 30
0.0
 10
1365.450007188755
 20
1372.03077739921
 30
0.0
 10
1364.793583835796
 20
1371.754109619896
 30
0.0
 10
1363.500712586614
 20
1371.474682607574
 30
0.0
 10
1362.48041660631
 20
1371.399528496447
 30
0.0
 10
1361.830378918566
 20
1371.399251543725
 30
0.0
 10
1361.823914261438
 20
1371.399248789417
 30
0.0
  0
SPLINE
  5
21C
330
1F
100
AcDbEntity
  8
0
  6
Continuous
 62
     8
370
    18
100
AcDbSpline
210
0.0
220
0.0
230
1.0
 70
     8
 71
     3
 72
    14
 73
    10
 74
     0
 42
0.000000001
 43
0.00000001
 40
0.0
 40
0.0
 40
0.0
 40
0.0
 40
0.0665232667018164
 40
0.1346138509585659
 40
0.270526373188616
 40
0.467909457036936
 40
0.6697252416072346
 40
0.8332896955030696
 40
1.0
 40
1.0
 40
1.0
 40
1.0
 10
1365.965474503679
 20
1372.16988117259
 30
0.0
 10
1366.05261245191
 20
1372.261537910421
 30
0.0
 10
1366.228941356932
 20
1372.447010859322
 30
0.0
 10
1366.763581480431
 20
1372.872328560375
 30
0.0
 10
1367.433401239791
 20
1373.629602159835
 30
0.0
 10
1368.191961029287
 20
1374.927867593126
 30
0.0
 10
1368.725631178118
 20
1376.665616367503
 30
0.0
 10
1369.007400735116
 20
1378.593181823789
 30
0.0
 10
1368.990345256108
 20
1379.973892617429
 30
0.0
 10
1368.981736290311
 20
1380.670823614972
 30
0.0
  0
ARC
  5
21D
330
1F
100
AcDbEntity
  8
0
  6
Continuous
 62
     8
370
    18
100
AcDbCircle
 10
1365.7771320578
 20
1386.6122149446
 30
0.0
 40
14.44356180651153
100
AcDbArc
 50
269.999999193
 51
270.7471517927
  0
ARC
  5
21E
330
1F
100
AcDbEntity
  8
0
  6
Continuous
 62
     8
370
    18
100
AcDbCircle
 10
1365.9809684964
 20
1369.0780072245
 30
0.0
 40
3.091912769532188
100
AcDbArc
 50
89.5392226723
 51
90.2871180956
  0
SPLINE
  5
21F
330
1F
100
AcDbEntity
  8
0
  6
Continuous
 62
     8
370
    18
100
AcDbSpline
210
0.0
220
0.0
230
1.0
 70
     8
 71
     3
 72
    10
 73
     6
 74
     0
 42
0.000000001
 43
0.00000001
 40
0.0
 40
0.0
 40
0.0
 40
0.0
 40
0.0149525925089902
 40
0.5037698573839661
 40
1.0
 40
1.0
 40
1.0
 40
1.0
 10
1365.777131854367
 20
1371.399248789417
 30
0.0
 10
1365.778072432723
 20
1371.399289452557
 30
0.0
 10
1365.8097615879
 20
1371.400659440007
 30
0.0
 10
1365.87276164262
 20
1371.518261777087
 30
0.0
 10
1365.934415559822
 20
1371.951587723439
 30
0.0
 10
1365.965474503679
 20
1372.16988117259
 30
0.0
  0
LINE
  5
220
330
1F
100
AcDbEntity
  8
0
  6
Continuous
 62
     8
370
    18
100
AcDbLine
 10
1365.7771318544
 20
1371.3992487894
 30
0.0
 11
1365.7771318544
 21
1372.1686531381
 31
0.0
  0
SPLINE
  5
221
330
1F
100
AcDbEntity
  8
0
  6
Continuous
 62
     8
370
    18
100
AcDbSpline
210
0.0
220
0.0
230
1.0
 70
     8
 71
     3
 72
     9
 73
     5
 74
     0
 42
0.000000001
 43
0.00000001
 40
0.0
 40
0.0
 40
0.0
 40
0.0
 40
0.4953932977280406
 40
1.0
 40
1.0
 40
1.0
 40
1.0
 10
1379.214247581886
 20
1423.057706186645
 30
0.0
 10
1379.333522533984
 20
1423.31717928535
 30
0.0
 10
1379.574290732998
 20
1423.840951205347
 30
0.0
 10
1379.651482936808
 20
1424.000127738489
 30
0.0
 10
1379.690434640214
 20
1424.080449283957
 30
0.0
  0
LINE
  5
222
330
1F
100
AcDbEntity
  8
0
  6
Continuous
 62
     8
370
    18
100
AcDbLine
 10
1755.2771318544
 20
1451.845687289
 30
0.0
 11
1755.2771318544
 21
1452.845687289
 31
0.0
  0
LINE
  5
223
330
1F
100
AcDbEntity
  8
0
  6
Continuous
 62
     8
370
    18
100
AcDbLine
 10
830.2771318544
 20
1452.845687289
 30
0.0
 11
830.2771318544
 21
1451.845687289
 31
0.0
  0
LINE
  5
224
330
1F
100
AcDbEntity
  8
0
  6
Continuous
 62
     8
370
    18
100
AcDbLine
 10
850.7771318544
 20
1446.1198278106
 30
0.0
 11
852.7771318544
 21
1446.1198278106
 31
0.0
  0
LINE
  5
225
330
1F
100
AcDbEntity
  8
0
  6
Continuous
 62
     8
370
    18
100
AcDbLine
 10
852.7771318544
 20
1444.3072122365
 30
0.0
 11
850.7771318544
 21
1444.3072122365
 31
0.0
  0
LINE
  5
226
330
1F
100
AcDbEntity
  8
0
  6
Continuous
 62
     8
370
    18
100
AcDbLine
 10
850.7771318544
 20
1437.0489129519
 30
0.0
 11
852.7771318544
 21
1437.0489129519
 31
0.0
  0
LINE
  5
227
330
1F
100
AcDbEntity
  8
0
  6
Continuous
 62
     8
370
    18
100
AcDbLine
 10
852.7771318544
 20
1435.2362973778
 30
0.0
 11
850.7771318544
 21
1435.2362973778
 31
0.0
  0
LINE
  5
228
330
1F
100
AcDbEntity
  8
0
  6
Continuous
 62
     8
370
    18
100
AcDbLine
 10
850.7771318544
 20
1400.945687289
 30
0.0
 11
852.7771318544
 21
1400.945687289
 31
0.0
  0
LINE
  5
229
330
1F
100
AcDbEntity
  8
0
  6
Continuous
 62
     8
370
    18
100
AcDbLine
 10
1732.7771318544
 20
1446.1198278106
 30
0.0
 11
1734.7771318544
 21
1446.1198278106
 31
0.0
  0
LINE
  5
22A
330
1F
100
AcDbEntity
  8
0
  6
Continuous
 62
     8
370
    18
100
AcDbLine
 10
1734.7771318544
 20
1444.3072122365
 30
0.0
 11
1732.7771318544
 21
1444.3072122365
 31
0.0
  0
LINE
  5
22B
330
1F
100
AcDbEntity
  8
0
  6
Continuous
 62
     8
370
    18
100
AcDbLine
 10
1732.7771318544
 20
1437.0489129519
 30
0.0
 11
1734.7771318544
 21
1437.0489129519
 31
0.0
  0
LINE
  5
22C
330
1F
100
AcDbEntity
  8
0
  6
Continuous
 62
     8
370
    18
100
AcDbLine
 10
1734.7771318544
 20
1435.2362973778
 30
0.0
 11
1732.7771318544
 21
1435.2362973778
 31
0.0
  0
LINE
  5
22D
330
1F
100
AcDbEntity
  8
0
  6
Continuous
 62
     8
370
    18
100
AcDbLine
 10
1732.7771318544
 20
1400.945687289
 30
0.0
 11
1734.7771318544
 21
1400.945687289
 31
0.0
  0
LINE
  5
22E
330
1F
100
AcDbEntity
  8
0
  6
Continuous
 62
     7
370
    35
100
AcDbLine
 10
852.7771318544
 20
1051.4912284069
 30
0.0
 11
852.7771318544
 21
1054.3196555317
 31
0.0
  0
LINE
  5
22F
330
1F
100
AcDbEntity
  8
0
  6
Continuous
 62
     7
370
    35
100
AcDbLine
 10
1732.7771318544
 20
1054.4054419693
 30
0.0
 11
852.7771318544
 21
1054.4054419693
 31
0.0
  0
LINE
  5
230
330
1F
100
AcDbEntity
  8
0
  6
Continuous
 62
     7
370
    35
100
AcDbLine
 10
1732.7771318544
 20
1051.4054419693
 30
0.0
 11
852.7771318544
 21
1051.4054419693
 31
0.0
  0
LINE
  5
231
330
1F
100
AcDbEntity
  8
0
  6
Continuous
 62
     7
370
    35
100
AcDbLine
 10
1732.7771318544
 20
1054.3196555317
 30
0.0
 11
1732.7771318544
 21
1051.4912284069
 31
0.0
  0
LINE
  5
232
330
1F
100
AcDbEntity
  8
0
  6
Continuous
 62
     7
370
    35
100
AcDbLine
 10
852.7771318544
 20
987.4054419693
 30
0.0
 11
1732.7771318544
 21
987.4054419693
 31
0.0
  0
LINE
  5
233
330
1F
100
AcDbEntity
  8
0
  6
Continuous
 62
     7
370
    35
100
AcDbLine
 10
852.7771318544
 20
984.4054419693
 30
0.0
 11
1732.7771318544
 21
984.4054419693
 31
0.0
  0
LINE
  5
234
330
1F
100
AcDbEntity
  8
0
  6
Continuous
 62
     7
370
    35
100
AcDbLine
 10
852.7771318544
 20
984.4912284069
 30
0.0
 11
852.7771318544
 21
987.3196555317
 31
0.0
  0
LINE
  5
235
330
1F
100
AcDbEntity
  8
0
  6
Continuous
 62
     7
370
    35
100
AcDbLine
 10
1732.7771318544
 20
987.3196555317
 30
0.0
 11
1732.7771318544
 21
984.4912284069
 31
0.0
  0
LINE
  5
236
330
1F
100
AcDbEntity
  8
0
  6
Continuous
 62
     7
370
    35
100
AcDbLine
 10
1732.7771318544
 20
1055.4054419693
 30
0.0
 11
1732.7771318544
 21
1054.4054419693
 31
0.0
  0
LINE
  5
237
330
1F
100
AcDbEntity
  8
0
  6
Continuous
 62
     7
370
    35
100
AcDbLine
 10
852.7771318544
 20
1054.4054419693
 30
0.0
 11
852.7771318544
 21
1055.4054419693
 31
0.0
  0
LINE
  5
238
330
1F
100
AcDbEntity
  8
0
  6
Continuous
 62
     7
370
    35
100
AcDbLine
 10
1732.7771318544
 20
983.4054419693
 30
0.0
 11
1732.7771318544
 21
984.4054419693
 31
0.0
  0
LINE
  5
239
330
1F
100
AcDbEntity
  8
0
  6
Continuous
 62
     7
370
    35
100
AcDbLine
 10
852.7771318544
 20
984.4054419693
 30
0.0
 11
852.7771318544
 21
983.4054419693
 31
0.0
  0
LINE
  5
23A
330
1F
100
AcDbEntity
  8
0
  6
Continuous
 62
     7
370
    35
100
AcDbLine
 10
852.7771318544
 20
1084.9054419693
 30
0.0
 11
1732.7771318544
 21
1084.9054419693
 31
0.0
  0
LINE
  5
23B
330
1F
100
AcDbEntity
  8
0
  6
Continuous
 62
     7
370
    35
100
AcDbLine
 10
1732.7771318544
 20
1084.9054419693
 30
0.0
 11
1732.7771318544
 21
1055.4054419693
 31
0.0
  0
LINE
  5
23C
330
1F
100
AcDbEntity
  8
0
  6
Continuous
 62
     7
370
    35
100
AcDbLine
 10
852.7771318544
 20
1055.4054419693
 30
0.0
 11
852.7771318544
 21
1084.9054419693
 31
0.0
  0
LINE
  5
23D
330
1F
100
AcDbEntity
  8
0
  6
Continuous
 62
     7
370
    35
100
AcDbLine
 10
1732.7771318544
 20
953.9054419693
 30
0.0
 11
852.7771318544
 21
953.9054419693
 31
0.0
  0
LINE
  5
23E
330
1F
100
AcDbEntity
  8
0
  6
Continuous
 62
     7
370
    35
100
AcDbLine
 10
852.7771318544
 20
953.9054419693
 30
0.0
 11
852.7771318544
 21
983.4054419693
 31
0.0
  0
LINE
  5
23F
330
1F
100
AcDbEntity
  8
0
  6
Continuous
 62
     7
370
    35
100
AcDbLine
 10
1732.7771318544
 20
983.4054419693
 30
0.0
 11
1732.7771318544
 21
953.9054419693
 31
0.0
  0
SPLINE
  5
240
330
1F
100
AcDbEntity
  8
0
  6
Continuous
 62
     7
370
    35
100
AcDbSpline
210
0.0
220
0.0
230
1.0
 70
     8
 71
     3
 72
     8
 73
     4
 74
     0
 42
0.000000001
 43
0.00000001
 40
0.0
 40
0.0
 40
0.0
 40
0.0
 40
1.0
 40
1.0
 40
1.0
 40
1.0
 10
1345.777131854367
 20
1048.661226167912
 30
0.0
 10
1348.03425411138
 20
1048.661226167912
 30
0.0
 10
1350.291082829166
 20
1048.593234961868
 30
0.0
 10
1352.544394826255
 20
1048.462336343524
 30
0.0
  0
LINE
  5
241
330
1F
100
AcDbEntity
  8
0
  6
Continuous
 62
     7
370
    35
100
AcDbLine
 10
1239.7771318544
 20
1048.6612261679
 30
0.0
 11
1345.7771318544
 21
1048.6612261679
 31
0.0
  0
SPLINE
  5
242
330
1F
100
AcDbEntity
  8
0
  6
Continuous
 62
     7
370
    35
100
AcDbSpline
210
0.0
220
0.0
230
1.0
 70
     8
 71
     3
 72
     8
 73
     4
 74
     0
 42
0.000000001
 43
0.00000001
 40
0.0
 40
0.0
 40
0.0
 40
0.0
 40
1.0
 40
1.0
 40
1.0
 40
1.0
 10
1233.009868882479
 20
1048.462336343524
 30
0.0
 10
1235.263180572872
 20
1048.593234943839
 30
0.0
 10
1237.520004703136
 20
1048.661226167912
 30
0.0
 10
1239.777131854367
 20
1048.661226167912
 30
0.0
  0
SPLINE
  5
243
330
1F
100
AcDbEntity
  8
0
  6
Continuous
 62
     7
370
    35
100
AcDbSpline
210
0.0
220
0.0
230
1.0
 70
     8
 71
     3
 72
    22
 73
    18
 74
     0
 42
0.000000001
 43
0.00000001
 40
3.369126305560274
 40
3.369126305560274
 40
3.369126305560274
 40
3.369126305560274
 40
3.535853022596993
 40
3.535853022596993
 40
3.702579739633712
 40
3.702579739633712
 40
3.869306456670431
 40
3.869306456670431
 40
4.036033173707151
 40
4.036033173707151
 40
4.20275989074387
 40
4.20275989074387
 40
4.369486607780589
 40
4.369486607780589
 40
4.536213324817307
 40
4.536213324817307
 40
4.702940041854027
 40
4.702940041854027
 40
4.702940041854027
 40
4.702940041854027
 10
1209.778471080993
 20
1019.519029131087
 30
0.0
 10
1209.794224844574
 20
1021.186231714988
 30
0.0
 10
1209.949282062894
 20
1022.852076859874
 30
0.0
 10
1210.533711612454
 20
1026.134996501159
 30
0.0
 10
1210.963076334006
 20
1027.752018932176
 30
0.0
 10
1212.084219835691
 20
1030.892425994671
 30
0.0
 10
1212.775984196138
 20
1032.415770235525
 30
0.0
 10
1214.402748456243
 20
1035.326570350885
 30
0.0
 10
1215.337727433129
 20
1036.713988787877
 30
0.0
 10
1217.424996642507
 20
1039.314455383917
 30
0.0
 10
1218.5772600294
 20
1040.527470096833
 30
0.0
 10
1221.067146981158
 20
1042.745483225064
 30
0.0
 10
1222.404738522119
 20
1043.750453113207
 30
0.0
 10
1225.228190024427
 20
1045.52449958488
 30
0.0
 10
1226.7140136717
 20
1046.293553351355
 30
0.0
 10
1229.792725632046
 20
1047.57443271131
 30
0.0
 10
1231.385564846108
 20
1048.086239630551
 30
0.0
 10
1233.009868882479
 20
1048.462336343524
 30
0.0
  0
SPLINE
  5
244
330
1F
100
AcDbEntity
  8
0
  6
Continuous
 62
     7
370
    35
100
AcDbSpline
210
0.0
220
0.0
230
1.0
 70
     8
 71
     3
 72
     8
 73
     4
 74
     0
 42
0.000000001
 43
0.00000001
 40
0.0
 40
0.0
 40
0.0
 40
0.0
 40
0.0000569949035218
 40
0.0000569949035218
 40
0.0000569949035218
 40
0.0000569949035218
 10
1209.77746519363
 20
1019.462134756876
 30
0.0
 10
1209.77768841589
 20
1019.481101193201
 30
0.0
 10
1209.778023924124
 20
1019.500066639998
 30
0.0
 10
1209.778471080993
 20
1019.519029131087
 30
0.0
  0
SPLINE
  5
245
330
1F
100
AcDbEntity
  8
0
  6
Continuous
 62
     7
370
    35
100
AcDbSpline
210
0.0
220
0.0
230
1.0
 70
     8
 71
     3
 72
     8
 73
     4
 74
     0
 42
0.000000001
 43
0.00000001
 40
0.0
 40
0.0
 40
0.0
 40
0.0
 40
0.0000569949035218
 40
0.0000569949035218
 40
0.0000569949035218
 40
0.0000569949035218
 10
1375.775792627741
 20
1019.519029131087
 30
0.0
 10
1375.77623978461
 20
1019.500066639998
 30
0.0
 10
1375.776575292844
 20
1019.481101193201
 30
0.0
 10
1375.776798515104
 20
1019.462134756876
 30
0.0
  0
SPLINE
  5
246
330
1F
100
AcDbEntity
  8
0
  6
Continuous
 62
     7
370
    35
100
AcDbSpline
210
0.0
220
0.0
230
1.0
 70
     8
 71
     3
 72
    22
 73
    18
 74
     0
 42
0.000000001
 43
0.00000001
 40
1.580245265325559
 40
1.580245265325559
 40
1.580245265325559
 40
1.580245265325559
 40
1.746971982362278
 40
1.746971982362278
 40
1.913698699398998
 40
1.913698699398998
 40
2.080425416435717
 40
2.080425416435717
 40
2.247152133472436
 40
2.247152133472436
 40
2.413878850509155
 40
2.413878850509155
 40
2.580605567545874
 40
2.580605567545874
 40
2.747332284582593
 40
2.747332284582593
 40
2.914059001619312
 40
2.914059001619312
 40
2.914059001619312
 40
2.914059001619312
 10
1352.544394826255
 20
1048.462336343524
 30
0.0
 10
1354.168698862626
 20
1048.086239630551
 30
0.0
 10
1355.761538076689
 20
1047.57443271131
 30
0.0
 10
1358.840250037034
 20
1046.293553351355
 30
0.0
 10
1360.326073684308
 20
1045.52449958488
 30
0.0
 10
1363.149525186615
 20
1043.750453113207
 30
0.0
 10
1364.487116727576
 20
1042.745483225064
 30
0.0
 10
1366.977003679334
 20
1040.527470096833
 30
0.0
 10
1368.129267066228
 20
1039.314455383917
 30
0.0
 10
1370.216536275605
 20
1036.713988787877
 30
0.0
 10
1371.151515252491
 20
1035.326570350885
 30
0.0
 10
1372.778279512597
 20
1032.415770235525
 30
0.0
 10
1373.470043873043
 20
1030.892425994671
 30
0.0
 10
1374.591187374728
 20
1027.752018932176
 30
0.0
 10
1375.02055209628
 20
1026.134996501159
 30
0.0
 10
1375.604981645841
 20
1022.852076859874
 30
0.0
 10
1375.76003886416
 20
1021.186231714987
 30
0.0
 10
1375.775792627741
 20
1019.519029131087
 30
0.0
  0
SPLINE
  5
247
330
1F
100
AcDbEntity
  8
0
  6
Continuous
 62
     7
370
    35
100
AcDbSpline
210
0.0
220
0.0
230
1.0
 70
     8
 71
     3
 72
    14
 73
    10
 74
     0
 42
0.000000001
 43
0.00000001
 40
0.0
 40
0.0
 40
0.0
 40
0.0
 40
0.25
 40
0.25
 40
0.5
 40
0.5
 40
0.75
 40
0.75
 40
1.0
 40
1.0
 40
1.0
 40
1.0
 10
1352.544394826255
 20
1048.462134756875
 30
0.0
 10
1355.792983895232
 20
1047.709945731124
 30
0.0
 10
1358.914347933154
 20
1046.411321234069
 30
0.0
 10
1364.561250937768
 20
1042.863228290722
 30
0.0
 10
1367.085632461539
 20
1040.614487095289
 30
0.0
 10
1371.260170880295
 20
1035.413553903209
 30
0.0
 10
1372.909472122201
 20
1032.46242793927
 30
0.0
 10
1375.151759125571
 20
1026.181613814281
 30
0.0
 10
1375.744285286574
 20
1022.853213028601
 30
0.0
 10
1375.775792627741
 20
1019.518827544439
 30
0.0
  0
LINE
  5
248
330
1F
100
AcDbEntity
  8
0
  6
Continuous
 62
     7
370
    35
100
AcDbLine
 10
1352.5443948263
 20
1048.4623363435
 30
0.0
 11
1352.5443948263
 21
1048.4621347569
 31
0.0
  0
SPLINE
  5
249
330
1F
100
AcDbEntity
  8
0
  6
Continuous
 62
     7
370
    35
100
AcDbSpline
210
0.0
220
0.0
230
1.0
 70
     8
 71
     3
 72
    14
 73
    10
 74
     0
 42
0.000000001
 43
0.00000001
 40
0.0
 40
0.0
 40
0.0
 40
0.0
 40
0.2499999999999999
 40
0.2499999999999999
 40
0.4999999999999999
 40
0.4999999999999999
 40
0.7499999999999999
 40
0.7499999999999999
 40
1.0
 40
1.0
 40
1.0
 40
1.0
 10
1375.775792627741
 20
1019.292056394185
 30
0.0
 10
1375.744285286574
 20
1015.957670910023
 30
0.0
 10
1375.151759125571
 20
1012.629270124344
 30
0.0
 10
1372.909472122201
 20
1006.348455999354
 30
0.0
 10
1371.260170880295
 20
1003.397330035415
 30
0.0
 10
1367.085632461539
 20
998.196396843335
 30
0.0
 10
1364.561250937768
 20
995.9476556479027
 30
0.0
 10
1358.914347933154
 20
992.3995627045556
 30
0.0
 10
1355.792983895232
 20
991.1009382075
 30
0.0
 10
1352.544394826255
 20
990.3487491817488
 30
0.0
  0
ARC
  5
24A
330
1F
100
AcDbEntity
  8
0
  6
Continuous
 62
     7
370
    35
100
AcDbCircle
 10
1345.7771318544
 20
1019.4054419693
 30
0.0
 40
27.00000000000001
100
AcDbArc
 50
283.0367179551
 51
359.4586157013
  0
LINE
  5
24B
330
1F
100
AcDbEntity
  8
0
  6
Continuous
 62
     7
370
    35
100
AcDbLine
 10
1352.5443948263
 20
990.3485475951
 30
0.0
 11
1352.5443948263
 21
990.3487491817
 31
0.0
  0
SPLINE
  5
24C
330
1F
100
AcDbEntity
  8
0
  6
Continuous
 62
     7
370
    35
100
AcDbSpline
210
0.0
220
0.0
230
1.0
 70
     8
 71
     3
 72
    22
 73
    18
 74
     0
 42
0.000000001
 43
0.00000001
 40
3.369126305560276
 40
3.369126305560276
 40
3.369126305560276
 40
3.369126305560276
 40
3.535853022596996
 40
3.535853022596996
 40
3.702579739633714
 40
3.702579739633714
 40
3.869306456670433
 40
3.869306456670433
 40
4.036033173707152
 40
4.036033173707152
 40
4.20275989074387
 40
4.20275989074387
 40
4.369486607780589
 40
4.369486607780589
 40
4.536213324817308
 40
4.536213324817308
 40
4.702940041854027
 40
4.702940041854027
 40
4.702940041854027
 40
4.702940041854027
 10
1375.775792627741
 20
1019.291854807537
 30
0.0
 10
1375.76003886416
 20
1017.624652223637
 30
0.0
 10
1375.604981645841
 20
1015.95880707875
 30
0.0
 10
1375.02055209628
 20
1012.675887437465
 30
0.0
 10
1374.591187374728
 20
1011.058865006448
 30
0.0
 10
1373.470043873043
 20
1007.918457943953
 30
0.0
 10
1372.778279512597
 20
1006.3951137031
 30
0.0
 10
1371.151515252491
 20
1003.48431358774
 30
0.0
 10
1370.216536275605
 20
1002.096895150747
 30
0.0
 10
1368.129267066228
 20
999.4964285547068
 30
0.0
 10
1366.977003679334
 20
998.2834138417915
 30
0.0
 10
1364.487116727576
 20
996.0654007135605
 30
0.0
 10
1363.149525186615
 20
995.0604308254177
 30
0.0
 10
1360.326073684308
 20
993.2863843537441
 30
0.0
 10
1358.840250037034
 20
992.5173305872696
 30
0.0
 10
1355.761538076689
 20
991.2364512273139
 30
0.0
 10
1354.168698862626
 20
990.7246443080734
 30
0.0
 10
1352.544394826255
 20
990.3485475951004
 30
0.0
  0
SPLINE
  5
24D
330
1F
100
AcDbEntity
  8
0
  6
Continuous
 62
     7
370
    35
100
AcDbSpline
210
0.0
220
0.0
230
1.0
 70
     8
 71
     3
 72
    14
 73
    10
 74
     0
 42
0.000000001
 43
0.00000001
 40
0.0
 40
0.0
 40
0.0
 40
0.0
 40
0.25
 40
0.25
 40
0.5
 40
0.5
 40
0.75
 40
0.75
 40
1.0
 40
1.0
 40
1.0
 40
1.0
 10
1233.009868882479
 20
990.3487491817488
 30
0.0
 10
1229.761279813502
 20
991.1009382075
 30
0.0
 10
1226.63991577558
 20
992.3995627045558
 30
0.0
 10
1220.993012770966
 20
995.9476556479027
 30
0.0
 10
1218.468631247195
 20
998.196396843335
 30
0.0
 10
1214.29409282844
 20
1003.397330035415
 30
0.0
 10
1212.644791586533
 20
1006.348455999354
 30
0.0
 10
1210.402504583164
 20
1012.629270124344
 30
0.0
 10
1209.80997842216
 20
1015.957670910023
 30
0.0
 10
1209.778471080993
 20
1019.292056394185
 30
0.0
  0
ARC
  5
24E
330
1F
100
AcDbEntity
  8
0
  6
Continuous
 62
     7
370
    35
100
AcDbCircle
 10
1239.7771318544
 20
1019.4054419693
 30
0.0
 40
27.00000000000001
100
AcDbArc
 50
180.5413842987
 51
256.9632820449
  0
LINE
  5
24F
330
1F
100
AcDbEntity
  8
0
  6
Continuous
 62
     7
370
    35
100
AcDbLine
 10
1233.0098688825
 20
990.3485475951
 30
0.0
 11
1233.0098688825
 21
990.3487491817
 31
0.0
  0
SPLINE
  5
250
330
1F
100
AcDbEntity
  8
0
  6
Continuous
 62
     7
370
    35
100
AcDbSpline
210
0.0
220
0.0
230
1.0
 70
     8
 71
     3
 72
    22
 73
    18
 74
     0
 42
0.000000001
 43
0.00000001
 40
1.580245265325559
 40
1.580245265325559
 40
1.580245265325559
 40
1.580245265325559
 40
1.746971982362278
 40
1.746971982362278
 40
1.913698699398996
 40
1.913698699398996
 40
2.080425416435715
 40
2.080425416435715
 40
2.247152133472434
 40
2.247152133472434
 40
2.413878850509152
 40
2.413878850509152
 40
2.580605567545871
 40
2.580605567545871
 40
2.74733228458259
 40
2.74733228458259
 40
2.914059001619308
 40
2.914059001619308
 40
2.914059001619308
 40
2.914059001619308
 10
1233.009868882479
 20
990.3485475951004
 30
0.0
 10
1231.385564846108
 20
990.7246443080734
 30
0.0
 10
1229.792725632045
 20
991.2364512273139
 30
0.0
 10
1226.7140136717
 20
992.5173305872697
 30
0.0
 10
1225.228190024426
 20
993.2863843537441
 30
0.0
 10
1222.404738522119
 20
995.0604308254177
 30
0.0
 10
1221.067146981158
 20
996.0654007135605
 30
0.0
 10
1218.5772600294
 20
998.2834138417915
 30
0.0
 10
1217.424996642506
 20
999.4964285547069
 30
0.0
 10
1215.337727433129
 20
1002.096895150747
 30
0.0
 10
1214.402748456243
 20
1003.48431358774
 30
0.0
 10
1212.775984196138
 20
1006.3951137031
 30
0.0
 10
1212.084219835691
 20
1007.918457943953
 30
0.0
 10
1210.963076334006
 20
1011.058865006448
 30
0.0
 10
1210.533711612454
 20
1012.675887437465
 30
0.0
 10
1209.949282062894
 20
1015.95880707875
 30
0.0
 10
1209.794224844574
 20
1017.624652223637
 30
0.0
 10
1209.778471080993
 20
1019.291854807537
 30
0.0
  0
ARC
  5
251
330
1F
100
AcDbEntity
  8
0
  6
Continuous
 62
     7
370
    35
100
AcDbCircle
 10
1345.7771318544
 20
1019.4054419693
 30
0.0
 40
27.00000000000001
100
AcDbArc
 50
0.5413842987
 51
76.9632820449
  0
LINE
  5
252
330
1F
100
AcDbEntity
  8
0
  6
Continuous
 62
     7
370
    35
100
AcDbLine
 10
1233.0098688825
 20
1048.4623363435
 30
0.0
 11
1233.0098688825
 21
1048.4621347569
 31
0.0
  0
SPLINE
  5
253
330
1F
100
AcDbEntity
  8
0
  6
Continuous
 62
     7
370
    35
100
AcDbSpline
210
0.0
220
0.0
230
1.0
 70
     8
 71
     3
 72
    14
 73
    10
 74
     0
 42
0.000000001
 43
0.00000001
 40
0.0
 40
0.0
 40
0.0
 40
0.0
 40
0.25
 40
0.25
 40
0.5
 40
0.5
 40
0.75
 40
0.75
 40
1.0
 40
1.0
 40
1.0
 40
1.0
 10
1209.778471080993
 20
1019.518827544439
 30
0.0
 10
1209.80997842216
 20
1022.853213028601
 30
0.0
 10
1210.402504583164
 20
1026.181613814281
 30
0.0
 10
1212.644791586533
 20
1032.46242793927
 30
0.0
 10
1214.29409282844
 20
1035.413553903209
 30
0.0
 10
1218.468631247195
 20
1040.614487095289
 30
0.0
 10
1220.993012770966
 20
1042.863228290722
 30
0.0
 10
1226.63991577558
 20
1046.411321234069
 30
0.0
 10
1229.761279813502
 20
1047.709945731124
 30
0.0
 10
1233.009868882479
 20
1048.462134756875
 30
0.0
  0
ARC
  5
254
330
1F
100
AcDbEntity
  8
0
  6
Continuous
 62
     7
370
    35
100
AcDbCircle
 10
1239.7771318544
 20
1019.4054419693
 30
0.0
 40
27.00000000000001
100
AcDbArc
 50
103.0367179551
 51
179.4586157013
  0
SPLINE
  5
255
330
1F
100
AcDbEntity
  8
0
  6
Continuous
 62
     7
370
    35
100
AcDbSpline
210
0.0
220
0.0
230
1.0
 70
     8
 71
     3
 72
     8
 73
     4
 74
     0
 42
0.000000001
 43
0.00000001
 40
0.0
 40
0.0
 40
0.0
 40
0.0
 40
0.0000569949035229
 40
0.0000569949035229
 40
0.0000569949035229
 40
0.0000569949035229
 10
1209.778471080993
 20
1019.291854807537
 30
0.0
 10
1209.778023924124
 20
1019.310817298627
 30
0.0
 10
1209.77768841589
 20
1019.329782745424
 30
0.0
 10
1209.77746519363
 20
1019.34874918175
 30
0.0
  0
SPLINE
  5
256
330
1F
100
AcDbEntity
  8
0
  6
Continuous
 62
     7
370
    35
100
AcDbSpline
210
0.0
220
0.0
230
1.0
 70
     8
 71
     3
 72
     8
 73
     4
 74
     0
 42
0.000000001
 43
0.00000001
 40
0.0
 40
0.0
 40
0.0
 40
0.0
 40
1.0
 40
1.0
 40
1.0
 40
1.0
 10
1239.777131854367
 20
990.1496577707122
 30
0.0
 10
1237.520009597355
 20
990.1496577707122
 30
0.0
 10
1235.263180879567
 20
990.217648976756
 30
0.0
 10
1233.009868882479
 20
990.3485475951004
 30
0.0
  0
LINE
  5
257
330
1F
100
AcDbEntity
  8
0
  6
Continuous
 62
     7
370
    35
100
AcDbLine
 10
1345.7771318544
 20
990.1496577707
 30
0.0
 11
1239.7771318544
 21
990.1496577707
 31
0.0
  0
SPLINE
  5
258
330
1F
100
AcDbEntity
  8
0
  6
Continuous
 62
     7
370
    35
100
AcDbSpline
210
0.0
220
0.0
230
1.0
 70
     8
 71
     3
 72
     8
 73
     4
 74
     0
 42
0.000000001
 43
0.00000001
 40
0.0
 40
0.0
 40
0.0
 40
0.0
 40
1.0
 40
1.0
 40
1.0
 40
1.0
 10
1352.544394826255
 20
990.3485475951006
 30
0.0
 10
1350.291083135862
 20
990.217648994785
 30
0.0
 10
1348.034259005598
 20
990.1496577707122
 30
0.0
 10
1345.777131854367
 20
990.1496577707122
 30
0.0
  0
SPLINE
  5
259
330
1F
100
AcDbEntity
  8
0
  6
Continuous
 62
     7
370
    35
100
AcDbSpline
210
0.0
220
0.0
230
1.0
 70
     8
 71
     3
 72
     8
 73
     4
 74
     0
 42
0.000000001
 43
0.00000001
 40
0.0
 40
0.0
 40
0.0
 40
0.0
 40
0.0000569949035229
 40
0.0000569949035229
 40
0.0000569949035229
 40
0.0000569949035229
 10
1375.776798515104
 20
1019.34874918175
 30
0.0
 10
1375.776575292844
 20
1019.329782745424
 30
0.0
 10
1375.77623978461
 20
1019.310817298627
 30
0.0
 10
1375.775792627741
 20
1019.291854807537
 30
0.0
  0
SPLINE
  5
25A
330
1F
100
AcDbEntity
  8
0
  6
Continuous
 62
     7
370
    35
100
AcDbSpline
210
0.0
220
0.0
230
1.0
 70
     8
 71
     3
 72
    10
 73
     6
 74
     0
 42
0.000000001
 43
0.00000001
 40
0.0
 40
0.0
 40
0.0
 40
0.0
 40
0.5
 40
0.5
 40
1.0
 40
1.0
 40
1.0
 40
1.0
 10
1239.777131854367
 20
990.155441969312
 30
0.0
 10
1238.63417170641
 20
990.155441969312
 30
0.0
 10
1237.498978228666
 20
990.1717159881406
 30
0.0
 10
1235.243451896295
 20
990.2361503801496
 30
0.0
 10
1234.123115950239
 20
990.2843079574556
 30
0.0
 10
1233.009868882479
 20
990.3487491817486
 30
0.0
  0
SPLINE
  5
25B
330
1F
100
AcDbEntity
  8
0
  6
Continuous
 62
     7
370
    35
100
AcDbSpline
210
0.0
220
0.0
230
1.0
 70
     8
 71
     3
 72
    10
 73
     6
 74
     0
 42
0.000000001
 43
0.00000001
 40
0.0
 40
0.0
 40
0.0
 40
0.0
 40
0.5
 40
0.5
 40
1.0
 40
1.0
 40
1.0
 40
1.0
 10
1239.777131854367
 20
992.405441969312
 30
0.0
 10
1238.748392121279
 20
992.405441969312
 30
0.0
 10
1237.72671264498
 20
992.4640355063212
 30
0.0
 10
1235.696787062334
 20
992.6959981803368
 30
0.0
 10
1234.688537545569
 20
992.8693548946242
 30
0.0
 10
1233.686595179668
 20
993.1013479340836
 30
0.0
  0
SPLINE
  5
25C
330
1F
100
AcDbEntity
  8
0
  6
Continuous
 62
     7
370
    35
100
AcDbSpline
210
0.0
220
0.0
230
1.0
 70
     8
 71
     3
 72
    10
 73
     6
 74
     0
 42
0.000000001
 43
0.00000001
 40
0.0
 40
0.0
 40
0.0
 40
0.0
 40
0.5
 40
0.5
 40
1.0
 40
1.0
 40
1.0
 40
1.0
 10
1352.544394826255
 20
990.3487491817486
 30
0.0
 10
1351.431147758495
 20
990.2843079574556
 30
0.0
 10
1350.310811812439
 20
990.2361503801496
 30
0.0
 10
1348.055285480068
 20
990.1717159881406
 30
0.0
 10
1346.920092002325
 20
990.155441969312
 30
0.0
 10
1345.777131854367
 20
990.155441969312
 30
0.0
  0
SPLINE
  5
25D
330
1F
100
AcDbEntity
  8
0
  6
Continuous
 62
     7
370
    35
100
AcDbSpline
210
0.0
220
0.0
230
1.0
 70
     8
 71
     3
 72
    10
 73
     6
 74
     0
 42
0.000000001
 43
0.00000001
 40
0.0
 40
0.0
 40
0.0
 40
0.0
 40
0.5
 40
0.5
 40
1.0
 40
1.0
 40
1.0
 40
1.0
 10
1351.867668529066
 20
993.1013479340836
 30
0.0
 10
1350.865726163164
 20
992.869354894624
 30
0.0
 10
1349.857476646398
 20
992.6959981803366
 30
0.0
 10
1347.82755106375
 20
992.4640355063209
 30
0.0
 10
1346.805871587456
 20
992.405441969312
 30
0.0
 10
1345.777131854367
 20
992.405441969312
 30
0.0
  0
SPLINE
  5
25E
330
1F
100
AcDbEntity
  8
0
  6
Continuous
 62
     7
370
    35
100
AcDbSpline
210
0.0
220
0.0
230
1.0
 70
     8
 71
     3
 72
    10
 73
     6
 74
     0
 42
0.000000001
 43
0.00000001
 40
0.0
 40
0.0
 40
0.0
 40
0.0
 40
0.5
 40
0.5
 40
1.0
 40
1.0
 40
1.0
 40
1.0
 10
1233.009868882479
 20
1048.462134756876
 30
0.0
 10
1234.123115950239
 20
1048.526575981169
 30
0.0
 10
1235.243451896295
 20
1048.574733558474
 30
0.0
 10
1237.498978228666
 20
1048.639167950484
 30
0.0
 10
1238.63417170641
 20
1048.655441969312
 30
0.0
 10
1239.777131854367
 20
1048.655441969312
 30
0.0
  0
SPLINE
  5
25F
330
1F
100
AcDbEntity
  8
0
  6
Continuous
 62
     7
370
    35
100
AcDbSpline
210
0.0
220
0.0
230
1.0
 70
     8
 71
     3
 72
    10
 73
     6
 74
     0
 42
0.000000001
 43
0.00000001
 40
0.0
 40
0.0
 40
0.0
 40
0.0
 40
0.5
 40
0.5
 40
1.0
 40
1.0
 40
1.0
 40
1.0
 10
1233.686595179668
 20
1045.709536004541
 30
0.0
 10
1234.68853754557
 20
1045.941529044
 30
0.0
 10
1235.696787062336
 20
1046.114885758288
 30
0.0
 10
1237.726712644984
 20
1046.346848432303
 30
0.0
 10
1238.748392121278
 20
1046.405441969312
 30
0.0
 10
1239.777131854367
 20
1046.405441969312
 30
0.0
  0
SPLINE
  5
260
330
1F
100
AcDbEntity
  8
0
  6
Continuous
 62
     7
370
    35
100
AcDbSpline
210
0.0
220
0.0
230
1.0
 70
     8
 71
     3
 72
    10
 73
     6
 74
     0
 42
0.000000001
 43
0.00000001
 40
0.0
 40
0.0
 40
0.0
 40
0.0
 40
0.5
 40
0.5
 40
1.0
 40
1.0
 40
1.0
 40
1.0
 10
1345.777131854367
 20
1048.655441969312
 30
0.0
 10
1346.920092002325
 20
1048.655441969312
 30
0.0
 10
1348.055285480068
 20
1048.639167950484
 30
0.0
 10
1350.310811812439
 20
1048.574733558474
 30
0.0
 10
1351.431147758495
 20
1048.526575981169
 30
0.0
 10
1352.544394826255
 20
1048.462134756876
 30
0.0
  0
SPLINE
  5
261
330
1F
100
AcDbEntity
  8
0
  6
Continuous
 62
     7
370
    35
100
AcDbSpline
210
0.0
220
0.0
230
1.0
 70
     8
 71
     3
 72
    10
 73
     6
 74
     0
 42
0.000000001
 43
0.00000001
 40
0.0
 40
0.0
 40
0.0
 40
0.0
 40
0.5
 40
0.5
 40
1.0
 40
1.0
 40
1.0
 40
1.0
 10
1345.777131854367
 20
1046.405441969312
 30
0.0
 10
1346.805871587455
 20
1046.405441969312
 30
0.0
 10
1347.827551063754
 20
1046.346848432303
 30
0.0
 10
1349.8574766464
 20
1046.114885758287
 30
0.0
 10
1350.865726163165
 20
1045.941529044
 30
0.0
 10
1351.867668529066
 20
1045.709536004541
 30
0.0
  0
LINE
  5
262
330
1F
100
AcDbEntity
  8
0
  6
Continuous
 62
     7
370
    35
100
AcDbLine
 10
1239.7771318544
 20
990.1554419693
 30
0.0
 11
1345.7771318544
 21
990.1554419693
 31
0.0
  0
LINE
  5
263
330
1F
100
AcDbEntity
  8
0
  6
Continuous
 62
     7
370
    35
100
AcDbLine
 10
1345.7771318544
 20
992.4054419693
 30
0.0
 11
1239.7771318544
 21
992.4054419693
 31
0.0
  0
LINE
  5
264
330
1F
100
AcDbEntity
  8
0
  6
Continuous
 62
     7
370
    35
100
AcDbLine
 10
1345.7771318544
 20
1048.6554419693
 30
0.0
 11
1239.7771318544
 21
1048.6554419693
 31
0.0
  0
LINE
  5
265
330
1F
100
AcDbEntity
  8
0
  6
Continuous
 62
     7
370
    35
100
AcDbLine
 10
1239.7771318544
 20
1046.4054419693
 30
0.0
 11
1345.7771318544
 21
1046.4054419693
 31
0.0
  0
SPLINE
  5
266
330
1F
100
AcDbEntity
  8
0
  6
Continuous
 62
     7
370
    35
100
AcDbSpline
210
0.0
220
0.0
230
1.0
 70
     8
 71
     3
 72
     8
 73
     4
 74
     0
 42
0.000000001
 43
0.00000001
 40
0.0
 40
0.0
 40
0.0
 40
0.0
 40
1.0
 40
1.0
 40
1.0
 40
1.0
 10
1375.775792627741
 20
1019.518827544439
 30
0.0
 10
1375.7775783031
 20
1019.443237161021
 30
0.0
 10
1375.7775783031
 20
1019.367646777603
 30
0.0
 10
1375.775792627741
 20
1019.292056394185
 30
0.0
  0
SPLINE
  5
267
330
1F
100
AcDbEntity
  8
0
  6
Continuous
 62
     7
370
    35
100
AcDbSpline
210
0.0
220
0.0
230
1.0
 70
     8
 71
     3
 72
     8
 73
     4
 74
     0
 42
0.000000001
 43
0.00000001
 40
0.0
 40
0.0
 40
0.0
 40
0.0
 40
1.0
 40
1.0
 40
1.0
 40
1.0
 10
1372.775926550403
 20
1019.660559513347
 30
0.0
 10
1372.777533658227
 20
1019.490481150657
 30
0.0
 10
1372.777533658227
 20
1019.320402787967
 30
0.0
 10
1372.775926550403
 20
1019.150324425277
 30
0.0
  0
SPLINE
  5
268
330
1F
100
AcDbEntity
  8
0
  6
Continuous
 62
     7
370
    35
100
AcDbSpline
210
0.0
220
0.0
230
1.0
 70
     8
 71
     3
 72
     8
 73
     4
 74
     0
 42
0.000000001
 43
0.00000001
 40
0.0
 40
0.0
 40
0.0
 40
0.0
 40
0.0001133855751267
 40
0.0001133855751267
 40
0.0001133855751267
 40
0.0001133855751267
 10
1375.776798515104
 20
1019.348749181749
 30
0.0
 10
1375.777242593132
 20
1019.38648098158
 30
0.0
 10
1375.777242593132
 20
1019.424402957054
 30
0.0
 10
1375.776798515104
 20
1019.462134756885
 30
0.0
  0
SPLINE
  5
269
330
1F
100
AcDbEntity
  8
0
  6
Continuous
 62
     7
370
    35
100
AcDbSpline
210
0.0
220
0.0
230
1.0
 70
     8
 71
     3
 72
     8
 73
     4
 74
     0
 42
0.000000001
 43
0.00000001
 40
0.0
 40
0.0
 40
0.0
 40
0.0
 40
1.0
 40
1.0
 40
1.0
 40
1.0
 10
1212.778337158331
 20
1019.150324425277
 30
0.0
 10
1212.776730050507
 20
1019.320402787967
 30
0.0
 10
1212.776730050507
 20
1019.490481150657
 30
0.0
 10
1212.778337158331
 20
1019.660559513347
 30
0.0
  0
SPLINE
  5
26A
330
1F
100
AcDbEntity
  8
0
  6
Continuous
 62
     7
370
    35
100
AcDbSpline
210
0.0
220
0.0
230
1.0
 70
     8
 71
     3
 72
     8
 73
     4
 74
     0
 42
0.000000001
 43
0.00000001
 40
0.0
 40
0.0
 40
0.0
 40
0.0
 40
1.0
 40
1.0
 40
1.0
 40
1.0
 10
1209.778471080993
 20
1019.292056394185
 30
0.0
 10
1209.776685405634
 20
1019.367646777603
 30
0.0
 10
1209.776685405634
 20
1019.443237161021
 30
0.0
 10
1209.778471080993
 20
1019.518827544439
 30
0.0
  0
SPLINE
  5
26B
330
1F
100
AcDbEntity
  8
0
  6
Continuous
 62
     7
370
    35
100
AcDbSpline
210
0.0
220
0.0
230
1.0
 70
     8
 71
     3
 72
     8
 73
     4
 74
     0
 42
0.000000001
 43
0.00000001
 40
0.0
 40
0.0
 40
0.0
 40
0.0
 40
0.0001133855751265
 40
0.0001133855751265
 40
0.0001133855751265
 40
0.0001133855751265
 10
1209.77746519363
 20
1019.462134756876
 30
0.0
 10
1209.777021115602
 20
1019.424402957048
 30
0.0
 10
1209.777021115602
 20
1019.386480981577
 30
0.0
 10
1209.77746519363
 20
1019.348749181749
 30
0.0
  0
LINE
  5
26C
330
1F
100
AcDbEntity
  8
0
  6
Continuous
 62
     7
370
    35
100
AcDbLine
 10
1335.7771318544
 20
1024.3386164719
 30
0.0
 11
1336.1967329389
 21
1027.2049654772
 31
0.0
  0
SPLINE
  5
26D
330
1F
100
AcDbEntity
  8
0
  6
Continuous
 62
     7
370
    35
100
AcDbSpline
210
0.0
220
0.0
230
1.0
 70
     8
 71
     3
 72
    11
 73
     7
 74
     0
 42
0.000000001
 43
0.00000001
 40
0.0
 40
0.0
 40
0.0
 40
0.0
 40
0.2606216717109346
 40
0.4632004480822299
 40
0.6713667795608228
 40
1.0
 40
1.0
 40
1.0
 40
1.0
 10
1336.196732938869
 20
1027.204965477194
 30
0.0
 10
1336.563614309531
 20
1028.206683657004
 30
0.0
 10
1337.21566912204
 20
1029.987027964882
 30
0.0
 10
1338.753033983863
 20
1032.242027586945
 30
0.0
 10
1340.767799768359
 20
1034.456661767297
 30
0.0
 10
1342.613127854196
 20
1035.577123865269
 30
0.0
 10
1343.742853297239
 20
1036.263080227045
 30
0.0
  0
SPLINE
  5
26E
330
1F
100
AcDbEntity
  8
0
  6
Continuous
 62
     7
370
    35
100
AcDbSpline
210
0.0
220
0.0
230
1.0
 70
     8
 71
     3
 72
    16
 73
    12
 74
     0
 42
0.000000001
 43
0.00000001
 40
0.0
 40
0.0
 40
0.0
 40
0.0
 40
0.6093642604521683
 40
0.7233750503883768
 40
0.8172213162021835
 40
0.8496365726798871
 40
0.882361234165724
 40
0.9067814804504444
 40
0.9311421346358177
 40
0.9706402276081949
 40
1.0
 40
1.0
 40
1.0
 40
1.0
 10
1343.742853297239
 20
1036.263080227045
 30
0.0
 10
1344.319687566829
 20
1036.560735302995
 30
0.0
 10
1345.004446332498
 20
1036.914081026625
 30
0.0
 10
1345.671689303682
 20
1037.439819350283
 30
0.0
 10
1345.84194270166
 20
1037.624972360337
 30
0.0
 10
1345.910216162336
 20
1037.773628660509
 30
0.0
 10
1345.92185530333
 20
1037.86722932589
 30
0.0
 10
1345.897329855117
 20
1037.951192010898
 30
0.0
 10
1345.841067147473
 20
1038.029330998072
 30
0.0
 10
1345.75799498481
 20
1038.091528193907
 30
0.0
 10
1345.689574116364
 20
1038.123418123136
 30
0.0
 10
1345.660400671707
 20
1038.137015423297
 30
0.0
  0
SPLINE
  5
26F
330
1F
100
AcDbEntity
  8
0
  6
Continuous
 62
     7
370
    35
100
AcDbSpline
210
0.0
220
0.0
230
1.0
 70
     8
 71
     3
 72
    13
 73
     9
 74
     0
 42
0.000000001
 43
0.00000001
 40
0.0
 40
0.0
 40
0.0
 40
0.0
 40
0.1585077763893687
 40
0.3168380823633755
 40
0.4791716695217828
 40
0.6493085002788166
 40
0.8235953482372506
 40
1.0
 40
1.0
 40
1.0
 40
1.0
 10
1358.304744091527
 20
1023.726594629787
 30
0.0
 10
1358.012168937767
 20
1024.736920081594
 30
0.0
 10
1357.427346206821
 20
1026.756439792267
 30
0.0
 10
1355.931319655134
 20
1029.577042543829
 30
0.0
 10
1354.004640985429
 20
1032.207093351813
 30
0.0
 10
1351.60556658765
 20
1034.570025948062
 30
0.0
 10
1348.813240314916
 20
1036.625918293138
 30
0.0
 10
1346.715569786029
 20
1037.631292582644
 30
0.0
 10
1345.660400671707
 20
1038.137015423297
 30
0.0
  0
SPLINE
  5
270
330
1F
100
AcDbEntity
  8
0
  6
Continuous
 62
     7
370
    35
100
AcDbSpline
210
0.0
220
0.0
230
1.0
 70
     8
 71
     3
 72
     9
 73
     5
 74
     0
 42
0.000000001
 43
0.00000001
 40
0.0
 40
0.0
 40
0.0
 40
0.0
 40
0.423084807246194
 40
1.0
 40
1.0
 40
1.0
 40
1.0
 10
1358.304744091527
 20
1023.726594629787
 30
0.0
 10
1358.530864497785
 20
1022.511879005632
 30
0.0
 10
1359.065320952815
 20
1019.640786488599
 30
0.0
 10
1358.583001507366
 20
1016.75128602548
 30
0.0
 10
1358.304744091527
 20
1015.084289308838
 30
0.0
  0
SPLINE
  5
271
330
1F
100
AcDbEntity
  8
0
  6
Continuous
 62
     7
370
    35
100
AcDbSpline
210
0.0
220
0.0
230
1.0
 70
     8
 71
     3
 72
    13
 73
     9
 74
     0
 42
0.000000001
 43
0.00000001
 40
0.0
 40
0.0
 40
0.0
 40
0.0
 40
0.1585077763893747
 40
0.3168380823633751
 40
0.4791716695217829
 40
0.6493085002788176
 40
0.8235953482372498
 40
1.0
 40
1.0
 40
1.0
 40
1.0
 10
1358.304744091527
 20
1015.084289308838
 30
0.0
 10
1358.012168937767
 20
1014.073963857031
 30
0.0
 10
1357.427346206821
 20
1012.054444146358
 30
0.0
 10
1355.931319655134
 20
1009.233841394796
 30
0.0
 10
1354.004640985429
 20
1006.603790586812
 30
0.0
 10
1351.60556658765
 20
1004.240857990563
 30
0.0
 10
1348.813240314916
 20
1002.184965645487
 30
0.0
 10
1346.715569786029
 20
1001.179591355981
 30
0.0
 10
1345.660400671707
 20
1000.673868515328
 30
0.0
  0
SPLINE
  5
272
330
1F
100
AcDbEntity
  8
0
  6
Continuous
 62
     7
370
    35
100
AcDbSpline
210
0.0
220
0.0
230
1.0
 70
     8
 71
     3
 72
    16
 73
    12
 74
     0
 42
0.000000001
 43
0.00000001
 40
0.0
 40
0.0
 40
0.0
 40
0.0
 40
0.6093642604521433
 40
0.723375050388359
 40
0.8172213162021718
 40
0.8496365726798774
 40
0.8823612341657164
 40
0.9067814804504383
 40
0.9311421346358133
 40
0.970640227608193
 40
1.0
 40
1.0
 40
1.0
 40
1.0
 10
1343.742853297239
 20
1002.547803711579
 30
0.0
 10
1344.319687566829
 20
1002.25014863563
 30
0.0
 10
1345.004446332498
 20
1001.896802912
 30
0.0
 10
1345.671689303682
 20
1001.371064588343
 30
0.0
 10
1345.84194270166
 20
1001.185911578288
 30
0.0
 10
1345.910216162336
 20
1001.037255278117
 30
0.0
 10
1345.92185530333
 20
1000.943654612735
 30
0.0
 10
1345.897329855117
 20
1000.859691927727
 30
0.0
 10
1345.841067147473
 20
1000.781552940554
 30
0.0
 10
1345.75799498481
 20
1000.719355744718
 30
0.0
 10
1345.689574116364
 20
1000.687465815489
 30
0.0
 10
1345.660400671707
 20
1000.673868515328
 30
0.0
  0
SPLINE
  5
273
330
1F
100
AcDbEntity
  8
0
  6
Continuous
 62
     7
370
    35
100
AcDbSpline
210
0.0
220
0.0
230
1.0
 70
     8
 71
     3
 72
    11
 73
     7
 74
     0
 42
0.000000001
 43
0.00000001
 40
0.0
 40
0.0
 40
0.0
 40
0.0
 40
0.2606216717109249
 40
0.4632004480822214
 40
0.671366779560804
 40
1.0
 40
1.0
 40
1.0
 40
1.0
 10
1336.196732938869
 20
1011.605918461431
 30
0.0
 10
1336.563614309531
 20
1010.604200281621
 30
0.0
 10
1337.21566912204
 20
1008.823855973742
 30
0.0
 10
1338.753033983863
 20
1006.56885635168
 30
0.0
 10
1340.767799768359
 20
1004.354222171328
 30
0.0
 10
1342.613127854196
 20
1003.233760073356
 30
0.0
 10
1343.742853297239
 20
1002.547803711579
 30
0.0
  0
LINE
  5
274
330
1F
100
AcDbEntity
  8
0
  6
Continuous
 62
     7
370
    35
100
AcDbLine
 10
1335.7771318544
 20
1014.4722674667
 30
0.0
 11
1336.1967329389
 21
1011.6059184614
 31
0.0
  0
LINE
  5
275
330
1F
100
AcDbEntity
  8
0
  6
Continuous
 62
     7
370
    35
100
AcDbLine
 10
1335.7771318544
 20
1024.3386164719
 30
0.0
 11
1335.7771318544
 21
1014.4722674667
 31
0.0
  0
LINE
  5
276
330
1F
100
AcDbEntity
  8
0
  6
Continuous
 62
     7
370
    35
100
AcDbLine
 10
1249.7771318544
 20
1014.4722674667
 30
0.0
 11
1249.3575307699
 21
1011.6059184614
 31
0.0
  0
SPLINE
  5
277
330
1F
100
AcDbEntity
  8
0
  6
Continuous
 62
     7
370
    35
100
AcDbSpline
210
0.0
220
0.0
230
1.0
 70
     8
 71
     3
 72
    11
 73
     7
 74
     0
 42
0.000000001
 43
0.00000001
 40
0.0
 40
0.0
 40
0.0
 40
0.0
 40
0.2606216717109244
 40
0.4632004480822202
 40
0.6713667795608149
 40
1.0
 40
1.0
 40
1.0
 40
1.0
 10
1249.357530769865
 20
1011.60591846143
 30
0.0
 10
1248.990649399204
 20
1010.60420028162
 30
0.0
 10
1248.338594586695
 20
1008.823855973742
 30
0.0
 10
1246.801229724872
 20
1006.568856351679
 30
0.0
 10
1244.786463940376
 20
1004.354222171327
 30
0.0
 10
1242.941135854538
 20
1003.233760073355
 30
0.0
 10
1241.811410411495
 20
1002.547803711579
 30
0.0
  0
SPLINE
  5
278
330
1F
100
AcDbEntity
  8
0
  6
Continuous
 62
     7
370
    35
100
AcDbSpline
210
0.0
220
0.0
230
1.0
 70
     8
 71
     3
 72
    16
 73
    12
 74
     0
 42
0.000000001
 43
0.00000001
 40
0.0
 40
0.0
 40
0.0
 40
0.0
 40
0.6093642604521692
 40
0.7233750503883773
 40
0.817221316202184
 40
0.8496365726798875
 40
0.8823612341657242
 40
0.9067814804504445
 40
0.9311421346358179
 40
0.9706402276081949
 40
1.0
 40
1.0
 40
1.0
 40
1.0
 10
1241.811410411495
 20
1002.547803711579
 30
0.0
 10
1241.234576141906
 20
1002.250148635629
 30
0.0
 10
1240.549817376237
 20
1001.896802911999
 30
0.0
 10
1239.882574405053
 20
1001.371064588342
 30
0.0
 10
1239.712321007075
 20
1001.185911578287
 30
0.0
 10
1239.644047546398
 20
1001.037255278116
 30
0.0
 10
1239.632408405404
 20
1000.943654612734
 30
0.0
 10
1239.656933853618
 20
1000.859691927726
 30
0.0
 10
1239.713196561261
 20
1000.781552940553
 30
0.0
 10
1239.796268723925
 20
1000.719355744717
 30
0.0
 10
1239.864689592371
 20
1000.687465815488
 30
0.0
 10
1239.893863037028
 20
1000.673868515328
 30
0.0
  0
SPLINE
  5
279
330
1F
100
AcDbEntity
  8
0
  6
Continuous
 62
     7
370
    35
100
AcDbSpline
210
0.0
220
0.0
230
1.0
 70
     8
 71
     3
 72
    13
 73
     9
 74
     0
 42
0.000000001
 43
0.00000001
 40
0.0
 40
0.0
 40
0.0
 40
0.0
 40
0.1585077763893663
 40
0.3168380823633636
 40
0.4791716695217864
 40
0.6493085002788176
 40
0.8235953482372532
 40
1.0
 40
1.0
 40
1.0
 40
1.0
 10
1227.249519617207
 20
1015.084289308837
 30
0.0
 10
1227.542094770967
 20
1014.07396385703
 30
0.0
 10
1228.126917501913
 20
1012.054444146357
 30
0.0
 10
1229.6229440536
 20
1009.233841394795
 30
0.0
 10
1231.549622723306
 20
1006.603790586811
 30
0.0
 10
1233.948697121085
 20
1004.240857990563
 30
0.0
 10
1236.741023393819
 20
1002.184965645486
 30
0.0
 10
1238.838693922705
 20
1001.17959135598
 30
0.0
 10
1239.893863037028
 20
1000.673868515328
 30
0.0
  0
SPLINE
  5
27A
330
1F
100
AcDbEntity
  8
0
  6
Continuous
 62
     7
370
    35
100
AcDbSpline
210
0.0
220
0.0
230
1.0
 70
     8
 71
     3
 72
     9
 73
     5
 74
     0
 42
0.000000001
 43
0.00000001
 40
0.0
 40
0.0
 40
0.0
 40
0.0
 40
0.4230848072461844
 40
1.0
 40
1.0
 40
1.0
 40
1.0
 10
1227.249519617207
 20
1023.726594629787
 30
0.0
 10
1227.023399210949
 20
1022.511879005632
 30
0.0
 10
1226.48894275592
 20
1019.640786488598
 30
0.0
 10
1226.971262201368
 20
1016.751286025479
 30
0.0
 10
1227.249519617207
 20
1015.084289308837
 30
0.0
  0
SPLINE
  5
27B
330
1F
100
AcDbEntity
  8
0
  6
Continuous
 62
     7
370
    35
100
AcDbSpline
210
0.0
220
0.0
230
1.0
 70
     8
 71
     3
 72
    13
 73
     9
 74
     0
 42
0.000000001
 43
0.00000001
 40
0.0
 40
0.0
 40
0.0
 40
0.0
 40
0.1585077763893713
 40
0.3168380823633754
 40
0.479171669521798
 40
0.6493085002788291
 40
0.8235953482372534
 40
0.9999999999999999
 40
0.9999999999999999
 40
0.9999999999999999
 40
0.9999999999999999
 10
1227.249519617207
 20
1023.726594629787
 30
0.0
 10
1227.542094770967
 20
1024.736920081593
 30
0.0
 10
1228.126917501913
 20
1026.756439792267
 30
0.0
 10
1229.6229440536
 20
1029.577042543828
 30
0.0
 10
1231.549622723306
 20
1032.207093351813
 30
0.0
 10
1233.948697121085
 20
1034.570025948061
 30
0.0
 10
1236.741023393819
 20
1036.625918293137
 30
0.0
 10
1238.838693922705
 20
1037.631292582643
 30
0.0
 10
1239.893863037028
 20
1038.137015423296
 30
0.0
  0
SPLINE
  5
27C
330
1F
100
AcDbEntity
  8
0
  6
Continuous
 62
     7
370
    35
100
AcDbSpline
210
0.0
220
0.0
230
1.0
 70
     8
 71
     3
 72
    16
 73
    12
 74
     0
 42
0.000000001
 43
0.00000001
 40
0.0
 40
0.0
 40
0.0
 40
0.0
 40
0.6093642604521423
 40
0.7233750503883584
 40
0.8172213162021713
 40
0.849636572679877
 40
0.8823612341657161
 40
0.906781480450438
 40
0.9311421346358131
 40
0.9706402276081929
 40
1.0
 40
1.0
 40
1.0
 40
1.0
 10
1241.811410411495
 20
1036.263080227045
 30
0.0
 10
1241.234576141906
 20
1036.560735302995
 30
0.0
 10
1240.549817376237
 20
1036.914081026624
 30
0.0
 10
1239.882574405053
 20
1037.439819350282
 30
0.0
 10
1239.712321007075
 20
1037.624972360336
 30
0.0
 10
1239.644047546398
 20
1037.773628660508
 30
0.0
 10
1239.632408405404
 20
1037.867229325889
 30
0.0
 10
1239.656933853618
 20
1037.951192010898
 30
0.0
 10
1239.713196561261
 20
1038.029330998071
 30
0.0
 10
1239.796268723925
 20
1038.091528193906
 30
0.0
 10
1239.864689592371
 20
1038.123418123135
 30
0.0
 10
1239.893863037028
 20
1038.137015423296
 30
0.0
  0
SPLINE
  5
27D
330
1F
100
AcDbEntity
  8
0
  6
Continuous
 62
     7
370
    35
100
AcDbSpline
210
0.0
220
0.0
230
1.0
 70
     8
 71
     3
 72
    11
 73
     7
 74
     0
 42
0.000000001
 43
0.00000001
 40
0.0
 40
0.0
 40
0.0
 40
0.0
 40
0.2606216717109355
 40
0.463200448082231
 40
0.6713667795608113
 40
1.0
 40
1.0
 40
1.0
 40
1.0
 10
1249.357530769865
 20
1027.204965477193
 30
0.0
 10
1248.990649399204
 20
1028.206683657004
 30
0.0
 10
1248.338594586695
 20
1029.987027964882
 30
0.0
 10
1246.801229724872
 20
1032.242027586945
 30
0.0
 10
1244.786463940376
 20
1034.456661767297
 30
0.0
 10
1242.941135854538
 20
1035.577123865269
 30
0.0
 10
1241.811410411495
 20
1036.263080227045
 30
0.0
  0
LINE
  5
27E
330
1F
100
AcDbEntity
  8
0
  6
Continuous
 62
     7
370
    35
100
AcDbLine
 10
1249.7771318544
 20
1024.3386164719
 30
0.0
 11
1249.3575307699
 21
1027.2049654772
 31
0.0
  0
LINE
  5
27F
330
1F
100
AcDbEntity
  8
0
  6
Continuous
 62
     7
370
    35
100
AcDbLine
 10
1249.7771318544
 20
1024.3386164719
 30
0.0
 11
1249.7771318544
 21
1014.4722674667
 31
0.0
  0
SPLINE
  5
280
330
1F
100
AcDbEntity
  8
0
  6
Continuous
 62
     7
370
    35
100
AcDbSpline
210
0.0
220
0.0
230
1.0
 70
     8
 71
     3
 72
    17
 73
    13
 74
     0
 42
0.000000001
 43
0.00000001
 40
0.0
 40
0.0
 40
0.0
 40
0.0
 40
0.0364925733413336
 40
0.183358744807721
 40
0.2877156143828503
 40
0.393483730490557
 40
0.4992474923956489
 40
0.6063189697897137
 40
0.7133499989193065
 40
0.8177518468878916
 40
0.9088657685707868
 40
1.0
 40
1.0
 40
1.0
 40
1.0
 10
1345.777131854367
 20
1041.146714436848
 30
0.0
 10
1346.191937490367
 20
1041.138909773905
 30
0.0
 10
1348.276148983064
 20
1041.099694857832
 30
0.0
 10
1351.531727303158
 20
1040.511511119058
 30
0.0
 10
1355.332375190949
 20
1039.046580668301
 30
0.0
 10
1358.429804988842
 20
1037.195537794112
 30
0.0
 10
1361.218419690911
 20
1034.858801303365
 30
0.0
 10
1363.572038841054
 20
1032.06351811939
 30
0.0
 10
1365.426469246709
 20
1028.933721872604
 30
0.0
 10
1366.669893482772
 20
1025.712273903689
 30
0.0
 10
1367.381741263911
 20
1022.51539775869
 30
0.0
 10
1367.470966803458
 20
1020.442170912618
 30
0.0
 10
1367.515584544882
 20
1019.405441969313
 30
0.0
  0
SPLINE
  5
281
330
1F
100
AcDbEntity
  8
0
  6
Continuous
 62
     7
370
    35
100
AcDbSpline
210
0.0
220
0.0
230
1.0
 70
     8
 71
     3
 72
    17
 73
    13
 74
     0
 42
0.000000001
 43
0.00000001
 40
0.0
 40
0.0
 40
0.0
 40
0.0
 40
0.0364925733413335
 40
0.1833587448077209
 40
0.2877156143828379
 40
0.393483730490553
 40
0.4992474923956536
 40
0.6063189697897182
 40
0.7133499989193111
 40
0.8177518468878917
 40
0.9088657685707869
 40
1.0
 40
1.0
 40
1.0
 40
1.0
 10
1239.777131854367
 20
997.6641695017764
 30
0.0
 10
1239.362326218367
 20
997.6719741647195
 30
0.0
 10
1237.27811472567
 20
997.7111890807923
 30
0.0
 10
1234.022536405577
 20
998.2993728195661
 30
0.0
 10
1230.221888517785
 20
999.7643032703238
 30
0.0
 10
1227.124458719892
 20
1001.615346144512
 30
0.0
 10
1224.335844017823
 20
1003.952082635259
 30
0.0
 10
1221.98222486768
 20
1006.747365819234
 30
0.0
 10
1220.127794462025
 20
1009.877162066021
 30
0.0
 10
1218.884370225962
 20
1013.098610034935
 30
0.0
 10
1218.172522444823
 20
1016.295486179934
 30
0.0
 10
1218.083296905276
 20
1018.368713026007
 30
0.0
 10
1218.038679163852
 20
1019.405441969312
 30
0.0
  0
SPLINE
  5
282
330
1F
100
AcDbEntity
  8
0
  6
Continuous
 62
     7
370
    35
100
AcDbSpline
210
0.0
220
0.0
230
1.0
 70
     8
 71
     3
 72
    17
 73
    13
 74
     0
 42
0.000000001
 43
0.00000001
 40
0.0
 40
0.0
 40
0.0
 40
0.0
 40
0.0364925733413333
 40
0.1833587448077195
 40
0.2877156143828601
 40
0.3934837304905673
 40
0.4992474923956596
 40
0.6063189697897234
 40
0.7133499989193155
 40
0.8177518468878924
 40
0.9088657685707874
 40
1.0
 40
1.0
 40
1.0
 40
1.0
 10
1345.777131854367
 20
997.6641695017773
 30
0.0
 10
1346.191937490367
 20
997.6719741647203
 30
0.0
 10
1348.276148983064
 20
997.7111890807931
 30
0.0
 10
1351.531727303158
 20
998.2993728195673
 30
0.0
 10
1355.332375190949
 20
999.7643032703244
 30
0.0
 10
1358.429804988842
 20
1001.615346144513
 30
0.0
 10
1361.218419690911
 20
1003.95208263526
 30
0.0
 10
1363.572038841054
 20
1006.747365819235
 30
0.0
 10
1365.426469246709
 20
1009.877162066022
 30
0.0
 10
1366.669893482773
 20
1013.098610034936
 30
0.0
 10
1367.381741263911
 20
1016.295486179935
 30
0.0
 10
1367.470966803458
 20
1018.368713026007
 30
0.0
 10
1367.515584544882
 20
1019.405441969313
 30
0.0
  0
SPLINE
  5
283
330
1F
100
AcDbEntity
  8
0
  6
Continuous
 62
     7
370
    35
100
AcDbSpline
210
0.0
220
0.0
230
1.0
 70
     8
 71
     3
 72
    17
 73
    13
 74
     0
 42
0.000000001
 43
0.00000001
 40
0.0
 40
0.0
 40
0.0
 40
0.0
 40
0.0364925733413331
 40
0.1833587448077187
 40
0.2877156143828467
 40
0.3934837304905602
 40
0.4992474923956575
 40
0.6063189697897209
 40
0.7133499989193125
 40
0.8177518468878932
 40
0.9088657685707877
 40
1.0
 40
1.0
 40
1.0
 40
1.0
 10
1239.777131854367
 20
1041.146714436847
 30
0.0
 10
1239.362326218368
 20
1041.138909773904
 30
0.0
 10
1237.27811472567
 20
1041.099694857831
 30
0.0
 10
1234.022536405577
 20
1040.511511119057
 30
0.0
 10
1230.221888517786
 20
1039.0465806683
 30
0.0
 10
1227.124458719892
 20
1037.195537794111
 30
0.0
 10
1224.335844017823
 20
1034.858801303364
 30
0.0
 10
1221.98222486768
 20
1032.06351811939
 30
0.0
 10
1220.127794462025
 20
1028.933721872603
 30
0.0
 10
1218.884370225962
 20
1025.712273903688
 30
0.0
 10
1218.172522444823
 20
1022.515397758689
 30
0.0
 10
1218.083296905276
 20
1020.442170912617
 30
0.0
 10
1218.038679163852
 20
1019.405441969312
 30
0.0
  0
LINE
  5
284
330
1F
100
AcDbEntity
  8
0
  6
Continuous
 62
     7
370
    35
100
AcDbLine
 10
1335.9333030446
 20
1025.4054419693
 30
0.0
 11
1249.6209606642
 21
1025.4054419693
 31
0.0
  0
LINE
  5
285
330
1F
100
AcDbEntity
  8
0
  6
Continuous
 62
     7
370
    35
100
AcDbLine
 10
1335.9333030446
 20
1013.4054419693
 30
0.0
 11
1249.6209606642
 21
1013.4054419693
 31
0.0
  0
LINE
  5
286
330
1F
100
AcDbEntity
  8
0
  6
Continuous
 62
     7
370
    35
100
AcDbLine
 10
1239.7771318544
 20
997.6641695018
 30
0.0
 11
1345.7771318544
 21
997.6641695018
 31
0.0
  0
LINE
  5
287
330
1F
100
AcDbEntity
  8
0
  6
Continuous
 62
     7
370
    35
100
AcDbLine
 10
1239.7771318544
 20
1041.1467144368
 30
0.0
 11
1345.7771318544
 21
1041.1467144368
 31
0.0
  0
ARC
  5
288
330
1F
100
AcDbEntity
  8
0
  6
Continuous
 62
     7
370
    35
100
AcDbCircle
 10
1345.7771318544
 20
1019.4054419693
 30
0.0
 40
21.74999999999966
100
AcDbArc
 50
270.0
 51
90.0
  0
LINE
  5
289
330
1F
100
AcDbEntity
  8
0
  6
Continuous
 62
     7
370
    35
100
AcDbLine
 10
1239.7771318544
 20
1041.1554419693
 30
0.0
 11
1345.7771318544
 21
1041.1554419693
 31
0.0
  0
ARC
  5
28A
330
1F
100
AcDbEntity
  8
0
  6
Continuous
 62
     7
370
    35
100
AcDbCircle
 10
1239.7771318544
 20
1019.4054419693
 30
0.0
 40
21.74999999999977
100
AcDbArc
 50
90.0
 51
270.0
  0
LINE
  5
28B
330
1F
100
AcDbEntity
  8
0
  6
Continuous
 62
     7
370
    35
100
AcDbLine
 10
1239.7771318544
 20
997.6554419693
 30
0.0
 11
1345.7771318544
 21
997.6554419693
 31
0.0
  0
LINE
  5
28C
330
1F
100
AcDbEntity
  8
0
  6
Continuous
 62
     7
370
    35
100
AcDbLine
 10
1732.7771318544
 20
1084.9054419693
 30
0.0
 11
1755.2771318544
 21
1084.9054419693
 31
0.0
  0
ARC
  5
28D
330
1F
100
AcDbEntity
  8
0
  6
Continuous
 62
     7
370
    35
100
AcDbCircle
 10
1755.2771318544
 20
1074.9054419693
 30
0.0
 40
10.00000000000045
100
AcDbArc
 50
0.0
 51
90.0
  0
LINE
  5
28E
330
1F
100
AcDbEntity
  8
0
  6
Continuous
 62
     7
370
    35
100
AcDbLine
 10
1765.2771318544
 20
1074.9054419693
 30
0.0
 11
1765.2771318544
 21
963.9054419693
 31
0.0
  0
ARC
  5
28F
330
1F
100
AcDbEntity
  8
0
  6
Continuous
 62
     7
370
    35
100
AcDbCircle
 10
1755.2771318544
 20
963.9054419693
 30
0.0
 40
10.0
100
AcDbArc
 50
270.0
 51
0.0
  0
LINE
  5
290
330
1F
100
AcDbEntity
  8
0
  6
Continuous
 62
     7
370
    35
100
AcDbLine
 10
1755.2771318544
 20
953.9054419693
 30
0.0
 11
1732.7771318544
 21
953.9054419693
 31
0.0
  0
LINE
  5
291
330
1F
100
AcDbEntity
  8
0
  6
Continuous
 62
     7
370
    35
100
AcDbLine
 10
852.7771318544
 20
953.9054419693
 30
0.0
 11
830.2771318544
 21
953.9054419693
 31
0.0
  0
ARC
  5
292
330
1F
100
AcDbEntity
  8
0
  6
Continuous
 62
     7
370
    35
100
AcDbCircle
 10
830.2771318544
 20
963.9054419693
 30
0.0
 40
10.00000000000023
100
AcDbArc
 50
180.0
 51
270.0
  0
LINE
  5
293
330
1F
100
AcDbEntity
  8
0
  6
Continuous
 62
     7
370
    35
100
AcDbLine
 10
820.2771318544
 20
963.9054419693
 30
0.0
 11
820.2771318544
 21
1074.9054419693
 31
0.0
  0
LINE
  5
294
330
1F
100
AcDbEntity
  8
0
  6
Continuous
 62
     7
370
    35
100
AcDbLine
 10
830.2771318544
 20
1084.9054419693
 30
0.0
 11
852.7771318544
 21
1084.9054419693
 31
0.0
  0
ARC
  5
295
330
1F
100
AcDbEntity
  8
0
  6
Continuous
 62
     7
370
    35
100
AcDbCircle
 10
830.2771318544
 20
1074.9054419693
 30
0.0
 40
10.0
100
AcDbArc
 50
90.0
 51
180.0
  0
LINE
  5
296
330
1F
100
AcDbEntity
  8
0
  6
Continuous
 62
     7
370
    35
100
AcDbLine
 10
852.7771318544
 20
984.4054419693
 30
0.0
 11
850.7771318544
 21
984.4054419693
 31
0.0
  0
LINE
  5
297
330
1F
100
AcDbEntity
  8
0
  6
Continuous
 62
     7
370
    35
100
AcDbLine
 10
850.7771318544
 20
984.4054419693
 30
0.0
 11
850.7771318544
 21
1054.4054419693
 31
0.0
  0
LINE
  5
298
330
1F
100
AcDbEntity
  8
0
  6
Continuous
 62
     7
370
    35
100
AcDbLine
 10
850.7771318544
 20
1054.4054419693
 30
0.0
 11
852.7771318544
 21
1054.4054419693
 31
0.0
  0
LINE
  5
299
330
1F
100
AcDbEntity
  8
0
  6
Continuous
 62
     7
370
    35
100
AcDbLine
 10
852.7771318544
 20
1054.4054419693
 30
0.0
 11
852.7771318544
 21
1054.3196555317
 31
0.0
  0
LINE
  5
29A
330
1F
100
AcDbEntity
  8
0
  6
Continuous
 62
     7
370
    35
100
AcDbLine
 10
852.7771318544
 20
1051.4912284069
 30
0.0
 11
852.7771318544
 21
987.3196555317
 31
0.0
  0
LINE
  5
29B
330
1F
100
AcDbEntity
  8
0
  6
Continuous
 62
     7
370
    35
100
AcDbLine
 10
852.7771318544
 20
984.4912284069
 30
0.0
 11
852.7771318544
 21
984.4054419693
 31
0.0
  0
LINE
  5
29C
330
1F
100
AcDbEntity
  8
0
  6
Continuous
 62
     7
370
    35
100
AcDbLine
 10
1732.7771318544
 20
1054.4054419693
 30
0.0
 11
1734.7771318544
 21
1054.4054419693
 31
0.0
  0
LINE
  5
29D
330
1F
100
AcDbEntity
  8
0
  6
Continuous
 62
     7
370
    35
100
AcDbLine
 10
1734.7771318544
 20
1054.4054419693
 30
0.0
 11
1734.7771318544
 21
984.4054419693
 31
0.0
  0
LINE
  5
29E
330
1F
100
AcDbEntity
  8
0
  6
Continuous
 62
     7
370
    35
100
AcDbLine
 10
1734.7771318544
 20
984.4054419693
 30
0.0
 11
1732.7771318544
 21
984.4054419693
 31
0.0
  0
LINE
  5
29F
330
1F
100
AcDbEntity
  8
0
  6
Continuous
 62
     7
370
    35
100
AcDbLine
 10
1732.7771318544
 20
984.4054419693
 30
0.0
 11
1732.7771318544
 21
984.4912284069
 31
0.0
  0
LINE
  5
2A0
330
1F
100
AcDbEntity
  8
0
  6
Continuous
 62
     7
370
    35
100
AcDbLine
 10
1732.7771318544
 20
987.3196555317
 30
0.0
 11
1732.7771318544
 21
1051.4912284069
 31
0.0
  0
LINE
  5
2A1
330
1F
100
AcDbEntity
  8
0
  6
Continuous
 62
     7
370
    35
100
AcDbLine
 10
1732.7771318544
 20
1054.3196555317
 30
0.0
 11
1732.7771318544
 21
1054.4054419693
 31
0.0
  0
LINE
  5
2A2
330
1F
100
AcDbEntity
  8
0
  6
Continuous
 62
     8
370
    18
100
AcDbLine
 10
1732.7771318544
 20
1055.4054419693
 30
0.0
 11
852.7771318544
 21
1055.4054419693
 31
0.0
  0
LINE
  5
2A3
330
1F
100
AcDbEntity
  8
0
  6
Continuous
 62
     8
370
    18
100
AcDbLine
 10
852.7771318544
 20
983.4054419693
 30
0.0
 11
1732.7771318544
 21
983.4054419693
 31
0.0
  0
LINE
  5
2A4
330
1F
100
AcDbEntity
  8
0
  6
Continuous
 62
     8
370
    18
100
AcDbLine
 10
852.7771318544
 20
1050.4621347569
 30
0.0
 11
1732.7771318544
 21
1050.4621347569
 31
0.0
  0
LINE
  5
2A5
330
1F
100
AcDbEntity
  8
0
  6
Continuous
 62
     8
370
    18
100
AcDbLine
 10
852.7771318544
 20
988.3487491817
 30
0.0
 11
1732.7771318544
 21
988.3487491817
 31
0.0
  0
LINE
  5
2A6
330
1F
100
AcDbEntity
  8
0
  6
Continuous
 62
     8
370
    18
100
AcDbLine
 10
852.7771318544
 20
1019.4621347569
 30
0.0
 11
1209.7774651936
 21
1019.4621347569
 31
0.0
  0
LINE
  5
2A7
330
1F
100
AcDbEntity
  8
0
  6
Continuous
 62
     8
370
    18
100
AcDbLine
 10
1375.7767985151
 20
1019.4621347569
 30
0.0
 11
1732.7771318544
 21
1019.4621347569
 31
0.0
  0
LINE
  5
2A8
330
1F
100
AcDbEntity
  8
0
  6
Continuous
 62
     8
370
    18
100
AcDbLine
 10
1375.7757926277
 20
1019.5190291311
 30
0.0
 11
1375.7757926277
 21
1019.5188275444
 31
0.0
  0
ARC
  5
2A9
330
1F
100
AcDbEntity
  8
0
  6
Continuous
 62
     8
370
    18
100
AcDbCircle
 10
1299.5274212542
 20
978.7740142153
 30
0.0
 40
54.26577168233957
100
AcDbArc
 50
12.3156445559
 51
15.3088218734
  0
ARC
  5
2AA
330
1F
100
AcDbEntity
  8
0
  6
Continuous
 62
     8
370
    18
100
AcDbCircle
 10
1374.9027839254
 20
1005.9518548888
 30
0.0
 40
13.36873667926306
100
AcDbArc
 50
86.2557918319
 51
99.1541892989
  0
LINE
  5
2AB
330
1F
100
AcDbEntity
  8
0
  6
Continuous
 62
     8
370
    18
100
AcDbLine
 10
1375.7757926277
 20
1019.2918548075
 30
0.0
 11
1375.7757926277
 21
1019.2920563942
 31
0.0
  0
ARC
  5
2AC
330
1F
100
AcDbEntity
  8
0
  6
Continuous
 62
     8
370
    18
100
AcDbCircle
 10
1210.6514797834
 20
1005.9518548888
 30
0.0
 40
13.36873667926306
100
AcDbArc
 50
80.8458107011
 51
93.7442081681
  0
ARC
  5
2AD
330
1F
100
AcDbEntity
  8
0
  6
Continuous
 62
     8
370
    18
100
AcDbCircle
 10
1286.0268424545
 20
978.7740142153
 30
0.0
 40
54.2657716823398
100
AcDbArc
 50
164.6911781266
 51
167.6843554441
  0
LINE
  5
2AE
330
1F
100
AcDbEntity
  8
0
  6
Continuous
 62
     8
370
    18
100
AcDbLine
 10
1209.778471081
 20
1019.2918548075
 30
0.0
 11
1209.778471081
 21
1019.2920563942
 31
0.0
  0
ARC
  5
2AF
330
1F
100
AcDbEntity
  8
0
  6
Continuous
 62
     8
370
    18
100
AcDbCircle
 10
1374.9027839254
 20
1032.8590290498
 30
0.0
 40
13.36873667924102
100
AcDbArc
 50
260.8458107011
 51
273.7442081681
  0
ARC
  5
2B0
330
1F
100
AcDbEntity
  8
0
  6
Continuous
 62
     8
370
    18
100
AcDbCircle
 10
1299.527421255
 20
1060.0368697231
 30
0.0
 40
54.26577168154156
100
AcDbArc
 50
344.6911781266
 51
347.6843554442
  0
LINE
  5
2B1
330
1F
100
AcDbEntity
  8
0
  6
Continuous
 62
     8
370
    18
100
AcDbLine
 10
1209.778471081
 20
1019.5190291311
 30
0.0
 11
1209.778471081
 21
1019.5188275444
 31
0.0
  0
ARC
  5
2B2
330
1F
100
AcDbEntity
  8
0
  6
Continuous
 62
     8
370
    18
100
AcDbCircle
 10
1286.0268424549
 20
1060.0368697234
 30
0.0
 40
54.2657716827868
100
AcDbArc
 50
192.3156445559
 51
195.3088218734
  0
ARC
  5
2B3
330
1F
100
AcDbEntity
  8
0
  6
Continuous
 62
     8
370
    18
100
AcDbCircle
 10
1210.6514797834
 20
1032.8590290498
 30
0.0
 40
13.36873667924103
100
AcDbArc
 50
266.2557918319
 51
279.1541892989
  0
LINE
  5
2B4
330
1F
100
AcDbEntity
  8
0
  6
Continuous
 62
     8
370
    18
100
AcDbLine
 10
852.7771318544
 20
1019.3487491817
 30
0.0
 11
1209.7774651936
 21
1019.3487491817
 31
0.0
  0
LINE
  5
2B5
330
1F
100
AcDbEntity
  8
0
  6
Continuous
 62
     8
370
    18
100
AcDbLine
 10
1375.7767985151
 20
1019.3487491817
 30
0.0
 11
1732.7771318544
 21
1019.3487491817
 31
0.0
  0
LINE
  5
2B6
330
1F
100
AcDbEntity
  8
0
  6
Continuous
 62
     8
370
    18
100
AcDbLine
 10
1239.7771318544
 20
992.4054419693
 30
0.0
 11
1239.7771318544
 21
990.1554419693
 31
0.0
  0
LINE
  5
2B7
330
1F
100
AcDbEntity
  8
0
  6
Continuous
 62
     8
370
    18
100
AcDbLine
 10
1345.7771318544
 20
992.4054419693
 30
0.0
 11
1345.7771318544
 21
990.1554419693
 31
0.0
  0
LINE
  5
2B8
330
1F
100
AcDbEntity
  8
0
  6
Continuous
 62
     8
370
    18
100
AcDbLine
 10
1239.7771318544
 20
1048.6554419693
 30
0.0
 11
1239.7771318544
 21
1046.4054419693
 31
0.0
  0
LINE
  5
2B9
330
1F
100
AcDbEntity
  8
0
  6
Continuous
 62
     8
370
    18
100
AcDbLine
 10
1239.7771318544
 20
1048.6612261679
 30
0.0
 11
1239.7771318544
 21
1048.6554419693
 31
0.0
  0
LINE
  5
2BA
330
1F
100
AcDbEntity
  8
0
  6
Continuous
 62
     8
370
    18
100
AcDbLine
 10
1345.7771318544
 20
1048.6554419693
 30
0.0
 11
1345.7771318544
 21
1046.4054419693
 31
0.0
  0
LINE
  5
2BB
330
1F
100
AcDbEntity
  8
0
  6
Continuous
 62
     8
370
    18
100
AcDbLine
 10
1345.7771318544
 20
1048.6612261679
 30
0.0
 11
1345.7771318544
 21
1048.6554419693
 31
0.0
  0
LINE
  5
2BC
330
1F
100
AcDbEntity
  8
0
  6
Continuous
 62
     8
370
    18
100
AcDbLine
 10
1239.7771318544
 20
990.1496577707
 30
0.0
 11
1239.7771318544
 21
990.1554419693
 31
0.0
  0
LINE
  5
2BD
330
1F
100
AcDbEntity
  8
0
  6
Continuous
 62
     8
370
    18
100
AcDbLine
 10
1345.7771318544
 20
990.1496577707
 30
0.0
 11
1345.7771318544
 21
990.1554419693
 31
0.0
  0
SPLINE
  5
2BE
330
1F
100
AcDbEntity
  8
0
  6
Continuous
 62
     8
370
    18
100
AcDbSpline
210
0.0
220
0.0
230
1.0
 70
     8
 71
     3
 72
     9
 73
     5
 74
     0
 42
0.000000001
 43
0.00000001
 40
0.0
 40
0.0
 40
0.0
 40
0.0
 40
0.1546895589938869
 40
1.0
 40
1.0
 40
1.0
 40
1.0
 10
1345.660400671707
 20
1000.673868515328
 30
0.0
 10
1345.417348215129
 20
1000.746543050331
 30
0.0
 10
1343.846120925073
 20
1001.216351972632
 30
0.0
 10
1342.422003016247
 20
1002.032630001682
 30
0.0
 10
1341.218181278692
 20
1002.722638342401
 30
0.0
  0
ARC
  5
2BF
330
1F
100
AcDbEntity
  8
0
  6
Continuous
 62
     8
370
    18
100
AcDbCircle
 10
1339.7617646018
 20
1004.1689683276
 30
0.0
 40
2.052564240817389
100
AcDbArc
 50
315.1990950652
 51
348.3527908007
  0
SPLINE
  5
2C0
330
1F
100
AcDbEntity
  8
0
  6
Continuous
 62
     8
370
    18
100
AcDbSpline
210
0.0
220
0.0
230
1.0
 70
     8
 71
     3
 72
     9
 73
     5
 74
     0
 42
0.000000001
 43
0.00000001
 40
0.0
 40
0.0
 40
0.0
 40
0.0
 40
0.1546895589938869
 40
1.0
 40
1.0
 40
1.0
 40
1.0
 10
1239.893863037028
 20
1038.137015423296
 30
0.0
 10
1240.136915493606
 20
1038.064340888294
 30
0.0
 10
1241.708142783662
 20
1037.594531965992
 30
0.0
 10
1243.132260692488
 20
1036.778253936943
 30
0.0
 10
1244.336082430043
 20
1036.088245596223
 30
0.0
  0
ARC
  5
2C1
330
1F
100
AcDbEntity
  8
0
  6
Continuous
 62
     8
370
    18
100
AcDbCircle
 10
1245.7924991069
 20
1034.641915611
 30
0.0
 40
2.052564240812402
100
AcDbArc
 50
135.1990950652
 51
168.3527908008
  0
ARC
  5
2C2
330
1F
100
AcDbEntity
  8
0
  6
Continuous
 62
     8
370
    18
100
AcDbCircle
 10
1339.7617646018
 20
1034.641915611
 30
0.0
 40
2.052564240817147
100
AcDbArc
 50
11.6472091993
 51
44.8009049348
  0
SPLINE
  5
2C3
330
1F
100
AcDbEntity
  8
0
  6
Continuous
 62
     8
370
    18
100
AcDbSpline
210
0.0
220
0.0
230
1.0
 70
     8
 71
     3
 72
     9
 73
     5
 74
     0
 42
0.000000001
 43
0.00000001
 40
0.0
 40
0.0
 40
0.0
 40
0.0
 40
0.1546895589938807
 40
1.0
 40
1.0
 40
1.0
 40
1.0
 10
1345.660400671707
 20
1038.137015423297
 30
0.0
 10
1345.417348215129
 20
1038.064340888295
 30
0.0
 10
1343.846120925073
 20
1037.594531965993
 30
0.0
 10
1342.422003016246
 20
1036.778253936943
 30
0.0
 10
1341.218181278692
 20
1036.088245596223
 30
0.0
  0
ARC
  5
2C4
330
1F
100
AcDbEntity
  8
0
  6
Continuous
 62
     8
370
    18
100
AcDbCircle
 10
1245.7924991069
 20
1004.1689683276
 30
0.0
 40
2.052564240811755
100
AcDbArc
 50
191.6472091992
 51
224.8009049348
  0
SPLINE
  5
2C5
330
1F
100
AcDbEntity
  8
0
  6
Continuous
 62
     8
370
    18
100
AcDbSpline
210
0.0
220
0.0
230
1.0
 70
     8
 71
     3
 72
     9
 73
     5
 74
     0
 42
0.000000001
 43
0.00000001
 40
0.0
 40
0.0
 40
0.0
 40
0.0
 40
0.1546895589938808
 40
1.0
 40
1.0
 40
1.0
 40
1.0
 10
1239.893863037028
 20
1000.673868515328
 30
0.0
 10
1240.136915493606
 20
1000.74654305033
 30
0.0
 10
1241.708142783662
 20
1001.216351972632
 30
0.0
 10
1243.132260692488
 20
1002.032630001681
 30
0.0
 10
1244.336082430043
 20
1002.722638342401
 30
0.0
  0
ARC
  5
2C6
330
1F
100
AcDbEntity
  8
0
  6
Continuous
 62
     8
370
    18
100
AcDbCircle
 10
1338.7771318544
 20
1019.4054419693
 30
0.0
 40
19.99999999999972
100
AcDbArc
 50
270.0
 51
347.5224163016
  0
LINE
  5
2C7
330
1F
100
AcDbEntity
  8
0
  6
Continuous
 62
     8
370
    18
100
AcDbLine
 10
1338.7771318544
 20
1006.6927911824
 30
0.0
 11
1338.7771318544
 21
999.4054419693
 31
0.0
  0
LINE
  5
2C8
330
1F
100
AcDbEntity
  8
0
  6
Continuous
 62
     8
370
    18
100
AcDbLine
 10
1338.7771318544
 20
1032.1180927562
 30
0.0
 11
1338.7771318544
 21
1039.4054419693
 31
0.0
  0
ARC
  5
2C9
330
1F
100
AcDbEntity
  8
0
  6
Continuous
 62
     8
370
    18
100
AcDbCircle
 10
1338.7771318544
 20
1019.4054419693
 30
0.0
 40
19.9999999999998
100
AcDbArc
 50
12.4775836984
 51
90.0
  0
SPLINE
  5
2CA
330
1F
100
AcDbEntity
  8
0
  6
Continuous
 62
     8
370
    18
100
AcDbSpline
210
0.0
220
0.0
230
1.0
 70
     8
 71
     3
 72
    14
 73
    10
 74
     0
 42
0.000000001
 43
0.00000001
 40
0.0
 40
0.0
 40
0.0
 40
0.0
 40
0.1114289230413375
 40
0.4958785649679673
 40
0.7046555305618253
 40
0.8301760374257601
 40
0.9121018798659198
 40
0.9942797082137365
 40
1.0
 40
1.0
 40
1.0
 40
1.0
 10
1341.218181278692
 20
1036.088245596223
 30
0.0
 10
1341.098790233056
 20
1036.005913230974
 30
0.0
 10
1340.567478803635
 20
1035.639519533397
 30
0.0
 10
1339.89318728028
 20
1035.006748382679
 30
0.0
 10
1339.435323492519
 20
1034.215763867978
 30
0.0
 10
1339.350865742185
 20
1033.705569134115
 30
0.0
 10
1339.433330035037
 20
1033.361240528451
 30
0.0
 10
1339.55303697866
 20
1033.183540807719
 30
0.0
 10
1339.633748251866
 20
1033.108158238296
 30
0.0
 10
1339.639000833292
 20
1033.103252441766
 30
0.0
  0
SPLINE
  5
2CB
330
1F
100
AcDbEntity
  8
0
  6
Continuous
 62
     8
370
    18
100
AcDbSpline
210
0.0
220
0.0
230
1.0
 70
     8
 71
     3
 72
    14
 73
    10
 74
     0
 42
0.000000001
 43
0.00000001
 40
0.0
 40
0.0
 40
0.0
 40
0.0
 40
0.1114289230413333
 40
0.4958785649680145
 40
0.7046555305618237
 40
0.8301760374257481
 40
0.9121018798659047
 40
0.994279708213762
 40
1.0
 40
1.0
 40
1.0
 40
1.0
 10
1341.218181278692
 20
1002.722638342401
 30
0.0
 10
1341.098790233056
 20
1002.80497070765
 30
0.0
 10
1340.567478803635
 20
1003.171364405228
 30
0.0
 10
1339.893187280281
 20
1003.804135555947
 30
0.0
 10
1339.435323492519
 20
1004.595120070647
 30
0.0
 10
1339.350865742185
 20
1005.105314804509
 30
0.0
 10
1339.433330035037
 20
1005.449643410174
 30
0.0
 10
1339.55303697866
 20
1005.627343130907
 30
0.0
 10
1339.633748251866
 20
1005.702725700329
 30
0.0
 10
1339.639000833292
 20
1005.707631496859
 30
0.0
  0
SPLINE
  5
2CC
330
1F
100
AcDbEntity
  8
0
  6
Continuous
 62
     8
370
    18
100
AcDbSpline
210
0.0
220
0.0
230
1.0
 70
     8
 71
     3
 72
    14
 73
    10
 74
     0
 42
0.000000001
 43
0.00000001
 40
0.0
 40
0.0
 40
0.0
 40
0.0
 40
0.1114289230413345
 40
0.4958785649679815
 40
0.7046555305618408
 40
0.8301760374257666
 40
0.9121018798659237
 40
0.9942797082137601
 40
1.0
 40
1.0
 40
1.0
 40
1.0
 10
1244.336082430043
 20
1002.722638342401
 30
0.0
 10
1244.455473475678
 20
1002.80497070765
 30
0.0
 10
1244.986784905099
 20
1003.171364405227
 30
0.0
 10
1245.661076428454
 20
1003.804135555946
 30
0.0
 10
1246.118940216216
 20
1004.595120070646
 30
0.0
 10
1246.20339796655
 20
1005.105314804509
 30
0.0
 10
1246.120933673697
 20
1005.449643410173
 30
0.0
 10
1246.001226730075
 20
1005.627343130906
 30
0.0
 10
1245.920515456869
 20
1005.702725700329
 30
0.0
 10
1245.915262875443
 20
1005.707631496858
 30
0.0
  0
SPLINE
  5
2CD
330
1F
100
AcDbEntity
  8
0
  6
Continuous
 62
     8
370
    18
100
AcDbSpline
210
0.0
220
0.0
230
1.0
 70
     8
 71
     3
 72
    14
 73
    10
 74
     0
 42
0.000000001
 43
0.00000001
 40
0.0
 40
0.0
 40
0.0
 40
0.0
 40
0.1114289230413364
 40
0.4958785649679992
 40
0.7046555305618075
 40
0.830176037425741
 40
0.9121018798659002
 40
0.994279708213738
 40
1.0
 40
1.0
 40
1.0
 40
1.0
 10
1244.336082430043
 20
1036.088245596223
 30
0.0
 10
1244.455473475678
 20
1036.005913230974
 30
0.0
 10
1244.9867849051
 20
1035.639519533396
 30
0.0
 10
1245.661076428454
 20
1035.006748382678
 30
0.0
 10
1246.118940216216
 20
1034.215763867978
 30
0.0
 10
1246.20339796655
 20
1033.705569134115
 30
0.0
 10
1246.120933673697
 20
1033.361240528451
 30
0.0
 10
1246.001226730075
 20
1033.183540807718
 30
0.0
 10
1245.920515456869
 20
1033.108158238295
 30
0.0
 10
1245.915262875443
 20
1033.103252441766
 30
0.0
  0
ARC
  5
2CE
330
1F
100
AcDbEntity
  8
0
  6
Continuous
 62
     8
370
    18
100
AcDbCircle
 10
1246.7771318544
 20
1019.4054419693
 30
0.0
 40
20.00000000000039
100
AcDbArc
 50
90.0
 51
167.5224163016
  0
LINE
  5
2CF
330
1F
100
AcDbEntity
  8
0
  6
Continuous
 62
     8
370
    18
100
AcDbLine
 10
1246.7771318544
 20
1032.1180927562
 30
0.0
 11
1246.7771318544
 21
1039.4054419693
 31
0.0
  0
LINE
  5
2D0
330
1F
100
AcDbEntity
  8
0
  6
Continuous
 62
     8
370
    18
100
AcDbLine
 10
1246.7771318544
 20
1006.6927911824
 30
0.0
 11
1246.7771318544
 21
999.4054419693
 31
0.0
  0
ARC
  5
2D1
330
1F
100
AcDbEntity
  8
0
  6
Continuous
 62
     8
370
    18
100
AcDbCircle
 10
1246.7771318544
 20
1019.4054419693
 30
0.0
 40
20.00000000000041
100
AcDbArc
 50
192.4775836984
 51
270.0
  0
SPLINE
  5
2D2
330
1F
100
AcDbEntity
  8
0
  6
Continuous
 62
     8
370
    18
100
AcDbSpline
210
0.0
220
0.0
230
1.0
 70
     8
 71
     3
 72
    18
 73
    14
 74
     0
 42
0.000000001
 43
0.00000001
 40
0.0
 40
0.0
 40
0.0
 40
0.0
 40
0.0000017576874324
 40
0.0364929107765222
 40
0.1834197338049798
 40
0.2877695105078308
 40
0.3921441025453813
 40
0.4993591877198453
 40
0.6063886859551783
 40
0.7134284383809864
 40
0.817827044422695
 40
0.9079734932070049
 40
1.0
 40
1.0
 40
1.0
 40
1.0
 10
1345.777131854367
 20
1041.151154361302
 30
0.0
 10
1345.777151840862
 20
1041.151154361093
 30
0.0
 10
1346.192109206188
 20
1041.151150039576
 30
0.0
 10
1348.277318029864
 20
1041.088765637119
 30
0.0
 10
1351.534266977459
 20
1040.519600328763
 30
0.0
 10
1355.321587329478
 20
1039.054659997891
 30
0.0
 10
1358.420824370055
 20
1037.20636447488
 30
0.0
 10
1361.213822274263
 20
1034.872072414183
 30
0.0
 10
1363.577391325384
 20
1032.063179631944
 30
0.0
 10
1365.432628221271
 20
1028.933027427317
 30
0.0
 10
1366.668559133252
 20
1025.720237207152
 30
0.0
 10
1367.39294253637
 20
1022.526314166378
 30
0.0
 10
1367.477373390168
 20
1020.452865490718
 30
0.0
 10
1367.520024487945
 20
1019.405441969313
 30
0.0
  0
LINE
  5
2D3
330
1F
100
AcDbEntity
  8
0
  6
Continuous
 62
     8
370
    18
100
AcDbLine
 10
1345.7771318544
 20
1041.1511543613
 30
0.0
 11
1345.7771322514
 21
1041.1554419693
 31
0.0
  0
LINE
  5
2D4
330
1F
100
AcDbEntity
  8
0
  6
Continuous
 62
     8
370
    18
100
AcDbLine
 10
1367.5200244879
 20
1019.4054419693
 30
0.0
 11
1367.5155845449
 21
1019.4054419693
 31
0.0
  0
LINE
  5
2D5
330
1F
100
AcDbEntity
  8
0
  6
Continuous
 62
     8
370
    18
100
AcDbLine
 10
1345.7771318544
 20
1041.1467144368
 30
0.0
 11
1345.7771318544
 21
1041.1511543613
 31
0.0
  0
SPLINE
  5
2D6
330
1F
100
AcDbEntity
  8
0
  6
Continuous
 62
     8
370
    18
100
AcDbSpline
210
0.0
220
0.0
230
1.0
 70
     8
 71
     3
 72
    18
 73
    14
 74
     0
 42
0.000000001
 43
0.00000001
 40
0.0
 40
0.0
 40
0.0
 40
0.0
 40
0.0000017576874324
 40
0.0364929107765221
 40
0.1834197338049793
 40
0.2877695105078344
 40
0.3921441025453848
 40
0.4993591877198513
 40
0.6063886859551839
 40
0.7134284383809917
 40
0.8178270444226959
 40
0.9079734932070057
 40
1.0
 40
1.0
 40
1.0
 40
1.0
 10
1239.777131854367
 20
997.6597295773225
 30
0.0
 10
1239.777111867873
 20
997.6597295775307
 30
0.0
 10
1239.362154502594
 20
997.659733899072
 30
0.0
 10
1237.276945678776
 20
997.7221183014576
 30
0.0
 10
1234.019996731301
 20
998.291283609874
 30
0.0
 10
1230.23267637925
 20
999.7562239407298
 30
0.0
 10
1227.13343933868
 20
1001.604519463745
 30
0.0
 10
1224.340441434471
 20
1003.938811524441
 30
0.0
 10
1221.97687238335
 20
1006.74770430668
 30
0.0
 10
1220.121635487464
 20
1009.877856511307
 30
0.0
 10
1218.885704575482
 20
1013.090646731472
 30
0.0
 10
1218.161321172364
 20
1016.284569772247
 30
0.0
 10
1218.076890318566
 20
1018.358018447907
 30
0.0
 10
1218.03423922079
 20
1019.405441969312
 30
0.0
  0
LINE
  5
2D7
330
1F
100
AcDbEntity
  8
0
  6
Continuous
 62
     8
370
    18
100
AcDbLine
 10
1239.7771318544
 20
997.6597295773
 30
0.0
 11
1239.7771314573
 21
997.6554419693
 31
0.0
  0
LINE
  5
2D8
330
1F
100
AcDbEntity
  8
0
  6
Continuous
 62
     8
370
    18
100
AcDbLine
 10
1218.0342392208
 20
1019.4054419693
 30
0.0
 11
1218.0386791639
 21
1019.4054419693
 31
0.0
  0
LINE
  5
2D9
330
1F
100
AcDbEntity
  8
0
  6
Continuous
 62
     8
370
    18
100
AcDbLine
 10
1239.7771318544
 20
997.6641695018
 30
0.0
 11
1239.7771318544
 21
997.6597295773
 31
0.0
  0
SPLINE
  5
2DA
330
1F
100
AcDbEntity
  8
0
  6
Continuous
 62
     8
370
    18
100
AcDbSpline
210
0.0
220
0.0
230
1.0
 70
     8
 71
     3
 72
    18
 73
    14
 74
     0
 42
0.000000001
 43
0.00000001
 40
0.0
 40
0.0
 40
0.0
 40
0.0
 40
0.0000017576874324
 40
0.0364929107765218
 40
0.1834197338049776
 40
0.2877695105078349
 40
0.3921441025453841
 40
0.4993591877198583
 40
0.6063886859551899
 40
0.7134284383809967
 40
0.8178270444226969
 40
0.9079734932070076
 40
1.0
 40
1.0
 40
1.0
 40
1.0
 10
1345.777131854367
 20
997.6597295773234
 30
0.0
 10
1345.777151840861
 20
997.6597295775316
 30
0.0
 10
1346.19210920614
 20
997.659733899096
 30
0.0
 10
1348.277318029958
 20
997.722118301413
 30
0.0
 10
1351.534266977433
 20
998.2912836098876
 30
0.0
 10
1355.321587329484
 20
999.7562239407273
 30
0.0
 10
1358.420824370054
 20
1001.604519463746
 30
0.0
 10
1361.213822274263
 20
1003.938811524442
 30
0.0
 10
1363.577391325384
 20
1006.747704306681
 30
0.0
 10
1365.432628221271
 20
1009.877856511308
 30
0.0
 10
1366.668559133252
 20
1013.090646731473
 30
0.0
 10
1367.39294253637
 20
1016.284569772247
 30
0.0
 10
1367.477373390168
 20
1018.358018447907
 30
0.0
 10
1367.520024487945
 20
1019.405441969313
 30
0.0
  0
LINE
  5
2DB
330
1F
100
AcDbEntity
  8
0
  6
Continuous
 62
     8
370
    18
100
AcDbLine
 10
1345.7771318544
 20
997.6597295773
 30
0.0
 11
1345.7771322514
 21
997.6554419693
 31
0.0
  0
LINE
  5
2DC
330
1F
100
AcDbEntity
  8
0
  6
Continuous
 62
     8
370
    18
100
AcDbLine
 10
1345.7771318544
 20
997.6641695018
 30
0.0
 11
1345.7771318544
 21
997.6597295773
 31
0.0
  0
SPLINE
  5
2DD
330
1F
100
AcDbEntity
  8
0
  6
Continuous
 62
     8
370
    18
100
AcDbSpline
210
0.0
220
0.0
230
1.0
 70
     8
 71
     3
 72
    18
 73
    14
 74
     0
 42
0.000000001
 43
0.00000001
 40
0.0
 40
0.0
 40
0.0
 40
0.0
 40
0.0000017576874324
 40
0.0364929107765216
 40
0.1834197338049765
 40
0.2877695105078378
 40
0.3921441025453866
 40
0.499359187719857
 40
0.6063886859551879
 40
0.713428438380994
 40
0.8178270444226979
 40
0.9079734932070075
 40
1.0
 40
1.0
 40
1.0
 40
1.0
 10
1239.777131854367
 20
1041.151154361301
 30
0.0
 10
1239.777111867873
 20
1041.151154361093
 30
0.0
 10
1239.362154502642
 20
1041.151150039504
 30
0.0
 10
1237.276945678683
 20
1041.088765637259
 30
0.0
 10
1234.019996731327
 20
1040.519600328724
 30
0.0
 10
1230.232676379244
 20
1039.0546599979
 30
0.0
 10
1227.133439338682
 20
1037.206364474878
 30
0.0
 10
1224.340441434471
 20
1034.872072414182
 30
0.0
 10
1221.97687238335
 20
1032.063179631943
 30
0.0
 10
1220.121635487464
 20
1028.933027427316
 30
0.0
 10
1218.885704575482
 20
1025.720237207151
 30
0.0
 10
1218.161321172364
 20
1022.526314166377
 30
0.0
 10
1218.076890318566
 20
1020.452865490717
 30
0.0
 10
1218.03423922079
 20
1019.405441969312
 30
0.0
  0
LINE
  5
2DE
330
1F
100
AcDbEntity
  8
0
  6
Continuous
 62
     8
370
    18
100
AcDbLine
 10
1239.7771318544
 20
1041.1511543613
 30
0.0
 11
1239.7771314573
 21
1041.1554419693
 31
0.0
  0
LINE
  5
2DF
330
1F
100
AcDbEntity
  8
0
  6
Continuous
 62
     8
370
    18
100
AcDbLine
 10
1239.7771318544
 20
1041.1467144368
 30
0.0
 11
1239.7771318544
 21
1041.1511543613
 31
0.0
  0
LINE
  5
2E0
330
1F
100
AcDbEntity
  8
0
  6
Continuous
 62
     8
370
    18
100
AcDbLine
 10
1246.7771318544
 20
1039.4054419693
 30
0.0
 11
1338.7771318544
 21
1039.4054419693
 31
0.0
  0
LINE
  5
2E1
330
1F
100
AcDbEntity
  8
0
  6
Continuous
 62
     8
370
    18
100
AcDbLine
 10
1246.7771318544
 20
999.4054419693
 30
0.0
 11
1338.7771318544
 21
999.4054419693
 31
0.0
  0
LINE
  5
2E2
330
1F
100
AcDbEntity
  8
0
  6
Continuous
 62
     8
370
    18
100
AcDbLine
 10
1239.7771318544
 20
1041.1511543613
 30
0.0
 11
1345.7771318544
 21
1041.1511543613
 31
0.0
  0
LINE
  5
2E3
330
1F
100
AcDbEntity
  8
0
  6
Continuous
 62
     8
370
    18
100
AcDbLine
 10
1239.7771318544
 20
997.6597295773
 30
0.0
 11
1345.7771318544
 21
997.6597295773
 31
0.0
  0
LINE
  5
2E4
330
1F
100
AcDbEntity
  8
0
  6
Continuous
 62
     8
370
    18
100
AcDbLine
 10
1345.7771318544
 20
997.6554419693
 30
0.0
 11
1345.7771318544
 21
993.1554419693
 31
0.0
  0
LINE
  5
2E5
330
1F
100
AcDbEntity
  8
0
  6
Continuous
 62
     8
370
    18
100
AcDbLine
 10
1345.7771318544
 20
1041.1554419693
 30
0.0
 11
1345.7771318544
 21
1045.6554419693
 31
0.0
  0
ARC
  5
2E6
330
1F
100
AcDbEntity
  8
0
  6
Continuous
 62
     8
370
    18
100
AcDbCircle
 10
1345.7771318544
 20
1019.4054419693
 30
0.0
 40
26.24999999999989
100
AcDbArc
 50
270.0
 51
90.0
  0
LINE
  5
2E7
330
1F
100
AcDbEntity
  8
0
  6
Continuous
 62
     8
370
    18
100
AcDbLine
 10
1345.7771318544
 20
993.1554419693
 30
0.0
 11
1345.7771318544
 21
992.4054419693
 31
0.0
  0
LINE
  5
2E8
330
1F
100
AcDbEntity
  8
0
  6
Continuous
 62
     8
370
    18
100
AcDbLine
 10
1345.7771318544
 20
1045.6554419693
 30
0.0
 11
1345.7771318544
 21
1046.4054419693
 31
0.0
  0
LINE
  5
2E9
330
1F
100
AcDbEntity
  8
0
  6
Continuous
 62
     8
370
    18
100
AcDbLine
 10
1239.7771318544
 20
1041.1554419693
 30
0.0
 11
1239.7771318544
 21
1045.6554419693
 31
0.0
  0
LINE
  5
2EA
330
1F
100
AcDbEntity
  8
0
  6
Continuous
 62
     8
370
    18
100
AcDbLine
 10
1239.7771318544
 20
1045.6554419693
 30
0.0
 11
1345.7771318544
 21
1045.6554419693
 31
0.0
  0
LINE
  5
2EB
330
1F
100
AcDbEntity
  8
0
  6
Continuous
 62
     8
370
    18
100
AcDbLine
 10
1239.7771318544
 20
1045.6554419693
 30
0.0
 11
1239.7771318544
 21
1046.4054419693
 31
0.0
  0
LINE
  5
2EC
330
1F
100
AcDbEntity
  8
0
  6
Continuous
 62
     8
370
    18
100
AcDbLine
 10
1239.7771318544
 20
997.6554419693
 30
0.0
 11
1239.7771318544
 21
993.1554419693
 31
0.0
  0
ARC
  5
2ED
330
1F
100
AcDbEntity
  8
0
  6
Continuous
 62
     8
370
    18
100
AcDbCircle
 10
1239.7771318544
 20
1019.4054419693
 30
0.0
 40
26.24999999999966
100
AcDbArc
 50
90.0
 51
270.0
  0
LINE
  5
2EE
330
1F
100
AcDbEntity
  8
0
  6
Continuous
 62
     8
370
    18
100
AcDbLine
 10
1239.7771318544
 20
993.1554419693
 30
0.0
 11
1239.7771318544
 21
992.4054419693
 31
0.0
  0
LINE
  5
2EF
330
1F
100
AcDbEntity
  8
0
  6
Continuous
 62
     8
370
    18
100
AcDbLine
 10
1239.7771318544
 20
993.1554419693
 30
0.0
 11
1345.7771318544
 21
993.1554419693
 31
0.0
  0
CIRCLE
  5
2F0
330
1F
100
AcDbEntity
  8
0
  6
Continuous
 62
     8
370
    18
100
AcDbCircle
 10
1292.7771318544
 20
1019.4054419693
 30
0.0
 40
3.548336454629634
  0
CIRCLE
  5
2F1
330
1F
100
AcDbEntity
  8
0
  6
Continuous
 62
     8
370
    18
100
AcDbCircle
 10
1292.7771318544
 20
1019.4054419693
 30
0.0
 40
5.614709433546636
  0
ARC
  5
2F2
330
1F
100
AcDbEntity
  8
0
  6
Continuous
 62
     8
370
    18
100
AcDbCircle
 10
1292.7771318544
 20
1019.4054419693
 30
0.0
 40
7.463480267440004
100
AcDbArc
 50
126.4944476701
 51
233.50555233
  0
ARC
  5
2F3
330
1F
100
AcDbEntity
  8
0
  6
Continuous
 62
     8
370
    18
100
AcDbCircle
 10
1292.7771318544
 20
1019.4054419693
 30
0.0
 40
7.463480267439913
100
AcDbArc
 50
306.4944476701
 51
53.5055523299
  0
ARC
  5
2F4
330
1F
100
AcDbEntity
  8
0
  6
Continuous
 62
     8
370
    18
100
AcDbCircle
 10
1292.7771318544
 20
1019.4054419693
 30
0.0
 40
8.284968901367128
100
AcDbArc
 50
133.5974061618
 51
226.4025938382
  0
ARC
  5
2F5
330
1F
100
AcDbEntity
  8
0
  6
Continuous
 62
     8
370
    18
100
AcDbCircle
 10
1292.7771318544
 20
1019.4054419693
 30
0.0
 40
8.284968901367046
100
AcDbArc
 50
313.5974061618
 51
46.4025938382
  0
SPLINE
  5
2F6
330
1F
100
AcDbEntity
  8
0
  6
Continuous
 62
     7
370
    35
100
AcDbSpline
210
0.0
220
0.0
230
1.0
 70
     8
 71
     3
 72
    21
 73
    17
 74
     0
 42
0.000000001
 43
0.00000001
 40
0.0
 40
0.0
 40
0.0
 40
0.0
 40
0.0194297446418991
 40
0.1063134160536994
 40
0.1971827435430962
 40
0.2431269965577305
 40
0.2877601062885196
 40
0.3091647742106231
 40
0.329720403624076
 40
0.3691429066008304
 40
0.445052736562695
 40
0.5209828835673713
 40
0.6006991125029308
 40
0.7803290563713038
 40
0.9937101053062721
 40
1.0
 40
1.0
 40
1.0
 40
1.0
 10
2156.884745195089
 20
1434.090207035103
 30
0.0
 10
2156.847731699286
 20
1434.179328822849
 30
0.0
 10
2156.645205559524
 20
1434.666975051597
 30
0.0
 10
2156.013320001714
 20
1435.441408216534
 30
0.0
 10
2155.151460529795
 20
1436.150165542459
 30
0.0
 10
2154.373312041927
 20
1436.595381502212
 30
0.0
 10
2153.841580618127
 20
1436.810232739541
 30
0.0
 10
2153.579718472844
 20
1437.156385761716
 30
0.0
 10
2153.454359596058
 20
1437.531166678744
 30
0.0
 10
2153.502983048197
 20
1438.158848438161
 30
0.0
 10
2153.476632068786
 20
1438.955852328247
 30
0.0
 10
2153.485066525888
 20
1439.738921909881
 30
0.0
 10
2153.482015587639
 20
1440.580858784748
 30
0.0
 10
2153.483781430331
 20
1441.16675526477
 30
0.0
 10
2153.483230921782
 20
1441.361330924459
 30
0.0
 10
2153.483233324041
 20
1441.302808100466
 30
0.0
 10
2153.483233392825
 20
1441.301132401377
 30
0.0
  0
ARC
  5
2F7
330
1F
100
AcDbEntity
  8
0
  6
Continuous
 62
     7
370
    35
100
AcDbCircle
 10
2144.9198012908
 20
1386.3992036116
 30
0.0
 40
14.99995482260345
100
AcDbArc
 50
270.017911725
 51
305.1236860193
  0
ARC
  5
2F8
330
1F
100
AcDbEntity
  8
0
  6
Continuous
 62
     7
370
    35
100
AcDbCircle
 10
2105.046657469
 20
1386.3992042214
 30
0.0
 40
14.9999554324596
100
AcDbArc
 50
235.2278938985
 51
269.9820874844
  0
SPLINE
  5
2F9
330
1F
100
AcDbEntity
  8
0
  6
Continuous
 62
     7
370
    35
100
AcDbSpline
210
0.0
220
0.0
230
1.0
 70
     8
 71
     3
 72
    14
 73
    10
 74
     0
 42
0.000000001
 43
0.00000001
 40
0.0
 40
0.0
 40
0.0
 40
0.0
 40
0.0318510699604351
 40
0.1445183584978032
 40
0.2397810598301633
 40
0.3260834741522084
 40
0.5119178316921
 40
0.8180500483251134
 40
1.0
 40
1.0
 40
1.0
 40
1.0
 10
2093.098514785188
 20
1434.123050270106
 30
0.0
 10
2093.099358328595
 20
1434.124698830666
 30
0.0
 10
2093.103185751305
 20
1434.13217887031
 30
0.0
 10
2093.094122675627
 20
1434.1149961302
 30
0.0
 10
2093.073057931636
 20
1434.077801817204
 30
0.0
 10
2093.020538784244
 20
1433.989363607222
 30
0.0
 10
2092.907397900533
 20
1433.820163074871
 30
0.0
 10
2092.764993630322
 20
1433.62945796459
 30
0.0
 10
2092.636276530075
 20
1433.513901100301
 30
0.0
 10
2092.588292662418
 20
1433.470823177692
 30
0.0
  0
SPLINE
  5
2FA
330
1F
100
AcDbEntity
  8
0
  6
Continuous
 62
     7
370
    35
100
AcDbSpline
210
0.0
220
0.0
230
1.0
 70
     8
 71
     3
 72
    14
 73
    10
 74
     0
 42
0.000000001
 43
0.00000001
 40
0.0
 40
0.0
 40
0.0
 40
0.0
 40
0.1910307360998259
 40
0.5100956344581772
 40
0.6698730214208878
 40
0.7584351360450768
 40
0.8292863577795667
 40
0.9200950248507701
 40
1.0
 40
1.0
 40
1.0
 40
1.0
 10
2157.341309241765
 20
1433.503589820398
 30
0.0
 10
2157.294844853892
 20
1433.548371325631
 30
0.0
 10
2157.17077434097
 20
1433.667948158084
 30
0.0
 10
2157.037215293788
 20
1433.85053893802
 30
0.0
 10
2156.935101013791
 20
1434.007270595716
 30
0.0
 10
2156.893992291883
 20
1434.076911714051
 30
0.0
 10
2156.87540653815
 20
1434.1096313717
 30
0.0
 10
2156.866188130447
 20
1434.126512901335
 30
0.0
 10
2156.866863168111
 20
1434.125261577613
 30
0.0
 10
2156.867179129197
 20
1434.124675877551
 30
0.0
  0
SPLINE
  5
2FB
330
1F
100
AcDbEntity
  8
0
  6
Continuous
 62
     7
370
    35
100
AcDbSpline
210
0.0
220
0.0
230
1.0
 70
     8
 71
     3
 72
    13
 73
     9
 74
     0
 42
0.000000001
 43
0.00000001
 40
0.0
 40
0.0
 40
0.0
 40
0.0
 40
0.2312645577183078
 40
0.5779681688657905
 40
0.7146434894598607
 40
0.8157376955687183
 40
0.921327286297349
 40
1.0
 40
1.0
 40
1.0
 40
1.0
 10
2097.135827168385
 20
1373.649066487879
 30
0.0
 10
2097.156831946282
 20
1373.639962368072
 30
0.0
 10
2097.209326341178
 20
1373.6172096752
 30
0.0
 10
2097.272072460371
 20
1373.583043495295
 30
0.0
 10
2097.314255970899
 20
1373.55984814519
 30
0.0
 10
2097.329624815619
 20
1373.551134909819
 30
0.0
 10
2097.336245565087
 20
1373.547334382697
 30
0.0
 10
2097.335835349741
 20
1373.547570797294
 30
0.0
 10
2097.335660204018
 20
1373.547671736973
 30
0.0
  0
LINE
  5
2FC
330
1F
100
AcDbEntity
  8
0
  6
Continuous
 62
     7
370
    35
100
AcDbLine
 10
2097.1470369365
 20
1373.6617818301
 30
0.0
 11
2097.0207490948
 21
1373.7404833995
 31
0.0
  0
SPLINE
  5
2FD
330
1F
100
AcDbEntity
  8
0
  6
Continuous
 62
     7
370
    35
100
AcDbSpline
210
0.0
220
0.0
230
1.0
 70
     8
 71
     3
 72
    12
 73
     8
 74
     0
 42
0.000000001
 43
0.00000001
 40
0.0
 40
0.0
 40
0.0
 40
0.0
 40
0.1423628141228231
 40
0.249521866561494
 40
0.3688819399702054
 40
0.6085285389128006
 40
1.0
 40
1.0
 40
1.0
 40
1.0
 10
2152.630631598214
 20
1373.547571698782
 30
0.0
 10
2152.631076561677
 20
1373.54783096899
 30
0.0
 10
2152.631856457148
 20
1373.548285396551
 30
0.0
 10
2152.647307146489
 20
1373.557107603107
 30
0.0
 10
2152.68011484751
 20
1373.57521221208
 30
0.0
 10
2152.747569732629
 20
1373.612657228661
 30
0.0
 10
2152.809211961699
 20
1373.637065287332
 30
0.0
 10
2152.847447555017
 20
1373.652205177942
 30
0.0
  0
LINE
  5
2FE
330
1F
100
AcDbEntity
  8
0
  6
Continuous
 62
     7
370
    35
100
AcDbLine
 10
2144.481928825
 20
1371.3992487894
 30
0.0
 11
2156.4832292763
 21
1371.3992487894
 31
0.0
  0
ARC
  5
2FF
330
1F
100
AcDbEntity
  8
0
  6
Continuous
 62
     7
370
    35
100
AcDbCircle
 10
2156.4832292763
 20
1384.3992487894
 30
0.0
 40
13.0
100
AcDbArc
 50
270.0
 51
0.0
  0
SPLINE
  5
300
330
1F
100
AcDbEntity
  8
0
  6
Continuous
 62
     7
370
    35
100
AcDbSpline
210
0.0
220
0.0
230
1.0
 70
     8
 71
     3
 72
    10
 73
     6
 74
     0
 42
0.000000001
 43
0.00000001
 40
0.0
 40
0.0
 40
0.0
 40
0.0
 40
0.2439500987917557
 40
0.6120271436505861
 40
1.0
 40
1.0
 40
1.0
 40
1.0
 10
2153.483248916928
 20
1437.984216726962
 30
0.0
 10
2153.48324749525
 20
1438.463045417046
 30
0.0
 10
2153.483243928516
 20
1439.664340915354
 30
0.0
 10
2153.483237654703
 20
1441.031293193554
 30
0.0
 10
2153.483236202298
 20
1441.571855208915
 30
0.0
 10
2153.483235456985
 20
1441.849248789417
 30
0.0
  0
LINE
  5
301
330
1F
100
AcDbEntity
  8
0
  6
Continuous
 62
     7
370
    35
100
AcDbLine
 10
2159.9832292763
 20
1464.845687289
 30
0.0
 11
2089.9832292763
 21
1464.845687289
 31
0.0
  0
LWPOLYLINE
  5
302
330
1F
100
AcDbEntity
  8
0
  6
Continuous
 62
     7
370
    35
100
AcDbPolyline
 90
        3
 70
   128
 43
0.0
 10
2091.9832292763
 20
1450.6076057783
 10
2092.0189415094
 20
1450.2313431456
 10
2092.1082292763
 20
1449.9116352329
  0
ARC
  5
303
330
1F
100
AcDbEntity
  8
0
  6
Continuous
 62
     7
370
    35
100
AcDbCircle
 10
2160.9832292763
 20
1453.845687289
 30
0.0
 40
1.0
100
AcDbArc
 50
180.0
 51
270.0
  0
LWPOLYLINE
  5
304
330
1F
100
AcDbEntity
  8
0
  6
Continuous
 62
     7
370
    35
100
AcDbPolyline
 90
        3
 70
   128
 43
0.0
 10
2157.9832292763
 20
1450.6076057783
 10
2157.9475170432
 20
1450.2313431456
 10
2157.8582292763
 20
1449.9116352329
  0
ARC
  5
305
330
1F
100
AcDbEntity
  8
0
  6
Continuous
 62
     7
370
    35
100
AcDbCircle
 10
2088.9832292763
 20
1453.845687289
 30
0.0
 40
1.000000000000227
100
AcDbArc
 50
270.0
 51
0.0
  0
LINE
  5
306
330
1F
100
AcDbEntity
  8
0
  6
Continuous
 62
     7
370
    35
100
AcDbLine
 10
2091.9832292763
 20
1451.845687289
 30
0.0
 11
2091.9832292763
 21
1450.6076057783
 31
0.0
  0
LINE
  5
307
330
1F
100
AcDbEntity
  8
0
  6
Continuous
 62
     7
370
    35
100
AcDbLine
 10
2157.9832292763
 20
1450.6076057783
 30
0.0
 11
2157.9832292763
 21
1451.845687289
 31
0.0
  0
LINE
  5
308
330
1F
100
AcDbEntity
  8
0
  6
Continuous
 62
     7
370
    35
100
AcDbLine
 10
2152.9832292763
 20
1442.5724374555
 30
0.0
 11
2152.9832292763
 21
1441.8492487895
 31
0.0
  0
LINE
  5
309
330
1F
100
AcDbEntity
  8
0
  6
Continuous
 62
     7
370
    35
100
AcDbLine
 10
2096.9832292763
 20
1442.5724374555
 30
0.0
 11
2096.9832292763
 21
1441.8492487895
 31
0.0
  0
LINE
  5
30A
330
1F
100
AcDbEntity
  8
0
  6
Continuous
 62
     7
370
    35
100
AcDbLine
 10
2096.9832292763
 20
1441.8492487895
 30
0.0
 11
2098.5341123752
 21
1441.8492487895
 31
0.0
  0
LINE
  5
30B
330
1F
100
AcDbEntity
  8
0
  6
Continuous
 62
     7
370
    35
100
AcDbLine
 10
2151.4323461774
 20
1441.8492487895
 30
0.0
 11
2152.9819751522
 21
1441.8492487895
 31
0.0
  0
SPLINE
  5
30C
330
1F
100
AcDbEntity
  8
0
  6
Continuous
 62
     7
370
    35
100
AcDbSpline
210
0.0
220
0.0
230
1.0
 70
     8
 71
     3
 72
    12
 73
     8
 74
     0
 42
0.000000001
 43
0.00000001
 40
0.0
 40
0.0
 40
0.0
 40
0.0
 40
0.0000113964157658
 40
0.0165615426249112
 40
0.2254762501766187
 40
0.6569695733823572
 40
1.0
 40
1.0
 40
1.0
 40
1.0
 10
2156.875856527688
 20
1433.805318394074
 30
0.0
 10
2156.875861718994
 20
1433.805304585419
 30
0.0
 10
2156.883405849231
 20
1433.785237519196
 30
0.0
 10
2156.987462815282
 20
1433.508538540236
 30
0.0
 10
2157.339800608581
 20
1432.572302845768
 30
0.0
 10
2157.919659431085
 20
1430.997321798759
 30
0.0
 10
2158.354441492595
 20
1429.745557443983
 30
0.0
 10
2158.5470030197
 20
1429.191160938077
 30
0.0
  0
SPLINE
  5
30D
330
1F
100
AcDbEntity
  8
0
  6
Continuous
 62
     7
370
    35
100
AcDbSpline
210
0.0
220
0.0
230
1.0
 70
     8
 71
     3
 72
    15
 73
    11
 74
     0
 42
0.000000001
 43
0.00000001
 40
0.0
 40
0.0
 40
0.0
 40
0.0
 40
0.1214527241786903
 40
0.2436356162157054
 40
0.3679634748124467
 40
0.4929996451849703
 40
0.6185865433805137
 40
0.745033726310406
 40
0.8719902588119084
 40
1.0
 40
1.0
 40
1.0
 40
1.0
 10
2161.721583324894
 20
1418.412210522999
 30
0.0
 10
2162.053029523152
 20
1416.938823768058
 30
0.0
 10
2162.717914558059
 20
1413.983192328816
 30
0.0
 10
2163.282619537108
 20
1409.438238334581
 30
0.0
 10
2163.544234217035
 20
1404.82450712679
 30
0.0
 10
2163.450267778364
 20
1400.160399147593
 30
0.0
 10
2162.987118196048
 20
1395.491379498271
 30
0.0
 10
2162.125643710725
 20
1390.85635494904
 30
0.0
 10
2160.885450089005
 20
1386.270848498732
 30
0.0
 10
2159.70656019669
 20
1383.326819473911
 30
0.0
 10
2159.114680385212
 20
1381.848724398575
 30
0.0
  0
SPLINE
  5
30E
330
1F
100
AcDbEntity
  8
0
  6
Continuous
 62
     7
370
    35
100
AcDbSpline
210
0.0
220
0.0
230
1.0
 70
    24
 71
     3
 72
    10
 73
     6
 74
     0
 42
0.000000001
 43
0.00000001
 40
0.0
 40
0.0
 40
0.0
 40
0.0
 40
0.1884291686422634
 40
0.5522845095522015
 40
1.0
 40
1.0
 40
1.0
 40
1.0
 10
2124.983229276291
 20
1411.170487613765
 30
0.0
 10
2124.983229276291
 20
1410.642703562866
 30
0.0
 10
2124.983229276291
 20
1409.095772385487
 30
0.0
 10
2124.983229276291
 20
1406.283971867563
 30
0.0
 10
2124.983229276291
 20
1404.011437741496
 30
0.0
 10
2124.983229276291
 20
1402.757759453047
 30
0.0
  0
SPLINE
  5
30F
330
1F
100
AcDbEntity
  8
0
  6
Continuous
 62
     7
370
    35
100
AcDbSpline
210
0.0
220
0.0
230
1.0
 70
    24
 71
     3
 72
    10
 73
     6
 74
     0
 42
0.000000001
 43
0.00000001
 40
0.0
 40
0.0
 40
0.0
 40
0.0
 40
0.3005544716335556
 40
0.6481927251021716
 40
1.0
 40
1.0
 40
1.0
 40
1.0
 10
2124.983229276291
 20
1398.945687288968
 30
0.0
 10
2124.983229276291
 20
1396.941965980137
 30
0.0
 10
2124.983229276291
 20
1392.620627593598
 30
0.0
 10
2124.983229276291
 20
1386.133806714601
 30
0.0
 10
2124.983229276291
 20
1381.843296927473
 30
0.0
 10
2124.983229276291
 20
1379.68525531463
 30
0.0
  0
SPLINE
  5
310
330
1F
100
AcDbEntity
  8
0
  6
Continuous
 62
     7
370
    35
100
AcDbSpline
210
0.0
220
0.0
230
1.0
 70
    24
 71
     3
 72
    13
 73
     9
 74
     0
 42
0.000000001
 43
0.00000001
 40
0.0
 40
0.0
 40
0.0
 40
0.0
 40
0.3696468379657266
 40
0.7491630569135296
 40
0.8272821734124611
 40
0.9051799163353815
 40
0.9820955461923453
 40
1.0
 40
1.0
 40
1.0
 40
1.0
 10
2153.483229276291
 20
1441.849248789417
 30
0.0
 10
2153.495104742212
 20
1441.849248789417
 30
0.0
 10
2153.519172742903
 20
1441.849248789417
 30
0.0
 10
2153.38418060381
 20
1441.849248789417
 30
0.0
 10
2153.549062842079
 20
1441.849248789417
 30
0.0
 10
2153.23272031985
 20
1441.849248789416
 30
0.0
 10
2152.441976073304
 20
1441.849248789416
 30
0.0
 10
2151.592709415192
 20
1441.849248789416
 30
0.0
 10
2151.432346177122
 20
1441.849248789416
 30
0.0
  0
SPLINE
  5
311
330
1F
100
AcDbEntity
  8
0
  6
Continuous
 62
     7
370
    35
100
AcDbSpline
210
0.0
220
0.0
230
1.0
 70
     8
 71
     3
 72
    12
 73
     8
 74
     0
 42
0.000000001
 43
0.00000001
 40
0.0
 40
0.0
 40
0.0
 40
0.0
 40
0.000011396415745
 40
0.0165615426248908
 40
0.2254762501766569
 40
0.6569695733824107
 40
0.9999999999999999
 40
0.9999999999999999
 40
0.9999999999999999
 40
0.9999999999999999
 10
2093.090602024895
 20
1433.805318394074
 30
0.0
 10
2093.090596833589
 20
1433.805304585419
 30
0.0
 10
2093.083052703344
 20
1433.785237519167
 30
0.0
 10
2092.978995737354
 20
1433.508538540416
 30
0.0
 10
2092.626657943951
 20
1432.5723028456
 30
0.0
 10
2092.046799121509
 20
1430.997321798801
 30
0.0
 10
2091.612017059992
 20
1429.745557443996
 30
0.0
 10
2091.419455532883
 20
1429.191160938077
 30
0.0
  0
SPLINE
  5
312
330
1F
100
AcDbEntity
  8
0
  6
Continuous
 62
     7
370
    35
100
AcDbSpline
210
0.0
220
0.0
230
1.0
 70
     8
 71
     3
 72
     9
 73
     5
 74
     0
 42
0.000000001
 43
0.00000001
 40
0.0
 40
0.0
 40
0.0
 40
0.0
 40
0.1562903953765982
 40
1.0
 40
1.0
 40
1.0
 40
1.0
 10
2093.099897811646
 20
1434.124919092442
 30
0.0
 10
2093.105693165511
 20
1434.136912130601
 30
0.0
 10
2093.142773843762
 20
1434.213647736331
 30
0.0
 10
2093.148674460898
 20
1434.219221613665
 30
0.0
 10
2093.153652868248
 20
1434.223924347506
 30
0.0
  0
SPLINE
  5
313
330
1F
100
AcDbEntity
  8
0
  6
Continuous
 62
     7
370
    35
100
AcDbSpline
210
0.0
220
0.0
230
1.0
 70
     8
 71
     3
 72
    11
 73
     7
 74
     0
 42
0.000000001
 43
0.00000001
 40
0.0
 40
0.0
 40
0.0
 40
0.0
 40
0.0402999249154325
 40
0.2187640754520135
 40
0.4992077406743786
 40
1.0
 40
1.0
 40
1.0
 40
1.0
 10
2096.462578171004
 20
1437.742203897535
 30
0.0
 10
2096.470153997303
 20
1437.796918145889
 30
0.0
 10
2096.511278605834
 20
1438.093928921478
 30
0.0
 10
2096.465500572466
 20
1438.780433092106
 30
0.0
 10
2096.49333241019
 20
1440.092947929377
 30
0.0
 10
2096.487175812971
 20
1441.163193765964
 30
0.0
 10
2096.483229276291
 20
1441.849248789417
 30
0.0
  0
SPLINE
  5
314
330
1F
100
AcDbEntity
  8
0
  6
Continuous
 62
     7
370
    35
100
AcDbSpline
210
0.0
220
0.0
230
1.0
 70
    24
 71
     3
 72
    13
 73
     9
 74
     0
 42
0.000000001
 43
0.00000001
 40
0.0
 40
0.0
 40
0.0
 40
0.0
 40
0.3696468379656957
 40
0.749163056913467
 40
0.8272821734123919
 40
0.9051799163353058
 40
0.9820955461922631
 40
1.0
 40
1.0
 40
1.0
 40
1.0
 10
2096.483229276291
 20
1441.849248789417
 30
0.0
 10
2096.47135381037
 20
1441.849248789417
 30
0.0
 10
2096.447285809679
 20
1441.849248789417
 30
0.0
 10
2096.582277948773
 20
1441.849248789416
 30
0.0
 10
2096.417395710503
 20
1441.849248789417
 30
0.0
 10
2096.733738232732
 20
1441.849248789416
 30
0.0
 10
2097.524482479278
 20
1441.849248789416
 30
0.0
 10
2098.373749137392
 20
1441.849248789416
 30
0.0
 10
2098.534112375462
 20
1441.849248789416
 30
0.0
  0
SPLINE
  5
315
330
1F
100
AcDbEntity
  8
0
  6
Continuous
 62
     7
370
    35
100
AcDbSpline
210
0.0
220
0.0
230
1.0
 70
     8
 71
     3
 72
    15
 73
    11
 74
     0
 42
0.000000001
 43
0.00000001
 40
0.0
 40
0.0
 40
0.0
 40
0.0
 40
0.1214527241786848
 40
0.2436356162156997
 40
0.3679634748124417
 40
0.4929996451849654
 40
0.6185865433805107
 40
0.745033726310398
 40
0.8719902588119005
 40
1.0
 40
1.0
 40
1.0
 40
1.0
 10
2088.244875227688
 20
1418.412210522998
 30
0.0
 10
2087.91342902943
 20
1416.938823768058
 30
0.0
 10
2087.248543994525
 20
1413.983192328816
 30
0.0
 10
2086.683839015475
 20
1409.438238334581
 30
0.0
 10
2086.422224335548
 20
1404.82450712679
 30
0.0
 10
2086.516190774218
 20
1400.160399147593
 30
0.0
 10
2086.979340356535
 20
1395.491379498271
 30
0.0
 10
2087.840814841857
 20
1390.856354949039
 30
0.0
 10
2089.081008463577
 20
1386.270848498731
 30
0.0
 10
2090.259898355893
 20
1383.326819473911
 30
0.0
 10
2090.851778167371
 20
1381.848724398575
 30
0.0
  0
SPLINE
  5
316
330
1F
100
AcDbEntity
  8
0
  6
Continuous
 62
     7
370
    35
100
AcDbSpline
210
0.0
220
0.0
230
1.0
 70
    24
 71
     3
 72
    14
 73
    10
 74
     0
 42
0.000000001
 43
0.00000001
 40
0.0
 40
0.0
 40
0.0
 40
0.0
 40
0.149783861674635
 40
0.3039198677007078
 40
0.4537011775423317
 40
0.6078081864720632
 40
0.757933700022959
 40
0.9123691506710971
 40
1.0
 40
1.0
 40
1.0
 40
1.0
 10
2124.983229276291
 20
1379.68525531463
 30
0.0
 10
2124.983229276291
 20
1378.960140801789
 30
0.0
 10
2124.983229276291
 20
1377.488842730377
 30
0.0
 10
2124.983229276291
 20
1375.594403933627
 30
0.0
 10
2124.983229276291
 20
1373.977924804683
 30
0.0
 10
2124.983229276291
 20
1372.727853147987
 30
0.0
 10
2124.983229276291
 20
1371.859955537705
 30
0.0
 10
2124.983229276291
 20
1371.451834123894
 30
0.0
 10
2124.983229276291
 20
1371.413225548185
 30
0.0
 10
2124.983229276291
 20
1371.399248789417
 30
0.0
  0
LINE
  5
317
330
1F
100
AcDbEntity
  8
0
  6
Continuous
 62
     7
370
    35
100
AcDbLine
 10
2152.0586419031
 20
1373.2963603311
 30
0.0
 11
2152.5740795434
 21
1373.5148783726
 31
0.0
  0
SPLINE
  5
318
330
1F
100
AcDbEntity
  8
0
  6
Continuous
 62
     7
370
    35
100
AcDbSpline
210
0.0
220
0.0
230
1.0
 70
     8
 71
     3
 72
    10
 73
     6
 74
     0
 42
0.000000001
 43
0.00000001
 40
0.0
 40
0.0
 40
0.0
 40
0.0
 40
0.3651912706197325
 40
0.9388408861886265
 40
1.0
 40
1.0
 40
1.0
 40
1.0
 10
2152.954136141225
 20
1373.747435804047
 30
0.0
 10
2153.023640468472
 20
1373.791321875647
 30
0.0
 10
2153.202323557131
 20
1373.904145049876
 30
0.0
 10
2153.417712907338
 20
1374.046719123613
 30
0.0
 10
2153.551543392196
 20
1374.14512975768
 30
0.0
 10
2153.564436967025
 20
1374.154610892533
 30
0.0
  0
SPLINE
  5
319
330
1F
100
AcDbEntity
  8
0
  6
Continuous
 62
     7
370
    35
100
AcDbSpline
210
0.0
220
0.0
230
1.0
 70
    24
 71
     3
 72
    18
 73
    14
 74
     0
 42
0.000000001
 43
0.00000001
 40
0.0
 40
0.0
 40
0.0
 40
0.0
 40
0.0528900501225403
 40
0.1308503043354566
 40
0.2088349706568619
 40
0.2788361590001513
 40
0.3488290097785968
 40
0.4127449371310188
 40
0.4766197031471593
 40
0.5405641088728347
 40
0.6045882679846507
 40
0.8596063559737137
 40
1.0
 40
1.0
 40
1.0
 40
1.0
 10
2124.983229276291
 20
1371.399248789417
 30
0.0
 10
2125.870383222232
 20
1371.399248789417
 30
0.0
 10
2128.065207457598
 20
1371.399248789417
 30
0.0
 10
2131.425919990844
 20
1371.399248789417
 30
0.0
 10
2134.799419658299
 20
1371.399248789417
 30
0.0
 10
2137.719123381948
 20
1371.399248789417
 30
0.0
 10
2140.104330472096
 20
1371.399248789417
 30
0.0
 10
2142.024361535725
 20
1371.399248789417
 30
0.0
 10
2143.467159885192
 20
1371.399248789417
 30
0.0
 10
2144.384065432615
 20
1371.399248789417
 30
0.0
 10
2144.926239446147
 20
1371.399248789417
 30
0.0
 10
2144.896508528828
 20
1371.399248789417
 30
0.0
 10
2144.89303026708
 20
1371.399248789417
 30
0.0
 10
2144.89179528642
 20
1371.399248789417
 30
0.0
  0
LINE
  5
31A
330
1F
100
AcDbEntity
  8
0
  6
Continuous
 62
     7
370
    35
100
AcDbLine
 10
2097.9078166495
 20
1373.2963603311
 30
0.0
 11
2097.3923790092
 21
1373.5148783726
 31
0.0
  0
SPLINE
  5
31B
330
1F
100
AcDbEntity
  8
0
  6
Continuous
 62
     7
370
    35
100
AcDbSpline
210
0.0
220
0.0
230
1.0
 70
    24
 71
     3
 72
    18
 73
    14
 74
     0
 42
0.000000001
 43
0.00000001
 40
0.0
 40
0.0
 40
0.0
 40
0.0
 40
0.0528858667102838
 40
0.1296739535442667
 40
0.2088264841310641
 40
0.2780198271463665
 40
0.3488116530586189
 40
0.4119722453845722
 40
0.4765946606109485
 40
0.5395794985731359
 40
0.6046207084835754
 40
0.8595628981181281
 40
1.0
 40
1.0
 40
1.0
 40
1.0
 10
2124.983229276291
 20
1371.399248789417
 30
0.0
 10
2124.096134567574
 20
1371.399248789417
 30
0.0
 10
2121.92101510366
 20
1371.399248789417
 30
0.0
 10
2118.557419425251
 20
1371.399248789417
 30
0.0
 10
2115.19545183222
 20
1371.399248789415
 30
0.0
 10
2112.25634960064
 20
1371.399248789417
 30
0.0
 10
2109.880003960464
 20
1371.399248789417
 30
0.0
 10
2107.945110028795
 20
1371.399248789417
 30
0.0
 10
2106.519050582358
 20
1371.399248789417
 30
0.0
 10
2105.55369895649
 20
1371.399248789417
 30
0.0
 10
2105.077099132611
 20
1371.399248789417
 30
0.0
 10
2105.067949855062
 20
1371.399248789417
 30
0.0
 10
2105.07399310158
 20
1371.399248789417
 30
0.0
 10
2105.076139637945
 20
1371.399248789417
 30
0.0
  0
SPLINE
  5
31C
330
1F
100
AcDbEntity
  8
0
  6
Continuous
 62
     7
370
    35
100
AcDbSpline
210
0.0
220
0.0
230
1.0
 70
     8
 71
     3
 72
     9
 73
     5
 74
     0
 42
0.000000001
 43
0.00000001
 40
0.0
 40
0.0
 40
0.0
 40
0.0
 40
0.4409399514571277
 40
1.0
 40
1.0
 40
1.0
 40
1.0
 10
2097.021513617736
 20
1373.741591865903
 30
0.0
 10
2096.949046794708
 20
1373.78691709086
 30
0.0
 10
2096.784700554846
 20
1373.889709375402
 30
0.0
 10
2096.600478351565
 20
1374.016719508266
 30
0.0
 10
2096.497487077655
 20
1374.08772579931
 30
0.0
  0
SPLINE
  5
31D
330
1F
100
AcDbEntity
  8
0
  6
Continuous
 62
     7
370
    35
100
AcDbSpline
210
0.0
220
0.0
230
1.0
 70
     8
 71
     3
 72
    14
 73
    10
 74
     0
 42
0.000000001
 43
0.00000001
 40
0.0
 40
0.0
 40
0.0
 40
0.0
 40
0.129696900866054
 40
0.2603671951156628
 40
0.3853421446376523
 40
0.5111847557259621
 40
0.6397642884787735
 40
0.7692911603858884
 40
1.0
 40
1.0
 40
1.0
 40
1.0
 10
2160.303344165738
 20
1381.339521009176
 30
0.0
 10
2160.917660888399
 20
1382.873571993124
 30
0.0
 10
2162.15090486666
 20
1385.953187228244
 30
0.0
 10
2163.469778874332
 20
1390.689050619613
 30
0.0
 10
2164.401554165429
 20
1395.460389691037
 30
0.0
 10
2164.926208363186
 20
1400.269536378495
 30
0.0
 10
2165.037519341338
 20
1405.160916633393
 30
0.0
 10
2164.692849762795
 20
1411.389943045411
 30
0.0
 10
2163.713394300228
 20
1415.88089952584
 30
0.0
 10
2163.08611325619
 20
1418.75708121805
 30
0.0
  0
SPLINE
  5
31E
330
1F
100
AcDbEntity
  8
0
  6
Continuous
 62
     7
370
    35
100
AcDbSpline
210
0.0
220
0.0
230
1.0
 70
     8
 71
     3
 72
    14
 73
    10
 74
     0
 42
0.000000001
 43
0.00000001
 40
0.0
 40
0.0
 40
0.0
 40
0.0
 40
0.1296969008660462
 40
0.260367195115662
 40
0.3853421446376472
 40
0.5111847557259602
 40
0.6397642884787721
 40
0.7692911603858873
 40
0.9999999999999999
 40
0.9999999999999999
 40
0.9999999999999999
 40
0.9999999999999999
 10
2089.663114386845
 20
1381.339521009176
 30
0.0
 10
2089.048797664183
 20
1382.873571993124
 30
0.0
 10
2087.815553685924
 20
1385.953187228244
 30
0.0
 10
2086.49667967825
 20
1390.689050619612
 30
0.0
 10
2085.564904387155
 20
1395.460389691037
 30
0.0
 10
2085.040250189396
 20
1400.269536378494
 30
0.0
 10
2084.928939211245
 20
1405.160916633393
 30
0.0
 10
2085.273608789787
 20
1411.38994304541
 30
0.0
 10
2086.253064252355
 20
1415.88089952584
 30
0.0
 10
2086.880345296393
 20
1418.757081218049
 30
0.0
  0
SPLINE
  5
31F
330
1F
100
AcDbEntity
  8
0
  6
Continuous
 62
     7
370
    35
100
AcDbSpline
210
0.0
220
0.0
230
1.0
 70
     8
 71
     3
 72
    10
 73
     6
 74
     0
 42
0.000000001
 43
0.00000001
 40
0.0
 40
0.0
 40
0.0
 40
0.0
 40
0.3422812336048897
 40
0.6664353245310205
 40
1.0
 40
1.0
 40
1.0
 40
1.0
 10
2153.564436967025
 20
1374.154610892533
 30
0.0
 10
2154.329337591083
 20
1374.557524870511
 30
0.0
 10
2155.818629861825
 20
1375.342014586303
 30
0.0
 10
2157.679596821366
 20
1377.120694511124
 30
0.0
 10
2158.656444726467
 20
1378.479675384797
 30
0.0
 10
2159.151857007666
 20
1379.168887913398
 30
0.0
  0
SPLINE
  5
320
330
1F
100
AcDbEntity
  8
0
  6
Continuous
 62
     7
370
    35
100
AcDbSpline
210
0.0
220
0.0
230
1.0
 70
     8
 71
     3
 72
    10
 73
     6
 74
     0
 42
0.000000001
 43
0.00000001
 40
0.0
 40
0.0
 40
0.0
 40
0.0
 40
0.3422812336048847
 40
0.6664353245310173
 40
0.9999999999999999
 40
0.9999999999999999
 40
0.9999999999999999
 40
0.9999999999999999
 10
2096.402021585558
 20
1374.154610892533
 30
0.0
 10
2095.6371209615
 20
1374.557524870511
 30
0.0
 10
2094.147828690758
 20
1375.342014586303
 30
0.0
 10
2092.286861731217
 20
1377.120694511123
 30
0.0
 10
2091.310013826116
 20
1378.479675384797
 30
0.0
 10
2090.814601544917
 20
1379.168887913398
 30
0.0
  0
SPLINE
  5
321
330
1F
100
AcDbEntity
  8
0
  6
Continuous
 62
     7
370
    35
100
AcDbSpline
210
0.0
220
0.0
230
1.0
 70
     8
 71
     3
 72
     9
 73
     5
 74
     0
 42
0.000000001
 43
0.00000001
 40
0.0
 40
0.0
 40
0.0
 40
0.0
 40
0.8536363424240451
 40
1.0
 40
1.0
 40
1.0
 40
1.0
 10
2086.880345296393
 20
1418.757081218049
 30
0.0
 10
2087.752334219947
 20
1421.868162100349
 30
0.0
 10
2088.7738335168
 20
1425.512665886897
 30
0.0
 10
2089.997948973222
 20
1429.092781445103
 30
0.0
 10
2090.177114988719
 20
1429.616780252746
 30
0.0
  0
SPLINE
  5
322
330
1F
100
AcDbEntity
  8
0
  6
Continuous
 62
     7
370
    35
100
AcDbSpline
210
0.0
220
0.0
230
1.0
 70
     8
 71
     3
 72
     9
 73
     5
 74
     0
 42
0.000000001
 43
0.00000001
 40
0.0
 40
0.0
 40
0.0
 40
0.0
 40
0.853636342424066
 40
1.0
 40
1.0
 40
1.0
 40
1.0
 10
2163.08611325619
 20
1418.75708121805
 30
0.0
 10
2162.214124332635
 20
1421.868162100349
 30
0.0
 10
2161.192625035781
 20
1425.512665886897
 30
0.0
 10
2159.968509579361
 20
1429.092781445103
 30
0.0
 10
2159.789343563864
 20
1429.616780252746
 30
0.0
  0
SPLINE
  5
323
330
1F
100
AcDbEntity
  8
0
  6
Continuous
 62
     7
370
    35
100
AcDbSpline
210
0.0
220
0.0
230
1.0
 70
     8
 71
     3
 72
     9
 73
     5
 74
     0
 42
0.000000001
 43
0.00000001
 40
0.0
 40
0.0
 40
0.0
 40
0.0
 40
0.6310361367051118
 40
1.0
 40
1.0
 40
1.0
 40
1.0
 10
2090.177114988719
 20
1429.616780252746
 30
0.0
 10
2090.584896585291
 20
1430.55326163083
 30
0.0
 10
2091.231106164827
 20
1432.037299269267
 30
0.0
 10
2092.333971138736
 20
1433.181471226225
 30
0.0
 10
2092.740888460202
 20
1433.603629331739
 30
0.0
  0
SPLINE
  5
324
330
1F
100
AcDbEntity
  8
0
  6
Continuous
 62
     7
370
    35
100
AcDbSpline
210
0.0
220
0.0
230
1.0
 70
     8
 71
     3
 72
     9
 73
     5
 74
     0
 42
0.000000001
 43
0.00000001
 40
0.0
 40
0.0
 40
0.0
 40
0.0
 40
0.6310361367052222
 40
1.0
 40
1.0
 40
1.0
 40
1.0
 10
2159.789343563864
 20
1429.616780252746
 30
0.0
 10
2159.381561967291
 20
1430.55326163083
 30
0.0
 10
2158.735352387755
 20
1432.037299269266
 30
0.0
 10
2157.632487413847
 20
1433.181471226226
 30
0.0
 10
2157.225570092381
 20
1433.603629331739
 30
0.0
  0
LINE
  5
325
330
1F
100
AcDbEntity
  8
0
  6
Continuous
 62
     7
370
    35
100
AcDbLine
 10
2159.1518570077
 20
1379.1688879134
 30
0.0
 11
2160.3033441657
 21
1381.3395210092
 31
0.0
  0
LINE
  5
326
330
1F
100
AcDbEntity
  8
0
  6
Continuous
 62
     7
370
    35
100
AcDbLine
 10
2090.8146015449
 20
1379.1688879134
 30
0.0
 11
2089.6631143868
 21
1381.3395210092
 31
0.0
  0
LINE
  5
327
330
1F
100
AcDbEntity
  8
0
  6
Continuous
 62
     7
370
    35
100
AcDbLine
 10
2097.1211366274
 20
1373.6583373463
 30
0.0
 11
2097.6141039702
 21
1373.4398193048
 31
0.0
  0
LINE
  5
328
330
1F
100
AcDbEntity
  8
0
  6
Continuous
 62
     7
370
    35
100
AcDbLine
 10
2152.8453219252
 20
1373.6583373463
 30
0.0
 11
2152.3523545824
 21
1373.4398193048
 31
0.0
  0
LINE
  5
329
330
1F
100
AcDbEntity
  8
0
  6
Continuous
 62
     7
370
    35
100
AcDbLine
 10
2092.7408884602
 20
1433.6036293317
 30
0.0
 11
2092.5958192902
 21
1433.4629198545
 31
0.0
  0
LINE
  5
32A
330
1F
100
AcDbEntity
  8
0
  6
Continuous
 62
     7
370
    35
100
AcDbLine
 10
2157.2255700924
 20
1433.6036293317
 30
0.0
 11
2157.3706392624
 21
1433.4629198545
 31
0.0
  0
SPLINE
  5
32B
330
1F
100
AcDbEntity
  8
0
  6
Continuous
 62
     7
370
    35
100
AcDbSpline
210
0.0
220
0.0
230
1.0
 70
     8
 71
     3
 72
    21
 73
    17
 74
     0
 42
0.000000001
 43
0.00000001
 40
0.0
 40
0.0
 40
0.0
 40
0.0
 40
0.0385875042306209
 40
0.1137555859598131
 40
0.190558415114665
 40
0.2679261122718433
 40
0.342575867354948
 40
0.4177439138171337
 40
0.4945465859979156
 40
0.5719140750339717
 40
0.6465659329144193
 40
0.7217360672759656
 40
0.7985407486308923
 40
0.8759102056376944
 40
0.9905374157361704
 40
1.0
 40
1.0
 40
1.0
 40
1.0
 10
2162.261123341845
 20
1421.529222390199
 30
0.0
 10
2162.428215989927
 20
1421.448460946039
 30
0.0
 10
2162.920803486089
 20
1421.210376996674
 30
0.0
 10
2163.699806587789
 20
1420.724248893501
 30
0.0
 10
2164.593560613641
 20
1420.077319669209
 30
0.0
 10
2165.424519949918
 20
1419.353925680568
 30
0.0
 10
2166.186651837264
 20
1418.569907061786
 30
0.0
 10
2166.879174458205
 20
1417.72710785691
 30
0.0
 10
2167.505751805438
 20
1416.818234166457
 30
0.0
 10
2168.051149061017
 20
1415.861260521895
 30
0.0
 10
2168.510641682759
 20
1414.868970430623
 30
0.0
 10
2168.885208696237
 20
1413.844494421623
 30
0.0
 10
2169.175709830447
 20
1412.779352633637
 30
0.0
 10
2169.40787394194
 20
1411.506773494199
 30
0.0
 10
2169.481036557333
 20
1410.537611342075
 30
0.0
 10
2169.483073915615
 20
1409.941038190536
 30
0.0
 10
2169.483229276292
 20
1409.895545942402
 30
0.0
  0
SPLINE
  5
32C
330
1F
100
AcDbEntity
  8
0
  6
Continuous
 62
     7
370
    35
100
AcDbSpline
210
0.0
220
0.0
230
1.0
 70
    24
 71
     3
 72
    20
 73
    16
 74
     0
 42
0.000000001
 43
0.00000001
 40
0.0
 40
0.0
 40
0.0
 40
0.0
 40
0.0031848875244883
 40
0.0996872166702683
 40
0.1961928561586085
 40
0.292913896026428
 40
0.3894614585497523
 40
0.453145940689725
 40
0.5167654851003681
 40
0.6214864979190136
 40
0.7268808125404117
 40
0.8182687157727465
 40
0.8939620144270483
 40
0.9698304221395906
 40
0.9999999999999999
 40
0.9999999999999999
 40
0.9999999999999999
 40
0.9999999999999999
 10
2169.483229276292
 20
1409.895545942402
 30
0.0
 10
2169.483229276292
 20
1409.895948589279
 30
0.0
 10
2169.483229276292
 20
1409.908551466495
 30
0.0
 10
2169.483229276291
 20
1409.747813856255
 30
0.0
 10
2169.483229276291
 20
1409.012289675398
 30
0.0
 10
2169.483229276291
 20
1407.802645553309
 30
0.0
 10
2169.483229276292
 20
1406.30963952551
 30
0.0
 10
2169.483229276291
 20
1404.681775715176
 30
0.0
 10
2169.483229276291
 20
1402.739522840491
 30
0.0
 10
2169.483229276292
 20
1400.07205353814
 30
0.0
 10
2169.483229276291
 20
1396.847454925923
 30
0.0
 10
2169.483229276292
 20
1394.126624009538
 30
0.0
 10
2169.483229276292
 20
1391.975825371376
 30
0.0
 10
2169.483229276292
 20
1390.533305851616
 30
0.0
 10
2169.483229276292
 20
1389.76401278077
 30
0.0
 10
2169.483229276292
 20
1389.545136053973
 30
0.0
  0
SPLINE
  5
32D
330
1F
100
AcDbEntity
  8
0
  6
Continuous
 62
     7
370
    35
100
AcDbSpline
210
0.0
220
0.0
230
1.0
 70
    24
 71
     3
 72
    10
 73
     6
 74
     0
 42
0.000000001
 43
0.00000001
 40
0.0
 40
0.0
 40
0.0
 40
0.0
 40
0.2479681796226362
 40
0.4972688069878639
 40
1.0
 40
1.0
 40
1.0
 40
1.0
 10
2169.483229276292
 20
1389.545136053973
 30
0.0
 10
2169.483229276291
 20
1389.23864148401
 30
0.0
 10
2169.483229276291
 20
1388.624005406973
 30
0.0
 10
2169.483229276292
 20
1387.517935188869
 30
0.0
 10
2169.483229276292
 20
1386.76048412059
 30
0.0
 10
2169.483229276292
 20
1386.254130175336
 30
0.0
  0
LINE
  5
32E
330
1F
100
AcDbEntity
  8
0
  6
Continuous
 62
     7
370
    35
100
AcDbLine
 10
2169.4832292763
 20
1386.2541301753
 30
0.0
 11
2169.4832292763
 21
1384.3992487894
 31
0.0
  0
LINE
  5
32F
330
1F
100
AcDbEntity
  8
0
  6
Continuous
 62
     7
370
    35
100
AcDbLine
 10
2059.4832292763
 20
1451.845687289
 30
0.0
 11
2059.4832292763
 21
1452.845687289
 31
0.0
  0
LINE
  5
330
330
1F
100
AcDbEntity
  8
0
  6
Continuous
 62
     7
370
    35
100
AcDbLine
 10
2059.4832292763
 20
1452.845687289
 30
0.0
 11
2069.4832292763
 21
1452.845687289
 31
0.0
  0
LINE
  5
331
330
1F
100
AcDbEntity
  8
0
  6
Continuous
 62
     7
370
    35
100
AcDbLine
 10
2069.4832292763
 20
1451.845687289
 30
0.0
 11
2059.4832292763
 21
1451.845687289
 31
0.0
  0
LINE
  5
332
330
1F
100
AcDbEntity
  8
0
  6
Continuous
 62
     7
370
    35
100
AcDbLine
 10
2190.4832292763
 20
1452.845687289
 30
0.0
 11
2190.4832292763
 21
1451.845687289
 31
0.0
  0
LINE
  5
333
330
1F
100
AcDbEntity
  8
0
  6
Continuous
 62
     7
370
    35
100
AcDbLine
 10
2180.4832292763
 20
1452.845687289
 30
0.0
 11
2190.4832292763
 21
1452.845687289
 31
0.0
  0
LINE
  5
334
330
1F
100
AcDbEntity
  8
0
  6
Continuous
 62
     7
370
    35
100
AcDbLine
 10
2190.4832292763
 20
1451.845687289
 30
0.0
 11
2180.4832292763
 21
1451.845687289
 31
0.0
  0
LINE
  5
335
330
1F
100
AcDbEntity
  8
0
  6
Continuous
 62
     7
370
    35
100
AcDbLine
 10
2180.4832292763
 20
1452.845687289
 30
0.0
 11
2069.4832292763
 21
1452.845687289
 31
0.0
  0
LINE
  5
336
330
1F
100
AcDbEntity
  8
0
  6
Continuous
 62
     7
370
    35
100
AcDbLine
 10
2180.4832292763
 20
1451.845687289
 30
0.0
 11
2069.4832292763
 21
1451.845687289
 31
0.0
  0
LINE
  5
337
330
1F
100
AcDbEntity
  8
0
  6
Continuous
 62
     7
370
    35
100
AcDbLine
 10
2159.9832292763
 20
1464.845687289
 30
0.0
 11
2159.9832292763
 21
1463.845687289
 31
0.0
  0
LINE
  5
338
330
1F
100
AcDbEntity
  8
0
  6
Continuous
 62
     7
370
    35
100
AcDbLine
 10
2089.9832292763
 20
1463.845687289
 30
0.0
 11
2089.9832292763
 21
1464.845687289
 31
0.0
  0
LINE
  5
339
330
1F
100
AcDbEntity
  8
0
  6
Continuous
 62
     7
370
    35
100
AcDbLine
 10
2141.1379927528
 20
1437.0489129519
 30
0.0
 11
2156.7034657998
 21
1444.3072122365
 31
0.0
  0
LINE
  5
33A
330
1F
100
AcDbEntity
  8
0
  6
Continuous
 62
     7
370
    35
100
AcDbLine
 10
2139.9832292763
 20
1400.945687289
 30
0.0
 11
2139.9832292763
 21
1435.2362973778
 31
0.0
  0
ARC
  5
33B
330
1F
100
AcDbEntity
  8
0
  6
Continuous
 62
     7
370
    35
100
AcDbCircle
 10
2137.9832292763
 20
1400.945687289
 30
0.0
 40
2.0
100
AcDbArc
 50
270.0
 51
0.0
  0
ARC
  5
33C
330
1F
100
AcDbEntity
  8
0
  6
Continuous
 62
     7
370
    35
100
AcDbCircle
 10
2111.9832292763
 20
1400.945687289
 30
0.0
 40
2.0
100
AcDbArc
 50
180.0
 51
270.0
  0
ARC
  5
33D
330
1F
100
AcDbEntity
  8
0
  6
Continuous
 62
     7
370
    35
100
AcDbCircle
 10
2107.9832292763
 20
1435.2362973778
 30
0.0
 40
2.000000000000343
100
AcDbArc
 50
0.0
 51
65.0
  0
ARC
  5
33E
330
1F
100
AcDbEntity
  8
0
  6
Continuous
 62
     7
370
    35
100
AcDbCircle
 10
2094.1082292763
 20
1446.1198278106
 30
0.0
 40
2.000000000000329
100
AcDbArc
 50
180.0
 51
245.0
  0
LINE
  5
33F
330
1F
100
AcDbEntity
  8
0
  6
Continuous
 62
     7
370
    35
100
AcDbLine
 10
2092.1082292763
 20
1451.845687289
 30
0.0
 11
2092.1082292763
 21
1446.1198278106
 31
0.0
  0
LINE
  5
340
330
1F
100
AcDbEntity
  8
0
  6
Continuous
 62
     7
370
    35
100
AcDbLine
 10
2089.9832292763
 20
1463.845687289
 30
0.0
 11
2089.9832292763
 21
1452.845687289
 31
0.0
  0
LINE
  5
341
330
1F
100
AcDbEntity
  8
0
  6
Continuous
 62
     7
370
    35
100
AcDbLine
 10
2123.9832292763
 20
1418.945687289
 30
0.0
 11
2123.9832292763
 21
1428.945687289
 31
0.0
  0
ARC
  5
342
330
1F
100
AcDbEntity
  8
0
  6
Continuous
 62
     7
370
    35
100
AcDbCircle
 10
2141.9832292763
 20
1435.2362973778
 30
0.0
 40
2.0
100
AcDbArc
 50
115.0
 51
180.0
  0
ARC
  5
343
330
1F
100
AcDbEntity
  8
0
  6
Continuous
 62
     7
370
    35
100
AcDbCircle
 10
2117.4832292763
 20
1428.945687289
 30
0.0
 40
6.5
100
AcDbArc
 50
0.0
 51
180.0
  0
CIRCLE
  5
344
330
1F
100
AcDbEntity
  8
0
  6
Continuous
 62
     7
370
    35
100
AcDbCircle
 10
2124.9832292763
 20
1406.945687289
 30
0.0
 40
4.25
  0
LINE
  5
345
330
1F
100
AcDbEntity
  8
0
  6
Continuous
 62
     7
370
    35
100
AcDbLine
 10
2109.9832292763
 20
1435.2362973778
 30
0.0
 11
2109.9832292763
 21
1400.945687289
 31
0.0
  0
LINE
  5
346
330
1F
100
AcDbEntity
  8
0
  6
Continuous
 62
     7
370
    35
100
AcDbLine
 10
2093.2629927528
 20
1444.3072122365
 30
0.0
 11
2108.8284657998
 21
1437.0489129519
 31
0.0
  0
LINE
  5
347
330
1F
100
AcDbEntity
  8
0
  6
Continuous
 62
     7
370
    35
100
AcDbLine
 10
2138.9832292763
 20
1428.945687289
 30
0.0
 11
2138.9832292763
 21
1418.945687289
 31
0.0
  0
ARC
  5
348
330
1F
100
AcDbEntity
  8
0
  6
Continuous
 62
     7
370
    35
100
AcDbCircle
 10
2132.4832292763
 20
1428.945687289
 30
0.0
 40
6.5
100
AcDbArc
 50
0.0
 51
180.0
  0
LINE
  5
349
330
1F
100
AcDbEntity
  8
0
  6
Continuous
 62
     7
370
    35
100
AcDbLine
 10
2110.9832292763
 20
1428.945687289
 30
0.0
 11
2110.9832292763
 21
1418.945687289
 31
0.0
  0
LINE
  5
34A
330
1F
100
AcDbEntity
  8
0
  6
Continuous
 62
     7
370
    35
100
AcDbLine
 10
2159.9832292763
 20
1452.845687289
 30
0.0
 11
2159.9832292763
 21
1463.845687289
 31
0.0
  0
LINE
  5
34B
330
1F
100
AcDbEntity
  8
0
  6
Continuous
 62
     7
370
    35
100
AcDbLine
 10
2157.8582292763
 20
1446.1198278106
 30
0.0
 11
2157.8582292763
 21
1451.845687289
 31
0.0
  0
LINE
  5
34C
330
1F
100
AcDbEntity
  8
0
  6
Continuous
 62
     7
370
    35
100
AcDbLine
 10
2125.9832292763
 20
1418.945687289
 30
0.0
 11
2125.9832292763
 21
1428.945687289
 31
0.0
  0
ARC
  5
34D
330
1F
100
AcDbEntity
  8
0
  6
Continuous
 62
     7
370
    35
100
AcDbCircle
 10
2132.4832292763
 20
1418.945687289
 30
0.0
 40
6.5
100
AcDbArc
 50
180.0
 51
0.0
  0
ARC
  5
34E
330
1F
100
AcDbEntity
  8
0
  6
Continuous
 62
     7
370
    35
100
AcDbCircle
 10
2155.8582292763
 20
1446.1198278106
 30
0.0
 40
1.999999999999532
100
AcDbArc
 50
295.0
 51
0.0
  0
LINE
  5
34F
330
1F
100
AcDbEntity
  8
0
  6
Continuous
 62
     7
370
    35
100
AcDbLine
 10
2111.9832292763
 20
1398.945687289
 30
0.0
 11
2137.9832292763
 21
1398.945687289
 31
0.0
  0
ARC
  5
350
330
1F
100
AcDbEntity
  8
0
  6
Continuous
 62
     7
370
    35
100
AcDbCircle
 10
2117.4832292763
 20
1418.945687289
 30
0.0
 40
6.5
100
AcDbArc
 50
180.0
 51
0.0
  0
LINE
  5
351
330
1F
100
AcDbEntity
  8
0
  6
Continuous
 62
     8
370
    18
100
AcDbLine
 10
2091.9832292763
 20
1450.6076057783
 30
0.0
 11
2092.1082292763
 21
1450.6076057783
 31
0.0
  0
LINE
  5
352
330
1F
100
AcDbEntity
  8
0
  6
Continuous
 62
     8
370
    18
100
AcDbLine
 10
2157.8582292763
 20
1450.6076057783
 30
0.0
 11
2157.9832292763
 21
1450.6076057783
 31
0.0
  0
SPLINE
  5
353
330
1F
100
AcDbEntity
  8
0
  6
Continuous
 62
     8
370
    18
100
AcDbSpline
210
0.0
220
0.0
230
1.0
 70
     8
 71
     3
 72
     9
 73
     5
 74
     0
 42
0.000000001
 43
0.00000001
 40
0.0
 40
0.0
 40
0.0
 40
0.0
 40
0.463972688765903
 40
1.0
 40
1.0
 40
1.0
 40
1.0
 10
2156.927617003448
 20
1433.9991632774
 30
0.0
 10
2156.898201783837
 20
1434.060532915825
 30
0.0
 10
2156.834803182317
 20
1434.192802853067
 30
0.0
 10
2156.820482149206
 20
1434.213063882419
 30
0.0
 10
2156.812805684334
 20
1434.223924347506
 30
0.0
  0
LINE
  5
354
330
1F
100
AcDbEntity
  8
0
  6
Continuous
 62
     8
370
    18
100
AcDbLine
 10
2156.8128056843
 20
1434.2239243475
 30
0.0
 11
2156.6562384381
 21
1434.3468452677
 31
0.0
  0
SPLINE
  5
355
330
1F
100
AcDbEntity
  8
0
  6
Continuous
 62
     8
370
    18
100
AcDbSpline
210
0.0
220
0.0
230
1.0
 70
     8
 71
     3
 72
    11
 73
     7
 74
     0
 42
0.000000001
 43
0.00000001
 40
0.0
 40
0.0
 40
0.0
 40
0.0
 40
0.2986044395549171
 40
0.5785107697796634
 40
0.9999675635114514
 40
0.9999999999999999
 40
0.9999999999999999
 40
0.9999999999999999
 40
0.9999999999999999
 10
2156.656238438082
 20
1434.346845267655
 30
0.0
 10
2156.656171856026
 20
1434.341009188554
 30
0.0
 10
2156.65604286117
 20
1434.32970247584
 30
0.0
 10
2156.73572406954
 20
1434.15626852762
 30
0.0
 10
2156.822797804635
 20
1433.950563622771
 30
0.0
 10
2156.875852444769
 20
1433.805329570831
 30
0.0
 10
2156.875856527688
 20
1433.805318394074
 30
0.0
  0
SPLINE
  5
356
330
1F
100
AcDbEntity
  8
0
  6
Continuous
 62
     8
370
    18
100
AcDbSpline
210
0.0
220
0.0
230
1.0
 70
     8
 71
     3
 72
    10
 73
     6
 74
     0
 42
0.000000001
 43
0.00000001
 40
0.0
 40
0.0
 40
0.0
 40
0.0
 40
0.0305940752880604
 40
0.8849546452569954
 40
1.0
 40
1.0
 40
1.0
 40
1.0
 10
2158.5470030197
 20
1429.191160938077
 30
0.0
 10
2158.584095253184
 20
1429.082722695901
 30
0.0
 10
2159.657013588362
 20
1425.94607204594
 30
0.0
 10
2160.717413338156
 20
1422.348285582506
 30
0.0
 10
2161.615054710345
 20
1418.829773912055
 30
0.0
 10
2161.721583324894
 20
1418.412210522999
 30
0.0
  0
LINE
  5
357
330
1F
100
AcDbEntity
  8
0
  6
Continuous
 62
     8
370
    18
100
AcDbLine
 10
2159.1146803852
 20
1381.8487243986
 30
0.0
 11
2158.197326863
 21
1379.8454903531
 31
0.0
  0
SPLINE
  5
358
330
1F
100
AcDbEntity
  8
0
  6
Continuous
 62
     8
370
    18
100
AcDbSpline
210
0.0
220
0.0
230
1.0
 70
     8
 71
     3
 72
    18
 73
    14
 74
     0
 42
0.000000001
 43
0.00000001
 40
0.0
 40
0.0
 40
0.0
 40
0.0
 40
0.0497884573626106
 40
0.1520626953526053
 40
0.2542931679105416
 40
0.3525326664708924
 40
0.4508084200367183
 40
0.5543273934134058
 40
0.6578565275353612
 40
0.7740307271289424
 40
0.8901694733964504
 40
0.9999988953086805
 40
1.0
 40
1.0
 40
1.0
 40
1.0
 10
2158.197326862997
 20
1379.845490353135
 30
0.0
 10
2158.188132205406
 20
1379.861151249329
 30
0.0
 10
2158.160050105856
 20
1379.908982377527
 30
0.0
 10
2157.726257016492
 20
1379.994190346558
 30
0.0
 10
2156.210313447774
 20
1380.049761286411
 30
0.0
 10
2153.850342412288
 20
1380.114154988459
 30
0.0
 10
2150.760874084056
 20
1380.139244641071
 30
0.0
 10
2146.946344657809
 20
1380.128093834256
 30
0.0
 10
2142.312866030417
 20
1380.081197170349
 30
0.0
 10
2136.940100016645
 20
1380.002315833823
 30
0.0
 10
2131.038741404755
 20
1379.877044512703
 30
0.0
 10
2126.967361731942
 20
1379.752684924064
 30
0.0
 10
2124.983249232782
 20
1379.68525599284
 30
0.0
 10
2124.983229276291
 20
1379.68525531463
 30
0.0
  0
SPLINE
  5
359
330
1F
100
AcDbEntity
  8
0
  6
Continuous
 62
     8
370
    18
100
AcDbSpline
210
0.0
220
0.0
230
1.0
 70
     8
 71
     3
 72
    10
 73
     6
 74
     0
 42
0.000000001
 43
0.00000001
 40
0.0
 40
0.0
 40
0.0
 40
0.0
 40
0.0305940752880862
 40
0.8849546452569755
 40
0.9999999999999999
 40
0.9999999999999999
 40
0.9999999999999999
 40
0.9999999999999999
 10
2091.419455532883
 20
1429.191160938077
 30
0.0
 10
2091.382363299399
 20
1429.0827226959
 30
0.0
 10
2090.309444964213
 20
1425.946072045942
 30
0.0
 10
2089.249045214429
 20
1422.348285582505
 30
0.0
 10
2088.351403842238
 20
1418.829773912055
 30
0.0
 10
2088.244875227688
 20
1418.412210522998
 30
0.0
  0
SPLINE
  5
35A
330
1F
100
AcDbEntity
  8
0
  6
Continuous
 62
     8
370
    18
100
AcDbSpline
210
0.0
220
0.0
230
1.0
 70
     8
 71
     3
 72
    11
 73
     7
 74
     0
 42
0.000000001
 43
0.00000001
 40
0.0
 40
0.0
 40
0.0
 40
0.0
 40
0.2986044395547379
 40
0.5785107697795657
 40
0.9999675635113832
 40
0.9999999999999999
 40
0.9999999999999999
 40
0.9999999999999999
 40
0.9999999999999999
 10
2093.3102201145
 20
1434.346845267655
 30
0.0
 10
2093.310286696553
 20
1434.341009188548
 30
0.0
 10
2093.310415691404
 20
1434.329702475822
 30
0.0
 10
2093.230734483079
 20
1434.156268527699
 30
0.0
 10
2093.143660747824
 20
1433.950563622506
 30
0.0
 10
2093.090606107814
 20
1433.805329570831
 30
0.0
 10
2093.090602024895
 20
1433.805318394074
 30
0.0
  0
LINE
  5
35B
330
1F
100
AcDbEntity
  8
0
  6
Continuous
 62
     8
370
    18
100
AcDbLine
 10
2093.1536528682
 20
1434.2239243475
 30
0.0
 11
2093.3102201145
 21
1434.3468452677
 31
0.0
  0
SPLINE
  5
35C
330
1F
100
AcDbEntity
  8
0
  6
Continuous
 62
     8
370
    18
100
AcDbSpline
210
0.0
220
0.0
230
1.0
 70
     8
 71
     3
 72
    18
 73
    14
 74
     0
 42
0.000000001
 43
0.00000001
 40
0.0
 40
0.0
 40
0.0
 40
0.0
 40
0.0497884573626104
 40
0.1520626953526046
 40
0.254293167910539
 40
0.3525326664708901
 40
0.4508084200367165
 40
0.5543273934134043
 40
0.65785652753536
 40
0.774030727128942
 40
0.8901694733964505
 40
0.9999988953086806
 40
1.0
 40
1.0
 40
1.0
 40
1.0
 10
2091.769131689587
 20
1379.845490353135
 30
0.0
 10
2091.778326347177
 20
1379.861151249329
 30
0.0
 10
2091.806408446727
 20
1379.908982377527
 30
0.0
 10
2092.240201536091
 20
1379.994190346557
 30
0.0
 10
2093.756145104808
 20
1380.049761286411
 30
0.0
 10
2096.116116140295
 20
1380.114154988458
 30
0.0
 10
2099.205584468527
 20
1380.139244641069
 30
0.0
 10
2103.020113894772
 20
1380.128093834256
 30
0.0
 10
2107.653592522171
 20
1380.081197170347
 30
0.0
 10
2113.02635853591
 20
1380.00231583383
 30
0.0
 10
2118.927717147925
 20
1379.877044512674
 30
0.0
 10
2122.999096820442
 20
1379.75268492412
 30
0.0
 10
2124.983209319801
 20
1379.68525599284
 30
0.0
 10
2124.983229276291
 20
1379.68525531463
 30
0.0
  0
LINE
  5
35D
330
1F
100
AcDbEntity
  8
0
  6
Continuous
 62
     8
370
    18
100
AcDbLine
 10
2090.8517781674
 20
1381.8487243986
 30
0.0
 11
2091.7691316896
 21
1379.8454903531
 31
0.0
  0
LINE
  5
35E
330
1F
100
AcDbEntity
  8
0
  6
Continuous
 62
     8
370
    18
100
AcDbLine
 10
2158.197326863
 20
1379.8454903531
 30
0.0
 11
2158.1202057803
 21
1379.6883784936
 31
0.0
  0
SPLINE
  5
35F
330
1F
100
AcDbEntity
  8
0
  6
Continuous
 62
     8
370
    18
100
AcDbSpline
210
0.0
220
0.0
230
1.0
 70
     8
 71
     3
 72
    14
 73
    10
 74
     0
 42
0.000000001
 43
0.00000001
 40
0.0
 40
0.0
 40
0.0
 40
0.0
 40
0.2135072054013609
 40
0.6517504153255618
 40
0.8731400298126232
 40
0.9340362681777998
 40
0.9607431005770671
 40
0.9801118651181869
 40
1.0
 40
1.0
 40
1.0
 40
1.0
 10
2158.120205780273
 20
1379.68837849362
 30
0.0
 10
2157.793320648324
 20
1379.094509625091
 30
0.0
 10
2156.795473666481
 20
1377.281670189602
 30
0.0
 10
2154.894147454824
 20
1375.227646227521
 30
0.0
 10
2153.052011375552
 20
1373.896189834891
 30
0.0
 10
2152.306998759405
 20
1373.44561926443
 30
0.0
 10
2152.121853943486
 20
1373.336739955584
 30
0.0
 10
2152.055964521738
 20
1373.297294017118
 30
0.0
 10
2152.057741605686
 20
1373.29667429278
 30
0.0
 10
2152.058641903106
 20
1373.296360331123
 30
0.0
  0
SPLINE
  5
360
330
1F
100
AcDbEntity
  8
0
  6
Continuous
 62
     8
370
    18
100
AcDbSpline
210
0.0
220
0.0
230
1.0
 70
     8
 71
     3
 72
     9
 73
     5
 74
     0
 42
0.000000001
 43
0.00000001
 40
0.0
 40
0.0
 40
0.0
 40
0.0
 40
0.5224329713477028
 40
1.0
 40
1.0
 40
1.0
 40
1.0
 10
2152.574079543367
 20
1373.514878372575
 30
0.0
 10
2152.576854716064
 20
1373.516272090452
 30
0.0
 10
2152.582166732819
 20
1373.518939835317
 30
0.0
 10
2152.616469516679
 20
1373.539213380383
 30
0.0
 10
2152.632851395241
 20
1373.548895357061
 30
0.0
  0
SPLINE
  5
361
330
1F
100
AcDbEntity
  8
0
  6
Continuous
 62
     8
370
    18
100
AcDbSpline
210
0.0
220
0.0
230
1.0
 70
     8
 71
     3
 72
     9
 73
     5
 74
     0
 42
0.000000001
 43
0.00000001
 40
0.0
 40
0.0
 40
0.0
 40
0.0
 40
0.3615544521451629
 40
1.0
 40
1.0
 40
1.0
 40
1.0
 10
2152.731163718544
 20
1373.60773434367
 30
0.0
 10
2152.753360978375
 20
1373.621033620519
 30
0.0
 10
2152.814754939087
 20
1373.65781722744
 30
0.0
 10
2152.899824108655
 20
1373.712514545105
 30
0.0
 10
2152.954136141225
 20
1373.747435804047
 30
0.0
  0
SPLINE
  5
362
330
1F
100
AcDbEntity
  8
0
  6
Continuous
 62
     8
370
    18
100
AcDbSpline
210
0.0
220
0.0
230
1.0
 70
     8
 71
     3
 72
    14
 73
    10
 74
     0
 42
0.000000001
 43
0.00000001
 40
0.0
 40
0.0
 40
0.0
 40
0.0
 40
0.2135072054014824
 40
0.6517504153255879
 40
0.8731400298126332
 40
0.934036268177805
 40
0.9607431005770702
 40
0.9801118651181884
 40
1.0
 40
1.0
 40
1.0
 40
1.0
 10
2091.846252772309
 20
1379.688378493622
 30
0.0
 10
2092.173137904259
 20
1379.094509625093
 30
0.0
 10
2093.170984886102
 20
1377.281670189602
 30
0.0
 10
2095.072311097759
 20
1375.22764622752
 30
0.0
 10
2096.914447177031
 20
1373.896189834891
 30
0.0
 10
2097.659459793177
 20
1373.44561926443
 30
0.0
 10
2097.844604609097
 20
1373.336739955583
 30
0.0
 10
2097.910494030845
 20
1373.297294017118
 30
0.0
 10
2097.908716946896
 20
1373.29667429278
 30
0.0
 10
2097.907816649476
 20
1373.296360331123
 30
0.0
  0
LINE
  5
363
330
1F
100
AcDbEntity
  8
0
  6
Continuous
 62
     8
370
    18
100
AcDbLine
 10
2091.7691316896
 20
1379.8454903531
 30
0.0
 11
2091.8462527723
 21
1379.6883784936
 31
0.0
  0
SPLINE
  5
364
330
1F
100
AcDbEntity
  8
0
  6
Continuous
 62
     8
370
    18
100
AcDbSpline
210
0.0
220
0.0
230
1.0
 70
     8
 71
     3
 72
     9
 73
     5
 74
     0
 42
0.000000001
 43
0.00000001
 40
0.0
 40
0.0
 40
0.0
 40
0.0
 40
0.4374209941832246
 40
1.0
 40
1.0
 40
1.0
 40
1.0
 10
2097.392379009217
 20
1373.514878372574
 30
0.0
 10
2097.389174646961
 20
1373.516532732937
 30
0.0
 10
2097.381849067489
 20
1373.520314811037
 30
0.0
 10
2097.339898417888
 20
1373.545124344688
 30
0.0
 10
2097.316297863142
 20
1373.559081667464
 30
0.0
  0
LINE
  5
365
330
1F
100
AcDbEntity
  8
0
  6
Continuous
 62
     8
370
    18
100
AcDbLine
 10
2097.1470369365
 20
1373.6617818301
 30
0.0
 11
2097.0215136177
 21
1373.7415918659
 31
0.0
  0
LWPOLYLINE
  5
366
330
1F
100
AcDbEntity
  8
0
  6
Continuous
 62
     8
370
    18
100
AcDbPolyline
 90
        9
 70
   128
 43
0.0
 10
2090.8517781674
 20
1381.8487243986
 10
2090.8348428049
 20
1381.8413576907
 10
2090.796309411
 20
1381.8246492343
 10
2090.7364822054
 20
1381.7987309419
 10
2090.6558335219
 20
1381.7638074376
 10
2090.555000079
 20
1381.7201544413
 10
2090.4347779532
 20
1381.6681165918
 10
2090.296116294
 20
1381.6081047261
 10
2090.1401098304
 20
1381.5405926359
  0
SPLINE
  5
367
330
1F
100
AcDbEntity
  8
0
  6
Continuous
 62
     8
370
    18
100
AcDbSpline
210
0.0
220
0.0
230
1.0
 70
     8
 71
     3
 72
    14
 73
    10
 74
     0
 42
0.000000001
 43
0.00000001
 40
0.0
 40
0.0
 40
0.0
 40
0.0
 40
0.1277343155302461
 40
0.2554736424753194
 40
0.3815295141037284
 40
0.5075900262814174
 40
0.7106819552125422
 40
0.9137761853290176
 40
1.0
 40
1.0
 40
1.0
 40
1.0
 10
2090.140109830435
 20
1381.540592635884
 30
0.0
 10
2089.540868295586
 20
1383.036345659712
 30
0.0
 10
2088.342361715777
 20
1386.027910390415
 30
0.0
 10
2087.054961232648
 20
1390.671845711174
 30
0.0
 10
2086.145620415181
 20
1395.377745798209
 30
0.0
 10
2085.534399068817
 20
1401.090860532115
 30
0.0
 10
2085.547161718825
 20
1407.817898063297
 30
0.0
 10
2086.322259686479
 20
1413.999730717944
 30
0.0
 10
2087.170050722467
 20
1417.547906289866
 30
0.0
 10
2087.42271307272
 20
1418.605348915535
 30
0.0
  0
ARC
  5
368
330
1F
100
AcDbEntity
  8
0
  6
Continuous
 62
     8
370
    18
100
AcDbCircle
 10
2092.7783350063
 20
1439.5569737742
 30
0.0
 40
21.62529237979115
100
AcDbArc
 50
255.6611818031
 51
257.8989240717
  0
SPLINE
  5
369
330
1F
100
AcDbEntity
  8
0
  6
Continuous
 62
     8
370
    18
100
AcDbSpline
210
0.0
220
0.0
230
1.0
 70
     8
 71
     3
 72
    14
 73
    10
 74
     0
 42
0.000000001
 43
0.00000001
 40
0.0
 40
0.0
 40
0.0
 40
0.0
 40
0.127247386060472
 40
0.2554745767697359
 40
0.3810919869018173
 40
0.5075916090131538
 40
0.708960736825627
 40
0.9137762176246971
 40
0.9999999999999999
 40
0.9999999999999999
 40
0.9999999999999999
 40
0.9999999999999999
 10
2159.826348722148
 20
1381.540592635884
 30
0.0
 10
2160.423664576416
 20
1383.030501999815
 30
0.0
 10
2161.622895615979
 20
1386.021793027158
 30
0.0
 10
2162.908526500533
 20
1390.66055563845
 30
0.0
 10
2163.820606396673
 20
1395.372131631929
 30
0.0
 10
2164.429594062787
 20
1401.063761957917
 30
0.0
 10
2164.420146008385
 20
1407.795829085213
 30
0.0
 10
2163.649262994869
 20
1413.978632011412
 30
0.0
 10
2162.796412426043
 20
1417.547908924634
 30
0.0
 10
2162.543745479862
 20
1418.605348915535
 30
0.0
  0
LWPOLYLINE
  5
36A
330
1F
100
AcDbEntity
  8
0
  6
Continuous
 62
     8
370
    18
100
AcDbPolyline
 90
        9
 70
   128
 43
0.0
 10
2159.1146803852
 20
1381.8487243986
 10
2159.1316157477
 20
1381.8413576907
 10
2159.1701491416
 20
1381.8246492343
 10
2159.2299763472
 20
1381.7987309419
 10
2159.3106250307
 20
1381.7638074376
 10
2159.4114584736
 20
1381.7201544413
 10
2159.5316805994
 20
1381.6681165918
 10
2159.6703422585
 20
1381.6081047261
 10
2159.8263487221
 20
1381.5405926359
  0
ARC
  5
36B
330
1F
100
AcDbEntity
  8
0
  6
Continuous
 62
     8
370
    18
100
AcDbCircle
 10
2157.1881235466
 20
1439.5569737731
 30
0.0
 40
21.62529237868009
100
AcDbArc
 50
282.1010759283
 51
284.338818197
  0
SPLINE
  5
36C
330
1F
100
AcDbEntity
  8
0
  6
Continuous
 62
     8
370
    18
100
AcDbSpline
210
0.0
220
0.0
230
1.0
 70
     8
 71
     3
 72
    17
 73
    13
 74
     0
 42
0.000000001
 43
0.00000001
 40
0.0
 40
0.0
 40
0.0
 40
0.0
 40
0.0045109817899505
 40
0.0089278415503376
 40
0.0130797684277631
 40
0.0177777921768899
 40
0.0339670776357902
 40
0.0840600072516061
 40
0.3047425979556588
 40
0.7692822253149073
 40
0.8273200843747958
 40
1.0
 40
1.0
 40
1.0
 40
1.0
 10
2152.352354582431
 20
1373.439819304821
 30
0.0
 10
2152.348035294493
 20
1373.438055516009
 30
0.0
 10
2152.339486840935
 20
1373.434564739995
 30
0.0
 10
2152.340679299684
 20
1373.436279275792
 30
0.0
 10
2152.355528395979
 20
1373.444600181642
 30
0.0
 10
2152.402467007551
 20
1373.469270233078
 30
0.0
 10
2152.584811533427
 20
1373.56248242489
 30
0.0
 10
2153.352818589688
 20
1373.966426366216
 30
0.0
 10
2155.249734372835
 20
1375.157539735467
 30
0.0
 10
2156.893709486161
 20
1376.754652262039
 30
0.0
 10
2158.162367341467
 20
1378.441302098979
 30
0.0
 10
2158.527962608925
 20
1379.039433976732
 30
0.0
 10
2158.801591114677
 20
1379.487103699294
 30
0.0
  0
ARC
  5
36D
330
1F
100
AcDbEntity
  8
0
  6
Continuous
 62
     8
370
    18
100
AcDbCircle
 10
2153.5064292614
 20
1370.7046110181
 30
0.0
 40
2.968712302724424
100
AcDbArc
 50
112.8764869256
 51
119.1883353828
  0
ARC
  5
36E
330
1F
100
AcDbEntity
  8
0
  6
Continuous
 62
     8
370
    18
100
AcDbCircle
 10
2157.9890198869
 20
1377.9902676927
 30
0.0
 40
1.70317058183885
100
AcDbArc
 50
61.5042694372
 51
85.582444766
  0
ARC
  5
36F
330
1F
100
AcDbEntity
  8
0
  6
Continuous
 62
     8
370
    18
100
AcDbCircle
 10
2096.4600292912
 20
1370.704611018
 30
0.0
 40
2.968712302792297
100
AcDbArc
 50
60.8116646173
 51
67.1235130743
  0
SPLINE
  5
370
330
1F
100
AcDbEntity
  8
0
  6
Continuous
 62
     8
370
    18
100
AcDbSpline
210
0.0
220
0.0
230
1.0
 70
     8
 71
     3
 72
    17
 73
    13
 74
     0
 42
0.000000001
 43
0.00000001
 40
0.0
 40
0.0
 40
0.0
 40
0.0
 40
0.004510981789951
 40
0.0089278415503384
 40
0.0130797684277643
 40
0.0177777921768912
 40
0.0339670776357926
 40
0.0840600072516121
 40
0.3047425979556788
 40
0.7692822253148901
 40
0.8273200843747814
 40
0.9999999999999999
 40
0.9999999999999999
 40
0.9999999999999999
 40
0.9999999999999999
 10
2097.614103970152
 20
1373.43981930482
 30
0.0
 10
2097.61842325809
 20
1373.438055516009
 30
0.0
 10
2097.626971711647
 20
1373.434564739995
 30
0.0
 10
2097.625779252898
 20
1373.436279275792
 30
0.0
 10
2097.610930156604
 20
1373.444600181642
 30
0.0
 10
2097.563991545032
 20
1373.469270233078
 30
0.0
 10
2097.381647019156
 20
1373.562482424889
 30
0.0
 10
2096.613639962895
 20
1373.966426366216
 30
0.0
 10
2094.716724179748
 20
1375.157539735466
 30
0.0
 10
2093.072749066423
 20
1376.754652262039
 30
0.0
 10
2091.804091211116
 20
1378.441302098978
 30
0.0
 10
2091.438495943659
 20
1379.039433976732
 30
0.0
 10
2091.164867437907
 20
1379.487103699294
 30
0.0
  0
ARC
  5
371
330
1F
100
AcDbEntity
  8
0
  6
Continuous
 62
     8
370
    18
100
AcDbCircle
 10
2091.9774386657
 20
1377.9902676927
 30
0.0
 40
1.703170581859432
100
AcDbArc
 50
94.4175552344
 51
118.4957305629
  0
SPLINE
  5
372
330
1F
100
AcDbEntity
  8
0
  6
Continuous
 62
     8
370
    18
100
AcDbSpline
210
0.0
220
0.0
230
1.0
 70
     8
 71
     3
 72
    10
 73
     6
 74
     0
 42
0.000000001
 43
0.00000001
 40
0.0
 40
0.0
 40
0.0
 40
0.0
 40
0.0049102993503902
 40
0.1151643441717026
 40
1.0
 40
1.0
 40
1.0
 40
1.0
 10
2087.42271307272
 20
1418.605348915535
 30
0.0
 10
2087.427343152748
 20
1418.62328447762
 30
0.0
 10
2087.535935336591
 20
1419.043938514686
 30
0.0
 10
2088.494680933105
 20
1422.692728139858
 30
0.0
 10
2089.648116156132
 20
1426.266670430084
 30
0.0
 10
2090.673752951846
 20
1429.44462671704
 30
0.0
  0
ARC
  5
373
330
1F
100
AcDbEntity
  8
0
  6
Continuous
 62
     8
370
    18
100
AcDbCircle
 10
2125.0200673206
 20
1529.2686611771
 30
0.0
 40
105.5675478856769
100
AcDbArc
 50
251.0132691526
 51
251.4407337296
  0
ARC
  5
374
330
1F
100
AcDbEntity
  8
0
  6
Continuous
 62
     8
370
    18
100
AcDbCircle
 10
2124.9463912403
 20
1529.2686611524
 30
0.0
 40
105.5675478596461
100
AcDbArc
 50
288.5592662704
 51
288.9867308475
  0
SPLINE
  5
375
330
1F
100
AcDbEntity
  8
0
  6
Continuous
 62
     8
370
    18
100
AcDbSpline
210
0.0
220
0.0
230
1.0
 70
     8
 71
     3
 72
    10
 73
     6
 74
     0
 42
0.000000001
 43
0.00000001
 40
0.0
 40
0.0
 40
0.0
 40
0.0
 40
0.0049102993503903
 40
0.1151643441716847
 40
0.9999999999999999
 40
0.9999999999999999
 40
0.9999999999999999
 40
0.9999999999999999
 10
2162.543745479862
 20
1418.605348915535
 30
0.0
 10
2162.539115399835
 20
1418.623284477621
 30
0.0
 10
2162.430523215991
 20
1419.043938514686
 30
0.0
 10
2161.471777619482
 20
1422.692728139859
 30
0.0
 10
2160.318342396453
 20
1426.266670430085
 30
0.0
 10
2159.292705600737
 20
1429.44462671704
 30
0.0
  0
ARC
  5
376
330
1F
100
AcDbEntity
  8
0
  6
Continuous
 62
     8
370
    18
100
AcDbCircle
 10
2159.2873933705
 20
1435.7727371372
 30
0.0
 40
2.992681724133949
100
AcDbArc
 50
208.4544255779
 51
226.4525487523
  0
SPLINE
  5
377
330
1F
100
AcDbEntity
  8
0
  6
Continuous
 62
     8
370
    18
100
AcDbSpline
210
0.0
220
0.0
230
1.0
 70
     8
 71
     3
 72
    15
 73
    11
 74
     0
 42
0.000000001
 43
0.00000001
 40
0.0
 40
0.0
 40
0.0
 40
0.0
 40
0.3092031051605956
 40
0.6638382552574964
 40
0.8039861739636707
 40
0.9077221477257725
 40
0.9361281220494161
 40
0.9546919441403817
 40
0.9789089794125909
 40
1.0
 40
1.0
 40
1.0
 40
1.0
 10
2159.292705600737
 20
1429.44462671704
 30
0.0
 10
2159.108746132021
 20
1429.932346226768
 30
0.0
 10
2158.713797534442
 20
1430.979447187236
 30
0.0
 10
2158.064259871166
 20
1432.180633089925
 30
0.0
 10
2157.563779033602
 20
1433.03671077047
 30
0.0
 10
2157.341082533003
 20
1433.398840439458
 30
0.0
 10
2157.245914208743
 20
1433.548183136912
 30
0.0
 10
2157.216640661892
 20
1433.597542480337
 30
0.0
 10
2157.208006188176
 20
1433.618344201562
 30
0.0
 10
2157.219991089102
 20
1433.608303366966
 30
0.0
 10
2157.225570092381
 20
1433.603629331739
 30
0.0
  0
SPLINE
  5
378
330
1F
100
AcDbEntity
  8
0
  6
Continuous
 62
     8
370
    18
100
AcDbSpline
210
0.0
220
0.0
230
1.0
 70
     8
 71
     3
 72
    15
 73
    11
 74
     0
 42
0.000000001
 43
0.00000001
 40
0.0
 40
0.0
 40
0.0
 40
0.0
 40
0.3092031051605215
 40
0.6638382552574135
 40
0.803986173963675
 40
0.9077221477257745
 40
0.9361281220494175
 40
0.9546919441403827
 40
0.9789089794125913
 40
1.0
 40
1.0
 40
1.0
 40
1.0
 10
2090.673752951846
 20
1429.44462671704
 30
0.0
 10
2090.857712420562
 20
1429.932346226768
 30
0.0
 10
2091.252661018141
 20
1430.979447187235
 30
0.0
 10
2091.902198681416
 20
1432.180633089926
 30
0.0
 10
2092.402679518982
 20
1433.03671077047
 30
0.0
 10
2092.62537601958
 20
1433.398840439458
 30
0.0
 10
2092.720544343841
 20
1433.548183136912
 30
0.0
 10
2092.749817890691
 20
1433.597542480337
 30
0.0
 10
2092.758452364407
 20
1433.618344201562
 30
0.0
 10
2092.746467463481
 20
1433.608303366966
 30
0.0
 10
2092.740888460202
 20
1433.603629331739
 30
0.0
  0
ARC
  5
379
330
1F
100
AcDbEntity
  8
0
  6
Continuous
 62
     8
370
    18
100
AcDbCircle
 10
2090.6790651822
 20
1435.7727371372
 30
0.0
 40
2.992681724069736
100
AcDbArc
 50
313.5474512475
 51
331.5455744224
  0
LINE
  5
37A
330
1F
100
AcDbEntity
  8
0
  6
Continuous
 62
     8
370
    18
100
AcDbLine
 10
2158.8942576842
 20
1379.6506408761
 30
0.0
 11
2159.8263487221
 21
1381.5405926359
 31
0.0
  0
ARC
  5
37B
330
1F
100
AcDbEntity
  8
0
  6
Continuous
 62
     8
370
    18
100
AcDbCircle
 10
2158.0968226194
 20
1378.1422065973
 30
0.0
 40
1.706246364312604
100
AcDbArc
 50
62.1367925984
 51
86.6231112419
  0
ARC
  5
37C
330
1F
100
AcDbEntity
  8
0
  6
Continuous
 62
     8
370
    18
100
AcDbCircle
 10
2091.8696359332
 20
1378.1422065973
 30
0.0
 40
1.706246364317362
100
AcDbArc
 50
93.3768887581
 51
117.8632074016
  0
LINE
  5
37D
330
1F
100
AcDbEntity
  8
0
  6
Continuous
 62
     8
370
    18
100
AcDbLine
 10
2091.0722008684
 20
1379.6506408761
 30
0.0
 11
2090.1401098304
 21
1381.5405926359
 31
0.0
  0
ARC
  5
37E
330
1F
100
AcDbEntity
  8
0
  6
Continuous
 62
     8
370
    18
100
AcDbCircle
 10
2159.3151583344
 20
1431.1911618726
 30
0.0
 40
12.99332377596415
100
AcDbArc
 50
284.3876121928
 51
286.8712772965
  0
ARC
  5
37F
330
1F
100
AcDbEntity
  8
0
  6
Continuous
 62
     8
370
    18
100
AcDbCircle
 10
2170.7279964971
 20
1406.7358883276
 30
0.0
 40
27.45266561195924
100
AcDbArc
 50
246.6025480369
 51
247.6829243031
  0
ARC
  5
380
330
1F
100
AcDbEntity
  8
0
  6
Continuous
 62
     8
370
    18
100
AcDbCircle
 10
2090.6513002187
 20
1431.1911618743
 30
0.0
 40
12.9933237777109
100
AcDbArc
 50
253.1287227037
 51
255.612387807
  0
ARC
  5
381
330
1F
100
AcDbEntity
  8
0
  6
Continuous
 62
     8
370
    18
100
AcDbCircle
 10
2079.2384620592
 20
1406.7358883188
 30
0.0
 40
27.45266560242671
100
AcDbArc
 50
292.3170756967
 51
293.3974519633
  0
LINE
  5
382
330
1F
100
AcDbEntity
  8
0
  6
Continuous
 62
     8
370
    18
100
AcDbLine
 10
2091.1648674379
 20
1379.4871036993
 30
0.0
 11
2091.0722008684
 21
1379.6506408761
 31
0.0
  0
LINE
  5
383
330
1F
100
AcDbEntity
  8
0
  6
Continuous
 62
     8
370
    18
100
AcDbLine
 10
2158.8015911147
 20
1379.4871036993
 30
0.0
 11
2158.8942576842
 21
1379.6506408761
 31
0.0
  0
ARC
  5
384
330
1F
100
AcDbEntity
  8
0
  6
Continuous
 62
     8
370
    18
100
AcDbCircle
 10
2158.2676333579
 20
1378.5474867952
 30
0.0
 40
1.080736236279612
100
AcDbArc
 50
35.0981925253
 51
60.3916535263
  0
ARC
  5
385
330
1F
100
AcDbEntity
  8
0
  6
Continuous
 62
     8
370
    18
100
AcDbCircle
 10
2091.6988251946
 20
1378.5474867952
 30
0.0
 40
1.080736236292525
100
AcDbArc
 50
119.6083464738
 51
144.9018074745
  0
ARC
  5
386
330
1F
100
AcDbEntity
  8
0
  6
Continuous
 62
     8
370
    18
100
AcDbCircle
 10
2132.4667913316
 20
1550.8139173406
 30
0.0
 40
128.3634011837836
100
AcDbArc
 50
250.7644365914
 51
250.9990545453
  0
ARC
  5
387
330
1F
100
AcDbEntity
  8
0
  6
Continuous
 62
     8
370
    18
100
AcDbCircle
 10
2117.4996671959
 20
1550.8139174129
 30
0.0
 40
128.3634012603139
100
AcDbArc
 50
289.0009454548
 51
289.2355634085
  0
ARC
  5
388
330
1F
100
AcDbEntity
  8
0
  6
Continuous
 62
     8
370
    18
100
AcDbCircle
 10
2095.859116861
 20
1370.9440442581
 30
0.0
 40
2.993339415959948
100
AcDbArc
 50
59.1878754258
 51
65.0637682689
  0
ARC
  5
389
330
1F
100
AcDbEntity
  8
0
  6
Continuous
 62
     8
370
    18
100
AcDbCircle
 10
2154.1073416917
 20
1370.944044258
 30
0.0
 40
2.993339416117169
100
AcDbArc
 50
114.9362317313
 51
120.8121245741
  0
ARC
  5
38A
330
1F
100
AcDbEntity
  8
0
  6
Continuous
 62
     8
370
    18
100
AcDbCircle
 10
2090.4865492323
 20
1435.5940173027
 30
0.0
 40
2.998432342244052
100
AcDbArc
 50
314.7050712486
 51
332.8104033969
  0
ARC
  5
38B
330
1F
100
AcDbEntity
  8
0
  6
Continuous
 62
     8
370
    18
100
AcDbCircle
 10
2159.4799093203
 20
1435.5940173028
 30
0.0
 40
2.998432342279102
100
AcDbArc
 50
207.1895966032
 51
225.2949287514
  0
SPLINE
  5
38C
330
1F
100
AcDbEntity
  8
0
  6
Continuous
 62
     8
370
    18
100
AcDbSpline
210
0.0
220
0.0
230
1.0
 70
     8
 71
     3
 72
    14
 73
    10
 74
     0
 42
0.000000001
 43
0.00000001
 40
0.0
 40
0.0
 40
0.0
 40
0.0
 40
0.1092374782648815
 40
0.2581253635230512
 40
0.4079301969031683
 40
0.560844587078257
 40
0.7149451852848115
 40
0.9256729043329446
 40
1.0
 40
1.0
 40
1.0
 40
1.0
 10
2160.149953164695
 20
1380.482492813358
 30
0.0
 10
2160.319856286132
 20
1380.867084028474
 30
0.0
 10
2160.721333010799
 20
1381.775863220253
 30
0.0
 10
2161.331657171657
 20
1383.315208094474
 30
0.0
 10
2161.968893302131
 20
1385.114644359664
 30
0.0
 10
2162.563578967637
 20
1387.033431923097
 30
0.0
 10
2163.159025705954
 20
1389.311980778211
 30
0.0
 10
2163.610135412477
 20
1391.318991641105
 30
0.0
 10
2163.809700447579
 20
1392.675938389477
 30
0.0
 10
2163.861736367304
 20
1393.029757744825
 30
0.0
  0
LWPOLYLINE
  5
38D
330
1F
100
AcDbEntity
  8
0
  6
Continuous
 62
     8
370
    18
100
AcDbPolyline
 90
        3
 70
   128
 43
0.0
 10
2160.1499531647
 20
1380.4824928134
 10
2159.830256494
 20
1380.4919076222
 10
2159.8111280969
 20
1380.4914571072
  0
LWPOLYLINE
  5
38E
330
1F
100
AcDbEntity
  8
0
  6
Continuous
 62
     8
370
    18
100
AcDbPolyline
 90
        9
 70
   128
 43
0.0
 10
2160.1499531647
 20
1380.4824928134
 10
2162.0972880625
 20
1381.025203231
 10
2163.9001205815
 20
1381.7872114165
 10
2165.5120469347
 20
1382.7489037535
 10
2166.8915771411
 20
1383.8855268798
 10
2168.0032029518
 20
1385.1678248236
 10
2168.8183118103
 20
1386.5627920339
 10
2169.315923322
 20
1388.0345229231
 10
2169.4832292763
 20
1389.545136054
  0
SPLINE
  5
38F
330
1F
100
AcDbEntity
  8
0
  6
Continuous
 62
     8
370
    18
100
AcDbSpline
210
0.0
220
0.0
230
1.0
 70
     8
 71
     3
 72
     9
 73
     5
 74
     0
 42
0.000000001
 43
0.00000001
 40
0.0
 40
0.0
 40
0.0
 40
0.0
 40
0.5770474436019689
 40
1.0
 40
1.0
 40
1.0
 40
1.0
 10
2156.483229276291
 20
1375.255247023215
 30
0.0
 10
2157.274518797068
 20
1376.110043187875
 30
0.0
 10
2158.645791695943
 20
1377.591370545161
 30
0.0
 10
2159.702862405707
 20
1379.623147539551
 30
0.0
 10
2160.149953164695
 20
1380.482492813358
 30
0.0
  0
SPLINE
  5
390
330
1F
100
AcDbEntity
  8
0
  6
Continuous
 62
     8
370
    18
100
AcDbSpline
210
0.0
220
0.0
230
1.0
 70
     8
 71
     3
 72
    10
 73
     6
 74
     0
 42
0.000000001
 43
0.00000001
 40
0.0
 40
0.0
 40
0.0
 40
0.0
 40
0.3947082167602003
 40
0.7987089853918563
 40
1.0
 40
1.0
 40
1.0
 40
1.0
 10
2156.483229276291
 20
1375.255247023215
 30
0.0
 10
2155.339858735817
 20
1374.525180309386
 30
0.0
 10
2153.026199466687
 20
1373.047859038859
 30
0.0
 10
2149.856330906082
 20
1371.927401976591
 30
0.0
 10
2147.887490879252
 20
1371.762479197863
 30
0.0
 10
2147.23274912069
 20
1371.707633792091
 30
0.0
  0
LWPOLYLINE
  5
391
330
1F
100
AcDbEntity
  8
0
  6
Continuous
 62
     8
370
    18
100
AcDbPolyline
 90
       10
 70
   128
 43
0.0
 10
2169.4832292763
 20
1386.2541301753
 10
2169.2857300655
 20
1384.3441941596
 10
2168.6992333465
 20
1382.4922905832
 10
2167.7415595255
 20
1380.7546885993
 10
2166.4418070368
 20
1379.1841843648
 10
2164.8394682022
 20
1377.8284968561
 10
2162.9832292763
 20
1376.7288179523
 10
2160.9294911395
 20
1375.9185608404
 10
2158.740655586
 20
1375.4223447727
 10
2156.4832292763
 20
1375.2552470232
  0
LINE
  5
392
330
1F
100
AcDbEntity
  8
0
  6
Continuous
 62
     8
370
    18
100
AcDbLine
 10
2156.4832292763
 20
1371.3992487894
 30
0.0
 11
2156.4832292763
 21
1375.2552470232
 31
0.0
  0
SPLINE
  5
393
330
1F
100
AcDbEntity
  8
0
  6
Continuous
 62
     8
370
    18
100
AcDbSpline
210
0.0
220
0.0
230
1.0
 70
     8
 71
     3
 72
    17
 73
    13
 74
     0
 42
0.000000001
 43
0.00000001
 40
0.0
 40
0.0
 40
0.0
 40
0.0
 40
0.2229912195096686
 40
0.5008176009795289
 40
0.6858965399870914
 40
0.866577165189906
 40
0.9279597470315037
 40
0.9497616361806115
 40
0.9717583090123122
 40
0.9770054670051183
 40
0.9922372900676586
 40
1.0
 40
1.0
 40
1.0
 40
1.0
 10
2095.284270724298
 20
1374.813773110333
 30
0.0
 10
2095.42001401341
 20
1374.713359651913
 30
0.0
 10
2095.724880853244
 20
1374.487840335669
 30
0.0
 10
2096.163412363167
 20
1374.208955794215
 30
0.0
 10
2096.579654992082
 20
1373.958334834405
 30
0.0
 10
2096.860241385872
 20
1373.800271448173
 30
0.0
 10
2097.02735354167
 20
1373.709428922344
 30
0.0
 10
2097.085339764333
 20
1373.678124590581
 30
0.0
 10
2097.107155695235
 20
1373.666321215106
 30
0.0
 10
2097.118978795492
 20
1373.659829250866
 30
0.0
 10
2097.12303594476
 20
1373.657514270846
 30
0.0
 10
2097.121615989287
 20
1373.658129613226
 30
0.0
 10
2097.121136627412
 20
1373.658337346272
 30
0.0
  0
LINE
  5
394
330
1F
100
AcDbEntity
  8
0
  6
Continuous
 62
     8
370
    18
100
AcDbLine
 10
2069.4832292763
 20
1452.845687289
 30
0.0
 11
2069.4832292763
 21
1451.845687289
 31
0.0
  0
LINE
  5
395
330
1F
100
AcDbEntity
  8
0
  6
Continuous
 62
     8
370
    18
100
AcDbLine
 10
2180.4832292763
 20
1451.845687289
 30
0.0
 11
2180.4832292763
 21
1452.845687289
 31
0.0
  0
LINE
  5
396
330
1F
100
AcDbEntity
  8
0
  6
Continuous
 62
     8
370
    18
100
AcDbLine
 10
2159.9832292763
 20
1463.845687289
 30
0.0
 11
2089.9832292763
 21
1463.845687289
 31
0.0
  0
ENDSEC
  0
SECTION
  2
OBJECTS
  0
DICTIONARY
  5
C
330
0
100
AcDbDictionary
281
     1
  3
ACAD_GROUP
350
D
  3
ACAD_LAYOUT
350
1A
  3
ACAD_MLINESTYLE
350
17
  3
ACAD_PLOTSETTINGS
350
19
  3
ACAD_PLOTSTYLENAME
350
E
  3
ACAD_SCALELIST
350
47
  0
DICTIONARY
  5
D
102
{ACAD_REACTORS
330
C
102
}
330
C
100
AcDbDictionary
281
     1
  0
DICTIONARY
  5
1A
102
{ACAD_REACTORS
330
C
102
}
330
C
100
AcDbDictionary
281
     1
  3
Layout1
350
1E
  3
Layout2
350
26
  3
Model
350
22
  0
DICTIONARY
  5
17
102
{ACAD_REACTORS
330
C
102
}
330
C
100
AcDbDictionary
281
     1
  3
Standard
350
18
  0
DICTIONARY
  5
19
102
{ACAD_REACTORS
330
C
102
}
330
C
100
AcDbDictionary
281
     1
  0
ACDBDICTIONARYWDFLT
  5
E
102
{ACAD_REACTORS
330
C
102
}
330
C
100
AcDbDictionary
281
     1
  3
Normal
350
F
100
AcDbDictionaryWithDefault
340
F
  0
DICTIONARY
  5
47
102
{ACAD_REACTORS
330
C
102
}
330
C
100
AcDbDictionary
281
     1
  3
A0
350
48
  3
A1
350
49
  3
A2
350
4A
  3
A3
350
4B
  3
A4
350
4C
  3
A5
350
4D
  3
A6
350
4E
  3
A7
350
4F
  3
A8
350
50
  3
A9
350
51
  3
B0
350
52
  3
B1
350
53
  3
B2
350
54
  3
B3
350
55
  3
B4
350
56
  3
B5
350
57
  3
B6
350
58
  3
B7
350
59
  3
B8
350
5A
  3
B9
350
5B
  3
C0
350
5C
  3
C1
350
5D
  3
C2
350
5E
  3
C3
350
5F
  3
C4
350
60
  3
C5
350
61
  3
C6
350
62
  3
C7
350
63
  3
C8
350
64
  3
C9
350
65
  3
D0
350
66
  3
D1
350
67
  3
D2
350
68
  0
LAYOUT
  5
1E
102
{ACAD_REACTORS
330
1A
102
}
330
1A
100
AcDbPlotSettings
  1

  2
none_device
  4

  6

 40
0.0
 41
0.0
 42
0.0
 43
0.0
 44
0.0
 45
0.0
 46
0.0
 47
0.0
 48
0.0
 49
0.0
140
0.0
141
0.0
142
1.0
143
1.0
 70
   688
 72
     1
 73
     0
 74
     5
  7

 75
    16
147
1.0
148
0.0
149
0.0
100
AcDbLayout
  1
Layout1
 70
     1
 71
     1
 10
0.0
 20
0.0
 11
420.0
 21
297.0
 12
0.0
 22
0.0
 32
0.0
 14
1.0000000000E+20
 24
1.0000000000E+20
 34
1.0000000000E+20
 15
-1.0000000000E+20
 25
-1.0000000000E+20
 35
-1.0000000000E+20
146
0.0
 13
0.0
 23
0.0
 33
0.0
 16
1.0
 26
0.0
 36
0.0
 17
0.0
 27
1.0
 37
0.0
 76
     0
330
1B
  0
LAYOUT
  5
26
102
{ACAD_REACTORS
330
1A
102
}
330
1A
100
AcDbPlotSettings
  1

  2
none_device
  4

  6

 40
0.0
 41
0.0
 42
0.0
 43
0.0
 44
0.0
 45
0.0
 46
0.0
 47
0.0
 48
0.0
 49
0.0
140
0.0
141
0.0
142
1.0
143
1.0
 70
   688
 72
     1
 73
     0
 74
     5
  7

 75
    16
147
1.0
148
0.0
149
0.0
100
AcDbLayout
  1
Layout2
 70
     1
 71
     2
 10
0.0
 20
0.0
 11
0.0
 21
0.0
 12
0.0
 22
0.0
 32
0.0
 14
0.0
 24
0.0
 34
0.0
 15
0.0
 25
0.0
 35
0.0
146
0.0
 13
0.0
 23
0.0
 33
0.0
 16
1.0
 26
0.0
 36
0.0
 17
0.0
 27
1.0
 37
0.0
 76
     0
330
23
  0
LAYOUT
  5
22
102
{ACAD_REACTORS
330
1A
102
}
330
1A
100
AcDbPlotSettings
  1

  2
none_device
  4
Letter_(8.50_x_11.00_Inches)
  6

 40
6.35
 41
6.35
 42
6.35000508
 43
6.35000508
 44
215.9
 45
279.4
 46
0.0
 47
0.0
 48
0.0
 49
0.0
140
0.0
141
0.0
142
1.0
143
1.0
 70
  1712
 72
     1
 73
     0
 74
     0
  7

 75
     0
147
1.0
148
0.0
149
0.0
100
AcDbLayout
  1
Model
 70
     1
 71
     0
 10
0.0
 20
0.0
 11
2970.0
 21
2100.0
 12
0.0
 22
0.0
 32
0.0
 14
0.0
 24
0.0
 34
0.0
 15
2970.0
 25
2100.0
 35
0.0
146
0.0
 13
0.0
 23
0.0
 33
0.0
 16
1.0
 26
0.0
 36
0.0
 17
0.0
 27
1.0
 37
0.0
 76
     0
330
1F
331
29
  0
MLINESTYLE
  5
18
102
{ACAD_REACTORS
330
17
102
}
330
17
100
AcDbMlineStyle
  2
Standard
 70
     0
  3

 62
   256
 51
90.0
 52
90.0
 71
     2
 49
0.5
 62
   256
  6
BYLAYER
 49
-0.5
 62
   256
  6
BYLAYER
  0
ACDBPLACEHOLDER
  5
F
102
{ACAD_REACTORS
330
E
102
}
330
E
  0
SCALE
  5
48
102
{ACAD_REACTORS
330
47
102
}
330
47
100
AcDbScale
 70
     0
300
1:1
140
1.0
141
1.0
290
     1
  0
SCALE
  5
49
102
{ACAD_REACTORS
330
47
102
}
330
47
100
AcDbScale
 70
     0
300
1:2
140
1.0
141
2.0
290
     0
  0
SCALE
  5
4A
102
{ACAD_REACTORS
330
47
102
}
330
47
100
AcDbScale
 70
     0
300
1:4
140
1.0
141
4.0
290
     0
  0
SCALE
  5
4B
102
{ACAD_REACTORS
330
47
102
}
330
47
100
AcDbScale
 70
     0
300
1:5
140
1.0
141
5.0
290
     0
  0
SCALE
  5
4C
102
{ACAD_REACTORS
330
47
102
}
330
47
100
AcDbScale
 70
     0
300
1:8
140
1.0
141
8.0
290
     0
  0
SCALE
  5
4D
102
{ACAD_REACTORS
330
47
102
}
330
47
100
AcDbScale
 70
     0
300
1:10
140
1.0
141
10.0
290
     0
  0
SCALE
  5
4E
102
{ACAD_REACTORS
330
47
102
}
330
47
100
AcDbScale
 70
     0
300
1:16
140
1.0
141
16.0
290
     0
  0
SCALE
  5
4F
102
{ACAD_REACTORS
330
47
102
}
330
47
100
AcDbScale
 70
     0
300
1:20
140
1.0
141
20.0
290
     0
  0
SCALE
  5
50
102
{ACAD_REACTORS
330
47
102
}
330
47
100
AcDbScale
 70
     0
300
1:30
140
1.0
141
30.0
290
     0
  0
SCALE
  5
51
102
{ACAD_REACTORS
330
47
102
}
330
47
100
AcDbScale
 70
     0
300
1:40
140
1.0
141
40.0
290
     0
  0
SCALE
  5
52
102
{ACAD_REACTORS
330
47
102
}
330
47
100
AcDbScale
 70
     0
300
1:50
140
1.0
141
50.0
290
     0
  0
SCALE
  5
53
102
{ACAD_REACTORS
330
47
102
}
330
47
100
AcDbScale
 70
     0
300
1:100
140
1.0
141
100.0
290
     0
  0
SCALE
  5
54
102
{ACAD_REACTORS
330
47
102
}
330
47
100
AcDbScale
 70
     0
300
2:1
140
2.0
141
1.0
290
     0
  0
SCALE
  5
55
102
{ACAD_REACTORS
330
47
102
}
330
47
100
AcDbScale
 70
     0
300
4:1
140
4.0
141
1.0
290
     0
  0
SCALE
  5
56
102
{ACAD_REACTORS
330
47
102
}
330
47
100
AcDbScale
 70
     0
300
8:1
140
8.0
141
1.0
290
     0
  0
SCALE
  5
57
102
{ACAD_REACTORS
330
47
102
}
330
47
100
AcDbScale
 70
     0
300
10:1
140
10.0
141
1.0
290
     0
  0
SCALE
  5
58
102
{ACAD_REACTORS
330
47
102
}
330
47
100
AcDbScale
 70
     0
300
100:1
140
100.0
141
1.0
290
     0
  0
SCALE
  5
59
102
{ACAD_REACTORS
330
47
102
}
330
47
100
AcDbScale
 70
     0
300
1/128" = 1'-0"
140
0.0078125
141
12.0
290
     0
  0
SCALE
  5
5A
102
{ACAD_REACTORS
330
47
102
}
330
47
100
AcDbScale
 70
     0
300
1/64" = 1'-0"
140
0.015625
141
12.0
290
     0
  0
SCALE
  5
5B
102
{ACAD_REACTORS
330
47
102
}
330
47
100
AcDbScale
 70
     0
300
1/32" = 1'-0"
140
0.03125
141
12.0
290
     0
  0
SCALE
  5
5C
102
{ACAD_REACTORS
330
47
102
}
330
47
100
AcDbScale
 70
     0
300
1/16" = 1'-0"
140
0.0625
141
12.0
290
     0
  0
SCALE
  5
5D
102
{ACAD_REACTORS
330
47
102
}
330
47
100
AcDbScale
 70
     0
300
3/32" = 1'-0"
140
0.09375
141
12.0
290
     0
  0
SCALE
  5
5E
102
{ACAD_REACTORS
330
47
102
}
330
47
100
AcDbScale
 70
     0
300
1/8" = 1'-0"
140
0.125
141
12.0
290
     0
  0
SCALE
  5
5F
102
{ACAD_REACTORS
330
47
102
}
330
47
100
AcDbScale
 70
     0
300
3/16" = 1'-0"
140
0.1875
141
12.0
290
     0
  0
SCALE
  5
60
102
{ACAD_REACTORS
330
47
102
}
330
47
100
AcDbScale
 70
     0
300
1/4" = 1'-0"
140
0.25
141
12.0
290
     0
  0
SCALE
  5
61
102
{ACAD_REACTORS
330
47
102
}
330
47
100
AcDbScale
 70
     0
300
3/8" = 1'-0"
140
0.375
141
12.0
290
     0
  0
SCALE
  5
62
102
{ACAD_REACTORS
330
47
102
}
330
47
100
AcDbScale
 70
     0
300
1/2" = 1'-0"
140
0.5
141
12.0
290
     0
  0
SCALE
  5
63
102
{ACAD_REACTORS
330
47
102
}
330
47
100
AcDbScale
 70
     0
300
3/4" = 1'-0"
140
0.75
141
12.0
290
     0
  0
SCALE
  5
64
102
{ACAD_REACTORS
330
47
102
}
330
47
100
AcDbScale
 70
     0
300
1" = 1'-0"
140
1.0
141
12.0
290
     0
  0
SCALE
  5
65
102
{ACAD_REACTORS
330
47
102
}
330
47
100
AcDbScale
 70
     0
300
1-1/2" = 1'-0"
140
1.5
141
12.0
290
     0
  0
SCALE
  5
66
102
{ACAD_REACTORS
330
47
102
}
330
47
100
AcDbScale
 70
     0
300
3" = 1'-0"
140
3.0
141
12.0
290
     0
  0
SCALE
  5
67
102
{ACAD_REACTORS
330
47
102
}
330
47
100
AcDbScale
 70
     0
300
6" = 1'-0"
140
6.0
141
12.0
290
     0
  0
SCALE
  5
68
102
{ACAD_REACTORS
330
47
102
}
330
47
100
AcDbScale
 70
     0
300
1'-0" = 1'-0"
140
12.0
141
12.0
290
     0
  0
ENDSEC
  0
EOF
