  0
SECTION
  2
HEADER
  9
$ACADVER
  1
AC1015
  9
$ACADMAINTVER
 70
     6
  9
$DWGCODEPAGE
  3
ANSI_1252
  9
$INSBASE
 10
0.0
 20
0.0
 30
0.0
  9
$EXTMIN
 10
0.0
 20
0.0
 30
0.0
  9
$EXTMAX
 10
2970.0
 20
2100.0
 30
0.0
  9
$LIMMIN
 10
0.0
 20
0.0
  9
$LIMMAX
 10
2970.0
 20
2100.0
  9
$ORTHOMODE
 70
     0
  9
$REGENMODE
 70
     1
  9
$FILLMODE
 70
     1
  9
$QTEXTMODE
 70
     0
  9
$MIRRTEXT
 70
     1
  9
$LTSCALE
 40
5.0
  9
$ATTMODE
 70
     1
  9
$TEXTSIZE
 40
12.5
  9
$TRACEWID
 40
1.0
  9
$TEXTSTYLE
  7
Standard
  9
$CLAYER
  8
0
  9
$CELTYPE
  6
ByLayer
  9
$CECOLOR
 62
   256
  9
$CELTSCALE
 40
1.0
  9
$DISPSILH
 70
     0
  9
$DIMSCALE
 40
1.0
  9
$DIMASZ
 40
12.5
  9
$DIMEXO
 40
0.0
  9
$DIMDLI
 40
3.75
  9
$DIMRND
 40
0.0
  9
$DIMDLE
 40
0.0
  9
$DIMEXE
 40
5.0
  9
$DIMTP
 40
0.0
  9
$DIMTM
 40
0.0
  9
$DIMTXT
 40
12.5
  9
$DIMCEN
 40
2.5
  9
$DIMTSZ
 40
0.0
  9
$DIMTOL
 70
     0
  9
$DIMLIM
 70
     0
  9
$DIMTIH
 70
     1
  9
$DIMTOH
 70
     1
  9
$DIMSE1
 70
     0
  9
$DIMSE2
 70
     0
  9
$DIMTAD
 70
     1
  9
$DIMZIN
 70
     0
  9
$DIMBLK
  1

  9
$DIMASO
 70
     1
  9
$DIMSHO
 70
     1
  9
$DIMPOST
  1

  9
$DIMAPOST
  1

  9
$DIMALT
 70
     0
  9
$DIMALTD
 70
     3
  9
$DIMALTF
 40
0.0393700787
  9
$DIMLFAC
 40
1.0
  9
$DIMTOFL
 70
     1
  9
$DIMTVP
 40
0.0
  9
$DIMTIX
 70
     0
  9
$DIMSOXD
 70
     0
  9
$DIMSAH
 70
     0
  9
$DIMBLK1
  1

  9
$DIMBLK2
  1

  9
$DIMSTYLE
  2
ISO-25
  9
$DIMCLRD
 70
     0
  9
$DIMCLRE
 70
     0
  9
$DIMCLRT
 70
     0
  9
$DIMTFAC
 40
1.0
  9
$DIMGAP
 40
7.62
  9
$DIMJUST
 70
     0
  9
$DIMSD1
 70
     0
  9
$DIMSD2
 70
     0
  9
$DIMTOLJ
 70
     0
  9
$DIMTZIN
 70
     0
  9
$DIMALTZ
 70
     0
  9
$DIMALTTZ
 70
     0
  9
$DIMUPT
 70
     0
  9
$DIMDEC
 70
     2
  9
$DIMTDEC
 70
     2
  9
$DIMALTU
 70
     2
  9
$DIMALTTD
 70
     3
  9
$DIMTXSTY
  7
Standard
  9
$DIMAUNIT
 70
     0
  9
$DIMADEC
 70
     2
  9
$DIMALTRND
 40
0.0
  9
$DIMAZIN
 70
     0
  9
$DIMDSEP
 70
    44
  9
$DIMATFIT
 70
     3
  9
$DIMFRAC
 70
     0
  9
$DIMLDRBLK
  1

  9
$DIMLUNIT
 70
     2
  9
$DIMLWD
 70
    -2
  9
$DIMLWE
 70
    -2
  9
$DIMTMOVE
 70
     0
  9
$LUNITS
 70
     2
  9
$LUPREC
 70
     1
  9
$SKETCHINC
 40
1.0
  9
$FILLETRAD
 40
10.0
  9
$AUNITS
 70
     0
  9
$AUPREC
 70
     2
  9
$MENU
  1
.
  9
$ELEVATION
 40
0.0
  9
$PELEVATION
 40
0.0
  9
$THICKNESS
 40
0.0
  9
$LIMCHECK
 70
     0
  9
$CHAMFERA
 40
0.0
  9
$CHAMFERB
 40
0.0
  9
$CHAMFERC
 40
0.0
  9
$CHAMFERD
 40
0.0
  9
$SKPOLY
 70
     0
  9
$TDCREATE
 40
2458906.672439873
  9
$TDUCREATE
 40
2458906.443273206
  9
$TDUPDATE
 40
2458906.672442882
  9
$TDUUPDATE
 40
2458906.443276215
  9
$TDINDWG
 40
0.0000000116
  9
$TDUSRTIMER
 40
0.0000000116
  9
$USRTIMER
 70
     1
  9
$ANGBASE
 50
0.0
  9
$ANGDIR
 70
     0
  9
$PDMODE
 70
     0
  9
$PDSIZE
 40
-1.0
  9
$PLINEWID
 40
0.0
  9
$SPLFRAME
 70
     0
  9
$SPLINETYPE
 70
     6
  9
$SPLINESEGS
 70
     8
  9
$HANDSEED
  5
397
  9
$SURFTAB1
 70
     6
  9
$SURFTAB2
 70
     6
  9
$SURFTYPE
 70
     6
  9
$SURFU
 70
     6
  9
$SURFV
 70
     6
  9
$UCSBASE
  2

  9
$UCSNAME
  2

  9
$UCSORG
 10
0.0
 20
0.0
 30
0.0
  9
$UCSXDIR
 10
1.0
 20
0.0
 30
0.0
  9
$UCSYDIR
 10
0.0
 20
1.0
 30
0.0
  9
$UCSORTHOREF
  2

  9
$UCSORTHOVIEW
 70
     0
  9
$UCSORGTOP
 10
0.0
 20
0.0
 30
0.0
  9
$UCSORGBOTTOM
 10
0.0
 20
0.0
 30
0.0
  9
$UCSORGLEFT
 10
0.0
 20
0.0
 30
0.0
  9
$UCSORGRIGHT
 10
0.0
 20
0.0
 30
0.0
  9
$UCSORGFRONT
 10
0.0
 20
0.0
 30
0.0
  9
$UCSORGBACK
 10
0.0
 20
0.0
 30
0.0
  9
$PUCSBASE
  2

  9
$PUCSNAME
  2

  9
$PUCSORG
 10
0.0
 20
0.0
 30
0.0
  9
$PUCSXDIR
 10
1.0
 20
0.0
 30
0.0
  9
$PUCSYDIR
 10
0.0
 20
1.0
 30
0.0
  9
$PUCSORTHOREF
  2

  9
$PUCSORTHOVIEW
 70
     0
  9
$PUCSORGTOP
 10
0.0
 20
0.0
 30
0.0
  9
$PUCSORGBOTTOM
 10
0.0
 20
0.0
 30
0.0
  9
$PUCSORGLEFT
 10
0.0
 20
0.0
 30
0.0
  9
$PUCSORGRIGHT
 10
0.0
 20
0.0
 30
0.0
  9
$PUCSORGFRONT
 10
0.0
 20
0.0
 30
0.0
  9
$PUCSORGBACK
 10
0.0
 20
0.0
 30
0.0
  9
$USERI1
 70
     0
  9
$USERI2
 70
     0
  9
$USERI3
 70
     0
  9
$USERI4
 70
     0
  9
$USERI5
 70
     0
  9
$USERR1
 40
0.0
  9
$USERR2
 40
0.0
  9
$USERR3
 40
0.0
  9
$USERR4
 40
0.0
  9
$USERR5
 40
0.0
  9
$WORLDVIEW
 70
     1
  9
$SHADEDGE
 70
     3
  9
$SHADEDIF
 70
    70
  9
$TILEMODE
 70
     1
  9
$MAXACTVP
 70
    64
  9
$PINSBASE
 10
0.0
 20
0.0
 30
0.0
  9
$PLIMCHECK
 70
     0
  9
$PEXTMIN
 10
1.0000000000E+20
 20
1.0000000000E+20
 30
1.0000000000E+20
  9
$PEXTMAX
 10
-1.0000000000E+20
 20
-1.0000000000E+20
 30
-1.0000000000E+20
  9
$PLIMMIN
 10
0.0
 20
0.0
  9
$PLIMMAX
 10
420.0
 20
297.0
  9
$UNITMODE
 70
     0
  9
$VISRETAIN
 70
     1
  9
$PLINEGEN
 70
     0
  9
$PSLTSCALE
 70
     1
  9
$TREEDEPTH
 70
  3020
  9
$CMLSTYLE
  2
Standard
  9
$CMLJUST
 70
     0
  9
$CMLSCALE
 40
20.0
  9
$PROXYGRAPHICS
 70
     1
  9
$MEASUREMENT
 70
     1
  9
$CELWEIGHT
370
    -1
  9
$ENDCAPS
280
     0
  9
$JOINSTYLE
280
     0
  9
$LWDISPLAY
290
     1
  9
$INSUNITS
 70
     4
  9
$HYPERLINKBASE
  1

  9
$STYLESHEET
  1

  9
$XEDIT
290
     1
  9
$CEPSNTYPE
380
     0
  9
$PSTYLEMODE
290
     1
  9
$FINGERPRINTGUID
  2
{159fb8f8-1abd-409e-a3eb-1544250d19b7}
  9
$VERSIONGUID
  2
{FAEB1C32-E019-11D5-929B-00C0DF256EC4}
  9
$EXTNAMES
290
     1
  9
$PSVPSCALE
 40
0.0
  9
$OLESTARTUP
290
     0
  0
ENDSEC
  0
SECTION
  2
CLASSES
  0
CLASS
  1
ACDBDICTIONARYWDFLT
  2
AcDbDictionaryWithDefault
  3
ObjectDBX Classes
 90
        0
280
     0
281
     0
  0
CLASS
  1
VISUALSTYLE
  2
AcDbVisualStyle
  3
ObjectDBX Classes
 90
     4095
280
     0
281
     0
  0
CLASS
  1
MATERIAL
  2
AcDbMaterial
  3
ObjectDBX Classes
 90
     1153
280
     0
281
     0
  0
CLASS
  1
SCALE
  2
AcDbScale
  3
ObjectDBX Classes
 90
     1153
280
     0
281
     0
  0
CLASS
  1
TABLESTYLE
  2
AcDbTableStyle
  3
ObjectDBX Classes
 90
     4095
280
     0
281
     0
  0
CLASS
  1
MLEADERSTYLE
  2
AcDbMLeaderStyle
  3
ACDB_MLEADERSTYLE_CLASS
 90
     4095
280
     0
281
     0
  0
CLASS
  1
SUN
  2
AcDbSun
  3
SCENEOE
 90
     1153
280
     0
281
     0
  0
CLASS
  1
ACDBPLACEHOLDER
  2
AcDbPlaceHolder
  3
ObjectDBX Classes
 90
        0
280
     0
281
     0
  0
CLASS
  1
LAYOUT
  2
AcDbLayout
  3
ObjectDBX Classes
 90
        0
280
     0
281
     0
  0
ENDSEC
  0
SECTION
  2
TABLES
  0
TABLE
  2
VPORT
  5
8
330
0
100
AcDbSymbolTable
 70
     1
  0
VPORT
  5
29
330
8
100
AcDbSymbolTableRecord
100
AcDbViewportTableRecord
  2
*Active
 70
     0
 10
0.0
 20
0.0
 11
1.0
 21
1.0
 12
1485.0
 22
1050.0
 13
0.0
 23
0.0
 14
10.0
 24
10.0
 15
10.0
 25
10.0
 16
0.0
 26
0.0
 36
1.0
 17
0.0
 27
0.0
 37
0.0
 40
2100.0
 41
1.4142857143
 42
50.0
 43
0.0
 44
0.0
 50
0.0
 51
0.0
 71
     0
 72
  2000
 73
     1
 74
     3
 75
     0
 76
     0
 77
     0
 78
     0
281
     0
 65
     1
110
0.0
120
0.0
130
0.0
111
1.0
121
0.0
131
0.0
112
0.0
122
1.0
132
0.0
 79
     0
146
0.0
  0
ENDTAB
  0
TABLE
  2
LTYPE
  5
5
330
0
100
AcDbSymbolTable
 70
     6
  0
LTYPE
  5
14
330
5
100
AcDbSymbolTableRecord
100
AcDbLinetypeTableRecord
  2
ByBlock
 70
     0
  3

 72
    65
 73
     0
 40
0.0
  0
LTYPE
  5
15
330
5
100
AcDbSymbolTableRecord
100
AcDbLinetypeTableRecord
  2
ByLayer
 70
     0
  3

 72
    65
 73
     0
 40
0.0
  0
LTYPE
  5
16
330
5
100
AcDbSymbolTableRecord
100
AcDbLinetypeTableRecord
  2
Continuous
 70
     0
  3
Solid line
 72
    65
 73
     0
 40
0.0
  0
LTYPE
  5
6E
330
5
100
AcDbSymbolTableRecord
100
AcDbLinetypeTableRecord
  2
HIDDEN
 70
     0
  3
Hidden __ __ __ __ __ __ __ __ __ __ __ __ __ __
 72
    65
 73
     2
 40
1.905
 49
1.27
 74
     0
 49
-0.635
 74
     0
  0
LTYPE
  5
6F
330
5
100
AcDbSymbolTableRecord
100
AcDbLinetypeTableRecord
  2
PHANTOM
 70
     0
  3
Phantom ______  __  __  ______  __  __  ______
 72
    65
 73
     6
 40
12.7
 49
6.35
 74
     0
 49
-1.27
 74
     0
 49
1.27
 74
     0
 49
-1.27
 74
     0
 49
1.27
 74
     0
 49
-1.27
 74
     0
  0
LTYPE
  5
70
330
5
100
AcDbSymbolTableRecord
100
AcDbLinetypeTableRecord
  2
CENTER
 70
     0
  3
Center ____ _ ____ _ ____ _ ____ _ ____ _ ____
 72
    65
 73
     4
 40
10.16
 49
6.35
 74
     0
 49
-1.27
 74
     0
 49
1.27
 74
     0
 49
-1.27
 74
     0
  0
LTYPE
  5
71
330
5
100
AcDbSymbolTableRecord
100
AcDbLinetypeTableRecord
  2
CENTERX2
 70
     0
  3
Center (2x) ________  __  ________  __  _____
 72
    65
 73
     4
 40
20.32
 49
12.7
 74
     0
 49
-2.54
 74
     0
 49
2.54
 74
     0
 49
-2.54
 74
     0
  0
LTYPE
  5
72
330
5
100
AcDbSymbolTableRecord
100
AcDbLinetypeTableRecord
  2
DOT2
 70
     0
  3
Dot (.5x) ........................................
 72
    65
 73
     2
 40
0.635
 49
0.0
 74
     0
 49
-0.635
 74
     0
  0
ENDTAB
  0
TABLE
  2
LAYER
  5
2
330
0
100
AcDbSymbolTable
 70
    10
  0
LAYER
  5
10
330
2
100
AcDbSymbolTableRecord
100
AcDbLayerTableRecord
  2
0
 70
     0
 62
     7
  6
Continuous
370
    -3
390
F
  0
LAYER
  5
73
330
2
100
AcDbSymbolTableRecord
100
AcDbLayerTableRecord
  2
DIMENSION
 70
     0
 62
     7
  6
Continuous
370
    -3
390
F
  0
LAYER
  5
74
330
2
100
AcDbSymbolTableRecord
100
AcDbLayerTableRecord
  2
NOTES
 70
     0
 62
     7
  6
Continuous
370
    -3
390
F
  0
LAYER
  5
75
330
2
100
AcDbSymbolTableRecord
100
AcDbLayerTableRecord
  2
TABLES
 70
     0
 62
     7
  6
Continuous
370
    -3
390
F
  0
LAYER
  5
76
330
2
100
AcDbSymbolTableRecord
100
AcDbLayerTableRecord
  2
INVISIBLE
 70
     0
 62
    -7
  6
Continuous
290
     0
370
    -3
390
F
  0
LAYER
  5
77
330
2
100
AcDbSymbolTableRecord
100
AcDbLayerTableRecord
  2
WEP
 70
     0
 62
  -150
  6
Continuous
290
     0
370
    -3
390
F
  0
LAYER
  5
78
330
2
100
AcDbSymbolTableRecord
100
AcDbLayerTableRecord
  2
EMP
 70
     0
 62
     1
  6
Continuous
370
    -3
390
F
  0
LAYER
  5
79
330
2
100
AcDbSymbolTableRecord
100
AcDbLayerTableRecord
  2
MARKETING_DRW
 70
     0
 62
    -7
  6
Continuous
290
     0
370
    -3
390
F
  0
LAYER
  5
7A
330
2
100
AcDbSymbolTableRecord
100
AcDbLayerTableRecord
  2
SINGLE_ARTICLE_DRW
 70
     0
 62
    -7
  6
Continuous
290
     0
370
    -3
390
F
  0
LAYER
  5
7B
330
2
100
AcDbSymbolTableRecord
100
AcDbLayerTableRecord
  2
TABLE_DRW
 70
     0
 62
     7
  6
Continuous
370
    -3
390
F
  0
ENDTAB
  0
TABLE
  2
STYLE
  5
3
330
0
100
AcDbSymbolTable
 70
     2
  0
STYLE
  5
11
330
3
100
AcDbSymbolTableRecord
100
AcDbTextStyleTableRecord
  2
Standard
 70
     0
 40
0.0
 41
1.0
 50
0.0
 71
     0
 42
12.5
  3
txt
  4

  0
STYLE
  5
B5
330
3
100
AcDbSymbolTableRecord
100
AcDbTextStyleTableRecord
  2
SLDTEXTSTYLE0
 70
     0
 40
0.0
 41
0.605
 50
0.0
 71
     0
 42
12.5
  3
TXT
  4

  0
ENDTAB
  0
TABLE
  2
VIEW
  5
6
330
0
100
AcDbSymbolTable
 70
     0
  0
ENDTAB
  0
TABLE
  2
UCS
  5
7
330
0
100
AcDbSymbolTable
 70
     0
  0
ENDTAB
  0
TABLE
  2
APPID
  5
9
330
0
100
AcDbSymbolTable
 70
     1
  0
APPID
  5
12
330
9
100
AcDbSymbolTableRecord
100
AcDbRegAppTableRecord
  2
ACAD
 70
     0
  0
ENDTAB
  0
TABLE
  2
DIMSTYLE
  5
A
330
0
100
AcDbSymbolTable
 70
     1
100
AcDbDimStyleTable
  0
DIMSTYLE
105
27
330
A
100
AcDbSymbolTableRecord
100
AcDbDimStyleTableRecord
  2
ISO-25
 70
     0
 41
2.5
 42
0.625
 43
3.75
 44
1.25
 73
     0
 74
     0
 77
     1
 78
     8
140
2.5
141
2.5
143
0.0393700787
147
0.625
171
     3
172
     1
178
     0
271
     2
272
     2
274
     3
278
    44
283
     0
284
     8
340
11
  0
ENDTAB
  0
TABLE
  2
BLOCK_RECORD
  5
1
330
0
100
AcDbSymbolTable
 70
     3
  0
BLOCK_RECORD
  5
1F
330
1
100
AcDbSymbolTableRecord
100
AcDbBlockTableRecord
  2
*Model_Space
340
22
  0
BLOCK_RECORD
  5
1B
330
1
100
AcDbSymbolTableRecord
100
AcDbBlockTableRecord
  2
*Paper_Space
340
1E
  0
BLOCK_RECORD
  5
23
330
1
100
AcDbSymbolTableRecord
100
AcDbBlockTableRecord
  2
*Paper_Space0
340
26
  0
BLOCK_RECORD
  5
C8
330
1
100
AcDbSymbolTableRecord
100
AcDbBlockTableRecord
  2
SW_NOTE_0
340
0
102
{BLKREFS
331
CE
102
}
  0
BLOCK_RECORD
  5
E8
330
1
100
AcDbSymbolTableRecord
100
AcDbBlockTableRecord
  2
SW_NOTE_0_1
340
0
102
{BLKREFS
331
EE
102
}
  0
ENDTAB
  0
ENDSEC
  0
SECTION
  2
BLOCKS
  0
BLOCK
  5
20
330
1F
100
AcDbEntity
  8
0
100
AcDbBlockBegin
  2
*Model_Space
 70
     0
 10
0.0
 20
0.0
 30
0.0
  3
*Model_Space
  1

  0
ENDBLK
  5
21
330
1F
100
AcDbEntity
  8
0
100
AcDbBlockEnd
  0
BLOCK
  5
1C
330
1B
100
AcDbEntity
 67
     1
  8
0
100
AcDbBlockBegin
  2
*Paper_Space
 70
     0
 10
0.0
 20
0.0
 30
0.0
  3
*Paper_Space
  1

  0
ENDBLK
  5
1D
330
1B
100
AcDbEntity
 67
     1
  8
0
100
AcDbBlockEnd
  0
BLOCK
  5
24
330
23
100
AcDbEntity
  8
0
100
AcDbBlockBegin
  2
*Paper_Space0
 70
     0
 10
0.0
 20
0.0
 30
0.0
  3
*Paper_Space0
  1

  0
ENDBLK
  5
25
330
23
100
AcDbEntity
  8
0
100
AcDbBlockEnd
  0
BLOCK
  5
C9
330
C8
100
AcDbEntity
  8
0
100
AcDbBlockBegin
  2
SW_NOTE_0
 70
     0
 10
0.0
 20
0.0
 30
0.0
  3
SW_NOTE_0
  1

  0
MTEXT
  5
CB
330
C8
100
AcDbEntity
  8
SINGLE_ARTICLE_DRW
 62
     0
100
AcDbMText
 10
0.0
 20
11.6016096579
 30
0.0
 40
9.0
 41
0.0
 71
     1
 72
     1
  1
The reproduction, distribution and utilization of this document as well as the communication of its contents to
  7
SLDTEXTSTYLE0
 73
     1
 44
1.0
  0
MTEXT
  5
CC
330
C8
100
AcDbEntity
  8
SINGLE_ARTICLE_DRW
 62
     0
100
AcDbMText
 10
0.0
 20
0.0016098055
 30
0.0
 40
9.0
 41
0.0
 71
     1
 72
     1
  1
others without express authorization is prohibited. Offenders will be held liable for the payment of damages.
  7
SLDTEXTSTYLE0
 73
     1
 44
1.0
  0
MTEXT
  5
CD
330
C8
100
AcDbEntity
  8
SINGLE_ARTICLE_DRW
 62
     0
100
AcDbMText
 10
0.0
 20
-11.598390047
 30
0.0
 40
9.0
 41
0.0
 71
     1
 72
     1
  1
All rights reserved in the event of the grant of a patent, utility model or design. Observe copyright by ISO 16016
  7
SLDTEXTSTYLE0
 73
     1
 44
1.0
  0
ENDBLK
  5
CA
330
C8
100
AcDbEntity
  8
0
100
AcDbBlockEnd
  0
BLOCK
  5
E9
330
E8
100
AcDbEntity
  8
0
100
AcDbBlockBegin
  2
SW_NOTE_0_1
 70
     0
 10
0.0
 20
0.0
 30
0.0
  3
SW_NOTE_0_1
  1

  0
MTEXT
  5
EB
330
E8
100
AcDbEntity
  8
MARKETING_DRW
 62
     0
100
AcDbMText
 10
0.0
 20
11.6016096579
 30
0.0
 40
9.0
 41
0.0
 71
     1
 72
     1
  1
The reproduction, distribution and utilization of this document as well as the communication of its contents to
  7
SLDTEXTSTYLE0
 73
     1
 44
1.0
  0
MTEXT
  5
EC
330
E8
100
AcDbEntity
  8
MARKETING_DRW
 62
     0
100
AcDbMText
 10
0.0
 20
-0.0233903849
 30
0.0
 40
9.0
 41
0.0
 71
     1
 72
     1
  1
others without express authorization is prohibited. Offenders will be held liable for the payment of damages.
  7
SLDTEXTSTYLE0
 73
     1
 44
1.0
  0
MTEXT
  5
ED
330
E8
100
AcDbEntity
  8
MARKETING_DRW
 62
     0
100
AcDbMText
 10
0.0
 20
-11.6483904277
 30
0.0
 40
9.0
 41
0.0
 71
     1
 72
     1
  1
All rights reserved in the event of the grant of a patent, utility model or design. Observe copyright by ISO 16016
  7
SLDTEXTSTYLE0
 73
     1
 44
1.0
  0
ENDBLK
  5
EA
330
E8
100
AcDbEntity
  8
0
100
AcDbBlockEnd
  0
ENDSEC
  0
SECTION
  2
ENTITIES
  0
LINE
  5
7C
330
1F
100
AcDbEntity
  8
SINGLE_ARTICLE_DRW
  6
CENTERX2
 62
     7
100
AcDbLine
 10
2825.0
 20
200.0
 30
0.0
 11
2850.0
 21
200.0
 31
0.0
  0
LINE
  5
7D
330
1F
100
AcDbEntity
  8
SINGLE_ARTICLE_DRW
  6
CENTERX2
 62
     7
100
AcDbLine
 10
2837.5
 20
212.5
 30
0.0
 11
2837.5
 21
187.5
 31
0.0
  0
LINE
  5
7E
330
1F
100
AcDbEntity
  8
SINGLE_ARTICLE_DRW
  6
CENTERX2
 62
     7
100
AcDbLine
 10
2785.0
 20
200.0
 30
0.0
 11
2820.0
 21
200.0
 31
0.0
  0
LINE
  5
7F
330
1F
100
AcDbEntity
  8
SINGLE_ARTICLE_DRW
 62
     7
100
AcDbLine
 10
2790.0
 20
194.95
 30
0.0
 11
2815.0
 21
190.0
 31
0.0
  0
LINE
  5
80
330
1F
100
AcDbEntity
  8
SINGLE_ARTICLE_DRW
 62
     7
100
AcDbLine
 10
2790.0
 20
205.05
 30
0.0
 11
2790.0
 21
194.95
 31
0.0
  0
LINE
  5
81
330
1F
100
AcDbEntity
  8
SINGLE_ARTICLE_DRW
 62
     7
100
AcDbLine
 10
2815.0
 20
210.0
 30
0.0
 11
2790.0
 21
205.05
 31
0.0
  0
LINE
  5
82
330
1F
100
AcDbEntity
  8
SINGLE_ARTICLE_DRW
 62
     7
100
AcDbLine
 10
2815.0
 20
190.0
 30
0.0
 11
2815.0
 21
210.0
 31
0.0
  0
LINE
  5
83
330
1F
100
AcDbEntity
  8
SINGLE_ARTICLE_DRW
 62
     7
100
AcDbLine
 10
2920.0
 20
50.0
 30
0.0
 11
2920.0
 21
340.0
 31
0.0
  0
LINE
  5
84
330
1F
100
AcDbEntity
  8
SINGLE_ARTICLE_DRW
 62
     7
100
AcDbLine
 10
2020.0
 20
340.0
 30
0.0
 11
2020.0
 21
50.0
 31
0.0
  0
LINE
  5
85
330
1F
100
AcDbEntity
  8
SINGLE_ARTICLE_DRW
 62
     7
100
AcDbLine
 10
2570.0
 20
95.0
 30
0.0
 11
2570.0
 21
50.0
 31
0.0
  0
LINE
  5
86
330
1F
100
AcDbEntity
  8
SINGLE_ARTICLE_DRW
 62
     7
100
AcDbLine
 10
2720.0
 20
50.0
 30
0.0
 11
2720.0
 21
95.0
 31
0.0
  0
LINE
  5
87
330
1F
100
AcDbEntity
  8
SINGLE_ARTICLE_DRW
 62
     7
100
AcDbLine
 10
2870.0
 20
95.0
 30
0.0
 11
2870.0
 21
50.0
 31
0.0
  0
LINE
  5
88
330
1F
100
AcDbEntity
  8
SINGLE_ARTICLE_DRW
 62
     7
100
AcDbLine
 10
2770.0
 20
320.0
 30
0.0
 11
2770.0
 21
185.0
 31
0.0
  0
LINE
  5
89
330
1F
100
AcDbEntity
  8
SINGLE_ARTICLE_DRW
 62
     7
100
AcDbLine
 10
2920.0
 20
320.0
 30
0.0
 11
2020.0
 21
320.0
 31
0.0
  0
LINE
  5
8A
330
1F
100
AcDbEntity
  8
SINGLE_ARTICLE_DRW
 62
     7
100
AcDbLine
 10
2670.0
 20
95.0
 30
0.0
 11
2670.0
 21
50.0
 31
0.0
  0
LINE
  5
8B
330
1F
100
AcDbEntity
  8
SINGLE_ARTICLE_DRW
 62
     7
100
AcDbLine
 10
2920.0
 20
275.0
 30
0.0
 11
2270.0
 21
275.0
 31
0.0
  0
LINE
  5
8C
330
1F
100
AcDbEntity
  8
SINGLE_ARTICLE_DRW
 62
     7
100
AcDbLine
 10
2520.0
 20
230.0
 30
0.0
 11
2520.0
 21
185.0
 31
0.0
  0
LINE
  5
8D
330
1F
100
AcDbEntity
  8
SINGLE_ARTICLE_DRW
 62
     7
100
AcDbLine
 10
2920.0
 20
230.0
 30
0.0
 11
2270.0
 21
230.0
 31
0.0
  0
LINE
  5
8E
330
1F
100
AcDbEntity
  8
SINGLE_ARTICLE_DRW
 62
     7
100
AcDbLine
 10
2270.0
 20
320.0
 30
0.0
 11
2270.0
 21
185.0
 31
0.0
  0
LINE
  5
8F
330
1F
100
AcDbEntity
  8
SINGLE_ARTICLE_DRW
 62
     7
100
AcDbLine
 10
2870.0
 20
230.0
 30
0.0
 11
2870.0
 21
185.0
 31
0.0
  0
LINE
  5
90
330
1F
100
AcDbEntity
  8
SINGLE_ARTICLE_DRW
 62
     7
100
AcDbLine
 10
2920.0
 20
95.0
 30
0.0
 11
2020.0
 21
95.0
 31
0.0
  0
LINE
  5
91
330
1F
100
AcDbEntity
  8
SINGLE_ARTICLE_DRW
 62
     7
100
AcDbLine
 10
2520.0
 20
275.0
 30
0.0
 11
2520.0
 21
320.0
 31
0.0
  0
LINE
  5
92
330
1F
100
AcDbEntity
  8
SINGLE_ARTICLE_DRW
 62
     7
100
AcDbLine
 10
2020.0
 20
340.0
 30
0.0
 11
2920.0
 21
340.0
 31
0.0
  0
LINE
  5
93
330
1F
100
AcDbEntity
  8
SINGLE_ARTICLE_DRW
 62
     7
100
AcDbLine
 10
2020.0
 20
185.0
 30
0.0
 11
2920.0
 21
185.0
 31
0.0
  0
LINE
  5
94
330
1F
100
AcDbEntity
  8
SINGLE_ARTICLE_DRW
 62
     7
100
AcDbLine
 10
2020.0
 20
50.0
 30
0.0
 11
2920.0
 21
50.0
 31
0.0
  0
LINE
  5
95
330
1F
100
AcDbEntity
  8
SINGLE_ARTICLE_DRW
 62
     7
100
AcDbLine
 10
2270.0
 20
275.0
 30
0.0
 11
2020.0
 21
275.0
 31
0.0
  0
LINE
  5
96
330
1F
100
AcDbEntity
  8
MARKETING_DRW
  6
CENTERX2
100
AcDbLine
 10
2825.0
 20
200.0
 30
0.0
 11
2850.0
 21
200.0
 31
0.0
  0
LINE
  5
97
330
1F
100
AcDbEntity
  8
MARKETING_DRW
  6
CENTERX2
100
AcDbLine
 10
2837.5
 20
212.5
 30
0.0
 11
2837.5
 21
187.5
 31
0.0
  0
LINE
  5
98
330
1F
100
AcDbEntity
  8
MARKETING_DRW
  6
CENTERX2
100
AcDbLine
 10
2785.0
 20
200.0
 30
0.0
 11
2820.0
 21
200.0
 31
0.0
  0
LINE
  5
99
330
1F
100
AcDbEntity
  8
MARKETING_DRW
100
AcDbLine
 10
2790.0
 20
194.95
 30
0.0
 11
2815.0
 21
190.0
 31
0.0
  0
LINE
  5
9A
330
1F
100
AcDbEntity
  8
MARKETING_DRW
100
AcDbLine
 10
2790.0
 20
205.05
 30
0.0
 11
2790.0
 21
194.95
 31
0.0
  0
LINE
  5
9B
330
1F
100
AcDbEntity
  8
MARKETING_DRW
100
AcDbLine
 10
2815.0
 20
210.0
 30
0.0
 11
2790.0
 21
205.05
 31
0.0
  0
LINE
  5
9C
330
1F
100
AcDbEntity
  8
MARKETING_DRW
100
AcDbLine
 10
2815.0
 20
190.0
 30
0.0
 11
2815.0
 21
210.0
 31
0.0
  0
LINE
  5
9D
330
1F
100
AcDbEntity
  8
MARKETING_DRW
100
AcDbLine
 10
2920.0
 20
50.0
 30
0.0
 11
2920.0
 21
230.0
 31
0.0
  0
LINE
  5
9E
330
1F
100
AcDbEntity
  8
MARKETING_DRW
100
AcDbLine
 10
2020.0
 20
50.0
 30
0.0
 11
2920.0
 21
50.0
 31
0.0
  0
LINE
  5
9F
330
1F
100
AcDbEntity
  8
MARKETING_DRW
100
AcDbLine
 10
2020.0
 20
275.0
 30
0.0
 11
2020.0
 21
50.0
 31
0.0
  0
LINE
  5
A0
330
1F
100
AcDbEntity
  8
MARKETING_DRW
100
AcDbLine
 10
2020.0
 20
275.0
 30
0.0
 11
2520.0
 21
275.0
 31
0.0
  0
LINE
  5
A1
330
1F
100
AcDbEntity
  8
MARKETING_DRW
100
AcDbLine
 10
2720.0
 20
50.0
 30
0.0
 11
2720.0
 21
95.0
 31
0.0
  0
LINE
  5
A2
330
1F
100
AcDbEntity
  8
MARKETING_DRW
100
AcDbLine
 10
2870.0
 20
95.0
 30
0.0
 11
2870.0
 21
50.0
 31
0.0
  0
LINE
  5
A3
330
1F
100
AcDbEntity
  8
MARKETING_DRW
100
AcDbLine
 10
2520.0
 20
275.0
 30
0.0
 11
2520.0
 21
230.0
 31
0.0
  0
LINE
  5
A4
330
1F
100
AcDbEntity
  8
MARKETING_DRW
100
AcDbLine
 10
2920.0
 20
230.0
 30
0.0
 11
2270.0
 21
230.0
 31
0.0
  0
LINE
  5
A5
330
1F
100
AcDbEntity
  8
MARKETING_DRW
100
AcDbLine
 10
2270.0
 20
275.0
 30
0.0
 11
2270.0
 21
185.0
 31
0.0
  0
LINE
  5
A6
330
1F
100
AcDbEntity
  8
MARKETING_DRW
100
AcDbLine
 10
2870.0
 20
230.0
 30
0.0
 11
2870.0
 21
185.0
 31
0.0
  0
LINE
  5
A7
330
1F
100
AcDbEntity
  8
MARKETING_DRW
100
AcDbLine
 10
2920.0
 20
95.0
 30
0.0
 11
2020.0
 21
95.0
 31
0.0
  0
LINE
  5
A8
330
1F
100
AcDbEntity
  8
MARKETING_DRW
100
AcDbLine
 10
2020.0
 20
185.0
 30
0.0
 11
2920.0
 21
185.0
 31
0.0
  0
LINE
  5
A9
330
1F
100
AcDbEntity
  8
MARKETING_DRW
100
AcDbLine
 10
2020.0
 20
50.0
 30
0.0
 11
2920.0
 21
50.0
 31
0.0
  0
LINE
  5
AA
330
1F
100
AcDbEntity
  8
MARKETING_DRW
100
AcDbLine
 10
2770.0
 20
230.0
 30
0.0
 11
2770.0
 21
185.0
 31
0.0
  0
LINE
  5
AB
330
1F
100
AcDbEntity
  8
MARKETING_DRW
100
AcDbLine
 10
2520.0
 20
275.0
 30
0.0
 11
2770.0
 21
275.0
 31
0.0
  0
LINE
  5
AC
330
1F
100
AcDbEntity
  8
MARKETING_DRW
100
AcDbLine
 10
2770.0
 20
275.0
 30
0.0
 11
2770.0
 21
230.0
 31
0.0
  0
LINE
  5
AD
330
1F
100
AcDbEntity
  8
MARKETING_DRW
100
AcDbLine
 10
2770.0
 20
275.0
 30
0.0
 11
2920.0
 21
275.0
 31
0.0
  0
LINE
  5
AE
330
1F
100
AcDbEntity
  8
MARKETING_DRW
100
AcDbLine
 10
2920.0
 20
275.0
 30
0.0
 11
2920.0
 21
230.0
 31
0.0
  0
LINE
  5
AF
330
1F
100
AcDbEntity
  8
MARKETING_DRW
100
AcDbLine
 10
2695.0
 20
275.0
 30
0.0
 11
2695.0
 21
230.0
 31
0.0
  0
LINE
  5
B0
330
1F
100
AcDbEntity
  8
MARKETING_DRW
100
AcDbLine
 10
2520.0
 20
230.0
 30
0.0
 11
2520.0
 21
185.0
 31
0.0
  0
CIRCLE
  5
B1
330
1F
100
AcDbEntity
  8
SINGLE_ARTICLE_DRW
 62
     7
100
AcDbCircle
 10
2837.5
 20
200.0
 30
0.0
 40
5.000000000000224
  0
CIRCLE
  5
B2
330
1F
100
AcDbEntity
  8
SINGLE_ARTICLE_DRW
 62
     7
100
AcDbCircle
 10
2837.5
 20
200.0
 30
0.0
 40
10.00000000000046
  0
CIRCLE
  5
B3
330
1F
100
AcDbEntity
  8
MARKETING_DRW
100
AcDbCircle
 10
2837.5
 20
200.0
 30
0.0
 40
4.99999999999979
  0
CIRCLE
  5
B4
330
1F
100
AcDbEntity
  8
MARKETING_DRW
100
AcDbCircle
 10
2837.5
 20
200.0
 30
0.0
 40
10.00000000000002
  0
MTEXT
  5
B6
330
1F
100
AcDbEntity
  8
SINGLE_ARTICLE_DRW
100
AcDbMText
 10
2025.0
 20
179.9766099061
 30
0.0
 40
9.0
 41
0.0
 71
     1
 72
     1
  1
title:
  7
SLDTEXTSTYLE0
 73
     1
 44
1.0
  0
MTEXT
  5
B7
330
1F
100
AcDbEntity
  8
SINGLE_ARTICLE_DRW
100
AcDbMText
 10
2025.0
 20
314.9766099061
 30
0.0
 40
9.0
 41
0.0
 71
     1
 72
     1
  1
technical reference:
  7
SLDTEXTSTYLE0
 73
     1
 44
1.0
  0
MTEXT
  5
B8
330
1F
100
AcDbEntity
  8
SINGLE_ARTICLE_DRW
100
AcDbMText
 10
2894.7829862405
 20
69.9675136777
 30
0.0
 40
12.5
 41
0.0
 71
     2
 72
     1
  1
1/1
  7
SLDTEXTSTYLE0
 73
     1
 44
1.0
  0
MTEXT
  5
B9
330
1F
100
AcDbEntity
  8
SINGLE_ARTICLE_DRW
100
AcDbMText
 10
2894.7829862405
 20
204.9675136777
 30
0.0
 40
12.5
 41
0.0
 71
     2
 72
     1
  1
1:5
  7
SLDTEXTSTYLE0
 73
     1
 44
1.0
  0
MTEXT
  5
BA
330
1F
100
AcDbEntity
  8
SINGLE_ARTICLE_DRW
100
AcDbMText
 10
2275.0
 20
314.9766099061
 30
0.0
 40
9.0
 41
0.0
 71
     1
 72
     1
  1
general tolerance:
  7
SLDTEXTSTYLE0
 73
     1
 44
1.0
  0
MTEXT
  5
BB
330
1F
100
AcDbEntity
  8
SINGLE_ARTICLE_DRW
100
AcDbMText
 10
2775.0
 20
249.9675136777
 30
0.0
 40
12.5
 41
0.0
 71
     1
 72
     1
  1
production drw.
  7
SLDTEXTSTYLE0
 73
     1
 44
1.0
  0
MTEXT
  5
BC
330
1F
100
AcDbEntity
  8
SINGLE_ARTICLE_DRW
100
AcDbMText
 10
2275.0
 20
269.9766099061
 30
0.0
 40
9.0
 41
0.0
 71
     1
 72
     1
  1
material:
  7
SLDTEXTSTYLE0
 73
     1
 44
1.0
  0
MTEXT
  5
BD
330
1F
100
AcDbEntity
  8
SINGLE_ARTICLE_DRW
100
AcDbMText
 10
2775.0
 20
224.9766099061
 30
0.0
 40
9.0
 41
0.0
 71
     1
 72
     1
  1
projection:ISO-E
  7
SLDTEXTSTYLE0
 73
     1
 44
1.0
  0
MTEXT
  5
BE
330
1F
100
AcDbEntity
  8
SINGLE_ARTICLE_DRW
100
AcDbMText
 10
2894.7500000913
 20
89.9766099061
 30
0.0
 40
9.0
 41
0.0
 71
     2
 72
     1
  1
sheet:
  7
SLDTEXTSTYLE0
 73
     1
 44
1.0
  0
MTEXT
  5
BF
330
1F
100
AcDbEntity
  8
SINGLE_ARTICLE_DRW
100
AcDbMText
 10
2725.0
 20
89.9766099061
 30
0.0
 40
9.0
 41
0.0
 71
     1
 72
     1
  1
release date:
  7
SLDTEXTSTYLE0
 73
     1
 44
1.0
  0
MTEXT
  5
C0
330
1F
100
AcDbEntity
  8
SINGLE_ARTICLE_DRW
100
AcDbMText
 10
2525.0
 20
224.9766099061
 30
0.0
 40
9.0
 41
0.0
 71
     1
 72
     1
  1
reviewed by:
  7
SLDTEXTSTYLE0
 73
     1
 44
1.0
  0
MTEXT
  5
C1
330
1F
100
AcDbEntity
  8
SINGLE_ARTICLE_DRW
100
AcDbMText
 10
2694.8125000894
 20
89.9766099061
 30
0.0
 40
9.0
 41
0.0
 71
     2
 72
     1
  1
index:
  7
SLDTEXTSTYLE0
 73
     1
 44
1.0
  0
MTEXT
  5
C2
330
1F
100
AcDbEntity
  8
SINGLE_ARTICLE_DRW
100
AcDbMText
 10
2775.0
 20
269.9766099061
 30
0.0
 40
9.0
 41
0.0
 71
     1
 72
     1
  1
documenttype:
  7
SLDTEXTSTYLE0
 73
     1
 44
1.0
  0
MTEXT
  5
C3
330
1F
100
AcDbEntity
  8
SINGLE_ARTICLE_DRW
100
AcDbMText
 10
2619.034373872
 20
89.9766099061
 30
0.0
 40
9.0
 41
0.0
 71
     2
 72
     1
  1
drawing-no.:
  7
SLDTEXTSTYLE0
 73
     1
 44
1.0
  0
MTEXT
  5
C4
330
1F
100
AcDbEntity
  8
SINGLE_ARTICLE_DRW
100
AcDbMText
 10
2775.0
 20
314.9766099061
 30
0.0
 40
9.0
 41
0.0
 71
     1
 72
     1
  1
weight:
  7
SLDTEXTSTYLE0
 73
     1
 44
1.0
  0
MTEXT
  5
C5
330
1F
100
AcDbEntity
  8
SINGLE_ARTICLE_DRW
100
AcDbMText
 10
2894.8750000875
 20
224.9766099061
 30
0.0
 40
9.0
 41
0.0
 71
     2
 72
     1
  1
scale:
  7
SLDTEXTSTYLE0
 73
     1
 44
1.0
  0
MTEXT
  5
C6
330
1F
100
AcDbEntity
  8
SINGLE_ARTICLE_DRW
100
AcDbMText
 10
2525.0
 20
314.9766099061
 30
0.0
 40
9.0
 41
0.0
 71
     1
 72
     1
  1
surface:
  7
SLDTEXTSTYLE0
 73
     1
 44
1.0
  0
MTEXT
  5
C7
330
1F
100
AcDbEntity
  8
SINGLE_ARTICLE_DRW
100
AcDbMText
 10
2275.0
 20
224.9766099061
 30
0.0
 40
9.0
 41
0.0
 71
     1
 72
     1
  1
created by:
  7
SLDTEXTSTYLE0
 73
     1
 44
1.0
  0
INSERT
  5
CE
330
1F
100
AcDbEntity
  8
SINGLE_ARTICLE_DRW
100
AcDbBlockReference
  2
SW_NOTE_0
 10
2025.0
 20
78.4000001475
 30
0.0
  0
MTEXT
  5
CF
330
1F
100
AcDbEntity
  8
SINGLE_ARTICLE_DRW
100
AcDbMText
 10
2025.0
 20
114.9675136777
 30
0.0
 40
12.5
 41
0.0
 71
     1
 72
     1
  1
ZB Duschrinne C mit Spalt und Flansch, mit Seitenauslaß, mit FAT GV50 L580, International
  7
SLDTEXTSTYLE0
 73
     1
 44
1.0
  0
MTEXT
  5
D0
330
1F
100
AcDbEntity
  8
SINGLE_ARTICLE_DRW
100
AcDbMText
 10
2025.0
 20
137.4675136777
 30
0.0
 40
12.5
 41
0.0
 71
     1
 72
     1
  1
ASM Shower Channel C with gap and flange, with Side outlet, with FAT GV50 L580, International
  7
SLDTEXTSTYLE0
 73
     1
 44
1.0
  0
MTEXT
  5
D1
330
1F
100
AcDbEntity
  8
SINGLE_ARTICLE_DRW
100
AcDbMText
 10
2025.0
 20
295.0022357116
 30
0.0
 40
12.5
 41
0.0
 71
     1
 72
     1
  1
Tittmar, Alexander
  7
SLDTEXTSTYLE0
 73
     1
 44
1.0
  0
MTEXT
  5
D2
330
1F
100
AcDbEntity
  8
SINGLE_ARTICLE_DRW
100
AcDbMText
 10
2619.0407964215
 20
69.9675136777
 30
0.0
 40
12.5
 41
0.0
 71
     2
 72
     1
  1
1077048-O
  7
SLDTEXTSTYLE0
 73
     1
 44
1.0
  0
MTEXT
  5
D3
330
1F
100
AcDbEntity
  8
SINGLE_ARTICLE_DRW
100
AcDbMText
 10
2694.7395830229
 20
69.9675136777
 30
0.0
 40
12.5
 41
0.0
 71
     2
 72
     1
  1
001
  7
SLDTEXTSTYLE0
 73
     1
 44
1.0
  0
MTEXT
  5
D4
330
1F
100
AcDbEntity
  8
SINGLE_ARTICLE_DRW
100
AcDbMText
 10
2025.0
 20
159.9675136777
 30
0.0
 40
12.5
 41
0.0
 71
     1
 72
     1
  1
ACO ShowerDrain
  7
SLDTEXTSTYLE0
 73
     1
 44
1.0
  0
MTEXT
  5
D5
330
1F
100
AcDbEntity
  8
SINGLE_ARTICLE_DRW
100
AcDbMText
 10
2025.0
 20
334.9766099061
 30
0.0
 40
9.0
 41
0.0
 71
     1
 72
     1
  1
modification:
  7
SLDTEXTSTYLE0
 73
     1
 44
1.0
  0
MTEXT
  5
D6
330
1F
100
AcDbEntity
  8
SINGLE_ARTICLE_DRW
100
AcDbMText
 10
2775.0
 20
294.9675136777
 30
0.0
 40
12.5
 41
0.0
 71
     1
 72
     1
  1
1.551 kg
  7
SLDTEXTSTYLE0
 73
     1
 44
1.0
  0
MTEXT
  5
D7
330
1F
100
AcDbEntity
  8
MARKETING_DRW
100
AcDbMText
 10
2025.0
 20
114.9675136777
 30
0.0
 40
12.5
 41
0.0
 71
     1
 72
     1
  1
ZB Duschrinne C mit Spalt und Flansch, mit Seitenauslaß, mit FAT GV50 L580, International
  7
SLDTEXTSTYLE0
 73
     1
 44
1.0
  0
MTEXT
  5
D8
330
1F
100
AcDbEntity
  8
MARKETING_DRW
100
AcDbMText
 10
2025.0
 20
137.4675136777
 30
0.0
 40
12.5
 41
0.0
 71
     1
 72
     1
  1
ASM Shower Channel C with gap and flange, with Side outlet, with FAT GV50 L580, International
  7
SLDTEXTSTYLE0
 73
     1
 44
1.0
  0
MTEXT
  5
D9
330
1F
100
AcDbEntity
  8
MARKETING_DRW
100
AcDbMText
 10
2606.5407964215
 20
249.9675136777
 30
0.0
 40
12.5
 41
0.0
 71
     2
 72
     1
  1
1077048-O
  7
SLDTEXTSTYLE0
 73
     1
 44
1.0
  0
MTEXT
  5
DA
330
1F
100
AcDbEntity
  8
MARKETING_DRW
100
AcDbMText
 10
2732.2395830229
 20
252.0971433073
 30
0.0
 40
12.5
 41
0.0
 71
     2
 72
     1
  1
001
  7
SLDTEXTSTYLE0
 73
     1
 44
1.0
  0
MTEXT
  5
DB
330
1F
100
AcDbEntity
  8
MARKETING_DRW
100
AcDbMText
 10
2025.0
 20
159.9675136777
 30
0.0
 40
12.5
 41
0.0
 71
     1
 72
     1
  1
ACO ShowerDrain
  7
SLDTEXTSTYLE0
 73
     1
 44
1.0
  0
MTEXT
  5
DC
330
1F
100
AcDbEntity
  8
MARKETING_DRW
100
AcDbMText
 10
2775.0
 20
269.9766099061
 30
0.0
 40
9.0
 41
0.0
 71
     1
 72
     1
  1
documenttype:
  7
SLDTEXTSTYLE0
 73
     1
 44
1.0
  0
MTEXT
  5
DD
330
1F
100
AcDbEntity
  8
MARKETING_DRW
100
AcDbMText
 10
2275.0
 20
224.9766099061
 30
0.0
 40
9.0
 41
0.0
 71
     1
 72
     1
  1
created by:
  7
SLDTEXTSTYLE0
 73
     1
 44
1.0
  0
MTEXT
  5
DE
330
1F
100
AcDbEntity
  8
MARKETING_DRW
100
AcDbMText
 10
2606.534373872
 20
270.0578764559
 30
0.0
 40
9.0
 41
0.0
 71
     2
 72
     1
  1
drawing-no.:
  7
SLDTEXTSTYLE0
 73
     1
 44
1.0
  0
MTEXT
  5
DF
330
1F
100
AcDbEntity
  8
MARKETING_DRW
100
AcDbMText
 10
2525.0
 20
224.9766099061
 30
0.0
 40
9.0
 41
0.0
 71
     1
 72
     1
  1
reviewed by:
  7
SLDTEXTSTYLE0
 73
     1
 44
1.0
  0
MTEXT
  5
E0
330
1F
100
AcDbEntity
  8
MARKETING_DRW
100
AcDbMText
 10
2775.0
 20
224.9766099061
 30
0.0
 40
9.0
 41
0.0
 71
     1
 72
     1
  1
projection:ISO-E
  7
SLDTEXTSTYLE0
 73
     1
 44
1.0
  0
MTEXT
  5
E1
330
1F
100
AcDbEntity
  8
MARKETING_DRW
100
AcDbMText
 10
2894.7500000913
 20
89.9766099061
 30
0.0
 40
9.0
 41
0.0
 71
     2
 72
     1
  1
sheet:
  7
SLDTEXTSTYLE0
 73
     1
 44
1.0
  0
MTEXT
  5
E2
330
1F
100
AcDbEntity
  8
MARKETING_DRW
100
AcDbMText
 10
2894.7829862405
 20
69.9675136777
 30
0.0
 40
12.5
 41
0.0
 71
     2
 72
     1
  1
1/1
  7
SLDTEXTSTYLE0
 73
     1
 44
1.0
  0
MTEXT
  5
E3
330
1F
100
AcDbEntity
  8
MARKETING_DRW
100
AcDbMText
 10
2725.0
 20
89.9766099061
 30
0.0
 40
9.0
 41
0.0
 71
     1
 72
     1
  1
release date:
  7
SLDTEXTSTYLE0
 73
     1
 44
1.0
  0
MTEXT
  5
E4
330
1F
100
AcDbEntity
  8
MARKETING_DRW
100
AcDbMText
 10
2732.3125000894
 20
269.9766099061
 30
0.0
 40
9.0
 41
0.0
 71
     2
 72
     1
  1
index:
  7
SLDTEXTSTYLE0
 73
     1
 44
1.0
  0
MTEXT
  5
E5
330
1F
100
AcDbEntity
  8
MARKETING_DRW
100
AcDbMText
 10
2025.0
 20
179.9766099061
 30
0.0
 40
9.0
 41
0.0
 71
     1
 72
     1
  1
title:
  7
SLDTEXTSTYLE0
 73
     1
 44
1.0
  0
MTEXT
  5
E6
330
1F
100
AcDbEntity
  8
MARKETING_DRW
100
AcDbMText
 10
2894.8750000875
 20
224.9766099061
 30
0.0
 40
9.0
 41
0.0
 71
     2
 72
     1
  1
scale:
  7
SLDTEXTSTYLE0
 73
     1
 44
1.0
  0
MTEXT
  5
E7
330
1F
100
AcDbEntity
  8
MARKETING_DRW
100
AcDbMText
 10
2894.7829862405
 20
204.9675136777
 30
0.0
 40
12.5
 41
0.0
 71
     2
 72
     1
  1
1:5
  7
SLDTEXTSTYLE0
 73
     1
 44
1.0
  0
INSERT
  5
EE
330
1F
100
AcDbEntity
  8
MARKETING_DRW
100
AcDbBlockReference
  2
SW_NOTE_0_1
 10
2025.0
 20
78.3750002482
 30
0.0
  0
MTEXT
  5
EF
330
1F
100
AcDbEntity
  8
MARKETING_DRW
100
AcDbMText
 10
2775.0
 20
249.9675136777
 30
0.0
 40
12.5
 41
0.0
 71
     1
 72
     1
  1
marketing drw.
  7
SLDTEXTSTYLE0
 73
     1
 44
1.0
  0
LINE
  5
F0
330
1F
100
AcDbEntity
  8
0
  6
Continuous
 62
     7
370
    35
100
AcDbLine
 10
1564.5077799216
 20
1446.158575496
 30
0.0
 11
984.5077799216
 21
1446.158575496
 31
0.0
  0
LINE
  5
F1
330
1F
100
AcDbEntity
  8
0
  6
Continuous
 62
     7
370
    35
100
AcDbLine
 10
1193.5077799216
 20
1426.1734004845
 30
0.0
 11
1193.5077799216
 21
1423.1621369968
 31
0.0
  0
LINE
  5
F2
330
1F
100
AcDbEntity
  8
0
  6
Continuous
 62
     7
370
    35
100
AcDbLine
 10
1355.5077799216
 20
1423.1621369968
 30
0.0
 11
1355.5077799216
 21
1426.1734004845
 31
0.0
  0
ARC
  5
F3
330
1F
100
AcDbEntity
  8
0
  6
Continuous
 62
     7
370
    35
100
AcDbCircle
 10
1191.5077799216
 20
1426.1653588372
 30
0.0
 40
2.000000000000093
100
AcDbArc
 50
0.2172817996
 51
85.9305858724
  0
ARC
  5
F4
330
1F
100
AcDbEntity
  8
0
  6
Continuous
 62
     7
370
    35
100
AcDbCircle
 10
1357.5077799216
 20
1426.1653588372
 30
0.0
 40
2.000000000000163
100
AcDbArc
 50
94.065898605
 51
179.7696267909
  0
LINE
  5
F5
330
1F
100
AcDbEntity
  8
0
  6
Continuous
 62
     7
370
    35
100
AcDbLine
 10
1357.366917978
 20
1428.1601864164
 30
0.0
 11
1564.5077799216
 21
1428.1601864164
 31
0.0
  0
LINE
  5
F6
330
1F
100
AcDbEntity
  8
0
  6
Continuous
 62
     7
370
    35
100
AcDbLine
 10
984.5077799216
 20
1428.1601864164
 30
0.0
 11
1191.6486418651
 21
1428.1601864164
 31
0.0
  0
ARC
  5
F7
330
1F
100
AcDbEntity
  8
0
  6
Continuous
 62
     7
370
    35
100
AcDbCircle
 10
1409.1961782673
 20
1399.7621369965
 30
0.0
 40
3.000000000000227
100
AcDbArc
 50
78.1402208791
 51
90.0
  0
ARC
  5
F8
330
1F
100
AcDbEntity
  8
0
  6
Continuous
 62
     7
370
    35
100
AcDbCircle
 10
1409.1961782673
 20
1355.6621369965
 30
0.0
 40
3.0
100
AcDbArc
 50
270.0
 51
281.8597791209
  0
LINE
  5
F9
330
1F
100
AcDbEntity
  8
0
  6
Continuous
 62
     7
370
    35
100
AcDbLine
 10
1366.0077799216
 20
1352.6621369965
 30
0.0
 11
1409.1961782673
 21
1352.6621369965
 31
0.0
  0
LINE
  5
FA
330
1F
100
AcDbEntity
  8
0
  6
Continuous
 62
     7
370
    35
100
AcDbLine
 10
1409.1961782673
 20
1402.7621369965
 30
0.0
 11
1366.0077799216
 21
1402.7621369965
 31
0.0
  0
LINE
  5
FB
330
1F
100
AcDbEntity
  8
0
  6
Continuous
 62
     7
370
    35
100
AcDbLine
 10
1409.8127299701
 20
1352.7261765067
 30
0.0
 11
1414.5077799216
 21
1353.7121369965
 31
0.0
  0
LINE
  5
FC
330
1F
100
AcDbEntity
  8
0
  6
Continuous
 62
     7
370
    35
100
AcDbLine
 10
1414.5077799216
 20
1401.7121369965
 30
0.0
 11
1409.8127299701
 21
1402.6980974863
 31
0.0
  0
LINE
  5
FD
330
1F
100
AcDbEntity
  8
0
  6
Continuous
 62
     7
370
    35
100
AcDbLine
 10
1366.0077799216
 20
1402.7121369965
 30
0.0
 11
1364.4056143481
 21
1402.7121369965
 31
0.0
  0
LINE
  5
FE
330
1F
100
AcDbEntity
  8
0
  6
Continuous
 62
     7
370
    35
100
AcDbLine
 10
1347.5077799216
 20
1352.7121369965
 30
0.0
 11
1366.0077799216
 21
1352.7121369965
 31
0.0
  0
LINE
  5
FF
330
1F
100
AcDbEntity
  8
0
  6
Continuous
 62
     7
370
    35
100
AcDbLine
 10
1343.5545623287
 20
1352.7121369965
 30
0.0
 11
1347.5077799216
 21
1352.7121369965
 31
0.0
  0
LINE
  5
100
330
1F
100
AcDbEntity
  8
0
  6
Continuous
 62
     7
370
    35
100
AcDbLine
 10
1564.5077799216
 20
1434.158575496
 30
0.0
 11
984.5077799216
 21
1434.158575496
 31
0.0
  0
LINE
  5
101
330
1F
100
AcDbEntity
  8
0
  6
Continuous
 62
     7
370
    35
100
AcDbLine
 10
1564.5077799216
 20
1433.158575496
 30
0.0
 11
984.5077799216
 21
1433.158575496
 31
0.0
  0
LINE
  5
102
330
1F
100
AcDbEntity
  8
0
  6
Continuous
 62
     7
370
    35
100
AcDbLine
 10
984.5077799216
 20
1434.158575496
 30
0.0
 11
984.5077799216
 21
1433.158575496
 31
0.0
  0
LINE
  5
103
330
1F
100
AcDbEntity
  8
0
  6
Continuous
 62
     7
370
    35
100
AcDbLine
 10
1564.5077799216
 20
1434.158575496
 30
0.0
 11
1564.5077799216
 21
1433.158575496
 31
0.0
  0
LINE
  5
104
330
1F
100
AcDbEntity
  8
0
  6
Continuous
 62
     7
370
    35
100
AcDbLine
 10
984.5077799216
 20
1435.158575496
 30
0.0
 11
984.5077799216
 21
1434.158575496
 31
0.0
  0
LINE
  5
105
330
1F
100
AcDbEntity
  8
0
  6
Continuous
 62
     7
370
    35
100
AcDbLine
 10
1564.5077799216
 20
1434.158575496
 30
0.0
 11
1564.5077799216
 21
1435.158575496
 31
0.0
  0
LINE
  5
106
330
1F
100
AcDbEntity
  8
0
  6
Continuous
 62
     7
370
    35
100
AcDbLine
 10
984.5077799216
 20
1435.158575496
 30
0.0
 11
984.5077799216
 21
1444.658575496
 31
0.0
  0
LINE
  5
107
330
1F
100
AcDbEntity
  8
0
  6
Continuous
 62
     7
370
    35
100
AcDbLine
 10
1564.5077799216
 20
1444.658575496
 30
0.0
 11
1564.5077799216
 21
1435.158575496
 31
0.0
  0
LINE
  5
108
330
1F
100
AcDbEntity
  8
0
  6
Continuous
 62
     7
370
    35
100
AcDbLine
 10
1564.5077799216
 20
1446.158575496
 30
0.0
 11
1564.5077799216
 21
1445.158575496
 31
0.0
  0
LINE
  5
109
330
1F
100
AcDbEntity
  8
0
  6
Continuous
 62
     7
370
    35
100
AcDbLine
 10
984.5077799216
 20
1445.158575496
 30
0.0
 11
984.5077799216
 21
1446.158575496
 31
0.0
  0
LINE
  5
10A
330
1F
100
AcDbEntity
  8
0
  6
Continuous
 62
     7
370
    35
100
AcDbLine
 10
984.5077799216
 20
1431.9204939853
 30
0.0
 11
984.5077799216
 21
1433.158575496
 31
0.0
  0
LINE
  5
10B
330
1F
100
AcDbEntity
  8
0
  6
Continuous
 62
     7
370
    35
100
AcDbLine
 10
1564.5077799216
 20
1431.9204939853
 30
0.0
 11
1564.5077799216
 21
1433.158575496
 31
0.0
  0
LINE
  5
10C
330
1F
100
AcDbEntity
  8
0
  6
Continuous
 62
     7
370
    35
100
AcDbLine
 10
1564.5077799216
 20
1431.22452344
 30
0.0
 11
1564.5077799216
 21
1431.9204939853
 31
0.0
  0
LINE
  5
10D
330
1F
100
AcDbEntity
  8
0
  6
Continuous
 62
     7
370
    35
100
AcDbLine
 10
984.5077799216
 20
1431.9204939853
 30
0.0
 11
984.5077799216
 21
1431.22452344
 31
0.0
  0
SPLINE
  5
10E
330
1F
100
AcDbEntity
  8
0
  6
Continuous
 62
     7
370
    35
100
AcDbSpline
210
0.0
220
0.0
230
1.0
 70
     8
 71
     3
 72
     8
 73
     4
 74
     0
 42
0.000000001
 43
0.00000001
 40
0.0000000000000255
 40
0.0000000000000255
 40
0.0000000000000255
 40
0.0000000000000255
 40
0.0000564308016788
 40
0.0000564308016788
 40
0.0000564308016788
 40
0.0000564308016788
 10
1357.379242700948
 20
1428.163403075255
 30
0.0
 10
1357.384405104761
 20
1428.16442853439
 30
0.0
 10
1357.387415872658
 20
1428.165503658654
 30
0.0
 10
1357.387238424074
 20
1428.166570017686
 30
0.0
  0
SPLINE
  5
10F
330
1F
100
AcDbEntity
  8
0
  6
Continuous
 62
     7
370
    35
100
AcDbSpline
210
0.0
220
0.0
230
1.0
 70
     8
 71
     3
 72
    14
 73
    10
 74
     0
 42
0.000000001
 43
0.00000001
 40
0.0
 40
0.0
 40
0.0
 40
0.0
 40
0.25
 40
0.25
 40
0.5
 40
0.5
 40
0.75
 40
0.75
 40
1.0
 40
1.0
 40
1.0
 40
1.0
 10
1357.387238424203
 20
1428.166570017686
 30
0.0
 10
1357.355865776325
 20
1428.355100721419
 30
0.0
 10
1356.766926864084
 20
1428.543096066325
 30
0.0
 10
1354.535206299507
 20
1428.898299390911
 30
0.0
 10
1352.894961179823
 20
1429.065083638232
 30
0.0
 10
1348.73754342274
 20
1429.359387378632
 30
0.0
 10
1346.224782056896
 20
1429.486582156158
 30
0.0
 10
1340.596969519369
 20
1429.687480710032
 30
0.0
 10
1337.48776305724
 20
1429.760975501089
 30
0.0
 10
1334.248111484289
 20
1429.803570379294
 30
0.0
  0
SPLINE
  5
110
330
1F
100
AcDbEntity
  8
0
  6
Continuous
 62
     7
370
    35
100
AcDbSpline
210
0.0
220
0.0
230
1.0
 70
     8
 71
     3
 72
    14
 73
    10
 74
     0
 42
0.000000001
 43
0.00000001
 40
0.0
 40
0.0
 40
0.0
 40
0.0
 40
0.125
 40
0.125
 40
0.2500000000000001
 40
0.2500000000000001
 40
0.5
 40
0.5
 40
1.0
 40
1.0
 40
1.0
 40
1.0
 10
1334.248111484262
 20
1429.803570379287
 30
0.0
 10
1333.972065043816
 20
1429.807199832716
 30
0.0
 10
1333.69277044992
 20
1429.809084788577
 30
0.0
 10
1333.132875410101
 20
1429.812153361589
 30
0.0
 10
1332.852175886606
 20
1429.813283766796
 30
0.0
 10
1332.009414069
 20
1429.816318769877
 30
0.0
 10
1331.446876963988
 20
1429.817798788812
 30
0.0
 10
1329.759432933872
 20
1429.821389733122
 30
0.0
 10
1328.633879059139
 20
1429.822538343285
 30
0.0
 10
1327.507779921583
 20
1429.822538343285
 30
0.0
  0
LINE
  5
111
330
1F
100
AcDbEntity
  8
0
  6
Continuous
 62
     7
370
    35
100
AcDbLine
 10
1327.5077799216
 20
1429.8225383433
 30
0.0
 11
1221.5077799216
 21
1429.8225383433
 31
0.0
  0
SPLINE
  5
112
330
1F
100
AcDbEntity
  8
0
  6
Continuous
 62
     7
370
    35
100
AcDbSpline
210
0.0
220
0.0
230
1.0
 70
     8
 71
     3
 72
    14
 73
    10
 74
     0
 42
0.000000001
 43
0.00000001
 40
0.0
 40
0.0
 40
0.0
 40
0.0
 40
0.5
 40
0.5
 40
0.7500000000000016
 40
0.7500000000000016
 40
0.8750000000000008
 40
0.8750000000000008
 40
1.0
 40
1.0
 40
1.0
 40
1.0
 10
1221.507779921583
 20
1429.822538343285
 30
0.0
 10
1220.381877385286
 20
1429.822538343285
 30
0.0
 10
1219.256421962623
 20
1429.821390140124
 30
0.0
 10
1217.568966362871
 20
1429.817799502474
 30
0.0
 10
1217.006509006838
 20
1429.816319607434
 30
0.0
 10
1216.164161091358
 20
1429.813286800327
 30
0.0
 10
1215.883548618073
 20
1429.812157240521
 30
0.0
 10
1215.323483704374
 20
1429.809089448794
 30
0.0
 10
1215.042910588641
 20
1429.807192151525
 30
0.0
 10
1214.767448358904
 20
1429.803570379287
 30
0.0
  0
SPLINE
  5
113
330
1F
100
AcDbEntity
  8
0
  6
Continuous
 62
     7
370
    35
100
AcDbSpline
210
0.0
220
0.0
230
1.0
 70
     8
 71
     3
 72
    14
 73
    10
 74
     0
 42
0.000000001
 43
0.00000001
 40
0.0
 40
0.0
 40
0.0
 40
0.0
 40
0.25
 40
0.25
 40
0.5
 40
0.5
 40
0.75
 40
0.75
 40
1.0
 40
1.0
 40
1.0
 40
1.0
 10
1214.767448358877
 20
1429.803570379294
 30
0.0
 10
1211.527796689781
 20
1429.760975499825
 30
0.0
 10
1208.418920677655
 20
1429.687491441588
 30
0.0
 10
1202.790688256761
 20
1429.486580021372
 30
0.0
 10
1200.278118110076
 20
1429.359393134145
 30
0.0
 10
1196.120675962153
 20
1429.065090553256
 30
0.0
 10
1194.480336269843
 20
1428.898293986107
 30
0.0
 10
1192.248745286277
 20
1428.543116596642
 30
0.0
 10
1191.659694067571
 20
1428.355100725805
 30
0.0
 10
1191.628321418963
 20
1428.166570017686
 30
0.0
  0
SPLINE
  5
114
330
1F
100
AcDbEntity
  8
0
  6
Continuous
 62
     7
370
    35
100
AcDbSpline
210
0.0
220
0.0
230
1.0
 70
     8
 71
     3
 72
     8
 73
     4
 74
     0
 42
0.000000001
 43
0.00000001
 40
0.0000000000000194
 40
0.0000000000000194
 40
0.0000000000000194
 40
0.0000000000000194
 40
0.0000564308016788
 40
0.0000564308016788
 40
0.0000564308016788
 40
0.0000564308016788
 10
1191.628321419093
 20
1428.166570017686
 30
0.0
 10
1191.628143970509
 20
1428.165503658654
 30
0.0
 10
1191.631154738405
 20
1428.16442853439
 30
0.0
 10
1191.636317142218
 20
1428.163403075255
 30
0.0
  0
LINE
  5
115
330
1F
100
AcDbEntity
  8
0
  6
Continuous
 62
     7
370
    35
100
AcDbLine
 10
1193.5077799216
 20
1423.1621369966
 30
0.0
 11
1221.5077799216
 21
1423.1621369966
 31
0.0
  0
LINE
  5
116
330
1F
100
AcDbEntity
  8
0
  6
Continuous
 62
     7
370
    35
100
AcDbLine
 10
1221.5077799216
 20
1423.1621369966
 30
0.0
 11
1327.5077799216
 21
1423.1621369966
 31
0.0
  0
LINE
  5
117
330
1F
100
AcDbEntity
  8
0
  6
Continuous
 62
     7
370
    35
100
AcDbLine
 10
1327.5077799216
 20
1423.1621369966
 30
0.0
 11
1348.6619362709
 21
1423.1621369966
 31
0.0
  0
LINE
  5
118
330
1F
100
AcDbEntity
  8
0
  6
Continuous
 62
     7
370
    35
100
AcDbLine
 10
1349.2969861884
 20
1423.1621369966
 30
0.0
 11
1355.5077799216
 21
1423.1621369966
 31
0.0
  0
SPLINE
  5
119
330
1F
100
AcDbEntity
  8
0
  6
Continuous
 62
     7
370
    35
100
AcDbSpline
210
0.0
220
0.0
230
1.0
 70
    24
 71
     3
 72
     9
 73
     5
 74
     0
 42
0.000000001
 43
0.00000001
 40
0.0
 40
0.0
 40
0.0
 40
0.0
 40
0.1857572773152842
 40
1.0
 40
1.0
 40
1.0
 40
1.0
 10
1191.648710653487
 20
1428.160787398964
 30
0.0
 10
1191.649648305881
 20
1428.160589505479
 30
0.0
 10
1191.654696034873
 20
1428.159524171793
 30
0.0
 10
1191.644565696509
 20
1428.161662200742
 30
0.0
 10
1191.636317142218
 20
1428.163403075255
 30
0.0
  0
LINE
  5
11A
330
1F
100
AcDbEntity
  8
0
  6
Continuous
 62
     7
370
    35
100
AcDbLine
 10
1357.3792427009
 20
1428.1634030753
 30
0.0
 11
1357.3668310142
 21
1428.160783563
 31
0.0
  0
LINE
  5
11B
330
1F
100
AcDbEntity
  8
0
  6
Continuous
 62
     7
370
    35
100
AcDbLine
 10
1221.5077799216
 20
1426.2121369965
 30
0.0
 11
1193.7077799216
 21
1426.2121369965
 31
0.0
  0
LINE
  5
11C
330
1F
100
AcDbEntity
  8
0
  6
Continuous
 62
     7
370
    35
100
AcDbLine
 10
1327.5077799216
 20
1426.2121369965
 30
0.0
 11
1355.3077799216
 21
1426.2121369965
 31
0.0
  0
LINE
  5
11D
330
1F
100
AcDbEntity
  8
0
  6
Continuous
 62
     7
370
    35
100
AcDbLine
 10
1366.0077799216
 20
1377.7121369965
 30
0.0
 11
1366.0077799216
 21
1402.7621369965
 31
0.0
  0
LINE
  5
11E
330
1F
100
AcDbEntity
  8
0
  6
Continuous
 62
     7
370
    35
100
AcDbLine
 10
1366.0077799216
 20
1352.6621369965
 30
0.0
 11
1366.0077799216
 21
1377.7121369965
 31
0.0
  0
LINE
  5
11F
330
1F
100
AcDbEntity
  8
0
  6
Continuous
 62
     7
370
    35
100
AcDbLine
 10
1414.5077799216
 20
1377.7121369965
 30
0.0
 11
1414.5077799216
 21
1401.7121369965
 31
0.0
  0
LINE
  5
120
330
1F
100
AcDbEntity
  8
0
  6
Continuous
 62
     7
370
    35
100
AcDbLine
 10
1414.5077799216
 20
1353.7121369965
 30
0.0
 11
1414.5077799216
 21
1377.7121369965
 31
0.0
  0
ARC
  5
121
330
1F
100
AcDbEntity
  8
0
  6
Continuous
 62
     7
370
    35
100
AcDbCircle
 10
1274.5077799216
 20
1377.7621369965
 30
0.0
 40
25.04999999999983
100
AcDbArc
 50
237.7865374201
 51
302.2134625799
  0
SPLINE
  5
122
330
1F
100
AcDbEntity
  8
0
  6
Continuous
 62
     7
370
    35
100
AcDbSpline
210
0.0
220
0.0
230
1.0
 70
    24
 71
     3
 72
    10
 73
     6
 74
     0
 42
0.000000001
 43
0.00000001
 40
0.0
 40
0.0
 40
0.0
 40
0.0
 40
0.2125176675662886
 40
0.6062581077228096
 40
1.0
 40
1.0
 40
1.0
 40
1.0
 10
1274.507779921585
 20
1403.074143523453
 30
0.0
 10
1274.507779921584
 20
1403.157427032166
 30
0.0
 10
1274.507779921581
 20
1403.395013407809
 30
0.0
 10
1274.507779921585
 20
1404.006477972219
 30
0.0
 10
1274.507779921584
 20
1404.631377810567
 30
0.0
 10
1274.507779921583
 20
1404.943828305901
 30
0.0
  0
SPLINE
  5
123
330
1F
100
AcDbEntity
  8
0
  6
Continuous
 62
     7
370
    35
100
AcDbSpline
210
0.0
220
0.0
230
1.0
 70
    24
 71
     3
 72
    18
 73
    14
 74
     0
 42
0.000000001
 43
0.00000001
 40
0.0
 40
0.0
 40
0.0
 40
0.0
 40
0.1056000872447495
 40
0.3249463313005448
 40
0.54560952458134
 40
0.6686132746948424
 40
0.7011918426142504
 40
0.7339487647370314
 40
0.7672437697818071
 40
0.8035947759165867
 40
0.8401179485066321
 40
0.8975115054529715
 40
1.0
 40
1.0
 40
1.0
 40
1.0
 10
1274.507779921583
 20
1404.9438283059
 30
0.0
 10
1274.507779921583
 20
1405.62003691503
 30
0.0
 10
1274.507779921583
 20
1407.700825979355
 30
0.0
 10
1274.507779921583
 20
1411.132816022882
 30
0.0
 10
1274.507779921583
 20
1414.778980458844
 30
0.0
 10
1274.507779921583
 20
1416.923142205267
 30
0.0
 10
1274.507779921583
 20
1417.705250935051
 30
0.0
 10
1274.507779921583
 20
1417.986869936324
 30
0.0
 10
1274.507779921583
 20
1418.471079539029
 30
0.0
 10
1274.507779921583
 20
1419.231229466082
 30
0.0
 10
1274.507779921583
 20
1420.087538322708
 30
0.0
 10
1274.507779921583
 20
1421.409131706508
 30
0.0
 10
1274.507779921583
 20
1422.477369305087
 30
0.0
 10
1274.507779921583
 20
1423.162136996484
 30
0.0
  0
SPLINE
  5
124
330
1F
100
AcDbEntity
  8
0
  6
Continuous
 62
     7
370
    35
100
AcDbSpline
210
0.0
220
0.0
230
1.0
 70
    24
 71
     3
 72
    19
 73
    15
 74
     0
 42
0.000000001
 43
0.00000001
 40
0.0
 40
0.0
 40
0.0
 40
0.0
 40
0.2409130132110047
 40
0.4882582803106248
 40
0.5391715029117174
 40
0.5899404478678678
 40
0.6400693120936225
 40
0.6899887491764568
 40
0.7400419496428569
 40
0.7904190820051351
 40
0.8413201884464373
 40
0.8929676784851881
 40
0.9456873805534199
 40
1.0
 40
1.0
 40
1.0
 40
1.0
 10
1274.507779921583
 20
1423.162136996484
 30
0.0
 10
1282.353823019865
 20
1423.162136996485
 30
0.0
 10
1298.255394542922
 20
1423.162136996485
 30
0.0
 10
1315.820819128222
 20
1423.162136996484
 30
0.0
 10
1327.182705931225
 20
1423.162136996485
 30
0.0
 10
1332.138478525469
 20
1423.162136996484
 30
0.0
 10
1336.922839288879
 20
1423.162136996484
 30
0.0
 10
1341.40641723301
 20
1423.162136996484
 30
0.0
 10
1345.484667523587
 20
1423.162136996485
 30
0.0
 10
1349.057919465082
 20
1423.162136996485
 30
0.0
 10
1352.024325209903
 20
1423.162136996484
 30
0.0
 10
1354.254351429267
 20
1423.162136996484
 30
0.0
 10
1355.72766152629
 20
1423.162136996484
 30
0.0
 10
1355.91348527737
 20
1423.162136996484
 30
0.0
 10
1356.007779921583
 20
1423.162136996484
 30
0.0
  0
SPLINE
  5
125
330
1F
100
AcDbEntity
  8
0
  6
Continuous
 62
     7
370
    35
100
AcDbSpline
210
0.0
220
0.0
230
1.0
 70
     8
 71
     3
 72
    16
 73
    12
 74
     0
 42
0.000000001
 43
0.00000001
 40
0.0
 40
0.0
 40
0.0
 40
0.0
 40
0.1465768179208892
 40
0.2110706177997897
 40
0.2609182759381881
 40
0.301662719675315
 40
0.3460236197864481
 40
0.4164469026261889
 40
0.5419712682998772
 40
0.7688489389603064
 40
1.0
 40
1.0
 40
1.0
 40
1.0
 10
1356.007779921583
 20
1423.162136996484
 30
0.0
 10
1356.001110076054
 20
1422.283084667878
 30
0.0
 10
1355.991505498492
 20
1421.017249314721
 30
0.0
 10
1356.030923361026
 20
1419.5001897305
 30
0.0
 10
1355.946253588649
 20
1418.497892875524
 30
0.0
 10
1356.625660610451
 20
1417.950877720506
 30
0.0
 10
1357.433623807585
 20
1417.531551336966
 30
0.0
 10
1358.504391612654
 20
1416.532081655733
 30
0.0
 10
1359.673518870104
 20
1414.251912917188
 30
0.0
 10
1360.276331870768
 20
1410.808688110389
 30
0.0
 10
1360.889552926945
 20
1408.153689701177
 30
0.0
 10
1361.19902411942
 20
1406.813804980256
 30
0.0
  0
SPLINE
  5
126
330
1F
100
AcDbEntity
  8
0
  6
Continuous
 62
     7
370
    35
100
AcDbSpline
210
0.0
220
0.0
230
1.0
 70
     8
 71
     3
 72
    25
 73
    21
 74
     0
 42
0.000000001
 43
0.00000001
 40
0.0
 40
0.0
 40
0.0
 40
0.0
 40
0.0403772850825327
 40
0.0581432905171142
 40
0.0718747463632702
 40
0.0830985540815625
 40
0.0953185813390222
 40
0.1147179721021833
 40
0.1492959713349548
 40
0.2292797835274531
 40
0.3102091618275117
 40
0.3726852819818989
 40
0.4313870265629148
 40
0.4804590282852343
 40
0.5235520429457714
 40
0.5708166295125219
 40
0.6751808706738784
 40
0.7818081507417537
 40
0.8902538127997789
 40
1.0
 40
1.0
 40
1.0
 40
1.0
 10
1193.007779921583
 20
1423.162136996484
 30
0.0
 10
1193.014450927113
 20
1422.283084320911
 30
0.0
 10
1193.024057175076
 20
1421.017248468124
 30
0.0
 10
1192.984632457099
 20
1419.500190934425
 30
0.0
 10
1193.069316955004
 20
1418.497889674917
 30
0.0
 10
1192.389865845671
 20
1417.950887706857
 30
0.0
 10
1191.58210861947
 20
1417.531499715645
 30
0.0
 10
1190.509723772281
 20
1416.532513705572
 30
0.0
 10
1189.182434853082
 20
1413.904835800177
 30
0.0
 10
1188.508216389321
 20
1409.701184515813
 30
0.0
 10
1187.409215214015
 20
1405.005648090652
 30
0.0
 10
1186.670690466413
 20
1400.696373514682
 30
0.0
 10
1186.108910371909
 20
1397.059509218726
 30
0.0
 10
1185.726369229596
 20
1393.819306949791
 30
0.0
 10
1185.534235827376
 20
1390.810069035026
 30
0.0
 10
1185.463652110202
 20
1386.600147028968
 30
0.0
 10
1185.819790534548
 20
1381.01491527124
 30
0.0
 10
1187.044513816987
 20
1374.207898883522
 30
0.0
 10
1189.020141786084
 20
1367.444966338792
 30
0.0
 10
1190.994804562844
 20
1363.155606655197
 30
0.0
 10
1191.98802090659
 20
1360.998143521698
 30
0.0
  0
SPLINE
  5
127
330
1F
100
AcDbEntity
  8
0
  6
Continuous
 62
     7
370
    35
100
AcDbSpline
210
0.0
220
0.0
230
1.0
 70
    24
 71
     3
 72
    19
 73
    15
 74
     0
 42
0.000000001
 43
0.00000001
 40
0.0
 40
0.0
 40
0.0
 40
0.0
 40
0.2409130132110047
 40
0.4882582803106248
 40
0.5391715029117174
 40
0.5899404478678678
 40
0.6400693120936225
 40
0.6899887491764568
 40
0.7400419496428569
 40
0.7904190820051351
 40
0.8413201884464373
 40
0.8929676784851881
 40
0.9456873805534199
 40
1.0
 40
1.0
 40
1.0
 40
1.0
 10
1274.507779921583
 20
1423.162136996484
 30
0.0
 10
1266.661736823302
 20
1423.162136996485
 30
0.0
 10
1250.760165300245
 20
1423.162136996485
 30
0.0
 10
1233.194740714944
 20
1423.162136996484
 30
0.0
 10
1221.832853911942
 20
1423.162136996485
 30
0.0
 10
1216.877081317697
 20
1423.162136996484
 30
0.0
 10
1212.092720554287
 20
1423.162136996484
 30
0.0
 10
1207.609142610157
 20
1423.162136996484
 30
0.0
 10
1203.530892319579
 20
1423.162136996485
 30
0.0
 10
1199.957640378084
 20
1423.162136996485
 30
0.0
 10
1196.991234633264
 20
1423.162136996484
 30
0.0
 10
1194.761208413899
 20
1423.162136996484
 30
0.0
 10
1193.287898316877
 20
1423.162136996484
 30
0.0
 10
1193.102074565796
 20
1423.162136996484
 30
0.0
 10
1193.007779921583
 20
1423.162136996484
 30
0.0
  0
SPLINE
  5
128
330
1F
100
AcDbEntity
  8
0
  6
Continuous
 62
     7
370
    35
100
AcDbSpline
210
0.0
220
0.0
230
1.0
 70
     8
 71
     3
 72
    14
 73
    10
 74
     0
 42
0.000000001
 43
0.00000001
 40
0.0
 40
0.0
 40
0.0
 40
0.0
 40
0.149783861674635
 40
0.3039198677007078
 40
0.4537011775423317
 40
0.6078081864720632
 40
0.757933700022959
 40
0.9123691506710971
 40
1.0
 40
1.0
 40
1.0
 40
1.0
 10
1191.98802090659
 20
1360.998143521698
 30
0.0
 10
1192.396867619702
 20
1360.273029008857
 30
0.0
 10
1193.226440562805
 20
1358.801730937445
 30
0.0
 10
1194.909975807741
 20
1356.907292140695
 30
0.0
 10
1196.880082979869
 20
1355.290813011751
 30
0.0
 10
1199.081397021757
 20
1354.040741355055
 30
0.0
 10
1201.481956786003
 20
1353.172843744772
 30
0.0
 10
1203.632468966155
 20
1352.764722330962
 30
0.0
 10
1204.974989339883
 20
1352.726113755253
 30
0.0
 10
1205.460997514512
 20
1352.712136996485
 30
0.0
  0
SPLINE
  5
129
330
1F
100
AcDbEntity
  8
0
  6
Continuous
 62
     7
370
    35
100
AcDbSpline
210
0.0
220
0.0
230
1.0
 70
    24
 71
     3
 72
    19
 73
    15
 74
     0
 42
0.000000001
 43
0.00000001
 40
0.0
 40
0.0
 40
0.0
 40
0.0
 40
0.0339082014123468
 40
0.0838890956615421
 40
0.133885640693628
 40
0.178763919083391
 40
0.2236368521988092
 40
0.2646138248638288
 40
0.3055644086924265
 40
0.3465596390526824
 40
0.387605999897298
 40
0.5510999779005354
 40
0.7146015071203452
 40
1.0
 40
1.0
 40
1.0
 40
1.0
 10
1205.460997514512
 20
1352.712136996485
 30
0.0
 10
1205.601427367942
 20
1352.712136996485
 30
0.0
 10
1205.94885167585
 20
1352.712136996485
 30
0.0
 10
1207.146727842648
 20
1352.712136996485
 30
0.0
 10
1208.996922663117
 20
1352.712136996485
 30
0.0
 10
1211.289275083596
 20
1352.712136996485
 30
0.0
 10
1213.812166614846
 20
1352.712136996485
 30
0.0
 10
1216.577784318195
 20
1352.712136996485
 30
0.0
 10
1219.506575325502
 20
1352.712136996485
 30
0.0
 10
1222.653017906254
 20
1352.712136996485
 30
0.0
 10
1229.143874457242
 20
1352.712136996485
 30
0.0
 10
1238.881483571255
 20
1352.712136996485
 30
0.0
 10
1255.084289788677
 20
1352.712136996485
 30
0.0
 10
1266.958486688229
 20
1352.712136996485
 30
0.0
 10
1274.507779921583
 20
1352.712136996485
 30
0.0
  0
SPLINE
  5
12A
330
1F
100
AcDbEntity
  8
0
  6
Continuous
 62
     7
370
    35
100
AcDbSpline
210
0.0
220
0.0
230
1.0
 70
    24
 71
     3
 72
    19
 73
    15
 74
     0
 42
0.000000001
 43
0.00000001
 40
0.0
 40
0.0
 40
0.0
 40
0.0
 40
0.0339064855174944
 40
0.0831372973791105
 40
0.1338840147718002
 40
0.1782456415880458
 40
0.2236320967859899
 40
0.2641259724126861
 40
0.305557060192373
 40
0.3459382551888677
 40
0.38763784298138
 40
0.551087819285942
 40
0.7146159494612702
 40
1.0
 40
1.0
 40
1.0
 40
1.0
 10
1343.554562328654
 20
1352.712136996485
 30
0.0
 10
1343.413976395854
 20
1352.712136996485
 30
0.0
 10
1343.069265514612
 20
1352.712136996485
 30
0.0
 10
1341.880994310505
 20
1352.712136996484
 30
0.0
 10
1340.036280031961
 20
1352.712136996486
 30
0.0
 10
1337.737007247677
 20
1352.712136996484
 30
0.0
 10
1335.223146036853
 20
1352.712136996485
 30
0.0
 10
1332.450438607886
 20
1352.712136996485
 30
0.0
 10
1329.53339805828
 20
1352.712136996485
 30
0.0
 10
1326.385988841087
 20
1352.712136996485
 30
0.0
 10
1319.883941160541
 20
1352.712136996485
 30
0.0
 10
1310.137255628598
 20
1352.712136996485
 30
0.0
 10
1293.931108078497
 20
1352.712136996485
 30
0.0
 10
1282.056651655414
 20
1352.712136996485
 30
0.0
 10
1274.507779921583
 20
1352.712136996485
 30
0.0
  0
LINE
  5
12B
330
1F
100
AcDbEntity
  8
0
  6
Continuous
 62
     7
370
    35
100
AcDbLine
 10
1361.1990241194
 20
1406.8138049803
 30
0.0
 11
1361.4210827074
 21
1405.393337491
 31
0.0
  0
SPLINE
  5
12C
330
1F
100
AcDbEntity
  8
0
  6
Continuous
 62
     7
370
    35
100
AcDbSpline
210
0.0
220
0.0
230
1.0
 70
     8
 71
     3
 72
    13
 73
     9
 74
     0
 42
0.000000001
 43
0.00000001
 40
0.0
 40
0.0
 40
0.0
 40
0.0
 40
0.0095081972613503
 40
0.0791116948017361
 40
0.3094644223199412
 40
0.5396843471459964
 40
0.7698410895023545
 40
1.0
 40
1.0
 40
1.0
 40
1.0
 10
1364.40561434811
 20
1402.712136996485
 30
0.0
 10
1364.391748118296
 20
1402.712199160416
 30
0.0
 10
1364.276375991388
 20
1402.712716387169
 30
0.0
 10
1363.825597651254
 20
1402.74225153187
 30
0.0
 10
1363.066123585218
 20
1402.962363218931
 30
0.0
 10
1362.237131452089
 20
1403.560403977982
 30
0.0
 10
1361.627475394788
 20
1404.397984903082
 30
0.0
 10
1361.489880485912
 20
1405.061552253217
 30
0.0
 10
1361.42108270743
 20
1405.393337491025
 30
0.0
  0
LINE
  5
12D
330
1F
100
AcDbEntity
  8
0
  6
Continuous
 62
     7
370
    35
100
AcDbLine
 10
952.0077799216
 20
1433.158575496
 30
0.0
 11
952.0077799216
 21
1434.158575496
 31
0.0
  0
LINE
  5
12E
330
1F
100
AcDbEntity
  8
0
  6
Continuous
 62
     7
370
    35
100
AcDbLine
 10
952.0077799216
 20
1434.158575496
 30
0.0
 11
962.0077799216
 21
1434.158575496
 31
0.0
  0
LINE
  5
12F
330
1F
100
AcDbEntity
  8
0
  6
Continuous
 62
     7
370
    35
100
AcDbLine
 10
962.0077799216
 20
1433.158575496
 30
0.0
 11
952.0077799216
 21
1433.158575496
 31
0.0
  0
LINE
  5
130
330
1F
100
AcDbEntity
  8
0
  6
Continuous
 62
     7
370
    35
100
AcDbLine
 10
984.5077799216
 20
1434.158575496
 30
0.0
 11
962.0077799216
 21
1434.158575496
 31
0.0
  0
LINE
  5
131
330
1F
100
AcDbEntity
  8
0
  6
Continuous
 62
     7
370
    35
100
AcDbLine
 10
984.5077799216
 20
1433.158575496
 30
0.0
 11
962.0077799216
 21
1433.158575496
 31
0.0
  0
LINE
  5
132
330
1F
100
AcDbEntity
  8
0
  6
Continuous
 62
     7
370
    35
100
AcDbLine
 10
1597.0077799216
 20
1434.158575496
 30
0.0
 11
1597.0077799216
 21
1433.158575496
 31
0.0
  0
LINE
  5
133
330
1F
100
AcDbEntity
  8
0
  6
Continuous
 62
     7
370
    35
100
AcDbLine
 10
1597.0077799216
 20
1433.158575496
 30
0.0
 11
1587.0077799216
 21
1433.158575496
 31
0.0
  0
LINE
  5
134
330
1F
100
AcDbEntity
  8
0
  6
Continuous
 62
     7
370
    35
100
AcDbLine
 10
1587.0077799216
 20
1434.158575496
 30
0.0
 11
1597.0077799216
 21
1434.158575496
 31
0.0
  0
LINE
  5
135
330
1F
100
AcDbEntity
  8
0
  6
Continuous
 62
     7
370
    35
100
AcDbLine
 10
1587.0077799216
 20
1433.158575496
 30
0.0
 11
1564.5077799216
 21
1433.158575496
 31
0.0
  0
LINE
  5
136
330
1F
100
AcDbEntity
  8
0
  6
Continuous
 62
     7
370
    35
100
AcDbLine
 10
1587.0077799216
 20
1434.158575496
 30
0.0
 11
1564.5077799216
 21
1434.158575496
 31
0.0
  0
LINE
  5
137
330
1F
100
AcDbEntity
  8
0
  6
Continuous
 62
     7
370
    35
100
AcDbLine
 10
982.5077799216
 20
1434.158575496
 30
0.0
 11
982.5077799216
 21
1445.158575496
 31
0.0
  0
ARC
  5
138
330
1F
100
AcDbEntity
  8
0
  6
Continuous
 62
     7
370
    35
100
AcDbCircle
 10
983.5077799216
 20
1445.158575496
 30
0.0
 40
1.0
100
AcDbArc
 50
0.0
 51
180.0
  0
LINE
  5
139
330
1F
100
AcDbEntity
  8
0
  6
Continuous
 62
     7
370
    35
100
AcDbLine
 10
984.5077799216
 20
1435.158575496
 30
0.0
 11
984.5077799216
 21
1445.158575496
 31
0.0
  0
LINE
  5
13A
330
1F
100
AcDbEntity
  8
0
  6
Continuous
 62
     7
370
    35
100
AcDbLine
 10
982.5077799216
 20
1427.4327160177
 30
0.0
 11
982.5077799216
 21
1433.158575496
 31
0.0
  0
LINE
  5
13B
330
1F
100
AcDbEntity
  8
0
  6
Continuous
 62
     7
370
    35
100
AcDbLine
 10
984.5077799216
 20
1427.4327160177
 30
0.0
 11
984.5077799216
 21
1431.22452344
 31
0.0
  0
LINE
  5
13C
330
1F
100
AcDbEntity
  8
0
  6
Continuous
 62
     7
370
    35
100
AcDbLine
 10
982.5077799216
 20
1425.6201004436
 30
0.0
 11
982.5077799216
 21
1427.4327160177
 31
0.0
  0
LINE
  5
13D
330
1F
100
AcDbEntity
  8
0
  6
Continuous
 62
     7
370
    35
100
AcDbLine
 10
984.5077799216
 20
1427.4327160177
 30
0.0
 11
984.5077799216
 21
1425.6201004436
 31
0.0
  0
LINE
  5
13E
330
1F
100
AcDbEntity
  8
0
  6
Continuous
 62
     7
370
    35
100
AcDbLine
 10
982.5077799216
 20
1418.361801159
 30
0.0
 11
982.5077799216
 21
1425.6201004436
 31
0.0
  0
LINE
  5
13F
330
1F
100
AcDbEntity
  8
0
  6
Continuous
 62
     7
370
    35
100
AcDbLine
 10
984.5077799216
 20
1418.361801159
 30
0.0
 11
984.5077799216
 21
1425.6201004436
 31
0.0
  0
LINE
  5
140
330
1F
100
AcDbEntity
  8
0
  6
Continuous
 62
     7
370
    35
100
AcDbLine
 10
982.5077799216
 20
1416.5491855849
 30
0.0
 11
982.5077799216
 21
1418.361801159
 31
0.0
  0
LINE
  5
141
330
1F
100
AcDbEntity
  8
0
  6
Continuous
 62
     7
370
    35
100
AcDbLine
 10
984.5077799216
 20
1418.361801159
 30
0.0
 11
984.5077799216
 21
1416.5491855849
 31
0.0
  0
LINE
  5
142
330
1F
100
AcDbEntity
  8
0
  6
Continuous
 62
     7
370
    35
100
AcDbLine
 10
982.5077799216
 20
1382.258575496
 30
0.0
 11
982.5077799216
 21
1416.5491855849
 31
0.0
  0
LINE
  5
143
330
1F
100
AcDbEntity
  8
0
  6
Continuous
 62
     7
370
    35
100
AcDbLine
 10
984.5077799216
 20
1382.258575496
 30
0.0
 11
984.5077799216
 21
1416.5491855849
 31
0.0
  0
LINE
  5
144
330
1F
100
AcDbEntity
  8
0
  6
Continuous
 62
     7
370
    35
100
AcDbLine
 10
984.5077799216
 20
1380.258575496
 30
0.0
 11
982.5077799216
 21
1380.258575496
 31
0.0
  0
LINE
  5
145
330
1F
100
AcDbEntity
  8
0
  6
Continuous
 62
     7
370
    35
100
AcDbLine
 10
982.5077799216
 20
1380.258575496
 30
0.0
 11
982.5077799216
 21
1382.258575496
 31
0.0
  0
LINE
  5
146
330
1F
100
AcDbEntity
  8
0
  6
Continuous
 62
     7
370
    35
100
AcDbLine
 10
984.5077799216
 20
1382.258575496
 30
0.0
 11
984.5077799216
 21
1380.258575496
 31
0.0
  0
LINE
  5
147
330
1F
100
AcDbEntity
  8
0
  6
Continuous
 62
     7
370
    35
100
AcDbLine
 10
1564.5077799216
 20
1445.158575496
 30
0.0
 11
1564.5077799216
 21
1435.158575496
 31
0.0
  0
ARC
  5
148
330
1F
100
AcDbEntity
  8
0
  6
Continuous
 62
     7
370
    35
100
AcDbCircle
 10
1565.5077799216
 20
1445.158575496
 30
0.0
 40
1.0
100
AcDbArc
 50
0.0
 51
180.0
  0
LINE
  5
149
330
1F
100
AcDbEntity
  8
0
  6
Continuous
 62
     7
370
    35
100
AcDbLine
 10
1566.5077799216
 20
1445.158575496
 30
0.0
 11
1566.5077799216
 21
1434.158575496
 31
0.0
  0
LINE
  5
14A
330
1F
100
AcDbEntity
  8
0
  6
Continuous
 62
     7
370
    35
100
AcDbLine
 10
1564.5077799216
 20
1431.22452344
 30
0.0
 11
1564.5077799216
 21
1427.4327160177
 31
0.0
  0
LINE
  5
14B
330
1F
100
AcDbEntity
  8
0
  6
Continuous
 62
     7
370
    35
100
AcDbLine
 10
1566.5077799216
 20
1433.158575496
 30
0.0
 11
1566.5077799216
 21
1427.4327160177
 31
0.0
  0
LINE
  5
14C
330
1F
100
AcDbEntity
  8
0
  6
Continuous
 62
     7
370
    35
100
AcDbLine
 10
1564.5077799216
 20
1425.6201004436
 30
0.0
 11
1564.5077799216
 21
1427.4327160177
 31
0.0
  0
LINE
  5
14D
330
1F
100
AcDbEntity
  8
0
  6
Continuous
 62
     7
370
    35
100
AcDbLine
 10
1566.5077799216
 20
1427.4327160177
 30
0.0
 11
1566.5077799216
 21
1425.6201004436
 31
0.0
  0
LINE
  5
14E
330
1F
100
AcDbEntity
  8
0
  6
Continuous
 62
     7
370
    35
100
AcDbLine
 10
1564.5077799216
 20
1425.6201004436
 30
0.0
 11
1564.5077799216
 21
1418.361801159
 31
0.0
  0
LINE
  5
14F
330
1F
100
AcDbEntity
  8
0
  6
Continuous
 62
     7
370
    35
100
AcDbLine
 10
1566.5077799216
 20
1425.6201004436
 30
0.0
 11
1566.5077799216
 21
1418.361801159
 31
0.0
  0
LINE
  5
150
330
1F
100
AcDbEntity
  8
0
  6
Continuous
 62
     7
370
    35
100
AcDbLine
 10
1564.5077799216
 20
1416.5491855849
 30
0.0
 11
1564.5077799216
 21
1418.361801159
 31
0.0
  0
LINE
  5
151
330
1F
100
AcDbEntity
  8
0
  6
Continuous
 62
     7
370
    35
100
AcDbLine
 10
1566.5077799216
 20
1418.361801159
 30
0.0
 11
1566.5077799216
 21
1416.5491855849
 31
0.0
  0
LINE
  5
152
330
1F
100
AcDbEntity
  8
0
  6
Continuous
 62
     7
370
    35
100
AcDbLine
 10
1564.5077799216
 20
1416.5491855849
 30
0.0
 11
1564.5077799216
 21
1382.258575496
 31
0.0
  0
LINE
  5
153
330
1F
100
AcDbEntity
  8
0
  6
Continuous
 62
     7
370
    35
100
AcDbLine
 10
1566.5077799216
 20
1416.5491855849
 30
0.0
 11
1566.5077799216
 21
1382.258575496
 31
0.0
  0
LINE
  5
154
330
1F
100
AcDbEntity
  8
0
  6
Continuous
 62
     7
370
    35
100
AcDbLine
 10
1566.5077799216
 20
1380.258575496
 30
0.0
 11
1564.5077799216
 21
1380.258575496
 31
0.0
  0
LINE
  5
155
330
1F
100
AcDbEntity
  8
0
  6
Continuous
 62
     7
370
    35
100
AcDbLine
 10
1564.5077799216
 20
1380.258575496
 30
0.0
 11
1564.5077799216
 21
1382.258575496
 31
0.0
  0
LINE
  5
156
330
1F
100
AcDbEntity
  8
0
  6
Continuous
 62
     7
370
    35
100
AcDbLine
 10
1566.5077799216
 20
1382.258575496
 30
0.0
 11
1566.5077799216
 21
1380.258575496
 31
0.0
  0
LINE
  5
157
330
1F
100
AcDbEntity
  8
0
  6
Continuous
 62
     8
370
    18
100
AcDbLine
 10
1564.5077799216
 20
1435.158575496
 30
0.0
 11
984.5077799216
 21
1435.158575496
 31
0.0
  0
LINE
  5
158
330
1F
100
AcDbEntity
  8
0
  6
Continuous
 62
     8
370
    18
100
AcDbLine
 10
984.5077799216
 20
1444.658575496
 30
0.0
 11
1564.5077799216
 21
1444.658575496
 31
0.0
  0
LINE
  5
159
330
1F
100
AcDbEntity
  8
0
  6
Continuous
 62
     8
370
    18
100
AcDbLine
 10
984.5077799216
 20
1431.9204939853
 30
0.0
 11
1564.5077799216
 21
1431.9204939853
 31
0.0
  0
LINE
  5
15A
330
1F
100
AcDbEntity
  8
0
  6
Continuous
 62
     8
370
    18
100
AcDbLine
 10
984.5077799216
 20
1429.9237106442
 30
0.0
 11
1564.5077799216
 21
1429.9237106442
 31
0.0
  0
LINE
  5
15B
330
1F
100
AcDbEntity
  8
0
  6
Continuous
 62
     8
370
    18
100
AcDbLine
 10
984.5077799216
 20
1428.1634030753
 30
0.0
 11
1191.6363171422
 21
1428.1634030753
 31
0.0
  0
LINE
  5
15C
330
1F
100
AcDbEntity
  8
0
  6
Continuous
 62
     8
370
    18
100
AcDbLine
 10
1357.3792427009
 20
1428.1634030753
 30
0.0
 11
1564.5077799216
 21
1428.1634030753
 31
0.0
  0
SPLINE
  5
15D
330
1F
100
AcDbEntity
  8
0
  6
Continuous
 62
     8
370
    18
100
AcDbSpline
210
0.0
220
0.0
230
1.0
 70
     8
 71
     3
 72
    10
 73
     6
 74
     0
 42
0.000000001
 43
0.00000001
 40
0.0
 40
0.0
 40
0.0
 40
0.0
 40
0.5
 40
0.5
 40
1.0
 40
1.0
 40
1.0
 40
1.0
 10
1221.507779921583
 20
1427.937503909608
 30
0.0
 10
1220.440967664237
 20
1427.937503909608
 30
0.0
 10
1219.381450252781
 20
1427.919051292749
 30
0.0
 10
1217.276323817954
 20
1427.866027686353
 30
0.0
 10
1216.230711497247
 20
1427.831557709233
 30
0.0
 10
1215.191667814488
 20
1427.816920573289
 30
0.0
  0
ARC
  5
15E
330
1F
100
AcDbEntity
  8
0
  6
Continuous
 62
     8
370
    18
100
AcDbCircle
 10
1212.021104241
 20
1428.1785117525
 30
0.0
 40
3.191116035874349
100
AcDbArc
 50
353.4937367838
 51
30.6135263841
  0
LINE
  5
15F
330
1F
100
AcDbEntity
  8
0
  6
Continuous
 62
     8
370
    18
100
AcDbLine
 10
1221.5077799216
 20
1427.9375039096
 30
0.0
 11
1221.5077799216
 21
1429.8225383433
 31
0.0
  0
SPLINE
  5
160
330
1F
100
AcDbEntity
  8
0
  6
Continuous
 62
     8
370
    18
100
AcDbSpline
210
0.0
220
0.0
230
1.0
 70
     8
 71
     3
 72
    10
 73
     6
 74
     0
 42
0.000000001
 43
0.00000001
 40
0.0
 40
0.0
 40
0.0
 40
0.0
 40
0.5
 40
0.5
 40
1.0
 40
1.0
 40
1.0
 40
1.0
 10
1333.823892028679
 20
1427.816920573424
 30
0.0
 10
1332.78484834592
 20
1427.831557709368
 30
0.0
 10
1331.739236025212
 20
1427.866027686353
 30
0.0
 10
1329.634109590385
 20
1427.919051292749
 30
0.0
 10
1328.574592178924
 20
1427.937503909311
 30
0.0
 10
1327.507779921581
 20
1427.937503909311
 30
0.0
  0
LINE
  5
161
330
1F
100
AcDbEntity
  8
0
  6
Continuous
 62
     8
370
    18
100
AcDbLine
 10
1327.5077799216
 20
1427.9375039095
 30
0.0
 11
1327.5077799216
 21
1429.8225383433
 31
0.0
  0
ARC
  5
162
330
1F
100
AcDbEntity
  8
0
  6
Continuous
 62
     8
370
    18
100
AcDbCircle
 10
1336.9944556018
 20
1428.1785117526
 30
0.0
 40
3.191116035545413
100
AcDbArc
 50
149.386473613
 51
186.5062632177
  0
LINE
  5
163
330
1F
100
AcDbEntity
  8
0
  6
Continuous
 62
     8
370
    18
100
AcDbLine
 10
1327.5077799216
 20
1427.9375039095
 30
0.0
 11
1221.5077799216
 21
1427.9375039096
 31
0.0
  0
ELLIPSE
  5
164
330
1F
100
AcDbEntity
  8
0
  6
Continuous
 62
     8
370
    18
100
AcDbEllipse
 10
1327.5077799216
 20
1426.1573042355
 30
0.0
 11
28.0
 21
0.0
 31
0.0
210
0.0
220
0.0
230
1.0
 40
0.0608401234
 41
0.0094489386178836
 42
1.343262674843491
  0
ARC
  5
165
330
1F
100
AcDbEntity
  8
0
  6
Continuous
 62
     8
370
    18
100
AcDbCircle
 10
1357.5059308707
 20
1426.1706934268
 30
0.0
 40
1.999402726573637
100
AcDbArc
 50
93.4033047991
 51
179.9224253183
  0
ELLIPSE
  5
166
330
1F
100
AcDbEntity
  8
0
  6
Continuous
 62
     8
370
    18
100
AcDbEllipse
 10
1221.5077799216
 20
1426.1573042355
 30
0.0
 11
28.0
 21
0.0
 31
0.0
210
0.0
220
0.0
230
1.0
 40
0.0608401234
 41
1.798329978746294
 42
3.132143714971907
  0
ARC
  5
167
330
1F
100
AcDbEntity
  8
0
  6
Continuous
 62
     8
370
    18
100
AcDbCircle
 10
1191.5096289724
 20
1426.1706934268
 30
0.0
 40
1.999402726573743
100
AcDbArc
 50
0.0775746817
 51
86.5966952046
  0
LINE
  5
168
330
1F
100
AcDbEntity
  8
0
  6
Continuous
 62
     8
370
    18
100
AcDbLine
 10
1221.5077799216
 20
1427.9375039096
 30
0.0
 11
1221.5077799216
 21
1423.1621369966
 31
0.0
  0
LINE
  5
169
330
1F
100
AcDbEntity
  8
0
  6
Continuous
 62
     8
370
    18
100
AcDbLine
 10
1327.5077799216
 20
1427.9375039095
 30
0.0
 11
1327.5077799216
 21
1423.1621369966
 31
0.0
  0
LINE
  5
16A
330
1F
100
AcDbEntity
  8
0
  6
Continuous
 62
     8
370
    18
100
AcDbLine
 10
1221.5077799216
 20
1425.8693354682
 30
0.0
 11
1193.5677523403
 21
1425.8693354682
 31
0.0
  0
LINE
  5
16B
330
1F
100
AcDbEntity
  8
0
  6
Continuous
 62
     8
370
    18
100
AcDbLine
 10
1327.5077799216
 20
1425.8693354682
 30
0.0
 11
1355.4478075028
 21
1425.8693354682
 31
0.0
  0
LINE
  5
16C
330
1F
100
AcDbEntity
  8
0
  6
Continuous
 62
     8
370
    18
100
AcDbLine
 10
1409.1961782673
 20
1352.6621369965
 30
0.0
 11
1409.1961782673
 21
1402.7621369965
 31
0.0
  0
LINE
  5
16D
330
1F
100
AcDbEntity
  8
0
  6
Continuous
 62
     8
370
    18
100
AcDbLine
 10
1409.8127299701
 20
1402.6980974863
 30
0.0
 11
1409.8127299701
 21
1352.7261765067
 31
0.0
  0
SPLINE
  5
16E
330
1F
100
AcDbEntity
  8
0
  6
Continuous
 62
     8
370
    18
100
AcDbSpline
210
0.0
220
0.0
230
1.0
 70
     8
 71
     3
 72
    33
 73
    29
 74
     0
 42
0.000000001
 43
0.00000001
 40
0.0
 40
0.0
 40
0.0
 40
0.0
 40
0.0272519121761653
 40
0.0643955705395717
 40
0.1017679836315407
 40
0.1399161503387467
 40
0.1783602451249384
 40
0.2309313350457287
 40
0.284075135045441
 40
0.3463079719325251
 40
0.377860591735393
 40
0.4098349893637235
 40
0.4664493290388058
 40
0.5237708874937606
 40
0.5552660258970178
 40
0.5869395080180234
 40
0.6191572696364611
 40
0.651555958429216
 40
0.6730472716079228
 40
0.7163558120329133
 40
0.7603800963832675
 40
0.8051322093176834
 40
0.8276949767825336
 40
0.8487242154456198
 40
0.8910915758444982
 40
0.9341506962041376
 40
0.977926365073945
 40
1.0
 40
1.0
 40
1.0
 40
1.0
 10
1255.021116982711
 20
1361.795381020426
 30
0.0
 10
1254.699646208875
 20
1362.179970237471
 30
0.0
 10
1253.940019003298
 20
1363.088744707859
 30
0.0
 10
1252.856899497554
 20
1364.628135014472
 30
0.0
 10
1251.784378086776
 20
1366.427386626419
 30
0.0
 10
1250.849882716571
 20
1368.346878878647
 30
0.0
 10
1249.974952132255
 20
1370.622440506615
 30
0.0
 10
1249.26162589575
 20
1373.278640281498
 30
0.0
 10
1248.816689699074
 20
1376.480989355823
 30
0.0
 10
1248.816035798789
 20
1379.33535343975
 30
0.0
 10
1249.090645449417
 20
1381.761152788364
 30
0.0
 10
1249.529072296245
 20
1384.054380612469
 30
0.0
 10
1250.356134850901
 20
1386.774021641124
 30
0.0
 10
1251.53703725136
 20
1389.3450221534
 30
0.0
 10
1252.7264528909
 20
1391.353554594994
 30
0.0
 10
1253.781338020213
 20
1392.868323174317
 30
0.0
 10
1254.954909048188
 20
1394.312336909318
 30
0.0
 10
1256.096167034747
 20
1395.520901525882
 30
0.0
 10
1257.463806279646
 20
1396.801438441547
 30
0.0
 10
1259.097298109146
 20
1398.119510786328
 30
0.0
 10
1261.227572904571
 20
1399.515099469634
 30
0.0
 10
1263.133381781355
 20
1400.512435973433
 30
0.0
 10
1264.700063980823
 20
1401.188481528216
 30
0.0
 10
1266.255671306959
 20
1401.7722144463
 30
0.0
 10
1268.233329724724
 20
1402.359966925431
 30
0.0
 10
1270.693861865105
 20
1402.839438437869
 30
0.0
 10
1272.800772238311
 20
1403.051535789572
 30
0.0
 10
1274.079224359584
 20
1403.068467702428
 30
0.0
 10
1274.507779921582
 20
1403.074143523453
 30
0.0
  0
SPLINE
  5
16F
330
1F
100
AcDbEntity
  8
0
  6
Continuous
 62
     8
370
    18
100
AcDbSpline
210
0.0
220
0.0
230
1.0
 70
    24
 71
     3
 72
    21
 73
    17
 74
     0
 42
0.000000001
 43
0.00000001
 40
0.0
 40
0.0
 40
0.0
 40
0.0
 40
0.0720514219264895
 40
0.1446031256583032
 40
0.2187326761060885
 40
0.2934074331762745
 40
0.3654588516753373
 40
0.4380105213676725
 40
0.5121399203051942
 40
0.5868144764983391
 40
0.6588679246026032
 40
0.7314216095207169
 40
0.8055529476989876
 40
0.8802294033636557
 40
0.9908667802310033
 40
1.0
 40
1.0
 40
1.0
 40
1.0
 10
1274.507779921582
 20
1403.074143523453
 30
0.0
 10
1274.507779921583
 20
1402.919590681483
 30
0.0
 10
1274.507779921585
 20
1402.609411875419
 30
0.0
 10
1274.507779921591
 20
1402.038747222691
 30
0.0
 10
1274.507779921567
 20
1401.389768453543
 30
0.0
 10
1274.507779921592
 20
1400.666927353321
 30
0.0
 10
1274.507779921581
 20
1399.882765116549
 30
0.0
 10
1274.507779921588
 20
1399.04000436191
 30
0.0
 10
1274.507779921579
 20
1398.131120108921
 30
0.0
 10
1274.507779921579
 20
1397.174149313736
 30
0.0
 10
1274.507779921577
 20
1396.1818584823
 30
0.0
 10
1274.507779921587
 20
1395.157382671424
 30
0.0
 10
1274.507779921582
 20
1394.092240829162
 30
0.0
 10
1274.50777992157
 20
1392.819661706265
 30
0.0
 10
1274.507779921623
 20
1391.850499549054
 30
0.0
 10
1274.507779921574
 20
1391.253926397597
 30
0.0
 10
1274.507779921571
 20
1391.20843414947
 30
0.0
  0
SPLINE
  5
170
330
1F
100
AcDbEntity
  8
0
  6
Continuous
 62
     8
370
    18
100
AcDbSpline
210
0.0
220
0.0
230
1.0
 70
     8
 71
     3
 72
    20
 73
    16
 74
     0
 42
0.000000001
 43
0.00000001
 40
0.0
 40
0.0
 40
0.0
 40
0.0
 40
0.0031848875244883
 40
0.099687216670268
 40
0.1961928561586079
 40
0.2929138960264281
 40
0.3894614585497529
 40
0.4531459406897255
 40
0.5167654851003685
 40
0.621486497919014
 40
0.726880812540412
 40
0.8182687157727467
 40
0.8939620144270485
 40
0.9698304221395906
 40
0.9999999999999999
 40
0.9999999999999999
 40
0.9999999999999999
 40
0.9999999999999999
 10
1274.507779921586
 20
1391.20843414947
 30
0.0
 10
1274.474615926
 20
1391.208836796347
 30
0.0
 10
1273.436580394717
 20
1391.221439673563
 30
0.0
 10
1271.388043730176
 20
1391.060702063323
 30
0.0
 10
1268.44836359788
 20
1390.325177882465
 30
0.0
 10
1265.668747390742
 20
1389.115533760377
 30
0.0
 10
1263.42604066738
 20
1387.622527732578
 30
0.0
 10
1261.74423346484
 20
1385.994663922244
 30
0.0
 10
1260.29268683384
 20
1384.052411047559
 30
0.0
 10
1259.138647466577
 20
1381.384941745208
 30
0.0
 10
1259.038845702216
 20
1378.160343132991
 30
0.0
 10
1259.984865636762
 20
1375.439512216606
 30
0.0
 10
1261.336729875193
 20
1373.288713578444
 30
0.0
 10
1262.572218812803
 20
1371.846194058684
 30
0.0
 10
1263.364468007993
 20
1371.076900987838
 30
0.0
 10
1263.589876135562
 20
1370.858024261041
 30
0.0
  0
LINE
  5
171
330
1F
100
AcDbEntity
  8
0
  6
Continuous
 62
     8
370
    18
100
AcDbLine
 10
1255.0211169827
 20
1361.7953810204
 30
0.0
 11
1263.5898761356
 21
1370.858024261
 31
0.0
  0
SPLINE
  5
172
330
1F
100
AcDbEntity
  8
0
  6
Continuous
 62
     8
370
    18
100
AcDbSpline
210
0.0
220
0.0
230
1.0
 70
     8
 71
     3
 72
    33
 73
    29
 74
     0
 42
0.000000001
 43
0.00000001
 40
0.0
 40
0.0
 40
0.0
 40
0.0
 40
0.0420694805196954
 40
0.084388443038162
 40
0.1054254118363551
 40
0.1478084180885779
 40
0.1908708294596753
 40
0.2346249844283152
 40
0.2566774230954349
 40
0.2919631051304048
 40
0.3274716165362355
 40
0.3636903997735275
 40
0.4001608597629995
 40
0.4308871503519113
 40
0.4617758629698847
 40
0.4929198210567731
 40
0.524414595046751
 40
0.576225211846648
 40
0.6285929245268296
 40
0.683370124792249
 40
0.7388451995033067
 40
0.7691720205739081
 40
0.8150603675630224
 40
0.8615324906874935
 40
0.8956623911437293
 40
0.9301881902968921
 40
0.9649049432978503
 40
0.9999999999999999
 40
0.9999999999999999
 40
0.9999999999999999
 40
0.9999999999999999
 10
1274.507779921586
 20
1403.074143523453
 30
0.0
 10
1275.324809486065
 20
1403.053385786823
 30
0.0
 10
1276.963713794148
 20
1403.011747215261
 30
0.0
 10
1278.991650628736
 20
1402.714929756625
 30
0.0
 10
1280.995475513136
 20
1402.289200536482
 30
0.0
 10
1282.978532473391
 20
1401.716428730218
 30
0.0
 10
1285.303620682017
 20
1400.799183470702
 30
0.0
 10
1287.176898324333
 20
1399.842445056903
 30
0.0
 10
1288.843106459065
 20
1398.832673132988
 30
0.0
 10
1290.31098728966
 20
1397.809878424552
 30
0.0
 10
1291.903424137823
 20
1396.498308468795
 30
0.0
 10
1293.401615005847
 20
1395.044261635634
 30
0.0
 10
1294.714724666524
 20
1393.53830509653
 30
0.0
 10
1295.846493537874
 20
1392.016083392527
 30
0.0
 10
1296.812344990934
 20
1390.501587990832
 30
0.0
 10
1297.673781185603
 20
1388.905764504683
 30
0.0
 10
1298.582461060908
 20
1386.878890787158
 30
0.0
 10
1299.420520022129
 20
1384.374125627169
 30
0.0
 10
1300.029275748568
 20
1381.339337092979
 30
0.0
 10
1300.247649667465
 20
1378.185366716819
 30
0.0
 10
1300.075534018055
 20
1375.470534920017
 30
0.0
 10
1299.660837854031
 20
1372.979424539771
 30
0.0
 10
1299.071324169246
 20
1370.714171333967
 30
0.0
 10
1298.22602835833
 20
1368.477937363284
 30
0.0
 10
1297.284743684071
 20
1366.537953201326
 30
0.0
 10
1296.314463060743
 20
1364.877568304882
 30
0.0
 10
1295.226039319297
 20
1363.281797287231
 30
0.0
 10
1294.406455429683
 20
1362.292639826776
 30
0.0
 10
1293.994442860455
 20
1361.795381020426
 30
0.0
  0
LINE
  5
173
330
1F
100
AcDbEntity
  8
0
  6
Continuous
 62
     8
370
    18
100
AcDbLine
 10
1293.9944428605
 20
1361.7953810204
 30
0.0
 11
1285.4256837076
 21
1370.858024261
 31
0.0
  0
SPLINE
  5
174
330
1F
100
AcDbEntity
  8
0
  6
Continuous
 62
     8
370
    18
100
AcDbSpline
210
0.0
220
0.0
230
1.0
 70
     8
 71
     3
 72
    19
 73
    15
 74
     0
 42
0.000000001
 43
0.00000001
 40
0.0
 40
0.0
 40
0.0
 40
0.0
 40
0.0723119353046642
 40
0.1445206361806437
 40
0.2538055534572516
 40
0.345740046626174
 40
0.4376020288244572
 40
0.5576187311953658
 40
0.6329165099067159
 40
0.70831411873471
 40
0.8053610917388587
 40
0.9023999691423441
 40
0.9968144251432691
 40
0.9999999999999999
 40
0.9999999999999999
 40
0.9999999999999999
 40
0.9999999999999999
 10
1285.425683707605
 20
1370.858024261041
 30
0.0
 10
1285.958304802124
 20
1371.391597521713
 30
0.0
 10
1287.02278660722
 20
1372.45798229978
 30
0.0
 10
1288.585598531623
 20
1374.598884855746
 30
0.0
 10
1289.786911448905
 20
1377.235822702911
 30
0.0
 10
1290.006638913272
 20
1380.344265210818
 30
0.0
 10
1289.127080386483
 20
1383.436660158993
 30
0.0
 10
1287.407059194221
 20
1385.954652368799
 30
0.0
 10
1285.290367051073
 20
1387.833355842563
 30
0.0
 10
1283.103864774468
 20
1389.219680256539
 30
0.0
 10
1280.516834677762
 20
1390.340327574562
 30
0.0
 10
1277.589153761775
 20
1391.069576517465
 30
0.0
 10
1275.55702432669
 20
1391.221150563138
 30
0.0
 10
1274.540943849825
 20
1391.208836082736
 30
0.0
 10
1274.507779921586
 20
1391.20843414947
 30
0.0
  0
SPLINE
  5
175
330
1F
100
AcDbEntity
  8
0
  6
Continuous
 62
     8
370
    18
100
AcDbSpline
210
0.0
220
0.0
230
1.0
 70
     8
 71
     3
 72
     9
 73
     5
 74
     0
 42
0.000000001
 43
0.00000001
 40
0.0
 40
0.0
 40
0.0
 40
0.0
 40
0.5770474436019636
 40
1.0
 40
1.0
 40
1.0
 40
1.0
 10
1261.154248960289
 20
1356.568135230283
 30
0.0
 10
1259.894198567111
 20
1357.422931394943
 30
0.0
 10
1257.710581938792
 20
1358.904258752229
 30
0.0
 10
1255.820522467738
 20
1360.936035746618
 30
0.0
 10
1255.021116982711
 20
1361.795381020426
 30
0.0
  0
SPLINE
  5
176
330
1F
100
AcDbEntity
  8
0
  6
Continuous
 62
     8
370
    18
100
AcDbSpline
210
0.0
220
0.0
230
1.0
 70
     8
 71
     3
 72
    10
 73
     6
 74
     0
 42
0.000000001
 43
0.00000001
 40
0.0
 40
0.0
 40
0.0
 40
0.0
 40
0.2479681796226351
 40
0.4972688069878616
 40
0.9999999999999999
 40
0.9999999999999999
 40
0.9999999999999999
 40
0.9999999999999999
 10
1263.589876135562
 20
1370.858024261041
 30
0.0
 10
1263.934576283339
 20
1370.551529691078
 30
0.0
 10
1264.625828812249
 20
1369.93689361404
 30
0.0
 10
1266.122835671066
 20
1368.830823395937
 30
0.0
 10
1267.298378186176
 20
1368.073372327658
 30
0.0
 10
1268.084225107867
 20
1367.567018382404
 30
0.0
  0
LINE
  5
177
330
1F
100
AcDbEntity
  8
0
  6
Continuous
 62
     8
370
    18
100
AcDbLine
 10
1268.0842251079
 20
1367.5670183824
 30
0.0
 11
1261.1542489603
 21
1356.5681352303
 31
0.0
  0
ARC
  5
178
330
1F
100
AcDbEntity
  8
0
  6
Continuous
 62
     8
370
    18
100
AcDbCircle
 10
1274.5077799216
 20
1377.7621369965
 30
0.0
 40
12.04999999999989
100
AcDbArc
 50
237.7865374201
 51
302.2134625799
  0
LINE
  5
179
330
1F
100
AcDbEntity
  8
0
  6
Continuous
 62
     8
370
    18
100
AcDbLine
 10
1280.9313347353
 20
1367.5670183824
 30
0.0
 11
1287.8613108829
 21
1356.5681352303
 31
0.0
  0
SPLINE
  5
17A
330
1F
100
AcDbEntity
  8
0
  6
Continuous
 62
     8
370
    18
100
AcDbSpline
210
0.0
220
0.0
230
1.0
 70
     8
 71
     3
 72
    10
 73
     6
 74
     0
 42
0.000000001
 43
0.00000001
 40
0.0
 40
0.0
 40
0.0
 40
0.0
 40
0.351467034588853
 40
0.7035972473579611
 40
1.0
 40
1.0
 40
1.0
 40
1.0
 10
1280.9313347353
 20
1367.567018382404
 30
0.0
 10
1281.481222340494
 20
1367.919853394274
 30
0.0
 10
1282.582035126032
 20
1368.626189177411
 30
0.0
 10
1284.10500926206
 20
1369.697824481432
 30
0.0
 10
1285.011421093202
 20
1370.494098544486
 30
0.0
 10
1285.425683707605
 20
1370.858024261041
 30
0.0
  0
SPLINE
  5
17B
330
1F
100
AcDbEntity
  8
0
  6
Continuous
 62
     8
370
    18
100
AcDbSpline
210
0.0
220
0.0
230
1.0
 70
     8
 71
     3
 72
     9
 73
     5
 74
     0
 42
0.000000001
 43
0.00000001
 40
0.0
 40
0.0
 40
0.0
 40
0.0
 40
0.3490261811818432
 40
1.0
 40
1.0
 40
1.0
 40
1.0
 10
1293.994442860455
 20
1361.795381020426
 30
0.0
 10
1293.338856902437
 20
1361.081238193502
 30
0.0
 10
1291.460528016625
 20
1359.035137168912
 30
0.0
 10
1289.280470954107
 20
1357.540866387323
 30
0.0
 10
1287.861310882878
 20
1356.568135230283
 30
0.0
  0
SPLINE
  5
17C
330
1F
100
AcDbEntity
  8
0
  6
Continuous
 62
     8
370
    18
100
AcDbSpline
210
0.0
220
0.0
230
1.0
 70
     8
 71
     3
 72
    25
 73
    21
 74
     0
 42
0.000000001
 43
0.00000001
 40
0.0
 40
0.0
 40
0.0
 40
0.0
 40
0.0492540181151018
 40
0.1492409839198749
 40
0.2001416191492485
 40
0.2518526251234175
 40
0.3040335595223636
 40
0.3577923743443073
 40
0.4121322905460628
 40
0.4583035622698646
 40
0.5524517173646446
 40
0.6005416407375763
 40
0.6462083951794705
 40
0.7390265475467572
 40
0.786277875171663
 40
0.838630721705771
 40
0.8914004261034281
 40
0.9454768104145393
 40
0.9999986794956643
 40
1.0
 40
1.0
 40
1.0
 40
1.0
 10
1253.015866542978
 20
1361.038691008626
 30
0.0
 10
1252.562497872614
 20
1361.570397089989
 30
0.0
 10
1251.188778752165
 20
1363.181480647749
 30
0.0
 10
1249.648818720656
 20
1365.620911559755
 30
0.0
 10
1248.390290253538
 20
1368.279436181459
 30
0.0
 10
1247.606418529081
 20
1370.41009821363
 30
0.0
 10
1247.001998691459
 20
1372.66344780827
 30
0.0
 10
1246.60075773709
 20
1375.021589035972
 30
0.0
 10
1246.432844540584
 20
1377.334226174528
 30
0.0
 10
1246.482480480528
 20
1380.270439717
 30
0.0
 10
1246.887649031376
 20
1383.110461798379
 30
0.0
 10
1247.63880982232
 20
1385.858057760158
 30
0.0
 10
1248.602849078567
 20
1388.514865537776
 30
0.0
 10
1249.87006552237
 20
1391.03565399025
 30
0.0
 10
1251.477560660041
 20
1393.453366400585
 30
0.0
 10
1252.907056024129
 20
1395.250317965964
 30
0.0
 10
1254.555752583747
 20
1396.987104744007
 30
0.0
 10
1256.376494588451
 20
1398.587673645837
 30
0.0
 10
1257.69387800077
 20
1399.548742819136
 30
0.0
 10
1258.37561960411
 20
1399.999565494936
 30
0.0
 10
1258.3756361153
 20
1399.99957641347
 30
0.0
  0
SPLINE
  5
17D
330
1F
100
AcDbEntity
  8
0
  6
Continuous
 62
     8
370
    18
100
AcDbSpline
210
0.0
220
0.0
230
1.0
 70
     8
 71
     3
 72
    17
 73
    13
 74
     0
 42
0.000000001
 43
0.00000001
 40
0.0
 40
0.0
 40
0.0
 40
0.0
 40
0.0000034855140939
 40
0.1237311811743975
 40
0.2481852880018875
 40
0.374911830651284
 40
0.5024199211247016
 40
0.624956342864511
 40
0.7482076745729958
 40
0.8737113440217112
 40
0.9999965144859068
 40
1.0
 40
1.0
 40
1.0
 40
1.0
 10
1258.3756361153
 20
1399.99957641347
 30
0.0
 10
1258.375652406363
 20
1399.999587645103
 30
0.0
 10
1258.953963775562
 20
1400.398295887221
 30
0.0
 10
1260.145838477842
 20
1401.154426700999
 30
0.0
 10
1262.030567982635
 20
1402.156908377141
 30
0.0
 10
1264.009795808566
 20
1403.021542681166
 30
0.0
 10
1266.043023680989
 20
1403.727998954475
 30
0.0
 10
1268.107837092647
 20
1404.274169380839
 30
0.0
 10
1270.199311376913
 20
1404.663989891425
 30
0.0
 10
1272.337973190138
 20
1404.898669397167
 30
0.0
 10
1273.783208900844
 20
1404.947088205755
 30
0.0
 10
1274.507759924278
 20
1404.943828395869
 30
0.0
 10
1274.507779921583
 20
1404.9438283059
 30
0.0
  0
ARC
  5
17E
330
1F
100
AcDbEntity
  8
0
  6
Continuous
 62
     8
370
    18
100
AcDbCircle
 10
1255.15179082
 20
1358.4137607007
 30
0.0
 40
3.384144151533977
100
AcDbArc
 50
92.2129439008
 51
129.1354920666
  0
SPLINE
  5
17F
330
1F
100
AcDbEntity
  8
0
  6
Continuous
 62
     8
370
    18
100
AcDbSpline
210
0.0
220
0.0
230
1.0
 70
     8
 71
     3
 72
    13
 73
     9
 74
     0
 42
0.000000001
 43
0.00000001
 40
0.0
 40
0.0
 40
0.0
 40
0.0
 40
0.000003488132369
 40
0.2457799679353303
 40
0.4975795644761277
 40
0.7457645563596903
 40
0.9999965118676328
 40
1.0
 40
1.0
 40
1.0
 40
1.0
 10
1274.507779921583
 20
1404.9438283059
 30
0.0
 10
1274.507799918888
 20
1404.943828395869
 30
0.0
 10
1275.916845364092
 20
1404.950167799524
 30
0.0
 10
1278.774080890376
 20
1404.75156950164
 30
0.0
 10
1282.951045415491
 20
1403.819500332439
 30
0.0
 10
1286.971055772143
 20
1402.255660423984
 30
0.0
 10
1289.452519720273
 20
1400.818214591475
 30
0.0
 10
1290.639907436803
 20
1399.999587645103
 30
0.0
 10
1290.639923727866
 20
1399.99957641347
 30
0.0
  0
SPLINE
  5
180
330
1F
100
AcDbEntity
  8
0
  6
Continuous
 62
     8
370
    18
100
AcDbSpline
210
0.0
220
0.0
230
1.0
 70
     8
 71
     3
 72
    19
 73
    15
 74
     0
 42
0.000000001
 43
0.00000001
 40
0.0
 40
0.0
 40
0.0
 40
0.0
 40
0.0000013213841023
 40
0.0176852170218708
 40
0.1143733902378733
 40
0.2137145610419426
 40
0.3053523452007506
 40
0.3995000333270461
 40
0.4922123793434037
 40
0.5879403428335863
 40
0.6917200092822474
 40
0.7998090016712731
 40
0.8985189583178732
 40
1.0
 40
1.0
 40
1.0
 40
1.0
 10
1290.639923727866
 20
1399.99957641347
 30
0.0
 10
1290.639940239056
 20
1399.999565494936
 30
0.0
 10
1290.86092366062
 20
1399.853433386628
 30
0.0
 10
1292.275924053863
 20
1398.887190104877
 30
0.0
 10
1294.747609725331
 20
1396.82553618192
 30
0.0
 10
1297.582512199091
 20
1393.536607800396
 30
0.0
 10
1299.835951897131
 20
1389.854274259651
 30
0.0
 10
1301.439828583618
 20
1385.940245953087
 30
0.0
 10
1302.412680496673
 20
1381.754179752828
 30
0.0
 10
1302.682369789211
 20
1377.328638718887
 30
0.0
 10
1302.143891765988
 20
1372.729394035682
 30
0.0
 10
1300.756074979455
 20
1368.351238576852
 30
0.0
 10
1298.707827163245
 20
1364.365632429202
 30
0.0
 10
1296.910696671358
 20
1362.157858303558
 30
0.0
 10
1295.999693300188
 20
1361.038691008626
 30
0.0
  0
ARC
  5
181
330
1F
100
AcDbEntity
  8
0
  6
Continuous
 62
     8
370
    18
100
AcDbCircle
 10
1293.8637690232
 20
1358.4137607007
 30
0.0
 40
3.384144151536258
100
AcDbArc
 50
50.8645079334
 51
87.7870560992
  0
SPLINE
  5
182
330
1F
100
AcDbEntity
  8
0
  6
Continuous
 62
     8
370
    18
100
AcDbSpline
210
0.0
220
0.0
230
1.0
 70
     8
 71
     3
 72
    14
 73
    10
 74
     0
 42
0.000000001
 43
0.00000001
 40
0.0
 40
0.0
 40
0.0
 40
0.0
 40
0.0588507131428023
 40
0.1865507860318862
 40
0.3150706499745839
 40
0.5205160403891206
 40
0.7296050309949647
 40
0.9289213534635682
 40
1.0
 40
1.0
 40
1.0
 40
1.0
 10
1238.967089812442
 20
1399.921355798074
 30
0.0
 10
1238.966762282926
 20
1399.1994876405
 30
0.0
 10
1238.965724047612
 20
1396.911238866353
 30
0.0
 10
1238.962553324427
 20
1392.985116680063
 30
0.0
 10
1238.961082634167
 20
1387.181644147658
 30
0.0
 10
1238.968852885456
 20
1380.31225902927
 30
0.0
 10
1238.969989775023
 20
1372.633937053773
 30
0.0
 10
1238.968450590567
 20
1366.801234118612
 30
0.0
 10
1238.968398824138
 20
1363.649892244343
 30
0.0
 10
1238.968385216311
 20
1362.821499926169
 30
0.0
  0
ARC
  5
183
330
1F
100
AcDbEntity
  8
0
  6
Continuous
 62
     8
370
    18
100
AcDbCircle
 10
1237.7798560855
 20
1366.9033347104
 30
0.0
 40
4.251349985707789
100
AcDbArc
 50
269.1903220348
 51
286.2342508996
  0
SPLINE
  5
184
330
1F
100
AcDbEntity
  8
0
  6
Continuous
 62
     8
370
    18
100
AcDbSpline
210
0.0
220
0.0
230
1.0
 70
     8
 71
     3
 72
    14
 73
    10
 74
     0
 42
0.000000001
 43
0.00000001
 40
0.0
 40
0.0
 40
0.0
 40
0.0
 40
0.2078011624980596
 40
0.4196948388477492
 40
0.5443918098789576
 40
0.6699512654772867
 40
0.7982264655367506
 40
0.9274422558336518
 40
1.0
 40
1.0
 40
1.0
 40
1.0
 10
1237.615453419383
 20
1400.069969425117
 30
0.0
 10
1237.585269362207
 20
1397.482574231848
 30
0.0
 10
1237.524306791739
 20
1392.256826716193
 30
0.0
 10
1237.535976550549
 20
1385.293683306107
 30
0.0
 10
1237.591951971829
 20
1379.417488713227
 30
0.0
 10
1237.646550495156
 20
1374.642036046317
 30
0.0
 10
1237.697064738491
 20
1369.889146884108
 30
0.0
 10
1237.724520528169
 20
1365.881989034968
 30
0.0
 10
1237.721033772557
 20
1363.506599184746
 30
0.0
 10
1237.719779935564
 20
1362.652409216244
 30
0.0
  0
ARC
  5
185
330
1F
100
AcDbEntity
  8
0
  6
Continuous
 62
     8
370
    18
100
AcDbCircle
 10
1237.615756256
 20
1393.8518710718
 30
0.0
 40
6.218098360741405
100
AcDbArc
 50
77.4481726938
 51
90.0027904447
  0
SPLINE
  5
186
330
1F
100
AcDbEntity
  8
0
  6
Continuous
 62
     8
370
    18
100
AcDbSpline
210
0.0
220
0.0
230
1.0
 70
     8
 71
     3
 72
    14
 73
    10
 74
     0
 42
0.000000001
 43
0.00000001
 40
0.0
 40
0.0
 40
0.0
 40
0.0
 40
0.0588507131428023
 40
0.1865507860318861
 40
0.3150706499745838
 40
0.5205160403891206
 40
0.7296050309949647
 40
0.9289213534635682
 40
1.0
 40
1.0
 40
1.0
 40
1.0
 10
1310.048470030724
 20
1399.921355798074
 30
0.0
 10
1310.04879756024
 20
1399.1994876405
 30
0.0
 10
1310.049835795555
 20
1396.911238866353
 30
0.0
 10
1310.053006518739
 20
1392.985116680063
 30
0.0
 10
1310.054477209
 20
1387.181644147658
 30
0.0
 10
1310.046706957711
 20
1380.31225902927
 30
0.0
 10
1310.045570068143
 20
1372.633937053773
 30
0.0
 10
1310.0471092526
 20
1366.801234118612
 30
0.0
 10
1310.047161019029
 20
1363.649892244343
 30
0.0
 10
1310.047174626855
 20
1362.821499926169
 30
0.0
  0
ARC
  5
187
330
1F
100
AcDbEntity
  8
0
  6
Continuous
 62
     8
370
    18
100
AcDbCircle
 10
1308.2182523998
 20
1356.7641951229
 30
0.0
 40
6.327392669388416
100
AcDbArc
 50
73.1990110324
 51
90.5530968868
  0
SPLINE
  5
188
330
1F
100
AcDbEntity
  8
0
  6
Continuous
 62
     8
370
    18
100
AcDbSpline
210
0.0
220
0.0
230
1.0
 70
     8
 71
     3
 72
    14
 73
    10
 74
     0
 42
0.000000001
 43
0.00000001
 40
0.0
 40
0.0
 40
0.0
 40
0.0
 40
0.0706469358108949
 40
0.2691496022583709
 40
0.4748299235320584
 40
0.6841240356853451
 40
0.8123563766451377
 40
0.9412272031615684
 40
1.0
 40
1.0
 40
1.0
 40
1.0
 10
1308.157172738045
 20
1363.091292977937
 30
0.0
 10
1308.158649091664
 20
1363.903691848014
 30
0.0
 10
1308.164273680826
 20
1366.998756485238
 30
0.0
 10
1308.085446382258
 20
1372.722105760208
 30
0.0
 10
1307.959731360498
 20
1380.311299852971
 30
0.0
 10
1307.898585445902
 20
1387.092644268812
 30
0.0
 10
1307.920825137777
 20
1392.881615174752
 30
0.0
 10
1307.966560547099
 20
1396.774983793403
 30
0.0
 10
1308.001956075254
 20
1399.054863915376
 30
0.0
 10
1308.013042485482
 20
1399.768956559873
 30
0.0
  0
ARC
  5
189
330
1F
100
AcDbEntity
  8
0
  6
Continuous
 62
     8
370
    18
100
AcDbCircle
 10
1308.2745538414
 20
1409.9449128892
 30
0.0
 40
10.17931605780813
100
AcDbArc
 50
268.5278828577
 51
280.035989538
  0
SPLINE
  5
18A
330
1F
100
AcDbEntity
  8
0
  6
Continuous
 62
     8
370
    18
100
AcDbSpline
210
0.0
220
0.0
230
1.0
 70
     8
 71
     3
 72
    14
 73
    10
 74
     0
 42
0.000000001
 43
0.00000001
 40
0.0
 40
0.0
 40
0.0
 40
0.0
 40
0.2078011624980597
 40
0.4196948388477491
 40
0.5443918098789575
 40
0.6699512654772867
 40
0.7982264655367508
 40
0.9274422558336519
 40
1.0
 40
1.0
 40
1.0
 40
1.0
 10
1311.400106423783
 20
1400.069969425117
 30
0.0
 10
1311.430290480959
 20
1397.482574231848
 30
0.0
 10
1311.491253051427
 20
1392.256826716193
 30
0.0
 10
1311.479583292618
 20
1385.293683306107
 30
0.0
 10
1311.423607871337
 20
1379.417488713227
 30
0.0
 10
1311.36900934801
 20
1374.642036046317
 30
0.0
 10
1311.318495104676
 20
1369.889146884108
 30
0.0
 10
1311.291039314997
 20
1365.881989034968
 30
0.0
 10
1311.29452607061
 20
1363.506599184746
 30
0.0
 10
1311.295779907603
 20
1362.652409216244
 30
0.0
  0
ARC
  5
18B
330
1F
100
AcDbEntity
  8
0
  6
Continuous
 62
     8
370
    18
100
AcDbCircle
 10
1311.2357037577
 20
1366.9033347104
 30
0.0
 40
4.251349985708237
100
AcDbArc
 50
253.7657491004
 51
270.8096779652
  0
ARC
  5
18C
330
1F
100
AcDbEntity
  8
0
  6
Continuous
 62
     8
370
    18
100
AcDbCircle
 10
1311.3998035872
 20
1393.8518710717
 30
0.0
 40
6.218098360741626
100
AcDbArc
 50
89.9972095553
 51
102.5518273062
  0
SPLINE
  5
18D
330
1F
100
AcDbEntity
  8
0
  6
Continuous
 62
     8
370
    18
100
AcDbSpline
210
0.0
220
0.0
230
1.0
 70
     8
 71
     3
 72
    14
 73
    10
 74
     0
 42
0.000000001
 43
0.00000001
 40
0.0
 40
0.0
 40
0.0
 40
0.0
 40
0.0706469358108949
 40
0.2691496022583708
 40
0.4748299235320577
 40
0.6841240356853445
 40
0.812356376645137
 40
0.9412272031615676
 40
1.0
 40
1.0
 40
1.0
 40
1.0
 10
1240.858387105121
 20
1363.091292977937
 30
0.0
 10
1240.856910751502
 20
1363.903691848014
 30
0.0
 10
1240.851286162341
 20
1366.998756485238
 30
0.0
 10
1240.930113460909
 20
1372.722105760208
 30
0.0
 10
1241.055828482668
 20
1380.311299852971
 30
0.0
 10
1241.116974397264
 20
1387.092644268812
 30
0.0
 10
1241.09473470539
 20
1392.881615174752
 30
0.0
 10
1241.048999296066
 20
1396.774983793403
 30
0.0
 10
1241.013603767913
 20
1399.054863915376
 30
0.0
 10
1241.002517357685
 20
1399.768956559873
 30
0.0
  0
ARC
  5
18E
330
1F
100
AcDbEntity
  8
0
  6
Continuous
 62
     8
370
    18
100
AcDbCircle
 10
1240.7973074434
 20
1356.7641951229
 30
0.0
 40
6.327392669384868
100
AcDbArc
 50
89.4469031132
 51
106.8009889676
  0
ARC
  5
18F
330
1F
100
AcDbEntity
  8
0
  6
Continuous
 62
     8
370
    18
100
AcDbCircle
 10
1240.7410060017
 20
1409.9449128891
 30
0.0
 40
10.17931605776446
100
AcDbArc
 50
259.9640104619
 51
271.4721171424
  0
SPLINE
  5
190
330
1F
100
AcDbEntity
  8
0
  6
Continuous
 62
     8
370
    18
100
AcDbSpline
210
0.0
220
0.0
230
1.0
 70
     8
 71
     3
 72
    15
 73
    11
 74
     0
 42
0.000000001
 43
0.00000001
 40
0.0
 40
0.0
 40
0.0
 40
0.0
 40
0.1214527241786894
 40
0.2436356162157045
 40
0.3679634748124458
 40
0.4929996451849695
 40
0.6185865433805131
 40
0.7450337263104048
 40
0.8719902588119073
 40
1.0
 40
1.0
 40
1.0
 40
1.0
 10
1321.021871306776
 20
1399.725098730066
 30
0.0
 10
1321.039082968458
 20
1398.251711975126
 30
0.0
 10
1321.073609767494
 20
1395.296080535884
 30
0.0
 10
1321.105488516171
 20
1390.751126541649
 30
0.0
 10
1321.102886773622
 20
1386.137395333858
 30
0.0
 10
1321.070316971759
 20
1381.473287354661
 30
0.0
 10
1321.021536193541
 20
1376.804267705339
 30
0.0
 10
1320.96892335377
 20
1372.169243156108
 30
0.0
 10
1320.925318398972
 20
1367.583736705799
 30
0.0
 10
1320.922173248627
 20
1364.639707680979
 30
0.0
 10
1320.920594177498
 20
1363.161612605643
 30
0.0
  0
ARC
  5
191
330
1F
100
AcDbEntity
  8
0
  6
Continuous
 62
     8
370
    18
100
AcDbCircle
 10
1320.8924844325
 20
1357.0822776792
 30
0.0
 40
6.079399913280221
100
AcDbArc
 50
89.7350765678
 51
108.3220185197
  0
SPLINE
  5
192
330
1F
100
AcDbEntity
  8
0
  6
Continuous
 62
     8
370
    18
100
AcDbSpline
210
0.0
220
0.0
230
1.0
 70
     8
 71
     3
 72
    14
 73
    10
 74
     0
 42
0.000000001
 43
0.00000001
 40
0.0
 40
0.0
 40
0.0
 40
0.0
 40
0.1277343155302424
 40
0.2554736424753126
 40
0.3815295141037233
 40
0.5075900262814135
 40
0.710681955212538
 40
0.913776185329013
 40
1.0
 40
1.0
 40
1.0
 40
1.0
 10
1318.981380733495
 20
1362.853480842952
 30
0.0
 10
1318.982853104012
 20
1364.34923386678
 30
0.0
 10
1318.98579790281
 20
1367.340798597483
 30
0.0
 10
1318.982001551405
 20
1371.984733918242
 30
0.0
 10
1318.976340093046
 20
1376.690634005277
 30
0.0
 10
1318.967464274151
 20
1382.403748739183
 30
0.0
 10
1318.961588035268
 20
1389.130786270365
 30
0.0
 10
1318.965765188395
 20
1395.312618925012
 30
0.0
 10
1318.970836774744
 20
1398.860794496934
 30
0.0
 10
1318.972348230837
 20
1399.918237122603
 30
0.0
  0
ARC
  5
193
330
1F
100
AcDbEntity
  8
0
  6
Continuous
 62
     8
370
    18
100
AcDbCircle
 10
1320.8806121781
 20
1409.1971139558
 30
0.0
 40
9.473068488007216
100
AcDbArc
 50
258.3787652822
 51
270.8544065607
  0
SPLINE
  5
194
330
1F
100
AcDbEntity
  8
0
  6
Continuous
 62
     8
370
    18
100
AcDbSpline
210
0.0
220
0.0
230
1.0
 70
     8
 71
     3
 72
    14
 73
    10
 74
     0
 42
0.000000001
 43
0.00000001
 40
0.0
 40
0.0
 40
0.0
 40
0.0
 40
0.129696900866053
 40
0.2603671951156626
 40
0.3853421446376515
 40
0.5111847557259618
 40
0.6397642884787732
 40
0.7692911603858882
 40
1.0
 40
1.0
 40
1.0
 40
1.0
 10
1317.638782401022
 20
1362.652409216244
 30
0.0
 10
1317.639888901553
 20
1364.186460200192
 30
0.0
 10
1317.642110207058
 20
1367.266075435312
 30
0.0
 10
1317.61674740014
 20
1372.00193882668
 30
0.0
 10
1317.585973272799
 20
1376.773277898105
 30
0.0
 10
1317.555655421158
 20
1381.582424585563
 30
0.0
 10
1317.533599048849
 20
1386.473804840461
 30
0.0
 10
1317.532334195585
 20
1392.702831252478
 30
0.0
 10
1317.56211829349
 20
1397.193787732908
 30
0.0
 10
1317.581193178203
 20
1400.069969425117
 30
0.0
  0
ARC
  5
195
330
1F
100
AcDbEntity
  8
0
  6
Continuous
 62
     8
370
    18
100
AcDbCircle
 10
1317.620069794
 20
1393.9731520684
 30
0.0
 40
6.096941304608759
100
AcDbArc
 50
77.1854453734
 51
90.3653440292
  0
ARC
  5
196
330
1F
100
AcDbEntity
  8
0
  6
Continuous
 62
     8
370
    18
100
AcDbCircle
 10
1317.7097000491
 20
1366.7618210618
 30
0.0
 40
4.110023726137453
100
AcDbArc
 50
269.0113235705
 51
288.0236522042
  0
SPLINE
  5
197
330
1F
100
AcDbEntity
  8
0
  6
Continuous
 62
     8
370
    18
100
AcDbSpline
210
0.0
220
0.0
230
1.0
 70
     8
 71
     3
 72
    14
 73
    10
 74
     0
 42
0.000000001
 43
0.00000001
 40
0.0
 40
0.0
 40
0.0
 40
0.0
 40
0.1272473860604721
 40
0.2554745767697369
 40
0.3810919869018178
 40
0.5075916090131545
 40
0.7089607368256278
 40
0.9137762176246979
 40
1.0
 40
1.0
 40
1.0
 40
1.0
 10
1230.034179109671
 20
1362.853480842952
 30
0.0
 10
1230.032734071692
 20
1364.343390206883
 30
0.0
 10
1230.029832868944
 20
1367.334681234225
 30
0.0
 10
1230.033534503441
 20
1371.973443845518
 30
0.0
 10
1230.039188305156
 20
1376.685019838997
 30
0.0
 10
1230.047736990086
 20
1382.376650164985
 30
0.0
 10
1230.056246476867
 20
1389.10871729228
 30
0.0
 10
1230.049616700824
 20
1395.29152021848
 30
0.0
 10
1230.044675500624
 20
1398.860797131702
 30
0.0
 10
1230.043211612329
 20
1399.918237122603
 30
0.0
  0
ARC
  5
198
330
1F
100
AcDbEntity
  8
0
  6
Continuous
 62
     8
370
    18
100
AcDbCircle
 10
1228.1230754107
 20
1357.0822776792
 30
0.0
 40
6.07939991327863
100
AcDbArc
 50
71.6779814803
 51
90.2649234322
  0
SPLINE
  5
199
330
1F
100
AcDbEntity
  8
0
  6
Continuous
 62
     8
370
    18
100
AcDbSpline
210
0.0
220
0.0
230
1.0
 70
     8
 71
     3
 72
    15
 73
    11
 74
     0
 42
0.000000001
 43
0.00000001
 40
0.0
 40
0.0
 40
0.0
 40
0.0
 40
0.1214527241786896
 40
0.2436356162157046
 40
0.367963474812446
 40
0.4929996451849695
 40
0.6185865433805131
 40
0.7450337263104049
 40
0.8719902588119072
 40
1.0
 40
1.0
 40
1.0
 40
1.0
 10
1227.993688536391
 20
1399.725098730066
 30
0.0
 10
1227.976476874708
 20
1398.251711975126
 30
0.0
 10
1227.941950075672
 20
1395.296080535884
 30
0.0
 10
1227.910071326996
 20
1390.751126541649
 30
0.0
 10
1227.912673069544
 20
1386.137395333858
 30
0.0
 10
1227.945242871408
 20
1381.473287354661
 30
0.0
 10
1227.994023649626
 20
1376.804267705339
 30
0.0
 10
1228.046636489396
 20
1372.169243156108
 30
0.0
 10
1228.090241444194
 20
1367.583736705799
 30
0.0
 10
1228.093386594539
 20
1364.639707680979
 30
0.0
 10
1228.094965665669
 20
1363.161612605643
 30
0.0
  0
ARC
  5
19A
330
1F
100
AcDbEntity
  8
0
  6
Continuous
 62
     8
370
    18
100
AcDbCircle
 10
1228.1349476651
 20
1409.1971139558
 30
0.0
 40
9.473068488002673
100
AcDbArc
 50
269.1455934393
 51
281.6212347178
  0
ARC
  5
19B
330
1F
100
AcDbEntity
  8
0
  6
Continuous
 62
     8
370
    18
100
AcDbCircle
 10
1231.3954900492
 20
1393.9731520684
 30
0.0
 40
6.096941304611712
100
AcDbArc
 50
89.6346559708
 51
102.8145546266
  0
SPLINE
  5
19C
330
1F
100
AcDbEntity
  8
0
  6
Continuous
 62
     8
370
    18
100
AcDbSpline
210
0.0
220
0.0
230
1.0
 70
     8
 71
     3
 72
    14
 73
    10
 74
     0
 42
0.000000001
 43
0.00000001
 40
0.0
 40
0.0
 40
0.0
 40
0.0
 40
0.129696900866053
 40
0.2603671951156626
 40
0.3853421446376515
 40
0.5111847557259618
 40
0.6397642884787732
 40
0.7692911603858882
 40
1.0
 40
1.0
 40
1.0
 40
1.0
 10
1231.376777442145
 20
1362.652409216244
 30
0.0
 10
1231.375670941613
 20
1364.186460200192
 30
0.0
 10
1231.373449636108
 20
1367.266075435312
 30
0.0
 10
1231.398812443026
 20
1372.00193882668
 30
0.0
 10
1231.429586570367
 20
1376.773277898105
 30
0.0
 10
1231.459904422008
 20
1381.582424585563
 30
0.0
 10
1231.481960794317
 20
1386.473804840461
 30
0.0
 10
1231.483225647582
 20
1392.702831252478
 30
0.0
 10
1231.453441549676
 20
1397.193787732908
 30
0.0
 10
1231.434366664963
 20
1400.069969425117
 30
0.0
  0
ARC
  5
19D
330
1F
100
AcDbEntity
  8
0
  6
Continuous
 62
     8
370
    18
100
AcDbCircle
 10
1231.305859794
 20
1366.7618210618
 30
0.0
 40
4.11002372613882
100
AcDbArc
 50
251.9763477958
 51
270.9886764295
  0
LINE
  5
19E
330
1F
100
AcDbEntity
  8
0
  6
Continuous
 62
     8
370
    18
100
AcDbLine
 10
1237.7197799356
 20
1362.6524092162
 30
0.0
 11
1231.3767774421
 21
1362.6524092162
 31
0.0
  0
LINE
  5
19F
330
1F
100
AcDbEntity
  8
0
  6
Continuous
 62
     8
370
    18
100
AcDbLine
 10
1237.6154534194
 20
1400.0699694251
 30
0.0
 11
1231.434366665
 21
1400.0699694251
 31
0.0
  0
LINE
  5
1A0
330
1F
100
AcDbEntity
  8
0
  6
Continuous
 62
     8
370
    18
100
AcDbLine
 10
1311.2957799076
 20
1362.6524092162
 30
0.0
 11
1317.638782401
 21
1362.6524092162
 31
0.0
  0
LINE
  5
1A1
330
1F
100
AcDbEntity
  8
0
  6
Continuous
 62
     8
370
    18
100
AcDbLine
 10
1311.4001064238
 20
1400.0699694251
 30
0.0
 11
1317.5811931782
 21
1400.0699694251
 31
0.0
  0
SPLINE
  5
1A2
330
1F
100
AcDbEntity
  8
0
  6
Continuous
 62
     8
370
    18
100
AcDbSpline
210
0.0
220
0.0
230
1.0
 70
     8
 71
     3
 72
    14
 73
    10
 74
     0
 42
0.000000001
 43
0.00000001
 40
0.0
 40
0.0
 40
0.0
 40
0.0
 40
0.0834813408532671
 40
0.2549666805167995
 40
0.4263786377711388
 40
0.5910988460081823
 40
0.7558798437661322
 40
0.8779365795297038
 40
1.0
 40
1.0
 40
1.0
 40
1.0
 10
1320.849396953712
 20
1361.158378560203
 30
0.0
 10
1321.750484007304
 20
1361.174039333213
 30
0.0
 10
1324.502562167079
 20
1361.221870085188
 30
0.0
 10
1329.10512687964
 20
1361.307083189718
 30
0.0
 10
1334.405279011146
 20
1361.362632797394
 30
0.0
 10
1339.298050338119
 20
1361.427102736927
 30
0.0
 10
1343.324373191376
 20
1361.449365429325
 30
0.0
 10
1346.629341059841
 20
1361.445648018302
 30
0.0
 10
1348.342375290714
 20
1361.429269699716
 30
0.0
 10
1349.198915860034
 20
1361.42108031618
 30
0.0
  0
LINE
  5
1A3
330
1F
100
AcDbEntity
  8
0
  6
Continuous
 62
     8
370
    18
100
AcDbLine
 10
1320.9205941775
 20
1363.1616126056
 30
0.0
 11
1320.8493969537
 21
1361.1583785602
 31
0.0
  0
SPLINE
  5
1A4
330
1F
100
AcDbEntity
  8
0
  6
Continuous
 62
     8
370
    18
100
AcDbSpline
210
0.0
220
0.0
230
1.0
 70
     8
 71
     3
 72
    10
 73
     6
 74
     0
 42
0.000000001
 43
0.00000001
 40
0.0
 40
0.0
 40
0.0
 40
0.0
 40
0.0305940752880642
 40
0.8849546452569924
 40
1.0
 40
1.0
 40
1.0
 40
1.0
 10
1320.938615787029
 20
1410.504049145145
 30
0.0
 10
1320.938827924025
 20
1410.395610902969
 30
0.0
 10
1320.944964132361
 20
1407.258960253008
 30
0.0
 10
1320.985409700605
 20
1403.661173789573
 30
0.0
 10
1321.018003232206
 20
1400.142662119123
 30
0.0
 10
1321.021871306776
 20
1399.725098730066
 30
0.0
  0
SPLINE
  5
1A5
330
1F
100
AcDbEntity
  8
0
  6
Continuous
 62
     8
370
    18
100
AcDbSpline
210
0.0
220
0.0
230
1.0
 70
     8
 71
     3
 72
    12
 73
     8
 74
     0
 42
0.000000001
 43
0.00000001
 40
0.0
 40
0.0
 40
0.0
 40
0.0
 40
0.000011396415791
 40
0.016561542624936
 40
0.2254762501766456
 40
0.656969573382374
 40
1.0
 40
1.0
 40
1.0
 40
1.0
 10
1319.730812613946
 20
1415.118206601142
 30
0.0
 10
1319.730825395428
 20
1415.118192792487
 30
0.0
 10
1319.749399749286
 20
1415.098125726296
 30
0.0
 10
1319.998009916907
 20
1414.821426747104
 30
0.0
 10
1320.549969841627
 20
1413.885191053024
 30
0.0
 10
1320.882163159178
 20
1412.310210005781
 30
0.0
 10
1320.921287795757
 20
1411.058445651037
 30
0.0
 10
1320.938615787029
 20
1410.504049145145
 30
0.0
  0
SPLINE
  5
1A6
330
1F
100
AcDbEntity
  8
0
  6
Continuous
 62
     8
370
    18
100
AcDbSpline
210
0.0
220
0.0
230
1.0
 70
     8
 71
     3
 72
    11
 73
     7
 74
     0
 42
0.000000001
 43
0.00000001
 40
0.0
 40
0.0
 40
0.0
 40
0.0
 40
0.2986044395549453
 40
0.5785107697797179
 40
0.9999675635115337
 40
1.0
 40
1.0
 40
1.0
 40
1.0
 10
1318.010151947123
 20
1415.659733474723
 30
0.0
 10
1318.195037873159
 20
1415.653897395627
 30
0.0
 10
1318.553232478543
 20
1415.642590682924
 30
0.0
 10
1319.146539900855
 20
1415.469156734613
 30
0.0
 10
1319.521911579714
 20
1415.263451830086
 30
0.0
 10
1319.730796538815
 20
1415.118217777899
 30
0.0
 10
1319.730812613946
 20
1415.118206601142
 30
0.0
  0
LINE
  5
1A7
330
1F
100
AcDbEntity
  8
0
  6
Continuous
 62
     8
370
    18
100
AcDbLine
 10
1310.9037610838
 20
1415.5368125546
 30
0.0
 11
1318.0101519471
 21
1415.6597334747
 31
0.0
  0
SPLINE
  5
1A8
330
1F
100
AcDbEntity
  8
0
  6
Continuous
 62
     8
370
    18
100
AcDbSpline
210
0.0
220
0.0
230
1.0
 70
     8
 71
     3
 72
    11
 73
     7
 74
     0
 42
0.000000001
 43
0.00000001
 40
0.0
 40
0.0
 40
0.0
 40
0.0
 40
0.0000403578891936
 40
0.1670896913901004
 40
0.6133765181115335
 40
1.0
 40
1.0
 40
1.0
 40
1.0
 10
1309.497789470567
 20
1415.14672055325
 30
0.0
 10
1309.497806543642
 20
1415.146730170371
 30
0.0
 10
1309.568492470444
 20
1415.186546965555
 30
0.0
 10
1309.833069846581
 20
1415.323279207527
 30
0.0
 10
1310.298801642158
 20
1415.494469157646
 30
0.0
 10
1310.711973428939
 20
1415.523388612012
 30
0.0
 10
1310.903761083831
 20
1415.536812554574
 30
0.0
  0
SPLINE
  5
1A9
330
1F
100
AcDbEntity
  8
0
  6
Continuous
 62
     8
370
    18
100
AcDbSpline
210
0.0
220
0.0
230
1.0
 70
     8
 71
     3
 72
    11
 73
     7
 74
     0
 42
0.000000001
 43
0.00000001
 40
0.0
 40
0.0
 40
0.0
 40
0.0
 40
0.5574252101166676
 40
0.8582360298869187
 40
0.9999887157359582
 40
1.0
 40
1.0
 40
1.0
 40
1.0
 10
1308.130577949673
 20
1410.564315224966
 30
0.0
 10
1308.171937788692
 20
1411.477708205923
 30
0.0
 10
1308.235617190685
 20
1412.884007654668
 30
0.0
 10
1308.847688295034
 20
1414.422299461847
 30
0.0
 10
1309.32154099193
 20
1414.989131101907
 30
0.0
 10
1309.497775442489
 20
1415.146708010293
 30
0.0
 10
1309.497789470567
 20
1415.14672055325
 30
0.0
  0
SPLINE
  5
1AA
330
1F
100
AcDbEntity
  8
0
  6
Continuous
 62
     8
370
    18
100
AcDbSpline
210
0.0
220
0.0
230
1.0
 70
     8
 71
     3
 72
     9
 73
     5
 74
     0
 42
0.000000001
 43
0.00000001
 40
0.0
 40
0.0
 40
0.0
 40
0.0
 40
0.8892351459143027
 40
0.9999999999999999
 40
0.9999999999999999
 40
0.9999999999999999
 40
0.9999999999999999
 10
1308.013042485482
 20
1399.768956559873
 30
0.0
 10
1308.0621049921
 20
1402.995944916225
 30
0.0
 10
1308.11727881968
 20
1406.624893199677
 30
0.0
 10
1308.129251767819
 20
1410.171478249427
 30
0.0
 10
1308.130577949673
 20
1410.564315224966
 30
0.0
  0
LINE
  5
1AB
330
1F
100
AcDbEntity
  8
0
  6
Continuous
 62
     8
370
    18
100
AcDbLine
 10
1308.2395923298
 20
1361.0338869478
 30
0.0
 11
1308.157172738
 21
1363.0912929779
 31
0.0
  0
SPLINE
  5
1AC
330
1F
100
AcDbEntity
  8
0
  6
Continuous
 62
     8
370
    18
100
AcDbSpline
210
0.0
220
0.0
230
1.0
 70
     8
 71
     3
 72
     9
 73
     5
 74
     0
 42
0.000000001
 43
0.00000001
 40
0.0
 40
0.0
 40
0.0
 40
0.0
 40
0.0843934950201051
 40
1.0
 40
1.0
 40
1.0
 40
1.0
 10
1295.999693300188
 20
1361.038691008626
 30
0.0
 10
1296.344003693509
 20
1361.036886473645
 30
0.0
 10
1300.42382516836
 20
1361.015504079421
 30
0.0
 10
1304.503873519172
 20
1361.025100449185
 30
0.0
 10
1308.239592329807
 20
1361.033886947765
 30
0.0
  0
SPLINE
  5
1AD
330
1F
100
AcDbEntity
  8
0
  6
Continuous
 62
     8
370
    18
100
AcDbSpline
210
0.0
220
0.0
230
1.0
 70
     8
 71
     3
 72
    12
 73
     8
 74
     0
 42
0.000000001
 43
0.00000001
 40
0.0
 40
0.0
 40
0.0
 40
0.0
 40
0.342990742779567
 40
0.6931111831538851
 40
0.8460382371952911
 40
0.9999906400284373
 40
1.0
 40
1.0
 40
1.0
 40
1.0
 10
1360.916622588893
 20
1404.438120897363
 30
0.0
 10
1360.957267006386
 20
1404.827649614393
 30
0.0
 10
1361.039400710835
 20
1405.614804124002
 30
0.0
 10
1361.122646293158
 20
1406.289646458864
 30
0.0
 10
1361.172733277713
 20
1406.653113877142
 30
0.0
 10
1361.191168759334
 20
1406.769547094314
 30
0.0
 10
1361.199023641889
 20
1406.813802289799
 30
0.0
 10
1361.19902411942
 20
1406.813804980256
 30
0.0
  0
SPLINE
  5
1AE
330
1F
100
AcDbEntity
  8
0
  6
Continuous
 62
     8
370
    18
100
AcDbSpline
210
0.0
220
0.0
230
1.0
 70
     8
 71
     3
 72
    20
 73
    16
 74
     0
 42
0.000000001
 43
0.00000001
 40
0.0
 40
0.0
 40
0.0
 40
0.0
 40
0.0777495206401191
 40
0.1580444463721884
 40
0.2279673988375376
 40
0.2994604618770939
 40
0.3760581917562253
 40
0.4543933132980215
 40
0.5398335171527775
 40
0.6277318368777257
 40
0.7140713710304736
 40
0.8026163874373408
 40
0.8879068463690993
 40
0.9758355728947902
 40
1.0
 40
1.0
 40
1.0
 40
1.0
 10
1349.198915860034
 20
1361.42108031618
 30
0.0
 10
1349.194285282829
 20
1362.585925253804
 30
0.0
 10
1349.184872530123
 20
1364.953750441156
 30
0.0
 10
1349.666738310169
 20
1368.772843453587
 30
0.0
 10
1350.435946454303
 20
1372.613075664153
 30
0.0
 10
1351.425270492598
 20
1376.461790881462
 30
0.0
 10
1352.597956382671
 20
1380.460149808681
 30
0.0
 10
1353.894330215779
 20
1384.640664276387
 30
0.0
 10
1355.182235723149
 20
1388.864309979922
 30
0.0
 10
1356.395189158411
 20
1392.940094203317
 30
0.0
 10
1357.563223437766
 20
1396.631772918715
 30
0.0
 10
1358.686847567326
 20
1399.802080464478
 30
0.0
 10
1359.79850016879
 20
1402.361805532693
 30
0.0
 10
1360.526989840928
 20
1403.776179084275
 30
0.0
 10
1360.847523665479
 20
1404.320729669632
 30
0.0
 10
1360.916622588893
 20
1404.438120897363
 30
0.0
  0
LINE
  5
1AF
330
1F
100
AcDbEntity
  8
0
  6
Continuous
 62
     8
370
    18
100
AcDbLine
 10
1240.7759675134
 20
1361.0338869478
 30
0.0
 11
1240.8583871051
 21
1363.0912929779
 31
0.0
  0
SPLINE
  5
1B0
330
1F
100
AcDbEntity
  8
0
  6
Continuous
 62
     8
370
    18
100
AcDbSpline
210
0.0
220
0.0
230
1.0
 70
     8
 71
     3
 72
     9
 73
     5
 74
     0
 42
0.000000001
 43
0.00000001
 40
0.0
 40
0.0
 40
0.0
 40
0.0
 40
0.8892351459143013
 40
1.0
 40
1.0
 40
1.0
 40
1.0
 10
1241.002517357685
 20
1399.768956559873
 30
0.0
 10
1240.953454851066
 20
1402.995944916225
 30
0.0
 10
1240.898281023486
 20
1406.624893199677
 30
0.0
 10
1240.886308075347
 20
1410.171478249427
 30
0.0
 10
1240.884981893493
 20
1410.564315224966
 30
0.0
  0
SPLINE
  5
1B1
330
1F
100
AcDbEntity
  8
0
  6
Continuous
 62
     8
370
    18
100
AcDbSpline
210
0.0
220
0.0
230
1.0
 70
     8
 71
     3
 72
    11
 73
     7
 74
     0
 42
0.000000001
 43
0.00000001
 40
0.0
 40
0.0
 40
0.0
 40
0.0
 40
0.5574252101167152
 40
0.8582360298869939
 40
0.9999887157360463
 40
1.0
 40
1.0
 40
1.0
 40
1.0
 10
1240.884981893493
 20
1410.564315224966
 30
0.0
 10
1240.84362205413
 20
1411.477708205596
 30
0.0
 10
1240.779942651606
 20
1412.884007653837
 30
0.0
 10
1240.167871549494
 20
1414.422299463141
 30
0.0
 10
1239.69401884987
 20
1414.989131100608
 30
0.0
 10
1239.517784400678
 20
1415.146708010293
 30
0.0
 10
1239.5177703726
 20
1415.14672055325
 30
0.0
  0
SPLINE
  5
1B2
330
1F
100
AcDbEntity
  8
0
  6
Continuous
 62
     8
370
    18
100
AcDbSpline
210
0.0
220
0.0
230
1.0
 70
     8
 71
     3
 72
    11
 73
     7
 74
     0
 42
0.000000001
 43
0.00000001
 40
0.0
 40
0.0
 40
0.0
 40
0.0
 40
0.0000403578895606
 40
0.1670896913904061
 40
0.6133765181116754
 40
1.0
 40
1.0
 40
1.0
 40
1.0
 10
1239.5177703726
 20
1415.14672055325
 30
0.0
 10
1239.517753299525
 20
1415.146730170371
 30
0.0
 10
1239.447067372475
 20
1415.186546965176
 30
0.0
 10
1239.182489996903
 20
1415.323279208013
 30
0.0
 10
1238.716758200917
 20
1415.494469157506
 30
0.0
 10
1238.303586414198
 20
1415.523388611968
 30
0.0
 10
1238.111798759335
 20
1415.536812554574
 30
0.0
  0
LINE
  5
1B3
330
1F
100
AcDbEntity
  8
0
  6
Continuous
 62
     8
370
    18
100
AcDbLine
 10
1238.1117987593
 20
1415.5368125546
 30
0.0
 11
1231.005407896
 21
1415.6597334747
 31
0.0
  0
SPLINE
  5
1B4
330
1F
100
AcDbEntity
  8
0
  6
Continuous
 62
     8
370
    18
100
AcDbSpline
210
0.0
220
0.0
230
1.0
 70
     8
 71
     3
 72
    11
 73
     7
 74
     0
 42
0.000000001
 43
0.00000001
 40
0.0
 40
0.0
 40
0.0
 40
0.0
 40
0.2986044395549207
 40
0.5785107697796704
 40
0.9999675635114514
 40
0.9999999999999999
 40
0.9999999999999999
 40
0.9999999999999999
 40
0.9999999999999999
 10
1231.005407896043
 20
1415.659733474723
 30
0.0
 10
1230.820521970013
 20
1415.653897395622
 30
0.0
 10
1230.46232736464
 20
1415.642590682908
 30
0.0
 10
1229.869019942236
 20
1415.469156734684
 30
0.0
 10
1229.493648263701
 20
1415.26345182985
 30
0.0
 10
1229.284763304351
 20
1415.118217777899
 30
0.0
 10
1229.284747229221
 20
1415.118206601142
 30
0.0
  0
SPLINE
  5
1B5
330
1F
100
AcDbEntity
  8
0
  6
Continuous
 62
     8
370
    18
100
AcDbSpline
210
0.0
220
0.0
230
1.0
 70
     8
 71
     3
 72
    12
 73
     8
 74
     0
 42
0.000000001
 43
0.00000001
 40
0.0
 40
0.0
 40
0.0
 40
0.0
 40
0.0000113964157658
 40
0.0165615426249112
 40
0.2254762501766258
 40
0.6569695733823645
 40
1.0
 40
1.0
 40
1.0
 40
1.0
 10
1229.284747229221
 20
1415.118206601142
 30
0.0
 10
1229.284734447739
 20
1415.118192792487
 30
0.0
 10
1229.266160093928
 20
1415.098125726265
 30
0.0
 10
1229.017549925963
 20
1414.821426747299
 30
0.0
 10
1228.465590001817
 20
1413.885191052841
 30
0.0
 10
1228.13339668392
 20
1412.310210005826
 30
0.0
 10
1228.094272047389
 20
1411.058445651051
 30
0.0
 10
1228.076944056138
 20
1410.504049145145
 30
0.0
  0
SPLINE
  5
1B6
330
1F
100
AcDbEntity
  8
0
  6
Continuous
 62
     8
370
    18
100
AcDbSpline
210
0.0
220
0.0
230
1.0
 70
     8
 71
     3
 72
    10
 73
     6
 74
     0
 42
0.000000001
 43
0.00000001
 40
0.0
 40
0.0
 40
0.0
 40
0.0
 40
0.0305940752880637
 40
0.8849546452569932
 40
1.0
 40
1.0
 40
1.0
 40
1.0
 10
1228.076944056138
 20
1410.504049145145
 30
0.0
 10
1228.076731919142
 20
1410.395610902969
 30
0.0
 10
1228.070595710805
 20
1407.258960253008
 30
0.0
 10
1228.030150142562
 20
1403.661173789573
 30
0.0
 10
1227.997556610961
 20
1400.142662119123
 30
0.0
 10
1227.993688536391
 20
1399.725098730066
 30
0.0
  0
LINE
  5
1B7
330
1F
100
AcDbEntity
  8
0
  6
Continuous
 62
     8
370
    18
100
AcDbLine
 10
1228.0949656657
 20
1363.1616126056
 30
0.0
 11
1228.1661628895
 21
1361.1583785602
 31
0.0
  0
SPLINE
  5
1B8
330
1F
100
AcDbEntity
  8
0
  6
Continuous
 62
     8
370
    18
100
AcDbSpline
210
0.0
220
0.0
230
1.0
 70
     8
 71
     3
 72
    18
 73
    14
 74
     0
 42
0.000000001
 43
0.00000001
 40
0.0
 40
0.0
 40
0.0
 40
0.0
 40
0.0497884573626106
 40
0.1520626953526052
 40
0.2542931679105413
 40
0.3525326664708921
 40
0.4508084200367181
 40
0.5543273934134056
 40
0.657856527535361
 40
0.7740307271289423
 40
0.8901694733964503
 40
0.9999988953086804
 40
0.9999999999999999
 40
0.9999999999999999
 40
0.9999999999999999
 40
0.9999999999999999
 10
1228.166162889454
 20
1361.158378560203
 30
0.0
 10
1227.26507261435
 20
1361.174039456397
 30
0.0
 10
1224.512984615512
 20
1361.221870584595
 30
0.0
 10
1219.910554207393
 20
1361.307078553625
 30
0.0
 10
1214.609844193174
 20
1361.362649493479
 30
0.0
 10
1209.719066641833
 20
1361.427043195527
 30
0.0
 10
1205.225894276031
 20
1361.452132848138
 30
0.0
 10
1201.19425492798
 20
1361.440982041323
 30
0.0
 10
1197.584057639843
 20
1361.394085377416
 30
0.0
 10
1194.671961794497
 20
1361.315204040891
 30
0.0
 10
1192.692146059764
 20
1361.189932719771
 30
0.0
 10
1192.100439793583
 20
1361.065573131132
 30
0.0
 10
1191.988022037305
 20
1360.998144199908
 30
0.0
 10
1191.98802090659
 20
1360.998143521698
 30
0.0
  0
SPLINE
  5
1B9
330
1F
100
AcDbEntity
  8
0
  6
Continuous
 62
     8
370
    18
100
AcDbSpline
210
0.0
220
0.0
230
1.0
 70
     8
 71
     3
 72
     9
 73
     5
 74
     0
 42
0.000000001
 43
0.00000001
 40
0.0
 40
0.0
 40
0.0
 40
0.0
 40
0.08439349502011
 40
1.0
 40
1.0
 40
1.0
 40
1.0
 10
1253.015866542978
 20
1361.038691008626
 30
0.0
 10
1252.671556149657
 20
1361.036886473645
 30
0.0
 10
1248.591734674806
 20
1361.015504079421
 30
0.0
 10
1244.511686323995
 20
1361.025100449185
 30
0.0
 10
1240.77596751336
 20
1361.033886947765
 30
0.0
  0
LINE
  5
1BA
330
1F
100
AcDbEntity
  8
0
  6
Continuous
 62
     8
370
    18
100
AcDbLine
 10
1311.3137732717
 20
1410.9296684598
 30
0.0
 11
1311.4001064238
 21
1400.0699694251
 31
0.0
  0
SPLINE
  5
1BB
330
1F
100
AcDbEntity
  8
0
  6
Continuous
 62
     8
370
    18
100
AcDbSpline
210
0.0
220
0.0
230
1.0
 70
     8
 71
     3
 72
     9
 73
     5
 74
     0
 42
0.000000001
 43
0.00000001
 40
0.0
 40
0.0
 40
0.0
 40
0.0
 40
0.3531288107769713
 40
1.0
 40
1.0
 40
1.0
 40
1.0
 10
1310.046794136784
 20
1410.780742961796
 30
0.0
 10
1310.046670697959
 20
1409.515750151994
 30
0.0
 10
1310.046321140457
 20
1405.933508286714
 30
0.0
 10
1310.047625972481
 20
1402.282856961958
 30
0.0
 10
1310.048470030724
 20
1399.921355798074
 30
0.0
  0
ARC
  5
1BC
330
1F
100
AcDbEntity
  8
0
  6
Continuous
 62
     8
370
    18
100
AcDbCircle
 10
1311.2664866489
 20
1405.8681020272
 30
0.0
 40
5.061787310437711
100
AcDbArc
 50
89.4647417696
 51
103.943256727
  0
SPLINE
  5
1BD
330
1F
100
AcDbEntity
  8
0
  6
Continuous
 62
     8
370
    18
100
AcDbSpline
210
0.0
220
0.0
230
1.0
 70
     8
 71
     3
 72
     9
 73
     5
 74
     0
 42
0.000000001
 43
0.00000001
 40
0.0
 40
0.0
 40
0.0
 40
0.0
 40
0.3531288107769713
 40
1.0
 40
1.0
 40
1.0
 40
1.0
 10
1238.968765706382
 20
1410.780742961796
 30
0.0
 10
1238.968889145207
 20
1409.515750151994
 30
0.0
 10
1238.96923870271
 20
1405.933508286714
 30
0.0
 10
1238.967933870685
 20
1402.282856961958
 30
0.0
 10
1238.967089812442
 20
1399.921355798074
 30
0.0
  0
LINE
  5
1BE
330
1F
100
AcDbEntity
  8
0
  6
Continuous
 62
     8
370
    18
100
AcDbLine
 10
1237.7017865715
 20
1410.9296684598
 30
0.0
 11
1237.6154534194
 21
1400.0699694251
 31
0.0
  0
ARC
  5
1BF
330
1F
100
AcDbEntity
  8
0
  6
Continuous
 62
     8
370
    18
100
AcDbCircle
 10
1237.7490731942
 20
1405.8681020272
 30
0.0
 40
5.061787310438159
100
AcDbArc
 50
76.056743273
 51
90.5352582304
  0
SPLINE
  5
1C0
330
1F
100
AcDbEntity
  8
0
  6
Continuous
 62
     8
370
    18
100
AcDbSpline
210
0.0
220
0.0
230
1.0
 70
     8
 71
     3
 72
     9
 73
     5
 74
     0
 42
0.000000001
 43
0.00000001
 40
0.0
 40
0.0
 40
0.0
 40
0.0
 40
0.8536363424240632
 40
1.0
 40
1.0
 40
1.0
 40
1.0
 10
1317.581193178203
 20
1400.069969425117
 30
0.0
 10
1317.601840930717
 20
1403.181050307417
 30
0.0
 10
1317.626028926809
 20
1406.825554093965
 30
0.0
 10
1317.630690270834
 20
1410.40566965217
 30
0.0
 10
1317.631372522195
 20
1410.929668459814
 30
0.0
  0
ARC
  5
1C1
330
1F
100
AcDbEntity
  8
0
  6
Continuous
 62
     8
370
    18
100
AcDbCircle
 10
1317.6945124888
 20
1406.0351618756
 30
0.0
 40
4.8949138253919
100
AcDbArc
 50
74.7412018829
 51
90.739084295
  0
SPLINE
  5
1C2
330
1F
100
AcDbEntity
  8
0
  6
Continuous
 62
     8
370
    18
100
AcDbSpline
210
0.0
220
0.0
230
1.0
 70
     8
 71
     3
 72
    10
 73
     6
 74
     0
 42
0.000000001
 43
0.00000001
 40
0.0
 40
0.0
 40
0.0
 40
0.0
 40
0.0049102993503903
 40
0.115164344171687
 40
1.0
 40
1.0
 40
1.0
 40
1.0
 10
1318.972348230837
 20
1399.918237122603
 30
0.0
 10
1318.972370328692
 20
1399.936172684688
 30
0.0
 10
1318.972888603611
 20
1400.356826721753
 30
0.0
 10
1318.978192427064
 20
1404.005616346927
 30
0.0
 10
1318.980606330649
 20
1407.579558637153
 30
0.0
 10
1318.982752778312
 20
1410.757514924108
 30
0.0
  0
SPLINE
  5
1C3
330
1F
100
AcDbEntity
  8
0
  6
Continuous
 62
     8
370
    18
100
AcDbSpline
210
0.0
220
0.0
230
1.0
 70
     8
 71
     3
 72
    10
 73
     6
 74
     0
 42
0.000000001
 43
0.00000001
 40
0.0
 40
0.0
 40
0.0
 40
0.0
 40
0.0049102993503903
 40
0.115164344171687
 40
1.0
 40
1.0
 40
1.0
 40
1.0
 10
1230.043211612329
 20
1399.918237122603
 30
0.0
 10
1230.043189514474
 20
1399.936172684688
 30
0.0
 10
1230.042671239555
 20
1400.356826721753
 30
0.0
 10
1230.037367416102
 20
1404.005616346927
 30
0.0
 10
1230.034953512517
 20
1407.579558637153
 30
0.0
 10
1230.032807064855
 20
1410.757514924108
 30
0.0
  0
ARC
  5
1C4
330
1F
100
AcDbEntity
  8
0
  6
Continuous
 62
     8
370
    18
100
AcDbCircle
 10
1231.3210473544
 20
1406.0351618756
 30
0.0
 40
4.894913825390864
100
AcDbArc
 50
89.260915705
 51
105.2587981171
  0
SPLINE
  5
1C5
330
1F
100
AcDbEntity
  8
0
  6
Continuous
 62
     8
370
    18
100
AcDbSpline
210
0.0
220
0.0
230
1.0
 70
     8
 71
     3
 72
     9
 73
     5
 74
     0
 42
0.000000001
 43
0.00000001
 40
0.0
 40
0.0
 40
0.0
 40
0.0
 40
0.8536363424240632
 40
1.0
 40
1.0
 40
1.0
 40
1.0
 10
1231.434366664963
 20
1400.069969425117
 30
0.0
 10
1231.413718912449
 20
1403.181050307417
 30
0.0
 10
1231.389530916357
 20
1406.825554093965
 30
0.0
 10
1231.384869572332
 20
1410.40566965217
 30
0.0
 10
1231.384187320971
 20
1410.929668459814
 30
0.0
  0
LINE
  5
1C6
330
1F
100
AcDbEntity
  8
0
  6
Continuous
 62
     8
370
    18
100
AcDbLine
 10
1311.3137732717
 20
1410.9296684598
 30
0.0
 11
1317.6313725222
 21
1410.9296684598
 31
0.0
  0
LINE
  5
1C7
330
1F
100
AcDbEntity
  8
0
  6
Continuous
 62
     8
370
    18
100
AcDbLine
 10
1237.7017865715
 20
1410.9296684598
 30
0.0
 11
1231.384187321
 21
1410.9296684598
 31
0.0
  0
ARC
  5
1C8
330
1F
100
AcDbEntity
  8
0
  6
Continuous
 62
     8
370
    18
100
AcDbCircle
 10
1240.7788126784
 20
1418.2154581707
 30
0.0
 40
7.651879525847158
100
AcDbArc
 50
256.3170319391
 51
270.7949998579
  0
ARC
  5
1C9
330
1F
100
AcDbEntity
  8
0
  6
Continuous
 62
     8
370
    18
100
AcDbCircle
 10
1308.2367471648
 20
1418.2154581707
 30
0.0
 40
7.651879525842578
100
AcDbArc
 50
269.2050001421
 51
283.6829680609
  0
ARC
  5
1CA
330
1F
100
AcDbEntity
  8
0
  6
Continuous
 62
     8
370
    18
100
AcDbCircle
 10
1320.8897331444
 20
1417.7997667767
 30
0.0
 40
7.295881391054805
100
AcDbArc
 50
254.8481769985
 51
270.3838864582
  0
ARC
  5
1CB
330
1F
100
AcDbEntity
  8
0
  6
Continuous
 62
     8
370
    18
100
AcDbCircle
 10
1228.1258266987
 20
1417.7997667767
 30
0.0
 40
7.295881391054803
100
AcDbArc
 50
269.6161135418
 51
285.1518230015
  0
LINE
  5
1CC
330
1F
100
AcDbEntity
  8
0
  6
Continuous
 62
     8
370
    18
100
AcDbLine
 10
1228.1661628895
 20
1361.1583785602
 30
0.0
 11
1228.1799498407
 21
1361.0012667007
 31
0.0
  0
SPLINE
  5
1CD
330
1F
100
AcDbEntity
  8
0
  6
Continuous
 62
     8
370
    18
100
AcDbSpline
210
0.0
220
0.0
230
1.0
 70
     8
 71
     3
 72
    14
 73
    10
 74
     0
 42
0.000000001
 43
0.00000001
 40
0.0
 40
0.0
 40
0.0
 40
0.0
 40
0.2135072054013626
 40
0.6517504153255588
 40
0.8731400298126222
 40
0.9340362681777993
 40
0.9607431005770668
 40
0.9801118651181867
 40
1.0
 40
1.0
 40
1.0
 40
1.0
 10
1228.179949840673
 20
1361.001266700688
 30
0.0
 10
1228.236197091844
 20
1360.407397832159
 30
0.0
 10
1228.407897008216
 20
1358.59455839667
 30
0.0
 10
1228.765382981184
 20
1356.540534434589
 30
0.0
 10
1229.217106865641
 20
1355.209078041959
 30
0.0
 10
1229.716145947448
 20
1354.758507471498
 30
0.0
 10
1229.986348280475
 20
1354.649628162652
 30
0.0
 10
1230.18641651053
 20
1354.610182224186
 30
0.0
 10
1230.312269508963
 20
1354.609562499848
 30
0.0
 10
1230.376028528267
 20
1354.60924853819
 30
0.0
  0
LINE
  5
1CE
330
1F
100
AcDbEntity
  8
0
  6
Continuous
 62
     8
370
    18
100
AcDbLine
 10
1230.3760285283
 20
1354.6092485382
 30
0.0
 11
1238.6693781184
 21
1354.8277665796
 31
0.0
  0
SPLINE
  5
1CF
330
1F
100
AcDbEntity
  8
0
  6
Continuous
 62
     8
370
    18
100
AcDbSpline
210
0.0
220
0.0
230
1.0
 70
     8
 71
     3
 72
    16
 73
    12
 74
     0
 42
0.000000001
 43
0.00000001
 40
0.0
 40
0.0
 40
0.0
 40
0.0
 40
0.0145165189494731
 40
0.0410735504097974
 40
0.0660449149745846
 40
0.1244471088434308
 40
0.1776973916031267
 40
0.2535931192178185
 40
0.3633556422017329
 40
0.5223716192680075
 40
1.0
 40
1.0
 40
1.0
 40
1.0
 10
1238.669378118359
 20
1354.827766579643
 30
0.0
 10
1238.712040412005
 20
1354.829833729346
 30
0.0
 10
1238.832750609456
 20
1354.835682595581
 30
0.0
 10
1239.011911889153
 20
1354.880937976048
 30
0.0
 10
1239.251231055865
 20
1354.994995831168
 30
0.0
 10
1239.458805795876
 20
1355.183370943078
 30
0.0
 10
1239.664099600566
 20
1355.470753763311
 30
0.0
 10
1239.861165661872
 20
1355.8702983566
 30
0.0
 10
1240.076144905735
 20
1356.499293443838
 30
0.0
 10
1240.434590056594
 20
1357.990963433445
 30
0.0
 10
1240.615386629814
 20
1359.585945379625
 30
0.0
 10
1240.75102526927
 20
1360.782545388593
 30
0.0
  0
LINE
  5
1D0
330
1F
100
AcDbEntity
  8
0
  6
Continuous
 62
     8
370
    18
100
AcDbLine
 10
1240.7510252693
 20
1360.7825453886
 30
0.0
 11
1240.7759675134
 21
1361.0338869478
 31
0.0
  0
SPLINE
  5
1D1
330
1F
100
AcDbEntity
  8
0
  6
Continuous
 62
     8
370
    18
100
AcDbSpline
210
0.0
220
0.0
230
1.0
 70
     8
 71
     3
 72
     9
 73
     5
 74
     0
 42
0.000000001
 43
0.00000001
 40
0.0
 40
0.0
 40
0.0
 40
0.0
 40
0.0094533958096251
 40
1.0
 40
1.0
 40
1.0
 40
1.0
 10
1274.507779921583
 20
1352.712136996485
 30
0.0
 10
1274.498571829905
 20
1352.712137019462
 30
0.0
 10
1273.524520614494
 20
1352.712139450062
 30
0.0
 10
1272.552662026015
 20
1352.837462351284
 30
0.0
 10
1271.589990801443
 20
1352.961600525517
 30
0.0
  0
SPLINE
  5
1D2
330
1F
100
AcDbEntity
  8
0
  6
Continuous
 62
     8
370
    18
100
AcDbSpline
210
0.0
220
0.0
230
1.0
 70
     8
 71
     3
 72
    12
 73
     8
 74
     0
 42
0.000000001
 43
0.00000001
 40
0.0
 40
0.0
 40
0.0
 40
0.0
 40
0.0986927005379107
 40
0.3626715646535664
 40
0.632053478893801
 40
0.8140997464528028
 40
1.0
 40
1.0
 40
1.0
 40
1.0
 10
1270.594424250645
 20
1353.047528603385
 30
0.0
 10
1269.980089276723
 20
1353.088508672165
 30
0.0
 10
1267.722558324596
 20
1353.239100413834
 30
0.0
 10
1263.84148488943
 20
1354.347255696183
 30
0.0
 10
1259.564226779523
 20
1356.163289040839
 30
0.0
 10
1255.910506979598
 20
1358.422925865301
 30
0.0
 10
1253.987460882283
 20
1360.160701958914
 30
0.0
 10
1253.015866542978
 20
1361.038691008626
 30
0.0
  0
LINE
  5
1D3
330
1F
100
AcDbEntity
  8
0
  6
Continuous
 62
     8
370
    18
100
AcDbLine
 10
1238.6548888147
 20
1354.9712255533
 30
0.0
 11
1230.3424309979
 21
1354.7527075119
 31
0.0
  0
SPLINE
  5
1D4
330
1F
100
AcDbEntity
  8
0
  6
Continuous
 62
     8
370
    18
100
AcDbSpline
210
0.0
220
0.0
230
1.0
 70
     8
 71
     3
 72
    10
 73
     6
 74
     0
 42
0.000000001
 43
0.00000001
 40
0.0
 40
0.0
 40
0.0
 40
0.0
 40
0.445489637819774
 40
0.7187778752024849
 40
1.0
 40
1.0
 40
1.0
 40
1.0
 10
1230.342430997936
 20
1354.752707511889
 30
0.0
 10
1230.567491832749
 20
1355.364368196367
 30
0.0
 10
1230.930617559826
 20
1356.351255723731
 30
0.0
 10
1231.16568209622
 20
1358.427967592678
 30
0.0
 10
1231.264487697336
 20
1359.790674114607
 30
0.0
 10
1231.31459734899
 20
1360.481776120466
 30
0.0
  0
LINE
  5
1D5
330
1F
100
AcDbEntity
  8
0
  6
Continuous
 62
     8
370
    18
100
AcDbLine
 10
1231.314597349
 20
1360.4817761205
 30
0.0
 11
1231.3767774421
 21
1362.6524092162
 31
0.0
  0
LINE
  5
1D6
330
1F
100
AcDbEntity
  8
0
  6
Continuous
 62
     8
370
    18
100
AcDbLine
 10
1237.7197799356
 20
1362.6524092162
 30
0.0
 11
1237.7871063109
 21
1360.354495686
 31
0.0
  0
SPLINE
  5
1D7
330
1F
100
AcDbEntity
  8
0
  6
Continuous
 62
     8
370
    18
100
AcDbSpline
210
0.0
220
0.0
230
1.0
 70
     8
 71
     3
 72
    10
 73
     6
 74
     0
 42
0.000000001
 43
0.00000001
 40
0.0
 40
0.0
 40
0.0
 40
0.0
 40
0.5085358280598384
 40
0.796605667301138
 40
1.0
 40
1.0
 40
1.0
 40
1.0
 10
1237.787106310865
 20
1360.354495686002
 30
0.0
 10
1237.876148875536
 20
1359.229674294516
 30
0.0
 10
1238.015631302799
 20
1357.467676327572
 30
0.0
 10
1238.317554314302
 20
1355.835906012483
 30
0.0
 10
1238.556146516625
 20
1355.22432903241
 30
0.0
 10
1238.654888814739
 20
1354.97122555334
 30
0.0
  0
LINE
  5
1D8
330
1F
100
AcDbEntity
  8
0
  6
Continuous
 62
     8
370
    18
100
AcDbLine
 10
1311.2957799076
 20
1362.6524092162
 30
0.0
 11
1311.2284535323
 21
1360.354495686
 31
0.0
  0
LINE
  5
1D9
330
1F
100
AcDbEntity
  8
0
  6
Continuous
 62
     8
370
    18
100
AcDbLine
 10
1317.7009624942
 20
1360.4817761205
 30
0.0
 11
1317.638782401
 21
1362.6524092162
 31
0.0
  0
SPLINE
  5
1DA
330
1F
100
AcDbEntity
  8
0
  6
Continuous
 62
     8
370
    18
100
AcDbSpline
210
0.0
220
0.0
230
1.0
 70
     8
 71
     3
 72
    10
 73
     6
 74
     0
 42
0.000000001
 43
0.00000001
 40
0.0
 40
0.0
 40
0.0
 40
0.0
 40
0.445489637819774
 40
0.718777875202486
 40
1.0
 40
1.0
 40
1.0
 40
1.0
 10
1318.673128845231
 20
1354.752707511889
 30
0.0
 10
1318.448068010417
 20
1355.364368196367
 30
0.0
 10
1318.084942283341
 20
1356.351255723731
 30
0.0
 10
1317.849877746946
 20
1358.427967592678
 30
0.0
 10
1317.751072145831
 20
1359.790674114607
 30
0.0
 10
1317.700962494177
 20
1360.481776120466
 30
0.0
  0
LINE
  5
1DB
330
1F
100
AcDbEntity
  8
0
  6
Continuous
 62
     8
370
    18
100
AcDbLine
 10
1310.3606710284
 20
1354.9712255533
 30
0.0
 11
1318.6731288452
 21
1354.7527075119
 31
0.0
  0
SPLINE
  5
1DC
330
1F
100
AcDbEntity
  8
0
  6
Continuous
 62
     8
370
    18
100
AcDbSpline
210
0.0
220
0.0
230
1.0
 70
     8
 71
     3
 72
    10
 73
     6
 74
     0
 42
0.000000001
 43
0.00000001
 40
0.0
 40
0.0
 40
0.0
 40
0.0
 40
0.508535828059839
 40
0.7966056673011382
 40
1.0
 40
1.0
 40
1.0
 40
1.0
 10
1311.228453532302
 20
1360.354495686002
 30
0.0
 10
1311.13941096763
 20
1359.229674294516
 30
0.0
 10
1310.999928540367
 20
1357.467676327572
 30
0.0
 10
1310.698005528864
 20
1355.835906012483
 30
0.0
 10
1310.459413326542
 20
1355.22432903241
 30
0.0
 10
1310.360671028427
 20
1354.97122555334
 30
0.0
  0
LINE
  5
1DD
330
1F
100
AcDbEntity
  8
0
  6
Continuous
 62
     8
370
    18
100
AcDbLine
 10
1238.9683852163
 20
1362.8214999262
 30
0.0
 11
1238.9665289103
 21
1360.8881307336
 31
0.0
  0
LINE
  5
1DE
330
1F
100
AcDbEntity
  8
0
  6
Continuous
 62
     8
370
    18
100
AcDbLine
 10
1238.9665289103
 20
1360.8881307336
 30
0.0
 11
1238.9663341877
 21
1360.6288198522
 31
0.0
  0
ARC
  5
1DF
330
1F
100
AcDbEntity
  8
0
  6
Continuous
 62
     8
370
    18
100
AcDbCircle
 10
1237.6391444338
 20
1363.6622496092
 30
0.0
 40
3.311061571942288
100
AcDbArc
 50
272.5612375306
 51
293.6303960838
  0
LINE
  5
1E0
330
1F
100
AcDbEntity
  8
0
  6
Continuous
 62
     8
370
    18
100
AcDbLine
 10
1230.0330346774
 20
1360.7999919064
 30
0.0
 11
1230.0334871294
 21
1360.9635290831
 31
0.0
  0
LINE
  5
1E1
330
1F
100
AcDbEntity
  8
0
  6
Continuous
 62
     8
370
    18
100
AcDbLine
 10
1230.0334871294
 20
1360.9635290831
 30
0.0
 11
1230.0341791097
 21
1362.853480843
 31
0.0
  0
ARC
  5
1E2
330
1F
100
AcDbEntity
  8
0
  6
Continuous
 62
     8
370
    18
100
AcDbCircle
 10
1231.4461412939
 20
1363.7512993161
 30
0.0
 40
3.272168353909809
100
AcDbArc
 50
244.4145746888
 51
267.6960401779
  0
LINE
  5
1E3
330
1F
100
AcDbEntity
  8
0
  6
Continuous
 62
     8
370
    18
100
AcDbLine
 10
1318.9820727138
 20
1360.9635290831
 30
0.0
 11
1318.9813807335
 21
1362.853480843
 31
0.0
  0
LINE
  5
1E4
330
1F
100
AcDbEntity
  8
0
  6
Continuous
 62
     8
370
    18
100
AcDbLine
 10
1318.9825251657
 20
1360.7999919064
 30
0.0
 11
1318.9820727138
 21
1360.9635290831
 31
0.0
  0
ARC
  5
1E5
330
1F
100
AcDbEntity
  8
0
  6
Continuous
 62
     8
370
    18
100
AcDbCircle
 10
1317.5694185493
 20
1363.7512993161
 30
0.0
 40
3.272168353914598
100
AcDbArc
 50
272.3039598221
 51
295.5854253112
  0
ARC
  5
1E6
330
1F
100
AcDbEntity
  8
0
  6
Continuous
 62
     8
370
    18
100
AcDbCircle
 10
1311.3764154094
 20
1363.6622496092
 30
0.0
 40
3.311061571939532
100
AcDbArc
 50
246.3696039162
 51
267.4387624694
  0
LINE
  5
1E7
330
1F
100
AcDbEntity
  8
0
  6
Continuous
 62
     8
370
    18
100
AcDbLine
 10
1310.0490309329
 20
1360.8881307336
 30
0.0
 11
1310.0492256555
 21
1360.6288198522
 31
0.0
  0
LINE
  5
1E8
330
1F
100
AcDbEntity
  8
0
  6
Continuous
 62
     8
370
    18
100
AcDbLine
 10
1310.0471746269
 20
1362.8214999262
 30
0.0
 11
1310.0490309329
 21
1360.8881307336
 31
0.0
  0
LINE
  5
1E9
330
1F
100
AcDbEntity
  8
0
  6
Continuous
 62
     8
370
    18
100
AcDbLine
 10
1308.2645345739
 20
1360.7825453886
 30
0.0
 11
1308.2395923298
 21
1361.0338869478
 31
0.0
  0
SPLINE
  5
1EA
330
1F
100
AcDbEntity
  8
0
  6
Continuous
 62
     8
370
    18
100
AcDbSpline
210
0.0
220
0.0
230
1.0
 70
     8
 71
     3
 72
    16
 73
    12
 74
     0
 42
0.000000001
 43
0.00000001
 40
0.0
 40
0.0
 40
0.0
 40
0.0
 40
0.0145165189495135
 40
0.0410735504098394
 40
0.066044914974628
 40
0.1244471088434776
 40
0.1776973916031766
 40
0.2535931192178729
 40
0.3633556422018402
 40
0.5223716192680726
 40
0.9999999999999999
 40
0.9999999999999999
 40
0.9999999999999999
 40
0.9999999999999999
 10
1310.346181724808
 20
1354.827766579643
 30
0.0
 10
1310.303519431161
 20
1354.829833729346
 30
0.0
 10
1310.182809233711
 20
1354.835682595581
 30
0.0
 10
1310.003647954013
 20
1354.880937976048
 30
0.0
 10
1309.764328787302
 20
1354.994995831168
 30
0.0
 10
1309.55675404729
 20
1355.183370943078
 30
0.0
 10
1309.3514602426
 20
1355.470753763311
 30
0.0
 10
1309.154394181295
 20
1355.8702983566
 30
0.0
 10
1308.939414937432
 20
1356.499293443839
 30
0.0
 10
1308.58096978657
 20
1357.990963433444
 30
0.0
 10
1308.400173213367
 20
1359.585945379626
 30
0.0
 10
1308.264534573925
 20
1360.782545388595
 30
0.0
  0
LINE
  5
1EB
330
1F
100
AcDbEntity
  8
0
  6
Continuous
 62
     8
370
    18
100
AcDbLine
 10
1318.6395313149
 20
1354.6092485382
 30
0.0
 11
1310.3461817248
 21
1354.8277665796
 31
0.0
  0
SPLINE
  5
1EC
330
1F
100
AcDbEntity
  8
0
  6
Continuous
 62
     8
370
    18
100
AcDbSpline
210
0.0
220
0.0
230
1.0
 70
     8
 71
     3
 72
    14
 73
    10
 74
     0
 42
0.000000001
 43
0.00000001
 40
0.0
 40
0.0
 40
0.0
 40
0.0
 40
0.2135072054014714
 40
0.65175041532562
 40
0.8731400298126394
 40
0.9340362681778082
 40
0.9607431005770721
 40
0.9801118651181894
 40
0.9999999999999999
 40
0.9999999999999999
 40
0.9999999999999999
 40
0.9999999999999999
 10
1320.835610002474
 20
1361.00126670069
 30
0.0
 10
1320.77936275131
 20
1360.407397832161
 30
0.0
 10
1320.607662834963
 20
1358.59455839667
 30
0.0
 10
1320.25017686198
 20
1356.540534434589
 30
0.0
 10
1319.798452977525
 20
1355.209078041959
 30
0.0
 10
1319.299413895718
 20
1354.758507471498
 30
0.0
 10
1319.029211562691
 20
1354.649628162652
 30
0.0
 10
1318.829143332636
 20
1354.610182224186
 30
0.0
 10
1318.703290334203
 20
1354.609562499848
 30
0.0
 10
1318.639531314899
 20
1354.60924853819
 30
0.0
  0
LINE
  5
1ED
330
1F
100
AcDbEntity
  8
0
  6
Continuous
 62
     8
370
    18
100
AcDbLine
 10
1320.8493969537
 20
1361.1583785602
 30
0.0
 11
1320.8356100025
 21
1361.0012667007
 31
0.0
  0
SPLINE
  5
1EE
330
1F
100
AcDbEntity
  8
0
  6
Continuous
 62
     8
370
    18
100
AcDbSpline
210
0.0
220
0.0
230
1.0
 70
     8
 71
     3
 72
    15
 73
    11
 74
     0
 42
0.000000001
 43
0.00000001
 40
0.0
 40
0.0
 40
0.0
 40
0.0
 40
0.0014239395057858
 40
0.1351061085576248
 40
0.2892216052154423
 40
0.4462432513906062
 40
0.5840152296265028
 40
0.7248088485654298
 40
0.8605044118101243
 40
0.9999999999999999
 40
0.9999999999999999
 40
0.9999999999999999
 40
0.9999999999999999
 10
1343.554562328654
 20
1352.712136996485
 30
0.0
 10
1343.560062396569
 20
1352.712139915948
 30
0.0
 10
1344.081919378375
 20
1352.712416920203
 30
0.0
 10
1345.131949572903
 20
1352.798771358794
 30
0.0
 10
1346.526193306523
 20
1353.264583998463
 30
0.0
 10
1347.677289900143
 20
1354.155123317665
 30
0.0
 10
1348.533821684685
 20
1355.438884392783
 30
0.0
 10
1349.077167294953
 20
1357.054904781561
 30
0.0
 10
1349.352456268352
 20
1359.035453497332
 30
0.0
 10
1349.250564990625
 20
1360.618584396976
 30
0.0
 10
1349.198915860034
 20
1361.42108031618
 30
0.0
  0
SPLINE
  5
1EF
330
1F
100
AcDbEntity
  8
0
  6
Continuous
 62
     8
370
    18
100
AcDbSpline
210
0.0
220
0.0
230
1.0
 70
     8
 71
     3
 72
    12
 73
     8
 74
     0
 42
0.000000001
 43
0.00000001
 40
0.0
 40
0.0
 40
0.0
 40
0.0
 40
0.1729070209294308
 40
0.3500592529376592
 40
0.6008939024630683
 40
0.8574899875492358
 40
1.0
 40
1.0
 40
1.0
 40
1.0
 10
1295.999693300188
 20
1361.038691008626
 30
0.0
 10
1295.050467927762
 20
1360.179227236275
 30
0.0
 10
1293.128711813089
 20
1358.439198147469
 30
0.0
 10
1289.508772495068
 20
1356.195886399337
 30
0.0
 10
1285.210174153426
 20
1354.348750085912
 30
0.0
 10
1281.013050601584
 20
1353.180493267655
 30
0.0
 10
1278.400807687549
 20
1353.021897155793
 30
0.0
 10
1277.468046267713
 20
1352.965266765991
 30
0.0
  0
SPLINE
  5
1F0
330
1F
100
AcDbEntity
  8
0
  6
Continuous
 62
     8
370
    18
100
AcDbSpline
210
0.0
220
0.0
230
1.0
 70
     8
 71
     3
 72
     9
 73
     5
 74
     0
 42
0.000000001
 43
0.00000001
 40
0.0
 40
0.0
 40
0.0
 40
0.0
 40
0.9809099457843522
 40
1.0
 40
1.0
 40
1.0
 40
1.0
 10
1275.952690167677
 20
1352.834475271583
 30
0.0
 10
1275.480609688301
 20
1352.773795632217
 30
0.0
 10
1274.999341778434
 20
1352.71193507139
 30
0.0
 10
1274.516988079841
 20
1352.712133213933
 30
0.0
 10
1274.507779921583
 20
1352.712136996485
 30
0.0
  0
ARC
  5
1F1
330
1F
100
AcDbEntity
  8
0
  6
Continuous
 62
     8
370
    18
100
AcDbCircle
 10
1240.3186767184
 20
1355.4065670191
 30
0.0
 40
5.645869680602325
100
AcDbArc
 50
85.3542029002
 51
103.8566348578
  0
ARC
  5
1F2
330
1F
100
AcDbEntity
  8
0
  6
Continuous
 62
     8
370
    18
100
AcDbCircle
 10
1308.6968831248
 20
1355.4065670191
 30
0.0
 40
5.645869680602748
100
AcDbArc
 50
76.1433651422
 51
94.6457970998
  0
ARC
  5
1F3
330
1F
100
AcDbEntity
  8
0
  6
Continuous
 62
     8
370
    18
100
AcDbCircle
 10
1320.481317365
 20
1355.6407392742
 30
0.0
 40
5.52990288111973
100
AcDbArc
 50
86.1834753414
 51
105.7306807766
  0
ARC
  5
1F4
330
1F
100
AcDbEntity
  8
0
  6
Continuous
 62
     8
370
    18
100
AcDbCircle
 10
1228.5342424782
 20
1355.6407392742
 30
0.0
 40
5.529902881120797
100
AcDbArc
 50
74.2693192234
 51
93.8165246586
  0
SPLINE
  5
1F5
330
1F
100
AcDbEntity
  8
0
  6
Continuous
 62
     8
370
    18
100
AcDbSpline
210
0.0
220
0.0
230
1.0
 70
     8
 71
     3
 72
    15
 73
    11
 74
     0
 42
0.000000001
 43
0.00000001
 40
0.0
 40
0.0
 40
0.0
 40
0.0
 40
0.0247383799946505
 40
0.0492201071029637
 40
0.0751567027976505
 40
0.1186953964311376
 40
0.2418825692051205
 40
0.4816368506398217
 40
0.8380569172747816
 40
1.0
 40
1.0
 40
1.0
 40
1.0
 10
1238.090007483645
 20
1414.77580806161
 30
0.0
 10
1238.130079805216
 20
1414.776707702721
 30
0.0
 10
1238.209808710666
 20
1414.77849765145
 30
0.0
 10
1238.324320640276
 20
1414.738116624462
 30
0.0
 10
1238.44353053585
 20
1414.659253068596
 30
0.0
 10
1238.632354007787
 20
1414.449316392775
 30
0.0
 10
1238.856160891174
 20
1413.913592063957
 30
0.0
 10
1238.951199310284
 20
1412.909797884601
 30
0.0
 10
1238.967303262862
 20
1411.807852705323
 30
0.0
 10
1238.968417579905
 20
1411.025240675207
 30
0.0
 10
1238.968765706382
 20
1410.780742961796
 30
0.0
  0
SPLINE
  5
1F6
330
1F
100
AcDbEntity
  8
0
  6
Continuous
 62
     8
370
    18
100
AcDbSpline
210
0.0
220
0.0
230
1.0
 70
     8
 71
     3
 72
     9
 73
     5
 74
     0
 42
0.000000001
 43
0.00000001
 40
0.0
 40
0.0
 40
0.0
 40
0.0
 40
0.3204572925053815
 40
1.0
 40
1.0
 40
1.0
 40
1.0
 10
1238.090007483645
 20
1414.77580806161
 30
0.0
 10
1238.014819317936
 20
1414.420807702523
 30
0.0
 10
1237.780191592284
 20
1413.313014659925
 30
0.0
 10
1237.733509230221
 20
1411.893969946459
 30
0.0
 10
1237.701786571513
 20
1410.929668459814
 30
0.0
  0
SPLINE
  5
1F7
330
1F
100
AcDbEntity
  8
0
  6
Continuous
 62
     8
370
    18
100
AcDbSpline
210
0.0
220
0.0
230
1.0
 70
     8
 71
     3
 72
    15
 73
    11
 74
     0
 42
0.000000001
 43
0.00000001
 40
0.0
 40
0.0
 40
0.0
 40
0.0
 40
0.0247383799946505
 40
0.0492201071029637
 40
0.0751567027976505
 40
0.1186953964311376
 40
0.2418825692051205
 40
0.4816368506398217
 40
0.8380569172747816
 40
1.0
 40
1.0
 40
1.0
 40
1.0
 10
1310.925552359521
 20
1414.77580806161
 30
0.0
 10
1310.88548003795
 20
1414.776707702721
 30
0.0
 10
1310.805751132501
 20
1414.77849765145
 30
0.0
 10
1310.69123920289
 20
1414.738116624462
 30
0.0
 10
1310.572029307316
 20
1414.659253068596
 30
0.0
 10
1310.38320583538
 20
1414.449316392775
 30
0.0
 10
1310.159398951992
 20
1413.913592063957
 30
0.0
 10
1310.064360532882
 20
1412.909797884601
 30
0.0
 10
1310.048256580304
 20
1411.807852705323
 30
0.0
 10
1310.047142263261
 20
1411.025240675207
 30
0.0
 10
1310.046794136784
 20
1410.780742961796
 30
0.0
  0
SPLINE
  5
1F8
330
1F
100
AcDbEntity
  8
0
  6
Continuous
 62
     8
370
    18
100
AcDbSpline
210
0.0
220
0.0
230
1.0
 70
     8
 71
     3
 72
     9
 73
     5
 74
     0
 42
0.000000001
 43
0.00000001
 40
0.0
 40
0.0
 40
0.0
 40
0.0
 40
0.3204572925053815
 40
1.0
 40
1.0
 40
1.0
 40
1.0
 10
1310.925552359521
 20
1414.77580806161
 30
0.0
 10
1311.00074052523
 20
1414.420807702523
 30
0.0
 10
1311.235368250882
 20
1413.313014659925
 30
0.0
 10
1311.282050612945
 20
1411.893969946459
 30
0.0
 10
1311.313773271653
 20
1410.929668459814
 30
0.0
  0
SPLINE
  5
1F9
330
1F
100
AcDbEntity
  8
0
  6
Continuous
 62
     8
370
    18
100
AcDbSpline
210
0.0
220
0.0
230
1.0
 70
     8
 71
     3
 72
     9
 73
     5
 74
     0
 42
0.000000001
 43
0.00000001
 40
0.0
 40
0.0
 40
0.0
 40
0.0
 40
0.6310361367052079
 40
0.9999999999999999
 40
0.9999999999999999
 40
0.9999999999999999
 40
0.9999999999999999
 10
1317.631372522195
 20
1410.929668459814
 30
0.0
 10
1317.661278257546
 20
1411.866149837898
 30
0.0
 10
1317.708669735801
 20
1413.350187476334
 30
0.0
 10
1317.963050419842
 20
1414.494359433294
 30
0.0
 10
1318.056907699774
 20
1414.916517538807
 30
0.0
  0
SPLINE
  5
1FA
330
1F
100
AcDbEntity
  8
0
  6
Continuous
 62
     8
370
    18
100
AcDbSpline
210
0.0
220
0.0
230
1.0
 70
     8
 71
     3
 72
    15
 73
    11
 74
     0
 42
0.000000001
 43
0.00000001
 40
0.0
 40
0.0
 40
0.0
 40
0.0
 40
0.309203105160586
 40
0.663838255257486
 40
0.8039861739636714
 40
0.9077221477257729
 40
0.9361281220494163
 40
0.9546919441403819
 40
0.9789089794125909
 40
1.0
 40
1.0
 40
1.0
 40
1.0
 10
1318.982752778312
 20
1410.757514924108
 30
0.0
 10
1318.982012728043
 20
1411.245234433836
 30
0.0
 10
1318.980423889927
 20
1412.292335394303
 30
0.0
 10
1318.970233220971
 20
1413.493521296993
 30
0.0
 10
1318.773227423454
 20
1414.349598977538
 30
0.0
 10
1318.568373903025
 20
1414.711728646526
 30
0.0
 10
1318.382285267305
 20
1414.86107134398
 30
0.0
 10
1318.275921585246
 20
1414.910430687405
 30
0.0
 10
1318.167251348766
 20
1414.93123240863
 30
0.0
 10
1318.091957286261
 20
1414.921191574034
 30
0.0
 10
1318.056907699774
 20
1414.916517538807
 30
0.0
  0
SPLINE
  5
1FB
330
1F
100
AcDbEntity
  8
0
  6
Continuous
 62
     8
370
    18
100
AcDbSpline
210
0.0
220
0.0
230
1.0
 70
     8
 71
     3
 72
    15
 73
    11
 74
     0
 42
0.000000001
 43
0.00000001
 40
0.0
 40
0.0
 40
0.0
 40
0.0
 40
0.309203105160586
 40
0.663838255257486
 40
0.8039861739636714
 40
0.9077221477257729
 40
0.9361281220494163
 40
0.9546919441403819
 40
0.9789089794125909
 40
1.0
 40
1.0
 40
1.0
 40
1.0
 10
1230.032807064855
 20
1410.757514924108
 30
0.0
 10
1230.033547115123
 20
1411.245234433836
 30
0.0
 10
1230.03513595324
 20
1412.292335394303
 30
0.0
 10
1230.045326622195
 20
1413.493521296993
 30
0.0
 10
1230.242332419712
 20
1414.349598977538
 30
0.0
 10
1230.447185940141
 20
1414.711728646526
 30
0.0
 10
1230.633274575861
 20
1414.86107134398
 30
0.0
 10
1230.73963825792
 20
1414.910430687405
 30
0.0
 10
1230.8483084944
 20
1414.93123240863
 30
0.0
 10
1230.923602556906
 20
1414.921191574034
 30
0.0
 10
1230.958652143393
 20
1414.916517538807
 30
0.0
  0
SPLINE
  5
1FC
330
1F
100
AcDbEntity
  8
0
  6
Continuous
 62
     8
370
    18
100
AcDbSpline
210
0.0
220
0.0
230
1.0
 70
     8
 71
     3
 72
     9
 73
     5
 74
     0
 42
0.000000001
 43
0.00000001
 40
0.0
 40
0.0
 40
0.0
 40
0.0
 40
0.6310361367052079
 40
0.9999999999999999
 40
0.9999999999999999
 40
0.9999999999999999
 40
0.9999999999999999
 10
1231.384187320971
 20
1410.929668459814
 30
0.0
 10
1231.35428158562
 20
1411.866149837898
 30
0.0
 10
1231.306890107365
 20
1413.350187476334
 30
0.0
 10
1231.052509423324
 20
1414.494359433294
 30
0.0
 10
1230.958652143393
 20
1414.916517538807
 30
0.0
  0
LINE
  5
1FD
330
1F
100
AcDbEntity
  8
0
  6
Continuous
 62
     8
370
    18
100
AcDbLine
 10
1230.9586521434
 20
1414.9165175388
 30
0.0
 11
1238.0900074836
 21
1414.7758080616
 31
0.0
  0
LINE
  5
1FE
330
1F
100
AcDbEntity
  8
0
  6
Continuous
 62
     8
370
    18
100
AcDbLine
 10
1318.0569076998
 20
1414.9165175388
 30
0.0
 11
1310.9255523595
 21
1414.7758080616
 31
0.0
  0
ARC
  5
1FF
330
1F
100
AcDbEntity
  8
0
  6
Continuous
 62
     8
370
    18
100
AcDbCircle
 10
1144.3343278551
 20
1417.8413053522
 30
0.0
 40
93.80578199794552
100
AcDbArc
 50
358.1272867192
 51
358.5922936386
  0
ARC
  5
200
330
1F
100
AcDbEntity
  8
0
  6
Continuous
 62
     8
370
    18
100
AcDbCircle
 10
1404.6812320045
 20
1417.8413053527
 30
0.0
 40
93.80578201444628
100
AcDbArc
 50
181.4077063615
 51
181.8727132808
  0
ARC
  5
201
330
1F
100
AcDbEntity
  8
0
  6
Continuous
 62
     8
370
    18
100
AcDbCircle
 10
1190.3861690284
 20
1417.842013204
 30
0.0
 40
40.67781841497477
100
AcDbArc
 50
355.8758017505
 51
356.9247251143
  0
ARC
  5
202
330
1F
100
AcDbEntity
  8
0
  6
Continuous
 62
     8
370
    18
100
AcDbCircle
 10
1358.6293908129
 20
1417.8420132039
 30
0.0
 40
40.67781841316139
100
AcDbArc
 50
183.0752748857
 51
184.1241982496
  0
ARC
  5
203
330
1F
100
AcDbEntity
  8
0
  6
Continuous
 62
     8
370
    18
100
AcDbCircle
 10
1308.6923582164
 20
1355.3127719275
 30
0.0
 40
5.486479270460705
100
AcDbArc
 50
75.6815438811
 51
94.47233966
  0
SPLINE
  5
204
330
1F
100
AcDbEntity
  8
0
  6
Continuous
 62
     8
370
    18
100
AcDbSpline
210
0.0
220
0.0
230
1.0
 70
     8
 71
     3
 72
    19
 73
    15
 74
     0
 42
0.000000001
 43
0.00000001
 40
0.0
 40
0.0
 40
0.0
 40
0.0
 40
0.5108655809785132
 40
0.6773161886274568
 40
0.7897294814090566
 40
0.8649135704138774
 40
0.9149987759643927
 40
0.9638937301973749
 40
0.9805048002912536
 40
0.9864047265890653
 40
0.992357364345202
 40
0.9937773259466397
 40
0.9978992913798035
 40
1.0
 40
1.0
 40
1.0
 40
1.0
 10
1310.049225655508
 20
1360.628819852188
 30
0.0
 10
1310.048276017489
 20
1359.449722430394
 30
0.0
 10
1310.047016967697
 20
1357.886450600219
 30
0.0
 10
1310.045250124456
 20
1356.464549489623
 30
0.0
 10
1310.052340200052
 20
1355.882631178843
 30
0.0
 10
1310.069440542008
 20
1355.521327827312
 30
0.0
 10
1310.102628248428
 20
1355.271337859773
 30
0.0
 10
1310.144302412268
 20
1355.113149910407
 30
0.0
 10
1310.212537348013
 20
1355.022317569596
 30
0.0
 10
1310.25782539463
 20
1354.991012727832
 30
0.0
 10
1310.286732313877
 20
1354.9792094258
 30
0.0
 10
1310.315942710377
 20
1354.972717456508
 30
0.0
 10
1310.337441179633
 20
1354.970402478142
 30
0.0
 10
1310.35480813043
 20
1354.971017820351
 30
0.0
 10
1310.360671028427
 20
1354.97122555334
 30
0.0
  0
ARC
  5
205
330
1F
100
AcDbEntity
  8
0
  6
Continuous
 62
     8
370
    18
100
AcDbCircle
 10
1317.5415787641
 20
1354.1734953172
 30
0.0
 40
7.225081967576136
100
AcDbArc
 50
173.6609778952
 51
174.8044317997
  0
SPLINE
  5
206
330
1F
100
AcDbEntity
  8
0
  6
Continuous
 62
     8
370
    18
100
AcDbSpline
210
0.0
220
0.0
230
1.0
 70
     8
 71
     3
 72
    19
 73
    15
 74
     0
 42
0.000000001
 43
0.00000001
 40
0.0
 40
0.0
 40
0.0
 40
0.0
 40
0.5108655809785131
 40
0.6773161886274567
 40
0.7897294814090564
 40
0.8649135704138772
 40
0.9149987759643925
 40
0.9638937301973747
 40
0.9805048002912534
 40
0.9864047265890651
 40
0.9923573643452023
 40
0.9937773259466397
 40
0.9978992913798035
 40
1.0
 40
1.0
 40
1.0
 40
1.0
 10
1238.966334187658
 20
1360.628819852188
 30
0.0
 10
1238.967283825677
 20
1359.449722430394
 30
0.0
 10
1238.96854287547
 20
1357.886450600219
 30
0.0
 10
1238.970309718711
 20
1356.464549489623
 30
0.0
 10
1238.963219643114
 20
1355.882631178843
 30
0.0
 10
1238.946119301159
 20
1355.521327827312
 30
0.0
 10
1238.912931594739
 20
1355.271337859773
 30
0.0
 10
1238.871257430899
 20
1355.113149910407
 30
0.0
 10
1238.803022495154
 20
1355.022317569596
 30
0.0
 10
1238.757734448537
 20
1354.991012727832
 30
0.0
 10
1238.728827529289
 20
1354.979209425799
 30
0.0
 10
1238.699617132789
 20
1354.972717456508
 30
0.0
 10
1238.678118663534
 20
1354.970402478142
 30
0.0
 10
1238.660751712737
 20
1354.971017820351
 30
0.0
 10
1238.654888814739
 20
1354.97122555334
 30
0.0
  0
ARC
  5
207
330
1F
100
AcDbEntity
  8
0
  6
Continuous
 62
     8
370
    18
100
AcDbCircle
 10
1240.3232016267
 20
1355.3127719274
 30
0.0
 40
5.486479270483668
100
AcDbArc
 50
85.5276603397
 51
104.3184561189
  0
ARC
  5
208
330
1F
100
AcDbEntity
  8
0
  6
Continuous
 62
     8
370
    18
100
AcDbCircle
 10
1231.4739810792
 20
1354.1734953172
 30
0.0
 40
7.225081967462341
100
AcDbArc
 50
5.1955682005
 51
6.339022105
  0
ARC
  5
209
330
1F
100
AcDbEntity
  8
0
  6
Continuous
 62
     8
370
    18
100
AcDbCircle
 10
1321.4380235741
 20
1354.0295162926
 30
0.0
 40
2.857909795881478
100
AcDbArc
 50
165.3419899913
 51
168.2962236796
  0
SPLINE
  5
20A
330
1F
100
AcDbEntity
  8
0
  6
Continuous
 62
     8
370
    18
100
AcDbSpline
210
0.0
220
0.0
230
1.0
 70
     8
 71
     3
 72
    17
 73
    13
 74
     0
 42
0.000000001
 43
0.00000001
 40
0.0
 40
0.0
 40
0.0
 40
0.0
 40
0.0045109817899505
 40
0.0089278415503377
 40
0.0130797684277632
 40
0.01777779217689
 40
0.0339670776357905
 40
0.0840600072516069
 40
0.3047425979556616
 40
0.7692822253149052
 40
0.8273200843747941
 40
1.0
 40
1.0
 40
1.0
 40
1.0
 10
1318.673128845231
 20
1354.752707511889
 30
0.0
 10
1318.686098336251
 20
1354.750943723077
 30
0.0
 10
1318.711766708729
 20
1354.747452947063
 30
0.0
 10
1318.752642718822
 20
1354.74916748286
 30
0.0
 10
1318.790003408924
 20
1354.75748838871
 30
0.0
 10
1318.845933431844
 20
1354.782158440146
 30
0.0
 10
1318.930439562724
 20
1354.875370631957
 30
0.0
 10
1319.024714553863
 20
1355.279314573284
 30
0.0
 10
1318.991914448766
 20
1356.470427942534
 30
0.0
 10
1318.991257132056
 20
1358.067540469107
 30
0.0
 10
1318.985331436504
 20
1359.754190306046
 30
0.0
 10
1318.983726428438
 20
1360.3523221838
 30
0.0
 10
1318.982525165736
 20
1360.799991906362
 30
0.0
  0
ARC
  5
20B
330
1F
100
AcDbEntity
  8
0
  6
Continuous
 62
     8
370
    18
100
AcDbCircle
 10
1320.4871235704
 20
1355.5786177395
 30
0.0
 40
5.433835160327259
100
AcDbArc
 50
86.3229443242
 51
106.074938564
  0
SPLINE
  5
20C
330
1F
100
AcDbEntity
  8
0
  6
Continuous
 62
     8
370
    18
100
AcDbSpline
210
0.0
220
0.0
230
1.0
 70
     8
 71
     3
 72
    17
 73
    13
 74
     0
 42
0.000000001
 43
0.00000001
 40
0.0
 40
0.0
 40
0.0
 40
0.0
 40
0.0045109817899505
 40
0.0089278415503377
 40
0.0130797684277632
 40
0.01777779217689
 40
0.0339670776357905
 40
0.0840600072516069
 40
0.3047425979556616
 40
0.7692822253149052
 40
0.8273200843747941
 40
1.0
 40
1.0
 40
1.0
 40
1.0
 10
1230.342430997936
 20
1354.752707511889
 30
0.0
 10
1230.329461506915
 20
1354.750943723077
 30
0.0
 10
1230.303793134437
 20
1354.747452947063
 30
0.0
 10
1230.262917124344
 20
1354.74916748286
 30
0.0
 10
1230.225556434242
 20
1354.75748838871
 30
0.0
 10
1230.169626411322
 20
1354.782158440146
 30
0.0
 10
1230.085120280442
 20
1354.875370631957
 30
0.0
 10
1229.990845289303
 20
1355.279314573284
 30
0.0
 10
1230.0236453944
 20
1356.470427942534
 30
0.0
 10
1230.02430271111
 20
1358.067540469107
 30
0.0
 10
1230.030228406662
 20
1359.754190306046
 30
0.0
 10
1230.031833414728
 20
1360.3523221838
 30
0.0
 10
1230.03303467743
 20
1360.799991906362
 30
0.0
  0
ARC
  5
20D
330
1F
100
AcDbEntity
  8
0
  6
Continuous
 62
     8
370
    18
100
AcDbCircle
 10
1227.5775362695
 20
1354.0295162927
 30
0.0
 40
2.857909795480059
100
AcDbArc
 50
11.7037763201
 51
14.6580100088
  0
ARC
  5
20E
330
1F
100
AcDbEntity
  8
0
  6
Continuous
 62
     8
370
    18
100
AcDbCircle
 10
1228.5284362728
 20
1355.5786177394
 30
0.0
 40
5.43383516039441
100
AcDbArc
 50
73.9250614362
 51
93.677055676
  0
SPLINE
  5
20F
330
1F
100
AcDbEntity
  8
0
  6
Continuous
 62
     8
370
    18
100
AcDbSpline
210
0.0
220
0.0
230
1.0
 70
     8
 71
     3
 72
    20
 73
    16
 74
     0
 42
0.000000001
 43
0.00000001
 40
0.0
 40
0.0
 40
0.0
 40
0.0
 40
0.0177553498927665
 40
0.0895541770723949
 40
0.1635124813712813
 40
0.2505819007214778
 40
0.3150328805895259
 40
0.3805147797652316
 40
0.4675444081230345
 40
0.5694410813320727
 40
0.6754503316775968
 40
0.7871440412594524
 40
0.8785532165774714
 40
0.9388623767392661
 40
1.0
 40
1.0
 40
1.0
 40
1.0
 10
1350.646327056819
 20
1361.974193036835
 30
0.0
 10
1350.635623126619
 20
1362.223301395977
 30
0.0
 10
1350.581634798238
 20
1363.479750536074
 30
0.0
 10
1350.646417106918
 20
1365.962897493364
 30
0.0
 10
1351.089426048921
 20
1369.7587789669
 30
0.0
 10
1351.844288863421
 20
1373.611922067074
 30
0.0
 10
1352.754580451396
 20
1377.365737140355
 30
0.0
 10
1353.751546816469
 20
1381.116888319138
 30
0.0
 10
1354.95544442098
 20
1385.453625260585
 30
0.0
 10
1356.231389718875
 20
1390.271095910433
 30
0.0
 10
1357.502566375271
 20
1395.010006265292
 30
0.0
 10
1358.694262381701
 20
1398.926474174851
 30
0.0
 10
1359.699857817053
 20
1401.606684967673
 30
0.0
 10
1360.42983785916
 20
1403.35836787199
 30
0.0
 10
1360.753624762539
 20
1404.076570122688
 30
0.0
 10
1360.916622588893
 20
1404.438120897363
 30
0.0
  0
ARC
  5
210
330
1F
100
AcDbEntity
  8
0
  6
Continuous
 62
     8
370
    18
100
AcDbCircle
 10
1351.2761072563
 20
1358.1557718352
 30
0.0
 40
3.870008213486576
100
AcDbArc
 50
99.3655973717
 51
122.4620469832
  0
ARC
  5
211
330
1F
100
AcDbEntity
  8
0
  6
Continuous
 62
     8
370
    18
100
AcDbCircle
 10
1353.666530697
 20
1401.3628560655
 30
0.0
 40
7.875346736961697
100
AcDbArc
 50
22.4525517105
 51
22.9851555302
  0
SPLINE
  5
212
330
1F
100
AcDbEntity
  8
0
  6
Continuous
 62
     8
370
    18
100
AcDbSpline
210
0.0
220
0.0
230
1.0
 70
     8
 71
     3
 72
    19
 73
    15
 74
     0
 42
0.000000001
 43
0.00000001
 40
0.0
 40
0.0
 40
0.0
 40
0.0
 40
0.0812843755281375
 40
0.1625926981205919
 40
0.2503967158277944
 40
0.3382767484838726
 40
0.4242704765567137
 40
0.510246220949112
 40
0.5965701789596967
 40
0.6829065819723052
 40
0.7657398742054035
 40
0.8485711078275142
 40
0.9243009273350651
 40
1.0
 40
1.0
 40
1.0
 40
1.0
 10
1350.712384357527
 20
1361.98371182204
 30
0.0
 10
1350.703513869737
 20
1363.161670242091
 30
0.0
 10
1350.685770280835
 20
1365.517934118704
 30
0.0
 10
1351.165346310719
 20
1369.613352823248
 30
0.0
 10
1352.021099139188
 20
1373.991156784883
 30
0.0
 10
1353.144843211119
 20
1378.528518945015
 30
0.0
 10
1354.360859828452
 20
1383.000170986411
 30
0.0
 10
1355.544281699896
 20
1387.325142428239
 30
0.0
 10
1356.617072113541
 20
1391.419497945335
 30
0.0
 10
1357.61777282438
 20
1395.116736583157
 30
0.0
 10
1358.590698503076
 20
1398.325831124898
 30
0.0
 10
1359.501420452659
 20
1400.930695022269
 30
0.0
 10
1360.338950395367
 20
1403.003612805896
 30
0.0
 10
1360.742941240598
 20
1403.91499554827
 30
0.0
 10
1360.944895649102
 20
1404.370594393713
 30
0.0
  0
ARC
  5
213
330
1F
100
AcDbEntity
  8
0
  6
Continuous
 62
     8
370
    18
100
AcDbCircle
 10
1347.6080704245
 20
1383.2926821854
 30
0.0
 40
21.53390310510489
100
AcDbArc
 50
278.111027532
 51
278.2886032801
  0
SPLINE
  5
214
330
1F
100
AcDbEntity
  8
0
  6
Continuous
 62
     8
370
    18
100
AcDbSpline
210
0.0
220
0.0
230
1.0
 70
     8
 71
     3
 72
    30
 73
    26
 74
     0
 42
0.000000001
 43
0.00000001
 40
0.0
 40
0.0
 40
0.0
 40
0.0
 40
0.0367442153817575
 40
0.0737232841850677
 40
0.111041336740652
 40
0.148808577200663
 40
0.1888707208560454
 40
0.2291780738353264
 40
0.2702466874566162
 40
0.311575936970002
 40
0.3541334999732087
 40
0.3969808370193869
 40
0.4407360718523627
 40
0.4848040276228704
 40
0.5276706400319179
 40
0.570826668246634
 40
0.6148725539342165
 40
0.6592220198760967
 40
0.7025795290829526
 40
0.7462563583192048
 40
0.7910386023489433
 40
0.8362596963443323
 40
0.9039599048262003
 40
0.9728711860774638
 40
1.0
 40
1.0
 40
1.0
 40
1.0
 10
1363.824277590713
 20
1402.046470709003
 30
0.0
 10
1363.709757381843
 20
1401.889189485639
 30
0.0
 10
1363.479984999557
 20
1401.573621764119
 30
0.0
 10
1363.06111341497
 20
1400.929421553916
 30
0.0
 10
1362.598384165486
 20
1400.160480090045
 30
0.0
 10
1362.087106611308
 20
1399.239707550614
 30
0.0
 10
1361.538985379306
 20
1398.165544532834
 30
0.0
 10
1360.96258200621
 20
1396.929431504396
 30
0.0
 10
1360.382354677338
 20
1395.551527055329
 30
0.0
 10
1359.792930418227
 20
1394.024914498945
 30
0.0
 10
1359.189786319782
 20
1392.361371260245
 30
0.0
 10
1358.56475048525
 20
1390.56034444485
 30
0.0
 10
1357.918017897913
 20
1388.644884581443
 30
0.0
 10
1357.252909339478
 20
1386.650783098093
 30
0.0
 10
1356.562064468819
 20
1384.607846473644
 30
0.0
 10
1355.844997264049
 20
1382.523194084409
 30
0.0
 10
1355.110691003039
 20
1380.381856392438
 30
0.0
 10
1354.383866058712
 20
1378.214066296806
 30
0.0
 10
1353.688426728226
 20
1376.039009233156
 30
0.0
 10
1353.041880951401
 20
1373.853466009546
 30
0.0
 10
1352.462889800129
 20
1371.646252753931
 30
0.0
 10
1351.899562854743
 20
1369.073537660577
 30
0.0
 10
1351.463863130524
 20
1366.189728728508
 30
0.0
 10
1351.333499238518
 20
1363.74330545404
 30
0.0
 10
1351.384639517422
 20
1362.425666371442
 30
0.0
 10
1351.399085308087
 20
1362.053467807664
 30
0.0
  0
ARC
  5
215
330
1F
100
AcDbEntity
  8
0
  6
Continuous
 62
     8
370
    18
100
AcDbCircle
 10
1351.5344659223
 20
1357.3058029299
 30
0.0
 40
4.749594688238063
100
AcDbArc
 50
91.6333580123
 51
99.9672112785
  0
ARC
  5
216
330
1F
100
AcDbEntity
  8
0
  6
Continuous
 62
     8
370
    18
100
AcDbCircle
 10
1363.9371929383
 20
1405.1320732928
 30
0.0
 40
3.087667919414041
100
AcDbArc
 50
194.2775571615
 51
267.9042384386
  0
SPLINE
  5
217
330
1F
100
AcDbEntity
  8
0
  6
Continuous
 62
     8
370
    18
100
AcDbSpline
210
0.0
220
0.0
230
1.0
 70
     8
 71
     3
 72
     9
 73
     5
 74
     0
 42
0.000000001
 43
0.00000001
 40
0.0
 40
0.0
 40
0.0
 40
0.0
 40
0.4955319650024687
 40
1.0
 40
1.0
 40
1.0
 40
1.0
 10
1364.40561434811
 20
1402.712136996485
 30
0.0
 10
1364.359359239533
 20
1402.684049477657
 30
0.0
 10
1364.266014890746
 20
1402.627367929723
 30
0.0
 10
1363.972397951232
 20
1402.241253231898
 30
0.0
 10
1363.824277590713
 20
1402.046470709003
 30
0.0
  0
SPLINE
  5
218
330
1F
100
AcDbEntity
  8
0
  6
Continuous
 62
     8
370
    18
100
AcDbSpline
210
0.0
220
0.0
230
1.0
 70
     8
 71
     3
 72
    10
 73
     6
 74
     0
 42
0.000000001
 43
0.00000001
 40
0.0
 40
0.0
 40
0.0
 40
0.0
 40
0.4337470054426096
 40
0.8726448366891217
 40
1.0
 40
1.0
 40
1.0
 40
1.0
 10
1347.736481710033
 20
1353.482708216841
 30
0.0
 10
1347.703522758924
 20
1353.288625633072
 30
0.0
 10
1347.637213463074
 20
1352.898155699005
 30
0.0
 10
1347.560767790915
 20
1352.727158311047
 30
0.0
 10
1347.517509159447
 20
1352.714895098372
 30
0.0
 10
1347.507779921583
 20
1352.712136996485
 30
0.0
  0
SPLINE
  5
219
330
1F
100
AcDbEntity
  8
0
  6
Continuous
 62
     8
370
    18
100
AcDbSpline
210
0.0
220
0.0
230
1.0
 70
     8
 71
     3
 72
    13
 73
     9
 74
     0
 42
0.000000001
 43
0.00000001
 40
0.0
 40
0.0
 40
0.0
 40
0.0
 40
0.1663795665670601
 40
0.3327993424822734
 40
0.5326933616013211
 40
0.7327069656730665
 40
0.9440944502581979
 40
1.0
 40
1.0
 40
1.0
 40
1.0
 10
1351.399085308087
 20
1362.053467807664
 30
0.0
 10
1351.409079900506
 20
1361.350742271396
 30
0.0
 10
1351.429071500761
 20
1359.945121369499
 30
0.0
 10
1351.096304662809
 20
1357.989793377377
 30
0.0
 10
1350.429799713748
 20
1356.228939835087
 30
0.0
 10
1349.449668265059
 20
1354.733392890722
 30
0.0
 10
1348.265942229004
 20
1353.92533556896
 30
0.0
 10
1347.828065593251
 20
1353.55927205923
 30
0.0
 10
1347.736481710033
 20
1353.482708216841
 30
0.0
  0
SPLINE
  5
21A
330
1F
100
AcDbEntity
  8
0
  6
Continuous
 62
     8
370
    18
100
AcDbSpline
210
0.0
220
0.0
230
1.0
 70
     8
 71
     3
 72
    12
 73
     8
 74
     0
 42
0.000000001
 43
0.00000001
 40
0.0
 40
0.0
 40
0.0
 40
0.0
 40
0.2584254149750846
 40
0.5253727836647518
 40
0.6325637335472101
 40
0.814100555412947
 40
1.0
 40
1.0
 40
1.0
 40
1.0
 10
1347.507779921585
 20
1353.481541345137
 30
0.0
 10
1348.014085568541
 20
1353.863766922199
 30
0.0
 10
1349.043393027144
 20
1354.640822520342
 30
0.0
 10
1349.889504076913
 20
1356.255898725361
 30
0.0
 10
1350.400723156753
 20
1357.982188193269
 30
0.0
 10
1350.682939947554
 20
1359.664210580848
 30
0.0
 10
1350.658627575142
 20
1361.198128078427
 30
0.0
 10
1350.646327056819
 20
1361.974193036835
 30
0.0
  0
SPLINE
  5
21B
330
1F
100
AcDbEntity
  8
0
  6
Continuous
 62
     8
370
    18
100
AcDbSpline
210
0.0
220
0.0
230
1.0
 70
     8
 71
     3
 72
    11
 73
     7
 74
     0
 42
0.000000001
 43
0.00000001
 40
0.0
 40
0.0
 40
0.0
 40
0.0
 40
0.2821978531715165
 40
0.5662711511816111
 40
0.995686545031333
 40
1.0
 40
1.0
 40
1.0
 40
1.0
 10
1347.507779921585
 20
1353.481541345137
 30
0.0
 10
1347.180655255971
 20
1353.343665606277
 30
0.0
 10
1346.524231903011
 20
1353.066997826964
 30
0.0
 10
1345.23136065383
 20
1352.787570814641
 30
0.0
 10
1344.211064673525
 20
1352.712416703515
 30
0.0
 10
1343.561026985782
 20
1352.712139750793
 30
0.0
 10
1343.554562328654
 20
1352.712136996485
 30
0.0
  0
SPLINE
  5
21C
330
1F
100
AcDbEntity
  8
0
  6
Continuous
 62
     8
370
    18
100
AcDbSpline
210
0.0
220
0.0
230
1.0
 70
     8
 71
     3
 72
    14
 73
    10
 74
     0
 42
0.000000001
 43
0.00000001
 40
0.0
 40
0.0
 40
0.0
 40
0.0
 40
0.0665232667018164
 40
0.1346138509585659
 40
0.2705263731886159
 40
0.4679094570369359
 40
0.669725241607237
 40
0.8332896955030697
 40
1.0
 40
1.0
 40
1.0
 40
1.0
 10
1347.696122570895
 20
1353.482769379658
 30
0.0
 10
1347.783260519126
 20
1353.574426117488
 30
0.0
 10
1347.959589424147
 20
1353.75989906639
 30
0.0
 10
1348.494229547647
 20
1354.185216767443
 30
0.0
 10
1349.164049307007
 20
1354.942490366903
 30
0.0
 10
1349.922609096503
 20
1356.240755800194
 30
0.0
 10
1350.456279245334
 20
1357.978504574571
 30
0.0
 10
1350.738048802332
 20
1359.906070030857
 30
0.0
 10
1350.720993323324
 20
1361.286780824497
 30
0.0
 10
1350.712384357527
 20
1361.98371182204
 30
0.0
  0
ARC
  5
21D
330
1F
100
AcDbEntity
  8
0
  6
Continuous
 62
     8
370
    18
100
AcDbCircle
 10
1347.5077801251
 20
1367.9251031385
 30
0.0
 40
14.44356179335819
100
AcDbArc
 50
269.9999991926
 51
270.747151793
  0
ARC
  5
21E
330
1F
100
AcDbEntity
  8
0
  6
Continuous
 62
     8
370
    18
100
AcDbCircle
 10
1347.7116165636
 20
1350.3908954334
 30
0.0
 40
3.091912767736794
100
AcDbArc
 50
89.5392226717
 51
90.2871180955
  0
SPLINE
  5
21F
330
1F
100
AcDbEntity
  8
0
  6
Continuous
 62
     8
370
    18
100
AcDbSpline
210
0.0
220
0.0
230
1.0
 70
     8
 71
     3
 72
    10
 73
     6
 74
     0
 42
0.000000001
 43
0.00000001
 40
0.0
 40
0.0
 40
0.0
 40
0.0
 40
0.0149525925089902
 40
0.5037698573839661
 40
1.0
 40
1.0
 40
1.0
 40
1.0
 10
1347.507779921583
 20
1352.712136996485
 30
0.0
 10
1347.508720499939
 20
1352.712177659624
 30
0.0
 10
1347.540409655116
 20
1352.713547647075
 30
0.0
 10
1347.603409709836
 20
1352.831149984155
 30
0.0
 10
1347.665063627038
 20
1353.264475930507
 30
0.0
 10
1347.696122570895
 20
1353.482769379658
 30
0.0
  0
LINE
  5
220
330
1F
100
AcDbEntity
  8
0
  6
Continuous
 62
     8
370
    18
100
AcDbLine
 10
1347.5077799216
 20
1352.7121369965
 30
0.0
 11
1347.5077799216
 21
1353.4815413451
 31
0.0
  0
SPLINE
  5
221
330
1F
100
AcDbEntity
  8
0
  6
Continuous
 62
     8
370
    18
100
AcDbSpline
210
0.0
220
0.0
230
1.0
 70
     8
 71
     3
 72
     9
 73
     5
 74
     0
 42
0.000000001
 43
0.00000001
 40
0.0
 40
0.0
 40
0.0
 40
0.0
 40
0.4953932977280406
 40
1.0
 40
1.0
 40
1.0
 40
1.0
 10
1360.944895649102
 20
1404.370594393713
 30
0.0
 10
1361.0641706012
 20
1404.630067492418
 30
0.0
 10
1361.304938800214
 20
1405.153839412415
 30
0.0
 10
1361.382131004024
 20
1405.313015945557
 30
0.0
 10
1361.42108270743
 20
1405.393337491025
 30
0.0
  0
LINE
  5
222
330
1F
100
AcDbEntity
  8
0
  6
Continuous
 62
     8
370
    18
100
AcDbLine
 10
962.0077799216
 20
1434.158575496
 30
0.0
 11
962.0077799216
 21
1433.158575496
 31
0.0
  0
LINE
  5
223
330
1F
100
AcDbEntity
  8
0
  6
Continuous
 62
     8
370
    18
100
AcDbLine
 10
1587.0077799216
 20
1433.158575496
 30
0.0
 11
1587.0077799216
 21
1434.158575496
 31
0.0
  0
LINE
  5
224
330
1F
100
AcDbEntity
  8
0
  6
Continuous
 62
     8
370
    18
100
AcDbLine
 10
982.5077799216
 20
1427.4327160177
 30
0.0
 11
984.5077799216
 21
1427.4327160177
 31
0.0
  0
LINE
  5
225
330
1F
100
AcDbEntity
  8
0
  6
Continuous
 62
     8
370
    18
100
AcDbLine
 10
984.5077799216
 20
1425.6201004436
 30
0.0
 11
982.5077799216
 21
1425.6201004436
 31
0.0
  0
LINE
  5
226
330
1F
100
AcDbEntity
  8
0
  6
Continuous
 62
     8
370
    18
100
AcDbLine
 10
982.5077799216
 20
1418.361801159
 30
0.0
 11
984.5077799216
 21
1418.361801159
 31
0.0
  0
LINE
  5
227
330
1F
100
AcDbEntity
  8
0
  6
Continuous
 62
     8
370
    18
100
AcDbLine
 10
984.5077799216
 20
1416.5491855849
 30
0.0
 11
982.5077799216
 21
1416.5491855849
 31
0.0
  0
LINE
  5
228
330
1F
100
AcDbEntity
  8
0
  6
Continuous
 62
     8
370
    18
100
AcDbLine
 10
982.5077799216
 20
1382.258575496
 30
0.0
 11
984.5077799216
 21
1382.258575496
 31
0.0
  0
LINE
  5
229
330
1F
100
AcDbEntity
  8
0
  6
Continuous
 62
     8
370
    18
100
AcDbLine
 10
1564.5077799216
 20
1427.4327160177
 30
0.0
 11
1566.5077799216
 21
1427.4327160177
 31
0.0
  0
LINE
  5
22A
330
1F
100
AcDbEntity
  8
0
  6
Continuous
 62
     8
370
    18
100
AcDbLine
 10
1566.5077799216
 20
1425.6201004436
 30
0.0
 11
1564.5077799216
 21
1425.6201004436
 31
0.0
  0
LINE
  5
22B
330
1F
100
AcDbEntity
  8
0
  6
Continuous
 62
     8
370
    18
100
AcDbLine
 10
1564.5077799216
 20
1418.361801159
 30
0.0
 11
1566.5077799216
 21
1418.361801159
 31
0.0
  0
LINE
  5
22C
330
1F
100
AcDbEntity
  8
0
  6
Continuous
 62
     8
370
    18
100
AcDbLine
 10
1566.5077799216
 20
1416.5491855849
 30
0.0
 11
1564.5077799216
 21
1416.5491855849
 31
0.0
  0
LINE
  5
22D
330
1F
100
AcDbEntity
  8
0
  6
Continuous
 62
     8
370
    18
100
AcDbLine
 10
1564.5077799216
 20
1382.258575496
 30
0.0
 11
1566.5077799216
 21
1382.258575496
 31
0.0
  0
SPLINE
  5
22E
330
1F
100
AcDbEntity
  8
0
  6
Continuous
 62
     7
370
    35
100
AcDbSpline
210
0.0
220
0.0
230
1.0
 70
     8
 71
     3
 72
    21
 73
    17
 74
     0
 42
0.000000001
 43
0.00000001
 40
0.0
 40
0.0
 40
0.0
 40
0.0
 40
0.0194297446417309
 40
0.1063134160535437
 40
0.1971827435429539
 40
0.2431269965575945
 40
0.2877601062883911
 40
0.3091647742104971
 40
0.3297204036239546
 40
0.3691429066007154
 40
0.4450527365625956
 40
0.5209828835672876
 40
0.6006991125028619
 40
0.7803290563712652
 40
0.9937101053062656
 40
1.0
 40
1.0
 40
1.0
 40
1.0
 10
1987.266600026607
 20
1415.403095242173
 30
0.0
 10
1987.229586530804
 20
1415.492217029919
 30
0.0
 10
1987.027060391043
 20
1415.979863258666
 30
0.0
 10
1986.395174833233
 20
1416.754296423602
 30
0.0
 10
1985.533315361314
 20
1417.463053749527
 30
0.0
 10
1984.755166873446
 20
1417.90826970928
 30
0.0
 10
1984.223435449647
 20
1418.123120946609
 30
0.0
 10
1983.961573304363
 20
1418.469273968784
 30
0.0
 10
1983.836214427577
 20
1418.844054885812
 30
0.0
 10
1983.884837879716
 20
1419.471736645229
 30
0.0
 10
1983.858486900305
 20
1420.268740535314
 30
0.0
 10
1983.866921357407
 20
1421.051810116949
 30
0.0
 10
1983.863870419158
 20
1421.893746991816
 30
0.0
 10
1983.86563626185
 20
1422.479643471838
 30
0.0
 10
1983.865085753301
 20
1422.674219131526
 30
0.0
 10
1983.86508815556
 20
1422.615696307534
 30
0.0
 10
1983.865088224344
 20
1422.614020608445
 30
0.0
  0
ARC
  5
22F
330
1F
100
AcDbEntity
  8
0
  6
Continuous
 62
     7
370
    35
100
AcDbCircle
 10
1975.3016561223
 20
1367.7120918187
 30
0.0
 40
14.9999548226093
100
AcDbArc
 50
270.017911725
 51
305.1236860193
  0
ARC
  5
230
330
1F
100
AcDbEntity
  8
0
  6
Continuous
 62
     7
370
    35
100
AcDbCircle
 10
1935.4285123005
 20
1367.7120924285
 30
0.0
 40
14.9999554324596
100
AcDbArc
 50
235.2278938985
 51
269.9820874844
  0
SPLINE
  5
231
330
1F
100
AcDbEntity
  8
0
  6
Continuous
 62
     7
370
    35
100
AcDbSpline
210
0.0
220
0.0
230
1.0
 70
     8
 71
     3
 72
    14
 73
    10
 74
     0
 42
0.000000001
 43
0.00000001
 40
0.0
 40
0.0
 40
0.0
 40
0.0
 40
0.0318510699601842
 40
0.1445183584974076
 40
0.2397810598334487
 40
0.3260834741574574
 40
0.5119178317066471
 40
0.8180500482551519
 40
1.0
 40
1.0
 40
1.0
 40
1.0
 10
1923.480369616707
 20
1415.435938477174
 30
0.0
 10
1923.481213160114
 20
1415.437587037734
 30
0.0
 10
1923.485040582824
 20
1415.445067077378
 30
0.0
 10
1923.475977507146
 20
1415.427884337268
 30
0.0
 10
1923.454912763153
 20
1415.39069002427
 30
0.0
 10
1923.402393615758
 20
1415.302251814283
 30
0.0
 10
1923.289252732061
 20
1415.133051281952
 30
0.0
 10
1923.14684846185
 20
1414.942346171676
 30
0.0
 10
1923.018131361611
 20
1414.826789307386
 30
0.0
 10
1922.970147493938
 20
1414.783711384758
 30
0.0
  0
SPLINE
  5
232
330
1F
100
AcDbEntity
  8
0
  6
Continuous
 62
     7
370
    35
100
AcDbSpline
210
0.0
220
0.0
230
1.0
 70
     8
 71
     3
 72
    14
 73
    10
 74
     0
 42
0.000000001
 43
0.00000001
 40
0.0
 40
0.0
 40
0.0
 40
0.0
 40
0.191030735884763
 40
0.5100956343211893
 40
0.6698730213706182
 40
0.7584351360186986
 40
0.8292863577495511
 40
0.9200950248081943
 40
1.0
 40
1.0
 40
1.0
 40
1.0
 10
1987.723164073283
 20
1414.816478027466
 30
0.0
 10
1987.676699685459
 20
1414.861259532645
 30
0.0
 10
1987.552629172563
 20
1414.980836365058
 30
0.0
 10
1987.419070125386
 20
1415.163427144976
 30
0.0
 10
1987.316955845342
 20
1415.320158802731
 30
0.0
 10
1987.275847123412
 20
1415.389799921103
 30
0.0
 10
1987.257261369674
 20
1415.422519578759
 30
0.0
 10
1987.248042961967
 20
1415.4394011084
 30
0.0
 10
1987.24871799963
 20
1415.438149784681
 30
0.0
 10
1987.249033960715
 20
1415.437564084619
 30
0.0
  0
SPLINE
  5
233
330
1F
100
AcDbEntity
  8
0
  6
Continuous
 62
     7
370
    35
100
AcDbSpline
210
0.0
220
0.0
230
1.0
 70
     8
 71
     3
 72
    13
 73
     9
 74
     0
 42
0.000000001
 43
0.00000001
 40
0.0
 40
0.0
 40
0.0
 40
0.0
 40
0.2312645541017277
 40
0.5779681676401576
 40
0.7146434886601375
 40
0.8157376949805506
 40
0.9213272857740459
 40
1.0
 40
1.0
 40
1.0
 40
1.0
 10
1927.517682000308
 20
1354.961954694777
 30
0.0
 10
1927.538686777847
 20
1354.95285057513
 30
0.0
 10
1927.59118117256
 20
1354.930097882351
 30
0.0
 10
1927.653927291609
 20
1354.895931702514
 30
0.0
 10
1927.696110802342
 20
1354.872736352301
 30
0.0
 10
1927.711479647103
 20
1354.864023116907
 30
0.0
 10
1927.718100396596
 20
1354.860222589772
 30
0.0
 10
1927.71769018126
 20
1354.860459004362
 30
0.0
 10
1927.717515035541
 20
1354.860559944038
 30
0.0
  0
LINE
  5
234
330
1F
100
AcDbEntity
  8
0
  6
Continuous
 62
     7
370
    35
100
AcDbLine
 10
1927.5288917678
 20
1354.9746700373
 30
0.0
 11
1927.402603927
 21
1355.0533716061
 31
0.0
  0
SPLINE
  5
235
330
1F
100
AcDbEntity
  8
0
  6
Continuous
 62
     7
370
    35
100
AcDbSpline
210
0.0
220
0.0
230
1.0
 70
     8
 71
     3
 72
    12
 73
     8
 74
     0
 42
0.000000001
 43
0.00000001
 40
0.0
 40
0.0
 40
0.0
 40
0.0
 40
0.1423628141181975
 40
0.2495218665561863
 40
0.3688819399550819
 40
0.6085285388819232
 40
1.0
 40
1.0
 40
1.0
 40
1.0
 10
1983.012486429734
 20
1354.86045990585
 30
0.0
 10
1983.012931393197
 20
1354.860719176059
 30
0.0
 10
1983.013711288667
 20
1354.861173603619
 30
0.0
 10
1983.029161978009
 20
1354.869995810174
 30
0.0
 10
1983.061969679025
 20
1354.888100419145
 30
0.0
 10
1983.129424564146
 20
1354.925545435727
 30
0.0
 10
1983.191066793216
 20
1354.949953494401
 30
0.0
 10
1983.229302386535
 20
1354.965093385012
 30
0.0
  0
LINE
  5
236
330
1F
100
AcDbEntity
  8
0
  6
Continuous
 62
     7
370
    35
100
AcDbLine
 10
1974.8637836566
 20
1352.7121369965
 30
0.0
 11
1986.8650841078
 21
1352.7121369965
 31
0.0
  0
ARC
  5
237
330
1F
100
AcDbEntity
  8
0
  6
Continuous
 62
     7
370
    35
100
AcDbCircle
 10
1986.8650841078
 20
1365.7121369965
 30
0.0
 40
13.0
100
AcDbArc
 50
270.0
 51
0.0
  0
LINE
  5
238
330
1F
100
AcDbEntity
  8
0
  6
Continuous
 62
     7
370
    35
100
AcDbLine
 10
1926.8630722828
 20
1419.2033614452
 30
0.0
 11
1926.8625667215
 21
1418.8652455059
 31
0.0
  0
SPLINE
  5
239
330
1F
100
AcDbEntity
  8
0
  6
Continuous
 62
     7
370
    35
100
AcDbSpline
210
0.0
220
0.0
230
1.0
 70
     8
 71
     3
 72
    10
 73
     6
 74
     0
 42
0.000000001
 43
0.00000001
 40
0.0
 40
0.0
 40
0.0
 40
0.0
 40
0.2439500987921955
 40
0.6120271436511295
 40
0.9999999999999999
 40
0.9999999999999999
 40
0.9999999999999999
 40
0.9999999999999999
 10
1983.865103748447
 20
1419.29710493403
 30
0.0
 10
1983.86510232677
 20
1419.775933624115
 30
0.0
 10
1983.865098760035
 20
1420.977229122424
 30
0.0
 10
1983.865092486222
 20
1422.344181400623
 30
0.0
 10
1983.865091033817
 20
1422.884743415984
 30
0.0
 10
1983.865090288504
 20
1423.162136996485
 30
0.0
  0
LINE
  5
23A
330
1F
100
AcDbEntity
  8
0
  6
Continuous
 62
     7
370
    35
100
AcDbLine
 10
1990.3650841078
 20
1446.158575496
 30
0.0
 11
1920.3650841078
 21
1446.158575496
 31
0.0
  0
LWPOLYLINE
  5
23B
330
1F
100
AcDbEntity
  8
0
  6
Continuous
 62
     7
370
    35
100
AcDbPolyline
 90
        3
 70
   128
 43
0.0
 10
1922.3650841078
 20
1431.9204939853
 10
1922.4007963409
 20
1431.5442313527
 10
1922.4900841078
 20
1431.22452344
  0
ARC
  5
23C
330
1F
100
AcDbEntity
  8
0
  6
Continuous
 62
     7
370
    35
100
AcDbCircle
 10
1991.3650841078
 20
1435.158575496
 30
0.0
 40
1.0
100
AcDbArc
 50
180.0
 51
270.0
  0
LWPOLYLINE
  5
23D
330
1F
100
AcDbEntity
  8
0
  6
Continuous
 62
     7
370
    35
100
AcDbPolyline
 90
        3
 70
   128
 43
0.0
 10
1988.3650841078
 20
1431.9204939853
 10
1988.3293718747
 20
1431.5442313527
 10
1988.2400841078
 20
1431.22452344
  0
ARC
  5
23E
330
1F
100
AcDbEntity
  8
0
  6
Continuous
 62
     7
370
    35
100
AcDbCircle
 10
1919.3650841078
 20
1435.158575496
 30
0.0
 40
1.0
100
AcDbArc
 50
270.0
 51
0.0
  0
LINE
  5
23F
330
1F
100
AcDbEntity
  8
0
  6
Continuous
 62
     7
370
    35
100
AcDbLine
 10
1922.3650841078
 20
1433.158575496
 30
0.0
 11
1922.3650841078
 21
1431.9204939853
 31
0.0
  0
LINE
  5
240
330
1F
100
AcDbEntity
  8
0
  6
Continuous
 62
     7
370
    35
100
AcDbLine
 10
1988.3650841078
 20
1431.9204939853
 30
0.0
 11
1988.3650841078
 21
1433.158575496
 31
0.0
  0
LINE
  5
241
330
1F
100
AcDbEntity
  8
0
  6
Continuous
 62
     7
370
    35
100
AcDbLine
 10
1983.3650841078
 20
1423.8853256625
 30
0.0
 11
1983.3650841078
 21
1423.1621369966
 31
0.0
  0
LINE
  5
242
330
1F
100
AcDbEntity
  8
0
  6
Continuous
 62
     7
370
    35
100
AcDbLine
 10
1927.3650841078
 20
1423.8853256625
 30
0.0
 11
1927.3650841078
 21
1423.1621369966
 31
0.0
  0
LINE
  5
243
330
1F
100
AcDbEntity
  8
0
  6
Continuous
 62
     7
370
    35
100
AcDbLine
 10
1927.3650841078
 20
1423.1621369966
 30
0.0
 11
1928.9159672067
 21
1423.1621369966
 31
0.0
  0
LINE
  5
244
330
1F
100
AcDbEntity
  8
0
  6
Continuous
 62
     7
370
    35
100
AcDbLine
 10
1981.8142010089
 20
1423.1621369966
 30
0.0
 11
1983.3638299838
 21
1423.1621369966
 31
0.0
  0
SPLINE
  5
245
330
1F
100
AcDbEntity
  8
0
  6
Continuous
 62
     7
370
    35
100
AcDbSpline
210
0.0
220
0.0
230
1.0
 70
     8
 71
     3
 72
    12
 73
     8
 74
     0
 42
0.000000001
 43
0.00000001
 40
0.0
 40
0.0
 40
0.0
 40
0.0
 40
0.0000113964157658
 40
0.0165615426249112
 40
0.2254762501766254
 40
0.6569695733823641
 40
1.0
 40
1.0
 40
1.0
 40
1.0
 10
1987.257711359207
 20
1415.118206601142
 30
0.0
 10
1987.257716550513
 20
1415.118192792487
 30
0.0
 10
1987.26526068075
 20
1415.098125726265
 30
0.0
 10
1987.369317646801
 20
1414.821426747299
 30
0.0
 10
1987.721655440101
 20
1413.885191052841
 30
0.0
 10
1988.301514262604
 20
1412.310210005826
 30
0.0
 10
1988.736296324114
 20
1411.058445651051
 30
0.0
 10
1988.92885785122
 20
1410.504049145145
 30
0.0
  0
SPLINE
  5
246
330
1F
100
AcDbEntity
  8
0
  6
Continuous
 62
     7
370
    35
100
AcDbSpline
210
0.0
220
0.0
230
1.0
 70
     8
 71
     3
 72
    15
 73
    11
 74
     0
 42
0.000000001
 43
0.00000001
 40
0.0
 40
0.0
 40
0.0
 40
0.0
 40
0.1214527241786896
 40
0.2436356162157047
 40
0.3679634748124461
 40
0.4929996451849696
 40
0.6185865433805133
 40
0.7450337263104051
 40
0.8719902588119074
 40
1.0
 40
1.0
 40
1.0
 40
1.0
 10
1992.103438156413
 20
1399.725098730066
 30
0.0
 10
1992.434884354672
 20
1398.251711975126
 30
0.0
 10
1993.099769389577
 20
1395.296080535884
 30
0.0
 10
1993.664474368627
 20
1390.751126541649
 30
0.0
 10
1993.926089048554
 20
1386.137395333858
 30
0.0
 10
1993.832122609884
 20
1381.473287354661
 30
0.0
 10
1993.368973027568
 20
1376.804267705339
 30
0.0
 10
1992.507498542244
 20
1372.169243156108
 30
0.0
 10
1991.267304920525
 20
1367.583736705799
 30
0.0
 10
1990.088415028209
 20
1364.639707680979
 30
0.0
 10
1989.496535216731
 20
1363.161612605643
 30
0.0
  0
SPLINE
  5
247
330
1F
100
AcDbEntity
  8
0
  6
Continuous
 62
     7
370
    35
100
AcDbSpline
210
0.0
220
0.0
230
1.0
 70
    24
 71
     3
 72
    10
 73
     6
 74
     0
 42
0.000000001
 43
0.00000001
 40
0.0
 40
0.0
 40
0.0
 40
0.0
 40
0.1884291686422634
 40
0.5522845095522015
 40
1.0
 40
1.0
 40
1.0
 40
1.0
 10
1955.36508410781
 20
1392.483375820832
 30
0.0
 10
1955.36508410781
 20
1391.955591769934
 30
0.0
 10
1955.36508410781
 20
1390.408660592555
 30
0.0
 10
1955.36508410781
 20
1387.596860074631
 30
0.0
 10
1955.36508410781
 20
1385.324325948564
 30
0.0
 10
1955.36508410781
 20
1384.070647660114
 30
0.0
  0
SPLINE
  5
248
330
1F
100
AcDbEntity
  8
0
  6
Continuous
 62
     7
370
    35
100
AcDbSpline
210
0.0
220
0.0
230
1.0
 70
    24
 71
     3
 72
    10
 73
     6
 74
     0
 42
0.000000001
 43
0.00000001
 40
0.0
 40
0.0
 40
0.0
 40
0.0
 40
0.3005544716335556
 40
0.6481927251021716
 40
1.0
 40
1.0
 40
1.0
 40
1.0
 10
1955.36508410781
 20
1380.258575496036
 30
0.0
 10
1955.36508410781
 20
1378.254854187205
 30
0.0
 10
1955.36508410781
 20
1373.933515800666
 30
0.0
 10
1955.36508410781
 20
1367.446694921668
 30
0.0
 10
1955.36508410781
 20
1363.156185134541
 30
0.0
 10
1955.36508410781
 20
1360.998143521698
 30
0.0
  0
SPLINE
  5
249
330
1F
100
AcDbEntity
  8
0
  6
Continuous
 62
     7
370
    35
100
AcDbSpline
210
0.0
220
0.0
230
1.0
 70
    24
 71
     3
 72
    13
 73
     9
 74
     0
 42
0.000000001
 43
0.00000001
 40
0.0
 40
0.0
 40
0.0
 40
0.0
 40
0.3696468379657269
 40
0.7491630569135304
 40
0.8272821734124618
 40
0.9051799163353824
 40
0.9820955461923462
 40
1.0
 40
1.0
 40
1.0
 40
1.0
 10
1983.86508410781
 20
1423.162136996485
 30
0.0
 10
1983.876959573731
 20
1423.162136996485
 30
0.0
 10
1983.901027574422
 20
1423.162136996485
 30
0.0
 10
1983.766035435329
 20
1423.162136996484
 30
0.0
 10
1983.930917673598
 20
1423.162136996485
 30
0.0
 10
1983.61457515137
 20
1423.162136996484
 30
0.0
 10
1982.823830904824
 20
1423.162136996484
 30
0.0
 10
1981.974564246711
 20
1423.162136996484
 30
0.0
 10
1981.814201008641
 20
1423.162136996484
 30
0.0
  0
SPLINE
  5
24A
330
1F
100
AcDbEntity
  8
0
  6
Continuous
 62
     7
370
    35
100
AcDbSpline
210
0.0
220
0.0
230
1.0
 70
     8
 71
     3
 72
    12
 73
     8
 74
     0
 42
0.000000001
 43
0.00000001
 40
0.0
 40
0.0
 40
0.0
 40
0.0
 40
0.000011396415745
 40
0.0165615426248908
 40
0.2254762501766503
 40
0.6569695733824038
 40
1.0
 40
1.0
 40
1.0
 40
1.0
 10
1923.472456856415
 20
1415.118206601142
 30
0.0
 10
1923.472451665108
 20
1415.118192792487
 30
0.0
 10
1923.464907534866
 20
1415.098125726236
 30
0.0
 10
1923.360850568851
 20
1414.821426747479
 30
0.0
 10
1923.008512775491
 20
1413.885191052672
 30
0.0
 10
1922.428653953023
 20
1412.310210005868
 30
0.0
 10
1921.993871891509
 20
1411.058445651063
 30
0.0
 10
1921.801310364402
 20
1410.504049145145
 30
0.0
  0
SPLINE
  5
24B
330
1F
100
AcDbEntity
  8
0
  6
Continuous
 62
     7
370
    35
100
AcDbSpline
210
0.0
220
0.0
230
1.0
 70
     8
 71
     3
 72
     9
 73
     5
 74
     0
 42
0.000000001
 43
0.00000001
 40
0.0
 40
0.0
 40
0.0
 40
0.0
 40
0.1562903953774865
 40
1.0
 40
1.0
 40
1.0
 40
1.0
 10
1923.481752643165
 20
1415.43780729951
 30
0.0
 10
1923.48754799703
 20
1415.449800337669
 30
0.0
 10
1923.524628675282
 20
1415.526535943399
 30
0.0
 10
1923.530529292417
 20
1415.532109820733
 30
0.0
 10
1923.535507699767
 20
1415.536812554574
 30
0.0
  0
SPLINE
  5
24C
330
1F
100
AcDbEntity
  8
0
  6
Continuous
 62
     7
370
    35
100
AcDbSpline
210
0.0
220
0.0
230
1.0
 70
     8
 71
     3
 72
    11
 73
     7
 74
     0
 42
0.000000001
 43
0.00000001
 40
0.0
 40
0.0
 40
0.0
 40
0.0
 40
0.0402999249154323
 40
0.2187640754520133
 40
0.4992077406743785
 40
0.9999999999999999
 40
0.9999999999999999
 40
0.9999999999999999
 40
0.9999999999999999
 10
1926.844433002523
 20
1419.055092104603
 30
0.0
 10
1926.852008828822
 20
1419.109806352957
 30
0.0
 10
1926.893133437354
 20
1419.406817128545
 30
0.0
 10
1926.847355403986
 20
1420.093321299174
 30
0.0
 10
1926.875187241709
 20
1421.405836136445
 30
0.0
 10
1926.86903064449
 20
1422.476081973032
 30
0.0
 10
1926.86508410781
 20
1423.162136996484
 30
0.0
  0
SPLINE
  5
24D
330
1F
100
AcDbEntity
  8
0
  6
Continuous
 62
     7
370
    35
100
AcDbSpline
210
0.0
220
0.0
230
1.0
 70
    24
 71
     3
 72
    13
 73
     9
 74
     0
 42
0.000000001
 43
0.00000001
 40
0.0
 40
0.0
 40
0.0
 40
0.0
 40
0.3696468379656958
 40
0.7491630569134671
 40
0.8272821734123921
 40
0.905179916335306
 40
0.9820955461922634
 40
1.0
 40
1.0
 40
1.0
 40
1.0
 10
1926.86508410781
 20
1423.162136996484
 30
0.0
 10
1926.853208641889
 20
1423.162136996484
 30
0.0
 10
1926.829140641198
 20
1423.162136996485
 30
0.0
 10
1926.964132780292
 20
1423.162136996484
 30
0.0
 10
1926.799250542022
 20
1423.162136996485
 30
0.0
 10
1927.115593064251
 20
1423.162136996484
 30
0.0
 10
1927.906337310797
 20
1423.162136996484
 30
0.0
 10
1928.755603968911
 20
1423.162136996484
 30
0.0
 10
1928.915967206982
 20
1423.162136996484
 30
0.0
  0
SPLINE
  5
24E
330
1F
100
AcDbEntity
  8
0
  6
Continuous
 62
     7
370
    35
100
AcDbSpline
210
0.0
220
0.0
230
1.0
 70
     8
 71
     3
 72
    15
 73
    11
 74
     0
 42
0.000000001
 43
0.00000001
 40
0.0
 40
0.0
 40
0.0
 40
0.0
 40
0.1214527241786854
 40
0.2436356162157004
 40
0.3679634748124423
 40
0.492999645184966
 40
0.6185865433805111
 40
0.745033726310399
 40
0.8719902588119015
 40
1.0
 40
1.0
 40
1.0
 40
1.0
 10
1918.626730059207
 20
1399.725098730066
 30
0.0
 10
1918.295283860949
 20
1398.251711975125
 30
0.0
 10
1917.630398826044
 20
1395.296080535883
 30
0.0
 10
1917.065693846995
 20
1390.751126541649
 30
0.0
 10
1916.804079167067
 20
1386.137395333858
 30
0.0
 10
1916.898045605737
 20
1381.473287354661
 30
0.0
 10
1917.361195188055
 20
1376.804267705339
 30
0.0
 10
1918.222669673376
 20
1372.169243156107
 30
0.0
 10
1919.462863295096
 20
1367.583736705799
 30
0.0
 10
1920.641753187413
 20
1364.639707680979
 30
0.0
 10
1921.23363299889
 20
1363.161612605643
 30
0.0
  0
SPLINE
  5
24F
330
1F
100
AcDbEntity
  8
0
  6
Continuous
 62
     7
370
    35
100
AcDbSpline
210
0.0
220
0.0
230
1.0
 70
    24
 71
     3
 72
    14
 73
    10
 74
     0
 42
0.000000001
 43
0.00000001
 40
0.0
 40
0.0
 40
0.0
 40
0.0
 40
0.149783861674635
 40
0.3039198677007078
 40
0.4537011775423317
 40
0.6078081864720632
 40
0.757933700022959
 40
0.9123691506710971
 40
1.0
 40
1.0
 40
1.0
 40
1.0
 10
1955.36508410781
 20
1360.998143521698
 30
0.0
 10
1955.36508410781
 20
1360.273029008857
 30
0.0
 10
1955.36508410781
 20
1358.801730937445
 30
0.0
 10
1955.36508410781
 20
1356.907292140695
 30
0.0
 10
1955.36508410781
 20
1355.290813011751
 30
0.0
 10
1955.36508410781
 20
1354.040741355055
 30
0.0
 10
1955.36508410781
 20
1353.172843744772
 30
0.0
 10
1955.36508410781
 20
1352.764722330962
 30
0.0
 10
1955.36508410781
 20
1352.726113755253
 30
0.0
 10
1955.36508410781
 20
1352.712136996485
 30
0.0
  0
LINE
  5
250
330
1F
100
AcDbEntity
  8
0
  6
Continuous
 62
     7
370
    35
100
AcDbLine
 10
1982.4404967346
 20
1354.6092485382
 30
0.0
 11
1982.9559343749
 21
1354.8277665796
 31
0.0
  0
SPLINE
  5
251
330
1F
100
AcDbEntity
  8
0
  6
Continuous
 62
     7
370
    35
100
AcDbSpline
210
0.0
220
0.0
230
1.0
 70
     8
 71
     3
 72
    10
 73
     6
 74
     0
 42
0.000000001
 43
0.00000001
 40
0.0
 40
0.0
 40
0.0
 40
0.0
 40
0.3651912706254005
 40
0.9388408861891675
 40
1.0
 40
1.0
 40
1.0
 40
1.0
 10
1983.335990972739
 20
1355.060324011112
 30
0.0
 10
1983.405495299987
 20
1355.104210082713
 30
0.0
 10
1983.584178388649
 20
1355.217033256942
 30
0.0
 10
1983.799567738857
 20
1355.359607330681
 30
0.0
 10
1983.933398223715
 20
1355.458017964747
 30
0.0
 10
1983.946291798544
 20
1355.4674990996
 30
0.0
  0
SPLINE
  5
252
330
1F
100
AcDbEntity
  8
0
  6
Continuous
 62
     7
370
    35
100
AcDbSpline
210
0.0
220
0.0
230
1.0
 70
    24
 71
     3
 72
    18
 73
    14
 74
     0
 42
0.000000001
 43
0.00000001
 40
0.0
 40
0.0
 40
0.0
 40
0.0
 40
0.05289005012254
 40
0.1308503043354559
 40
0.2088349706568608
 40
0.2788361590001499
 40
0.3488290097785951
 40
0.4127449371310168
 40
0.476619703147157
 40
0.5405641088728319
 40
0.6045882679846476
 40
0.8596063559737093
 40
1.0
 40
1.0
 40
1.0
 40
1.0
 10
1955.36508410781
 20
1352.712136996485
 30
0.0
 10
1956.252238053751
 20
1352.712136996485
 30
0.0
 10
1958.447062289118
 20
1352.712136996485
 30
0.0
 10
1961.807774822364
 20
1352.712136996485
 30
0.0
 10
1965.181274489818
 20
1352.712136996485
 30
0.0
 10
1968.100978213467
 20
1352.712136996485
 30
0.0
 10
1970.486185303615
 20
1352.712136996485
 30
0.0
 10
1972.406216367244
 20
1352.712136996485
 30
0.0
 10
1973.849014716711
 20
1352.712136996485
 30
0.0
 10
1974.765920264133
 20
1352.712136996485
 30
0.0
 10
1975.308094277666
 20
1352.712136996485
 30
0.0
 10
1975.278363360347
 20
1352.712136996485
 30
0.0
 10
1975.274885098599
 20
1352.712136996485
 30
0.0
 10
1975.273650117939
 20
1352.712136996485
 30
0.0
  0
LINE
  5
253
330
1F
100
AcDbEntity
  8
0
  6
Continuous
 62
     7
370
    35
100
AcDbLine
 10
1928.289671481
 20
1354.6092485382
 30
0.0
 11
1927.7742338407
 21
1354.8277665796
 31
0.0
  0
SPLINE
  5
254
330
1F
100
AcDbEntity
  8
0
  6
Continuous
 62
     7
370
    35
100
AcDbSpline
210
0.0
220
0.0
230
1.0
 70
    24
 71
     3
 72
    18
 73
    14
 74
     0
 42
0.000000001
 43
0.00000001
 40
0.0
 40
0.0
 40
0.0
 40
0.0
 40
0.0528858667102822
 40
0.1296739535442626
 40
0.2088264841310576
 40
0.2780198271463578
 40
0.348811653058608
 40
0.4119722453845593
 40
0.4765946606109336
 40
0.539579498573119
 40
0.6046207084835564
 40
0.8595628981181013
 40
1.0
 40
1.0
 40
1.0
 40
1.0
 10
1955.36508410781
 20
1352.712136996485
 30
0.0
 10
1954.477989399094
 20
1352.712136996485
 30
0.0
 10
1952.302869935179
 20
1352.712136996485
 30
0.0
 10
1948.93927425677
 20
1352.712136996485
 30
0.0
 10
1945.57730666374
 20
1352.712136996483
 30
0.0
 10
1942.638204432159
 20
1352.712136996485
 30
0.0
 10
1940.261858791983
 20
1352.712136996485
 30
0.0
 10
1938.326964860314
 20
1352.712136996485
 30
0.0
 10
1936.900905413877
 20
1352.712136996485
 30
0.0
 10
1935.935553788009
 20
1352.712136996485
 30
0.0
 10
1935.45895396413
 20
1352.712136996485
 30
0.0
 10
1935.449804686581
 20
1352.712136996485
 30
0.0
 10
1935.455847933099
 20
1352.712136996485
 30
0.0
 10
1935.457994469464
 20
1352.712136996485
 30
0.0
  0
SPLINE
  5
255
330
1F
100
AcDbEntity
  8
0
  6
Continuous
 62
     7
370
    35
100
AcDbSpline
210
0.0
220
0.0
230
1.0
 70
     8
 71
     3
 72
     9
 73
     5
 74
     0
 42
0.000000001
 43
0.00000001
 40
0.0
 40
0.0
 40
0.0
 40
0.0
 40
0.4409399522424115
 40
1.0
 40
1.0
 40
1.0
 40
1.0
 10
1927.403368449959
 20
1355.054480072523
 30
0.0
 10
1927.330901626704
 20
1355.099805297621
 30
0.0
 10
1927.166555386616
 20
1355.202597582301
 30
0.0
 10
1926.982333183081
 20
1355.329607715337
 30
0.0
 10
1926.879341909175
 20
1355.400614006378
 30
0.0
  0
SPLINE
  5
256
330
1F
100
AcDbEntity
  8
0
  6
Continuous
 62
     7
370
    35
100
AcDbSpline
210
0.0
220
0.0
230
1.0
 70
     8
 71
     3
 72
    14
 73
    10
 74
     0
 42
0.000000001
 43
0.00000001
 40
0.0
 40
0.0
 40
0.0
 40
0.0
 40
0.129696900866053
 40
0.2603671951156626
 40
0.3853421446376515
 40
0.5111847557259619
 40
0.6397642884787733
 40
0.7692911603858883
 40
1.0
 40
1.0
 40
1.0
 40
1.0
 10
1990.685198997257
 20
1362.652409216244
 30
0.0
 10
1991.299515719919
 20
1364.186460200192
 30
0.0
 10
1992.532759698179
 20
1367.266075435312
 30
0.0
 10
1993.851633705852
 20
1372.00193882668
 30
0.0
 10
1994.783408996948
 20
1376.773277898105
 30
0.0
 10
1995.308063194705
 20
1381.582424585563
 30
0.0
 10
1995.419374172857
 20
1386.473804840461
 30
0.0
 10
1995.074704594314
 20
1392.702831252478
 30
0.0
 10
1994.095249131747
 20
1397.193787732908
 30
0.0
 10
1993.467968087709
 20
1400.069969425117
 30
0.0
  0
SPLINE
  5
257
330
1F
100
AcDbEntity
  8
0
  6
Continuous
 62
     7
370
    35
100
AcDbSpline
210
0.0
220
0.0
230
1.0
 70
     8
 71
     3
 72
    14
 73
    10
 74
     0
 42
0.000000001
 43
0.00000001
 40
0.0
 40
0.0
 40
0.0
 40
0.0
 40
0.1296969008660471
 40
0.2603671951156621
 40
0.3853421446376478
 40
0.5111847557259604
 40
0.6397642884787723
 40
0.7692911603858874
 40
0.9999999999999999
 40
0.9999999999999999
 40
0.9999999999999999
 40
0.9999999999999999
 10
1920.044969218364
 20
1362.652409216244
 30
0.0
 10
1919.430652495703
 20
1364.186460200192
 30
0.0
 10
1918.197408517443
 20
1367.266075435312
 30
0.0
 10
1916.878534509769
 20
1372.00193882668
 30
0.0
 10
1915.946759218674
 20
1376.773277898105
 30
0.0
 10
1915.422105020915
 20
1381.582424585562
 30
0.0
 10
1915.310794042764
 20
1386.473804840461
 30
0.0
 10
1915.655463621306
 20
1392.702831252478
 30
0.0
 10
1916.634919083874
 20
1397.193787732908
 30
0.0
 10
1917.262200127912
 20
1400.069969425117
 30
0.0
  0
SPLINE
  5
258
330
1F
100
AcDbEntity
  8
0
  6
Continuous
 62
     7
370
    35
100
AcDbSpline
210
0.0
220
0.0
230
1.0
 70
     8
 71
     3
 72
    10
 73
     6
 74
     0
 42
0.000000001
 43
0.00000001
 40
0.0
 40
0.0
 40
0.0
 40
0.0
 40
0.3422812336048897
 40
0.6664353245310205
 40
1.0
 40
1.0
 40
1.0
 40
1.0
 10
1983.946291798544
 20
1355.4674990996
 30
0.0
 10
1984.711192422602
 20
1355.870413077578
 30
0.0
 10
1986.200484693344
 20
1356.654902793371
 30
0.0
 10
1988.061451652885
 20
1358.433582718191
 30
0.0
 10
1989.038299557986
 20
1359.792563591865
 30
0.0
 10
1989.533711839186
 20
1360.481776120466
 30
0.0
  0
SPLINE
  5
259
330
1F
100
AcDbEntity
  8
0
  6
Continuous
 62
     7
370
    35
100
AcDbSpline
210
0.0
220
0.0
230
1.0
 70
     8
 71
     3
 72
    10
 73
     6
 74
     0
 42
0.000000001
 43
0.00000001
 40
0.0
 40
0.0
 40
0.0
 40
0.0
 40
0.3422812336048847
 40
0.6664353245310173
 40
0.9999999999999999
 40
0.9999999999999999
 40
0.9999999999999999
 40
0.9999999999999999
 10
1926.783876417077
 20
1355.4674990996
 30
0.0
 10
1926.018975793019
 20
1355.870413077578
 30
0.0
 10
1924.529683522277
 20
1356.654902793371
 30
0.0
 10
1922.668716562736
 20
1358.433582718191
 30
0.0
 10
1921.691868657635
 20
1359.792563591865
 30
0.0
 10
1921.196456376435
 20
1360.481776120466
 30
0.0
  0
SPLINE
  5
25A
330
1F
100
AcDbEntity
  8
0
  6
Continuous
 62
     7
370
    35
100
AcDbSpline
210
0.0
220
0.0
230
1.0
 70
     8
 71
     3
 72
     9
 73
     5
 74
     0
 42
0.000000001
 43
0.00000001
 40
0.0
 40
0.0
 40
0.0
 40
0.0
 40
0.8536363424240478
 40
1.0
 40
1.0
 40
1.0
 40
1.0
 10
1917.262200127912
 20
1400.069969425117
 30
0.0
 10
1918.134189051466
 20
1403.181050307417
 30
0.0
 10
1919.155688348319
 20
1406.825554093965
 30
0.0
 10
1920.379803804741
 20
1410.40566965217
 30
0.0
 10
1920.558969820238
 20
1410.929668459814
 30
0.0
  0
SPLINE
  5
25B
330
1F
100
AcDbEntity
  8
0
  6
Continuous
 62
     7
370
    35
100
AcDbSpline
210
0.0
220
0.0
230
1.0
 70
     8
 71
     3
 72
     9
 73
     5
 74
     0
 42
0.000000001
 43
0.00000001
 40
0.0
 40
0.0
 40
0.0
 40
0.0
 40
0.8536363424240633
 40
1.0
 40
1.0
 40
1.0
 40
1.0
 10
1993.467968087709
 20
1400.069969425117
 30
0.0
 10
1992.595979164154
 20
1403.181050307417
 30
0.0
 10
1991.5744798673
 20
1406.825554093965
 30
0.0
 10
1990.35036441088
 20
1410.405669652171
 30
0.0
 10
1990.171198395383
 20
1410.929668459814
 30
0.0
  0
SPLINE
  5
25C
330
1F
100
AcDbEntity
  8
0
  6
Continuous
 62
     7
370
    35
100
AcDbSpline
210
0.0
220
0.0
230
1.0
 70
     8
 71
     3
 72
     9
 73
     5
 74
     0
 42
0.000000001
 43
0.00000001
 40
0.0
 40
0.0
 40
0.0
 40
0.0
 40
0.6310361367051253
 40
0.9999999999999999
 40
0.9999999999999999
 40
0.9999999999999999
 40
0.9999999999999999
 10
1920.558969820238
 20
1410.929668459814
 30
0.0
 10
1920.96675141681
 20
1411.866149837898
 30
0.0
 10
1921.612960996346
 20
1413.350187476335
 30
0.0
 10
1922.715825970255
 20
1414.494359433293
 30
0.0
 10
1923.122743291721
 20
1414.916517538806
 30
0.0
  0
SPLINE
  5
25D
330
1F
100
AcDbEntity
  8
0
  6
Continuous
 62
     7
370
    35
100
AcDbSpline
210
0.0
220
0.0
230
1.0
 70
     8
 71
     3
 72
     9
 73
     5
 74
     0
 42
0.000000001
 43
0.00000001
 40
0.0
 40
0.0
 40
0.0
 40
0.0
 40
0.6310361367052088
 40
1.0
 40
1.0
 40
1.0
 40
1.0
 10
1990.171198395383
 20
1410.929668459814
 30
0.0
 10
1989.763416798811
 20
1411.866149837898
 30
0.0
 10
1989.117207219274
 20
1413.350187476334
 30
0.0
 10
1988.014342245365
 20
1414.494359433294
 30
0.0
 10
1987.6074249239
 20
1414.916517538807
 30
0.0
  0
LINE
  5
25E
330
1F
100
AcDbEntity
  8
0
  6
Continuous
 62
     7
370
    35
100
AcDbLine
 10
1989.5337118392
 20
1360.4817761205
 30
0.0
 11
1990.6851989973
 21
1362.6524092162
 31
0.0
  0
LINE
  5
25F
330
1F
100
AcDbEntity
  8
0
  6
Continuous
 62
     7
370
    35
100
AcDbLine
 10
1921.1964563764
 20
1360.4817761205
 30
0.0
 11
1920.0449692184
 21
1362.6524092162
 31
0.0
  0
LINE
  5
260
330
1F
100
AcDbEntity
  8
0
  6
Continuous
 62
     7
370
    35
100
AcDbLine
 10
1927.5029914589
 20
1354.9712255533
 30
0.0
 11
1927.9959588017
 21
1354.7527075119
 31
0.0
  0
LINE
  5
261
330
1F
100
AcDbEntity
  8
0
  6
Continuous
 62
     7
370
    35
100
AcDbLine
 10
1983.2271767567
 20
1354.9712255533
 30
0.0
 11
1982.7342094139
 21
1354.7527075119
 31
0.0
  0
LINE
  5
262
330
1F
100
AcDbEntity
  8
0
  6
Continuous
 62
     7
370
    35
100
AcDbLine
 10
1923.1227432917
 20
1414.9165175388
 30
0.0
 11
1922.9776741217
 21
1414.7758080616
 31
0.0
  0
LINE
  5
263
330
1F
100
AcDbEntity
  8
0
  6
Continuous
 62
     7
370
    35
100
AcDbLine
 10
1987.6074249239
 20
1414.9165175388
 30
0.0
 11
1987.7524940939
 21
1414.7758080616
 31
0.0
  0
SPLINE
  5
264
330
1F
100
AcDbEntity
  8
0
  6
Continuous
 62
     7
370
    35
100
AcDbSpline
210
0.0
220
0.0
230
1.0
 70
     8
 71
     3
 72
    21
 73
    17
 74
     0
 42
0.000000001
 43
0.00000001
 40
0.0
 40
0.0
 40
0.0
 40
0.0
 40
0.0385875042306109
 40
0.1137555859598102
 40
0.1905584151146626
 40
0.2679261122718356
 40
0.3425758673549463
 40
0.4177439138171276
 40
0.4945465859979144
 40
0.5719140750339673
 40
0.6465659329144187
 40
0.721736067275963
 40
0.7985407486308922
 40
0.8759102056376934
 40
0.9905374157361703
 40
1.0
 40
1.0
 40
1.0
 40
1.0
 10
1992.642978173365
 20
1402.842110597267
 30
0.0
 10
1992.810070821446
 20
1402.761349153107
 30
0.0
 10
1993.302658317608
 20
1402.523265203742
 30
0.0
 10
1994.081661419308
 20
1402.037137100569
 30
0.0
 10
1994.97541544516
 20
1401.390207876277
 30
0.0
 10
1995.806374781438
 20
1400.666813887636
 30
0.0
 10
1996.568506668783
 20
1399.882795268854
 30
0.0
 10
1997.261029289724
 20
1399.039996063978
 30
0.0
 10
1997.887606636957
 20
1398.131122373525
 30
0.0
 10
1998.433003892535
 20
1397.174148728963
 30
0.0
 10
1998.892496514278
 20
1396.181858637691
 30
0.0
 10
1999.267063527756
 20
1395.157382628691
 30
0.0
 10
1999.557564661966
 20
1394.092240840705
 30
0.0
 10
1999.789728773459
 20
1392.819661701267
 30
0.0
 10
1999.862891388852
 20
1391.850499549142
 30
0.0
 10
1999.864928747134
 20
1391.253926397604
 30
0.0
 10
1999.865084107811
 20
1391.20843414947
 30
0.0
  0
SPLINE
  5
265
330
1F
100
AcDbEntity
  8
0
  6
Continuous
 62
     7
370
    35
100
AcDbSpline
210
0.0
220
0.0
230
1.0
 70
    24
 71
     3
 72
    20
 73
    16
 74
     0
 42
0.000000001
 43
0.00000001
 40
0.0
 40
0.0
 40
0.0
 40
0.0
 40
0.0031848875244883
 40
0.099687216670268
 40
0.196192856158608
 40
0.292913896026428
 40
0.3894614585497528
 40
0.4531459406897255
 40
0.5167654851003685
 40
0.621486497919014
 40
0.726880812540412
 40
0.8182687157727467
 40
0.8939620144270485
 40
0.9698304221395907
 40
1.0
 40
1.0
 40
1.0
 40
1.0
 10
1999.865084107811
 20
1391.20843414947
 30
0.0
 10
1999.865084107811
 20
1391.208836796347
 30
0.0
 10
1999.865084107811
 20
1391.221439673563
 30
0.0
 10
1999.865084107811
 20
1391.060702063323
 30
0.0
 10
1999.86508410781
 20
1390.325177882465
 30
0.0
 10
1999.865084107811
 20
1389.115533760377
 30
0.0
 10
1999.865084107811
 20
1387.622527732578
 30
0.0
 10
1999.865084107811
 20
1385.994663922244
 30
0.0
 10
1999.86508410781
 20
1384.052411047559
 30
0.0
 10
1999.865084107811
 20
1381.384941745208
 30
0.0
 10
1999.86508410781
 20
1378.160343132991
 30
0.0
 10
1999.865084107811
 20
1375.439512216606
 30
0.0
 10
1999.865084107811
 20
1373.288713578444
 30
0.0
 10
1999.865084107811
 20
1371.846194058684
 30
0.0
 10
1999.865084107811
 20
1371.076900987838
 30
0.0
 10
1999.865084107811
 20
1370.858024261041
 30
0.0
  0
SPLINE
  5
266
330
1F
100
AcDbEntity
  8
0
  6
Continuous
 62
     7
370
    35
100
AcDbSpline
210
0.0
220
0.0
230
1.0
 70
    24
 71
     3
 72
    10
 73
     6
 74
     0
 42
0.000000001
 43
0.00000001
 40
0.0
 40
0.0
 40
0.0
 40
0.0
 40
0.2479681796226352
 40
0.4972688069878618
 40
1.0
 40
1.0
 40
1.0
 40
1.0
 10
1999.865084107811
 20
1370.858024261041
 30
0.0
 10
1999.865084107811
 20
1370.551529691078
 30
0.0
 10
1999.86508410781
 20
1369.93689361404
 30
0.0
 10
1999.865084107811
 20
1368.830823395937
 30
0.0
 10
1999.865084107811
 20
1368.073372327658
 30
0.0
 10
1999.865084107811
 20
1367.567018382404
 30
0.0
  0
LINE
  5
267
330
1F
100
AcDbEntity
  8
0
  6
Continuous
 62
     7
370
    35
100
AcDbLine
 10
1999.8650841078
 20
1367.5670183824
 30
0.0
 11
1999.8650841078
 21
1365.7121369965
 31
0.0
  0
LINE
  5
268
330
1F
100
AcDbEntity
  8
0
  6
Continuous
 62
     7
370
    35
100
AcDbLine
 10
1889.8650841078
 20
1433.158575496
 30
0.0
 11
1889.8650841078
 21
1434.158575496
 31
0.0
  0
LINE
  5
269
330
1F
100
AcDbEntity
  8
0
  6
Continuous
 62
     7
370
    35
100
AcDbLine
 10
1889.8650841078
 20
1434.158575496
 30
0.0
 11
1899.8650841078
 21
1434.158575496
 31
0.0
  0
LINE
  5
26A
330
1F
100
AcDbEntity
  8
0
  6
Continuous
 62
     7
370
    35
100
AcDbLine
 10
1899.8650841078
 20
1433.158575496
 30
0.0
 11
1889.8650841078
 21
1433.158575496
 31
0.0
  0
LINE
  5
26B
330
1F
100
AcDbEntity
  8
0
  6
Continuous
 62
     7
370
    35
100
AcDbLine
 10
2020.8650841078
 20
1434.158575496
 30
0.0
 11
2020.8650841078
 21
1433.158575496
 31
0.0
  0
LINE
  5
26C
330
1F
100
AcDbEntity
  8
0
  6
Continuous
 62
     7
370
    35
100
AcDbLine
 10
2010.8650841078
 20
1434.158575496
 30
0.0
 11
2020.8650841078
 21
1434.158575496
 31
0.0
  0
LINE
  5
26D
330
1F
100
AcDbEntity
  8
0
  6
Continuous
 62
     7
370
    35
100
AcDbLine
 10
2020.8650841078
 20
1433.158575496
 30
0.0
 11
2010.8650841078
 21
1433.158575496
 31
0.0
  0
LINE
  5
26E
330
1F
100
AcDbEntity
  8
0
  6
Continuous
 62
     7
370
    35
100
AcDbLine
 10
2010.8650841078
 20
1434.158575496
 30
0.0
 11
1899.8650841078
 21
1434.158575496
 31
0.0
  0
LINE
  5
26F
330
1F
100
AcDbEntity
  8
0
  6
Continuous
 62
     7
370
    35
100
AcDbLine
 10
2010.8650841078
 20
1433.158575496
 30
0.0
 11
1899.8650841078
 21
1433.158575496
 31
0.0
  0
LINE
  5
270
330
1F
100
AcDbEntity
  8
0
  6
Continuous
 62
     7
370
    35
100
AcDbLine
 10
1990.3650841078
 20
1446.158575496
 30
0.0
 11
1990.3650841078
 21
1445.158575496
 31
0.0
  0
LINE
  5
271
330
1F
100
AcDbEntity
  8
0
  6
Continuous
 62
     7
370
    35
100
AcDbLine
 10
1920.3650841078
 20
1445.158575496
 30
0.0
 11
1920.3650841078
 21
1446.158575496
 31
0.0
  0
LINE
  5
272
330
1F
100
AcDbEntity
  8
0
  6
Continuous
 62
     7
370
    35
100
AcDbLine
 10
1971.5198475843
 20
1418.361801159
 30
0.0
 11
1987.0853206313
 21
1425.6201004436
 31
0.0
  0
LINE
  5
273
330
1F
100
AcDbEntity
  8
0
  6
Continuous
 62
     7
370
    35
100
AcDbLine
 10
1970.3650841078
 20
1382.258575496
 30
0.0
 11
1970.3650841078
 21
1416.5491855849
 31
0.0
  0
ARC
  5
274
330
1F
100
AcDbEntity
  8
0
  6
Continuous
 62
     7
370
    35
100
AcDbCircle
 10
1968.3650841078
 20
1382.258575496
 30
0.0
 40
2.0
100
AcDbArc
 50
270.0
 51
0.0
  0
ARC
  5
275
330
1F
100
AcDbEntity
  8
0
  6
Continuous
 62
     7
370
    35
100
AcDbCircle
 10
1942.3650841078
 20
1382.258575496
 30
0.0
 40
2.0
100
AcDbArc
 50
180.0
 51
270.0
  0
ARC
  5
276
330
1F
100
AcDbEntity
  8
0
  6
Continuous
 62
     7
370
    35
100
AcDbCircle
 10
1938.3650841078
 20
1416.5491855849
 30
0.0
 40
2.000000000000233
100
AcDbArc
 50
0.0
 51
65.0
  0
ARC
  5
277
330
1F
100
AcDbEntity
  8
0
  6
Continuous
 62
     7
370
    35
100
AcDbCircle
 10
1924.4900841078
 20
1427.4327160177
 30
0.0
 40
2.000000000000455
100
AcDbArc
 50
180.0
 51
245.0
  0
LINE
  5
278
330
1F
100
AcDbEntity
  8
0
  6
Continuous
 62
     7
370
    35
100
AcDbLine
 10
1922.4900841078
 20
1433.158575496
 30
0.0
 11
1922.4900841078
 21
1427.4327160177
 31
0.0
  0
LINE
  5
279
330
1F
100
AcDbEntity
  8
0
  6
Continuous
 62
     7
370
    35
100
AcDbLine
 10
1920.3650841078
 20
1445.158575496
 30
0.0
 11
1920.3650841078
 21
1434.158575496
 31
0.0
  0
LINE
  5
27A
330
1F
100
AcDbEntity
  8
0
  6
Continuous
 62
     7
370
    35
100
AcDbLine
 10
1954.3650841078
 20
1400.258575496
 30
0.0
 11
1954.3650841078
 21
1410.258575496
 31
0.0
  0
ARC
  5
27B
330
1F
100
AcDbEntity
  8
0
  6
Continuous
 62
     7
370
    35
100
AcDbCircle
 10
1972.3650841078
 20
1416.5491855849
 30
0.0
 40
2.000000000000227
100
AcDbArc
 50
115.0
 51
180.0
  0
ARC
  5
27C
330
1F
100
AcDbEntity
  8
0
  6
Continuous
 62
     7
370
    35
100
AcDbCircle
 10
1947.8650841078
 20
1410.258575496
 30
0.0
 40
6.500000000000227
100
AcDbArc
 50
0.0
 51
180.0
  0
CIRCLE
  5
27D
330
1F
100
AcDbEntity
  8
0
  6
Continuous
 62
     7
370
    35
100
AcDbCircle
 10
1955.3650841078
 20
1388.258575496
 30
0.0
 40
4.250000000000227
  0
LINE
  5
27E
330
1F
100
AcDbEntity
  8
0
  6
Continuous
 62
     7
370
    35
100
AcDbLine
 10
1940.3650841078
 20
1416.5491855849
 30
0.0
 11
1940.3650841078
 21
1382.258575496
 31
0.0
  0
LINE
  5
27F
330
1F
100
AcDbEntity
  8
0
  6
Continuous
 62
     7
370
    35
100
AcDbLine
 10
1923.6448475843
 20
1425.6201004436
 30
0.0
 11
1939.2103206313
 21
1418.361801159
 31
0.0
  0
LINE
  5
280
330
1F
100
AcDbEntity
  8
0
  6
Continuous
 62
     7
370
    35
100
AcDbLine
 10
1969.3650841078
 20
1410.258575496
 30
0.0
 11
1969.3650841078
 21
1400.258575496
 31
0.0
  0
ARC
  5
281
330
1F
100
AcDbEntity
  8
0
  6
Continuous
 62
     7
370
    35
100
AcDbCircle
 10
1962.8650841078
 20
1410.258575496
 30
0.0
 40
6.500000000000227
100
AcDbArc
 50
0.0
 51
180.0
  0
LINE
  5
282
330
1F
100
AcDbEntity
  8
0
  6
Continuous
 62
     7
370
    35
100
AcDbLine
 10
1941.3650841078
 20
1410.258575496
 30
0.0
 11
1941.3650841078
 21
1400.258575496
 31
0.0
  0
LINE
  5
283
330
1F
100
AcDbEntity
  8
0
  6
Continuous
 62
     7
370
    35
100
AcDbLine
 10
1990.3650841078
 20
1434.158575496
 30
0.0
 11
1990.3650841078
 21
1445.158575496
 31
0.0
  0
LINE
  5
284
330
1F
100
AcDbEntity
  8
0
  6
Continuous
 62
     7
370
    35
100
AcDbLine
 10
1988.2400841078
 20
1427.4327160177
 30
0.0
 11
1988.2400841078
 21
1433.158575496
 31
0.0
  0
LINE
  5
285
330
1F
100
AcDbEntity
  8
0
  6
Continuous
 62
     7
370
    35
100
AcDbLine
 10
1956.3650841078
 20
1400.258575496
 30
0.0
 11
1956.3650841078
 21
1410.258575496
 31
0.0
  0
ARC
  5
286
330
1F
100
AcDbEntity
  8
0
  6
Continuous
 62
     7
370
    35
100
AcDbCircle
 10
1962.8650841078
 20
1400.258575496
 30
0.0
 40
6.500000000000227
100
AcDbArc
 50
180.0
 51
0.0
  0
ARC
  5
287
330
1F
100
AcDbEntity
  8
0
  6
Continuous
 62
     7
370
    35
100
AcDbCircle
 10
1986.2400841078
 20
1427.4327160177
 30
0.0
 40
1.999999999999629
100
AcDbArc
 50
295.0
 51
0.0
  0
LINE
  5
288
330
1F
100
AcDbEntity
  8
0
  6
Continuous
 62
     7
370
    35
100
AcDbLine
 10
1942.3650841078
 20
1380.258575496
 30
0.0
 11
1968.3650841078
 21
1380.258575496
 31
0.0
  0
ARC
  5
289
330
1F
100
AcDbEntity
  8
0
  6
Continuous
 62
     7
370
    35
100
AcDbCircle
 10
1947.8650841078
 20
1400.258575496
 30
0.0
 40
6.500000000000227
100
AcDbArc
 50
180.0
 51
0.0
  0
LINE
  5
28A
330
1F
100
AcDbEntity
  8
0
  6
Continuous
 62
     8
370
    18
100
AcDbLine
 10
1922.3650841078
 20
1431.9204939853
 30
0.0
 11
1922.4900841078
 21
1431.9204939853
 31
0.0
  0
LINE
  5
28B
330
1F
100
AcDbEntity
  8
0
  6
Continuous
 62
     8
370
    18
100
AcDbLine
 10
1988.2400841078
 20
1431.9204939853
 30
0.0
 11
1988.3650841078
 21
1431.9204939853
 31
0.0
  0
SPLINE
  5
28C
330
1F
100
AcDbEntity
  8
0
  6
Continuous
 62
     8
370
    18
100
AcDbSpline
210
0.0
220
0.0
230
1.0
 70
     8
 71
     3
 72
     9
 73
     5
 74
     0
 42
0.000000001
 43
0.00000001
 40
0.0
 40
0.0
 40
0.0
 40
0.0
 40
0.4639726888357492
 40
1.0
 40
1.0
 40
1.0
 40
1.0
 10
1987.309471834989
 20
1415.312051484423
 30
0.0
 10
1987.280056615369
 20
1415.373421122867
 30
0.0
 10
1987.21665801384
 20
1415.505691060128
 30
0.0
 10
1987.202336980726
 20
1415.525952089486
 30
0.0
 10
1987.194660515854
 20
1415.536812554574
 30
0.0
  0
LINE
  5
28D
330
1F
100
AcDbEntity
  8
0
  6
Continuous
 62
     8
370
    18
100
AcDbLine
 10
1987.1946605159
 20
1415.5368125546
 30
0.0
 11
1987.0380932696
 21
1415.6597334747
 31
0.0
  0
SPLINE
  5
28E
330
1F
100
AcDbEntity
  8
0
  6
Continuous
 62
     8
370
    18
100
AcDbSpline
210
0.0
220
0.0
230
1.0
 70
     8
 71
     3
 72
    11
 73
     7
 74
     0
 42
0.000000001
 43
0.00000001
 40
0.0
 40
0.0
 40
0.0
 40
0.0
 40
0.2986044395549205
 40
0.5785107697796701
 40
0.9999675635114516
 40
1.0
 40
1.0
 40
1.0
 40
1.0
 10
1987.038093269602
 20
1415.659733474723
 30
0.0
 10
1987.038026687545
 20
1415.653897395622
 30
0.0
 10
1987.03789769269
 20
1415.642590682909
 30
0.0
 10
1987.117578901059
 20
1415.469156734684
 30
0.0
 10
1987.204652636153
 20
1415.26345182985
 30
0.0
 10
1987.257707276288
 20
1415.118217777899
 30
0.0
 10
1987.257711359207
 20
1415.118206601142
 30
0.0
  0
SPLINE
  5
28F
330
1F
100
AcDbEntity
  8
0
  6
Continuous
 62
     8
370
    18
100
AcDbSpline
210
0.0
220
0.0
230
1.0
 70
     8
 71
     3
 72
    10
 73
     6
 74
     0
 42
0.000000001
 43
0.00000001
 40
0.0
 40
0.0
 40
0.0
 40
0.0
 40
0.0305940752880635
 40
0.8849546452569934
 40
1.0
 40
1.0
 40
1.0
 40
1.0
 10
1988.92885785122
 20
1410.504049145145
 30
0.0
 10
1988.965950084703
 20
1410.395610902969
 30
0.0
 10
1990.038868419882
 20
1407.258960253008
 30
0.0
 10
1991.099268169675
 20
1403.661173789573
 30
0.0
 10
1991.996909541864
 20
1400.142662119123
 30
0.0
 10
1992.103438156413
 20
1399.725098730066
 30
0.0
  0
LINE
  5
290
330
1F
100
AcDbEntity
  8
0
  6
Continuous
 62
     8
370
    18
100
AcDbLine
 10
1989.4965352167
 20
1363.1616126056
 30
0.0
 11
1988.5791816945
 21
1361.1583785602
 31
0.0
  0
SPLINE
  5
291
330
1F
100
AcDbEntity
  8
0
  6
Continuous
 62
     8
370
    18
100
AcDbSpline
210
0.0
220
0.0
230
1.0
 70
     8
 71
     3
 72
    18
 73
    14
 74
     0
 42
0.000000001
 43
0.00000001
 40
0.0
 40
0.0
 40
0.0
 40
0.0
 40
0.0497884573626106
 40
0.1520626953526052
 40
0.2542931679105414
 40
0.3525326664708921
 40
0.4508084200367181
 40
0.5543273934134056
 40
0.657856527535361
 40
0.7740307271289423
 40
0.8901694733964503
 40
0.9999988953086804
 40
0.9999999999999999
 40
0.9999999999999999
 40
0.9999999999999999
 40
0.9999999999999999
 10
1988.579181694516
 20
1361.158378560203
 30
0.0
 10
1988.569987036925
 20
1361.174039456397
 30
0.0
 10
1988.541904937375
 20
1361.221870584595
 30
0.0
 10
1988.108111848012
 20
1361.307078553625
 30
0.0
 10
1986.592168279294
 20
1361.362649493479
 30
0.0
 10
1984.232197243807
 20
1361.427043195527
 30
0.0
 10
1981.142728915576
 20
1361.452132848138
 30
0.0
 10
1977.328199489328
 20
1361.440982041324
 30
0.0
 10
1972.694720861937
 20
1361.394085377417
 30
0.0
 10
1967.321954848165
 20
1361.315204040891
 30
0.0
 10
1961.420596236275
 20
1361.189932719771
 30
0.0
 10
1957.349216563461
 20
1361.065573131132
 30
0.0
 10
1955.365104064301
 20
1360.998144199908
 30
0.0
 10
1955.36508410781
 20
1360.998143521698
 30
0.0
  0
SPLINE
  5
292
330
1F
100
AcDbEntity
  8
0
  6
Continuous
 62
     8
370
    18
100
AcDbSpline
210
0.0
220
0.0
230
1.0
 70
     8
 71
     3
 72
    10
 73
     6
 74
     0
 42
0.000000001
 43
0.00000001
 40
0.0
 40
0.0
 40
0.0
 40
0.0
 40
0.0305940752880831
 40
0.8849546452569778
 40
1.0
 40
1.0
 40
1.0
 40
1.0
 10
1921.801310364402
 20
1410.504049145145
 30
0.0
 10
1921.764218130918
 20
1410.395610902968
 30
0.0
 10
1920.691299795733
 20
1407.25896025301
 30
0.0
 10
1919.630900045948
 20
1403.661173789573
 30
0.0
 10
1918.733258673757
 20
1400.142662119123
 30
0.0
 10
1918.626730059207
 20
1399.725098730066
 30
0.0
  0
SPLINE
  5
293
330
1F
100
AcDbEntity
  8
0
  6
Continuous
 62
     8
370
    18
100
AcDbSpline
210
0.0
220
0.0
230
1.0
 70
     8
 71
     3
 72
    11
 73
     7
 74
     0
 42
0.000000001
 43
0.00000001
 40
0.0
 40
0.0
 40
0.0
 40
0.0
 40
0.2986044395547345
 40
0.5785107697795592
 40
0.9999675635113832
 40
0.9999999999999999
 40
0.9999999999999999
 40
0.9999999999999999
 40
0.9999999999999999
 10
1923.692074946019
 20
1415.659733474722
 30
0.0
 10
1923.692141528072
 20
1415.653897395616
 30
0.0
 10
1923.692270522923
 20
1415.642590682891
 30
0.0
 10
1923.612589314598
 20
1415.469156734764
 30
0.0
 10
1923.525515579343
 20
1415.263451829585
 30
0.0
 10
1923.472460939333
 20
1415.118217777899
 30
0.0
 10
1923.472456856415
 20
1415.118206601142
 30
0.0
  0
LINE
  5
294
330
1F
100
AcDbEntity
  8
0
  6
Continuous
 62
     8
370
    18
100
AcDbLine
 10
1923.5355076998
 20
1415.5368125546
 30
0.0
 11
1923.692074946
 21
1415.6597334747
 31
0.0
  0
SPLINE
  5
295
330
1F
100
AcDbEntity
  8
0
  6
Continuous
 62
     8
370
    18
100
AcDbSpline
210
0.0
220
0.0
230
1.0
 70
     8
 71
     3
 72
    18
 73
    14
 74
     0
 42
0.000000001
 43
0.00000001
 40
0.0
 40
0.0
 40
0.0
 40
0.0
 40
0.0497884573626104
 40
0.1520626953526046
 40
0.2542931679105393
 40
0.3525326664708903
 40
0.4508084200367166
 40
0.5543273934134044
 40
0.6578565275353601
 40
0.7740307271289419
 40
0.8901694733964504
 40
0.9999988953086806
 40
1.0
 40
1.0
 40
1.0
 40
1.0
 10
1922.150986521106
 20
1361.158378560202
 30
0.0
 10
1922.160181178697
 20
1361.174039456396
 30
0.0
 10
1922.188263278246
 20
1361.221870584595
 30
0.0
 10
1922.62205636761
 20
1361.307078553625
 30
0.0
 10
1924.137999936327
 20
1361.362649493479
 30
0.0
 10
1926.497970971814
 20
1361.427043195526
 30
0.0
 10
1929.587439300046
 20
1361.452132848139
 30
0.0
 10
1933.401968726291
 20
1361.440982041318
 30
0.0
 10
1938.035447353691
 20
1361.394085377437
 30
0.0
 10
1943.408213367429
 20
1361.315204040805
 30
0.0
 10
1949.309571979444
 20
1361.189932720082
 30
0.0
 10
1953.380951651961
 20
1361.065573130498
 30
0.0
 10
1955.36506415132
 20
1360.998144199908
 30
0.0
 10
1955.36508410781
 20
1360.998143521698
 30
0.0
  0
LINE
  5
296
330
1F
100
AcDbEntity
  8
0
  6
Continuous
 62
     8
370
    18
100
AcDbLine
 10
1921.2336329989
 20
1363.1616126056
 30
0.0
 11
1922.1509865211
 21
1361.1583785602
 31
0.0
  0
LINE
  5
297
330
1F
100
AcDbEntity
  8
0
  6
Continuous
 62
     8
370
    18
100
AcDbLine
 10
1988.5791816945
 20
1361.1583785602
 30
0.0
 11
1988.5020606118
 21
1361.0012667007
 31
0.0
  0
SPLINE
  5
298
330
1F
100
AcDbEntity
  8
0
  6
Continuous
 62
     8
370
    18
100
AcDbSpline
210
0.0
220
0.0
230
1.0
 70
     8
 71
     3
 72
    14
 73
    10
 74
     0
 42
0.000000001
 43
0.00000001
 40
0.0
 40
0.0
 40
0.0
 40
0.0
 40
0.2135072054013625
 40
0.651750415325559
 40
0.8731400298126222
 40
0.9340362681777993
 40
0.9607431005770668
 40
0.9801118651181867
 40
0.9999999999999999
 40
0.9999999999999999
 40
0.9999999999999999
 40
0.9999999999999999
 10
1988.502060611792
 20
1361.001266700688
 30
0.0
 10
1988.175175479843
 20
1360.407397832159
 30
0.0
 10
1987.177328498001
 20
1358.59455839667
 30
0.0
 10
1985.276002286343
 20
1356.540534434589
 30
0.0
 10
1983.433866207071
 20
1355.209078041959
 30
0.0
 10
1982.688853590925
 20
1354.758507471498
 30
0.0
 10
1982.503708775005
 20
1354.649628162652
 30
0.0
 10
1982.437819353257
 20
1354.610182224186
 30
0.0
 10
1982.439596437205
 20
1354.609562499848
 30
0.0
 10
1982.440496734625
 20
1354.609248538191
 30
0.0
  0
SPLINE
  5
299
330
1F
100
AcDbEntity
  8
0
  6
Continuous
 62
     8
370
    18
100
AcDbSpline
210
0.0
220
0.0
230
1.0
 70
     8
 71
     3
 72
    11
 73
     7
 74
     0
 42
0.000000001
 43
0.00000001
 40
0.0
 40
0.0
 40
0.0
 40
0.0
 40
0.1603195048292951
 40
0.453613658081494
 40
0.7293958077740555
 40
1.0
 40
1.0
 40
1.0
 40
1.0
 10
1982.955934374887
 20
1354.827766579643
 30
0.0
 10
1982.959776786883
 20
1354.829810472251
 30
0.0
 10
1982.970648642829
 20
1354.835593534041
 30
0.0
 10
1983.048773367145
 20
1354.881641262463
 30
0.0
 10
1983.175630662861
 20
1354.957426476523
 30
0.0
 10
1983.282876315585
 20
1355.026242215711
 30
0.0
 10
1983.335990972739
 20
1355.060324011112
 30
0.0
  0
SPLINE
  5
29A
330
1F
100
AcDbEntity
  8
0
  6
Continuous
 62
     8
370
    18
100
AcDbSpline
210
0.0
220
0.0
230
1.0
 70
     8
 71
     3
 72
    14
 73
    10
 74
     0
 42
0.000000001
 43
0.00000001
 40
0.0
 40
0.0
 40
0.0
 40
0.0
 40
0.2135072054014807
 40
0.6517504153255906
 40
0.873140029812634
 40
0.9340362681778055
 40
0.9607431005770705
 40
0.9801118651181885
 40
0.9999999999999999
 40
0.9999999999999999
 40
0.9999999999999999
 40
0.9999999999999999
 10
1922.228107603828
 20
1361.00126670069
 30
0.0
 10
1922.554992735777
 20
1360.40739783216
 30
0.0
 10
1923.552839717621
 20
1358.59455839667
 30
0.0
 10
1925.454165929278
 20
1356.540534434588
 30
0.0
 10
1927.29630200855
 20
1355.209078041959
 30
0.0
 10
1928.041314624696
 20
1354.758507471498
 30
0.0
 10
1928.226459440616
 20
1354.649628162652
 30
0.0
 10
1928.292348862364
 20
1354.610182224186
 30
0.0
 10
1928.290571778415
 20
1354.609562499848
 30
0.0
 10
1928.289671480996
 20
1354.60924853819
 30
0.0
  0
LINE
  5
29B
330
1F
100
AcDbEntity
  8
0
  6
Continuous
 62
     8
370
    18
100
AcDbLine
 10
1922.1509865211
 20
1361.1583785602
 30
0.0
 11
1922.2281076038
 21
1361.0012667007
 31
0.0
  0
SPLINE
  5
29C
330
1F
100
AcDbEntity
  8
0
  6
Continuous
 62
     8
370
    18
100
AcDbSpline
210
0.0
220
0.0
230
1.0
 70
     8
 71
     3
 72
     9
 73
     5
 74
     0
 42
0.000000001
 43
0.00000001
 40
0.0
 40
0.0
 40
0.0
 40
0.0
 40
0.4374209943265428
 40
1.0
 40
1.0
 40
1.0
 40
1.0
 10
1927.774233840736
 20
1354.827766579642
 30
0.0
 10
1927.771029478481
 20
1354.829420940004
 30
0.0
 10
1927.763703899013
 20
1354.833203018102
 30
0.0
 10
1927.721753249427
 20
1354.858012551744
 30
0.0
 10
1927.698152694696
 20
1354.871969874511
 30
0.0
  0
LINE
  5
29D
330
1F
100
AcDbEntity
  8
0
  6
Continuous
 62
     8
370
    18
100
AcDbLine
 10
1927.5288917678
 20
1354.9746700373
 30
0.0
 11
1927.40336845
 21
1355.0544800725
 31
0.0
  0
LWPOLYLINE
  5
29E
330
1F
100
AcDbEntity
  8
0
  6
Continuous
 62
     8
370
    18
100
AcDbPolyline
 90
        9
 70
   128
 43
0.0
 10
1921.2336329989
 20
1363.1616126056
 10
1921.2166976364
 20
1363.1542458978
 10
1921.1781642425
 20
1363.1375374413
 10
1921.1183370369
 20
1363.111619149
 10
1921.0376883534
 20
1363.0766956447
 10
1920.9368549105
 20
1363.0330426484
 10
1920.8166327847
 20
1362.9810047989
 10
1920.6779711256
 20
1362.9209929332
 10
1920.521964662
 20
1362.853480843
  0
SPLINE
  5
29F
330
1F
100
AcDbEntity
  8
0
  6
Continuous
 62
     8
370
    18
100
AcDbSpline
210
0.0
220
0.0
230
1.0
 70
     8
 71
     3
 72
    14
 73
    10
 74
     0
 42
0.000000001
 43
0.00000001
 40
0.0
 40
0.0
 40
0.0
 40
0.0
 40
0.1277343155302454
 40
0.2554736424753183
 40
0.3815295141037273
 40
0.5075900262814167
 40
0.7106819552125414
 40
0.913776185329017
 40
0.9999999999999999
 40
0.9999999999999999
 40
0.9999999999999999
 40
0.9999999999999999
 10
1920.521964661955
 20
1362.853480842952
 30
0.0
 10
1919.922723127105
 20
1364.34923386678
 30
0.0
 10
1918.724216547296
 20
1367.340798597483
 30
0.0
 10
1917.436816064167
 20
1371.984733918242
 30
0.0
 10
1916.527475246701
 20
1376.690634005277
 30
0.0
 10
1915.916253900336
 20
1382.403748739183
 30
0.0
 10
1915.929016550344
 20
1389.130786270365
 30
0.0
 10
1916.704114517998
 20
1395.312618925012
 30
0.0
 10
1917.551905553986
 20
1398.860794496933
 30
0.0
 10
1917.80456790424
 20
1399.918237122603
 30
0.0
  0
ARC
  5
2A0
330
1F
100
AcDbEntity
  8
0
  6
Continuous
 62
     8
370
    18
100
AcDbCircle
 10
1923.1601898378
 20
1420.8698619814
 30
0.0
 40
21.62529237993819
100
AcDbArc
 50
255.6611818031
 51
257.8989240717
  0
SPLINE
  5
2A1
330
1F
100
AcDbEntity
  8
0
  6
Continuous
 62
     8
370
    18
100
AcDbSpline
210
0.0
220
0.0
230
1.0
 70
     8
 71
     3
 72
    14
 73
    10
 74
     0
 42
0.000000001
 43
0.00000001
 40
0.0
 40
0.0
 40
0.0
 40
0.0
 40
0.1272473860604721
 40
0.2554745767697368
 40
0.3810919869018177
 40
0.5075916090131544
 40
0.7089607368256277
 40
0.9137762176246979
 40
1.0
 40
1.0
 40
1.0
 40
1.0
 10
1990.208203553667
 20
1362.853480842952
 30
0.0
 10
1990.805519407935
 20
1364.343390206883
 30
0.0
 10
1992.004750447498
 20
1367.334681234225
 30
0.0
 10
1993.290381332053
 20
1371.973443845518
 30
0.0
 10
1994.202461228192
 20
1376.685019838997
 30
0.0
 10
1994.811448894306
 20
1382.376650164985
 30
0.0
 10
1994.802000839904
 20
1389.10871729228
 30
0.0
 10
1994.031117826388
 20
1395.29152021848
 30
0.0
 10
1993.178267257562
 20
1398.860797131702
 30
0.0
 10
1992.925600311381
 20
1399.918237122603
 30
0.0
  0
LWPOLYLINE
  5
2A2
330
1F
100
AcDbEntity
  8
0
  6
Continuous
 62
     8
370
    18
100
AcDbPolyline
 90
        9
 70
   128
 43
0.0
 10
1989.4965352167
 20
1363.1616126056
 10
1989.5134705792
 20
1363.1542458978
 10
1989.5520039731
 20
1363.1375374413
 10
1989.6118311787
 20
1363.111619149
 10
1989.6924798622
 20
1363.0766956447
 10
1989.7933133051
 20
1363.0330426484
 10
1989.9135354309
 20
1362.9810047989
 10
1990.0521970901
 20
1362.9209929332
 10
1990.2082035537
 20
1362.853480843
  0
ARC
  5
2A3
330
1F
100
AcDbEntity
  8
0
  6
Continuous
 62
     8
370
    18
100
AcDbCircle
 10
1987.5699783778
 20
1420.8698619813
 30
0.0
 40
21.62529237984054
100
AcDbArc
 50
282.1010759283
 51
284.3388181969
  0
SPLINE
  5
2A4
330
1F
100
AcDbEntity
  8
0
  6
Continuous
 62
     8
370
    18
100
AcDbSpline
210
0.0
220
0.0
230
1.0
 70
     8
 71
     3
 72
    17
 73
    13
 74
     0
 42
0.000000001
 43
0.00000001
 40
0.0
 40
0.0
 40
0.0
 40
0.0
 40
0.0045109817899505
 40
0.0089278415503377
 40
0.0130797684277632
 40
0.01777779217689
 40
0.0339670776357905
 40
0.0840600072516068
 40
0.3047425979556614
 40
0.7692822253149053
 40
0.8273200843747942
 40
1.0
 40
1.0
 40
1.0
 40
1.0
 10
1982.73420941395
 20
1354.752707511889
 30
0.0
 10
1982.729890126011
 20
1354.750943723077
 30
0.0
 10
1982.721341672455
 20
1354.747452947063
 30
0.0
 10
1982.722534131203
 20
1354.74916748286
 30
0.0
 10
1982.737383227498
 20
1354.75748838871
 30
0.0
 10
1982.78432183907
 20
1354.782158440146
 30
0.0
 10
1982.966666364946
 20
1354.875370631957
 30
0.0
 10
1983.734673421207
 20
1355.279314573284
 30
0.0
 10
1985.631589204354
 20
1356.470427942534
 30
0.0
 10
1987.27556431768
 20
1358.067540469107
 30
0.0
 10
1988.544222172986
 20
1359.754190306046
 30
0.0
 10
1988.909817440444
 20
1360.3523221838
 30
0.0
 10
1989.183445946196
 20
1360.799991906362
 30
0.0
  0
ARC
  5
2A5
330
1F
100
AcDbEntity
  8
0
  6
Continuous
 62
     8
370
    18
100
AcDbCircle
 10
1983.8882840929
 20
1352.0174992251
 30
0.0
 40
2.968712302791498
100
AcDbArc
 50
112.8764869258
 51
119.1883353828
  0
ARC
  5
2A6
330
1F
100
AcDbEntity
  8
0
  6
Continuous
 62
     8
370
    18
100
AcDbCircle
 10
1988.3708747184
 20
1359.3031558998
 30
0.0
 40
1.703170581841449
100
AcDbArc
 50
61.5042694372
 51
85.582444766
  0
ARC
  5
2A7
330
1F
100
AcDbEntity
  8
0
  6
Continuous
 62
     8
370
    18
100
AcDbCircle
 10
1926.8418841227
 20
1352.0174992252
 30
0.0
 40
2.968712302710725
100
AcDbArc
 50
60.8116646172
 51
67.1235130744
  0
SPLINE
  5
2A8
330
1F
100
AcDbEntity
  8
0
  6
Continuous
 62
     8
370
    18
100
AcDbSpline
210
0.0
220
0.0
230
1.0
 70
     8
 71
     3
 72
    17
 73
    13
 74
     0
 42
0.000000001
 43
0.00000001
 40
0.0
 40
0.0
 40
0.0
 40
0.0
 40
0.0045109817899509
 40
0.0089278415503383
 40
0.0130797684277642
 40
0.017777792176891
 40
0.0339670776357923
 40
0.0840600072516113
 40
0.3047425979556762
 40
0.7692822253148922
 40
0.8273200843747831
 40
1.0
 40
1.0
 40
1.0
 40
1.0
 10
1927.995958801671
 20
1354.752707511888
 30
0.0
 10
1928.000278089609
 20
1354.750943723077
 30
0.0
 10
1928.008826543166
 20
1354.747452947063
 30
0.0
 10
1928.007634084417
 20
1354.749167482859
 30
0.0
 10
1927.992784988123
 20
1354.75748838871
 30
0.0
 10
1927.945846376551
 20
1354.782158440146
 30
0.0
 10
1927.763501850676
 20
1354.875370631957
 30
0.0
 10
1926.995494794415
 20
1355.279314573284
 30
0.0
 10
1925.098579011267
 20
1356.470427942534
 30
0.0
 10
1923.454603897941
 20
1358.067540469107
 30
0.0
 10
1922.185946042636
 20
1359.754190306046
 30
0.0
 10
1921.820350775178
 20
1360.3523221838
 30
0.0
 10
1921.546722269426
 20
1360.799991906362
 30
0.0
  0
ARC
  5
2A9
330
1F
100
AcDbEntity
  8
0
  6
Continuous
 62
     8
370
    18
100
AcDbCircle
 10
1922.3592934972
 20
1359.3031558997
 30
0.0
 40
1.703170581853624
100
AcDbArc
 50
94.4175552344
 51
118.4957305629
  0
SPLINE
  5
2AA
330
1F
100
AcDbEntity
  8
0
  6
Continuous
 62
     8
370
    18
100
AcDbSpline
210
0.0
220
0.0
230
1.0
 70
     8
 71
     3
 72
    10
 73
     6
 74
     0
 42
0.000000001
 43
0.00000001
 40
0.0
 40
0.0
 40
0.0
 40
0.0
 40
0.0049102993503902
 40
0.1151643441717004
 40
1.0
 40
1.0
 40
1.0
 40
1.0
 10
1917.80456790424
 20
1399.918237122603
 30
0.0
 10
1917.809197984267
 20
1399.936172684688
 30
0.0
 10
1917.917790168111
 20
1400.356826721753
 30
0.0
 10
1918.876535764623
 20
1404.005616346926
 30
0.0
 10
1920.029970987651
 20
1407.579558637152
 30
0.0
 10
1921.055607783366
 20
1410.757514924108
 30
0.0
  0
ARC
  5
2AB
330
1F
100
AcDbEntity
  8
0
  6
Continuous
 62
     8
370
    18
100
AcDbCircle
 10
1955.4019221483
 20
1510.5815493728
 30
0.0
 40
105.5675478737525
100
AcDbArc
 50
251.0132691525
 51
251.4407337296
  0
ARC
  5
2AC
330
1F
100
AcDbEntity
  8
0
  6
Continuous
 62
     8
370
    18
100
AcDbCircle
 10
1955.3282460584
 20
1510.5815493988
 30
0.0
 40
105.5675479012312
100
AcDbArc
 50
288.5592662705
 51
288.9867308474
  0
SPLINE
  5
2AD
330
1F
100
AcDbEntity
  8
0
  6
Continuous
 62
     8
370
    18
100
AcDbSpline
210
0.0
220
0.0
230
1.0
 70
     8
 71
     3
 72
    10
 73
     6
 74
     0
 42
0.000000001
 43
0.00000001
 40
0.0
 40
0.0
 40
0.0
 40
0.0
 40
0.0049102993503903
 40
0.1151643441716869
 40
1.0
 40
1.0
 40
1.0
 40
1.0
 10
1992.925600311381
 20
1399.918237122603
 30
0.0
 10
1992.920970231354
 20
1399.936172684688
 30
0.0
 10
1992.81237804751
 20
1400.356826721754
 30
0.0
 10
1991.853632451001
 20
1404.005616346927
 30
0.0
 10
1990.700197227972
 20
1407.579558637153
 30
0.0
 10
1989.674560432256
 20
1410.757514924108
 30
0.0
  0
ARC
  5
2AE
330
1F
100
AcDbEntity
  8
0
  6
Continuous
 62
     8
370
    18
100
AcDbCircle
 10
1989.669248202
 20
1417.0856253443
 30
0.0
 40
2.992681724126017
100
AcDbArc
 50
208.4544255779
 51
226.4525487523
  0
SPLINE
  5
2AF
330
1F
100
AcDbEntity
  8
0
  6
Continuous
 62
     8
370
    18
100
AcDbSpline
210
0.0
220
0.0
230
1.0
 70
     8
 71
     3
 72
    15
 73
    11
 74
     0
 42
0.000000001
 43
0.00000001
 40
0.0
 40
0.0
 40
0.0
 40
0.0
 40
0.3092031051605865
 40
0.6638382552574864
 40
0.8039861739636712
 40
0.9077221477257729
 40
0.9361281220494163
 40
0.9546919441403819
 40
0.9789089794125909
 40
1.0
 40
1.0
 40
1.0
 40
1.0
 10
1989.674560432256
 20
1410.757514924108
 30
0.0
 10
1989.49060096354
 20
1411.245234433836
 30
0.0
 10
1989.095652365961
 20
1412.292335394303
 30
0.0
 10
1988.446114702685
 20
1413.493521296993
 30
0.0
 10
1987.94563386512
 20
1414.349598977538
 30
0.0
 10
1987.722937364522
 20
1414.711728646526
 30
0.0
 10
1987.627769040262
 20
1414.86107134398
 30
0.0
 10
1987.598495493411
 20
1414.910430687405
 30
0.0
 10
1987.589861019695
 20
1414.93123240863
 30
0.0
 10
1987.601845920622
 20
1414.921191574034
 30
0.0
 10
1987.6074249239
 20
1414.916517538807
 30
0.0
  0
SPLINE
  5
2B0
330
1F
100
AcDbEntity
  8
0
  6
Continuous
 62
     8
370
    18
100
AcDbSpline
210
0.0
220
0.0
230
1.0
 70
     8
 71
     3
 72
    15
 73
    11
 74
     0
 42
0.000000001
 43
0.00000001
 40
0.0
 40
0.0
 40
0.0
 40
0.0
 40
0.3092031051605304
 40
0.6638382552574233
 40
0.8039861739636744
 40
0.9077221477257743
 40
0.9361281220494174
 40
0.9546919441403826
 40
0.9789089794125913
 40
1.0
 40
1.0
 40
1.0
 40
1.0
 10
1921.055607783366
 20
1410.757514924108
 30
0.0
 10
1921.239567252081
 20
1411.245234433836
 30
0.0
 10
1921.63451584966
 20
1412.292335394303
 30
0.0
 10
1922.284053512935
 20
1413.493521296994
 30
0.0
 10
1922.784534350501
 20
1414.349598977538
 30
0.0
 10
1923.0072308511
 20
1414.711728646526
 30
0.0
 10
1923.10239917536
 20
1414.86107134398
 30
0.0
 10
1923.13167272221
 20
1414.910430687405
 30
0.0
 10
1923.140307195926
 20
1414.93123240863
 30
0.0
 10
1923.128322295
 20
1414.921191574034
 30
0.0
 10
1923.122743291721
 20
1414.916517538806
 30
0.0
  0
ARC
  5
2B1
330
1F
100
AcDbEntity
  8
0
  6
Continuous
 62
     8
370
    18
100
AcDbCircle
 10
1921.0609200137
 20
1417.0856253443
 30
0.0
 40
2.992681724095033
100
AcDbArc
 50
313.5474512476
 51
331.5455744223
  0
LINE
  5
2B2
330
1F
100
AcDbEntity
  8
0
  6
Continuous
 62
     8
370
    18
100
AcDbLine
 10
1989.2761125157
 20
1360.9635290831
 30
0.0
 11
1990.2082035537
 21
1362.853480843
 31
0.0
  0
ARC
  5
2B3
330
1F
100
AcDbEntity
  8
0
  6
Continuous
 62
     8
370
    18
100
AcDbCircle
 10
1988.4786774509
 20
1359.4550948044
 30
0.0
 40
1.706246364307708
100
AcDbArc
 50
62.1367925984
 51
86.6231112419
  0
ARC
  5
2B4
330
1F
100
AcDbEntity
  8
0
  6
Continuous
 62
     8
370
    18
100
AcDbCircle
 10
1922.2514907647
 20
1359.4550948044
 30
0.0
 40
1.706246364305712
100
AcDbArc
 50
93.376888758
 51
117.8632074017
  0
LINE
  5
2B5
330
1F
100
AcDbEntity
  8
0
  6
Continuous
 62
     8
370
    18
100
AcDbLine
 10
1921.4540556999
 20
1360.9635290831
 30
0.0
 11
1920.521964662
 21
1362.853480843
 31
0.0
  0
ARC
  5
2B6
330
1F
100
AcDbEntity
  8
0
  6
Continuous
 62
     8
370
    18
100
AcDbCircle
 10
1989.6970131656
 20
1412.5040500806
 30
0.0
 40
12.99332377687283
100
AcDbArc
 50
284.3876121929
 51
286.8712772964
  0
ARC
  5
2B7
330
1F
100
AcDbEntity
  8
0
  6
Continuous
 62
     8
370
    18
100
AcDbCircle
 10
2001.1098513269
 20
1388.0487765306
 30
0.0
 40
27.45266560749737
100
AcDbArc
 50
246.6025480368
 51
247.6829243032
  0
ARC
  5
2B8
330
1F
100
AcDbEntity
  8
0
  6
Continuous
 62
     8
370
    18
100
AcDbCircle
 10
1921.0331550498
 20
1412.5040500798
 30
0.0
 40
12.99332377604694
100
AcDbArc
 50
253.1287227035
 51
255.6123878072
  0
ARC
  5
2B9
330
1F
100
AcDbEntity
  8
0
  6
Continuous
 62
     8
370
    18
100
AcDbCircle
 10
1909.6203168906
 20
1388.0487765261
 30
0.0
 40
27.45266560266442
100
AcDbArc
 50
292.3170756967
 51
293.3974519633
  0
LINE
  5
2BA
330
1F
100
AcDbEntity
  8
0
  6
Continuous
 62
     8
370
    18
100
AcDbLine
 10
1921.5467222694
 20
1360.7999919064
 30
0.0
 11
1921.4540556999
 21
1360.9635290831
 31
0.0
  0
LINE
  5
2BB
330
1F
100
AcDbEntity
  8
0
  6
Continuous
 62
     8
370
    18
100
AcDbLine
 10
1989.1834459462
 20
1360.7999919064
 30
0.0
 11
1989.2761125157
 21
1360.9635290831
 31
0.0
  0
ARC
  5
2BC
330
1F
100
AcDbEntity
  8
0
  6
Continuous
 62
     8
370
    18
100
AcDbCircle
 10
1988.6494881895
 20
1359.8603750023
 30
0.0
 40
1.080736236281258
100
AcDbArc
 50
35.0981925254
 51
60.3916535263
  0
ARC
  5
2BD
330
1F
100
AcDbEntity
  8
0
  6
Continuous
 62
     8
370
    18
100
AcDbCircle
 10
1922.0806800262
 20
1359.8603750023
 30
0.0
 40
1.080736236308484
100
AcDbArc
 50
119.608346474
 51
144.9018074743
  0
ARC
  5
2BE
330
1F
100
AcDbEntity
  8
0
  6
Continuous
 62
     8
370
    18
100
AcDbCircle
 10
1962.8486461723
 20
1532.126805574
 30
0.0
 40
128.3634012117603
100
AcDbArc
 50
250.7644365914
 51
250.9990545452
  0
ARC
  5
2BF
330
1F
100
AcDbEntity
  8
0
  6
Continuous
 62
     8
370
    18
100
AcDbCircle
 10
1947.8815220544
 20
1532.1268055423
 30
0.0
 40
128.3634011781519
100
AcDbArc
 50
289.0009454547
 51
289.2355634086
  0
ARC
  5
2C0
330
1F
100
AcDbEntity
  8
0
  6
Continuous
 62
     8
370
    18
100
AcDbCircle
 10
1926.2409716925
 20
1352.2569324652
 30
0.0
 40
2.993339416015853
100
AcDbArc
 50
59.1878754259
 51
65.0637682689
  0
ARC
  5
2C1
330
1F
100
AcDbEntity
  8
0
  6
Continuous
 62
     8
370
    18
100
AcDbCircle
 10
1984.4891965231
 20
1352.2569324652
 30
0.0
 40
2.993339415927202
100
AcDbArc
 50
114.9362317311
 51
120.8121245742
  0
ARC
  5
2C2
330
1F
100
AcDbEntity
  8
0
  6
Continuous
 62
     8
370
    18
100
AcDbCircle
 10
1920.8684040638
 20
1416.9069055098
 30
0.0
 40
2.998432342264138
100
AcDbArc
 50
314.7050712487
 51
332.8104033968
  0
ARC
  5
2C3
330
1F
100
AcDbEntity
  8
0
  6
Continuous
 62
     8
370
    18
100
AcDbCircle
 10
1989.8617641519
 20
1416.9069055098
 30
0.0
 40
2.99843234227555
100
AcDbArc
 50
207.1895966032
 51
225.2949287513
  0
SPLINE
  5
2C4
330
1F
100
AcDbEntity
  8
0
  6
Continuous
 62
     8
370
    18
100
AcDbSpline
210
0.0
220
0.0
230
1.0
 70
     8
 71
     3
 72
    14
 73
    10
 74
     0
 42
0.000000001
 43
0.00000001
 40
0.0
 40
0.0
 40
0.0
 40
0.0
 40
0.1092374782648828
 40
0.25812536352306
 40
0.4079301969031824
 40
0.5608445870782763
 40
0.7149451852848362
 40
0.925672904332975
 40
1.0
 40
1.0
 40
1.0
 40
1.0
 10
1990.531807996214
 20
1361.795381020426
 30
0.0
 10
1990.701711117651
 20
1362.179972235542
 30
0.0
 10
1991.103187842318
 20
1363.088751427321
 30
0.0
 10
1991.713512003176
 20
1364.628096301542
 30
0.0
 10
1992.350748133651
 20
1366.427532566731
 30
0.0
 10
1992.945433799156
 20
1368.346320130165
 30
0.0
 10
1993.540880537473
 20
1370.624868985279
 30
0.0
 10
1993.991990243996
 20
1372.631879848173
 30
0.0
 10
1994.191555279098
 20
1373.988826596545
 30
0.0
 10
1994.243591198823
 20
1374.342645951892
 30
0.0
  0
LWPOLYLINE
  5
2C5
330
1F
100
AcDbEntity
  8
0
  6
Continuous
 62
     8
370
    18
100
AcDbPolyline
 90
        3
 70
   128
 43
0.0
 10
1990.5318079962
 20
1361.7953810204
 10
1990.2121113255
 20
1361.8047958292
 10
1990.1929829285
 20
1361.8043453143
  0
LWPOLYLINE
  5
2C6
330
1F
100
AcDbEntity
  8
0
  6
Continuous
 62
     8
370
    18
100
AcDbPolyline
 90
        9
 70
   128
 43
0.0
 10
1990.5318079962
 20
1361.7953810204
 10
1992.4791428941
 20
1362.338091438
 10
1994.281975413
 20
1363.1000996235
 10
1995.8939017662
 20
1364.0617919605
 10
1997.2734319726
 20
1365.1984150868
 10
1998.3850577833
 20
1366.4807130306
 10
1999.2001666418
 20
1367.875680241
 10
1999.6977781535
 20
1369.3474111301
 10
1999.8650841078
 20
1370.858024261
  0
SPLINE
  5
2C7
330
1F
100
AcDbEntity
  8
0
  6
Continuous
 62
     8
370
    18
100
AcDbSpline
210
0.0
220
0.0
230
1.0
 70
     8
 71
     3
 72
     9
 73
     5
 74
     0
 42
0.000000001
 43
0.00000001
 40
0.0
 40
0.0
 40
0.0
 40
0.0
 40
0.5770474436019639
 40
1.0
 40
1.0
 40
1.0
 40
1.0
 10
1986.865084107811
 20
1356.568135230283
 30
0.0
 10
1987.656373628587
 20
1357.422931394943
 30
0.0
 10
1989.027646527462
 20
1358.904258752229
 30
0.0
 10
1990.084717237226
 20
1360.936035746619
 30
0.0
 10
1990.531807996214
 20
1361.795381020426
 30
0.0
  0
SPLINE
  5
2C8
330
1F
100
AcDbEntity
  8
0
  6
Continuous
 62
     8
370
    18
100
AcDbSpline
210
0.0
220
0.0
230
1.0
 70
     8
 71
     3
 72
    10
 73
     6
 74
     0
 42
0.000000001
 43
0.00000001
 40
0.0
 40
0.0
 40
0.0
 40
0.0
 40
0.3947082167601199
 40
0.7987089853916912
 40
1.0
 40
1.0
 40
1.0
 40
1.0
 10
1986.865084107811
 20
1356.568135230283
 30
0.0
 10
1985.721713567336
 20
1355.838068516453
 30
0.0
 10
1983.408054298206
 20
1354.360747245927
 30
0.0
 10
1980.238185737601
 20
1353.240290183659
 30
0.0
 10
1978.26934571077
 20
1353.075367404931
 30
0.0
 10
1977.614603952207
 20
1353.020521999159
 30
0.0
  0
LWPOLYLINE
  5
2C9
330
1F
100
AcDbEntity
  8
0
  6
Continuous
 62
     8
370
    18
100
AcDbPolyline
 90
       10
 70
   128
 43
0.0
 10
1999.8650841078
 20
1367.5670183824
 10
1999.667584897
 20
1365.6570823667
 10
1999.081088178
 20
1363.8051787903
 10
1998.123414357
 20
1362.0675768063
 10
1996.8236618684
 20
1360.4970725718
 10
1995.2213230337
 20
1359.1413850632
 10
1993.3650841078
 20
1358.0417061594
 10
1991.311345971
 20
1357.2314490475
 10
1989.1225104175
 20
1356.7352329797
 10
1986.8650841078
 20
1356.5681352303
  0
LINE
  5
2CA
330
1F
100
AcDbEntity
  8
0
  6
Continuous
 62
     8
370
    18
100
AcDbLine
 10
1986.8650841078
 20
1352.7121369965
 30
0.0
 11
1986.8650841078
 21
1356.5681352303
 31
0.0
  0
SPLINE
  5
2CB
330
1F
100
AcDbEntity
  8
0
  6
Continuous
 62
     8
370
    18
100
AcDbSpline
210
0.0
220
0.0
230
1.0
 70
     8
 71
     3
 72
    17
 73
    13
 74
     0
 42
0.000000001
 43
0.00000001
 40
0.0
 40
0.0
 40
0.0
 40
0.0
 40
0.2229912195096686
 40
0.5008176009795289
 40
0.6858965399871122
 40
0.866577165189906
 40
0.9279597470315037
 40
0.9497616361806115
 40
0.9717583090123122
 40
0.9770054670051183
 40
0.9922372900676586
 40
1.0
 40
1.0
 40
1.0
 40
1.0
 10
1925.666125555817
 20
1356.126661317401
 30
0.0
 10
1925.80186884493
 20
1356.026247858981
 30
0.0
 10
1926.106735684763
 20
1355.800728542737
 30
0.0
 10
1926.545267194686
 20
1355.521844001283
 30
0.0
 10
1926.961509823601
 20
1355.271223041473
 30
0.0
 10
1927.242096217391
 20
1355.113159655241
 30
0.0
 10
1927.409208373189
 20
1355.022317129412
 30
0.0
 10
1927.467194595852
 20
1354.991012797649
 30
0.0
 10
1927.489010526754
 20
1354.979209422174
 30
0.0
 10
1927.500833627011
 20
1354.972717457934
 30
0.0
 10
1927.50489077628
 20
1354.970402477913
 30
0.0
 10
1927.503470820807
 20
1354.971017820293
 30
0.0
 10
1927.502991458932
 20
1354.97122555334
 30
0.0
  0
LINE
  5
2CC
330
1F
100
AcDbEntity
  8
0
  6
Continuous
 62
     8
370
    18
100
AcDbLine
 10
1899.8650841078
 20
1434.158575496
 30
0.0
 11
1899.8650841078
 21
1433.158575496
 31
0.0
  0
LINE
  5
2CD
330
1F
100
AcDbEntity
  8
0
  6
Continuous
 62
     8
370
    18
100
AcDbLine
 10
2010.8650841078
 20
1433.158575496
 30
0.0
 11
2010.8650841078
 21
1434.158575496
 31
0.0
  0
LINE
  5
2CE
330
1F
100
AcDbEntity
  8
0
  6
Continuous
 62
     8
370
    18
100
AcDbLine
 10
1990.3650841078
 20
1445.158575496
 30
0.0
 11
1920.3650841078
 21
1445.158575496
 31
0.0
  0
LINE
  5
2CF
330
1F
100
AcDbEntity
  8
0
  6
Continuous
 62
     7
370
    35
100
AcDbLine
 10
1564.5077799216
 20
1060.6837880213
 30
0.0
 11
984.5077799216
 21
1060.6837880213
 31
0.0
  0
LINE
  5
2D0
330
1F
100
AcDbEntity
  8
0
  6
Continuous
 62
     7
370
    35
100
AcDbLine
 10
1564.5077799216
 20
1057.6837880213
 30
0.0
 11
984.5077799216
 21
1057.6837880213
 31
0.0
  0
LINE
  5
2D1
330
1F
100
AcDbEntity
  8
0
  6
Continuous
 62
     7
370
    35
100
AcDbLine
 10
1564.5077799216
 20
1060.5980015836
 30
0.0
 11
1564.5077799216
 21
1057.7695744589
 31
0.0
  0
LINE
  5
2D2
330
1F
100
AcDbEntity
  8
0
  6
Continuous
 62
     7
370
    35
100
AcDbLine
 10
984.5077799216
 20
1057.7695744589
 30
0.0
 11
984.5077799216
 21
1060.5980015836
 31
0.0
  0
LINE
  5
2D3
330
1F
100
AcDbEntity
  8
0
  6
Continuous
 62
     7
370
    35
100
AcDbLine
 10
984.5077799216
 20
993.6837880213
 30
0.0
 11
1564.5077799216
 21
993.6837880213
 31
0.0
  0
LINE
  5
2D4
330
1F
100
AcDbEntity
  8
0
  6
Continuous
 62
     7
370
    35
100
AcDbLine
 10
984.5077799216
 20
990.6837880213
 30
0.0
 11
1564.5077799216
 21
990.6837880213
 31
0.0
  0
LINE
  5
2D5
330
1F
100
AcDbEntity
  8
0
  6
Continuous
 62
     7
370
    35
100
AcDbLine
 10
984.5077799216
 20
990.7695744589
 30
0.0
 11
984.5077799216
 21
993.5980015836
 31
0.0
  0
LINE
  5
2D6
330
1F
100
AcDbEntity
  8
0
  6
Continuous
 62
     7
370
    35
100
AcDbLine
 10
1564.5077799216
 20
993.5980015836
 30
0.0
 11
1564.5077799216
 21
990.7695744589
 31
0.0
  0
LINE
  5
2D7
330
1F
100
AcDbEntity
  8
0
  6
Continuous
 62
     7
370
    35
100
AcDbLine
 10
1564.5077799216
 20
1061.6837880213
 30
0.0
 11
1564.5077799216
 21
1060.6837880213
 31
0.0
  0
LINE
  5
2D8
330
1F
100
AcDbEntity
  8
0
  6
Continuous
 62
     7
370
    35
100
AcDbLine
 10
984.5077799216
 20
1060.6837880213
 30
0.0
 11
984.5077799216
 21
1061.6837880213
 31
0.0
  0
LINE
  5
2D9
330
1F
100
AcDbEntity
  8
0
  6
Continuous
 62
     7
370
    35
100
AcDbLine
 10
1564.5077799216
 20
989.6837880213
 30
0.0
 11
1564.5077799216
 21
990.6837880213
 31
0.0
  0
LINE
  5
2DA
330
1F
100
AcDbEntity
  8
0
  6
Continuous
 62
     7
370
    35
100
AcDbLine
 10
984.5077799216
 20
990.6837880213
 30
0.0
 11
984.5077799216
 21
989.6837880213
 31
0.0
  0
LINE
  5
2DB
330
1F
100
AcDbEntity
  8
0
  6
Continuous
 62
     7
370
    35
100
AcDbLine
 10
984.5077799216
 20
1091.1837880213
 30
0.0
 11
1564.5077799216
 21
1091.1837880213
 31
0.0
  0
LINE
  5
2DC
330
1F
100
AcDbEntity
  8
0
  6
Continuous
 62
     7
370
    35
100
AcDbLine
 10
1564.5077799216
 20
1091.1837880213
 30
0.0
 11
1564.5077799216
 21
1061.6837880213
 31
0.0
  0
LINE
  5
2DD
330
1F
100
AcDbEntity
  8
0
  6
Continuous
 62
     7
370
    35
100
AcDbLine
 10
984.5077799216
 20
1061.6837880213
 30
0.0
 11
984.5077799216
 21
1091.1837880213
 31
0.0
  0
LINE
  5
2DE
330
1F
100
AcDbEntity
  8
0
  6
Continuous
 62
     7
370
    35
100
AcDbLine
 10
1564.5077799216
 20
960.1837880213
 30
0.0
 11
984.5077799216
 21
960.1837880213
 31
0.0
  0
LINE
  5
2DF
330
1F
100
AcDbEntity
  8
0
  6
Continuous
 62
     7
370
    35
100
AcDbLine
 10
984.5077799216
 20
960.1837880213
 30
0.0
 11
984.5077799216
 21
989.6837880213
 31
0.0
  0
LINE
  5
2E0
330
1F
100
AcDbEntity
  8
0
  6
Continuous
 62
     7
370
    35
100
AcDbLine
 10
1564.5077799216
 20
989.6837880213
 30
0.0
 11
1564.5077799216
 21
960.1837880213
 31
0.0
  0
SPLINE
  5
2E1
330
1F
100
AcDbEntity
  8
0
  6
Continuous
 62
     7
370
    35
100
AcDbSpline
210
0.0
220
0.0
230
1.0
 70
     8
 71
     3
 72
     8
 73
     4
 74
     0
 42
0.000000001
 43
0.00000001
 40
0.0
 40
0.0
 40
0.0
 40
0.0
 40
1.0
 40
1.0
 40
1.0
 40
1.0
 10
1327.507779921584
 20
1054.939572219865
 30
0.0
 10
1329.764902178596
 20
1054.939572219865
 30
0.0
 10
1332.021730896383
 20
1054.871581013821
 30
0.0
 10
1334.275042893471
 20
1054.740682395477
 30
0.0
  0
LINE
  5
2E2
330
1F
100
AcDbEntity
  8
0
  6
Continuous
 62
     7
370
    35
100
AcDbLine
 10
1221.5077799216
 20
1054.9395722199
 30
0.0
 11
1327.5077799216
 21
1054.9395722199
 31
0.0
  0
SPLINE
  5
2E3
330
1F
100
AcDbEntity
  8
0
  6
Continuous
 62
     7
370
    35
100
AcDbSpline
210
0.0
220
0.0
230
1.0
 70
     8
 71
     3
 72
     8
 73
     4
 74
     0
 42
0.000000001
 43
0.00000001
 40
0.0
 40
0.0
 40
0.0
 40
0.0
 40
1.0
 40
1.0
 40
1.0
 40
1.0
 10
1214.740516949696
 20
1054.740682395477
 30
0.0
 10
1216.993828640089
 20
1054.871580995792
 30
0.0
 10
1219.250652770352
 20
1054.939572219865
 30
0.0
 10
1221.507779921583
 20
1054.939572219865
 30
0.0
  0
SPLINE
  5
2E4
330
1F
100
AcDbEntity
  8
0
  6
Continuous
 62
     7
370
    35
100
AcDbSpline
210
0.0
220
0.0
230
1.0
 70
     8
 71
     3
 72
    22
 73
    18
 74
     0
 42
0.000000001
 43
0.00000001
 40
3.369126305560274
 40
3.369126305560274
 40
3.369126305560274
 40
3.369126305560274
 40
3.535853022596993
 40
3.535853022596993
 40
3.702579739633712
 40
3.702579739633712
 40
3.869306456670431
 40
3.869306456670431
 40
4.036033173707151
 40
4.036033173707151
 40
4.20275989074387
 40
4.20275989074387
 40
4.369486607780589
 40
4.369486607780589
 40
4.536213324817307
 40
4.536213324817307
 40
4.702940041854027
 40
4.702940041854027
 40
4.702940041854027
 40
4.702940041854027
 10
1191.509119148209
 20
1025.79737518304
 30
0.0
 10
1191.52487291179
 20
1027.464577766941
 30
0.0
 10
1191.67993013011
 20
1029.130422911827
 30
0.0
 10
1192.264359679671
 20
1032.413342553112
 30
0.0
 10
1192.693724401222
 20
1034.03036498413
 30
0.0
 10
1193.814867902907
 20
1037.170772046624
 30
0.0
 10
1194.506632263354
 20
1038.694116287478
 30
0.0
 10
1196.133396523459
 20
1041.604916402838
 30
0.0
 10
1197.068375500345
 20
1042.992334839831
 30
0.0
 10
1199.155644709723
 20
1045.592801435871
 30
0.0
 10
1200.307908096617
 20
1046.805816148786
 30
0.0
 10
1202.797795048374
 20
1049.023829277017
 30
0.0
 10
1204.135386589336
 20
1050.02879916516
 30
0.0
 10
1206.958838091643
 20
1051.802845636833
 30
0.0
 10
1208.444661738916
 20
1052.571899403308
 30
0.0
 10
1211.523373699262
 20
1053.852778763264
 30
0.0
 10
1213.116212913325
 20
1054.364585682504
 30
0.0
 10
1214.740516949696
 20
1054.740682395477
 30
0.0
  0
SPLINE
  5
2E5
330
1F
100
AcDbEntity
  8
0
  6
Continuous
 62
     7
370
    35
100
AcDbSpline
210
0.0
220
0.0
230
1.0
 70
     8
 71
     3
 72
     8
 73
     4
 74
     0
 42
0.000000001
 43
0.00000001
 40
0.0
 40
0.0
 40
0.0
 40
0.0
 40
0.0000569949035229
 40
0.0000569949035229
 40
0.0000569949035229
 40
0.0000569949035229
 10
1191.508113260846
 20
1025.740480808828
 30
0.0
 10
1191.508336483107
 20
1025.759447245154
 30
0.0
 10
1191.50867199134
 20
1025.778412691951
 30
0.0
 10
1191.509119148209
 20
1025.79737518304
 30
0.0
  0
SPLINE
  5
2E6
330
1F
100
AcDbEntity
  8
0
  6
Continuous
 62
     7
370
    35
100
AcDbSpline
210
0.0
220
0.0
230
1.0
 70
     8
 71
     3
 72
     8
 73
     4
 74
     0
 42
0.000000001
 43
0.00000001
 40
0.0
 40
0.0
 40
0.0
 40
0.0
 40
0.0000569949035229
 40
0.0000569949035229
 40
0.0000569949035229
 40
0.0000569949035229
 10
1357.506440694957
 20
1025.79737518304
 30
0.0
 10
1357.506887851827
 20
1025.778412691951
 30
0.0
 10
1357.50722336006
 20
1025.759447245154
 30
0.0
 10
1357.50744658232
 20
1025.740480808828
 30
0.0
  0
SPLINE
  5
2E7
330
1F
100
AcDbEntity
  8
0
  6
Continuous
 62
     7
370
    35
100
AcDbSpline
210
0.0
220
0.0
230
1.0
 70
     8
 71
     3
 72
    22
 73
    18
 74
     0
 42
0.000000001
 43
0.00000001
 40
1.580245265325559
 40
1.580245265325559
 40
1.580245265325559
 40
1.580245265325559
 40
1.746971982362278
 40
1.746971982362278
 40
1.913698699398998
 40
1.913698699398998
 40
2.080425416435717
 40
2.080425416435717
 40
2.247152133472436
 40
2.247152133472436
 40
2.413878850509155
 40
2.413878850509155
 40
2.580605567545874
 40
2.580605567545874
 40
2.747332284582593
 40
2.747332284582593
 40
2.914059001619312
 40
2.914059001619312
 40
2.914059001619312
 40
2.914059001619312
 10
1334.275042893471
 20
1054.740682395477
 30
0.0
 10
1335.899346929842
 20
1054.364585682504
 30
0.0
 10
1337.492186143905
 20
1053.852778763264
 30
0.0
 10
1340.570898104251
 20
1052.571899403308
 30
0.0
 10
1342.056721751524
 20
1051.802845636833
 30
0.0
 10
1344.880173253831
 20
1050.02879916516
 30
0.0
 10
1346.217764794793
 20
1049.023829277017
 30
0.0
 10
1348.70765174655
 20
1046.805816148786
 30
0.0
 10
1349.859915133444
 20
1045.592801435871
 30
0.0
 10
1351.947184342822
 20
1042.992334839831
 30
0.0
 10
1352.882163319707
 20
1041.604916402838
 30
0.0
 10
1354.508927579813
 20
1038.694116287478
 30
0.0
 10
1355.20069194026
 20
1037.170772046624
 30
0.0
 10
1356.321835441944
 20
1034.03036498413
 30
0.0
 10
1356.751200163496
 20
1032.413342553112
 30
0.0
 10
1357.335629713057
 20
1029.130422911827
 30
0.0
 10
1357.490686931376
 20
1027.464577766941
 30
0.0
 10
1357.506440694957
 20
1025.79737518304
 30
0.0
  0
SPLINE
  5
2E8
330
1F
100
AcDbEntity
  8
0
  6
Continuous
 62
     7
370
    35
100
AcDbSpline
210
0.0
220
0.0
230
1.0
 70
     8
 71
     3
 72
    14
 73
    10
 74
     0
 42
0.000000001
 43
0.00000001
 40
0.0
 40
0.0
 40
0.0
 40
0.0
 40
0.25
 40
0.25
 40
0.5
 40
0.5
 40
0.75
 40
0.75
 40
1.0
 40
1.0
 40
1.0
 40
1.0
 10
1334.275042893471
 20
1054.740480808829
 30
0.0
 10
1337.523631962448
 20
1053.988291783077
 30
0.0
 10
1340.644996000371
 20
1052.689667286022
 30
0.0
 10
1346.291899004985
 20
1049.141574342675
 30
0.0
 10
1348.816280528755
 20
1046.892833147242
 30
0.0
 10
1352.990818947511
 20
1041.691899955162
 30
0.0
 10
1354.640120189417
 20
1038.740773991223
 30
0.0
 10
1356.882407192787
 20
1032.459959866234
 30
0.0
 10
1357.47493335379
 20
1029.131559080554
 30
0.0
 10
1357.506440694957
 20
1025.797173596392
 30
0.0
  0
LINE
  5
2E9
330
1F
100
AcDbEntity
  8
0
  6
Continuous
 62
     7
370
    35
100
AcDbLine
 10
1334.2750428935
 20
1054.7406823955
 30
0.0
 11
1334.2750428935
 21
1054.7404808088
 31
0.0
  0
SPLINE
  5
2EA
330
1F
100
AcDbEntity
  8
0
  6
Continuous
 62
     7
370
    35
100
AcDbSpline
210
0.0
220
0.0
230
1.0
 70
     8
 71
     3
 72
    14
 73
    10
 74
     0
 42
0.000000001
 43
0.00000001
 40
0.0
 40
0.0
 40
0.0
 40
0.0
 40
0.2499999999999999
 40
0.2499999999999999
 40
0.4999999999999999
 40
0.4999999999999999
 40
0.7499999999999999
 40
0.7499999999999999
 40
1.0
 40
1.0
 40
1.0
 40
1.0
 10
1357.506440694957
 20
1025.570402446138
 30
0.0
 10
1357.47493335379
 20
1022.236016961977
 30
0.0
 10
1356.882407192787
 20
1018.907616176297
 30
0.0
 10
1354.640120189417
 20
1012.626802051307
 30
0.0
 10
1352.990818947511
 20
1009.675676087368
 30
0.0
 10
1348.816280528755
 20
1004.474742895288
 30
0.0
 10
1346.291899004985
 20
1002.226001699856
 30
0.0
 10
1340.644996000371
 20
998.6779087565088
 30
0.0
 10
1337.523631962448
 20
997.3792842594532
 30
0.0
 10
1334.275042893471
 20
996.6270952337019
 30
0.0
  0
ARC
  5
2EB
330
1F
100
AcDbEntity
  8
0
  6
Continuous
 62
     7
370
    35
100
AcDbCircle
 10
1327.5077799216
 20
1025.6837880213
 30
0.0
 40
27.00000000000001
100
AcDbArc
 50
283.0367179551
 51
359.4586157013
  0
LINE
  5
2EC
330
1F
100
AcDbEntity
  8
0
  6
Continuous
 62
     7
370
    35
100
AcDbLine
 10
1334.2750428935
 20
996.6268936471
 30
0.0
 11
1334.2750428935
 21
996.6270952337
 31
0.0
  0
SPLINE
  5
2ED
330
1F
100
AcDbEntity
  8
0
  6
Continuous
 62
     7
370
    35
100
AcDbSpline
210
0.0
220
0.0
230
1.0
 70
     8
 71
     3
 72
    22
 73
    18
 74
     0
 42
0.000000001
 43
0.00000001
 40
3.369126305560276
 40
3.369126305560276
 40
3.369126305560276
 40
3.369126305560276
 40
3.535853022596996
 40
3.535853022596996
 40
3.702579739633714
 40
3.702579739633714
 40
3.869306456670433
 40
3.869306456670433
 40
4.036033173707152
 40
4.036033173707152
 40
4.20275989074387
 40
4.20275989074387
 40
4.369486607780589
 40
4.369486607780589
 40
4.536213324817308
 40
4.536213324817308
 40
4.702940041854027
 40
4.702940041854027
 40
4.702940041854027
 40
4.702940041854027
 10
1357.506440694957
 20
1025.57020085949
 30
0.0
 10
1357.490686931376
 20
1023.90299827559
 30
0.0
 10
1357.335629713057
 20
1022.237153130703
 30
0.0
 10
1356.751200163496
 20
1018.954233489418
 30
0.0
 10
1356.321835441944
 20
1017.337211058401
 30
0.0
 10
1355.20069194026
 20
1014.196803995906
 30
0.0
 10
1354.508927579813
 20
1012.673459755053
 30
0.0
 10
1352.882163319707
 20
1009.762659639693
 30
0.0
 10
1351.947184342822
 20
1008.3752412027
 30
0.0
 10
1349.859915133444
 20
1005.77477460666
 30
0.0
 10
1348.70765174655
 20
1004.561759893744
 30
0.0
 10
1346.217764794793
 20
1002.343746765514
 30
0.0
 10
1344.880173253831
 20
1001.338776877371
 30
0.0
 10
1342.056721751524
 20
999.5647304056973
 30
0.0
 10
1340.570898104251
 20
998.7956766392228
 30
0.0
 10
1337.492186143905
 20
997.514797279267
 30
0.0
 10
1335.899346929842
 20
997.0029903600265
 30
0.0
 10
1334.275042893471
 20
996.6268936470536
 30
0.0
  0
SPLINE
  5
2EE
330
1F
100
AcDbEntity
  8
0
  6
Continuous
 62
     7
370
    35
100
AcDbSpline
210
0.0
220
0.0
230
1.0
 70
     8
 71
     3
 72
    14
 73
    10
 74
     0
 42
0.000000001
 43
0.00000001
 40
0.0
 40
0.0
 40
0.0
 40
0.0
 40
0.25
 40
0.25
 40
0.5
 40
0.5
 40
0.75
 40
0.75
 40
1.0
 40
1.0
 40
1.0
 40
1.0
 10
1214.740516949695
 20
996.627095233702
 30
0.0
 10
1211.491927880719
 20
997.3792842594532
 30
0.0
 10
1208.370563842796
 20
998.6779087565088
 30
0.0
 10
1202.723660838182
 20
1002.226001699856
 30
0.0
 10
1200.199279314412
 20
1004.474742895288
 30
0.0
 10
1196.024740895656
 20
1009.675676087368
 30
0.0
 10
1194.375439653749
 20
1012.626802051307
 30
0.0
 10
1192.13315265038
 20
1018.907616176297
 30
0.0
 10
1191.540626489377
 20
1022.236016961977
 30
0.0
 10
1191.509119148209
 20
1025.570402446138
 30
0.0
  0
ARC
  5
2EF
330
1F
100
AcDbEntity
  8
0
  6
Continuous
 62
     7
370
    35
100
AcDbCircle
 10
1221.5077799216
 20
1025.6837880213
 30
0.0
 40
27.00000000000001
100
AcDbArc
 50
180.5413842987
 51
256.9632820449
  0
LINE
  5
2F0
330
1F
100
AcDbEntity
  8
0
  6
Continuous
 62
     7
370
    35
100
AcDbLine
 10
1214.7405169497
 20
996.6268936471
 30
0.0
 11
1214.7405169497
 21
996.6270952337
 31
0.0
  0
SPLINE
  5
2F1
330
1F
100
AcDbEntity
  8
0
  6
Continuous
 62
     7
370
    35
100
AcDbSpline
210
0.0
220
0.0
230
1.0
 70
     8
 71
     3
 72
    22
 73
    18
 74
     0
 42
0.000000001
 43
0.00000001
 40
1.580245265325559
 40
1.580245265325559
 40
1.580245265325559
 40
1.580245265325559
 40
1.746971982362278
 40
1.746971982362278
 40
1.913698699398996
 40
1.913698699398996
 40
2.080425416435715
 40
2.080425416435715
 40
2.247152133472434
 40
2.247152133472434
 40
2.413878850509152
 40
2.413878850509152
 40
2.580605567545871
 40
2.580605567545871
 40
2.74733228458259
 40
2.74733228458259
 40
2.914059001619308
 40
2.914059001619308
 40
2.914059001619308
 40
2.914059001619308
 10
1214.740516949695
 20
996.6268936470536
 30
0.0
 10
1213.116212913324
 20
997.0029903600265
 30
0.0
 10
1211.523373699262
 20
997.5147972792671
 30
0.0
 10
1208.444661738916
 20
998.7956766392228
 30
0.0
 10
1206.958838091643
 20
999.5647304056973
 30
0.0
 10
1204.135386589336
 20
1001.338776877371
 30
0.0
 10
1202.797795048374
 20
1002.343746765514
 30
0.0
 10
1200.307908096617
 20
1004.561759893745
 30
0.0
 10
1199.155644709723
 20
1005.77477460666
 30
0.0
 10
1197.068375500345
 20
1008.3752412027
 30
0.0
 10
1196.133396523459
 20
1009.762659639693
 30
0.0
 10
1194.506632263354
 20
1012.673459755053
 30
0.0
 10
1193.814867902907
 20
1014.196803995906
 30
0.0
 10
1192.693724401222
 20
1017.337211058401
 30
0.0
 10
1192.264359679671
 20
1018.954233489418
 30
0.0
 10
1191.67993013011
 20
1022.237153130703
 30
0.0
 10
1191.52487291179
 20
1023.90299827559
 30
0.0
 10
1191.509119148209
 20
1025.57020085949
 30
0.0
  0
ARC
  5
2F2
330
1F
100
AcDbEntity
  8
0
  6
Continuous
 62
     7
370
    35
100
AcDbCircle
 10
1327.5077799216
 20
1025.6837880213
 30
0.0
 40
27.00000000000007
100
AcDbArc
 50
0.5413842987
 51
76.9632820449
  0
LINE
  5
2F3
330
1F
100
AcDbEntity
  8
0
  6
Continuous
 62
     7
370
    35
100
AcDbLine
 10
1214.7405169497
 20
1054.7406823955
 30
0.0
 11
1214.7405169497
 21
1054.7404808088
 31
0.0
  0
SPLINE
  5
2F4
330
1F
100
AcDbEntity
  8
0
  6
Continuous
 62
     7
370
    35
100
AcDbSpline
210
0.0
220
0.0
230
1.0
 70
     8
 71
     3
 72
    14
 73
    10
 74
     0
 42
0.000000001
 43
0.00000001
 40
0.0
 40
0.0
 40
0.0
 40
0.0
 40
0.25
 40
0.25
 40
0.5
 40
0.5
 40
0.75
 40
0.75
 40
1.0
 40
1.0
 40
1.0
 40
1.0
 10
1191.509119148209
 20
1025.797173596392
 30
0.0
 10
1191.540626489377
 20
1029.131559080554
 30
0.0
 10
1192.13315265038
 20
1032.459959866234
 30
0.0
 10
1194.375439653749
 20
1038.740773991223
 30
0.0
 10
1196.024740895656
 20
1041.691899955162
 30
0.0
 10
1200.199279314412
 20
1046.892833147242
 30
0.0
 10
1202.723660838182
 20
1049.141574342675
 30
0.0
 10
1208.370563842796
 20
1052.689667286022
 30
0.0
 10
1211.491927880719
 20
1053.988291783077
 30
0.0
 10
1214.740516949696
 20
1054.740480808829
 30
0.0
  0
ARC
  5
2F5
330
1F
100
AcDbEntity
  8
0
  6
Continuous
 62
     7
370
    35
100
AcDbCircle
 10
1221.5077799216
 20
1025.6837880213
 30
0.0
 40
27.00000000000012
100
AcDbArc
 50
103.0367179551
 51
179.4586157013
  0
SPLINE
  5
2F6
330
1F
100
AcDbEntity
  8
0
  6
Continuous
 62
     7
370
    35
100
AcDbSpline
210
0.0
220
0.0
230
1.0
 70
     8
 71
     3
 72
     8
 73
     4
 74
     0
 42
0.000000001
 43
0.00000001
 40
0.0
 40
0.0
 40
0.0
 40
0.0
 40
0.0000569949035218
 40
0.0000569949035218
 40
0.0000569949035218
 40
0.0000569949035218
 10
1191.509119148209
 20
1025.57020085949
 30
0.0
 10
1191.50867199134
 20
1025.589163350579
 30
0.0
 10
1191.508336483107
 20
1025.608128797376
 30
0.0
 10
1191.508113260846
 20
1025.627095233702
 30
0.0
  0
SPLINE
  5
2F7
330
1F
100
AcDbEntity
  8
0
  6
Continuous
 62
     7
370
    35
100
AcDbSpline
210
0.0
220
0.0
230
1.0
 70
     8
 71
     3
 72
     8
 73
     4
 74
     0
 42
0.000000001
 43
0.00000001
 40
0.0
 40
0.0
 40
0.0
 40
0.0
 40
1.0
 40
1.0
 40
1.0
 40
1.0
 10
1221.507779921583
 20
996.4280038226652
 30
0.0
 10
1219.250657664571
 20
996.4280038226652
 30
0.0
 10
1216.993828946784
 20
996.4959950287092
 30
0.0
 10
1214.740516949695
 20
996.6268936470536
 30
0.0
  0
LINE
  5
2F8
330
1F
100
AcDbEntity
  8
0
  6
Continuous
 62
     7
370
    35
100
AcDbLine
 10
1327.5077799216
 20
996.4280038227
 30
0.0
 11
1221.5077799216
 21
996.4280038227
 31
0.0
  0
SPLINE
  5
2F9
330
1F
100
AcDbEntity
  8
0
  6
Continuous
 62
     7
370
    35
100
AcDbSpline
210
0.0
220
0.0
230
1.0
 70
     8
 71
     3
 72
     8
 73
     4
 74
     0
 42
0.000000001
 43
0.00000001
 40
0.0
 40
0.0
 40
0.0
 40
0.0
 40
1.0
 40
1.0
 40
1.0
 40
1.0
 10
1334.275042893471
 20
996.6268936470537
 30
0.0
 10
1332.021731203078
 20
996.4959950467382
 30
0.0
 10
1329.764907072814
 20
996.4280038226652
 30
0.0
 10
1327.507779921584
 20
996.4280038226652
 30
0.0
  0
SPLINE
  5
2FA
330
1F
100
AcDbEntity
  8
0
  6
Continuous
 62
     7
370
    35
100
AcDbSpline
210
0.0
220
0.0
230
1.0
 70
     8
 71
     3
 72
     8
 73
     4
 74
     0
 42
0.000000001
 43
0.00000001
 40
0.0
 40
0.0
 40
0.0
 40
0.0
 40
0.0000569949035218
 40
0.0000569949035218
 40
0.0000569949035218
 40
0.0000569949035218
 10
1357.50744658232
 20
1025.627095233702
 30
0.0
 10
1357.50722336006
 20
1025.608128797376
 30
0.0
 10
1357.506887851827
 20
1025.589163350579
 30
0.0
 10
1357.506440694957
 20
1025.57020085949
 30
0.0
  0
SPLINE
  5
2FB
330
1F
100
AcDbEntity
  8
0
  6
Continuous
 62
     7
370
    35
100
AcDbSpline
210
0.0
220
0.0
230
1.0
 70
     8
 71
     3
 72
    10
 73
     6
 74
     0
 42
0.000000001
 43
0.00000001
 40
0.0
 40
0.0
 40
0.0
 40
0.0
 40
0.5
 40
0.5
 40
1.0
 40
1.0
 40
1.0
 40
1.0
 10
1221.507779921583
 20
996.4337880212652
 30
0.0
 10
1220.364819773626
 20
996.4337880212652
 30
0.0
 10
1219.229626295883
 20
996.4500620400936
 30
0.0
 10
1216.974099963511
 20
996.5144964321028
 30
0.0
 10
1215.853764017456
 20
996.5626540094087
 30
0.0
 10
1214.740516949695
 20
996.6270952337019
 30
0.0
  0
SPLINE
  5
2FC
330
1F
100
AcDbEntity
  8
0
  6
Continuous
 62
     7
370
    35
100
AcDbSpline
210
0.0
220
0.0
230
1.0
 70
     8
 71
     3
 72
    10
 73
     6
 74
     0
 42
0.000000001
 43
0.00000001
 40
0.0
 40
0.0
 40
0.0
 40
0.0
 40
0.5
 40
0.5
 40
1.0
 40
1.0
 40
1.0
 40
1.0
 10
1221.507779921583
 20
998.6837880212653
 30
0.0
 10
1220.479040188495
 20
998.6837880212653
 30
0.0
 10
1219.457360712196
 20
998.7423815582744
 30
0.0
 10
1217.427435129551
 20
998.97434423229
 30
0.0
 10
1216.419185612785
 20
999.1477009465774
 30
0.0
 10
1215.417243246884
 20
999.3796939860366
 30
0.0
  0
SPLINE
  5
2FD
330
1F
100
AcDbEntity
  8
0
  6
Continuous
 62
     7
370
    35
100
AcDbSpline
210
0.0
220
0.0
230
1.0
 70
     8
 71
     3
 72
    10
 73
     6
 74
     0
 42
0.000000001
 43
0.00000001
 40
0.0
 40
0.0
 40
0.0
 40
0.0
 40
0.5
 40
0.5
 40
1.0
 40
1.0
 40
1.0
 40
1.0
 10
1334.275042893471
 20
996.6270952337019
 30
0.0
 10
1333.161795825711
 20
996.5626540094087
 30
0.0
 10
1332.041459879655
 20
996.5144964321028
 30
0.0
 10
1329.785933547284
 20
996.4500620400936
 30
0.0
 10
1328.650740069541
 20
996.4337880212652
 30
0.0
 10
1327.507779921584
 20
996.4337880212652
 30
0.0
  0
SPLINE
  5
2FE
330
1F
100
AcDbEntity
  8
0
  6
Continuous
 62
     7
370
    35
100
AcDbSpline
210
0.0
220
0.0
230
1.0
 70
     8
 71
     3
 72
    10
 73
     6
 74
     0
 42
0.000000001
 43
0.00000001
 40
0.0
 40
0.0
 40
0.0
 40
0.0
 40
0.5
 40
0.5
 40
1.0
 40
1.0
 40
1.0
 40
1.0
 10
1333.598316596283
 20
999.3796939860366
 30
0.0
 10
1332.59637423038
 20
999.1477009465772
 30
0.0
 10
1331.588124713614
 20
998.9743442322896
 30
0.0
 10
1329.558199130967
 20
998.7423815582741
 30
0.0
 10
1328.536519654672
 20
998.6837880212653
 30
0.0
 10
1327.507779921584
 20
998.6837880212653
 30
0.0
  0
SPLINE
  5
2FF
330
1F
100
AcDbEntity
  8
0
  6
Continuous
 62
     7
370
    35
100
AcDbSpline
210
0.0
220
0.0
230
1.0
 70
     8
 71
     3
 72
    10
 73
     6
 74
     0
 42
0.000000001
 43
0.00000001
 40
0.0
 40
0.0
 40
0.0
 40
0.0
 40
0.5
 40
0.5
 40
1.0
 40
1.0
 40
1.0
 40
1.0
 10
1214.740516949695
 20
1054.740480808829
 30
0.0
 10
1215.853764017456
 20
1054.804922033122
 30
0.0
 10
1216.974099963512
 20
1054.853079610428
 30
0.0
 10
1219.229626295883
 20
1054.917514002437
 30
0.0
 10
1220.364819773626
 20
1054.933788021265
 30
0.0
 10
1221.507779921583
 20
1054.933788021265
 30
0.0
  0
SPLINE
  5
300
330
1F
100
AcDbEntity
  8
0
  6
Continuous
 62
     7
370
    35
100
AcDbSpline
210
0.0
220
0.0
230
1.0
 70
     8
 71
     3
 72
    10
 73
     6
 74
     0
 42
0.000000001
 43
0.00000001
 40
0.0
 40
0.0
 40
0.0
 40
0.0
 40
0.5
 40
0.5
 40
1.0
 40
1.0
 40
1.0
 40
1.0
 10
1215.417243246884
 20
1051.987882056494
 30
0.0
 10
1216.419185612786
 20
1052.219875095954
 30
0.0
 10
1217.427435129553
 20
1052.393231810241
 30
0.0
 10
1219.4573607122
 20
1052.625194484256
 30
0.0
 10
1220.479040188494
 20
1052.683788021265
 30
0.0
 10
1221.507779921583
 20
1052.683788021265
 30
0.0
  0
SPLINE
  5
301
330
1F
100
AcDbEntity
  8
0
  6
Continuous
 62
     7
370
    35
100
AcDbSpline
210
0.0
220
0.0
230
1.0
 70
     8
 71
     3
 72
    10
 73
     6
 74
     0
 42
0.000000001
 43
0.00000001
 40
0.0
 40
0.0
 40
0.0
 40
0.0
 40
0.5
 40
0.5
 40
1.0
 40
1.0
 40
1.0
 40
1.0
 10
1327.507779921584
 20
1054.933788021265
 30
0.0
 10
1328.650740069541
 20
1054.933788021265
 30
0.0
 10
1329.785933547284
 20
1054.917514002437
 30
0.0
 10
1332.041459879655
 20
1054.853079610428
 30
0.0
 10
1333.161795825711
 20
1054.804922033122
 30
0.0
 10
1334.275042893471
 20
1054.740480808829
 30
0.0
  0
SPLINE
  5
302
330
1F
100
AcDbEntity
  8
0
  6
Continuous
 62
     7
370
    35
100
AcDbSpline
210
0.0
220
0.0
230
1.0
 70
     8
 71
     3
 72
    10
 73
     6
 74
     0
 42
0.000000001
 43
0.00000001
 40
0.0
 40
0.0
 40
0.0
 40
0.0
 40
0.5
 40
0.5
 40
1.0
 40
1.0
 40
1.0
 40
1.0
 10
1327.507779921584
 20
1052.683788021265
 30
0.0
 10
1328.536519654671
 20
1052.683788021265
 30
0.0
 10
1329.55819913097
 20
1052.625194484256
 30
0.0
 10
1331.588124713616
 20
1052.39323181024
 30
0.0
 10
1332.596374230382
 20
1052.219875095953
 30
0.0
 10
1333.598316596282
 20
1051.987882056494
 30
0.0
  0
LINE
  5
303
330
1F
100
AcDbEntity
  8
0
  6
Continuous
 62
     7
370
    35
100
AcDbLine
 10
1221.5077799216
 20
996.4337880213
 30
0.0
 11
1327.5077799216
 21
996.4337880213
 31
0.0
  0
LINE
  5
304
330
1F
100
AcDbEntity
  8
0
  6
Continuous
 62
     7
370
    35
100
AcDbLine
 10
1327.5077799216
 20
998.6837880213
 30
0.0
 11
1221.5077799216
 21
998.6837880213
 31
0.0
  0
LINE
  5
305
330
1F
100
AcDbEntity
  8
0
  6
Continuous
 62
     7
370
    35
100
AcDbLine
 10
1327.5077799216
 20
1054.9337880213
 30
0.0
 11
1221.5077799216
 21
1054.9337880213
 31
0.0
  0
LINE
  5
306
330
1F
100
AcDbEntity
  8
0
  6
Continuous
 62
     7
370
    35
100
AcDbLine
 10
1221.5077799216
 20
1052.6837880213
 30
0.0
 11
1327.5077799216
 21
1052.6837880213
 31
0.0
  0
SPLINE
  5
307
330
1F
100
AcDbEntity
  8
0
  6
Continuous
 62
     7
370
    35
100
AcDbSpline
210
0.0
220
0.0
230
1.0
 70
     8
 71
     3
 72
     8
 73
     4
 74
     0
 42
0.000000001
 43
0.00000001
 40
0.0
 40
0.0
 40
0.0
 40
0.0
 40
1.0
 40
1.0
 40
1.0
 40
1.0
 10
1357.506440694957
 20
1025.797173596392
 30
0.0
 10
1357.508226370317
 20
1025.721583212974
 30
0.0
 10
1357.508226370317
 20
1025.645992829556
 30
0.0
 10
1357.506440694957
 20
1025.570402446138
 30
0.0
  0
SPLINE
  5
308
330
1F
100
AcDbEntity
  8
0
  6
Continuous
 62
     7
370
    35
100
AcDbSpline
210
0.0
220
0.0
230
1.0
 70
     8
 71
     3
 72
     8
 73
     4
 74
     0
 42
0.000000001
 43
0.00000001
 40
0.0
 40
0.0
 40
0.0
 40
0.0
 40
1.0
 40
1.0
 40
1.0
 40
1.0
 10
1354.50657461762
 20
1025.9389055653
 30
0.0
 10
1354.508181725443
 20
1025.76882720261
 30
0.0
 10
1354.508181725443
 20
1025.59874883992
 30
0.0
 10
1354.50657461762
 20
1025.42867047723
 30
0.0
  0
SPLINE
  5
309
330
1F
100
AcDbEntity
  8
0
  6
Continuous
 62
     7
370
    35
100
AcDbSpline
210
0.0
220
0.0
230
1.0
 70
     8
 71
     3
 72
     8
 73
     4
 74
     0
 42
0.000000001
 43
0.00000001
 40
0.0
 40
0.0
 40
0.0
 40
0.0
 40
0.0001133855751265
 40
0.0001133855751265
 40
0.0001133855751265
 40
0.0001133855751265
 10
1357.50744658232
 20
1025.627095233702
 30
0.0
 10
1357.507890660348
 20
1025.664827033529
 30
0.0
 10
1357.507890660348
 20
1025.702749009001
 30
0.0
 10
1357.50744658232
 20
1025.740480808828
 30
0.0
  0
SPLINE
  5
30A
330
1F
100
AcDbEntity
  8
0
  6
Continuous
 62
     7
370
    35
100
AcDbSpline
210
0.0
220
0.0
230
1.0
 70
     8
 71
     3
 72
     8
 73
     4
 74
     0
 42
0.000000001
 43
0.00000001
 40
0.0
 40
0.0
 40
0.0
 40
0.0
 40
1.0
 40
1.0
 40
1.0
 40
1.0
 10
1194.508985225547
 20
1025.42867047723
 30
0.0
 10
1194.507378117723
 20
1025.59874883992
 30
0.0
 10
1194.507378117723
 20
1025.76882720261
 30
0.0
 10
1194.508985225547
 20
1025.9389055653
 30
0.0
  0
SPLINE
  5
30B
330
1F
100
AcDbEntity
  8
0
  6
Continuous
 62
     7
370
    35
100
AcDbSpline
210
0.0
220
0.0
230
1.0
 70
     8
 71
     3
 72
     8
 73
     4
 74
     0
 42
0.000000001
 43
0.00000001
 40
0.0
 40
0.0
 40
0.0
 40
0.0
 40
1.0
 40
1.0
 40
1.0
 40
1.0
 10
1191.509119148209
 20
1025.570402446138
 30
0.0
 10
1191.50733347285
 20
1025.645992829556
 30
0.0
 10
1191.50733347285
 20
1025.721583212974
 30
0.0
 10
1191.509119148209
 20
1025.797173596392
 30
0.0
  0
SPLINE
  5
30C
330
1F
100
AcDbEntity
  8
0
  6
Continuous
 62
     7
370
    35
100
AcDbSpline
210
0.0
220
0.0
230
1.0
 70
     8
 71
     3
 72
     8
 73
     4
 74
     0
 42
0.000000001
 43
0.00000001
 40
0.0
 40
0.0
 40
0.0
 40
0.0
 40
0.0001133855751265
 40
0.0001133855751265
 40
0.0001133855751265
 40
0.0001133855751265
 10
1191.508113260846
 20
1025.740480808829
 30
0.0
 10
1191.507669182818
 20
1025.702749009001
 30
0.0
 10
1191.507669182818
 20
1025.66482703353
 30
0.0
 10
1191.508113260846
 20
1025.627095233702
 30
0.0
  0
LINE
  5
30D
330
1F
100
AcDbEntity
  8
0
  6
Continuous
 62
     7
370
    35
100
AcDbLine
 10
1317.5077799216
 20
1030.6169625239
 30
0.0
 11
1317.9273810061
 21
1033.4833115291
 31
0.0
  0
SPLINE
  5
30E
330
1F
100
AcDbEntity
  8
0
  6
Continuous
 62
     7
370
    35
100
AcDbSpline
210
0.0
220
0.0
230
1.0
 70
     8
 71
     3
 72
    11
 73
     7
 74
     0
 42
0.000000001
 43
0.00000001
 40
0.0
 40
0.0
 40
0.0
 40
0.0
 40
0.2606216717109351
 40
0.4632004480822298
 40
0.6713667795608205
 40
1.0
 40
1.0
 40
1.0
 40
1.0
 10
1317.927381006085
 20
1033.483311529147
 30
0.0
 10
1318.294262376747
 20
1034.485029708957
 30
0.0
 10
1318.946317189256
 20
1036.265374016836
 30
0.0
 10
1320.483682051079
 20
1038.520373638898
 30
0.0
 10
1322.498447835575
 20
1040.735007819251
 30
0.0
 10
1324.343775921413
 20
1041.855469917223
 30
0.0
 10
1325.473501364456
 20
1042.541426278999
 30
0.0
  0
SPLINE
  5
30F
330
1F
100
AcDbEntity
  8
0
  6
Continuous
 62
     7
370
    35
100
AcDbSpline
210
0.0
220
0.0
230
1.0
 70
     8
 71
     3
 72
    16
 73
    12
 74
     0
 42
0.000000001
 43
0.00000001
 40
0.0
 40
0.0
 40
0.0
 40
0.0
 40
0.6093642604521654
 40
0.7233750503883745
 40
0.8172213162021819
 40
0.8496365726798857
 40
0.8823612341657228
 40
0.9067814804504432
 40
0.9311421346358171
 40
0.9706402276081946
 40
0.9999999999999999
 40
0.9999999999999999
 40
0.9999999999999999
 40
0.9999999999999999
 10
1325.473501364456
 20
1042.541426278999
 30
0.0
 10
1326.050335634045
 20
1042.839081354949
 30
0.0
 10
1326.735094399714
 20
1043.192427078578
 30
0.0
 10
1327.402337370898
 20
1043.718165402236
 30
0.0
 10
1327.572590768876
 20
1043.90331841229
 30
0.0
 10
1327.640864229553
 20
1044.051974712462
 30
0.0
 10
1327.652503370547
 20
1044.145575377844
 30
0.0
 10
1327.627977922333
 20
1044.229538062852
 30
0.0
 10
1327.57171521469
 20
1044.307677050025
 30
0.0
 10
1327.488643052026
 20
1044.36987424586
 30
0.0
 10
1327.42022218358
 20
1044.40176417509
 30
0.0
 10
1327.391048738923
 20
1044.41536147525
 30
0.0
  0
SPLINE
  5
310
330
1F
100
AcDbEntity
  8
0
  6
Continuous
 62
     7
370
    35
100
AcDbSpline
210
0.0
220
0.0
230
1.0
 70
     8
 71
     3
 72
    13
 73
     9
 74
     0
 42
0.000000001
 43
0.00000001
 40
0.0
 40
0.0
 40
0.0
 40
0.0
 40
0.1585077763893688
 40
0.3168380823633761
 40
0.4791716695217833
 40
0.6493085002788166
 40
0.8235953482372509
 40
1.0
 40
1.0
 40
1.0
 40
1.0
 10
1340.035392158743
 20
1030.004940681741
 30
0.0
 10
1339.742817004984
 20
1031.015266133547
 30
0.0
 10
1339.157994274037
 20
1033.034785844221
 30
0.0
 10
1337.66196772235
 20
1035.855388595782
 30
0.0
 10
1335.735289052645
 20
1038.485439403767
 30
0.0
 10
1333.336214654866
 20
1040.848372000015
 30
0.0
 10
1330.543888382132
 20
1042.904264345091
 30
0.0
 10
1328.446217853246
 20
1043.909638634598
 30
0.0
 10
1327.391048738923
 20
1044.41536147525
 30
0.0
  0
SPLINE
  5
311
330
1F
100
AcDbEntity
  8
0
  6
Continuous
 62
     7
370
    35
100
AcDbSpline
210
0.0
220
0.0
230
1.0
 70
     8
 71
     3
 72
     9
 73
     5
 74
     0
 42
0.000000001
 43
0.00000001
 40
0.0
 40
0.0
 40
0.0
 40
0.0
 40
0.423084807246193
 40
1.0
 40
1.0
 40
1.0
 40
1.0
 10
1340.035392158743
 20
1030.004940681741
 30
0.0
 10
1340.261512565001
 20
1028.790225057586
 30
0.0
 10
1340.795969020031
 20
1025.919132540552
 30
0.0
 10
1340.313649574583
 20
1023.029632077433
 30
0.0
 10
1340.035392158743
 20
1021.362635360791
 30
0.0
  0
SPLINE
  5
312
330
1F
100
AcDbEntity
  8
0
  6
Continuous
 62
     7
370
    35
100
AcDbSpline
210
0.0
220
0.0
230
1.0
 70
     8
 71
     3
 72
    13
 73
     9
 74
     0
 42
0.000000001
 43
0.00000001
 40
0.0
 40
0.0
 40
0.0
 40
0.0
 40
0.1585077763893736
 40
0.3168380823633747
 40
0.4791716695217825
 40
0.6493085002788166
 40
0.8235953482372503
 40
0.9999999999999999
 40
0.9999999999999999
 40
0.9999999999999999
 40
0.9999999999999999
 10
1340.035392158743
 20
1021.362635360791
 30
0.0
 10
1339.742817004984
 20
1020.352309908984
 30
0.0
 10
1339.157994274037
 20
1018.332790198311
 30
0.0
 10
1337.66196772235
 20
1015.512187446749
 30
0.0
 10
1335.735289052645
 20
1012.882136638765
 30
0.0
 10
1333.336214654866
 20
1010.519204042517
 30
0.0
 10
1330.543888382132
 20
1008.46331169744
 30
0.0
 10
1328.446217853246
 20
1007.457937407934
 30
0.0
 10
1327.391048738923
 20
1006.952214567282
 30
0.0
  0
SPLINE
  5
313
330
1F
100
AcDbEntity
  8
0
  6
Continuous
 62
     7
370
    35
100
AcDbSpline
210
0.0
220
0.0
230
1.0
 70
     8
 71
     3
 72
    16
 73
    12
 74
     0
 42
0.000000001
 43
0.00000001
 40
0.0
 40
0.0
 40
0.0
 40
0.0
 40
0.6093642604521459
 40
0.7233750503883607
 40
0.8172213162021728
 40
0.8496365726798781
 40
0.8823612341657169
 40
0.9067814804504386
 40
0.9311421346358137
 40
0.9706402276081931
 40
1.0
 40
1.0
 40
1.0
 40
1.0
 10
1325.473501364456
 20
1008.826149763533
 30
0.0
 10
1326.050335634045
 20
1008.528494687583
 30
0.0
 10
1326.735094399714
 20
1008.175148963953
 30
0.0
 10
1327.402337370898
 20
1007.649410640296
 30
0.0
 10
1327.572590768876
 20
1007.464257630242
 30
0.0
 10
1327.640864229553
 20
1007.31560133007
 30
0.0
 10
1327.652503370547
 20
1007.222000664688
 30
0.0
 10
1327.627977922333
 20
1007.13803797968
 30
0.0
 10
1327.57171521469
 20
1007.059898992507
 30
0.0
 10
1327.488643052026
 20
1006.997701796672
 30
0.0
 10
1327.42022218358
 20
1006.965811867442
 30
0.0
 10
1327.391048738923
 20
1006.952214567282
 30
0.0
  0
SPLINE
  5
314
330
1F
100
AcDbEntity
  8
0
  6
Continuous
 62
     7
370
    35
100
AcDbSpline
210
0.0
220
0.0
230
1.0
 70
     8
 71
     3
 72
    11
 73
     7
 74
     0
 42
0.000000001
 43
0.00000001
 40
0.0
 40
0.0
 40
0.0
 40
0.0
 40
0.2606216717109259
 40
0.4632004480822216
 40
0.6713667795608046
 40
1.0
 40
1.0
 40
1.0
 40
1.0
 10
1317.927381006085
 20
1017.884264513384
 30
0.0
 10
1318.294262376747
 20
1016.882546333574
 30
0.0
 10
1318.946317189256
 20
1015.102202025696
 30
0.0
 10
1320.483682051079
 20
1012.847202403633
 30
0.0
 10
1322.498447835575
 20
1010.632568223281
 30
0.0
 10
1324.343775921413
 20
1009.512106125309
 30
0.0
 10
1325.473501364456
 20
1008.826149763533
 30
0.0
  0
LINE
  5
315
330
1F
100
AcDbEntity
  8
0
  6
Continuous
 62
     7
370
    35
100
AcDbLine
 10
1317.5077799216
 20
1020.7506135186
 30
0.0
 11
1317.9273810061
 21
1017.8842645134
 31
0.0
  0
LINE
  5
316
330
1F
100
AcDbEntity
  8
0
  6
Continuous
 62
     7
370
    35
100
AcDbLine
 10
1317.5077799216
 20
1030.6169625239
 30
0.0
 11
1317.5077799216
 21
1020.7506135186
 31
0.0
  0
LINE
  5
317
330
1F
100
AcDbEntity
  8
0
  6
Continuous
 62
     7
370
    35
100
AcDbLine
 10
1231.5077799216
 20
1020.7506135186
 30
0.0
 11
1231.0881788371
 21
1017.8842645134
 31
0.0
  0
SPLINE
  5
318
330
1F
100
AcDbEntity
  8
0
  6
Continuous
 62
     7
370
    35
100
AcDbSpline
210
0.0
220
0.0
230
1.0
 70
     8
 71
     3
 72
    11
 73
     7
 74
     0
 42
0.000000001
 43
0.00000001
 40
0.0
 40
0.0
 40
0.0
 40
0.0
 40
0.2606216717109254
 40
0.4632004480822206
 40
0.671366779560813
 40
1.0
 40
1.0
 40
1.0
 40
1.0
 10
1231.088178837082
 20
1017.884264513384
 30
0.0
 10
1230.72129746642
 20
1016.882546333574
 30
0.0
 10
1230.069242653911
 20
1015.102202025695
 30
0.0
 10
1228.531877792088
 20
1012.847202403633
 30
0.0
 10
1226.517112007592
 20
1010.63256822328
 30
0.0
 10
1224.671783921754
 20
1009.512106125308
 30
0.0
 10
1223.542058478711
 20
1008.826149763532
 30
0.0
  0
SPLINE
  5
319
330
1F
100
AcDbEntity
  8
0
  6
Continuous
 62
     7
370
    35
100
AcDbSpline
210
0.0
220
0.0
230
1.0
 70
     8
 71
     3
 72
    16
 73
    12
 74
     0
 42
0.000000001
 43
0.00000001
 40
0.0
 40
0.0
 40
0.0
 40
0.0
 40
0.6093642604521662
 40
0.7233750503883751
 40
0.8172213162021823
 40
0.849636572679886
 40
0.8823612341657231
 40
0.9067814804504435
 40
0.9311421346358174
 40
0.9706402276081948
 40
1.0
 40
1.0
 40
1.0
 40
1.0
 10
1223.542058478711
 20
1008.826149763532
 30
0.0
 10
1222.965224209122
 20
1008.528494687582
 30
0.0
 10
1222.280465443453
 20
1008.175148963953
 30
0.0
 10
1221.61322247227
 20
1007.649410640295
 30
0.0
 10
1221.442969074291
 20
1007.464257630241
 30
0.0
 10
1221.374695613615
 20
1007.315601330069
 30
0.0
 10
1221.363056472621
 20
1007.222000664687
 30
0.0
 10
1221.387581920834
 20
1007.138037979679
 30
0.0
 10
1221.443844628477
 20
1007.059898992506
 30
0.0
 10
1221.526916791142
 20
1006.997701796671
 30
0.0
 10
1221.595337659587
 20
1006.965811867441
 30
0.0
 10
1221.624511104244
 20
1006.952214567281
 30
0.0
  0
SPLINE
  5
31A
330
1F
100
AcDbEntity
  8
0
  6
Continuous
 62
     7
370
    35
100
AcDbSpline
210
0.0
220
0.0
230
1.0
 70
     8
 71
     3
 72
    13
 73
     9
 74
     0
 42
0.000000001
 43
0.00000001
 40
0.0
 40
0.0
 40
0.0
 40
0.0
 40
0.1585077763893665
 40
0.3168380823633649
 40
0.479171669521787
 40
0.6493085002788177
 40
0.8235953482372536
 40
1.0
 40
1.0
 40
1.0
 40
1.0
 10
1208.980167684424
 20
1021.36263536079
 30
0.0
 10
1209.272742838183
 20
1020.352309908984
 30
0.0
 10
1209.857565569129
 20
1018.33279019831
 30
0.0
 10
1211.353592120817
 20
1015.512187446749
 30
0.0
 10
1213.280270790523
 20
1012.882136638765
 30
0.0
 10
1215.679345188301
 20
1010.519204042516
 30
0.0
 10
1218.471671461036
 20
1008.46331169744
 30
0.0
 10
1220.569341989922
 20
1007.457937407933
 30
0.0
 10
1221.624511104244
 20
1006.952214567281
 30
0.0
  0
SPLINE
  5
31B
330
1F
100
AcDbEntity
  8
0
  6
Continuous
 62
     7
370
    35
100
AcDbSpline
210
0.0
220
0.0
230
1.0
 70
     8
 71
     3
 72
     9
 73
     5
 74
     0
 42
0.000000001
 43
0.00000001
 40
0.0
 40
0.0
 40
0.0
 40
0.0
 40
0.4230848072461856
 40
1.0
 40
1.0
 40
1.0
 40
1.0
 10
1208.980167684424
 20
1030.00494068174
 30
0.0
 10
1208.754047278166
 20
1028.790225057585
 30
0.0
 10
1208.219590823136
 20
1025.919132540552
 30
0.0
 10
1208.701910268584
 20
1023.029632077433
 30
0.0
 10
1208.980167684424
 20
1021.36263536079
 30
0.0
  0
SPLINE
  5
31C
330
1F
100
AcDbEntity
  8
0
  6
Continuous
 62
     7
370
    35
100
AcDbSpline
210
0.0
220
0.0
230
1.0
 70
     8
 71
     3
 72
    13
 73
     9
 74
     0
 42
0.000000001
 43
0.00000001
 40
0.0
 40
0.0
 40
0.0
 40
0.0
 40
0.1585077763893704
 40
0.316838082363375
 40
0.4791716695217969
 40
0.6493085002788277
 40
0.8235953482372539
 40
1.0
 40
1.0
 40
1.0
 40
1.0
 10
1208.980167684424
 20
1030.00494068174
 30
0.0
 10
1209.272742838183
 20
1031.015266133547
 30
0.0
 10
1209.857565569129
 20
1033.03478584422
 30
0.0
 10
1211.353592120817
 20
1035.855388595782
 30
0.0
 10
1213.280270790522
 20
1038.485439403766
 30
0.0
 10
1215.679345188301
 20
1040.848372000015
 30
0.0
 10
1218.471671461036
 20
1042.90426434509
 30
0.0
 10
1220.569341989922
 20
1043.909638634597
 30
0.0
 10
1221.624511104244
 20
1044.415361475249
 30
0.0
  0
SPLINE
  5
31D
330
1F
100
AcDbEntity
  8
0
  6
Continuous
 62
     7
370
    35
100
AcDbSpline
210
0.0
220
0.0
230
1.0
 70
     8
 71
     3
 72
    16
 73
    12
 74
     0
 42
0.000000001
 43
0.00000001
 40
0.0
 40
0.0
 40
0.0
 40
0.0
 40
0.6093642604521451
 40
0.7233750503883603
 40
0.8172213162021724
 40
0.8496365726798779
 40
0.8823612341657167
 40
0.9067814804504384
 40
0.9311421346358136
 40
0.9706402276081931
 40
1.0
 40
1.0
 40
1.0
 40
1.0
 10
1223.542058478711
 20
1042.541426278998
 30
0.0
 10
1222.965224209122
 20
1042.839081354948
 30
0.0
 10
1222.280465443453
 20
1043.192427078578
 30
0.0
 10
1221.61322247227
 20
1043.718165402235
 30
0.0
 10
1221.442969074291
 20
1043.90331841229
 30
0.0
 10
1221.374695613615
 20
1044.051974712461
 30
0.0
 10
1221.363056472621
 20
1044.145575377843
 30
0.0
 10
1221.387581920834
 20
1044.229538062851
 30
0.0
 10
1221.443844628477
 20
1044.307677050024
 30
0.0
 10
1221.526916791142
 20
1044.36987424586
 30
0.0
 10
1221.595337659587
 20
1044.401764175089
 30
0.0
 10
1221.624511104244
 20
1044.415361475249
 30
0.0
  0
SPLINE
  5
31E
330
1F
100
AcDbEntity
  8
0
  6
Continuous
 62
     7
370
    35
100
AcDbSpline
210
0.0
220
0.0
230
1.0
 70
     8
 71
     3
 72
    11
 73
     7
 74
     0
 42
0.000000001
 43
0.00000001
 40
0.0
 40
0.0
 40
0.0
 40
0.0
 40
0.2606216717109358
 40
0.4632004480822306
 40
0.6713667795608115
 40
1.0
 40
1.0
 40
1.0
 40
1.0
 10
1231.088178837082
 20
1033.483311529147
 30
0.0
 10
1230.72129746642
 20
1034.485029708957
 30
0.0
 10
1230.069242653911
 20
1036.265374016835
 30
0.0
 10
1228.531877792088
 20
1038.520373638898
 30
0.0
 10
1226.517112007592
 20
1040.73500781925
 30
0.0
 10
1224.671783921754
 20
1041.855469917222
 30
0.0
 10
1223.542058478711
 20
1042.541426278998
 30
0.0
  0
LINE
  5
31F
330
1F
100
AcDbEntity
  8
0
  6
Continuous
 62
     7
370
    35
100
AcDbLine
 10
1231.5077799216
 20
1030.6169625239
 30
0.0
 11
1231.0881788371
 21
1033.4833115291
 31
0.0
  0
LINE
  5
320
330
1F
100
AcDbEntity
  8
0
  6
Continuous
 62
     7
370
    35
100
AcDbLine
 10
1231.5077799216
 20
1030.6169625239
 30
0.0
 11
1231.5077799216
 21
1020.7506135186
 31
0.0
  0
SPLINE
  5
321
330
1F
100
AcDbEntity
  8
0
  6
Continuous
 62
     7
370
    35
100
AcDbSpline
210
0.0
220
0.0
230
1.0
 70
     8
 71
     3
 72
    17
 73
    13
 74
     0
 42
0.000000001
 43
0.00000001
 40
0.0
 40
0.0
 40
0.0
 40
0.0
 40
0.0364925733413335
 40
0.1833587448077206
 40
0.2877156143828496
 40
0.3934837304905565
 40
0.499247492395649
 40
0.6063189697897136
 40
0.7133499989193062
 40
0.8177518468878912
 40
0.9088657685707868
 40
1.0
 40
1.0
 40
1.0
 40
1.0
 10
1327.507779921584
 20
1047.425060488801
 30
0.0
 10
1327.922585557583
 20
1047.417255825858
 30
0.0
 10
1330.006797050281
 20
1047.378040909785
 30
0.0
 10
1333.262375370374
 20
1046.789857171011
 30
0.0
 10
1337.063023258165
 20
1045.324926720254
 30
0.0
 10
1340.160453056058
 20
1043.473883846065
 30
0.0
 10
1342.949067758127
 20
1041.137147355319
 30
0.0
 10
1345.302686908271
 20
1038.341864171344
 30
0.0
 10
1347.157117313926
 20
1035.212067924557
 30
0.0
 10
1348.400541549989
 20
1031.990619955643
 30
0.0
 10
1349.112389331128
 20
1028.793743810643
 30
0.0
 10
1349.201614870675
 20
1026.720516964571
 30
0.0
 10
1349.246232612099
 20
1025.683788021266
 30
0.0
  0
SPLINE
  5
322
330
1F
100
AcDbEntity
  8
0
  6
Continuous
 62
     7
370
    35
100
AcDbSpline
210
0.0
220
0.0
230
1.0
 70
     8
 71
     3
 72
    17
 73
    13
 74
     0
 42
0.000000001
 43
0.00000001
 40
0.0
 40
0.0
 40
0.0
 40
0.0
 40
0.0364925733413334
 40
0.18335874480772
 40
0.2877156143828393
 40
0.3934837304905541
 40
0.4992474923956544
 40
0.6063189697897186
 40
0.713349998919311
 40
0.8177518468878917
 40
0.908865768570787
 40
1.0
 40
1.0
 40
1.0
 40
1.0
 10
1221.507779921583
 20
1003.94251555373
 30
0.0
 10
1221.092974285583
 20
1003.950320216673
 30
0.0
 10
1219.008762792886
 20
1003.989535132746
 30
0.0
 10
1215.753184472793
 20
1004.57771887152
 30
0.0
 10
1211.952536585002
 20
1006.042649322277
 30
0.0
 10
1208.855106787108
 20
1007.893692196466
 30
0.0
 10
1206.066492085039
 20
1010.230428687213
 30
0.0
 10
1203.712872934896
 20
1013.025711871187
 30
0.0
 10
1201.858442529241
 20
1016.155508117974
 30
0.0
 10
1200.615018293178
 20
1019.376956086888
 30
0.0
 10
1199.903170512039
 20
1022.573832231888
 30
0.0
 10
1199.813944972492
 20
1024.64705907796
 30
0.0
 10
1199.769327231068
 20
1025.683788021265
 30
0.0
  0
SPLINE
  5
323
330
1F
100
AcDbEntity
  8
0
  6
Continuous
 62
     7
370
    35
100
AcDbSpline
210
0.0
220
0.0
230
1.0
 70
     8
 71
     3
 72
    17
 73
    13
 74
     0
 42
0.000000001
 43
0.00000001
 40
0.0
 40
0.0
 40
0.0
 40
0.0
 40
0.036492573341333
 40
0.1833587448077184
 40
0.2877156143828461
 40
0.3934837304905595
 40
0.499247492395657
 40
0.6063189697897202
 40
0.7133499989193116
 40
0.8177518468878929
 40
0.9088657685707876
 40
1.0
 40
1.0
 40
1.0
 40
1.0
 10
1221.507779921584
 20
1047.4250604888
 30
0.0
 10
1221.092974285584
 20
1047.417255825857
 30
0.0
 10
1219.008762792887
 20
1047.378040909785
 30
0.0
 10
1215.753184472793
 20
1046.789857171011
 30
0.0
 10
1211.952536585002
 20
1045.324926720253
 30
0.0
 10
1208.855106787108
 20
1043.473883846065
 30
0.0
 10
1206.066492085039
 20
1041.137147355318
 30
0.0
 10
1203.712872934896
 20
1038.341864171343
 30
0.0
 10
1201.858442529241
 20
1035.212067924556
 30
0.0
 10
1200.615018293178
 20
1031.990619955642
 30
0.0
 10
1199.903170512039
 20
1028.793743810643
 30
0.0
 10
1199.813944972492
 20
1026.72051696457
 30
0.0
 10
1199.769327231068
 20
1025.683788021265
 30
0.0
  0
SPLINE
  5
324
330
1F
100
AcDbEntity
  8
0
  6
Continuous
 62
     7
370
    35
100
AcDbSpline
210
0.0
220
0.0
230
1.0
 70
     8
 71
     3
 72
    17
 73
    13
 74
     0
 42
0.000000001
 43
0.00000001
 40
0.0
 40
0.0
 40
0.0
 40
0.0
 40
0.0364925733413333
 40
0.1833587448077195
 40
0.2877156143828573
 40
0.3934837304905647
 40
0.4992474923956579
 40
0.6063189697897217
 40
0.7133499989193137
 40
0.8177518468878916
 40
0.908865768570787
 40
1.0
 40
1.0
 40
1.0
 40
1.0
 10
1327.507779921583
 20
1003.942515553731
 30
0.0
 10
1327.922585557583
 20
1003.950320216673
 30
0.0
 10
1330.00679705028
 20
1003.989535132746
 30
0.0
 10
1333.262375370374
 20
1004.57771887152
 30
0.0
 10
1337.063023258165
 20
1006.042649322277
 30
0.0
 10
1340.160453056058
 20
1007.893692196467
 30
0.0
 10
1342.949067758127
 20
1010.230428687213
 30
0.0
 10
1345.302686908271
 20
1013.025711871188
 30
0.0
 10
1347.157117313926
 20
1016.155508117975
 30
0.0
 10
1348.400541549989
 20
1019.376956086889
 30
0.0
 10
1349.112389331128
 20
1022.573832231888
 30
0.0
 10
1349.201614870675
 20
1024.647059077961
 30
0.0
 10
1349.246232612099
 20
1025.683788021266
 30
0.0
  0
LINE
  5
325
330
1F
100
AcDbEntity
  8
0
  6
Continuous
 62
     7
370
    35
100
AcDbLine
 10
1317.6639511118
 20
1031.6837880213
 30
0.0
 11
1231.3516087314
 21
1031.6837880213
 31
0.0
  0
LINE
  5
326
330
1F
100
AcDbEntity
  8
0
  6
Continuous
 62
     7
370
    35
100
AcDbLine
 10
1317.6639511118
 20
1019.6837880213
 30
0.0
 11
1231.3516087314
 21
1019.6837880213
 31
0.0
  0
LINE
  5
327
330
1F
100
AcDbEntity
  8
0
  6
Continuous
 62
     7
370
    35
100
AcDbLine
 10
1221.5077799216
 20
1003.9425155537
 30
0.0
 11
1327.5077799216
 21
1003.9425155537
 31
0.0
  0
LINE
  5
328
330
1F
100
AcDbEntity
  8
0
  6
Continuous
 62
     7
370
    35
100
AcDbLine
 10
1221.5077799216
 20
1047.4250604888
 30
0.0
 11
1327.5077799216
 21
1047.4250604888
 31
0.0
  0
ARC
  5
329
330
1F
100
AcDbEntity
  8
0
  6
Continuous
 62
     7
370
    35
100
AcDbCircle
 10
1327.5077799216
 20
1025.6837880213
 30
0.0
 40
21.74999999999977
100
AcDbArc
 50
270.0
 51
90.0
  0
LINE
  5
32A
330
1F
100
AcDbEntity
  8
0
  6
Continuous
 62
     7
370
    35
100
AcDbLine
 10
1221.5077799216
 20
1047.4337880213
 30
0.0
 11
1327.5077799216
 21
1047.4337880213
 31
0.0
  0
ARC
  5
32B
330
1F
100
AcDbEntity
  8
0
  6
Continuous
 62
     7
370
    35
100
AcDbCircle
 10
1221.5077799216
 20
1025.6837880213
 30
0.0
 40
21.74999999999989
100
AcDbArc
 50
90.0
 51
270.0
  0
LINE
  5
32C
330
1F
100
AcDbEntity
  8
0
  6
Continuous
 62
     7
370
    35
100
AcDbLine
 10
1221.5077799216
 20
1003.9337880213
 30
0.0
 11
1327.5077799216
 21
1003.9337880213
 31
0.0
  0
LINE
  5
32D
330
1F
100
AcDbEntity
  8
0
  6
Continuous
 62
     7
370
    35
100
AcDbLine
 10
984.5077799216
 20
960.1837880213
 30
0.0
 11
962.0077799216
 21
960.1837880213
 31
0.0
  0
ARC
  5
32E
330
1F
100
AcDbEntity
  8
0
  6
Continuous
 62
     7
370
    35
100
AcDbCircle
 10
962.0077799216
 20
970.1837880213
 30
0.0
 40
10.00000000000045
100
AcDbArc
 50
180.0
 51
270.0
  0
LINE
  5
32F
330
1F
100
AcDbEntity
  8
0
  6
Continuous
 62
     7
370
    35
100
AcDbLine
 10
952.0077799216
 20
970.1837880213
 30
0.0
 11
952.0077799216
 21
1081.1837880213
 31
0.0
  0
LINE
  5
330
330
1F
100
AcDbEntity
  8
0
  6
Continuous
 62
     7
370
    35
100
AcDbLine
 10
962.0077799216
 20
1091.1837880213
 30
0.0
 11
984.5077799216
 21
1091.1837880213
 31
0.0
  0
ARC
  5
331
330
1F
100
AcDbEntity
  8
0
  6
Continuous
 62
     7
370
    35
100
AcDbCircle
 10
962.0077799216
 20
1081.1837880213
 30
0.0
 40
10.00000000000011
100
AcDbArc
 50
90.0
 51
180.0
  0
LINE
  5
332
330
1F
100
AcDbEntity
  8
0
  6
Continuous
 62
     7
370
    35
100
AcDbLine
 10
1564.5077799216
 20
1091.1837880213
 30
0.0
 11
1587.0077799216
 21
1091.1837880213
 31
0.0
  0
ARC
  5
333
330
1F
100
AcDbEntity
  8
0
  6
Continuous
 62
     7
370
    35
100
AcDbCircle
 10
1587.0077799216
 20
1081.1837880213
 30
0.0
 40
10.00000000000045
100
AcDbArc
 50
0.0
 51
90.0
  0
LINE
  5
334
330
1F
100
AcDbEntity
  8
0
  6
Continuous
 62
     7
370
    35
100
AcDbLine
 10
1597.0077799216
 20
1081.1837880213
 30
0.0
 11
1597.0077799216
 21
970.1837880213
 31
0.0
  0
ARC
  5
335
330
1F
100
AcDbEntity
  8
0
  6
Continuous
 62
     7
370
    35
100
AcDbCircle
 10
1587.0077799216
 20
970.1837880213
 30
0.0
 40
10.0
100
AcDbArc
 50
270.0
 51
0.0
  0
LINE
  5
336
330
1F
100
AcDbEntity
  8
0
  6
Continuous
 62
     7
370
    35
100
AcDbLine
 10
1587.0077799216
 20
960.1837880213
 30
0.0
 11
1564.5077799216
 21
960.1837880213
 31
0.0
  0
LINE
  5
337
330
1F
100
AcDbEntity
  8
0
  6
Continuous
 62
     7
370
    35
100
AcDbLine
 10
984.5077799216
 20
990.6837880213
 30
0.0
 11
982.5077799216
 21
990.6837880213
 31
0.0
  0
LINE
  5
338
330
1F
100
AcDbEntity
  8
0
  6
Continuous
 62
     7
370
    35
100
AcDbLine
 10
982.5077799216
 20
990.6837880213
 30
0.0
 11
982.5077799216
 21
1060.6837880213
 31
0.0
  0
LINE
  5
339
330
1F
100
AcDbEntity
  8
0
  6
Continuous
 62
     7
370
    35
100
AcDbLine
 10
982.5077799216
 20
1060.6837880213
 30
0.0
 11
984.5077799216
 21
1060.6837880213
 31
0.0
  0
LINE
  5
33A
330
1F
100
AcDbEntity
  8
0
  6
Continuous
 62
     7
370
    35
100
AcDbLine
 10
984.5077799216
 20
1060.6837880213
 30
0.0
 11
984.5077799216
 21
1060.5980015836
 31
0.0
  0
LINE
  5
33B
330
1F
100
AcDbEntity
  8
0
  6
Continuous
 62
     7
370
    35
100
AcDbLine
 10
984.5077799216
 20
1057.7695744589
 30
0.0
 11
984.5077799216
 21
993.5980015836
 31
0.0
  0
LINE
  5
33C
330
1F
100
AcDbEntity
  8
0
  6
Continuous
 62
     7
370
    35
100
AcDbLine
 10
984.5077799216
 20
990.7695744589
 30
0.0
 11
984.5077799216
 21
990.6837880213
 31
0.0
  0
LINE
  5
33D
330
1F
100
AcDbEntity
  8
0
  6
Continuous
 62
     7
370
    35
100
AcDbLine
 10
1564.5077799216
 20
1060.6837880213
 30
0.0
 11
1566.5077799216
 21
1060.6837880213
 31
0.0
  0
LINE
  5
33E
330
1F
100
AcDbEntity
  8
0
  6
Continuous
 62
     7
370
    35
100
AcDbLine
 10
1566.5077799216
 20
1060.6837880213
 30
0.0
 11
1566.5077799216
 21
990.6837880213
 31
0.0
  0
LINE
  5
33F
330
1F
100
AcDbEntity
  8
0
  6
Continuous
 62
     7
370
    35
100
AcDbLine
 10
1566.5077799216
 20
990.6837880213
 30
0.0
 11
1564.5077799216
 21
990.6837880213
 31
0.0
  0
LINE
  5
340
330
1F
100
AcDbEntity
  8
0
  6
Continuous
 62
     7
370
    35
100
AcDbLine
 10
1564.5077799216
 20
990.6837880213
 30
0.0
 11
1564.5077799216
 21
990.7695744589
 31
0.0
  0
LINE
  5
341
330
1F
100
AcDbEntity
  8
0
  6
Continuous
 62
     7
370
    35
100
AcDbLine
 10
1564.5077799216
 20
993.5980015836
 30
0.0
 11
1564.5077799216
 21
1057.7695744589
 31
0.0
  0
LINE
  5
342
330
1F
100
AcDbEntity
  8
0
  6
Continuous
 62
     7
370
    35
100
AcDbLine
 10
1564.5077799216
 20
1060.5980015836
 30
0.0
 11
1564.5077799216
 21
1060.6837880213
 31
0.0
  0
LINE
  5
343
330
1F
100
AcDbEntity
  8
0
  6
Continuous
 62
     8
370
    18
100
AcDbLine
 10
1564.5077799216
 20
1061.6837880213
 30
0.0
 11
984.5077799216
 21
1061.6837880213
 31
0.0
  0
LINE
  5
344
330
1F
100
AcDbEntity
  8
0
  6
Continuous
 62
     8
370
    18
100
AcDbLine
 10
984.5077799216
 20
989.6837880213
 30
0.0
 11
1564.5077799216
 21
989.6837880213
 31
0.0
  0
LINE
  5
345
330
1F
100
AcDbEntity
  8
0
  6
Continuous
 62
     8
370
    18
100
AcDbLine
 10
984.5077799216
 20
1056.7404808088
 30
0.0
 11
1564.5077799216
 21
1056.7404808088
 31
0.0
  0
LINE
  5
346
330
1F
100
AcDbEntity
  8
0
  6
Continuous
 62
     8
370
    18
100
AcDbLine
 10
984.5077799216
 20
994.6270952337
 30
0.0
 11
1564.5077799216
 21
994.6270952337
 31
0.0
  0
LINE
  5
347
330
1F
100
AcDbEntity
  8
0
  6
Continuous
 62
     8
370
    18
100
AcDbLine
 10
984.5077799216
 20
1025.7404808088
 30
0.0
 11
1191.5081132608
 21
1025.7404808088
 31
0.0
  0
LINE
  5
348
330
1F
100
AcDbEntity
  8
0
  6
Continuous
 62
     8
370
    18
100
AcDbLine
 10
1357.5074465823
 20
1025.7404808088
 30
0.0
 11
1564.5077799216
 21
1025.7404808088
 31
0.0
  0
LINE
  5
349
330
1F
100
AcDbEntity
  8
0
  6
Continuous
 62
     8
370
    18
100
AcDbLine
 10
1357.506440695
 20
1025.797375183
 30
0.0
 11
1357.506440695
 21
1025.7971735964
 31
0.0
  0
ARC
  5
34A
330
1F
100
AcDbEntity
  8
0
  6
Continuous
 62
     8
370
    18
100
AcDbCircle
 10
1281.2580693211
 20
985.0523602672
 30
0.0
 40
54.2657716827446
100
AcDbArc
 50
12.3156445559
 51
15.3088218734
  0
ARC
  5
34B
330
1F
100
AcDbEntity
  8
0
  6
Continuous
 62
     8
370
    18
100
AcDbCircle
 10
1356.6334319926
 20
1012.2302009407
 30
0.0
 40
13.36873667924166
100
AcDbArc
 50
86.2557918319
 51
99.1541892989
  0
LINE
  5
34C
330
1F
100
AcDbEntity
  8
0
  6
Continuous
 62
     8
370
    18
100
AcDbLine
 10
1357.506440695
 20
1025.5702008595
 30
0.0
 11
1357.506440695
 21
1025.5704024461
 31
0.0
  0
ARC
  5
34D
330
1F
100
AcDbEntity
  8
0
  6
Continuous
 62
     8
370
    18
100
AcDbCircle
 10
1192.3821278506
 20
1012.2302009407
 30
0.0
 40
13.3687366792455
100
AcDbArc
 50
80.8458107011
 51
93.7442081681
  0
ARC
  5
34E
330
1F
100
AcDbEntity
  8
0
  6
Continuous
 62
     8
370
    18
100
AcDbCircle
 10
1267.7574905216
 20
985.0523602673
 30
0.0
 40
54.26577168220549
100
AcDbArc
 50
164.6911781266
 51
167.6843554441
  0
LINE
  5
34F
330
1F
100
AcDbEntity
  8
0
  6
Continuous
 62
     8
370
    18
100
AcDbLine
 10
1191.5091191482
 20
1025.5702008595
 30
0.0
 11
1191.5091191482
 21
1025.5704024461
 31
0.0
  0
ARC
  5
350
330
1F
100
AcDbEntity
  8
0
  6
Continuous
 62
     8
370
    18
100
AcDbCircle
 10
1356.6334319926
 20
1039.1373751018
 30
0.0
 40
13.36873667929449
100
AcDbArc
 50
260.8458107011
 51
273.7442081681
  0
ARC
  5
351
330
1F
100
AcDbEntity
  8
0
  6
Continuous
 62
     8
370
    18
100
AcDbCircle
 10
1281.2580693217
 20
1066.3152157752
 30
0.0
 40
54.26577168205355
100
AcDbArc
 50
344.6911781266
 51
347.6843554442
  0
LINE
  5
352
330
1F
100
AcDbEntity
  8
0
  6
Continuous
 62
     8
370
    18
100
AcDbLine
 10
1191.5091191482
 20
1025.797375183
 30
0.0
 11
1191.5091191482
 21
1025.7971735964
 31
0.0
  0
ARC
  5
353
330
1F
100
AcDbEntity
  8
0
  6
Continuous
 62
     8
370
    18
100
AcDbCircle
 10
1267.7574905217
 20
1066.3152157753
 30
0.0
 40
54.26577168231237
100
AcDbArc
 50
192.3156445559
 51
195.3088218734
  0
ARC
  5
354
330
1F
100
AcDbEntity
  8
0
  6
Continuous
 62
     8
370
    18
100
AcDbCircle
 10
1192.3821278506
 20
1039.1373751018
 30
0.0
 40
13.36873667929809
100
AcDbArc
 50
266.2557918319
 51
279.1541892989
  0
LINE
  5
355
330
1F
100
AcDbEntity
  8
0
  6
Continuous
 62
     8
370
    18
100
AcDbLine
 10
984.5077799216
 20
1025.6270952337
 30
0.0
 11
1191.5081132608
 21
1025.6270952337
 31
0.0
  0
LINE
  5
356
330
1F
100
AcDbEntity
  8
0
  6
Continuous
 62
     8
370
    18
100
AcDbLine
 10
1357.5074465823
 20
1025.6270952337
 30
0.0
 11
1564.5077799216
 21
1025.6270952337
 31
0.0
  0
LINE
  5
357
330
1F
100
AcDbEntity
  8
0
  6
Continuous
 62
     8
370
    18
100
AcDbLine
 10
1221.5077799216
 20
998.6837880213
 30
0.0
 11
1221.5077799216
 21
996.4337880213
 31
0.0
  0
LINE
  5
358
330
1F
100
AcDbEntity
  8
0
  6
Continuous
 62
     8
370
    18
100
AcDbLine
 10
1327.5077799216
 20
998.6837880213
 30
0.0
 11
1327.5077799216
 21
996.4337880213
 31
0.0
  0
LINE
  5
359
330
1F
100
AcDbEntity
  8
0
  6
Continuous
 62
     8
370
    18
100
AcDbLine
 10
1221.5077799216
 20
1054.9337880213
 30
0.0
 11
1221.5077799216
 21
1052.6837880213
 31
0.0
  0
LINE
  5
35A
330
1F
100
AcDbEntity
  8
0
  6
Continuous
 62
     8
370
    18
100
AcDbLine
 10
1221.5077799216
 20
1054.9395722199
 30
0.0
 11
1221.5077799216
 21
1054.9337880213
 31
0.0
  0
LINE
  5
35B
330
1F
100
AcDbEntity
  8
0
  6
Continuous
 62
     8
370
    18
100
AcDbLine
 10
1327.5077799216
 20
1054.9337880213
 30
0.0
 11
1327.5077799216
 21
1052.6837880213
 31
0.0
  0
LINE
  5
35C
330
1F
100
AcDbEntity
  8
0
  6
Continuous
 62
     8
370
    18
100
AcDbLine
 10
1327.5077799216
 20
1054.9395722199
 30
0.0
 11
1327.5077799216
 21
1054.9337880213
 31
0.0
  0
LINE
  5
35D
330
1F
100
AcDbEntity
  8
0
  6
Continuous
 62
     8
370
    18
100
AcDbLine
 10
1221.5077799216
 20
996.4280038227
 30
0.0
 11
1221.5077799216
 21
996.4337880213
 31
0.0
  0
LINE
  5
35E
330
1F
100
AcDbEntity
  8
0
  6
Continuous
 62
     8
370
    18
100
AcDbLine
 10
1327.5077799216
 20
996.4280038227
 30
0.0
 11
1327.5077799216
 21
996.4337880213
 31
0.0
  0
SPLINE
  5
35F
330
1F
100
AcDbEntity
  8
0
  6
Continuous
 62
     8
370
    18
100
AcDbSpline
210
0.0
220
0.0
230
1.0
 70
     8
 71
     3
 72
     9
 73
     5
 74
     0
 42
0.000000001
 43
0.00000001
 40
0.0
 40
0.0
 40
0.0
 40
0.0
 40
0.1546895589938863
 40
1.0
 40
1.0
 40
1.0
 40
1.0
 10
1327.391048738923
 20
1006.952214567282
 30
0.0
 10
1327.147996282345
 20
1007.024889102284
 30
0.0
 10
1325.576768992289
 20
1007.494698024586
 30
0.0
 10
1324.152651083463
 20
1008.310976053635
 30
0.0
 10
1322.948829345908
 20
1009.000984394354
 30
0.0
  0
ARC
  5
360
330
1F
100
AcDbEntity
  8
0
  6
Continuous
 62
     8
370
    18
100
AcDbCircle
 10
1321.4924126691
 20
1010.4473143795
 30
0.0
 40
2.052564240814167
100
AcDbArc
 50
315.1990950652
 51
348.3527908007
  0
SPLINE
  5
361
330
1F
100
AcDbEntity
  8
0
  6
Continuous
 62
     8
370
    18
100
AcDbSpline
210
0.0
220
0.0
230
1.0
 70
     8
 71
     3
 72
     9
 73
     5
 74
     0
 42
0.000000001
 43
0.00000001
 40
0.0
 40
0.0
 40
0.0
 40
0.0
 40
0.1546895589938862
 40
1.0
 40
1.0
 40
1.0
 40
1.0
 10
1221.624511104244
 20
1044.415361475249
 30
0.0
 10
1221.867563560822
 20
1044.342686940247
 30
0.0
 10
1223.438790850878
 20
1043.872878017945
 30
0.0
 10
1224.862908759704
 20
1043.056599988896
 30
0.0
 10
1226.066730497259
 20
1042.366591648177
 30
0.0
  0
ARC
  5
362
330
1F
100
AcDbEntity
  8
0
  6
Continuous
 62
     8
370
    18
100
AcDbCircle
 10
1227.5231471741
 20
1040.920261663
 30
0.0
 40
2.05256424081586
100
AcDbArc
 50
135.1990950652
 51
168.3527908007
  0
ARC
  5
363
330
1F
100
AcDbEntity
  8
0
  6
Continuous
 62
     8
370
    18
100
AcDbCircle
 10
1321.4924126691
 20
1040.920261663
 30
0.0
 40
2.052564240812893
100
AcDbArc
 50
11.6472091992
 51
44.8009049348
  0
SPLINE
  5
364
330
1F
100
AcDbEntity
  8
0
  6
Continuous
 62
     8
370
    18
100
AcDbSpline
210
0.0
220
0.0
230
1.0
 70
     8
 71
     3
 72
     9
 73
     5
 74
     0
 42
0.000000001
 43
0.00000001
 40
0.0
 40
0.0
 40
0.0
 40
0.0
 40
0.1546895589938814
 40
1.0
 40
1.0
 40
1.0
 40
1.0
 10
1327.391048738923
 20
1044.41536147525
 30
0.0
 10
1327.147996282345
 20
1044.342686940248
 30
0.0
 10
1325.576768992289
 20
1043.872878017946
 30
0.0
 10
1324.152651083463
 20
1043.056599988897
 30
0.0
 10
1322.948829345908
 20
1042.366591648177
 30
0.0
  0
ARC
  5
365
330
1F
100
AcDbEntity
  8
0
  6
Continuous
 62
     8
370
    18
100
AcDbCircle
 10
1227.5231471741
 20
1010.4473143795
 30
0.0
 40
2.052564240816261
100
AcDbArc
 50
191.6472091993
 51
224.8009049348
  0
SPLINE
  5
366
330
1F
100
AcDbEntity
  8
0
  6
Continuous
 62
     8
370
    18
100
AcDbSpline
210
0.0
220
0.0
230
1.0
 70
     8
 71
     3
 72
     9
 73
     5
 74
     0
 42
0.000000001
 43
0.00000001
 40
0.0
 40
0.0
 40
0.0
 40
0.0
 40
0.1546895589938815
 40
1.0
 40
1.0
 40
1.0
 40
1.0
 10
1221.624511104244
 20
1006.952214567281
 30
0.0
 10
1221.867563560822
 20
1007.024889102283
 30
0.0
 10
1223.438790850878
 20
1007.494698024585
 30
0.0
 10
1224.862908759704
 20
1008.310976053634
 30
0.0
 10
1226.066730497259
 20
1009.000984394354
 30
0.0
  0
ARC
  5
367
330
1F
100
AcDbEntity
  8
0
  6
Continuous
 62
     8
370
    18
100
AcDbCircle
 10
1320.5077799216
 20
1025.6837880213
 30
0.0
 40
19.99999999999989
100
AcDbArc
 50
270.0
 51
347.5224163016
  0
LINE
  5
368
330
1F
100
AcDbEntity
  8
0
  6
Continuous
 62
     8
370
    18
100
AcDbLine
 10
1320.5077799216
 20
1012.9711372344
 30
0.0
 11
1320.5077799216
 21
1005.6837880213
 31
0.0
  0
LINE
  5
369
330
1F
100
AcDbEntity
  8
0
  6
Continuous
 62
     8
370
    18
100
AcDbLine
 10
1320.5077799216
 20
1038.3964388082
 30
0.0
 11
1320.5077799216
 21
1045.6837880213
 31
0.0
  0
ARC
  5
36A
330
1F
100
AcDbEntity
  8
0
  6
Continuous
 62
     8
370
    18
100
AcDbCircle
 10
1320.5077799216
 20
1025.6837880213
 30
0.0
 40
19.99999999999955
100
AcDbArc
 50
12.4775836984
 51
90.0
  0
SPLINE
  5
36B
330
1F
100
AcDbEntity
  8
0
  6
Continuous
 62
     8
370
    18
100
AcDbSpline
210
0.0
220
0.0
230
1.0
 70
     8
 71
     3
 72
    14
 73
    10
 74
     0
 42
0.000000001
 43
0.00000001
 40
0.0
 40
0.0
 40
0.0
 40
0.0
 40
0.1114289230413363
 40
0.4958785649679753
 40
0.704655530561827
 40
0.8301760374257591
 40
0.912101879865918
 40
0.9942797082137396
 40
1.0
 40
1.0
 40
1.0
 40
1.0
 10
1322.948829345908
 20
1042.366591648177
 30
0.0
 10
1322.829438300273
 20
1042.284259282928
 30
0.0
 10
1322.298126870852
 20
1041.91786558535
 30
0.0
 10
1321.623835347497
 20
1041.285094434632
 30
0.0
 10
1321.165971559735
 20
1040.494109919932
 30
0.0
 10
1321.081513809401
 20
1039.983915186069
 30
0.0
 10
1321.163978102254
 20
1039.639586580405
 30
0.0
 10
1321.283685045876
 20
1039.461886859672
 30
0.0
 10
1321.364396319082
 20
1039.386504290249
 30
0.0
 10
1321.369648900508
 20
1039.38159849372
 30
0.0
  0
SPLINE
  5
36C
330
1F
100
AcDbEntity
  8
0
  6
Continuous
 62
     8
370
    18
100
AcDbSpline
210
0.0
220
0.0
230
1.0
 70
     8
 71
     3
 72
    14
 73
    10
 74
     0
 42
0.000000001
 43
0.00000001
 40
0.0
 40
0.0
 40
0.0
 40
0.0
 40
0.1114289230413326
 40
0.4958785649680148
 40
0.7046555305618274
 40
0.830176037425751
 40
0.9121018798659072
 40
0.9942797082137604
 40
1.0
 40
1.0
 40
1.0
 40
1.0
 10
1322.948829345908
 20
1009.000984394354
 30
0.0
 10
1322.829438300273
 20
1009.083316759604
 30
0.0
 10
1322.298126870851
 20
1009.449710457181
 30
0.0
 10
1321.623835347497
 20
1010.0824816079
 30
0.0
 10
1321.165971559735
 20
1010.8734661226
 30
0.0
 10
1321.081513809401
 20
1011.383660856463
 30
0.0
 10
1321.163978102254
 20
1011.727989462127
 30
0.0
 10
1321.283685045876
 20
1011.90568918286
 30
0.0
 10
1321.364396319082
 20
1011.981071752283
 30
0.0
 10
1321.369648900508
 20
1011.985977548812
 30
0.0
  0
SPLINE
  5
36D
330
1F
100
AcDbEntity
  8
0
  6
Continuous
 62
     8
370
    18
100
AcDbSpline
210
0.0
220
0.0
230
1.0
 70
     8
 71
     3
 72
    14
 73
    10
 74
     0
 42
0.000000001
 43
0.00000001
 40
0.0
 40
0.0
 40
0.0
 40
0.0
 40
0.1114289230413336
 40
0.4958785649679889
 40
0.7046555305618408
 40
0.8301760374257655
 40
0.912101879865922
 40
0.9942797082137588
 40
1.0
 40
1.0
 40
1.0
 40
1.0
 10
1226.066730497259
 20
1009.000984394354
 30
0.0
 10
1226.186121542895
 20
1009.083316759603
 30
0.0
 10
1226.717432972316
 20
1009.449710457181
 30
0.0
 10
1227.39172449567
 20
1010.082481607899
 30
0.0
 10
1227.849588283432
 20
1010.8734661226
 30
0.0
 10
1227.934046033766
 20
1011.383660856462
 30
0.0
 10
1227.851581740913
 20
1011.727989462127
 30
0.0
 10
1227.731874797291
 20
1011.905689182859
 30
0.0
 10
1227.651163524085
 20
1011.981071752282
 30
0.0
 10
1227.645910942659
 20
1011.985977548812
 30
0.0
  0
SPLINE
  5
36E
330
1F
100
AcDbEntity
  8
0
  6
Continuous
 62
     8
370
    18
100
AcDbSpline
210
0.0
220
0.0
230
1.0
 70
     8
 71
     3
 72
    14
 73
    10
 74
     0
 42
0.000000001
 43
0.00000001
 40
0.0
 40
0.0
 40
0.0
 40
0.0
 40
0.1114289230413354
 40
0.4958785649680002
 40
0.7046555305618128
 40
0.8301760374257439
 40
0.9121018798659024
 40
0.9942797082137406
 40
1.0
 40
1.0
 40
1.0
 40
1.0
 10
1226.066730497259
 20
1042.366591648177
 30
0.0
 10
1226.186121542895
 20
1042.284259282927
 30
0.0
 10
1226.717432972316
 20
1041.91786558535
 30
0.0
 10
1227.39172449567
 20
1041.285094434631
 30
0.0
 10
1227.849588283432
 20
1040.494109919931
 30
0.0
 10
1227.934046033766
 20
1039.983915186069
 30
0.0
 10
1227.851581740914
 20
1039.639586580404
 30
0.0
 10
1227.731874797291
 20
1039.461886859671
 30
0.0
 10
1227.651163524085
 20
1039.386504290248
 30
0.0
 10
1227.645910942659
 20
1039.381598493719
 30
0.0
  0
ARC
  5
36F
330
1F
100
AcDbEntity
  8
0
  6
Continuous
 62
     8
370
    18
100
AcDbCircle
 10
1228.5077799216
 20
1025.6837880213
 30
0.0
 40
20.00000000000039
100
AcDbArc
 50
90.0
 51
167.5224163016
  0
LINE
  5
370
330
1F
100
AcDbEntity
  8
0
  6
Continuous
 62
     8
370
    18
100
AcDbLine
 10
1228.5077799216
 20
1038.3964388082
 30
0.0
 11
1228.5077799216
 21
1045.6837880213
 31
0.0
  0
LINE
  5
371
330
1F
100
AcDbEntity
  8
0
  6
Continuous
 62
     8
370
    18
100
AcDbLine
 10
1228.5077799216
 20
1012.9711372344
 30
0.0
 11
1228.5077799216
 21
1005.6837880213
 31
0.0
  0
ARC
  5
372
330
1F
100
AcDbEntity
  8
0
  6
Continuous
 62
     8
370
    18
100
AcDbCircle
 10
1228.5077799216
 20
1025.6837880213
 30
0.0
 40
20.00000000000044
100
AcDbArc
 50
192.4775836984
 51
270.0
  0
SPLINE
  5
373
330
1F
100
AcDbEntity
  8
0
  6
Continuous
 62
     8
370
    18
100
AcDbSpline
210
0.0
220
0.0
230
1.0
 70
     8
 71
     3
 72
    18
 73
    14
 74
     0
 42
0.000000001
 43
0.00000001
 40
0.0
 40
0.0
 40
0.0
 40
0.0
 40
0.0000017576874324
 40
0.0364929107765221
 40
0.1834197338049793
 40
0.2877695105078299
 40
0.39214410254538
 40
0.4993591877198457
 40
0.6063886859551783
 40
0.713428438380986
 40
0.8178270444226947
 40
0.9079734932070049
 40
0.9999999999999999
 40
0.9999999999999999
 40
0.9999999999999999
 40
0.9999999999999999
 10
1327.507779921584
 20
1047.429500413255
 30
0.0
 10
1327.507799908078
 20
1047.429500413047
 30
0.0
 10
1327.922757273405
 20
1047.429496091505
 30
0.0
 10
1330.007966097081
 20
1047.367111689121
 30
0.0
 10
1333.264915044675
 20
1046.797946380703
 30
0.0
 10
1337.052235396695
 20
1045.333006049848
 30
0.0
 10
1340.151472437271
 20
1043.484710526833
 30
0.0
 10
1342.944470341479
 20
1041.150418466136
 30
0.0
 10
1345.3080393926
 20
1038.341525683898
 30
0.0
 10
1347.163276288487
 20
1035.21137347927
 30
0.0
 10
1348.399207200468
 20
1031.998583259106
 30
0.0
 10
1349.123590603586
 20
1028.804660218331
 30
0.0
 10
1349.208021457384
 20
1026.731211542671
 30
0.0
 10
1349.250672555161
 20
1025.683788021266
 30
0.0
  0
LINE
  5
374
330
1F
100
AcDbEntity
  8
0
  6
Continuous
 62
     8
370
    18
100
AcDbLine
 10
1327.5077799216
 20
1047.4295004133
 30
0.0
 11
1327.5077803186
 21
1047.4337880213
 31
0.0
  0
LINE
  5
375
330
1F
100
AcDbEntity
  8
0
  6
Continuous
 62
     8
370
    18
100
AcDbLine
 10
1349.2506725552
 20
1025.6837880213
 30
0.0
 11
1349.2462326121
 21
1025.6837880213
 31
0.0
  0
LINE
  5
376
330
1F
100
AcDbEntity
  8
0
  6
Continuous
 62
     8
370
    18
100
AcDbLine
 10
1327.5077799216
 20
1047.4250604888
 30
0.0
 11
1327.5077799216
 21
1047.4295004133
 31
0.0
  0
SPLINE
  5
377
330
1F
100
AcDbEntity
  8
0
  6
Continuous
 62
     8
370
    18
100
AcDbSpline
210
0.0
220
0.0
230
1.0
 70
     8
 71
     3
 72
    18
 73
    14
 74
     0
 42
0.000000001
 43
0.00000001
 40
0.0
 40
0.0
 40
0.0
 40
0.0
 40
0.0000017576874324
 40
0.036492910776522
 40
0.1834197338049784
 40
0.2877695105078349
 40
0.3921441025453847
 40
0.4993591877198525
 40
0.6063886859551846
 40
0.7134284383809919
 40
0.8178270444226962
 40
0.907973493207006
 40
1.0
 40
1.0
 40
1.0
 40
1.0
 10
1221.507779921583
 20
1003.938075629276
 30
0.0
 10
1221.507759935089
 20
1003.938075629484
 30
0.0
 10
1221.092802569762
 20
1003.938079951025
 30
0.0
 10
1219.007593746087
 20
1004.000464353412
 30
0.0
 10
1215.750644798492
 20
1004.569629661827
 30
0.0
 10
1211.963324446472
 20
1006.034569992683
 30
0.0
 10
1208.864087405895
 20
1007.882865515698
 30
0.0
 10
1206.071089501688
 20
1010.217157576395
 30
0.0
 10
1203.707520450566
 20
1013.026050358634
 30
0.0
 10
1201.85228355468
 20
1016.156202563261
 30
0.0
 10
1200.616352642699
 20
1019.368992783426
 30
0.0
 10
1199.89196923958
 20
1022.5629158242
 30
0.0
 10
1199.807538385782
 20
1024.63636449986
 30
0.0
 10
1199.764887288006
 20
1025.683788021265
 30
0.0
  0
LINE
  5
378
330
1F
100
AcDbEntity
  8
0
  6
Continuous
 62
     8
370
    18
100
AcDbLine
 10
1221.5077799216
 20
1003.9380756293
 30
0.0
 11
1221.5077795245
 21
1003.9337880213
 31
0.0
  0
LINE
  5
379
330
1F
100
AcDbEntity
  8
0
  6
Continuous
 62
     8
370
    18
100
AcDbLine
 10
1199.764887288
 20
1025.6837880213
 30
0.0
 11
1199.7693272311
 21
1025.6837880213
 31
0.0
  0
LINE
  5
37A
330
1F
100
AcDbEntity
  8
0
  6
Continuous
 62
     8
370
    18
100
AcDbLine
 10
1221.5077799216
 20
1003.9425155537
 30
0.0
 11
1221.5077799216
 21
1003.9380756293
 31
0.0
  0
SPLINE
  5
37B
330
1F
100
AcDbEntity
  8
0
  6
Continuous
 62
     8
370
    18
100
AcDbSpline
210
0.0
220
0.0
230
1.0
 70
     8
 71
     3
 72
    18
 73
    14
 74
     0
 42
0.000000001
 43
0.00000001
 40
0.0
 40
0.0
 40
0.0
 40
0.0
 40
0.0000017576874324
 40
0.0364929107765215
 40
0.1834197338049761
 40
0.2877695105078374
 40
0.3921441025453861
 40
0.4993591877198563
 40
0.606388685955187
 40
0.713428438380993
 40
0.8178270444226975
 40
0.9079734932070072
 40
1.0
 40
1.0
 40
1.0
 40
1.0
 10
1221.507779921584
 20
1047.429500413254
 30
0.0
 10
1221.50775993509
 20
1047.429500413046
 30
0.0
 10
1221.09280256981
 20
1047.429496091505
 30
0.0
 10
1219.007593745993
 20
1047.367111689118
 30
0.0
 10
1215.750644798518
 20
1046.797946380703
 30
0.0
 10
1211.963324446466
 20
1045.333006049847
 30
0.0
 10
1208.864087405896
 20
1043.484710526832
 30
0.0
 10
1206.071089501687
 20
1041.150418466136
 30
0.0
 10
1203.707520450566
 20
1038.341525683897
 30
0.0
 10
1201.85228355468
 20
1035.211373479269
 30
0.0
 10
1200.616352642699
 20
1031.998583259105
 30
0.0
 10
1199.89196923958
 20
1028.80466021833
 30
0.0
 10
1199.807538385782
 20
1026.73121154267
 30
0.0
 10
1199.764887288006
 20
1025.683788021265
 30
0.0
  0
LINE
  5
37C
330
1F
100
AcDbEntity
  8
0
  6
Continuous
 62
     8
370
    18
100
AcDbLine
 10
1221.5077799216
 20
1047.4295004133
 30
0.0
 11
1221.5077795245
 21
1047.4337880213
 31
0.0
  0
LINE
  5
37D
330
1F
100
AcDbEntity
  8
0
  6
Continuous
 62
     8
370
    18
100
AcDbLine
 10
1221.5077799216
 20
1047.4250604888
 30
0.0
 11
1221.5077799216
 21
1047.4295004133
 31
0.0
  0
SPLINE
  5
37E
330
1F
100
AcDbEntity
  8
0
  6
Continuous
 62
     8
370
    18
100
AcDbSpline
210
0.0
220
0.0
230
1.0
 70
     8
 71
     3
 72
    18
 73
    14
 74
     0
 42
0.000000001
 43
0.00000001
 40
0.0
 40
0.0
 40
0.0
 40
0.0
 40
0.0000017576874324
 40
0.0364929107765218
 40
0.1834197338049776
 40
0.2877695105078332
 40
0.3921441025453824
 40
0.4993591877198565
 40
0.6063886859551881
 40
0.713428438380995
 40
0.8178270444226964
 40
0.9079734932070072
 40
1.0
 40
1.0
 40
1.0
 40
1.0
 10
1327.507779921583
 20
1003.938075629277
 30
0.0
 10
1327.507799908077
 20
1003.938075629485
 30
0.0
 10
1327.922757273356
 20
1003.938079951049
 30
0.0
 10
1330.007966097174
 20
1004.000464353366
 30
0.0
 10
1333.264915044649
 20
1004.569629661841
 30
0.0
 10
1337.0522353967
 20
1006.034569992681
 30
0.0
 10
1340.15147243727
 20
1007.882865515699
 30
0.0
 10
1342.944470341479
 20
1010.217157576395
 30
0.0
 10
1345.3080393926
 20
1013.026050358634
 30
0.0
 10
1347.163276288487
 20
1016.156202563262
 30
0.0
 10
1348.399207200468
 20
1019.368992783426
 30
0.0
 10
1349.123590603586
 20
1022.562915824201
 30
0.0
 10
1349.208021457384
 20
1024.636364499861
 30
0.0
 10
1349.250672555161
 20
1025.683788021266
 30
0.0
  0
LINE
  5
37F
330
1F
100
AcDbEntity
  8
0
  6
Continuous
 62
     8
370
    18
100
AcDbLine
 10
1327.5077799216
 20
1003.9380756293
 30
0.0
 11
1327.5077803186
 21
1003.9337880213
 31
0.0
  0
LINE
  5
380
330
1F
100
AcDbEntity
  8
0
  6
Continuous
 62
     8
370
    18
100
AcDbLine
 10
1327.5077799216
 20
1003.9425155537
 30
0.0
 11
1327.5077799216
 21
1003.9380756293
 31
0.0
  0
LINE
  5
381
330
1F
100
AcDbEntity
  8
0
  6
Continuous
 62
     8
370
    18
100
AcDbLine
 10
1228.5077799216
 20
1045.6837880213
 30
0.0
 11
1320.5077799216
 21
1045.6837880213
 31
0.0
  0
LINE
  5
382
330
1F
100
AcDbEntity
  8
0
  6
Continuous
 62
     8
370
    18
100
AcDbLine
 10
1228.5077799216
 20
1005.6837880213
 30
0.0
 11
1320.5077799216
 21
1005.6837880213
 31
0.0
  0
LINE
  5
383
330
1F
100
AcDbEntity
  8
0
  6
Continuous
 62
     8
370
    18
100
AcDbLine
 10
1221.5077799216
 20
1047.4295004133
 30
0.0
 11
1327.5077799216
 21
1047.4295004133
 31
0.0
  0
LINE
  5
384
330
1F
100
AcDbEntity
  8
0
  6
Continuous
 62
     8
370
    18
100
AcDbLine
 10
1221.5077799216
 20
1003.9380756293
 30
0.0
 11
1327.5077799216
 21
1003.9380756293
 31
0.0
  0
LINE
  5
385
330
1F
100
AcDbEntity
  8
0
  6
Continuous
 62
     8
370
    18
100
AcDbLine
 10
1327.5077799216
 20
1003.9337880213
 30
0.0
 11
1327.5077799216
 21
999.4337880213
 31
0.0
  0
LINE
  5
386
330
1F
100
AcDbEntity
  8
0
  6
Continuous
 62
     8
370
    18
100
AcDbLine
 10
1327.5077799216
 20
1047.4337880213
 30
0.0
 11
1327.5077799216
 21
1051.9337880213
 31
0.0
  0
ARC
  5
387
330
1F
100
AcDbEntity
  8
0
  6
Continuous
 62
     8
370
    18
100
AcDbCircle
 10
1327.5077799216
 20
1025.6837880213
 30
0.0
 40
26.24999999999955
100
AcDbArc
 50
270.0
 51
90.0
  0
LINE
  5
388
330
1F
100
AcDbEntity
  8
0
  6
Continuous
 62
     8
370
    18
100
AcDbLine
 10
1327.5077799216
 20
999.4337880213
 30
0.0
 11
1327.5077799216
 21
998.6837880213
 31
0.0
  0
LINE
  5
389
330
1F
100
AcDbEntity
  8
0
  6
Continuous
 62
     8
370
    18
100
AcDbLine
 10
1327.5077799216
 20
1051.9337880213
 30
0.0
 11
1327.5077799216
 21
1052.6837880213
 31
0.0
  0
LINE
  5
38A
330
1F
100
AcDbEntity
  8
0
  6
Continuous
 62
     8
370
    18
100
AcDbLine
 10
1221.5077799216
 20
1047.4337880213
 30
0.0
 11
1221.5077799216
 21
1051.9337880213
 31
0.0
  0
LINE
  5
38B
330
1F
100
AcDbEntity
  8
0
  6
Continuous
 62
     8
370
    18
100
AcDbLine
 10
1221.5077799216
 20
1051.9337880213
 30
0.0
 11
1327.5077799216
 21
1051.9337880213
 31
0.0
  0
LINE
  5
38C
330
1F
100
AcDbEntity
  8
0
  6
Continuous
 62
     8
370
    18
100
AcDbLine
 10
1221.5077799216
 20
1051.9337880213
 30
0.0
 11
1221.5077799216
 21
1052.6837880213
 31
0.0
  0
LINE
  5
38D
330
1F
100
AcDbEntity
  8
0
  6
Continuous
 62
     8
370
    18
100
AcDbLine
 10
1221.5077799216
 20
1003.9337880213
 30
0.0
 11
1221.5077799216
 21
999.4337880213
 31
0.0
  0
ARC
  5
38E
330
1F
100
AcDbEntity
  8
0
  6
Continuous
 62
     8
370
    18
100
AcDbCircle
 10
1221.5077799216
 20
1025.6837880213
 30
0.0
 40
26.24999999999977
100
AcDbArc
 50
90.0
 51
270.0
  0
LINE
  5
38F
330
1F
100
AcDbEntity
  8
0
  6
Continuous
 62
     8
370
    18
100
AcDbLine
 10
1221.5077799216
 20
999.4337880213
 30
0.0
 11
1221.5077799216
 21
998.6837880213
 31
0.0
  0
LINE
  5
390
330
1F
100
AcDbEntity
  8
0
  6
Continuous
 62
     8
370
    18
100
AcDbLine
 10
1221.5077799216
 20
999.4337880213
 30
0.0
 11
1327.5077799216
 21
999.4337880213
 31
0.0
  0
CIRCLE
  5
391
330
1F
100
AcDbEntity
  8
0
  6
Continuous
 62
     8
370
    18
100
AcDbCircle
 10
1274.5077799216
 20
1025.6837880213
 30
0.0
 40
3.548336454629521
  0
CIRCLE
  5
392
330
1F
100
AcDbEntity
  8
0
  6
Continuous
 62
     8
370
    18
100
AcDbCircle
 10
1274.5077799216
 20
1025.6837880213
 30
0.0
 40
5.614709433546409
  0
ARC
  5
393
330
1F
100
AcDbEntity
  8
0
  6
Continuous
 62
     8
370
    18
100
AcDbCircle
 10
1274.5077799216
 20
1025.6837880213
 30
0.0
 40
7.463480267439733
100
AcDbArc
 50
126.4944476701
 51
233.50555233
  0
ARC
  5
394
330
1F
100
AcDbEntity
  8
0
  6
Continuous
 62
     8
370
    18
100
AcDbCircle
 10
1274.5077799216
 20
1025.6837880213
 30
0.0
 40
7.463480267440004
100
AcDbArc
 50
306.49444767
 51
53.5055523299
  0
ARC
  5
395
330
1F
100
AcDbEntity
  8
0
  6
Continuous
 62
     8
370
    18
100
AcDbCircle
 10
1274.5077799216
 20
1025.6837880213
 30
0.0
 40
8.28496890136697
100
AcDbArc
 50
133.5974061618
 51
226.4025938382
  0
ARC
  5
396
330
1F
100
AcDbEntity
  8
0
  6
Continuous
 62
     8
370
    18
100
AcDbCircle
 10
1274.5077799216
 20
1025.6837880213
 30
0.0
 40
8.284968901367186
100
AcDbArc
 50
313.5974061618
 51
46.4025938382
  0
ENDSEC
  0
SECTION
  2
OBJECTS
  0
DICTIONARY
  5
C
330
0
100
AcDbDictionary
281
     1
  3
ACAD_GROUP
350
D
  3
ACAD_LAYOUT
350
1A
  3
ACAD_MLINESTYLE
350
17
  3
ACAD_PLOTSETTINGS
350
19
  3
ACAD_PLOTSTYLENAME
350
E
  3
ACAD_SCALELIST
350
47
  0
DICTIONARY
  5
D
102
{ACAD_REACTORS
330
C
102
}
330
C
100
AcDbDictionary
281
     1
  0
DICTIONARY
  5
1A
102
{ACAD_REACTORS
330
C
102
}
330
C
100
AcDbDictionary
281
     1
  3
Layout1
350
1E
  3
Layout2
350
26
  3
Model
350
22
  0
DICTIONARY
  5
17
102
{ACAD_REACTORS
330
C
102
}
330
C
100
AcDbDictionary
281
     1
  3
Standard
350
18
  0
DICTIONARY
  5
19
102
{ACAD_REACTORS
330
C
102
}
330
C
100
AcDbDictionary
281
     1
  0
ACDBDICTIONARYWDFLT
  5
E
102
{ACAD_REACTORS
330
C
102
}
330
C
100
AcDbDictionary
281
     1
  3
Normal
350
F
100
AcDbDictionaryWithDefault
340
F
  0
DICTIONARY
  5
47
102
{ACAD_REACTORS
330
C
102
}
330
C
100
AcDbDictionary
281
     1
  3
A0
350
48
  3
A1
350
49
  3
A2
350
4A
  3
A3
350
4B
  3
A4
350
4C
  3
A5
350
4D
  3
A6
350
4E
  3
A7
350
4F
  3
A8
350
50
  3
A9
350
51
  3
B0
350
52
  3
B1
350
53
  3
B2
350
54
  3
B3
350
55
  3
B4
350
56
  3
B5
350
57
  3
B6
350
58
  3
B7
350
59
  3
B8
350
5A
  3
B9
350
5B
  3
C0
350
5C
  3
C1
350
5D
  3
C2
350
5E
  3
C3
350
5F
  3
C4
350
60
  3
C5
350
61
  3
C6
350
62
  3
C7
350
63
  3
C8
350
64
  3
C9
350
65
  3
D0
350
66
  3
D1
350
67
  3
D2
350
68
  0
LAYOUT
  5
1E
102
{ACAD_REACTORS
330
1A
102
}
330
1A
100
AcDbPlotSettings
  1

  2
none_device
  4

  6

 40
0.0
 41
0.0
 42
0.0
 43
0.0
 44
0.0
 45
0.0
 46
0.0
 47
0.0
 48
0.0
 49
0.0
140
0.0
141
0.0
142
1.0
143
1.0
 70
   688
 72
     1
 73
     0
 74
     5
  7

 75
    16
147
1.0
148
0.0
149
0.0
100
AcDbLayout
  1
Layout1
 70
     1
 71
     1
 10
0.0
 20
0.0
 11
420.0
 21
297.0
 12
0.0
 22
0.0
 32
0.0
 14
1.0000000000E+20
 24
1.0000000000E+20
 34
1.0000000000E+20
 15
-1.0000000000E+20
 25
-1.0000000000E+20
 35
-1.0000000000E+20
146
0.0
 13
0.0
 23
0.0
 33
0.0
 16
1.0
 26
0.0
 36
0.0
 17
0.0
 27
1.0
 37
0.0
 76
     0
330
1B
  0
LAYOUT
  5
26
102
{ACAD_REACTORS
330
1A
102
}
330
1A
100
AcDbPlotSettings
  1

  2
none_device
  4

  6

 40
0.0
 41
0.0
 42
0.0
 43
0.0
 44
0.0
 45
0.0
 46
0.0
 47
0.0
 48
0.0
 49
0.0
140
0.0
141
0.0
142
1.0
143
1.0
 70
   688
 72
     1
 73
     0
 74
     5
  7

 75
    16
147
1.0
148
0.0
149
0.0
100
AcDbLayout
  1
Layout2
 70
     1
 71
     2
 10
0.0
 20
0.0
 11
0.0
 21
0.0
 12
0.0
 22
0.0
 32
0.0
 14
0.0
 24
0.0
 34
0.0
 15
0.0
 25
0.0
 35
0.0
146
0.0
 13
0.0
 23
0.0
 33
0.0
 16
1.0
 26
0.0
 36
0.0
 17
0.0
 27
1.0
 37
0.0
 76
     0
330
23
  0
LAYOUT
  5
22
102
{ACAD_REACTORS
330
1A
102
}
330
1A
100
AcDbPlotSettings
  1

  2
none_device
  4
Letter_(8.50_x_11.00_Inches)
  6

 40
6.35
 41
6.35
 42
6.35000508
 43
6.35000508
 44
215.9
 45
279.4
 46
0.0
 47
0.0
 48
0.0
 49
0.0
140
0.0
141
0.0
142
1.0
143
1.0
 70
  1712
 72
     1
 73
     0
 74
     0
  7

 75
     0
147
1.0
148
0.0
149
0.0
100
AcDbLayout
  1
Model
 70
     1
 71
     0
 10
0.0
 20
0.0
 11
2970.0
 21
2100.0
 12
0.0
 22
0.0
 32
0.0
 14
0.0
 24
0.0
 34
0.0
 15
2970.0
 25
2100.0
 35
0.0
146
0.0
 13
0.0
 23
0.0
 33
0.0
 16
1.0
 26
0.0
 36
0.0
 17
0.0
 27
1.0
 37
0.0
 76
     0
330
1F
331
29
  0
MLINESTYLE
  5
18
102
{ACAD_REACTORS
330
17
102
}
330
17
100
AcDbMlineStyle
  2
Standard
 70
     0
  3

 62
   256
 51
90.0
 52
90.0
 71
     2
 49
0.5
 62
   256
  6
BYLAYER
 49
-0.5
 62
   256
  6
BYLAYER
  0
ACDBPLACEHOLDER
  5
F
102
{ACAD_REACTORS
330
E
102
}
330
E
  0
SCALE
  5
48
102
{ACAD_REACTORS
330
47
102
}
330
47
100
AcDbScale
 70
     0
300
1:1
140
1.0
141
1.0
290
     1
  0
SCALE
  5
49
102
{ACAD_REACTORS
330
47
102
}
330
47
100
AcDbScale
 70
     0
300
1:2
140
1.0
141
2.0
290
     0
  0
SCALE
  5
4A
102
{ACAD_REACTORS
330
47
102
}
330
47
100
AcDbScale
 70
     0
300
1:4
140
1.0
141
4.0
290
     0
  0
SCALE
  5
4B
102
{ACAD_REACTORS
330
47
102
}
330
47
100
AcDbScale
 70
     0
300
1:5
140
1.0
141
5.0
290
     0
  0
SCALE
  5
4C
102
{ACAD_REACTORS
330
47
102
}
330
47
100
AcDbScale
 70
     0
300
1:8
140
1.0
141
8.0
290
     0
  0
SCALE
  5
4D
102
{ACAD_REACTORS
330
47
102
}
330
47
100
AcDbScale
 70
     0
300
1:10
140
1.0
141
10.0
290
     0
  0
SCALE
  5
4E
102
{ACAD_REACTORS
330
47
102
}
330
47
100
AcDbScale
 70
     0
300
1:16
140
1.0
141
16.0
290
     0
  0
SCALE
  5
4F
102
{ACAD_REACTORS
330
47
102
}
330
47
100
AcDbScale
 70
     0
300
1:20
140
1.0
141
20.0
290
     0
  0
SCALE
  5
50
102
{ACAD_REACTORS
330
47
102
}
330
47
100
AcDbScale
 70
     0
300
1:30
140
1.0
141
30.0
290
     0
  0
SCALE
  5
51
102
{ACAD_REACTORS
330
47
102
}
330
47
100
AcDbScale
 70
     0
300
1:40
140
1.0
141
40.0
290
     0
  0
SCALE
  5
52
102
{ACAD_REACTORS
330
47
102
}
330
47
100
AcDbScale
 70
     0
300
1:50
140
1.0
141
50.0
290
     0
  0
SCALE
  5
53
102
{ACAD_REACTORS
330
47
102
}
330
47
100
AcDbScale
 70
     0
300
1:100
140
1.0
141
100.0
290
     0
  0
SCALE
  5
54
102
{ACAD_REACTORS
330
47
102
}
330
47
100
AcDbScale
 70
     0
300
2:1
140
2.0
141
1.0
290
     0
  0
SCALE
  5
55
102
{ACAD_REACTORS
330
47
102
}
330
47
100
AcDbScale
 70
     0
300
4:1
140
4.0
141
1.0
290
     0
  0
SCALE
  5
56
102
{ACAD_REACTORS
330
47
102
}
330
47
100
AcDbScale
 70
     0
300
8:1
140
8.0
141
1.0
290
     0
  0
SCALE
  5
57
102
{ACAD_REACTORS
330
47
102
}
330
47
100
AcDbScale
 70
     0
300
10:1
140
10.0
141
1.0
290
     0
  0
SCALE
  5
58
102
{ACAD_REACTORS
330
47
102
}
330
47
100
AcDbScale
 70
     0
300
100:1
140
100.0
141
1.0
290
     0
  0
SCALE
  5
59
102
{ACAD_REACTORS
330
47
102
}
330
47
100
AcDbScale
 70
     0
300
1/128" = 1'-0"
140
0.0078125
141
12.0
290
     0
  0
SCALE
  5
5A
102
{ACAD_REACTORS
330
47
102
}
330
47
100
AcDbScale
 70
     0
300
1/64" = 1'-0"
140
0.015625
141
12.0
290
     0
  0
SCALE
  5
5B
102
{ACAD_REACTORS
330
47
102
}
330
47
100
AcDbScale
 70
     0
300
1/32" = 1'-0"
140
0.03125
141
12.0
290
     0
  0
SCALE
  5
5C
102
{ACAD_REACTORS
330
47
102
}
330
47
100
AcDbScale
 70
     0
300
1/16" = 1'-0"
140
0.0625
141
12.0
290
     0
  0
SCALE
  5
5D
102
{ACAD_REACTORS
330
47
102
}
330
47
100
AcDbScale
 70
     0
300
3/32" = 1'-0"
140
0.09375
141
12.0
290
     0
  0
SCALE
  5
5E
102
{ACAD_REACTORS
330
47
102
}
330
47
100
AcDbScale
 70
     0
300
1/8" = 1'-0"
140
0.125
141
12.0
290
     0
  0
SCALE
  5
5F
102
{ACAD_REACTORS
330
47
102
}
330
47
100
AcDbScale
 70
     0
300
3/16" = 1'-0"
140
0.1875
141
12.0
290
     0
  0
SCALE
  5
60
102
{ACAD_REACTORS
330
47
102
}
330
47
100
AcDbScale
 70
     0
300
1/4" = 1'-0"
140
0.25
141
12.0
290
     0
  0
SCALE
  5
61
102
{ACAD_REACTORS
330
47
102
}
330
47
100
AcDbScale
 70
     0
300
3/8" = 1'-0"
140
0.375
141
12.0
290
     0
  0
SCALE
  5
62
102
{ACAD_REACTORS
330
47
102
}
330
47
100
AcDbScale
 70
     0
300
1/2" = 1'-0"
140
0.5
141
12.0
290
     0
  0
SCALE
  5
63
102
{ACAD_REACTORS
330
47
102
}
330
47
100
AcDbScale
 70
     0
300
3/4" = 1'-0"
140
0.75
141
12.0
290
     0
  0
SCALE
  5
64
102
{ACAD_REACTORS
330
47
102
}
330
47
100
AcDbScale
 70
     0
300
1" = 1'-0"
140
1.0
141
12.0
290
     0
  0
SCALE
  5
65
102
{ACAD_REACTORS
330
47
102
}
330
47
100
AcDbScale
 70
     0
300
1-1/2" = 1'-0"
140
1.5
141
12.0
290
     0
  0
SCALE
  5
66
102
{ACAD_REACTORS
330
47
102
}
330
47
100
AcDbScale
 70
     0
300
3" = 1'-0"
140
3.0
141
12.0
290
     0
  0
SCALE
  5
67
102
{ACAD_REACTORS
330
47
102
}
330
47
100
AcDbScale
 70
     0
300
6" = 1'-0"
140
6.0
141
12.0
290
     0
  0
SCALE
  5
68
102
{ACAD_REACTORS
330
47
102
}
330
47
100
AcDbScale
 70
     0
300
1'-0" = 1'-0"
140
12.0
141
12.0
290
     0
  0
ENDSEC
  0
EOF
